  0
SECTION
  2
HEADER
  9
$ACADVER
  1
AC1006
  9
$EXTMIN
 10
-1.859780
 20
-3.534000
  9
$EXTMAX
 10
1.852909
 20
3.534000
  9
$LTSCALE
 40
0.000394
  9
$PDMODE
 70
    35
  9
$PDSIZE
 40
0.000315
  0
ENDSEC
  0
SECTION
  2
TABLES
  0
TABLE
  2
LTYPE
 70
     9
  0
LTYPE
  2
CONTINUOUS
 70
    64
  3
Solid line
 72
    65
 73
     0
 40
0.000000
  0
LTYPE
  2
DASHED
 70
    64
  3
__ __ __ __ __ __ __ __ __ __ __ __ __ __ __
 72
    65
 73
     2
 40
0.000003
 49
0.000002
 49
-0.000001
  0
LTYPE
  2
HIDDEN
 70
    64
  3
 _ _ _ _ _ _ _ _ _ _ _ _ _ _ _ _ _ _ _ _ _ _
 72
    65
 73
     2
 40
0.000001
 49
0.000001
 49
-0.000000
  0
LTYPE
  2
CENTER
 70
    64
  3
____ _ ____ _ ____ _ ____ _ ____ _ ____ _ ____
 72
    65
 73
     4
 40
0.000008
 49
0.000005
 49
-0.000001
 49
0.000001
 49
-0.000001
  0
LTYPE
  2
PHANTOM
 70
    64
  3
_____ _ _ _____ _ _ _____ _ _ _____ _ _ ____
 72
    65
 73
     6
 40
0.000010
 49
0.000005
 49
-0.000001
 49
0.000001
 49
-0.000001
 49
0.000001
 49
-0.000001
  0
LTYPE
  2
DOT
 70
    64
  3
...............................................
 72
    65
 73
     2
 40
0.000001
 49
0.000000
 49
-0.000001
  0
LTYPE
  2
DASHDOT
 70
    64
  3
__ . __ . __ . __ . __ . __ . __ . __ . __ . __
 72
    65
 73
     4
 40
0.000004
 49
0.000002
 49
-0.000001
 49
0.000000
 49
-0.000001
  0
LTYPE
  2
BORDER
 70
    64
  3
__ __ . __ __ . __ __ . __ __ . __ __ . __ __
 72
    65
 73
     6
 40
0.000007
 49
0.000002
 49
-0.000001
 49
0.000002
 49
-0.000001
 49
0.000000
 49
-0.000001
  0
LTYPE
  2
DIVIDE
 70
    64
  3
__ . . __ . . __ . . __ . . __ . . __ . . __
 72
    65
 73
     6
 40
0.000005
 49
0.000002
 49
-0.000001
 49
0.000000
 49
-0.000001
 49
0.000000
 49
-0.000001
  0
LTYPE
  2
DOTDOT
 70
    64
  3
 . .  . .  . .  . .  . .  . . 
 72
    65
 73
     5
 40
0.000002
 49
-0.000001
 49
0.000000
 49
-0.000001
 49
0.000000
 49
-0.000001
  0
ENDTAB
  0
TABLE
  2
STYLE
 70
     0
  0
ENDTAB
  0
TABLE
  2
LAYER
 70
     3
  0
LAYER
  2
FOREGROUND
 70
    64
 62
     7
  6
CONTINUOUS
  0
LAYER
  2
BACKGROUND
 70
    65
 62
    -7
  6
CONTINUOUS
  0
LAYER
  2
PLAN_1
 70
    64
 62
     7
  6
CONTINUOUS
  0
ENDTAB
  0
ENDSEC
  0
SECTION
  2
ENTITIES
  0
POLYLINE
  8
PLAN_1
  6
CONTINUOUS
 66
     1
 40
0.003000
 41
0.003000
  0
VERTEX
  8
PLAN_1
  6
CONTINUOUS
 10
-0.023205
 20
-3.499102
  0
VERTEX
  8
PLAN_1
  6
CONTINUOUS
 10
-0.180024
 20
-3.499102
  0
VERTEX
  8
PLAN_1
  6
CONTINUOUS
 10
-0.180024
 20
-3.477016
  0
VERTEX
  8
PLAN_1
  6
CONTINUOUS
 10
-0.057661
 20
-3.323728
  0
VERTEX
  8
PLAN_1
  6
CONTINUOUS
 10
-0.170748
 20
-3.323728
  0
VERTEX
  8
PLAN_1
  6
CONTINUOUS
 10
-0.170748
 20
-3.299874
  0
VERTEX
  8
PLAN_1
  6
CONTINUOUS
 10
-0.023205
 20
-3.299874
  0
VERTEX
  8
PLAN_1
  6
CONTINUOUS
 10
-0.023205
 20
-3.323283
  0
VERTEX
  8
PLAN_1
  6
CONTINUOUS
 10
-0.145567
 20
-3.475248
  0
VERTEX
  8
PLAN_1
  6
CONTINUOUS
 10
-0.023205
 20
-3.475248
  0
VERTEX
  8
PLAN_1
  6
CONTINUOUS
 10
-0.023205
 20
-3.499102
  0
SEQEND
  8
0
  0
POLYLINE
  8
PLAN_1
  6
CONTINUOUS
 66
     1
 40
0.003000
 41
0.003000
  0
VERTEX
  8
PLAN_1
  6
CONTINUOUS
 10
0.144220
 20
-3.359949
  0
VERTEX
  8
PLAN_1
  6
CONTINUOUS
 10
0.142894
 20
-3.353768
  0
VERTEX
  8
PLAN_1
  6
CONTINUOUS
 10
0.140685
 20
-3.348024
  0
VERTEX
  8
PLAN_1
  6
CONTINUOUS
 10
0.138035
 20
-3.343165
  0
VERTEX
  8
PLAN_1
  6
CONTINUOUS
 10
0.135386
 20
-3.338748
  0
VERTEX
  8
PLAN_1
  6
CONTINUOUS
 10
0.131850
 20
-3.334772
  0
VERTEX
  8
PLAN_1
  6
CONTINUOUS
 10
0.128315
 20
-3.331677
  0
VERTEX
  8
PLAN_1
  6
CONTINUOUS
 10
0.124783
 20
-3.328587
  0
VERTEX
  8
PLAN_1
  6
CONTINUOUS
 10
0.120807
 20
-3.326378
  0
VERTEX
  8
PLAN_1
  6
CONTINUOUS
 10
0.116831
 20
-3.324169
  0
VERTEX
  8
PLAN_1
  6
CONTINUOUS
 10
0.112854
 20
-3.322402
  0
VERTEX
  8
PLAN_1
  6
CONTINUOUS
 10
0.108437
 20
-3.321075
  0
VERTEX
  8
PLAN_1
  6
CONTINUOUS
 10
0.104461
 20
-3.320193
  0
VERTEX
  8
PLAN_1
  6
CONTINUOUS
 10
0.096071
 20
-3.318866
  0
VERTEX
  8
PLAN_1
  6
CONTINUOUS
 10
0.088559
 20
-3.318425
  0
VERTEX
  8
PLAN_1
  6
CONTINUOUS
 10
0.081933
 20
-3.318866
  0
VERTEX
  8
PLAN_1
  6
CONTINUOUS
 10
0.075307
 20
-3.319752
  0
VERTEX
  8
PLAN_1
  6
CONTINUOUS
 10
0.069122
 20
-3.321520
  0
VERTEX
  8
PLAN_1
  6
CONTINUOUS
 10
0.063378
 20
-3.323728
  0
VERTEX
  8
PLAN_1
  6
CONTINUOUS
 10
0.057638
 20
-3.326378
  0
VERTEX
  8
PLAN_1
  6
CONTINUOUS
 10
0.052335
 20
-3.329909
  0
VERTEX
  8
PLAN_1
  6
CONTINUOUS
 10
0.047035
 20
-3.333886
  0
VERTEX
  8
PLAN_1
  6
CONTINUOUS
 10
0.042618
 20
-3.338303
  0
VERTEX
  8
PLAN_1
  6
CONTINUOUS
 10
0.038201
 20
-3.343606
  0
VERTEX
  8
PLAN_1
  6
CONTINUOUS
 10
0.034665
 20
-3.349791
  0
VERTEX
  8
PLAN_1
  6
CONTINUOUS
 10
0.031130
 20
-3.355976
  0
VERTEX
  8
PLAN_1
  6
CONTINUOUS
 10
0.028480
 20
-3.363043
  0
VERTEX
  8
PLAN_1
  6
CONTINUOUS
 10
0.026272
 20
-3.370996
  0
VERTEX
  8
PLAN_1
  6
CONTINUOUS
 10
0.024504
 20
-3.379386
  0
VERTEX
  8
PLAN_1
  6
CONTINUOUS
 10
0.023622
 20
-3.388220
  0
VERTEX
  8
PLAN_1
  6
CONTINUOUS
 10
0.023181
 20
-3.397500
  0
VERTEX
  8
PLAN_1
  6
CONTINUOUS
 10
0.023622
 20
-3.406335
  0
VERTEX
  8
PLAN_1
  6
CONTINUOUS
 10
0.024063
 20
-3.414728
  0
VERTEX
  8
PLAN_1
  6
CONTINUOUS
 10
0.025390
 20
-3.422677
  0
VERTEX
  8
PLAN_1
  6
CONTINUOUS
 10
0.026713
 20
-3.430630
  0
VERTEX
  8
PLAN_1
  6
CONTINUOUS
 10
0.028921
 20
-3.437697
  0
VERTEX
  8
PLAN_1
  6
CONTINUOUS
 10
0.031130
 20
-3.444768
  0
VERTEX
  8
PLAN_1
  6
CONTINUOUS
 10
0.034224
 20
-3.450953
  0
VERTEX
  8
PLAN_1
  6
CONTINUOUS
 10
0.037760
 20
-3.456693
  0
VERTEX
  8
PLAN_1
  6
CONTINUOUS
 10
0.042177
 20
-3.461996
  0
VERTEX
  8
PLAN_1
  6
CONTINUOUS
 10
0.047035
 20
-3.466854
  0
VERTEX
  8
PLAN_1
  6
CONTINUOUS
 10
0.049244
 20
-3.469063
  0
VERTEX
  8
PLAN_1
  6
CONTINUOUS
 10
0.052335
 20
-3.470831
  0
VERTEX
  8
PLAN_1
  6
CONTINUOUS
 10
0.054988
 20
-3.472598
  0
VERTEX
  8
PLAN_1
  6
CONTINUOUS
 10
0.058079
 20
-3.474362
  0
VERTEX
  8
PLAN_1
  6
CONTINUOUS
 10
0.061614
 20
-3.475689
  0
VERTEX
  8
PLAN_1
  6
CONTINUOUS
 10
0.065146
 20
-3.477016
  0
VERTEX
  8
PLAN_1
  6
CONTINUOUS
 10
0.068681
 20
-3.478339
  0
VERTEX
  8
PLAN_1
  6
CONTINUOUS
 10
0.072213
 20
-3.479224
  0
VERTEX
  8
PLAN_1
  6
CONTINUOUS
 10
0.080606
 20
-3.480106
  0
VERTEX
  8
PLAN_1
  6
CONTINUOUS
 10
0.089441
 20
-3.480547
  0
VERTEX
  8
PLAN_1
  6
CONTINUOUS
 10
0.092976
 20
-3.480547
  0
VERTEX
  8
PLAN_1
  6
CONTINUOUS
 10
0.096512
 20
-3.480106
  0
VERTEX
  8
PLAN_1
  6
CONTINUOUS
 10
0.100488
 20
-3.479665
  0
VERTEX
  8
PLAN_1
  6
CONTINUOUS
 10
0.104461
 20
-3.478780
  0
VERTEX
  8
PLAN_1
  6
CONTINUOUS
 10
0.108437
 20
-3.477457
  0
VERTEX
  8
PLAN_1
  6
CONTINUOUS
 10
0.112854
 20
-3.475689
  0
VERTEX
  8
PLAN_1
  6
CONTINUOUS
 10
0.116831
 20
-3.473480
  0
VERTEX
  8
PLAN_1
  6
CONTINUOUS
 10
0.120807
 20
-3.470831
  0
VERTEX
  8
PLAN_1
  6
CONTINUOUS
 10
0.125224
 20
-3.467736
  0
VERTEX
  8
PLAN_1
  6
CONTINUOUS
 10
0.128760
 20
-3.463760
  0
VERTEX
  8
PLAN_1
  6
CONTINUOUS
 10
0.132732
 20
-3.459343
  0
VERTEX
  8
PLAN_1
  6
CONTINUOUS
 10
0.135827
 20
-3.454043
  0
VERTEX
  8
PLAN_1
  6
CONTINUOUS
 10
0.139362
 20
-3.448299
  0
VERTEX
  8
PLAN_1
  6
CONTINUOUS
 10
0.142012
 20
-3.441673
  0
VERTEX
  8
PLAN_1
  6
CONTINUOUS
 10
0.144220
 20
-3.434165
  0
VERTEX
  8
PLAN_1
  6
CONTINUOUS
 10
0.146429
 20
-3.426213
  0
VERTEX
  8
PLAN_1
  6
CONTINUOUS
 10
0.172492
 20
-3.426213
  0
VERTEX
  8
PLAN_1
  6
CONTINUOUS
 10
0.171165
 20
-3.432839
  0
VERTEX
  8
PLAN_1
  6
CONTINUOUS
 10
0.169843
 20
-3.439465
  0
VERTEX
  8
PLAN_1
  6
CONTINUOUS
 10
0.168075
 20
-3.445209
  0
VERTEX
  8
PLAN_1
  6
CONTINUOUS
 10
0.166307
 20
-3.450953
  0
VERTEX
  8
PLAN_1
  6
CONTINUOUS
 10
0.164098
 20
-3.456252
  0
VERTEX
  8
PLAN_1
  6
CONTINUOUS
 10
0.161449
 20
-3.461110
  0
VERTEX
  8
PLAN_1
  6
CONTINUOUS
 10
0.158799
 20
-3.465969
  0
VERTEX
  8
PLAN_1
  6
CONTINUOUS
 10
0.156146
 20
-3.469945
  0
VERTEX
  8
PLAN_1
  6
CONTINUOUS
 10
0.153496
 20
-3.473921
  0
VERTEX
  8
PLAN_1
  6
CONTINUOUS
 10
0.150406
 20
-3.477457
  0
VERTEX
  8
PLAN_1
  6
CONTINUOUS
 10
0.147311
 20
-3.480988
  0
VERTEX
  8
PLAN_1
  6
CONTINUOUS
 10
0.143780
 20
-3.484083
  0
VERTEX
  8
PLAN_1
  6
CONTINUOUS
 10
0.140685
 20
-3.486732
  0
VERTEX
  8
PLAN_1
  6
CONTINUOUS
 10
0.137154
 20
-3.489382
  0
VERTEX
  8
PLAN_1
  6
CONTINUOUS
 10
0.133618
 20
-3.491591
  0
VERTEX
  8
PLAN_1
  6
CONTINUOUS
 10
0.130524
 20
-3.493358
  0
VERTEX
  8
PLAN_1
  6
CONTINUOUS
 10
0.123457
 20
-3.496894
  0
VERTEX
  8
PLAN_1
  6
CONTINUOUS
 10
0.116390
 20
-3.499543
  0
VERTEX
  8
PLAN_1
  6
CONTINUOUS
 10
0.109764
 20
-3.501311
  0
VERTEX
  8
PLAN_1
  6
CONTINUOUS
 10
0.103579
 20
-3.503079
  0
VERTEX
  8
PLAN_1
  6
CONTINUOUS
 10
0.092976
 20
-3.504402
  0
VERTEX
  8
PLAN_1
  6
CONTINUOUS
 10
0.085469
 20
-3.504402
  0
VERTEX
  8
PLAN_1
  6
CONTINUOUS
 10
0.076634
 20
-3.504402
  0
VERTEX
  8
PLAN_1
  6
CONTINUOUS
 10
0.068240
 20
-3.503079
  0
VERTEX
  8
PLAN_1
  6
CONTINUOUS
 10
0.060287
 20
-3.501311
  0
VERTEX
  8
PLAN_1
  6
CONTINUOUS
 10
0.052335
 20
-3.498661
  0
VERTEX
  8
PLAN_1
  6
CONTINUOUS
 10
0.048358
 20
-3.497335
  0
VERTEX
  8
PLAN_1
  6
CONTINUOUS
 10
0.044386
 20
-3.495567
  0
VERTEX
  8
PLAN_1
  6
CONTINUOUS
 10
0.040850
 20
-3.493358
  0
VERTEX
  8
PLAN_1
  6
CONTINUOUS
 10
0.036874
 20
-3.491150
  0
VERTEX
  8
PLAN_1
  6
CONTINUOUS
 10
0.033339
 20
-3.488941
  0
VERTEX
  8
PLAN_1
  6
CONTINUOUS
 10
0.029807
 20
-3.486291
  0
VERTEX
  8
PLAN_1
  6
CONTINUOUS
 10
0.026713
 20
-3.483197
  0
VERTEX
  8
PLAN_1
  6
CONTINUOUS
 10
0.023622
 20
-3.480106
  0
VERTEX
  8
PLAN_1
  6
CONTINUOUS
 10
0.020531
 20
-3.477016
  0
VERTEX
  8
PLAN_1
  6
CONTINUOUS
 10
0.017437
 20
-3.473480
  0
VERTEX
  8
PLAN_1
  6
CONTINUOUS
 10
0.014787
 20
-3.469945
  0
VERTEX
  8
PLAN_1
  6
CONTINUOUS
 10
0.012138
 20
-3.465969
  0
VERTEX
  8
PLAN_1
  6
CONTINUOUS
 10
0.009484
 20
-3.461551
  0
VERTEX
  8
PLAN_1
  6
CONTINUOUS
 10
0.007276
 20
-3.457134
  0
VERTEX
  8
PLAN_1
  6
CONTINUOUS
 10
0.005067
 20
-3.452276
  0
VERTEX
  8
PLAN_1
  6
CONTINUOUS
 10
0.003303
 20
-3.447417
  0
VERTEX
  8
PLAN_1
  6
CONTINUOUS
 10
0.001535
 20
-3.442114
  0
VERTEX
  8
PLAN_1
  6
CONTINUOUS
 10
0.000209
 20
-3.436815
  0
VERTEX
  8
PLAN_1
  6
CONTINUOUS
 10
-0.001114
 20
-3.431071
  0
VERTEX
  8
PLAN_1
  6
CONTINUOUS
 10
-0.002441
 20
-3.424886
  0
VERTEX
  8
PLAN_1
  6
CONTINUOUS
 10
-0.003323
 20
-3.418705
  0
VERTEX
  8
PLAN_1
  6
CONTINUOUS
 10
-0.003768
 20
-3.412520
  0
VERTEX
  8
PLAN_1
  6
CONTINUOUS
 10
-0.004209
 20
-3.405449
  0
VERTEX
  8
PLAN_1
  6
CONTINUOUS
 10
-0.004209
 20
-3.398382
  0
VERTEX
  8
PLAN_1
  6
CONTINUOUS
 10
-0.003768
 20
-3.387339
  0
VERTEX
  8
PLAN_1
  6
CONTINUOUS
 10
-0.002882
 20
-3.376295
  0
VERTEX
  8
PLAN_1
  6
CONTINUOUS
 10
-0.000673
 20
-3.366134
  0
VERTEX
  8
PLAN_1
  6
CONTINUOUS
 10
0.001976
 20
-3.356417
  0
VERTEX
  8
PLAN_1
  6
CONTINUOUS
 10
0.003744
 20
-3.352000
  0
VERTEX
  8
PLAN_1
  6
CONTINUOUS
 10
0.005512
 20
-3.347138
  0
VERTEX
  8
PLAN_1
  6
CONTINUOUS
 10
0.007720
 20
-3.343165
  0
VERTEX
  8
PLAN_1
  6
CONTINUOUS
 10
0.009929
 20
-3.338748
  0
VERTEX
  8
PLAN_1
  6
CONTINUOUS
 10
0.012138
 20
-3.334772
  0
VERTEX
  8
PLAN_1
  6
CONTINUOUS
 10
0.014787
 20
-3.330795
  0
VERTEX
  8
PLAN_1
  6
CONTINUOUS
 10
0.017437
 20
-3.327260
  0
VERTEX
  8
PLAN_1
  6
CONTINUOUS
 10
0.020531
 20
-3.323728
  0
VERTEX
  8
PLAN_1
  6
CONTINUOUS
 10
0.023622
 20
-3.320193
  0
VERTEX
  8
PLAN_1
  6
CONTINUOUS
 10
0.026713
 20
-3.317102
  0
VERTEX
  8
PLAN_1
  6
CONTINUOUS
 10
0.030248
 20
-3.314008
  0
VERTEX
  8
PLAN_1
  6
CONTINUOUS
 10
0.033783
 20
-3.311358
  0
VERTEX
  8
PLAN_1
  6
CONTINUOUS
 10
0.037315
 20
-3.308709
  0
VERTEX
  8
PLAN_1
  6
CONTINUOUS
 10
0.041291
 20
-3.306500
  0
VERTEX
  8
PLAN_1
  6
CONTINUOUS
 10
0.045268
 20
-3.304291
  0
VERTEX
  8
PLAN_1
  6
CONTINUOUS
 10
0.049685
 20
-3.302524
  0
VERTEX
  8
PLAN_1
  6
CONTINUOUS
 10
0.054102
 20
-3.300756
  0
VERTEX
  8
PLAN_1
  6
CONTINUOUS
 10
0.058520
 20
-3.298988
  0
VERTEX
  8
PLAN_1
  6
CONTINUOUS
 10
0.062937
 20
-3.297665
  0
VERTEX
  8
PLAN_1
  6
CONTINUOUS
 10
0.067795
 20
-3.296780
  0
VERTEX
  8
PLAN_1
  6
CONTINUOUS
 10
0.073098
 20
-3.295898
  0
VERTEX
  8
PLAN_1
  6
CONTINUOUS
 10
0.077957
 20
-3.295457
  0
VERTEX
  8
PLAN_1
  6
CONTINUOUS
 10
0.083260
 20
-3.295012
  0
VERTEX
  8
PLAN_1
  6
CONTINUOUS
 10
0.088559
 20
-3.294571
  0
VERTEX
  8
PLAN_1
  6
CONTINUOUS
 10
0.097835
 20
-3.295012
  0
VERTEX
  8
PLAN_1
  6
CONTINUOUS
 10
0.106669
 20
-3.296339
  0
VERTEX
  8
PLAN_1
  6
CONTINUOUS
 10
0.115063
 20
-3.298106
  0
VERTEX
  8
PLAN_1
  6
CONTINUOUS
 10
0.122575
 20
-3.300315
  0
VERTEX
  8
PLAN_1
  6
CONTINUOUS
 10
0.129642
 20
-3.302965
  0
VERTEX
  8
PLAN_1
  6
CONTINUOUS
 10
0.136268
 20
-3.306500
  0
VERTEX
  8
PLAN_1
  6
CONTINUOUS
 10
0.142012
 20
-3.310472
  0
VERTEX
  8
PLAN_1
  6
CONTINUOUS
 10
0.147311
 20
-3.314894
  0
VERTEX
  8
PLAN_1
  6
CONTINUOUS
 10
0.152169
 20
-3.319752
  0
VERTEX
  8
PLAN_1
  6
CONTINUOUS
 10
0.156591
 20
-3.324610
  0
VERTEX
  8
PLAN_1
  6
CONTINUOUS
 10
0.160122
 20
-3.329909
  0
VERTEX
  8
PLAN_1
  6
CONTINUOUS
 10
0.163217
 20
-3.335654
  0
VERTEX
  8
PLAN_1
  6
CONTINUOUS
 10
0.165866
 20
-3.341398
  0
VERTEX
  8
PLAN_1
  6
CONTINUOUS
 10
0.168075
 20
-3.347583
  0
VERTEX
  8
PLAN_1
  6
CONTINUOUS
 10
0.169398
 20
-3.353768
  0
VERTEX
  8
PLAN_1
  6
CONTINUOUS
 10
0.170283
 20
-3.359949
  0
VERTEX
  8
PLAN_1
  6
CONTINUOUS
 10
0.144220
 20
-3.359949
  0
SEQEND
  8
0
  0
POLYLINE
  8
PLAN_1
  6
CONTINUOUS
 66
     1
 40
0.003000
 41
0.003000
  0
VERTEX
  8
PLAN_1
  6
CONTINUOUS
 10
0.232130
 20
-3.499102
  0
VERTEX
  8
PLAN_1
  6
CONTINUOUS
 10
0.205181
 20
-3.499102
  0
VERTEX
  8
PLAN_1
  6
CONTINUOUS
 10
0.205181
 20
-3.299874
  0
VERTEX
  8
PLAN_1
  6
CONTINUOUS
 10
0.232130
 20
-3.299874
  0
VERTEX
  8
PLAN_1
  6
CONTINUOUS
 10
0.232130
 20
-3.396614
  0
VERTEX
  8
PLAN_1
  6
CONTINUOUS
 10
0.328429
 20
-3.299874
  0
VERTEX
  8
PLAN_1
  6
CONTINUOUS
 10
0.365535
 20
-3.299874
  0
VERTEX
  8
PLAN_1
  6
CONTINUOUS
 10
0.282929
 20
-3.380713
  0
VERTEX
  8
PLAN_1
  6
CONTINUOUS
 10
0.367744
 20
-3.499102
  0
VERTEX
  8
PLAN_1
  6
CONTINUOUS
 10
0.332846
 20
-3.499102
  0
VERTEX
  8
PLAN_1
  6
CONTINUOUS
 10
0.263492
 20
-3.399268
  0
VERTEX
  8
PLAN_1
  6
CONTINUOUS
 10
0.232130
 20
-3.429307
  0
VERTEX
  8
PLAN_1
  6
CONTINUOUS
 10
0.232130
 20
-3.499102
  0
SEQEND
  8
0
  0
POLYLINE
  8
PLAN_1
  6
CONTINUOUS
 66
     1
 40
0.003000
 41
0.003000
  0
VERTEX
  8
PLAN_1
  6
CONTINUOUS
 10
0.391598
 20
-3.299874
  0
VERTEX
  8
PLAN_1
  6
CONTINUOUS
 10
0.472441
 20
-3.299874
  0
VERTEX
  8
PLAN_1
  6
CONTINUOUS
 10
0.477299
 20
-3.300315
  0
VERTEX
  8
PLAN_1
  6
CONTINUOUS
 10
0.481717
 20
-3.300315
  0
VERTEX
  8
PLAN_1
  6
CONTINUOUS
 10
0.486575
 20
-3.301197
  0
VERTEX
  8
PLAN_1
  6
CONTINUOUS
 10
0.490992
 20
-3.301638
  0
VERTEX
  8
PLAN_1
  6
CONTINUOUS
 10
0.495409
 20
-3.302965
  0
VERTEX
  8
PLAN_1
  6
CONTINUOUS
 10
0.499386
 20
-3.303846
  0
VERTEX
  8
PLAN_1
  6
CONTINUOUS
 10
0.503362
 20
-3.305614
  0
VERTEX
  8
PLAN_1
  6
CONTINUOUS
 10
0.507339
 20
-3.306941
  0
VERTEX
  8
PLAN_1
  6
CONTINUOUS
 10
0.511315
 20
-3.308709
  0
VERTEX
  8
PLAN_1
  6
CONTINUOUS
 10
0.514846
 20
-3.310917
  0
VERTEX
  8
PLAN_1
  6
CONTINUOUS
 10
0.518382
 20
-3.313126
  0
VERTEX
  8
PLAN_1
  6
CONTINUOUS
 10
0.521917
 20
-3.315335
  0
VERTEX
  8
PLAN_1
  6
CONTINUOUS
 10
0.525008
 20
-3.317984
  0
VERTEX
  8
PLAN_1
  6
CONTINUOUS
 10
0.528102
 20
-3.321075
  0
VERTEX
  8
PLAN_1
  6
CONTINUOUS
 10
0.530752
 20
-3.323728
  0
VERTEX
  8
PLAN_1
  6
CONTINUOUS
 10
0.533843
 20
-3.326819
  0
VERTEX
  8
PLAN_1
  6
CONTINUOUS
 10
0.538701
 20
-3.333445
  0
VERTEX
  8
PLAN_1
  6
CONTINUOUS
 10
0.543563
 20
-3.340957
  0
VERTEX
  8
PLAN_1
  6
CONTINUOUS
 10
0.547094
 20
-3.348906
  0
VERTEX
  8
PLAN_1
  6
CONTINUOUS
 10
0.550189
 20
-3.357299
  0
VERTEX
  8
PLAN_1
  6
CONTINUOUS
 10
0.552839
 20
-3.366575
  0
VERTEX
  8
PLAN_1
  6
CONTINUOUS
 10
0.554606
 20
-3.376295
  0
VERTEX
  8
PLAN_1
  6
CONTINUOUS
 10
0.555929
 20
-3.386457
  0
VERTEX
  8
PLAN_1
  6
CONTINUOUS
 10
0.556374
 20
-3.397059
  0
VERTEX
  8
PLAN_1
  6
CONTINUOUS
 10
0.555929
 20
-3.405449
  0
VERTEX
  8
PLAN_1
  6
CONTINUOUS
 10
0.555047
 20
-3.414287
  0
VERTEX
  8
PLAN_1
  6
CONTINUOUS
 10
0.554165
 20
-3.423122
  0
VERTEX
  8
PLAN_1
  6
CONTINUOUS
 10
0.551957
 20
-3.431957
  0
VERTEX
  8
PLAN_1
  6
CONTINUOUS
 10
0.549748
 20
-3.440350
  0
VERTEX
  8
PLAN_1
  6
CONTINUOUS
 10
0.546654
 20
-3.448744
  0
VERTEX
  8
PLAN_1
  6
CONTINUOUS
 10
0.542677
 20
-3.457134
  0
VERTEX
  8
PLAN_1
  6
CONTINUOUS
 10
0.538260
 20
-3.464646
  0
VERTEX
  8
PLAN_1
  6
CONTINUOUS
 10
0.535610
 20
-3.468622
  0
VERTEX
  8
PLAN_1
  6
CONTINUOUS
 10
0.532961
 20
-3.472154
  0
VERTEX
  8
PLAN_1
  6
CONTINUOUS
 10
0.529866
 20
-3.475689
  0
VERTEX
  8
PLAN_1
  6
CONTINUOUS
 10
0.526776
 20
-3.478780
  0
VERTEX
  8
PLAN_1
  6
CONTINUOUS
 10
0.523681
 20
-3.481874
  0
VERTEX
  8
PLAN_1
  6
CONTINUOUS
 10
0.520150
 20
-3.484524
  0
VERTEX
  8
PLAN_1
  6
CONTINUOUS
 10
0.516173
 20
-3.487173
  0
VERTEX
  8
PLAN_1
  6
CONTINUOUS
 10
0.512197
 20
-3.489382
  0
VERTEX
  8
PLAN_1
  6
CONTINUOUS
 10
0.507780
 20
-3.491591
  0
VERTEX
  8
PLAN_1
  6
CONTINUOUS
 10
0.503362
 20
-3.493799
  0
VERTEX
  8
PLAN_1
  6
CONTINUOUS
 10
0.498504
 20
-3.495567
  0
VERTEX
  8
PLAN_1
  6
CONTINUOUS
 10
0.493646
 20
-3.496894
  0
VERTEX
  8
PLAN_1
  6
CONTINUOUS
 10
0.488343
 20
-3.497776
  0
VERTEX
  8
PLAN_1
  6
CONTINUOUS
 10
0.483043
 20
-3.498661
  0
VERTEX
  8
PLAN_1
  6
CONTINUOUS
 10
0.477299
 20
-3.499102
  0
VERTEX
  8
PLAN_1
  6
CONTINUOUS
 10
0.471114
 20
-3.499102
  0
VERTEX
  8
PLAN_1
  6
CONTINUOUS
 10
0.391598
 20
-3.499102
  0
VERTEX
  8
PLAN_1
  6
CONTINUOUS
 10
0.391598
 20
-3.299874
  0
SEQEND
  8
0
  0
POLYLINE
  8
PLAN_1
  6
CONTINUOUS
 66
     1
 40
0.003000
 41
0.003000
  0
VERTEX
  8
PLAN_1
  6
CONTINUOUS
 10
0.418547
 20
-3.476130
  0
VERTEX
  8
PLAN_1
  6
CONTINUOUS
 10
0.470673
 20
-3.476130
  0
VERTEX
  8
PLAN_1
  6
CONTINUOUS
 10
0.477299
 20
-3.476130
  0
VERTEX
  8
PLAN_1
  6
CONTINUOUS
 10
0.483043
 20
-3.474807
  0
VERTEX
  8
PLAN_1
  6
CONTINUOUS
 10
0.489228
 20
-3.473480
  0
VERTEX
  8
PLAN_1
  6
CONTINUOUS
 10
0.494528
 20
-3.471272
  0
VERTEX
  8
PLAN_1
  6
CONTINUOUS
 10
0.499386
 20
-3.468181
  0
VERTEX
  8
PLAN_1
  6
CONTINUOUS
 10
0.504244
 20
-3.465087
  0
VERTEX
  8
PLAN_1
  6
CONTINUOUS
 10
0.508665
 20
-3.461110
  0
VERTEX
  8
PLAN_1
  6
CONTINUOUS
 10
0.512638
 20
-3.456252
  0
VERTEX
  8
PLAN_1
  6
CONTINUOUS
 10
0.516173
 20
-3.450953
  0
VERTEX
  8
PLAN_1
  6
CONTINUOUS
 10
0.519264
 20
-3.445209
  0
VERTEX
  8
PLAN_1
  6
CONTINUOUS
 10
0.521917
 20
-3.439024
  0
VERTEX
  8
PLAN_1
  6
CONTINUOUS
 10
0.524126
 20
-3.431957
  0
VERTEX
  8
PLAN_1
  6
CONTINUOUS
 10
0.525890
 20
-3.424445
  0
VERTEX
  8
PLAN_1
  6
CONTINUOUS
 10
0.527217
 20
-3.416496
  0
VERTEX
  8
PLAN_1
  6
CONTINUOUS
 10
0.528102
 20
-3.407657
  0
VERTEX
  8
PLAN_1
  6
CONTINUOUS
 10
0.528543
 20
-3.398382
  0
VERTEX
  8
PLAN_1
  6
CONTINUOUS
 10
0.528102
 20
-3.389547
  0
VERTEX
  8
PLAN_1
  6
CONTINUOUS
 10
0.527217
 20
-3.380713
  0
VERTEX
  8
PLAN_1
  6
CONTINUOUS
 10
0.525890
 20
-3.372760
  0
VERTEX
  8
PLAN_1
  6
CONTINUOUS
 10
0.524126
 20
-3.365693
  0
VERTEX
  8
PLAN_1
  6
CONTINUOUS
 10
0.521917
 20
-3.358626
  0
VERTEX
  8
PLAN_1
  6
CONTINUOUS
 10
0.519264
 20
-3.352441
  0
VERTEX
  8
PLAN_1
  6
CONTINUOUS
 10
0.516173
 20
-3.347138
  0
VERTEX
  8
PLAN_1
  6
CONTINUOUS
 10
0.512197
 20
-3.341839
  0
VERTEX
  8
PLAN_1
  6
CONTINUOUS
 10
0.508220
 20
-3.337421
  0
VERTEX
  8
PLAN_1
  6
CONTINUOUS
 10
0.503803
 20
-3.333886
  0
VERTEX
  8
PLAN_1
  6
CONTINUOUS
 10
0.498945
 20
-3.330354
  0
VERTEX
  8
PLAN_1
  6
CONTINUOUS
 10
0.493646
 20
-3.327701
  0
VERTEX
  8
PLAN_1
  6
CONTINUOUS
 10
0.487902
 20
-3.325937
  0
VERTEX
  8
PLAN_1
  6
CONTINUOUS
 10
0.481717
 20
-3.324169
  0
VERTEX
  8
PLAN_1
  6
CONTINUOUS
 10
0.475531
 20
-3.323283
  0
VERTEX
  8
PLAN_1
  6
CONTINUOUS
 10
0.468906
 20
-3.322843
  0
VERTEX
  8
PLAN_1
  6
CONTINUOUS
 10
0.418547
 20
-3.322843
  0
VERTEX
  8
PLAN_1
  6
CONTINUOUS
 10
0.418547
 20
-3.476130
  0
SEQEND
  8
0
  0
POLYLINE
  8
PLAN_1
  6
CONTINUOUS
 66
     1
 40
0.003000
 41
0.003000
  0
VERTEX
  8
PLAN_1
  6
CONTINUOUS
 10
0.581992
 20
-3.374087
  0
VERTEX
  8
PLAN_1
  6
CONTINUOUS
 10
0.581992
 20
-3.368343
  0
VERTEX
  8
PLAN_1
  6
CONTINUOUS
 10
0.582437
 20
-3.363043
  0
VERTEX
  8
PLAN_1
  6
CONTINUOUS
 10
0.582878
 20
-3.357740
  0
VERTEX
  8
PLAN_1
  6
CONTINUOUS
 10
0.583760
 20
-3.352882
  0
VERTEX
  8
PLAN_1
  6
CONTINUOUS
 10
0.585087
 20
-3.348465
  0
VERTEX
  8
PLAN_1
  6
CONTINUOUS
 10
0.586413
 20
-3.344047
  0
VERTEX
  8
PLAN_1
  6
CONTINUOUS
 10
0.587736
 20
-3.340071
  0
VERTEX
  8
PLAN_1
  6
CONTINUOUS
 10
0.589504
 20
-3.336539
  0
VERTEX
  8
PLAN_1
  6
CONTINUOUS
 10
0.591272
 20
-3.333004
  0
VERTEX
  8
PLAN_1
  6
CONTINUOUS
 10
0.593039
 20
-3.329909
  0
VERTEX
  8
PLAN_1
  6
CONTINUOUS
 10
0.595248
 20
-3.326819
  0
VERTEX
  8
PLAN_1
  6
CONTINUOUS
 10
0.597457
 20
-3.324169
  0
VERTEX
  8
PLAN_1
  6
CONTINUOUS
 10
0.602315
 20
-3.319311
  0
VERTEX
  8
PLAN_1
  6
CONTINUOUS
 10
0.607614
 20
-3.315335
  0
VERTEX
  8
PLAN_1
  6
CONTINUOUS
 10
0.612917
 20
-3.312240
  0
VERTEX
  8
PLAN_1
  6
CONTINUOUS
 10
0.618657
 20
-3.309591
  0
VERTEX
  8
PLAN_1
  6
CONTINUOUS
 10
0.624402
 20
-3.307823
  0
VERTEX
  8
PLAN_1
  6
CONTINUOUS
 10
0.629705
 20
-3.306055
  0
VERTEX
  8
PLAN_1
  6
CONTINUOUS
 10
0.635004
 20
-3.305173
  0
VERTEX
  8
PLAN_1
  6
CONTINUOUS
 10
0.640303
 20
-3.304732
  0
VERTEX
  8
PLAN_1
  6
CONTINUOUS
 10
0.645165
 20
-3.304291
  0
VERTEX
  8
PLAN_1
  6
CONTINUOUS
 10
0.649142
 20
-3.304291
  0
VERTEX
  8
PLAN_1
  6
CONTINUOUS
 10
0.655323
 20
-3.304291
  0
VERTEX
  8
PLAN_1
  6
CONTINUOUS
 10
0.661508
 20
-3.305173
  0
VERTEX
  8
PLAN_1
  6
CONTINUOUS
 10
0.667252
 20
-3.306500
  0
VERTEX
  8
PLAN_1
  6
CONTINUOUS
 10
0.672996
 20
-3.308264
  0
VERTEX
  8
PLAN_1
  6
CONTINUOUS
 10
0.678295
 20
-3.310472
  0
VERTEX
  8
PLAN_1
  6
CONTINUOUS
 10
0.683598
 20
-3.313126
  0
VERTEX
  8
PLAN_1
  6
CONTINUOUS
 10
0.688016
 20
-3.316217
  0
VERTEX
  8
PLAN_1
  6
CONTINUOUS
 10
0.692433
 20
-3.319752
  0
VERTEX
  8
PLAN_1
  6
CONTINUOUS
 10
0.696406
 20
-3.323728
  0
VERTEX
  8
PLAN_1
  6
CONTINUOUS
 10
0.699941
 20
-3.328146
  0
VERTEX
  8
PLAN_1
  6
CONTINUOUS
 10
0.703031
 20
-3.333004
  0
VERTEX
  8
PLAN_1
  6
CONTINUOUS
 10
0.705685
 20
-3.337862
  0
VERTEX
  8
PLAN_1
  6
CONTINUOUS
 10
0.707453
 20
-3.343606
  0
VERTEX
  8
PLAN_1
  6
CONTINUOUS
 10
0.709217
 20
-3.349346
  0
VERTEX
  8
PLAN_1
  6
CONTINUOUS
 10
0.710102
 20
-3.355976
  0
VERTEX
  8
PLAN_1
  6
CONTINUOUS
 10
0.710543
 20
-3.362602
  0
VERTEX
  8
PLAN_1
  6
CONTINUOUS
 10
0.710102
 20
-3.368783
  0
VERTEX
  8
PLAN_1
  6
CONTINUOUS
 10
0.709217
 20
-3.374528
  0
VERTEX
  8
PLAN_1
  6
CONTINUOUS
 10
0.707894
 20
-3.380272
  0
VERTEX
  8
PLAN_1
  6
CONTINUOUS
 10
0.706126
 20
-3.385130
  0
VERTEX
  8
PLAN_1
  6
CONTINUOUS
 10
0.703917
 20
-3.389988
  0
VERTEX
  8
PLAN_1
  6
CONTINUOUS
 10
0.701709
 20
-3.394406
  0
VERTEX
  8
PLAN_1
  6
CONTINUOUS
 10
0.698614
 20
-3.398382
  0
VERTEX
  8
PLAN_1
  6
CONTINUOUS
 10
0.695083
 20
-3.402358
  0
VERTEX
  8
PLAN_1
  6
CONTINUOUS
 10
0.691547
 20
-3.405894
  0
VERTEX
  8
PLAN_1
  6
CONTINUOUS
 10
0.687571
 20
-3.409425
  0
VERTEX
  8
PLAN_1
  6
CONTINUOUS
 10
0.683154
 20
-3.412520
  0
VERTEX
  8
PLAN_1
  6
CONTINUOUS
 10
0.678736
 20
-3.416051
  0
VERTEX
  8
PLAN_1
  6
CONTINUOUS
 10
0.668579
 20
-3.421795
  0
VERTEX
  8
PLAN_1
  6
CONTINUOUS
 10
0.657976
 20
-3.427539
  0
VERTEX
  8
PLAN_1
  6
CONTINUOUS
 10
0.638094
 20
-3.438583
  0
VERTEX
  8
PLAN_1
  6
CONTINUOUS
 10
0.633236
 20
-3.441673
  0
VERTEX
  8
PLAN_1
  6
CONTINUOUS
 10
0.628819
 20
-3.444323
  0
VERTEX
  8
PLAN_1
  6
CONTINUOUS
 10
0.624843
 20
-3.446976
  0
VERTEX
  8
PLAN_1
  6
CONTINUOUS
 10
0.621752
 20
-3.449626
  0
VERTEX
  8
PLAN_1
  6
CONTINUOUS
 10
0.616008
 20
-3.455370
  0
VERTEX
  8
PLAN_1
  6
CONTINUOUS
 10
0.611591
 20
-3.460228
  0
VERTEX
  8
PLAN_1
  6
CONTINUOUS
 10
0.608500
 20
-3.465087
  0
VERTEX
  8
PLAN_1
  6
CONTINUOUS
 10
0.606291
 20
-3.469504
  0
VERTEX
  8
PLAN_1
  6
CONTINUOUS
 10
0.604965
 20
-3.473039
  0
VERTEX
  8
PLAN_1
  6
CONTINUOUS
 10
0.604524
 20
-3.476130
  0
VERTEX
  8
PLAN_1
  6
CONTINUOUS
 10
0.710543
 20
-3.476130
  0
VERTEX
  8
PLAN_1
  6
CONTINUOUS
 10
0.710543
 20
-3.499102
  0
VERTEX
  8
PLAN_1
  6
CONTINUOUS
 10
0.576693
 20
-3.499102
  0
VERTEX
  8
PLAN_1
  6
CONTINUOUS
 10
0.577134
 20
-3.492035
  0
VERTEX
  8
PLAN_1
  6
CONTINUOUS
 10
0.578020
 20
-3.484965
  0
VERTEX
  8
PLAN_1
  6
CONTINUOUS
 10
0.579343
 20
-3.478339
  0
VERTEX
  8
PLAN_1
  6
CONTINUOUS
 10
0.581110
 20
-3.472154
  0
VERTEX
  8
PLAN_1
  6
CONTINUOUS
 10
0.582878
 20
-3.466413
  0
VERTEX
  8
PLAN_1
  6
CONTINUOUS
 10
0.585087
 20
-3.461110
  0
VERTEX
  8
PLAN_1
  6
CONTINUOUS
 10
0.587736
 20
-3.455811
  0
VERTEX
  8
PLAN_1
  6
CONTINUOUS
 10
0.590386
 20
-3.450953
  0
VERTEX
  8
PLAN_1
  6
CONTINUOUS
 10
0.593480
 20
-3.446531
  0
VERTEX
  8
PLAN_1
  6
CONTINUOUS
 10
0.597012
 20
-3.442559
  0
VERTEX
  8
PLAN_1
  6
CONTINUOUS
 10
0.600547
 20
-3.438583
  0
VERTEX
  8
PLAN_1
  6
CONTINUOUS
 10
0.604524
 20
-3.434606
  0
VERTEX
  8
PLAN_1
  6
CONTINUOUS
 10
0.608941
 20
-3.431071
  0
VERTEX
  8
PLAN_1
  6
CONTINUOUS
 10
0.613358
 20
-3.427980
  0
VERTEX
  8
PLAN_1
  6
CONTINUOUS
 10
0.617776
 20
-3.424886
  0
VERTEX
  8
PLAN_1
  6
CONTINUOUS
 10
0.622634
 20
-3.421795
  0
VERTEX
  8
PLAN_1
  6
CONTINUOUS
 10
0.648256
 20
-3.406776
  0
VERTEX
  8
PLAN_1
  6
CONTINUOUS
 10
0.655768
 20
-3.402358
  0
VERTEX
  8
PLAN_1
  6
CONTINUOUS
 10
0.662835
 20
-3.398382
  0
VERTEX
  8
PLAN_1
  6
CONTINUOUS
 10
0.669020
 20
-3.393965
  0
VERTEX
  8
PLAN_1
  6
CONTINUOUS
 10
0.674319
 20
-3.389106
  0
VERTEX
  8
PLAN_1
  6
CONTINUOUS
 10
0.676528
 20
-3.386457
  0
VERTEX
  8
PLAN_1
  6
CONTINUOUS
 10
0.678295
 20
-3.383803
  0
VERTEX
  8
PLAN_1
  6
CONTINUOUS
 10
0.680063
 20
-3.380713
  0
VERTEX
  8
PLAN_1
  6
CONTINUOUS
 10
0.681386
 20
-3.377622
  0
VERTEX
  8
PLAN_1
  6
CONTINUOUS
 10
0.682713
 20
-3.374087
  0
VERTEX
  8
PLAN_1
  6
CONTINUOUS
 10
0.683598
 20
-3.370110
  0
VERTEX
  8
PLAN_1
  6
CONTINUOUS
 10
0.684039
 20
-3.366134
  0
VERTEX
  8
PLAN_1
  6
CONTINUOUS
 10
0.684039
 20
-3.361276
  0
VERTEX
  8
PLAN_1
  6
CONTINUOUS
 10
0.684039
 20
-3.358626
  0
VERTEX
  8
PLAN_1
  6
CONTINUOUS
 10
0.683598
 20
-3.355531
  0
VERTEX
  8
PLAN_1
  6
CONTINUOUS
 10
0.683154
 20
-3.352441
  0
VERTEX
  8
PLAN_1
  6
CONTINUOUS
 10
0.682272
 20
-3.349346
  0
VERTEX
  8
PLAN_1
  6
CONTINUOUS
 10
0.680945
 20
-3.346256
  0
VERTEX
  8
PLAN_1
  6
CONTINUOUS
 10
0.679622
 20
-3.343165
  0
VERTEX
  8
PLAN_1
  6
CONTINUOUS
 10
0.677854
 20
-3.340512
  0
VERTEX
  8
PLAN_1
  6
CONTINUOUS
 10
0.675646
 20
-3.337862
  0
VERTEX
  8
PLAN_1
  6
CONTINUOUS
 10
0.672996
 20
-3.335213
  0
VERTEX
  8
PLAN_1
  6
CONTINUOUS
 10
0.670343
 20
-3.333004
  0
VERTEX
  8
PLAN_1
  6
CONTINUOUS
 10
0.667252
 20
-3.331236
  0
VERTEX
  8
PLAN_1
  6
CONTINUOUS
 10
0.663717
 20
-3.329469
  0
VERTEX
  8
PLAN_1
  6
CONTINUOUS
 10
0.659740
 20
-3.328146
  0
VERTEX
  8
PLAN_1
  6
CONTINUOUS
 10
0.655323
 20
-3.326819
  0
VERTEX
  8
PLAN_1
  6
CONTINUOUS
 10
0.650906
 20
-3.326378
  0
VERTEX
  8
PLAN_1
  6
CONTINUOUS
 10
0.645606
 20
-3.325937
  0
VERTEX
  8
PLAN_1
  6
CONTINUOUS
 10
0.638980
 20
-3.326378
  0
VERTEX
  8
PLAN_1
  6
CONTINUOUS
 10
0.633236
 20
-3.327701
  0
VERTEX
  8
PLAN_1
  6
CONTINUOUS
 10
0.628378
 20
-3.329469
  0
VERTEX
  8
PLAN_1
  6
CONTINUOUS
 10
0.623961
 20
-3.331677
  0
VERTEX
  8
PLAN_1
  6
CONTINUOUS
 10
0.620425
 20
-3.334331
  0
VERTEX
  8
PLAN_1
  6
CONTINUOUS
 10
0.617335
 20
-3.337862
  0
VERTEX
  8
PLAN_1
  6
CONTINUOUS
 10
0.614685
 20
-3.341398
  0
VERTEX
  8
PLAN_1
  6
CONTINUOUS
 10
0.612476
 20
-3.344929
  0
VERTEX
  8
PLAN_1
  6
CONTINUOUS
 10
0.610709
 20
-3.348906
  0
VERTEX
  8
PLAN_1
  6
CONTINUOUS
 10
0.609382
 20
-3.352882
  0
VERTEX
  8
PLAN_1
  6
CONTINUOUS
 10
0.608500
 20
-3.356858
  0
VERTEX
  8
PLAN_1
  6
CONTINUOUS
 10
0.607614
 20
-3.360835
  0
VERTEX
  8
PLAN_1
  6
CONTINUOUS
 10
0.606732
 20
-3.368343
  0
VERTEX
  8
PLAN_1
  6
CONTINUOUS
 10
0.606291
 20
-3.374087
  0
VERTEX
  8
PLAN_1
  6
CONTINUOUS
 10
0.581992
 20
-3.374087
  0
SEQEND
  8
0
  0
SOLID
  8
PLAN_1
 10
0.723795
 20
-3.534000
 11
0.723795
 21
-3.520307
 12
0.878409
 22
-3.534000
 13
0.878409
 23
-3.520307
  0
POLYLINE
  8
PLAN_1
  6
CONTINUOUS
 66
     1
 40
0.003000
 41
0.003000
  0
VERTEX
  8
PLAN_1
  6
CONTINUOUS
 10
0.723795
 20
-3.534000
  0
VERTEX
  8
PLAN_1
  6
CONTINUOUS
 10
0.723795
 20
-3.520307
  0
VERTEX
  8
PLAN_1
  6
CONTINUOUS
 10
0.878409
 20
-3.520307
  0
VERTEX
  8
PLAN_1
  6
CONTINUOUS
 10
0.878409
 20
-3.534000
  0
VERTEX
  8
PLAN_1
  6
CONTINUOUS
 10
0.723795
 20
-3.534000
  0
SEQEND
  8
0
  0
POLYLINE
  8
PLAN_1
  6
CONTINUOUS
 66
     1
 40
0.003000
 41
0.003000
  0
VERTEX
  8
PLAN_1
  6
CONTINUOUS
 10
0.889894
 20
-3.370996
  0
VERTEX
  8
PLAN_1
  6
CONTINUOUS
 10
0.890335
 20
-3.364366
  0
VERTEX
  8
PLAN_1
  6
CONTINUOUS
 10
0.891220
 20
-3.358185
  0
VERTEX
  8
PLAN_1
  6
CONTINUOUS
 10
0.892102
 20
-3.351559
  0
VERTEX
  8
PLAN_1
  6
CONTINUOUS
 10
0.893870
 20
-3.345815
  0
VERTEX
  8
PLAN_1
  6
CONTINUOUS
 10
0.896079
 20
-3.339630
  0
VERTEX
  8
PLAN_1
  6
CONTINUOUS
 10
0.899169
 20
-3.334331
  0
VERTEX
  8
PLAN_1
  6
CONTINUOUS
 10
0.902264
 20
-3.329028
  0
VERTEX
  8
PLAN_1
  6
CONTINUOUS
 10
0.905795
 20
-3.324169
  0
VERTEX
  8
PLAN_1
  6
CONTINUOUS
 10
0.910213
 20
-3.319752
  0
VERTEX
  8
PLAN_1
  6
CONTINUOUS
 10
0.914630
 20
-3.315776
  0
VERTEX
  8
PLAN_1
  6
CONTINUOUS
 10
0.919933
 20
-3.312685
  0
VERTEX
  8
PLAN_1
  6
CONTINUOUS
 10
0.925677
 20
-3.309591
  0
VERTEX
  8
PLAN_1
  6
CONTINUOUS
 10
0.931858
 20
-3.307382
  0
VERTEX
  8
PLAN_1
  6
CONTINUOUS
 10
0.938043
 20
-3.305614
  0
VERTEX
  8
PLAN_1
  6
CONTINUOUS
 10
0.945114
 20
-3.304732
  0
VERTEX
  8
PLAN_1
  6
CONTINUOUS
 10
0.952622
 20
-3.304291
  0
VERTEX
  8
PLAN_1
  6
CONTINUOUS
 10
0.958366
 20
-3.304291
  0
VERTEX
  8
PLAN_1
  6
CONTINUOUS
 10
0.963665
 20
-3.304732
  0
VERTEX
  8
PLAN_1
  6
CONTINUOUS
 10
0.968969
 20
-3.305614
  0
VERTEX
  8
PLAN_1
  6
CONTINUOUS
 10
0.973386
 20
-3.306941
  0
VERTEX
  8
PLAN_1
  6
CONTINUOUS
 10
0.977803
 20
-3.308264
  0
VERTEX
  8
PLAN_1
  6
CONTINUOUS
 10
0.982220
 20
-3.310031
  0
VERTEX
  8
PLAN_1
  6
CONTINUOUS
 10
0.986197
 20
-3.311799
  0
VERTEX
  8
PLAN_1
  6
CONTINUOUS
 10
0.989728
 20
-3.314008
  0
VERTEX
  8
PLAN_1
  6
CONTINUOUS
 10
0.992823
 20
-3.316217
  0
VERTEX
  8
PLAN_1
  6
CONTINUOUS
 10
0.995913
 20
-3.318866
  0
VERTEX
  8
PLAN_1
  6
CONTINUOUS
 10
0.999008
 20
-3.321520
  0
VERTEX
  8
PLAN_1
  6
CONTINUOUS
 10
1.001657
 20
-3.324610
  0
VERTEX
  8
PLAN_1
  6
CONTINUOUS
 10
1.004307
 20
-3.327701
  0
VERTEX
  8
PLAN_1
  6
CONTINUOUS
 10
1.006516
 20
-3.330795
  0
VERTEX
  8
PLAN_1
  6
CONTINUOUS
 10
1.008283
 20
-3.334331
  0
VERTEX
  8
PLAN_1
  6
CONTINUOUS
 10
1.010051
 20
-3.337421
  0
VERTEX
  8
PLAN_1
  6
CONTINUOUS
 10
1.013142
 20
-3.344929
  0
VERTEX
  8
PLAN_1
  6
CONTINUOUS
 10
1.015791
 20
-3.352000
  0
VERTEX
  8
PLAN_1
  6
CONTINUOUS
 10
1.017559
 20
-3.359508
  0
VERTEX
  8
PLAN_1
  6
CONTINUOUS
 10
1.018886
 20
-3.367020
  0
VERTEX
  8
PLAN_1
  6
CONTINUOUS
 10
1.020209
 20
-3.374528
  0
VERTEX
  8
PLAN_1
  6
CONTINUOUS
 10
1.020654
 20
-3.381594
  0
VERTEX
  8
PLAN_1
  6
CONTINUOUS
 10
1.021094
 20
-3.388220
  0
VERTEX
  8
PLAN_1
  6
CONTINUOUS
 10
1.021094
 20
-3.394850
  0
VERTEX
  8
PLAN_1
  6
CONTINUOUS
 10
1.020654
 20
-3.405449
  0
VERTEX
  8
PLAN_1
  6
CONTINUOUS
 10
1.019327
 20
-3.420469
  0
VERTEX
  8
PLAN_1
  6
CONTINUOUS
 10
1.018000
 20
-3.429307
  0
VERTEX
  8
PLAN_1
  6
CONTINUOUS
 10
1.016232
 20
-3.438583
  0
VERTEX
  8
PLAN_1
  6
CONTINUOUS
 10
1.014024
 20
-3.447858
  0
VERTEX
  8
PLAN_1
  6
CONTINUOUS
 10
1.010933
 20
-3.457579
  0
VERTEX
  8
PLAN_1
  6
CONTINUOUS
 10
1.009165
 20
-3.461996
  0
VERTEX
  8
PLAN_1
  6
CONTINUOUS
 10
1.006957
 20
-3.466413
  0
VERTEX
  8
PLAN_1
  6
CONTINUOUS
 10
1.004748
 20
-3.470831
  0
VERTEX
  8
PLAN_1
  6
CONTINUOUS
 10
1.002098
 20
-3.475248
  0
VERTEX
  8
PLAN_1
  6
CONTINUOUS
 10
0.999449
 20
-3.479224
  0
VERTEX
  8
PLAN_1
  6
CONTINUOUS
 10
0.996354
 20
-3.483197
  0
VERTEX
  8
PLAN_1
  6
CONTINUOUS
 10
0.993264
 20
-3.486732
  0
VERTEX
  8
PLAN_1
  6
CONTINUOUS
 10
0.989728
 20
-3.490268
  0
VERTEX
  8
PLAN_1
  6
CONTINUOUS
 10
0.985752
 20
-3.493358
  0
VERTEX
  8
PLAN_1
  6
CONTINUOUS
 10
0.981780
 20
-3.496008
  0
VERTEX
  8
PLAN_1
  6
CONTINUOUS
 10
0.977358
 20
-3.498661
  0
VERTEX
  8
PLAN_1
  6
CONTINUOUS
 10
0.972500
 20
-3.500870
  0
VERTEX
  8
PLAN_1
  6
CONTINUOUS
 10
0.967642
 20
-3.502193
  0
VERTEX
  8
PLAN_1
  6
CONTINUOUS
 10
0.961898
 20
-3.503520
  0
VERTEX
  8
PLAN_1
  6
CONTINUOUS
 10
0.956157
 20
-3.504402
  0
VERTEX
  8
PLAN_1
  6
CONTINUOUS
 10
0.950413
 20
-3.504402
  0
VERTEX
  8
PLAN_1
  6
CONTINUOUS
 10
0.942020
 20
-3.504402
  0
VERTEX
  8
PLAN_1
  6
CONTINUOUS
 10
0.934512
 20
-3.503079
  0
VERTEX
  8
PLAN_1
  6
CONTINUOUS
 10
0.927886
 20
-3.501311
  0
VERTEX
  8
PLAN_1
  6
CONTINUOUS
 10
0.921701
 20
-3.499102
  0
VERTEX
  8
PLAN_1
  6
CONTINUOUS
 10
0.916398
 20
-3.496453
  0
VERTEX
  8
PLAN_1
  6
CONTINUOUS
 10
0.911980
 20
-3.492917
  0
VERTEX
  8
PLAN_1
  6
CONTINUOUS
 10
0.907563
 20
-3.489382
  0
VERTEX
  8
PLAN_1
  6
CONTINUOUS
 10
0.904031
 20
-3.485406
  0
VERTEX
  8
PLAN_1
  6
CONTINUOUS
 10
0.900937
 20
-3.481433
  0
VERTEX
  8
PLAN_1
  6
CONTINUOUS
 10
0.898728
 20
-3.477016
  0
VERTEX
  8
PLAN_1
  6
CONTINUOUS
 10
0.896520
 20
-3.473039
  0
VERTEX
  8
PLAN_1
  6
CONTINUOUS
 10
0.894752
 20
-3.468622
  0
VERTEX
  8
PLAN_1
  6
CONTINUOUS
 10
0.893870
 20
-3.464205
  0
VERTEX
  8
PLAN_1
  6
CONTINUOUS
 10
0.892984
 20
-3.460228
  0
VERTEX
  8
PLAN_1
  6
CONTINUOUS
 10
0.892543
 20
-3.456252
  0
VERTEX
  8
PLAN_1
  6
CONTINUOUS
 10
0.892102
 20
-3.452276
  0
VERTEX
  8
PLAN_1
  6
CONTINUOUS
 10
0.916839
 20
-3.452276
  0
VERTEX
  8
PLAN_1
  6
CONTINUOUS
 10
0.916839
 20
-3.455811
  0
VERTEX
  8
PLAN_1
  6
CONTINUOUS
 10
0.917724
 20
-3.459343
  0
VERTEX
  8
PLAN_1
  6
CONTINUOUS
 10
0.918606
 20
-3.462878
  0
VERTEX
  8
PLAN_1
  6
CONTINUOUS
 10
0.919492
 20
-3.465528
  0
VERTEX
  8
PLAN_1
  6
CONTINUOUS
 10
0.920815
 20
-3.468622
  0
VERTEX
  8
PLAN_1
  6
CONTINUOUS
 10
0.922583
 20
-3.471272
  0
VERTEX
  8
PLAN_1
  6
CONTINUOUS
 10
0.924350
 20
-3.473480
  0
VERTEX
  8
PLAN_1
  6
CONTINUOUS
 10
0.926118
 20
-3.475689
  0
VERTEX
  8
PLAN_1
  6
CONTINUOUS
 10
0.928327
 20
-3.477898
  0
VERTEX
  8
PLAN_1
  6
CONTINUOUS
 10
0.930976
 20
-3.479224
  0
VERTEX
  8
PLAN_1
  6
CONTINUOUS
 10
0.933626
 20
-3.480988
  0
VERTEX
  8
PLAN_1
  6
CONTINUOUS
 10
0.936276
 20
-3.482315
  0
VERTEX
  8
PLAN_1
  6
CONTINUOUS
 10
0.939370
 20
-3.483197
  0
VERTEX
  8
PLAN_1
  6
CONTINUOUS
 10
0.942461
 20
-3.483642
  0
VERTEX
  8
PLAN_1
  6
CONTINUOUS
 10
0.945996
 20
-3.484083
  0
VERTEX
  8
PLAN_1
  6
CONTINUOUS
 10
0.949531
 20
-3.484524
  0
VERTEX
  8
PLAN_1
  6
CONTINUOUS
 10
0.954390
 20
-3.484083
  0
VERTEX
  8
PLAN_1
  6
CONTINUOUS
 10
0.959248
 20
-3.483197
  0
VERTEX
  8
PLAN_1
  6
CONTINUOUS
 10
0.963224
 20
-3.481874
  0
VERTEX
  8
PLAN_1
  6
CONTINUOUS
 10
0.967201
 20
-3.480106
  0
VERTEX
  8
PLAN_1
  6
CONTINUOUS
 10
0.971177
 20
-3.477457
  0
VERTEX
  8
PLAN_1
  6
CONTINUOUS
 10
0.974709
 20
-3.474362
  0
VERTEX
  8
PLAN_1
  6
CONTINUOUS
 10
0.977803
 20
-3.470831
  0
VERTEX
  8
PLAN_1
  6
CONTINUOUS
 10
0.980894
 20
-3.466854
  0
VERTEX
  8
PLAN_1
  6
CONTINUOUS
 10
0.983543
 20
-3.461996
  0
VERTEX
  8
PLAN_1
  6
CONTINUOUS
 10
0.986197
 20
-3.456693
  0
VERTEX
  8
PLAN_1
  6
CONTINUOUS
 10
0.988406
 20
-3.450508
  0
VERTEX
  8
PLAN_1
  6
CONTINUOUS
 10
0.990614
 20
-3.443882
  0
VERTEX
  8
PLAN_1
  6
CONTINUOUS
 10
0.992378
 20
-3.436815
  0
VERTEX
  8
PLAN_1
  6
CONTINUOUS
 10
0.993705
 20
-3.428862
  0
VERTEX
  8
PLAN_1
  6
CONTINUOUS
 10
0.995472
 20
-3.420469
  0
VERTEX
  8
PLAN_1
  6
CONTINUOUS
 10
0.996795
 20
-3.411193
  0
VERTEX
  8
PLAN_1
  6
CONTINUOUS
 10
0.995913
 20
-3.410752
  0
VERTEX
  8
PLAN_1
  6
CONTINUOUS
 10
0.994587
 20
-3.413402
  0
VERTEX
  8
PLAN_1
  6
CONTINUOUS
 10
0.992823
 20
-3.416051
  0
VERTEX
  8
PLAN_1
  6
CONTINUOUS
 10
0.990614
 20
-3.418705
  0
VERTEX
  8
PLAN_1
  6
CONTINUOUS
 10
0.988406
 20
-3.420913
  0
VERTEX
  8
PLAN_1
  6
CONTINUOUS
 10
0.986197
 20
-3.422677
  0
VERTEX
  8
PLAN_1
  6
CONTINUOUS
 10
0.983543
 20
-3.424886
  0
VERTEX
  8
PLAN_1
  6
CONTINUOUS
 10
0.980894
 20
-3.426654
  0
VERTEX
  8
PLAN_1
  6
CONTINUOUS
 10
0.977803
 20
-3.427980
  0
VERTEX
  8
PLAN_1
  6
CONTINUOUS
 10
0.971618
 20
-3.430630
  0
VERTEX
  8
PLAN_1
  6
CONTINUOUS
 10
0.964992
 20
-3.432398
  0
VERTEX
  8
PLAN_1
  6
CONTINUOUS
 10
0.958366
 20
-3.433724
  0
VERTEX
  8
PLAN_1
  6
CONTINUOUS
 10
0.951295
 20
-3.434165
  0
VERTEX
  8
PLAN_1
  6
CONTINUOUS
 10
0.944669
 20
-3.433724
  0
VERTEX
  8
PLAN_1
  6
CONTINUOUS
 10
0.938484
 20
-3.432839
  0
VERTEX
  8
PLAN_1
  6
CONTINUOUS
 10
0.932303
 20
-3.431516
  0
VERTEX
  8
PLAN_1
  6
CONTINUOUS
 10
0.926559
 20
-3.429748
  0
VERTEX
  8
PLAN_1
  6
CONTINUOUS
 10
0.921260
 20
-3.427094
  0
VERTEX
  8
PLAN_1
  6
CONTINUOUS
 10
0.915957
 20
-3.424445
  0
VERTEX
  8
PLAN_1
  6
CONTINUOUS
 10
0.911539
 20
-3.420913
  0
VERTEX
  8
PLAN_1
  6
CONTINUOUS
 10
0.907122
 20
-3.416937
  0
VERTEX
  8
PLAN_1
  6
CONTINUOUS
 10
0.903146
 20
-3.412961
  0
VERTEX
  8
PLAN_1
  6
CONTINUOUS
 10
0.900055
 20
-3.408102
  0
VERTEX
  8
PLAN_1
  6
CONTINUOUS
 10
0.896961
 20
-3.402799
  0
VERTEX
  8
PLAN_1
  6
CONTINUOUS
 10
0.894311
 20
-3.397500
  0
VERTEX
  8
PLAN_1
  6
CONTINUOUS
 10
0.892543
 20
-3.391315
  0
VERTEX
  8
PLAN_1
  6
CONTINUOUS
 10
0.891220
 20
-3.385130
  0
VERTEX
  8
PLAN_1
  6
CONTINUOUS
 10
0.890335
 20
-3.378063
  0
VERTEX
  8
PLAN_1
  6
CONTINUOUS
 10
0.889894
 20
-3.370996
  0
SEQEND
  8
0
  0
POLYLINE
  8
PLAN_1
  6
CONTINUOUS
 66
     1
 40
0.003000
 41
0.003000
  0
VERTEX
  8
PLAN_1
  6
CONTINUOUS
 10
0.992378
 20
-3.367902
  0
VERTEX
  8
PLAN_1
  6
CONTINUOUS
 10
0.992378
 20
-3.363484
  0
VERTEX
  8
PLAN_1
  6
CONTINUOUS
 10
0.991937
 20
-3.359508
  0
VERTEX
  8
PLAN_1
  6
CONTINUOUS
 10
0.991055
 20
-3.355531
  0
VERTEX
  8
PLAN_1
  6
CONTINUOUS
 10
0.990169
 20
-3.352000
  0
VERTEX
  8
PLAN_1
  6
CONTINUOUS
 10
0.988846
 20
-3.348465
  0
VERTEX
  8
PLAN_1
  6
CONTINUOUS
 10
0.987520
 20
-3.344929
  0
VERTEX
  8
PLAN_1
  6
CONTINUOUS
 10
0.985311
 20
-3.341398
  0
VERTEX
  8
PLAN_1
  6
CONTINUOUS
 10
0.983102
 20
-3.338748
  0
VERTEX
  8
PLAN_1
  6
CONTINUOUS
 10
0.980894
 20
-3.336094
  0
VERTEX
  8
PLAN_1
  6
CONTINUOUS
 10
0.977803
 20
-3.333445
  0
VERTEX
  8
PLAN_1
  6
CONTINUOUS
 10
0.974709
 20
-3.331236
  0
VERTEX
  8
PLAN_1
  6
CONTINUOUS
 10
0.971177
 20
-3.329469
  0
VERTEX
  8
PLAN_1
  6
CONTINUOUS
 10
0.967201
 20
-3.328146
  0
VERTEX
  8
PLAN_1
  6
CONTINUOUS
 10
0.962783
 20
-3.326819
  0
VERTEX
  8
PLAN_1
  6
CONTINUOUS
 10
0.957921
 20
-3.326378
  0
VERTEX
  8
PLAN_1
  6
CONTINUOUS
 10
0.953063
 20
-3.325937
  0
VERTEX
  8
PLAN_1
  6
CONTINUOUS
 10
0.948646
 20
-3.326378
  0
VERTEX
  8
PLAN_1
  6
CONTINUOUS
 10
0.944669
 20
-3.326819
  0
VERTEX
  8
PLAN_1
  6
CONTINUOUS
 10
0.941138
 20
-3.328146
  0
VERTEX
  8
PLAN_1
  6
CONTINUOUS
 10
0.937602
 20
-3.329469
  0
VERTEX
  8
PLAN_1
  6
CONTINUOUS
 10
0.934067
 20
-3.331236
  0
VERTEX
  8
PLAN_1
  6
CONTINUOUS
 10
0.930976
 20
-3.333004
  0
VERTEX
  8
PLAN_1
  6
CONTINUOUS
 10
0.928327
 20
-3.335654
  0
VERTEX
  8
PLAN_1
  6
CONTINUOUS
 10
0.925677
 20
-3.338303
  0
VERTEX
  8
PLAN_1
  6
CONTINUOUS
 10
0.923469
 20
-3.341398
  0
VERTEX
  8
PLAN_1
  6
CONTINUOUS
 10
0.921260
 20
-3.344488
  0
VERTEX
  8
PLAN_1
  6
CONTINUOUS
 10
0.919492
 20
-3.348024
  0
VERTEX
  8
PLAN_1
  6
CONTINUOUS
 10
0.918165
 20
-3.352000
  0
VERTEX
  8
PLAN_1
  6
CONTINUOUS
 10
0.916839
 20
-3.356417
  0
VERTEX
  8
PLAN_1
  6
CONTINUOUS
 10
0.915957
 20
-3.360394
  0
VERTEX
  8
PLAN_1
  6
CONTINUOUS
 10
0.915516
 20
-3.365252
  0
VERTEX
  8
PLAN_1
  6
CONTINUOUS
 10
0.915075
 20
-3.370110
  0
VERTEX
  8
PLAN_1
  6
CONTINUOUS
 10
0.915516
 20
-3.376736
  0
VERTEX
  8
PLAN_1
  6
CONTINUOUS
 10
0.916398
 20
-3.382480
  0
VERTEX
  8
PLAN_1
  6
CONTINUOUS
 10
0.917724
 20
-3.387780
  0
VERTEX
  8
PLAN_1
  6
CONTINUOUS
 10
0.919047
 20
-3.392197
  0
VERTEX
  8
PLAN_1
  6
CONTINUOUS
 10
0.921260
 20
-3.396173
  0
VERTEX
  8
PLAN_1
  6
CONTINUOUS
 10
0.923469
 20
-3.399709
  0
VERTEX
  8
PLAN_1
  6
CONTINUOUS
 10
0.926118
 20
-3.402799
  0
VERTEX
  8
PLAN_1
  6
CONTINUOUS
 10
0.928768
 20
-3.405008
  0
VERTEX
  8
PLAN_1
  6
CONTINUOUS
 10
0.931858
 20
-3.407217
  0
VERTEX
  8
PLAN_1
  6
CONTINUOUS
 10
0.935394
 20
-3.408543
  0
VERTEX
  8
PLAN_1
  6
CONTINUOUS
 10
0.938484
 20
-3.409870
  0
VERTEX
  8
PLAN_1
  6
CONTINUOUS
 10
0.942020
 20
-3.410752
  0
VERTEX
  8
PLAN_1
  6
CONTINUOUS
 10
0.948646
 20
-3.412079
  0
VERTEX
  8
PLAN_1
  6
CONTINUOUS
 10
0.954831
 20
-3.412079
  0
VERTEX
  8
PLAN_1
  6
CONTINUOUS
 10
0.960134
 20
-3.411634
  0
VERTEX
  8
PLAN_1
  6
CONTINUOUS
 10
0.966315
 20
-3.410752
  0
VERTEX
  8
PLAN_1
  6
CONTINUOUS
 10
0.969409
 20
-3.409425
  0
VERTEX
  8
PLAN_1
  6
CONTINUOUS
 10
0.972500
 20
-3.408102
  0
VERTEX
  8
PLAN_1
  6
CONTINUOUS
 10
0.975594
 20
-3.406776
  0
VERTEX
  8
PLAN_1
  6
CONTINUOUS
 10
0.978685
 20
-3.404567
  0
VERTEX
  8
PLAN_1
  6
CONTINUOUS
 10
0.981335
 20
-3.401917
  0
VERTEX
  8
PLAN_1
  6
CONTINUOUS
 10
0.983988
 20
-3.398823
  0
VERTEX
  8
PLAN_1
  6
CONTINUOUS
 10
0.986197
 20
-3.395291
  0
VERTEX
  8
PLAN_1
  6
CONTINUOUS
 10
0.988406
 20
-3.390874
  0
VERTEX
  8
PLAN_1
  6
CONTINUOUS
 10
0.990169
 20
-3.386012
  0
VERTEX
  8
PLAN_1
  6
CONTINUOUS
 10
0.991496
 20
-3.380713
  0
VERTEX
  8
PLAN_1
  6
CONTINUOUS
 10
0.991937
 20
-3.374528
  0
VERTEX
  8
PLAN_1
  6
CONTINUOUS
 10
0.992378
 20
-3.367902
  0
SEQEND
  8
0
  0
POLYLINE
  8
PLAN_1
  6
CONTINUOUS
 66
     1
 40
0.003000
 41
0.003000
  0
VERTEX
  8
PLAN_1
  6
CONTINUOUS
 10
1.084264
 20
-3.499102
  0
VERTEX
  8
PLAN_1
  6
CONTINUOUS
 10
1.057319
 20
-3.499102
  0
VERTEX
  8
PLAN_1
  6
CONTINUOUS
 10
1.057319
 20
-3.299874
  0
VERTEX
  8
PLAN_1
  6
CONTINUOUS
 10
1.149201
 20
-3.299874
  0
VERTEX
  8
PLAN_1
  6
CONTINUOUS
 10
1.155386
 20
-3.300315
  0
VERTEX
  8
PLAN_1
  6
CONTINUOUS
 10
1.161571
 20
-3.300756
  0
VERTEX
  8
PLAN_1
  6
CONTINUOUS
 10
1.167311
 20
-3.301197
  0
VERTEX
  8
PLAN_1
  6
CONTINUOUS
 10
1.173496
 20
-3.302524
  0
VERTEX
  8
PLAN_1
  6
CONTINUOUS
 10
1.178799
 20
-3.303846
  0
VERTEX
  8
PLAN_1
  6
CONTINUOUS
 10
1.184539
 20
-3.306055
  0
VERTEX
  8
PLAN_1
  6
CONTINUOUS
 10
1.189402
 20
-3.308264
  0
VERTEX
  8
PLAN_1
  6
CONTINUOUS
 10
1.194260
 20
-3.310917
  0
VERTEX
  8
PLAN_1
  6
CONTINUOUS
 10
1.198677
 20
-3.314449
  0
VERTEX
  8
PLAN_1
  6
CONTINUOUS
 10
1.202654
 20
-3.317984
  0
VERTEX
  8
PLAN_1
  6
CONTINUOUS
 10
1.206185
 20
-3.322402
  0
VERTEX
  8
PLAN_1
  6
CONTINUOUS
 10
1.209280
 20
-3.327260
  0
VERTEX
  8
PLAN_1
  6
CONTINUOUS
 10
1.211488
 20
-3.333004
  0
VERTEX
  8
PLAN_1
  6
CONTINUOUS
 10
1.213256
 20
-3.339189
  0
VERTEX
  8
PLAN_1
  6
CONTINUOUS
 10
1.214579
 20
-3.346256
  0
VERTEX
  8
PLAN_1
  6
CONTINUOUS
 10
1.215024
 20
-3.353768
  0
VERTEX
  8
PLAN_1
  6
CONTINUOUS
 10
1.214579
 20
-3.359067
  0
VERTEX
  8
PLAN_1
  6
CONTINUOUS
 10
1.214138
 20
-3.363925
  0
VERTEX
  8
PLAN_1
  6
CONTINUOUS
 10
1.213256
 20
-3.368343
  0
VERTEX
  8
PLAN_1
  6
CONTINUOUS
 10
1.212370
 20
-3.372319
  0
VERTEX
  8
PLAN_1
  6
CONTINUOUS
 10
1.211047
 20
-3.376295
  0
VERTEX
  8
PLAN_1
  6
CONTINUOUS
 10
1.209280
 20
-3.379831
  0
VERTEX
  8
PLAN_1
  6
CONTINUOUS
 10
1.207512
 20
-3.382921
  0
VERTEX
  8
PLAN_1
  6
CONTINUOUS
 10
1.205744
 20
-3.385571
  0
VERTEX
  8
PLAN_1
  6
CONTINUOUS
 10
1.201327
 20
-3.390874
  0
VERTEX
  8
PLAN_1
  6
CONTINUOUS
 10
1.196909
 20
-3.394850
  0
VERTEX
  8
PLAN_1
  6
CONTINUOUS
 10
1.192051
 20
-3.398382
  0
VERTEX
  8
PLAN_1
  6
CONTINUOUS
 10
1.187193
 20
-3.401476
  0
VERTEX
  8
PLAN_1
  6
CONTINUOUS
 10
1.191165
 20
-3.403240
  0
VERTEX
  8
PLAN_1
  6
CONTINUOUS
 10
1.195587
 20
-3.405449
  0
VERTEX
  8
PLAN_1
  6
CONTINUOUS
 10
1.199118
 20
-3.408102
  0
VERTEX
  8
PLAN_1
  6
CONTINUOUS
 10
1.202654
 20
-3.411634
  0
VERTEX
  8
PLAN_1
  6
CONTINUOUS
 10
1.204421
 20
-3.413402
  0
VERTEX
  8
PLAN_1
  6
CONTINUOUS
 10
1.205744
 20
-3.416051
  0
VERTEX
  8
PLAN_1
  6
CONTINUOUS
 10
1.207071
 20
-3.418705
  0
VERTEX
  8
PLAN_1
  6
CONTINUOUS
 10
1.208394
 20
-3.421795
  0
VERTEX
  8
PLAN_1
  6
CONTINUOUS
 10
1.209280
 20
-3.425331
  0
VERTEX
  8
PLAN_1
  6
CONTINUOUS
 10
1.210161
 20
-3.429307
  0
VERTEX
  8
PLAN_1
  6
CONTINUOUS
 10
1.210602
 20
-3.433724
  0
VERTEX
  8
PLAN_1
  6
CONTINUOUS
 10
1.211047
 20
-3.438583
  0
VERTEX
  8
PLAN_1
  6
CONTINUOUS
 10
1.212811
 20
-3.474807
  0
VERTEX
  8
PLAN_1
  6
CONTINUOUS
 10
1.212811
 20
-3.478780
  0
VERTEX
  8
PLAN_1
  6
CONTINUOUS
 10
1.213256
 20
-3.481874
  0
VERTEX
  8
PLAN_1
  6
CONTINUOUS
 10
1.213697
 20
-3.484965
  0
VERTEX
  8
PLAN_1
  6
CONTINUOUS
 10
1.214579
 20
-3.487173
  0
VERTEX
  8
PLAN_1
  6
CONTINUOUS
 10
1.215906
 20
-3.489382
  0
VERTEX
  8
PLAN_1
  6
CONTINUOUS
 10
1.217673
 20
-3.491150
  0
VERTEX
  8
PLAN_1
  6
CONTINUOUS
 10
1.219882
 20
-3.492917
  0
VERTEX
  8
PLAN_1
  6
CONTINUOUS
 10
1.222531
 20
-3.494685
  0
VERTEX
  8
PLAN_1
  6
CONTINUOUS
 10
1.222531
 20
-3.499102
  0
VERTEX
  8
PLAN_1
  6
CONTINUOUS
 10
1.189402
 20
-3.499102
  0
VERTEX
  8
PLAN_1
  6
CONTINUOUS
 10
1.188075
 20
-3.493799
  0
VERTEX
  8
PLAN_1
  6
CONTINUOUS
 10
1.187193
 20
-3.487618
  0
VERTEX
  8
PLAN_1
  6
CONTINUOUS
 10
1.186307
 20
-3.480106
  0
VERTEX
  8
PLAN_1
  6
CONTINUOUS
 10
1.185866
 20
-3.472598
  0
VERTEX
  8
PLAN_1
  6
CONTINUOUS
 10
1.185425
 20
-3.465087
  0
VERTEX
  8
PLAN_1
  6
CONTINUOUS
 10
1.184984
 20
-3.458461
  0
VERTEX
  8
PLAN_1
  6
CONTINUOUS
 10
1.184984
 20
-3.453161
  0
VERTEX
  8
PLAN_1
  6
CONTINUOUS
 10
1.184984
 20
-3.449185
  0
VERTEX
  8
PLAN_1
  6
CONTINUOUS
 10
1.184539
 20
-3.443000
  0
VERTEX
  8
PLAN_1
  6
CONTINUOUS
 10
1.183657
 20
-3.436815
  0
VERTEX
  8
PLAN_1
  6
CONTINUOUS
 10
1.183217
 20
-3.433724
  0
VERTEX
  8
PLAN_1
  6
CONTINUOUS
 10
1.181890
 20
-3.431071
  0
VERTEX
  8
PLAN_1
  6
CONTINUOUS
 10
1.180567
 20
-3.427980
  0
VERTEX
  8
PLAN_1
  6
CONTINUOUS
 10
1.179240
 20
-3.425331
  0
VERTEX
  8
PLAN_1
  6
CONTINUOUS
 10
1.177031
 20
-3.423122
  0
VERTEX
  8
PLAN_1
  6
CONTINUOUS
 10
1.174823
 20
-3.420913
  0
VERTEX
  8
PLAN_1
  6
CONTINUOUS
 10
1.171728
 20
-3.418705
  0
VERTEX
  8
PLAN_1
  6
CONTINUOUS
 10
1.168638
 20
-3.416937
  0
VERTEX
  8
PLAN_1
  6
CONTINUOUS
 10
1.164661
 20
-3.415610
  0
VERTEX
  8
PLAN_1
  6
CONTINUOUS
 10
1.160244
 20
-3.414728
  0
VERTEX
  8
PLAN_1
  6
CONTINUOUS
 10
1.154945
 20
-3.413843
  0
VERTEX
  8
PLAN_1
  6
CONTINUOUS
 10
1.149201
 20
-3.413843
  0
VERTEX
  8
PLAN_1
  6
CONTINUOUS
 10
1.084264
 20
-3.413843
  0
VERTEX
  8
PLAN_1
  6
CONTINUOUS
 10
1.084264
 20
-3.499102
  0
SEQEND
  8
0
  0
POLYLINE
  8
PLAN_1
  6
CONTINUOUS
 66
     1
 40
0.003000
 41
0.003000
  0
VERTEX
  8
PLAN_1
  6
CONTINUOUS
 10
1.084264
 20
-3.390874
  0
VERTEX
  8
PLAN_1
  6
CONTINUOUS
 10
1.146551
 20
-3.390874
  0
VERTEX
  8
PLAN_1
  6
CONTINUOUS
 10
1.154059
 20
-3.390433
  0
VERTEX
  8
PLAN_1
  6
CONTINUOUS
 10
1.161130
 20
-3.389547
  0
VERTEX
  8
PLAN_1
  6
CONTINUOUS
 10
1.164661
 20
-3.388665
  0
VERTEX
  8
PLAN_1
  6
CONTINUOUS
 10
1.168197
 20
-3.387780
  0
VERTEX
  8
PLAN_1
  6
CONTINUOUS
 10
1.171287
 20
-3.386457
  0
VERTEX
  8
PLAN_1
  6
CONTINUOUS
 10
1.174382
 20
-3.384689
  0
VERTEX
  8
PLAN_1
  6
CONTINUOUS
 10
1.177031
 20
-3.382480
  0
VERTEX
  8
PLAN_1
  6
CONTINUOUS
 10
1.179240
 20
-3.380272
  0
VERTEX
  8
PLAN_1
  6
CONTINUOUS
 10
1.181449
 20
-3.377177
  0
VERTEX
  8
PLAN_1
  6
CONTINUOUS
 10
1.183657
 20
-3.374087
  0
VERTEX
  8
PLAN_1
  6
CONTINUOUS
 10
1.184984
 20
-3.370551
  0
VERTEX
  8
PLAN_1
  6
CONTINUOUS
 10
1.186307
 20
-3.366134
  0
VERTEX
  8
PLAN_1
  6
CONTINUOUS
 10
1.186748
 20
-3.361717
  0
VERTEX
  8
PLAN_1
  6
CONTINUOUS
 10
1.187193
 20
-3.356417
  0
VERTEX
  8
PLAN_1
  6
CONTINUOUS
 10
1.186748
 20
-3.351114
  0
VERTEX
  8
PLAN_1
  6
CONTINUOUS
 10
1.185866
 20
-3.346256
  0
VERTEX
  8
PLAN_1
  6
CONTINUOUS
 10
1.184984
 20
-3.341839
  0
VERTEX
  8
PLAN_1
  6
CONTINUOUS
 10
1.183217
 20
-3.338303
  0
VERTEX
  8
PLAN_1
  6
CONTINUOUS
 10
1.181449
 20
-3.334772
  0
VERTEX
  8
PLAN_1
  6
CONTINUOUS
 10
1.179240
 20
-3.332122
  0
VERTEX
  8
PLAN_1
  6
CONTINUOUS
 10
1.176591
 20
-3.329909
  0
VERTEX
  8
PLAN_1
  6
CONTINUOUS
 10
1.173937
 20
-3.328146
  0
VERTEX
  8
PLAN_1
  6
CONTINUOUS
 10
1.171287
 20
-3.326819
  0
VERTEX
  8
PLAN_1
  6
CONTINUOUS
 10
1.168638
 20
-3.325492
  0
VERTEX
  8
PLAN_1
  6
CONTINUOUS
 10
1.165547
 20
-3.324610
  0
VERTEX
  8
PLAN_1
  6
CONTINUOUS
 10
1.162453
 20
-3.323728
  0
VERTEX
  8
PLAN_1
  6
CONTINUOUS
 10
1.156713
 20
-3.323283
  0
VERTEX
  8
PLAN_1
  6
CONTINUOUS
 10
1.151409
 20
-3.322843
  0
VERTEX
  8
PLAN_1
  6
CONTINUOUS
 10
1.084264
 20
-3.322843
  0
VERTEX
  8
PLAN_1
  6
CONTINUOUS
 10
1.084264
 20
-3.390874
  0
SEQEND
  8
0
  0
SOLID
  8
PLAN_1
 10
1.286142
 20
-3.499102
 11
1.257429
 21
-3.499102
 12
1.286142
 22
-3.469945
 13
1.257429
 23
-3.469945
  0
POLYLINE
  8
PLAN_1
  6
CONTINUOUS
 66
     1
 40
0.003000
 41
0.003000
  0
VERTEX
  8
PLAN_1
  6
CONTINUOUS
 10
1.286142
 20
-3.499102
  0
VERTEX
  8
PLAN_1
  6
CONTINUOUS
 10
1.257429
 20
-3.499102
  0
VERTEX
  8
PLAN_1
  6
CONTINUOUS
 10
1.257429
 20
-3.469945
  0
VERTEX
  8
PLAN_1
  6
CONTINUOUS
 10
1.286142
 20
-3.469945
  0
VERTEX
  8
PLAN_1
  6
CONTINUOUS
 10
1.286142
 20
-3.499102
  0
SEQEND
  8
0
  0
POLYLINE
  8
PLAN_1
  6
CONTINUOUS
 66
     1
 40
0.003000
 41
0.003000
  0
VERTEX
  8
PLAN_1
  6
CONTINUOUS
 10
1.481398
 20
-3.499102
  0
VERTEX
  8
PLAN_1
  6
CONTINUOUS
 10
1.334295
 20
-3.499102
  0
VERTEX
  8
PLAN_1
  6
CONTINUOUS
 10
1.334295
 20
-3.299874
  0
VERTEX
  8
PLAN_1
  6
CONTINUOUS
 10
1.479189
 20
-3.299874
  0
VERTEX
  8
PLAN_1
  6
CONTINUOUS
 10
1.479189
 20
-3.323728
  0
VERTEX
  8
PLAN_1
  6
CONTINUOUS
 10
1.361240
 20
-3.323728
  0
VERTEX
  8
PLAN_1
  6
CONTINUOUS
 10
1.361240
 20
-3.385130
  0
VERTEX
  8
PLAN_1
  6
CONTINUOUS
 10
1.470354
 20
-3.385130
  0
VERTEX
  8
PLAN_1
  6
CONTINUOUS
 10
1.470354
 20
-3.408984
  0
VERTEX
  8
PLAN_1
  6
CONTINUOUS
 10
1.361240
 20
-3.408984
  0
VERTEX
  8
PLAN_1
  6
CONTINUOUS
 10
1.361240
 20
-3.475248
  0
VERTEX
  8
PLAN_1
  6
CONTINUOUS
 10
1.481398
 20
-3.475248
  0
VERTEX
  8
PLAN_1
  6
CONTINUOUS
 10
1.481398
 20
-3.499102
  0
SEQEND
  8
0
  0
POLYLINE
  8
PLAN_1
  6
CONTINUOUS
 66
     1
 40
0.003000
 41
0.003000
  0
VERTEX
  8
PLAN_1
  6
CONTINUOUS
 10
1.546335
 20
-3.499102
  0
VERTEX
  8
PLAN_1
  6
CONTINUOUS
 10
1.519386
 20
-3.499102
  0
VERTEX
  8
PLAN_1
  6
CONTINUOUS
 10
1.519386
 20
-3.299874
  0
VERTEX
  8
PLAN_1
  6
CONTINUOUS
 10
1.609063
 20
-3.299874
  0
VERTEX
  8
PLAN_1
  6
CONTINUOUS
 10
1.615689
 20
-3.300315
  0
VERTEX
  8
PLAN_1
  6
CONTINUOUS
 10
1.622315
 20
-3.301197
  0
VERTEX
  8
PLAN_1
  6
CONTINUOUS
 10
1.628059
 20
-3.302524
  0
VERTEX
  8
PLAN_1
  6
CONTINUOUS
 10
1.633799
 20
-3.304291
  0
VERTEX
  8
PLAN_1
  6
CONTINUOUS
 10
1.639102
 20
-3.306500
  0
VERTEX
  8
PLAN_1
  6
CONTINUOUS
 10
1.643961
 20
-3.309150
  0
VERTEX
  8
PLAN_1
  6
CONTINUOUS
 10
1.648378
 20
-3.312240
  0
VERTEX
  8
PLAN_1
  6
CONTINUOUS
 10
1.652354
 20
-3.315776
  0
VERTEX
  8
PLAN_1
  6
CONTINUOUS
 10
1.655890
 20
-3.319752
  0
VERTEX
  8
PLAN_1
  6
CONTINUOUS
 10
1.659421
 20
-3.324169
  0
VERTEX
  8
PLAN_1
  6
CONTINUOUS
 10
1.662071
 20
-3.329028
  0
VERTEX
  8
PLAN_1
  6
CONTINUOUS
 10
1.664280
 20
-3.333886
  0
VERTEX
  8
PLAN_1
  6
CONTINUOUS
 10
1.666047
 20
-3.338748
  0
VERTEX
  8
PLAN_1
  6
CONTINUOUS
 10
1.667374
 20
-3.344488
  0
VERTEX
  8
PLAN_1
  6
CONTINUOUS
 10
1.667815
 20
-3.350232
  0
VERTEX
  8
PLAN_1
  6
CONTINUOUS
 10
1.668256
 20
-3.355976
  0
VERTEX
  8
PLAN_1
  6
CONTINUOUS
 10
1.668256
 20
-3.361276
  0
VERTEX
  8
PLAN_1
  6
CONTINUOUS
 10
1.667374
 20
-3.366575
  0
VERTEX
  8
PLAN_1
  6
CONTINUOUS
 10
1.666492
 20
-3.371878
  0
VERTEX
  8
PLAN_1
  6
CONTINUOUS
 10
1.665165
 20
-3.377177
  0
VERTEX
  8
PLAN_1
  6
CONTINUOUS
 10
1.663398
 20
-3.382039
  0
VERTEX
  8
PLAN_1
  6
CONTINUOUS
 10
1.660748
 20
-3.386898
  0
VERTEX
  8
PLAN_1
  6
CONTINUOUS
 10
1.658098
 20
-3.391756
  0
VERTEX
  8
PLAN_1
  6
CONTINUOUS
 10
1.655004
 20
-3.396173
  0
VERTEX
  8
PLAN_1
  6
CONTINUOUS
 10
1.651028
 20
-3.400150
  0
VERTEX
  8
PLAN_1
  6
CONTINUOUS
 10
1.647055
 20
-3.403685
  0
VERTEX
  8
PLAN_1
  6
CONTINUOUS
 10
1.642193
 20
-3.407217
  0
VERTEX
  8
PLAN_1
  6
CONTINUOUS
 10
1.636453
 20
-3.409870
  0
VERTEX
  8
PLAN_1
  6
CONTINUOUS
 10
1.630709
 20
-3.412079
  0
VERTEX
  8
PLAN_1
  6
CONTINUOUS
 10
1.624083
 20
-3.413843
  0
VERTEX
  8
PLAN_1
  6
CONTINUOUS
 10
1.617016
 20
-3.414728
  0
VERTEX
  8
PLAN_1
  6
CONTINUOUS
 10
1.609063
 20
-3.415169
  0
VERTEX
  8
PLAN_1
  6
CONTINUOUS
 10
1.546335
 20
-3.415169
  0
VERTEX
  8
PLAN_1
  6
CONTINUOUS
 10
1.546335
 20
-3.499102
  0
SEQEND
  8
0
  0
POLYLINE
  8
PLAN_1
  6
CONTINUOUS
 66
     1
 40
0.003000
 41
0.003000
  0
VERTEX
  8
PLAN_1
  6
CONTINUOUS
 10
1.546335
 20
-3.392197
  0
VERTEX
  8
PLAN_1
  6
CONTINUOUS
 10
1.599787
 20
-3.392197
  0
VERTEX
  8
PLAN_1
  6
CONTINUOUS
 10
1.604205
 20
-3.392197
  0
VERTEX
  8
PLAN_1
  6
CONTINUOUS
 10
1.608622
 20
-3.391756
  0
VERTEX
  8
PLAN_1
  6
CONTINUOUS
 10
1.612598
 20
-3.391315
  0
VERTEX
  8
PLAN_1
  6
CONTINUOUS
 10
1.616571
 20
-3.390433
  0
VERTEX
  8
PLAN_1
  6
CONTINUOUS
 10
1.620106
 20
-3.389106
  0
VERTEX
  8
PLAN_1
  6
CONTINUOUS
 10
1.623197
 20
-3.387780
  0
VERTEX
  8
PLAN_1
  6
CONTINUOUS
 10
1.626291
 20
-3.386457
  0
VERTEX
  8
PLAN_1
  6
CONTINUOUS
 10
1.629382
 20
-3.384248
  0
VERTEX
  8
PLAN_1
  6
CONTINUOUS
 10
1.631591
 20
-3.382039
  0
VERTEX
  8
PLAN_1
  6
CONTINUOUS
 10
1.634244
 20
-3.379386
  0
VERTEX
  8
PLAN_1
  6
CONTINUOUS
 10
1.636008
 20
-3.376736
  0
VERTEX
  8
PLAN_1
  6
CONTINUOUS
 10
1.637335
 20
-3.373205
  0
VERTEX
  8
PLAN_1
  6
CONTINUOUS
 10
1.638661
 20
-3.369669
  0
VERTEX
  8
PLAN_1
  6
CONTINUOUS
 10
1.639543
 20
-3.365693
  0
VERTEX
  8
PLAN_1
  6
CONTINUOUS
 10
1.640425
 20
-3.361276
  0
VERTEX
  8
PLAN_1
  6
CONTINUOUS
 10
1.640425
 20
-3.356417
  0
VERTEX
  8
PLAN_1
  6
CONTINUOUS
 10
1.640425
 20
-3.352000
  0
VERTEX
  8
PLAN_1
  6
CONTINUOUS
 10
1.639543
 20
-3.347583
  0
VERTEX
  8
PLAN_1
  6
CONTINUOUS
 10
1.638661
 20
-3.344047
  0
VERTEX
  8
PLAN_1
  6
CONTINUOUS
 10
1.637335
 20
-3.340512
  0
VERTEX
  8
PLAN_1
  6
CONTINUOUS
 10
1.636008
 20
-3.337421
  0
VERTEX
  8
PLAN_1
  6
CONTINUOUS
 10
1.633799
 20
-3.334772
  0
VERTEX
  8
PLAN_1
  6
CONTINUOUS
 10
1.631591
 20
-3.332122
  0
VERTEX
  8
PLAN_1
  6
CONTINUOUS
 10
1.628941
 20
-3.330354
  0
VERTEX
  8
PLAN_1
  6
CONTINUOUS
 10
1.626291
 20
-3.328587
  0
VERTEX
  8
PLAN_1
  6
CONTINUOUS
 10
1.623197
 20
-3.326819
  0
VERTEX
  8
PLAN_1
  6
CONTINUOUS
 10
1.620106
 20
-3.325492
  0
VERTEX
  8
PLAN_1
  6
CONTINUOUS
 10
1.616571
 20
-3.324610
  0
VERTEX
  8
PLAN_1
  6
CONTINUOUS
 10
1.613039
 20
-3.324169
  0
VERTEX
  8
PLAN_1
  6
CONTINUOUS
 10
1.609063
 20
-3.323283
  0
VERTEX
  8
PLAN_1
  6
CONTINUOUS
 10
1.605087
 20
-3.323283
  0
VERTEX
  8
PLAN_1
  6
CONTINUOUS
 10
1.601110
 20
-3.322843
  0
VERTEX
  8
PLAN_1
  6
CONTINUOUS
 10
1.546335
 20
-3.322843
  0
VERTEX
  8
PLAN_1
  6
CONTINUOUS
 10
1.546335
 20
-3.392197
  0
SEQEND
  8
0
  0
POLYLINE
  8
PLAN_1
  6
CONTINUOUS
 66
     1
 40
0.003000
 41
0.003000
  0
VERTEX
  8
PLAN_1
  6
CONTINUOUS
 10
1.821984
 20
-3.358185
  0
VERTEX
  8
PLAN_1
  6
CONTINUOUS
 10
1.821543
 20
-3.352882
  0
VERTEX
  8
PLAN_1
  6
CONTINUOUS
 10
1.820661
 20
-3.347583
  0
VERTEX
  8
PLAN_1
  6
CONTINUOUS
 10
1.818894
 20
-3.343165
  0
VERTEX
  8
PLAN_1
  6
CONTINUOUS
 10
1.817126
 20
-3.339189
  0
VERTEX
  8
PLAN_1
  6
CONTINUOUS
 10
1.814476
 20
-3.335213
  0
VERTEX
  8
PLAN_1
  6
CONTINUOUS
 10
1.811827
 20
-3.332122
  0
VERTEX
  8
PLAN_1
  6
CONTINUOUS
 10
1.808732
 20
-3.329028
  0
VERTEX
  8
PLAN_1
  6
CONTINUOUS
 10
1.805201
 20
-3.326378
  0
VERTEX
  8
PLAN_1
  6
CONTINUOUS
 10
1.801665
 20
-3.324169
  0
VERTEX
  8
PLAN_1
  6
CONTINUOUS
 10
1.797689
 20
-3.322402
  0
VERTEX
  8
PLAN_1
  6
CONTINUOUS
 10
1.793713
 20
-3.321075
  0
VERTEX
  8
PLAN_1
  6
CONTINUOUS
 10
1.789740
 20
-3.319752
  0
VERTEX
  8
PLAN_1
  6
CONTINUOUS
 10
1.785323
 20
-3.318866
  0
VERTEX
  8
PLAN_1
  6
CONTINUOUS
 10
1.781346
 20
-3.318425
  0
VERTEX
  8
PLAN_1
  6
CONTINUOUS
 10
1.776929
 20
-3.317984
  0
VERTEX
  8
PLAN_1
  6
CONTINUOUS
 10
1.772512
 20
-3.317984
  0
VERTEX
  8
PLAN_1
  6
CONTINUOUS
 10
1.765886
 20
-3.317984
  0
VERTEX
  8
PLAN_1
  6
CONTINUOUS
 10
1.758374
 20
-3.318866
  0
VERTEX
  8
PLAN_1
  6
CONTINUOUS
 10
1.754839
 20
-3.319752
  0
VERTEX
  8
PLAN_1
  6
CONTINUOUS
 10
1.750866
 20
-3.321075
  0
VERTEX
  8
PLAN_1
  6
CONTINUOUS
 10
1.747331
 20
-3.322402
  0
VERTEX
  8
PLAN_1
  6
CONTINUOUS
 10
1.743795
 20
-3.323728
  0
VERTEX
  8
PLAN_1
  6
CONTINUOUS
 10
1.740264
 20
-3.325937
  0
VERTEX
  8
PLAN_1
  6
CONTINUOUS
 10
1.737169
 20
-3.328587
  0
VERTEX
  8
PLAN_1
  6
CONTINUOUS
 10
1.734520
 20
-3.331236
  0
VERTEX
  8
PLAN_1
  6
CONTINUOUS
 10
1.731870
 20
-3.334331
  0
VERTEX
  8
PLAN_1
  6
CONTINUOUS
 10
1.730102
 20
-3.338303
  0
VERTEX
  8
PLAN_1
  6
CONTINUOUS
 10
1.728335
 20
-3.342720
  0
VERTEX
  8
PLAN_1
  6
CONTINUOUS
 10
1.727453
 20
-3.347583
  0
VERTEX
  8
PLAN_1
  6
CONTINUOUS
 10
1.727012
 20
-3.352882
  0
VERTEX
  8
PLAN_1
  6
CONTINUOUS
 10
1.727453
 20
-3.355976
  0
VERTEX
  8
PLAN_1
  6
CONTINUOUS
 10
1.727894
 20
-3.358626
  0
VERTEX
  8
PLAN_1
  6
CONTINUOUS
 10
1.728335
 20
-3.361276
  0
VERTEX
  8
PLAN_1
  6
CONTINUOUS
 10
1.729220
 20
-3.363484
  0
VERTEX
  8
PLAN_1
  6
CONTINUOUS
 10
1.730102
 20
-3.365693
  0
VERTEX
  8
PLAN_1
  6
CONTINUOUS
 10
1.731429
 20
-3.367461
  0
VERTEX
  8
PLAN_1
  6
CONTINUOUS
 10
1.733193
 20
-3.369228
  0
VERTEX
  8
PLAN_1
  6
CONTINUOUS
 10
1.734520
 20
-3.370551
  0
VERTEX
  8
PLAN_1
  6
CONTINUOUS
 10
1.738055
 20
-3.373205
  0
VERTEX
  8
PLAN_1
  6
CONTINUOUS
 10
1.742028
 20
-3.375413
  0
VERTEX
  8
PLAN_1
  6
CONTINUOUS
 10
1.746449
 20
-3.376736
  0
VERTEX
  8
PLAN_1
  6
CONTINUOUS
 10
1.750866
 20
-3.378063
  0
VERTEX
  8
PLAN_1
  6
CONTINUOUS
 10
1.807850
 20
-3.390874
  0
VERTEX
  8
PLAN_1
  6
CONTINUOUS
 10
1.812268
 20
-3.392197
  0
VERTEX
  8
PLAN_1
  6
CONTINUOUS
 10
1.817126
 20
-3.393965
  0
VERTEX
  8
PLAN_1
  6
CONTINUOUS
 10
1.821543
 20
-3.395732
  0
VERTEX
  8
PLAN_1
  6
CONTINUOUS
 10
1.825520
 20
-3.397500
  0
VERTEX
  8
PLAN_1
  6
CONTINUOUS
 10
1.829496
 20
-3.399709
  0
VERTEX
  8
PLAN_1
  6
CONTINUOUS
 10
1.833472
 20
-3.402358
  0
VERTEX
  8
PLAN_1
  6
CONTINUOUS
 10
1.836563
 20
-3.405008
  0
VERTEX
  8
PLAN_1
  6
CONTINUOUS
 10
1.840098
 20
-3.408102
  0
VERTEX
  8
PLAN_1
  6
CONTINUOUS
 10
1.842748
 20
-3.411634
  0
VERTEX
  8
PLAN_1
  6
CONTINUOUS
 10
1.845398
 20
-3.415169
  0
VERTEX
  8
PLAN_1
  6
CONTINUOUS
 10
1.847606
 20
-3.419146
  0
VERTEX
  8
PLAN_1
  6
CONTINUOUS
 10
1.849374
 20
-3.423563
  0
VERTEX
  8
PLAN_1
  6
CONTINUOUS
 10
1.851142
 20
-3.428421
  0
VERTEX
  8
PLAN_1
  6
CONTINUOUS
 10
1.852024
 20
-3.433280
  0
VERTEX
  8
PLAN_1
  6
CONTINUOUS
 10
1.852469
 20
-3.438583
  0
VERTEX
  8
PLAN_1
  6
CONTINUOUS
 10
1.852909
 20
-3.444323
  0
VERTEX
  8
PLAN_1
  6
CONTINUOUS
 10
1.852909
 20
-3.448744
  0
VERTEX
  8
PLAN_1
  6
CONTINUOUS
 10
1.852469
 20
-3.452717
  0
VERTEX
  8
PLAN_1
  6
CONTINUOUS
 10
1.851583
 20
-3.456693
  0
VERTEX
  8
PLAN_1
  6
CONTINUOUS
 10
1.851142
 20
-3.460669
  0
VERTEX
  8
PLAN_1
  6
CONTINUOUS
 10
1.849815
 20
-3.464205
  0
VERTEX
  8
PLAN_1
  6
CONTINUOUS
 10
1.848492
 20
-3.467295
  0
VERTEX
  8
PLAN_1
  6
CONTINUOUS
 10
1.847165
 20
-3.470831
  0
VERTEX
  8
PLAN_1
  6
CONTINUOUS
 10
1.845398
 20
-3.473480
  0
VERTEX
  8
PLAN_1
  6
CONTINUOUS
 10
1.843634
 20
-3.476571
  0
VERTEX
  8
PLAN_1
  6
CONTINUOUS
 10
1.841866
 20
-3.479224
  0
VERTEX
  8
PLAN_1
  6
CONTINUOUS
 10
1.839657
 20
-3.481874
  0
VERTEX
  8
PLAN_1
  6
CONTINUOUS
 10
1.837449
 20
-3.484083
  0
VERTEX
  8
PLAN_1
  6
CONTINUOUS
 10
1.832146
 20
-3.488500
  0
VERTEX
  8
PLAN_1
  6
CONTINUOUS
 10
1.826846
 20
-3.492035
  0
VERTEX
  8
PLAN_1
  6
CONTINUOUS
 10
1.820661
 20
-3.495126
  0
VERTEX
  8
PLAN_1
  6
CONTINUOUS
 10
1.814476
 20
-3.497776
  0
VERTEX
  8
PLAN_1
  6
CONTINUOUS
 10
1.808291
 20
-3.499984
  0
VERTEX
  8
PLAN_1
  6
CONTINUOUS
 10
1.801665
 20
-3.501752
  0
VERTEX
  8
PLAN_1
  6
CONTINUOUS
 10
1.794598
 20
-3.503079
  0
VERTEX
  8
PLAN_1
  6
CONTINUOUS
 10
1.787972
 20
-3.503961
  0
VERTEX
  8
PLAN_1
  6
CONTINUOUS
 10
1.781346
 20
-3.504402
  0
VERTEX
  8
PLAN_1
  6
CONTINUOUS
 10
1.774720
 20
-3.504402
  0
VERTEX
  8
PLAN_1
  6
CONTINUOUS
 10
1.768094
 20
-3.504402
  0
VERTEX
  8
PLAN_1
  6
CONTINUOUS
 10
1.761909
 20
-3.503961
  0
VERTEX
  8
PLAN_1
  6
CONTINUOUS
 10
1.756606
 20
-3.503520
  0
VERTEX
  8
PLAN_1
  6
CONTINUOUS
 10
1.751307
 20
-3.502634
  0
VERTEX
  8
PLAN_1
  6
CONTINUOUS
 10
1.746449
 20
-3.501752
  0
VERTEX
  8
PLAN_1
  6
CONTINUOUS
 10
1.742028
 20
-3.500870
  0
VERTEX
  8
PLAN_1
  6
CONTINUOUS
 10
1.738055
 20
-3.499543
  0
VERTEX
  8
PLAN_1
  6
CONTINUOUS
 10
1.734079
 20
-3.498217
  0
VERTEX
  8
PLAN_1
  6
CONTINUOUS
 10
1.727894
 20
-3.495126
  0
VERTEX
  8
PLAN_1
  6
CONTINUOUS
 10
1.722591
 20
-3.492035
  0
VERTEX
  8
PLAN_1
  6
CONTINUOUS
 10
1.718173
 20
-3.488500
  0
VERTEX
  8
PLAN_1
  6
CONTINUOUS
 10
1.714642
 20
-3.485406
  0
VERTEX
  8
PLAN_1
  6
CONTINUOUS
 10
1.711547
 20
-3.482756
  0
VERTEX
  8
PLAN_1
  6
CONTINUOUS
 10
1.708898
 20
-3.479665
  0
VERTEX
  8
PLAN_1
  6
CONTINUOUS
 10
1.706689
 20
-3.476571
  0
VERTEX
  8
PLAN_1
  6
CONTINUOUS
 10
1.704480
 20
-3.473921
  0
VERTEX
  8
PLAN_1
  6
CONTINUOUS
 10
1.702272
 20
-3.470831
  0
VERTEX
  8
PLAN_1
  6
CONTINUOUS
 10
1.700945
 20
-3.467736
  0
VERTEX
  8
PLAN_1
  6
CONTINUOUS
 10
1.699622
 20
-3.464646
  0
VERTEX
  8
PLAN_1
  6
CONTINUOUS
 10
1.698295
 20
-3.461551
  0
VERTEX
  8
PLAN_1
  6
CONTINUOUS
 10
1.696528
 20
-3.454925
  0
VERTEX
  8
PLAN_1
  6
CONTINUOUS
 10
1.695205
 20
-3.448299
  0
VERTEX
  8
PLAN_1
  6
CONTINUOUS
 10
1.694764
 20
-3.441673
  0
VERTEX
  8
PLAN_1
  6
CONTINUOUS
 10
1.694319
 20
-3.435047
  0
VERTEX
  8
PLAN_1
  6
CONTINUOUS
 10
1.719500
 20
-3.435047
  0
VERTEX
  8
PLAN_1
  6
CONTINUOUS
 10
1.719941
 20
-3.441232
  0
VERTEX
  8
PLAN_1
  6
CONTINUOUS
 10
1.720827
 20
-3.447417
  0
VERTEX
  8
PLAN_1
  6
CONTINUOUS
 10
1.722591
 20
-3.452717
  0
VERTEX
  8
PLAN_1
  6
CONTINUOUS
 10
1.724803
 20
-3.457579
  0
VERTEX
  8
PLAN_1
  6
CONTINUOUS
 10
1.727453
 20
-3.461551
  0
VERTEX
  8
PLAN_1
  6
CONTINUOUS
 10
1.730543
 20
-3.465528
  0
VERTEX
  8
PLAN_1
  6
CONTINUOUS
 10
1.733638
 20
-3.469063
  0
VERTEX
  8
PLAN_1
  6
CONTINUOUS
 10
1.737610
 20
-3.471713
  0
VERTEX
  8
PLAN_1
  6
CONTINUOUS
 10
1.741587
 20
-3.474362
  0
VERTEX
  8
PLAN_1
  6
CONTINUOUS
 10
1.746004
 20
-3.476130
  0
VERTEX
  8
PLAN_1
  6
CONTINUOUS
 10
1.750421
 20
-3.477898
  0
VERTEX
  8
PLAN_1
  6
CONTINUOUS
 10
1.755283
 20
-3.479224
  0
VERTEX
  8
PLAN_1
  6
CONTINUOUS
 10
1.760142
 20
-3.480547
  0
VERTEX
  8
PLAN_1
  6
CONTINUOUS
 10
1.765000
 20
-3.480988
  0
VERTEX
  8
PLAN_1
  6
CONTINUOUS
 10
1.769858
 20
-3.481433
  0
VERTEX
  8
PLAN_1
  6
CONTINUOUS
 10
1.774720
 20
-3.481433
  0
VERTEX
  8
PLAN_1
  6
CONTINUOUS
 10
1.782669
 20
-3.481433
  0
VERTEX
  8
PLAN_1
  6
CONTINUOUS
 10
1.791063
 20
-3.480106
  0
VERTEX
  8
PLAN_1
  6
CONTINUOUS
 10
1.795480
 20
-3.479665
  0
VERTEX
  8
PLAN_1
  6
CONTINUOUS
 10
1.799898
 20
-3.478339
  0
VERTEX
  8
PLAN_1
  6
CONTINUOUS
 10
1.803874
 20
-3.477016
  0
VERTEX
  8
PLAN_1
  6
CONTINUOUS
 10
1.807850
 20
-3.475689
  0
VERTEX
  8
PLAN_1
  6
CONTINUOUS
 10
1.811827
 20
-3.473480
  0
VERTEX
  8
PLAN_1
  6
CONTINUOUS
 10
1.815358
 20
-3.471272
  0
VERTEX
  8
PLAN_1
  6
CONTINUOUS
 10
1.818453
 20
-3.468622
  0
VERTEX
  8
PLAN_1
  6
CONTINUOUS
 10
1.821543
 20
-3.465087
  0
VERTEX
  8
PLAN_1
  6
CONTINUOUS
 10
1.823752
 20
-3.461551
  0
VERTEX
  8
PLAN_1
  6
CONTINUOUS
 10
1.825520
 20
-3.457579
  0
VERTEX
  8
PLAN_1
  6
CONTINUOUS
 10
1.826406
 20
-3.453161
  0
VERTEX
  8
PLAN_1
  6
CONTINUOUS
 10
1.826846
 20
-3.447858
  0
VERTEX
  8
PLAN_1
  6
CONTINUOUS
 10
1.826846
 20
-3.444323
  0
VERTEX
  8
PLAN_1
  6
CONTINUOUS
 10
1.826406
 20
-3.440791
  0
VERTEX
  8
PLAN_1
  6
CONTINUOUS
 10
1.825520
 20
-3.437697
  0
VERTEX
  8
PLAN_1
  6
CONTINUOUS
 10
1.824638
 20
-3.434606
  0
VERTEX
  8
PLAN_1
  6
CONTINUOUS
 10
1.823752
 20
-3.431957
  0
VERTEX
  8
PLAN_1
  6
CONTINUOUS
 10
1.821984
 20
-3.429748
  0
VERTEX
  8
PLAN_1
  6
CONTINUOUS
 10
1.820220
 20
-3.427539
  0
VERTEX
  8
PLAN_1
  6
CONTINUOUS
 10
1.818012
 20
-3.425331
  0
VERTEX
  8
PLAN_1
  6
CONTINUOUS
 10
1.815358
 20
-3.423563
  0
VERTEX
  8
PLAN_1
  6
CONTINUOUS
 10
1.812268
 20
-3.421795
  0
VERTEX
  8
PLAN_1
  6
CONTINUOUS
 10
1.808732
 20
-3.420028
  0
VERTEX
  8
PLAN_1
  6
CONTINUOUS
 10
1.804760
 20
-3.418705
  0
VERTEX
  8
PLAN_1
  6
CONTINUOUS
 10
1.795480
 20
-3.415610
  0
VERTEX
  8
PLAN_1
  6
CONTINUOUS
 10
1.784437
 20
-3.412520
  0
VERTEX
  8
PLAN_1
  6
CONTINUOUS
 10
1.743354
 20
-3.403240
  0
VERTEX
  8
PLAN_1
  6
CONTINUOUS
 10
1.738055
 20
-3.401917
  0
VERTEX
  8
PLAN_1
  6
CONTINUOUS
 10
1.731429
 20
-3.399709
  0
VERTEX
  8
PLAN_1
  6
CONTINUOUS
 10
1.727894
 20
-3.397941
  0
VERTEX
  8
PLAN_1
  6
CONTINUOUS
 10
1.724358
 20
-3.396173
  0
VERTEX
  8
PLAN_1
  6
CONTINUOUS
 10
1.720827
 20
-3.393965
  0
VERTEX
  8
PLAN_1
  6
CONTINUOUS
 10
1.717291
 20
-3.391756
  0
VERTEX
  8
PLAN_1
  6
CONTINUOUS
 10
1.714201
 20
-3.388665
  0
VERTEX
  8
PLAN_1
  6
CONTINUOUS
 10
1.711106
 20
-3.385571
  0
VERTEX
  8
PLAN_1
  6
CONTINUOUS
 10
1.708457
 20
-3.382039
  0
VERTEX
  8
PLAN_1
  6
CONTINUOUS
 10
1.705807
 20
-3.378063
  0
VERTEX
  8
PLAN_1
  6
CONTINUOUS
 10
1.704039
 20
-3.373205
  0
VERTEX
  8
PLAN_1
  6
CONTINUOUS
 10
1.702272
 20
-3.368343
  0
VERTEX
  8
PLAN_1
  6
CONTINUOUS
 10
1.701390
 20
-3.362602
  0
VERTEX
  8
PLAN_1
  6
CONTINUOUS
 10
1.700945
 20
-3.356417
  0
VERTEX
  8
PLAN_1
  6
CONTINUOUS
 10
1.701390
 20
-3.350673
  0
VERTEX
  8
PLAN_1
  6
CONTINUOUS
 10
1.701831
 20
-3.344929
  0
VERTEX
  8
PLAN_1
  6
CONTINUOUS
 10
1.703154
 20
-3.339189
  0
VERTEX
  8
PLAN_1
  6
CONTINUOUS
 10
1.704921
 20
-3.333445
  0
VERTEX
  8
PLAN_1
  6
CONTINUOUS
 10
1.707130
 20
-3.328146
  0
VERTEX
  8
PLAN_1
  6
CONTINUOUS
 10
1.710224
 20
-3.323283
  0
VERTEX
  8
PLAN_1
  6
CONTINUOUS
 10
1.713315
 20
-3.318425
  0
VERTEX
  8
PLAN_1
  6
CONTINUOUS
 10
1.717291
 20
-3.314008
  0
VERTEX
  8
PLAN_1
  6
CONTINUOUS
 10
1.721709
 20
-3.309591
  0
VERTEX
  8
PLAN_1
  6
CONTINUOUS
 10
1.726567
 20
-3.306055
  0
VERTEX
  8
PLAN_1
  6
CONTINUOUS
 10
1.732311
 20
-3.302965
  0
VERTEX
  8
PLAN_1
  6
CONTINUOUS
 10
1.738496
 20
-3.299874
  0
VERTEX
  8
PLAN_1
  6
CONTINUOUS
 10
1.745563
 20
-3.297665
  0
VERTEX
  8
PLAN_1
  6
CONTINUOUS
 10
1.752630
 20
-3.296339
  0
VERTEX
  8
PLAN_1
  6
CONTINUOUS
 10
1.761024
 20
-3.295012
  0
VERTEX
  8
PLAN_1
  6
CONTINUOUS
 10
1.769858
 20
-3.294571
  0
VERTEX
  8
PLAN_1
  6
CONTINUOUS
 10
1.776043
 20
-3.295012
  0
VERTEX
  8
PLAN_1
  6
CONTINUOUS
 10
1.781787
 20
-3.295012
  0
VERTEX
  8
PLAN_1
  6
CONTINUOUS
 10
1.787531
 20
-3.295898
  0
VERTEX
  8
PLAN_1
  6
CONTINUOUS
 10
1.792831
 20
-3.296780
  0
VERTEX
  8
PLAN_1
  6
CONTINUOUS
 10
1.798130
 20
-3.297665
  0
VERTEX
  8
PLAN_1
  6
CONTINUOUS
 10
1.802547
 20
-3.298547
  0
VERTEX
  8
PLAN_1
  6
CONTINUOUS
 10
1.806969
 20
-3.299874
  0
VERTEX
  8
PLAN_1
  6
CONTINUOUS
 10
1.810941
 20
-3.301638
  0
VERTEX
  8
PLAN_1
  6
CONTINUOUS
 10
1.814917
 20
-3.303406
  0
VERTEX
  8
PLAN_1
  6
CONTINUOUS
 10
1.818453
 20
-3.305173
  0
VERTEX
  8
PLAN_1
  6
CONTINUOUS
 10
1.821543
 20
-3.306941
  0
VERTEX
  8
PLAN_1
  6
CONTINUOUS
 10
1.824638
 20
-3.309150
  0
VERTEX
  8
PLAN_1
  6
CONTINUOUS
 10
1.829937
 20
-3.313567
  0
VERTEX
  8
PLAN_1
  6
CONTINUOUS
 10
1.834354
 20
-3.318425
  0
VERTEX
  8
PLAN_1
  6
CONTINUOUS
 10
1.837890
 20
-3.323283
  0
VERTEX
  8
PLAN_1
  6
CONTINUOUS
 10
1.840539
 20
-3.328587
  0
VERTEX
  8
PLAN_1
  6
CONTINUOUS
 10
1.842748
 20
-3.333886
  0
VERTEX
  8
PLAN_1
  6
CONTINUOUS
 10
1.844516
 20
-3.339189
  0
VERTEX
  8
PLAN_1
  6
CONTINUOUS
 10
1.845843
 20
-3.344488
  0
VERTEX
  8
PLAN_1
  6
CONTINUOUS
 10
1.846724
 20
-3.349346
  0
VERTEX
  8
PLAN_1
  6
CONTINUOUS
 10
1.847165
 20
-3.353768
  0
VERTEX
  8
PLAN_1
  6
CONTINUOUS
 10
1.847165
 20
-3.358185
  0
VERTEX
  8
PLAN_1
  6
CONTINUOUS
 10
1.821984
 20
-3.358185
  0
SEQEND
  8
0
  0
POLYLINE
  8
PLAN_1
  6
CONTINUOUS
 66
     1
 40
0.008390
 41
0.008390
  0
VERTEX
  8
PLAN_1
  6
CONTINUOUS
 10
-1.018909
 20
2.407094
  0
VERTEX
  8
PLAN_1
  6
CONTINUOUS
 10
-0.902287
 20
2.407094
  0
VERTEX
  8
PLAN_1
  6
CONTINUOUS
 10
-0.902287
 20
1.725917
  0
VERTEX
  8
PLAN_1
  6
CONTINUOUS
 10
-1.706272
 20
1.725917
  0
VERTEX
  8
PLAN_1
  6
CONTINUOUS
 10
-1.706272
 20
2.407094
  0
VERTEX
  8
PLAN_1
  6
CONTINUOUS
 10
-1.584791
 20
2.407094
  0
SEQEND
  8
0
  0
POLYLINE
  8
PLAN_1
  6
CONTINUOUS
 66
     1
 40
0.008390
 41
0.008390
  0
VERTEX
  8
PLAN_1
  6
CONTINUOUS
 10
-1.023327
 20
2.006870
  0
VERTEX
  8
PLAN_1
  6
CONTINUOUS
 10
-1.023327
 20
2.175177
  0
VERTEX
  8
PLAN_1
  6
CONTINUOUS
 10
-1.585232
 20
2.175177
  0
VERTEX
  8
PLAN_1
  6
CONTINUOUS
 10
-1.585232
 20
2.006870
  0
VERTEX
  8
PLAN_1
  6
CONTINUOUS
 10
-1.504390
 20
2.006429
  0
VERTEX
  8
PLAN_1
  6
CONTINUOUS
 10
-1.504390
 20
2.108031
  0
SEQEND
  8
0
  0
POLYLINE
  8
PLAN_1
  6
CONTINUOUS
 66
     1
 40
0.008390
 41
0.008390
  0
VERTEX
  8
PLAN_1
  6
CONTINUOUS
 10
-1.504390
 20
2.108031
  0
VERTEX
  8
PLAN_1
  6
CONTINUOUS
 10
-1.495114
 20
2.115984
  0
VERTEX
  8
PLAN_1
  6
CONTINUOUS
 10
-1.485398
 20
2.123492
  0
VERTEX
  8
PLAN_1
  6
CONTINUOUS
 10
-1.475236
 20
2.130118
  0
VERTEX
  8
PLAN_1
  6
CONTINUOUS
 10
-1.464193
 20
2.136744
  0
VERTEX
  8
PLAN_1
  6
CONTINUOUS
 10
-1.453150
 20
2.142929
  0
VERTEX
  8
PLAN_1
  6
CONTINUOUS
 10
-1.441220
 20
2.148673
  0
VERTEX
  8
PLAN_1
  6
CONTINUOUS
 10
-1.429295
 20
2.153972
  0
VERTEX
  8
PLAN_1
  6
CONTINUOUS
 10
-1.416484
 20
2.158831
  0
VERTEX
  8
PLAN_1
  6
CONTINUOUS
 10
-1.403673
 20
2.162807
  0
VERTEX
  8
PLAN_1
  6
CONTINUOUS
 10
-1.389976
 20
2.166783
  0
VERTEX
  8
PLAN_1
  6
CONTINUOUS
 10
-1.376283
 20
2.169878
  0
VERTEX
  8
PLAN_1
  6
CONTINUOUS
 10
-1.362591
 20
2.172528
  0
VERTEX
  8
PLAN_1
  6
CONTINUOUS
 10
-1.348012
 20
2.174736
  0
VERTEX
  8
PLAN_1
  6
CONTINUOUS
 10
-1.333433
 20
2.176059
  0
VERTEX
  8
PLAN_1
  6
CONTINUOUS
 10
-1.318854
 20
2.177386
  0
VERTEX
  8
PLAN_1
  6
CONTINUOUS
 10
-1.303394
 20
2.177386
  0
VERTEX
  8
PLAN_1
  6
CONTINUOUS
 10
-1.288374
 20
2.177386
  0
VERTEX
  8
PLAN_1
  6
CONTINUOUS
 10
-1.273799
 20
2.176059
  0
VERTEX
  8
PLAN_1
  6
CONTINUOUS
 10
-1.259220
 20
2.174736
  0
VERTEX
  8
PLAN_1
  6
CONTINUOUS
 10
-1.244642
 20
2.172528
  0
VERTEX
  8
PLAN_1
  6
CONTINUOUS
 10
-1.230949
 20
2.169878
  0
VERTEX
  8
PLAN_1
  6
CONTINUOUS
 10
-1.217252
 20
2.166783
  0
VERTEX
  8
PLAN_1
  6
CONTINUOUS
 10
-1.204000
 20
2.162807
  0
VERTEX
  8
PLAN_1
  6
CONTINUOUS
 10
-1.190748
 20
2.158831
  0
VERTEX
  8
PLAN_1
  6
CONTINUOUS
 10
-1.178378
 20
2.153972
  0
VERTEX
  8
PLAN_1
  6
CONTINUOUS
 10
-1.166012
 20
2.148673
  0
VERTEX
  8
PLAN_1
  6
CONTINUOUS
 10
-1.154083
 20
2.142929
  0
VERTEX
  8
PLAN_1
  6
CONTINUOUS
 10
-1.143039
 20
2.136744
  0
VERTEX
  8
PLAN_1
  6
CONTINUOUS
 10
-1.131996
 20
2.130559
  0
VERTEX
  8
PLAN_1
  6
CONTINUOUS
 10
-1.121835
 20
2.123492
  0
VERTEX
  8
PLAN_1
  6
CONTINUOUS
 10
-1.112118
 20
2.115984
  0
VERTEX
  8
PLAN_1
  6
CONTINUOUS
 10
-1.102839
 20
2.108472
  0
SEQEND
  8
0
  0
POLYLINE
  8
PLAN_1
  6
CONTINUOUS
 66
     1
 40
0.008390
 41
0.008390
  0
VERTEX
  8
PLAN_1
  6
CONTINUOUS
 10
-1.102839
 20
2.108472
  0
VERTEX
  8
PLAN_1
  6
CONTINUOUS
 10
-1.102839
 20
2.006429
  0
VERTEX
  8
PLAN_1
  6
CONTINUOUS
 10
-1.023327
 20
2.006870
  0
SEQEND
  8
0
  0
POLYLINE
  8
PLAN_1
  6
CONTINUOUS
 66
     1
 40
0.008390
 41
0.008390
  0
VERTEX
  8
PLAN_1
  6
CONTINUOUS
 10
-0.902287
 20
2.243205
  0
VERTEX
  8
PLAN_1
  6
CONTINUOUS
 10
-1.023768
 20
2.243205
  0
SEQEND
  8
0
  0
POLYLINE
  8
PLAN_1
  6
CONTINUOUS
 66
     1
 40
0.008390
 41
0.008390
  0
VERTEX
  8
PLAN_1
  6
CONTINUOUS
 10
-1.584791
 20
2.243205
  0
VERTEX
  8
PLAN_1
  6
CONTINUOUS
 10
-1.706272
 20
2.243205
  0
SEQEND
  8
0
  0
POLYLINE
  8
PLAN_1
  6
CONTINUOUS
 66
     1
 40
0.008390
 41
0.008390
  0
VERTEX
  8
PLAN_1
  6
CONTINUOUS
 10
-0.902287
 20
2.051929
  0
VERTEX
  8
PLAN_1
  6
CONTINUOUS
 10
-1.023768
 20
2.051929
  0
SEQEND
  8
0
  0
POLYLINE
  8
PLAN_1
  6
CONTINUOUS
 66
     1
 40
0.008390
 41
0.008390
  0
VERTEX
  8
PLAN_1
  6
CONTINUOUS
 10
-1.584791
 20
2.051929
  0
VERTEX
  8
PLAN_1
  6
CONTINUOUS
 10
-1.706272
 20
2.051929
  0
SEQEND
  8
0
  0
POLYLINE
  8
PLAN_1
  6
CONTINUOUS
 66
     1
 40
0.008390
 41
0.008390
  0
VERTEX
  8
PLAN_1
  6
CONTINUOUS
 10
-1.024209
 20
2.512232
  0
VERTEX
  8
PLAN_1
  6
CONTINUOUS
 10
-1.024209
 20
2.175618
  0
VERTEX
  8
PLAN_1
  6
CONTINUOUS
 10
-1.585232
 20
2.174736
  0
VERTEX
  8
PLAN_1
  6
CONTINUOUS
 10
-1.585232
 20
2.512232
  0
SEQEND
  8
0
  0
POLYLINE
  8
PLAN_1
  6
CONTINUOUS
 66
     1
 40
0.008390
 41
0.008390
  0
VERTEX
  8
PLAN_1
  6
CONTINUOUS
 10
-1.023327
 20
2.259110
  0
VERTEX
  8
PLAN_1
  6
CONTINUOUS
 10
-1.585232
 20
2.259110
  0
SEQEND
  8
0
  0
POLYLINE
  8
PLAN_1
  6
CONTINUOUS
 66
     1
 40
0.008390
 41
0.008390
  0
VERTEX
  8
PLAN_1
  6
CONTINUOUS
 10
-1.163803
 20
2.326697
  0
VERTEX
  8
PLAN_1
  6
CONTINUOUS
 10
-1.163803
 20
3.129799
  0
VERTEX
  8
PLAN_1
  6
CONTINUOUS
 10
-1.444756
 20
3.129799
  0
VERTEX
  8
PLAN_1
  6
CONTINUOUS
 10
-1.444756
 20
2.326697
  0
VERTEX
  8
PLAN_1
  6
CONTINUOUS
 10
-1.163803
 20
2.326697
  0
SEQEND
  8
0
  0
POLYLINE
  8
PLAN_1
  6
CONTINUOUS
 66
     1
 40
0.007067
 41
0.007067
  0
VERTEX
  8
PLAN_1
  6
CONTINUOUS
 10
-0.960154
 20
2.587772
  0
VERTEX
  8
PLAN_1
  6
CONTINUOUS
 10
-0.960154
 20
2.868724
  0
VERTEX
  8
PLAN_1
  6
CONTINUOUS
 10
-0.980476
 20
2.868724
  0
VERTEX
  8
PLAN_1
  6
CONTINUOUS
 10
-0.980476
 20
2.587772
  0
VERTEX
  8
PLAN_1
  6
CONTINUOUS
 10
-0.960154
 20
2.587772
  0
SEQEND
  8
0
  0
POLYLINE
  8
PLAN_1
  6
CONTINUOUS
 66
     1
 40
0.008390
 41
0.008390
  0
VERTEX
  8
PLAN_1
  6
CONTINUOUS
 10
-0.761811
 20
1.204654
  0
VERTEX
  8
PLAN_1
  6
CONTINUOUS
 10
-0.761811
 20
1.525803
  0
VERTEX
  8
PLAN_1
  6
CONTINUOUS
 10
-1.845421
 20
1.525803
  0
VERTEX
  8
PLAN_1
  6
CONTINUOUS
 10
-1.845421
 20
1.204654
  0
VERTEX
  8
PLAN_1
  6
CONTINUOUS
 10
-0.761811
 20
1.204654
  0
SEQEND
  8
0
  0
POLYLINE
  8
PLAN_1
  6
CONTINUOUS
 66
     1
 40
0.008390
 41
0.008390
  0
VERTEX
  8
PLAN_1
  6
CONTINUOUS
 10
-1.704945
 20
1.765673
  0
VERTEX
  8
PLAN_1
  6
CONTINUOUS
 10
-1.651492
 20
1.982575
  0
SEQEND
  8
0
  0
POLYLINE
  8
PLAN_1
  6
CONTINUOUS
 66
     1
 40
0.008390
 41
0.008390
  0
VERTEX
  8
PLAN_1
  6
CONTINUOUS
 10
-1.651492
 20
1.982575
  0
VERTEX
  8
PLAN_1
  6
CONTINUOUS
 10
-1.649283
 20
1.987433
  0
VERTEX
  8
PLAN_1
  6
CONTINUOUS
 10
-1.646634
 20
1.992291
  0
VERTEX
  8
PLAN_1
  6
CONTINUOUS
 10
-1.643102
 20
1.996268
  0
VERTEX
  8
PLAN_1
  6
CONTINUOUS
 10
-1.639126
 20
1.999803
  0
VERTEX
  8
PLAN_1
  6
CONTINUOUS
 10
-1.634709
 20
2.002453
  0
VERTEX
  8
PLAN_1
  6
CONTINUOUS
 10
-1.629846
 20
2.004661
  0
VERTEX
  8
PLAN_1
  6
CONTINUOUS
 10
-1.627197
 20
2.005543
  0
VERTEX
  8
PLAN_1
  6
CONTINUOUS
 10
-1.624547
 20
2.005988
  0
VERTEX
  8
PLAN_1
  6
CONTINUOUS
 10
-1.621457
 20
2.006429
  0
VERTEX
  8
PLAN_1
  6
CONTINUOUS
 10
-1.618803
 20
2.006429
  0
SEQEND
  8
0
  0
POLYLINE
  8
PLAN_1
  6
CONTINUOUS
 66
     1
 40
0.008390
 41
0.008390
  0
VERTEX
  8
PLAN_1
  6
CONTINUOUS
 10
-1.618803
 20
2.006429
  0
VERTEX
  8
PLAN_1
  6
CONTINUOUS
 10
-0.987543
 20
2.006429
  0
SEQEND
  8
0
  0
POLYLINE
  8
PLAN_1
  6
CONTINUOUS
 66
     1
 40
0.008390
 41
0.008390
  0
VERTEX
  8
PLAN_1
  6
CONTINUOUS
 10
-0.987543
 20
2.006429
  0
VERTEX
  8
PLAN_1
  6
CONTINUOUS
 10
-0.984008
 20
2.006429
  0
VERTEX
  8
PLAN_1
  6
CONTINUOUS
 10
-0.980476
 20
2.005543
  0
VERTEX
  8
PLAN_1
  6
CONTINUOUS
 10
-0.977382
 20
2.005102
  0
VERTEX
  8
PLAN_1
  6
CONTINUOUS
 10
-0.974291
 20
2.003780
  0
VERTEX
  8
PLAN_1
  6
CONTINUOUS
 10
-0.971201
 20
2.002453
  0
VERTEX
  8
PLAN_1
  6
CONTINUOUS
 10
-0.968547
 20
2.000685
  0
VERTEX
  8
PLAN_1
  6
CONTINUOUS
 10
-0.965898
 20
1.998476
  0
VERTEX
  8
PLAN_1
  6
CONTINUOUS
 10
-0.963248
 20
1.996268
  0
VERTEX
  8
PLAN_1
  6
CONTINUOUS
 10
-0.961039
 20
1.994059
  0
VERTEX
  8
PLAN_1
  6
CONTINUOUS
 10
-0.958831
 20
1.991409
  0
VERTEX
  8
PLAN_1
  6
CONTINUOUS
 10
-0.957504
 20
1.988315
  0
VERTEX
  8
PLAN_1
  6
CONTINUOUS
 10
-0.955736
 20
1.985224
  0
VERTEX
  8
PLAN_1
  6
CONTINUOUS
 10
-0.954854
 20
1.982134
  0
VERTEX
  8
PLAN_1
  6
CONTINUOUS
 10
-0.953972
 20
1.979039
  0
VERTEX
  8
PLAN_1
  6
CONTINUOUS
 10
-0.953528
 20
1.975508
  0
VERTEX
  8
PLAN_1
  6
CONTINUOUS
 10
-0.953087
 20
1.971972
  0
SEQEND
  8
0
  0
POLYLINE
  8
PLAN_1
  6
CONTINUOUS
 66
     1
 40
0.008390
 41
0.008390
  0
VERTEX
  8
PLAN_1
  6
CONTINUOUS
 10
-0.953087
 20
1.971972
  0
VERTEX
  8
PLAN_1
  6
CONTINUOUS
 10
-0.902287
 20
1.765673
  0
SEQEND
  8
0
  0
POLYLINE
  8
PLAN_1
  6
CONTINUOUS
 66
     1
 40
0.008390
 41
0.008390
  0
VERTEX
  8
PLAN_1
  6
CONTINUOUS
 10
-0.902287
 20
1.765673
  0
VERTEX
  8
PLAN_1
  6
CONTINUOUS
 10
-1.704945
 20
1.765673
  0
SEQEND
  8
0
  0
POLYLINE
  8
PLAN_1
  6
CONTINUOUS
 66
     1
 40
0.008390
 41
0.008390
  0
VERTEX
  8
PLAN_1
  6
CONTINUOUS
 10
-1.102839
 20
2.108472
  0
VERTEX
  8
PLAN_1
  6
CONTINUOUS
 10
-1.112118
 20
2.115984
  0
VERTEX
  8
PLAN_1
  6
CONTINUOUS
 10
-1.121835
 20
2.123492
  0
VERTEX
  8
PLAN_1
  6
CONTINUOUS
 10
-1.131996
 20
2.130559
  0
VERTEX
  8
PLAN_1
  6
CONTINUOUS
 10
-1.143039
 20
2.136744
  0
VERTEX
  8
PLAN_1
  6
CONTINUOUS
 10
-1.154083
 20
2.142929
  0
VERTEX
  8
PLAN_1
  6
CONTINUOUS
 10
-1.166012
 20
2.148673
  0
VERTEX
  8
PLAN_1
  6
CONTINUOUS
 10
-1.178378
 20
2.153972
  0
VERTEX
  8
PLAN_1
  6
CONTINUOUS
 10
-1.190748
 20
2.158831
  0
VERTEX
  8
PLAN_1
  6
CONTINUOUS
 10
-1.204000
 20
2.162807
  0
VERTEX
  8
PLAN_1
  6
CONTINUOUS
 10
-1.217252
 20
2.166783
  0
VERTEX
  8
PLAN_1
  6
CONTINUOUS
 10
-1.230949
 20
2.169878
  0
VERTEX
  8
PLAN_1
  6
CONTINUOUS
 10
-1.244642
 20
2.172528
  0
VERTEX
  8
PLAN_1
  6
CONTINUOUS
 10
-1.259220
 20
2.174736
  0
VERTEX
  8
PLAN_1
  6
CONTINUOUS
 10
-1.273799
 20
2.176059
  0
VERTEX
  8
PLAN_1
  6
CONTINUOUS
 10
-1.288374
 20
2.177386
  0
VERTEX
  8
PLAN_1
  6
CONTINUOUS
 10
-1.303394
 20
2.177386
  0
VERTEX
  8
PLAN_1
  6
CONTINUOUS
 10
-1.318854
 20
2.177386
  0
VERTEX
  8
PLAN_1
  6
CONTINUOUS
 10
-1.333433
 20
2.176059
  0
VERTEX
  8
PLAN_1
  6
CONTINUOUS
 10
-1.348012
 20
2.174736
  0
VERTEX
  8
PLAN_1
  6
CONTINUOUS
 10
-1.362591
 20
2.172528
  0
VERTEX
  8
PLAN_1
  6
CONTINUOUS
 10
-1.376283
 20
2.169878
  0
VERTEX
  8
PLAN_1
  6
CONTINUOUS
 10
-1.389976
 20
2.166783
  0
VERTEX
  8
PLAN_1
  6
CONTINUOUS
 10
-1.403673
 20
2.162807
  0
VERTEX
  8
PLAN_1
  6
CONTINUOUS
 10
-1.416484
 20
2.158831
  0
VERTEX
  8
PLAN_1
  6
CONTINUOUS
 10
-1.429295
 20
2.153972
  0
VERTEX
  8
PLAN_1
  6
CONTINUOUS
 10
-1.441220
 20
2.148673
  0
VERTEX
  8
PLAN_1
  6
CONTINUOUS
 10
-1.453150
 20
2.142929
  0
VERTEX
  8
PLAN_1
  6
CONTINUOUS
 10
-1.464193
 20
2.136744
  0
VERTEX
  8
PLAN_1
  6
CONTINUOUS
 10
-1.475236
 20
2.130118
  0
VERTEX
  8
PLAN_1
  6
CONTINUOUS
 10
-1.485398
 20
2.123492
  0
VERTEX
  8
PLAN_1
  6
CONTINUOUS
 10
-1.495114
 20
2.115984
  0
VERTEX
  8
PLAN_1
  6
CONTINUOUS
 10
-1.504390
 20
2.108031
  0
SEQEND
  8
0
  0
POLYLINE
  8
PLAN_1
  6
CONTINUOUS
 66
     1
 40
0.008390
 41
0.008390
  0
VERTEX
  8
PLAN_1
  6
CONTINUOUS
 10
-1.504390
 20
2.108031
  0
VERTEX
  8
PLAN_1
  6
CONTINUOUS
 10
-1.504390
 20
2.006429
  0
VERTEX
  8
PLAN_1
  6
CONTINUOUS
 10
-1.102839
 20
2.006429
  0
VERTEX
  8
PLAN_1
  6
CONTINUOUS
 10
-1.102839
 20
2.108472
  0
SEQEND
  8
0
  0
POLYLINE
  8
PLAN_1
  6
CONTINUOUS
 66
     1
 40
0.007067
 41
0.007067
  0
VERTEX
  8
PLAN_1
  6
CONTINUOUS
 10
-1.713339
 20
1.724591
  0
VERTEX
  8
PLAN_1
  6
CONTINUOUS
 10
-1.624547
 20
1.724591
  0
VERTEX
  8
PLAN_1
  6
CONTINUOUS
 10
-1.624547
 20
1.664516
  0
VERTEX
  8
PLAN_1
  6
CONTINUOUS
 10
-1.844980
 20
1.664516
  0
VERTEX
  8
PLAN_1
  6
CONTINUOUS
 10
-1.844980
 20
1.724591
  0
VERTEX
  8
PLAN_1
  6
CONTINUOUS
 10
-1.756189
 20
1.724591
  0
VERTEX
  8
PLAN_1
  6
CONTINUOUS
 10
-1.755748
 20
1.724591
  0
VERTEX
  8
PLAN_1
  6
CONTINUOUS
 10
-1.755748
 20
1.693669
  0
VERTEX
  8
PLAN_1
  6
CONTINUOUS
 10
-1.713780
 20
1.693669
  0
VERTEX
  8
PLAN_1
  6
CONTINUOUS
 10
-1.713780
 20
1.724591
  0
VERTEX
  8
PLAN_1
  6
CONTINUOUS
 10
-1.713339
 20
1.724591
  0
SEQEND
  8
0
  0
POLYLINE
  8
PLAN_1
  6
CONTINUOUS
 66
     1
 40
0.007067
 41
0.007067
  0
VERTEX
  8
PLAN_1
  6
CONTINUOUS
 10
-0.851484
 20
1.724591
  0
VERTEX
  8
PLAN_1
  6
CONTINUOUS
 10
-0.762252
 20
1.724591
  0
VERTEX
  8
PLAN_1
  6
CONTINUOUS
 10
-0.762252
 20
1.664516
  0
VERTEX
  8
PLAN_1
  6
CONTINUOUS
 10
-0.982685
 20
1.664516
  0
VERTEX
  8
PLAN_1
  6
CONTINUOUS
 10
-0.982685
 20
1.724591
  0
VERTEX
  8
PLAN_1
  6
CONTINUOUS
 10
-0.893894
 20
1.724591
  0
VERTEX
  8
PLAN_1
  6
CONTINUOUS
 10
-0.893453
 20
1.724591
  0
VERTEX
  8
PLAN_1
  6
CONTINUOUS
 10
-0.893453
 20
1.693669
  0
VERTEX
  8
PLAN_1
  6
CONTINUOUS
 10
-0.851484
 20
1.693669
  0
VERTEX
  8
PLAN_1
  6
CONTINUOUS
 10
-0.851484
 20
1.724591
  0
SEQEND
  8
0
  0
POLYLINE
  8
PLAN_1
  6
CONTINUOUS
 66
     1
 40
0.007067
 41
0.007067
  0
VERTEX
  8
PLAN_1
  6
CONTINUOUS
 10
-1.805665
 20
1.204209
  0
VERTEX
  8
PLAN_1
  6
CONTINUOUS
 10
-1.805224
 20
1.285051
  0
VERTEX
  8
PLAN_1
  6
CONTINUOUS
 10
-1.845421
 20
1.285051
  0
SEQEND
  8
0
  0
POLYLINE
  8
PLAN_1
  6
CONTINUOUS
 66
     1
 40
0.007067
 41
0.007067
  0
VERTEX
  8
PLAN_1
  6
CONTINUOUS
 10
-0.803335
 20
1.204209
  0
VERTEX
  8
PLAN_1
  6
CONTINUOUS
 10
-0.803335
 20
1.285051
  0
VERTEX
  8
PLAN_1
  6
CONTINUOUS
 10
-0.763134
 20
1.285051
  0
SEQEND
  8
0
  0
POLYLINE
  8
PLAN_1
  6
CONTINUOUS
 66
     1
 40
0.008390
 41
0.008390
  0
VERTEX
  8
PLAN_1
  6
CONTINUOUS
 10
-1.102839
 20
2.108472
  0
VERTEX
  8
PLAN_1
  6
CONTINUOUS
 10
-1.504390
 20
2.108472
  0
SEQEND
  8
0
  0
POLYLINE
  8
PLAN_1
  6
CONTINUOUS
 66
     1
 40
0.003972
 41
0.003972
  0
VERTEX
  8
PLAN_1
  6
CONTINUOUS
 10
-1.857791
 20
0.536283
  0
VERTEX
  8
PLAN_1
  6
CONTINUOUS
 10
-1.857791
 20
1.204209
  0
VERTEX
  8
PLAN_1
  6
CONTINUOUS
 10
-0.744583
 20
1.204654
  0
VERTEX
  8
PLAN_1
  6
CONTINUOUS
 10
-0.744583
 20
0.538051
  0
SEQEND
  8
0
  0
POLYLINE
  8
PLAN_1
  6
CONTINUOUS
 66
     1
 40
0.008390
 41
0.008390
  0
VERTEX
  8
PLAN_1
  6
CONTINUOUS
 10
-0.838232
 20
1.158709
  0
VERTEX
  8
PLAN_1
  6
CONTINUOUS
 10
-0.838232
 20
1.204654
  0
VERTEX
  8
PLAN_1
  6
CONTINUOUS
 10
-1.782252
 20
1.204654
  0
VERTEX
  8
PLAN_1
  6
CONTINUOUS
 10
-1.782252
 20
1.158709
  0
VERTEX
  8
PLAN_1
  6
CONTINUOUS
 10
-0.838232
 20
1.158709
  0
SEQEND
  8
0
  0
POLYLINE
  8
PLAN_1
  6
CONTINUOUS
 66
     1
 40
0.008390
 41
0.008390
  0
VERTEX
  8
PLAN_1
  6
CONTINUOUS
 10
-0.891244
 20
0.896752
  0
VERTEX
  8
PLAN_1
  6
CONTINUOUS
 10
-0.929232
 20
0.858764
  0
VERTEX
  8
PLAN_1
  6
CONTINUOUS
 10
-1.687717
 20
0.858764
  0
VERTEX
  8
PLAN_1
  6
CONTINUOUS
 10
-1.725709
 20
0.896752
  0
VERTEX
  8
PLAN_1
  6
CONTINUOUS
 10
-1.725709
 20
1.158709
  0
VERTEX
  8
PLAN_1
  6
CONTINUOUS
 10
-0.891244
 20
1.158709
  0
VERTEX
  8
PLAN_1
  6
CONTINUOUS
 10
-0.891244
 20
0.896752
  0
SEQEND
  8
0
  0
POLYLINE
  8
PLAN_1
  6
CONTINUOUS
 66
     1
 40
0.008390
 41
0.008390
  0
VERTEX
  8
PLAN_1
  6
CONTINUOUS
 10
-1.637358
 20
0.858764
  0
VERTEX
  8
PLAN_1
  6
CONTINUOUS
 10
-1.587882
 20
0.670575
  0
VERTEX
  8
PLAN_1
  6
CONTINUOUS
 10
-1.036138
 20
0.670575
  0
VERTEX
  8
PLAN_1
  6
CONTINUOUS
 10
-0.974291
 20
0.858764
  0
VERTEX
  8
PLAN_1
  6
CONTINUOUS
 10
-1.637358
 20
0.858764
  0
SEQEND
  8
0
  0
POLYLINE
  8
PLAN_1
  6
CONTINUOUS
 66
     1
 40
0.007067
 41
0.007067
  0
VERTEX
  8
PLAN_1
  6
CONTINUOUS
 10
-1.593181
 20
0.856110
  0
VERTEX
  8
PLAN_1
  6
CONTINUOUS
 10
-1.545472
 20
0.670575
  0
SEQEND
  8
0
  0
POLYLINE
  8
PLAN_1
  6
CONTINUOUS
 66
     1
 40
0.007067
 41
0.007067
  0
VERTEX
  8
PLAN_1
  6
CONTINUOUS
 10
-1.561378
 20
0.856110
  0
VERTEX
  8
PLAN_1
  6
CONTINUOUS
 10
-1.513669
 20
0.670575
  0
SEQEND
  8
0
  0
POLYLINE
  8
PLAN_1
  6
CONTINUOUS
 66
     1
 40
0.007067
 41
0.007067
  0
VERTEX
  8
PLAN_1
  6
CONTINUOUS
 10
-1.036138
 20
0.857878
  0
VERTEX
  8
PLAN_1
  6
CONTINUOUS
 10
-1.084287
 20
0.672343
  0
SEQEND
  8
0
  0
POLYLINE
  8
PLAN_1
  6
CONTINUOUS
 66
     1
 40
0.007067
 41
0.007067
  0
VERTEX
  8
PLAN_1
  6
CONTINUOUS
 10
-1.068386
 20
0.857878
  0
VERTEX
  8
PLAN_1
  6
CONTINUOUS
 10
-1.116094
 20
0.672343
  0
SEQEND
  8
0
  0
POLYLINE
  8
PLAN_1
  6
CONTINUOUS
 66
     1
 40
0.008390
 41
0.008390
  0
VERTEX
  8
PLAN_1
  6
CONTINUOUS
 10
-0.760484
 20
1.523594
  0
VERTEX
  8
PLAN_1
  6
CONTINUOUS
 10
-0.760484
 20
1.662307
  0
VERTEX
  8
PLAN_1
  6
CONTINUOUS
 10
-1.842331
 20
1.662307
  0
VERTEX
  8
PLAN_1
  6
CONTINUOUS
 10
-1.842331
 20
1.523594
  0
VERTEX
  8
PLAN_1
  6
CONTINUOUS
 10
-0.760484
 20
1.523594
  0
SEQEND
  8
0
  0
POLYLINE
  8
PLAN_1
  6
CONTINUOUS
 66
     1
 40
0.008390
 41
0.008390
  0
VERTEX
  8
PLAN_1
  6
CONTINUOUS
 10
-1.725709
 20
0.896752
  0
VERTEX
  8
PLAN_1
  6
CONTINUOUS
 10
-0.891244
 20
0.896752
  0
SEQEND
  8
0
  0
POLYLINE
  8
PLAN_1
  6
CONTINUOUS
 66
     1
 40
0.008390
 41
0.008390
  0
VERTEX
  8
PLAN_1
  6
CONTINUOUS
 10
-0.983126
 20
2.407094
  0
VERTEX
  8
PLAN_1
  6
CONTINUOUS
 10
-0.983126
 20
3.049402
  0
VERTEX
  8
PLAN_1
  6
CONTINUOUS
 10
-1.163803
 20
3.049402
  0
SEQEND
  8
0
  0
POLYLINE
  8
PLAN_1
  6
CONTINUOUS
 66
     1
 40
0.008390
 41
0.008390
  0
VERTEX
  8
PLAN_1
  6
CONTINUOUS
 10
-1.444315
 20
3.049402
  0
VERTEX
  8
PLAN_1
  6
CONTINUOUS
 10
-1.625429
 20
3.049402
  0
VERTEX
  8
PLAN_1
  6
CONTINUOUS
 10
-1.625429
 20
2.407094
  0
SEQEND
  8
0
  0
POLYLINE
  8
PLAN_1
 62
     2
  6
CONTINUOUS
 66
     1
 40
0.003972
 41
0.003972
  0
VERTEX
  8
PLAN_1
 62
     2
  6
CONTINUOUS
 10
-1.283957
 20
3.437256
  0
VERTEX
  8
PLAN_1
 62
     2
  6
CONTINUOUS
 10
-0.792291
 20
3.437256
  0
SEQEND
  8
0
  0
SOLID
  8
PLAN_1
 62
     2
 10
-0.762693
 20
3.437256
 11
-0.821886
 21
3.453161
 12
-0.762693
 22
3.437256
 13
-0.821886
 23
3.421354
  0
POLYLINE
  8
PLAN_1
 62
     2
  6
CONTINUOUS
 66
     1
 40
0.003000
 41
0.003000
  0
VERTEX
  8
PLAN_1
 62
     2
  6
CONTINUOUS
 10
-0.762693
 20
3.437256
  0
VERTEX
  8
PLAN_1
 62
     2
  6
CONTINUOUS
 10
-0.821886
 20
3.453161
  0
VERTEX
  8
PLAN_1
 62
     2
  6
CONTINUOUS
 10
-0.821886
 20
3.421354
  0
VERTEX
  8
PLAN_1
 62
     2
  6
CONTINUOUS
 10
-0.762693
 20
3.437256
  0
SEQEND
  8
0
  0
SOLID
  8
PLAN_1
 62
     2
 10
-1.313114
 20
3.437256
 11
-1.254362
 21
3.453161
 12
-1.313114
 22
3.437256
 13
-1.254362
 23
3.421354
  0
POLYLINE
  8
PLAN_1
 62
     2
  6
CONTINUOUS
 66
     1
 40
0.003000
 41
0.003000
  0
VERTEX
  8
PLAN_1
 62
     2
  6
CONTINUOUS
 10
-1.313114
 20
3.437256
  0
VERTEX
  8
PLAN_1
 62
     2
  6
CONTINUOUS
 10
-1.254362
 20
3.453161
  0
VERTEX
  8
PLAN_1
 62
     2
  6
CONTINUOUS
 10
-1.254362
 20
3.421354
  0
VERTEX
  8
PLAN_1
 62
     2
  6
CONTINUOUS
 10
-1.313114
 20
3.437256
  0
SEQEND
  8
0
  0
POLYLINE
  8
PLAN_1
 62
     2
  6
CONTINUOUS
 66
     1
 40
0.003000
 41
0.003000
  0
VERTEX
  8
PLAN_1
 62
     2
  6
CONTINUOUS
 10
-1.058665
 20
3.460669
  0
VERTEX
  8
PLAN_1
 62
     2
  6
CONTINUOUS
 10
-1.068386
 20
3.460669
  0
VERTEX
  8
PLAN_1
 62
     2
  6
CONTINUOUS
 10
-1.068386
 20
3.512795
  0
VERTEX
  8
PLAN_1
 62
     2
  6
CONTINUOUS
 10
-1.085614
 20
3.512795
  0
VERTEX
  8
PLAN_1
 62
     2
  6
CONTINUOUS
 10
-1.085614
 20
3.519862
  0
VERTEX
  8
PLAN_1
 62
     2
  6
CONTINUOUS
 10
-1.081193
 20
3.520307
  0
VERTEX
  8
PLAN_1
 62
     2
  6
CONTINUOUS
 10
-1.077661
 20
3.520748
  0
VERTEX
  8
PLAN_1
 62
     2
  6
CONTINUOUS
 10
-1.074567
 20
3.521630
  0
VERTEX
  8
PLAN_1
 62
     2
  6
CONTINUOUS
 10
-1.072358
 20
3.522957
  0
VERTEX
  8
PLAN_1
 62
     2
  6
CONTINUOUS
 10
-1.070150
 20
3.524724
  0
VERTEX
  8
PLAN_1
 62
     2
  6
CONTINUOUS
 10
-1.068386
 20
3.526933
  0
VERTEX
  8
PLAN_1
 62
     2
  6
CONTINUOUS
 10
-1.067059
 20
3.530024
  0
VERTEX
  8
PLAN_1
 62
     2
  6
CONTINUOUS
 10
-1.065732
 20
3.534000
  0
VERTEX
  8
PLAN_1
 62
     2
  6
CONTINUOUS
 10
-1.058665
 20
3.534000
  0
VERTEX
  8
PLAN_1
 62
     2
  6
CONTINUOUS
 10
-1.058665
 20
3.460669
  0
SEQEND
  8
0
  0
POLYLINE
  8
PLAN_1
 62
     2
  6
CONTINUOUS
 66
     1
 40
0.003000
 41
0.003000
  0
VERTEX
  8
PLAN_1
 62
     2
  6
CONTINUOUS
 10
-0.994169
 20
3.478780
  0
VERTEX
  8
PLAN_1
 62
     2
  6
CONTINUOUS
 10
-0.994169
 20
3.460669
  0
VERTEX
  8
PLAN_1
 62
     2
  6
CONTINUOUS
 10
-1.003445
 20
3.460669
  0
VERTEX
  8
PLAN_1
 62
     2
  6
CONTINUOUS
 10
-1.003445
 20
3.478780
  0
VERTEX
  8
PLAN_1
 62
     2
  6
CONTINUOUS
 10
-1.035252
 20
3.478780
  0
VERTEX
  8
PLAN_1
 62
     2
  6
CONTINUOUS
 10
-1.035252
 20
3.487618
  0
VERTEX
  8
PLAN_1
 62
     2
  6
CONTINUOUS
 10
-1.002122
 20
3.534000
  0
VERTEX
  8
PLAN_1
 62
     2
  6
CONTINUOUS
 10
-0.994169
 20
3.534000
  0
VERTEX
  8
PLAN_1
 62
     2
  6
CONTINUOUS
 10
-0.994169
 20
3.486732
  0
VERTEX
  8
PLAN_1
 62
     2
  6
CONTINUOUS
 10
-0.983567
 20
3.486732
  0
VERTEX
  8
PLAN_1
 62
     2
  6
CONTINUOUS
 10
-0.983567
 20
3.478780
  0
VERTEX
  8
PLAN_1
 62
     2
  6
CONTINUOUS
 10
-0.994169
 20
3.478780
  0
SEQEND
  8
0
  0
SOLID
  8
PLAN_1
 62
     2
 10
-1.026858
 20
3.486732
 11
-1.003445
 21
3.486732
 12
-1.003890
 22
3.519862
 13
-1.003445
 23
3.519862
  0
POLYLINE
  8
PLAN_1
 62
     2
  6
CONTINUOUS
 66
     1
 40
0.003000
 41
0.003000
  0
VERTEX
  8
PLAN_1
 62
     2
  6
CONTINUOUS
 10
-1.026858
 20
3.486732
  0
VERTEX
  8
PLAN_1
 62
     2
  6
CONTINUOUS
 10
-1.003445
 20
3.486732
  0
VERTEX
  8
PLAN_1
 62
     2
  6
CONTINUOUS
 10
-1.003445
 20
3.519862
  0
VERTEX
  8
PLAN_1
 62
     2
  6
CONTINUOUS
 10
-1.003890
 20
3.519862
  0
VERTEX
  8
PLAN_1
 62
     2
  6
CONTINUOUS
 10
-1.026858
 20
3.486732
  0
SEQEND
  8
0
  0
POLYLINE
  8
PLAN_1
 62
     2
  6
CONTINUOUS
 66
     1
 40
0.003972
 41
0.003972
  0
VERTEX
  8
PLAN_1
 62
     2
  6
CONTINUOUS
 10
-1.598484
 20
3.279992
  0
VERTEX
  8
PLAN_1
 62
     2
  6
CONTINUOUS
 10
-1.138622
 20
3.279992
  0
SEQEND
  8
0
  0
SOLID
  8
PLAN_1
 62
     2
 10
-1.442988
 20
3.279992
 11
-1.502181
 21
3.295457
 12
-1.442988
 22
3.279992
 13
-1.502181
 23
3.264091
  0
POLYLINE
  8
PLAN_1
 62
     2
  6
CONTINUOUS
 66
     1
 40
0.003000
 41
0.003000
  0
VERTEX
  8
PLAN_1
 62
     2
  6
CONTINUOUS
 10
-1.442988
 20
3.279992
  0
VERTEX
  8
PLAN_1
 62
     2
  6
CONTINUOUS
 10
-1.502181
 20
3.295457
  0
VERTEX
  8
PLAN_1
 62
     2
  6
CONTINUOUS
 10
-1.502181
 20
3.264091
  0
VERTEX
  8
PLAN_1
 62
     2
  6
CONTINUOUS
 10
-1.442988
 20
3.279992
  0
SEQEND
  8
0
  0
SOLID
  8
PLAN_1
 62
     2
 10
-1.168220
 20
3.279992
 11
-1.109469
 21
3.295457
 12
-1.168220
 22
3.279992
 13
-1.109469
 23
3.264091
  0
POLYLINE
  8
PLAN_1
 62
     2
  6
CONTINUOUS
 66
     1
 40
0.003000
 41
0.003000
  0
VERTEX
  8
PLAN_1
 62
     2
  6
CONTINUOUS
 10
-1.168220
 20
3.279992
  0
VERTEX
  8
PLAN_1
 62
     2
  6
CONTINUOUS
 10
-1.109469
 20
3.295457
  0
VERTEX
  8
PLAN_1
 62
     2
  6
CONTINUOUS
 10
-1.109469
 20
3.264091
  0
VERTEX
  8
PLAN_1
 62
     2
  6
CONTINUOUS
 10
-1.168220
 20
3.279992
  0
SEQEND
  8
0
  0
POLYLINE
  8
PLAN_1
 62
     2
  6
CONTINUOUS
 66
     1
 40
0.003000
 41
0.003000
  0
VERTEX
  8
PLAN_1
 62
     2
  6
CONTINUOUS
 10
-1.537083
 20
3.342280
  0
VERTEX
  8
PLAN_1
 62
     2
  6
CONTINUOUS
 10
-1.533988
 20
3.340512
  0
VERTEX
  8
PLAN_1
 62
     2
  6
CONTINUOUS
 10
-1.531339
 20
3.338748
  0
VERTEX
  8
PLAN_1
 62
     2
  6
CONTINUOUS
 10
-1.529130
 20
3.336539
  0
VERTEX
  8
PLAN_1
 62
     2
  6
CONTINUOUS
 10
-1.527362
 20
3.333886
  0
VERTEX
  8
PLAN_1
 62
     2
  6
CONTINUOUS
 10
-1.526480
 20
3.331677
  0
VERTEX
  8
PLAN_1
 62
     2
  6
CONTINUOUS
 10
-1.525594
 20
3.329028
  0
VERTEX
  8
PLAN_1
 62
     2
  6
CONTINUOUS
 10
-1.525594
 20
3.326819
  0
VERTEX
  8
PLAN_1
 62
     2
  6
CONTINUOUS
 10
-1.525154
 20
3.324610
  0
VERTEX
  8
PLAN_1
 62
     2
  6
CONTINUOUS
 10
-1.525594
 20
3.320193
  0
VERTEX
  8
PLAN_1
 62
     2
  6
CONTINUOUS
 10
-1.526921
 20
3.316217
  0
VERTEX
  8
PLAN_1
 62
     2
  6
CONTINUOUS
 10
-1.527362
 20
3.314008
  0
VERTEX
  8
PLAN_1
 62
     2
  6
CONTINUOUS
 10
-1.528689
 20
3.312240
  0
VERTEX
  8
PLAN_1
 62
     2
  6
CONTINUOUS
 10
-1.529571
 20
3.310476
  0
VERTEX
  8
PLAN_1
 62
     2
  6
CONTINUOUS
 10
-1.531339
 20
3.308709
  0
VERTEX
  8
PLAN_1
 62
     2
  6
CONTINUOUS
 10
-1.532661
 20
3.306941
  0
VERTEX
  8
PLAN_1
 62
     2
  6
CONTINUOUS
 10
-1.534429
 20
3.305614
  0
VERTEX
  8
PLAN_1
 62
     2
  6
CONTINUOUS
 10
-1.536638
 20
3.304291
  0
VERTEX
  8
PLAN_1
 62
     2
  6
CONTINUOUS
 10
-1.538846
 20
3.303406
  0
VERTEX
  8
PLAN_1
 62
     2
  6
CONTINUOUS
 10
-1.541500
 20
3.302524
  0
VERTEX
  8
PLAN_1
 62
     2
  6
CONTINUOUS
 10
-1.544150
 20
3.302083
  0
VERTEX
  8
PLAN_1
 62
     2
  6
CONTINUOUS
 10
-1.546799
 20
3.301638
  0
VERTEX
  8
PLAN_1
 62
     2
  6
CONTINUOUS
 10
-1.549890
 20
3.301638
  0
VERTEX
  8
PLAN_1
 62
     2
  6
CONTINUOUS
 10
-1.551657
 20
3.301638
  0
VERTEX
  8
PLAN_1
 62
     2
  6
CONTINUOUS
 10
-1.553866
 20
3.301638
  0
VERTEX
  8
PLAN_1
 62
     2
  6
CONTINUOUS
 10
-1.555634
 20
3.302083
  0
VERTEX
  8
PLAN_1
 62
     2
  6
CONTINUOUS
 10
-1.558283
 20
3.302524
  0
VERTEX
  8
PLAN_1
 62
     2
  6
CONTINUOUS
 10
-1.560492
 20
3.303406
  0
VERTEX
  8
PLAN_1
 62
     2
  6
CONTINUOUS
 10
-1.563146
 20
3.304291
  0
VERTEX
  8
PLAN_1
 62
     2
  6
CONTINUOUS
 10
-1.565354
 20
3.305614
  0
VERTEX
  8
PLAN_1
 62
     2
  6
CONTINUOUS
 10
-1.567563
 20
3.306941
  0
VERTEX
  8
PLAN_1
 62
     2
  6
CONTINUOUS
 10
-1.570213
 20
3.309591
  0
VERTEX
  8
PLAN_1
 62
     2
  6
CONTINUOUS
 10
-1.571980
 20
3.311799
  0
VERTEX
  8
PLAN_1
 62
     2
  6
CONTINUOUS
 10
-1.573303
 20
3.314449
  0
VERTEX
  8
PLAN_1
 62
     2
  6
CONTINUOUS
 10
-1.574189
 20
3.316657
  0
VERTEX
  8
PLAN_1
 62
     2
  6
CONTINUOUS
 10
-1.574630
 20
3.318866
  0
VERTEX
  8
PLAN_1
 62
     2
  6
CONTINUOUS
 10
-1.575071
 20
3.321075
  0
VERTEX
  8
PLAN_1
 62
     2
  6
CONTINUOUS
 10
-1.575071
 20
3.322843
  0
VERTEX
  8
PLAN_1
 62
     2
  6
CONTINUOUS
 10
-1.575071
 20
3.324610
  0
VERTEX
  8
PLAN_1
 62
     2
  6
CONTINUOUS
 10
-1.575071
 20
3.327701
  0
VERTEX
  8
PLAN_1
 62
     2
  6
CONTINUOUS
 10
-1.574189
 20
3.330795
  0
VERTEX
  8
PLAN_1
 62
     2
  6
CONTINUOUS
 10
-1.573303
 20
3.333445
  0
VERTEX
  8
PLAN_1
 62
     2
  6
CONTINUOUS
 10
-1.571980
 20
3.335654
  0
VERTEX
  8
PLAN_1
 62
     2
  6
CONTINUOUS
 10
-1.570213
 20
3.337862
  0
VERTEX
  8
PLAN_1
 62
     2
  6
CONTINUOUS
 10
-1.568004
 20
3.339630
  0
VERTEX
  8
PLAN_1
 62
     2
  6
CONTINUOUS
 10
-1.565354
 20
3.340957
  0
VERTEX
  8
PLAN_1
 62
     2
  6
CONTINUOUS
 10
-1.562701
 20
3.342280
  0
VERTEX
  8
PLAN_1
 62
     2
  6
CONTINUOUS
 10
-1.564909
 20
3.343165
  0
VERTEX
  8
PLAN_1
 62
     2
  6
CONTINUOUS
 10
-1.566677
 20
3.344488
  0
VERTEX
  8
PLAN_1
 62
     2
  6
CONTINUOUS
 10
-1.568445
 20
3.346256
  0
VERTEX
  8
PLAN_1
 62
     2
  6
CONTINUOUS
 10
-1.570213
 20
3.347583
  0
VERTEX
  8
PLAN_1
 62
     2
  6
CONTINUOUS
 10
-1.571094
 20
3.349791
  0
VERTEX
  8
PLAN_1
 62
     2
  6
CONTINUOUS
 10
-1.571980
 20
3.351559
  0
VERTEX
  8
PLAN_1
 62
     2
  6
CONTINUOUS
 10
-1.572421
 20
3.354209
  0
VERTEX
  8
PLAN_1
 62
     2
  6
CONTINUOUS
 10
-1.572421
 20
3.356417
  0
VERTEX
  8
PLAN_1
 62
     2
  6
CONTINUOUS
 10
-1.572421
 20
3.359508
  0
VERTEX
  8
PLAN_1
 62
     2
  6
CONTINUOUS
 10
-1.571535
 20
3.363043
  0
VERTEX
  8
PLAN_1
 62
     2
  6
CONTINUOUS
 10
-1.570213
 20
3.366134
  0
VERTEX
  8
PLAN_1
 62
     2
  6
CONTINUOUS
 10
-1.568004
 20
3.369228
  0
VERTEX
  8
PLAN_1
 62
     2
  6
CONTINUOUS
 10
-1.566677
 20
3.370996
  0
VERTEX
  8
PLAN_1
 62
     2
  6
CONTINUOUS
 10
-1.565354
 20
3.372319
  0
VERTEX
  8
PLAN_1
 62
     2
  6
CONTINUOUS
 10
-1.563146
 20
3.373646
  0
VERTEX
  8
PLAN_1
 62
     2
  6
CONTINUOUS
 10
-1.561378
 20
3.374528
  0
VERTEX
  8
PLAN_1
 62
     2
  6
CONTINUOUS
 10
-1.559169
 20
3.375413
  0
VERTEX
  8
PLAN_1
 62
     2
  6
CONTINUOUS
 10
-1.556520
 20
3.376295
  0
VERTEX
  8
PLAN_1
 62
     2
  6
CONTINUOUS
 10
-1.553425
 20
3.376295
  0
VERTEX
  8
PLAN_1
 62
     2
  6
CONTINUOUS
 10
-1.550335
 20
3.376736
  0
VERTEX
  8
PLAN_1
 62
     2
  6
CONTINUOUS
 10
-1.547681
 20
3.376295
  0
VERTEX
  8
PLAN_1
 62
     2
  6
CONTINUOUS
 10
-1.544591
 20
3.376295
  0
VERTEX
  8
PLAN_1
 62
     2
  6
CONTINUOUS
 10
-1.542382
 20
3.375413
  0
VERTEX
  8
PLAN_1
 62
     2
  6
CONTINUOUS
 10
-1.540173
 20
3.374969
  0
VERTEX
  8
PLAN_1
 62
     2
  6
CONTINUOUS
 10
-1.536197
 20
3.372760
  0
VERTEX
  8
PLAN_1
 62
     2
  6
CONTINUOUS
 10
-1.533106
 20
3.370551
  0
VERTEX
  8
PLAN_1
 62
     2
  6
CONTINUOUS
 10
-1.530898
 20
3.367461
  0
VERTEX
  8
PLAN_1
 62
     2
  6
CONTINUOUS
 10
-1.529130
 20
3.364366
  0
VERTEX
  8
PLAN_1
 62
     2
  6
CONTINUOUS
 10
-1.528244
 20
3.361276
  0
VERTEX
  8
PLAN_1
 62
     2
  6
CONTINUOUS
 10
-1.527803
 20
3.357740
  0
VERTEX
  8
PLAN_1
 62
     2
  6
CONTINUOUS
 10
-1.528244
 20
3.354209
  0
VERTEX
  8
PLAN_1
 62
     2
  6
CONTINUOUS
 10
-1.528689
 20
3.351114
  0
VERTEX
  8
PLAN_1
 62
     2
  6
CONTINUOUS
 10
-1.530012
 20
3.348906
  0
VERTEX
  8
PLAN_1
 62
     2
  6
CONTINUOUS
 10
-1.531339
 20
3.346697
  0
VERTEX
  8
PLAN_1
 62
     2
  6
CONTINUOUS
 10
-1.532661
 20
3.345374
  0
VERTEX
  8
PLAN_1
 62
     2
  6
CONTINUOUS
 10
-1.534429
 20
3.344047
  0
VERTEX
  8
PLAN_1
 62
     2
  6
CONTINUOUS
 10
-1.535756
 20
3.343165
  0
VERTEX
  8
PLAN_1
 62
     2
  6
CONTINUOUS
 10
-1.537083
 20
3.342280
  0
SEQEND
  8
0
  0
POLYLINE
  8
PLAN_1
 62
     2
  6
CONTINUOUS
 66
     1
 40
0.003000
 41
0.003000
  0
VERTEX
  8
PLAN_1
 62
     2
  6
CONTINUOUS
 10
-1.565354
 20
3.324169
  0
VERTEX
  8
PLAN_1
 62
     2
  6
CONTINUOUS
 10
-1.565354
 20
3.321961
  0
VERTEX
  8
PLAN_1
 62
     2
  6
CONTINUOUS
 10
-1.564469
 20
3.319752
  0
VERTEX
  8
PLAN_1
 62
     2
  6
CONTINUOUS
 10
-1.563587
 20
3.317102
  0
VERTEX
  8
PLAN_1
 62
     2
  6
CONTINUOUS
 10
-1.562260
 20
3.314894
  0
VERTEX
  8
PLAN_1
 62
     2
  6
CONTINUOUS
 10
-1.560051
 20
3.312685
  0
VERTEX
  8
PLAN_1
 62
     2
  6
CONTINUOUS
 10
-1.557402
 20
3.311358
  0
VERTEX
  8
PLAN_1
 62
     2
  6
CONTINUOUS
 10
-1.553866
 20
3.310031
  0
VERTEX
  8
PLAN_1
 62
     2
  6
CONTINUOUS
 10
-1.549890
 20
3.309591
  0
VERTEX
  8
PLAN_1
 62
     2
  6
CONTINUOUS
 10
-1.547240
 20
3.310031
  0
VERTEX
  8
PLAN_1
 62
     2
  6
CONTINUOUS
 10
-1.544591
 20
3.310476
  0
VERTEX
  8
PLAN_1
 62
     2
  6
CONTINUOUS
 10
-1.541941
 20
3.310917
  0
VERTEX
  8
PLAN_1
 62
     2
  6
CONTINUOUS
 10
-1.539732
 20
3.312240
  0
VERTEX
  8
PLAN_1
 62
     2
  6
CONTINUOUS
 10
-1.537965
 20
3.314008
  0
VERTEX
  8
PLAN_1
 62
     2
  6
CONTINUOUS
 10
-1.536197
 20
3.316657
  0
VERTEX
  8
PLAN_1
 62
     2
  6
CONTINUOUS
 10
-1.535315
 20
3.319752
  0
VERTEX
  8
PLAN_1
 62
     2
  6
CONTINUOUS
 10
-1.534870
 20
3.323728
  0
VERTEX
  8
PLAN_1
 62
     2
  6
CONTINUOUS
 10
-1.535315
 20
3.326819
  0
VERTEX
  8
PLAN_1
 62
     2
  6
CONTINUOUS
 10
-1.536197
 20
3.329913
  0
VERTEX
  8
PLAN_1
 62
     2
  6
CONTINUOUS
 10
-1.537524
 20
3.332563
  0
VERTEX
  8
PLAN_1
 62
     2
  6
CONTINUOUS
 10
-1.539732
 20
3.334331
  0
VERTEX
  8
PLAN_1
 62
     2
  6
CONTINUOUS
 10
-1.541941
 20
3.336094
  0
VERTEX
  8
PLAN_1
 62
     2
  6
CONTINUOUS
 10
-1.544150
 20
3.336980
  0
VERTEX
  8
PLAN_1
 62
     2
  6
CONTINUOUS
 10
-1.547240
 20
3.337421
  0
VERTEX
  8
PLAN_1
 62
     2
  6
CONTINUOUS
 10
-1.550335
 20
3.337862
  0
VERTEX
  8
PLAN_1
 62
     2
  6
CONTINUOUS
 10
-1.553866
 20
3.337421
  0
VERTEX
  8
PLAN_1
 62
     2
  6
CONTINUOUS
 10
-1.556961
 20
3.336539
  0
VERTEX
  8
PLAN_1
 62
     2
  6
CONTINUOUS
 10
-1.559610
 20
3.335213
  0
VERTEX
  8
PLAN_1
 62
     2
  6
CONTINUOUS
 10
-1.561819
 20
3.333445
  0
VERTEX
  8
PLAN_1
 62
     2
  6
CONTINUOUS
 10
-1.563146
 20
3.331677
  0
VERTEX
  8
PLAN_1
 62
     2
  6
CONTINUOUS
 10
-1.564469
 20
3.329469
  0
VERTEX
  8
PLAN_1
 62
     2
  6
CONTINUOUS
 10
-1.564909
 20
3.326819
  0
VERTEX
  8
PLAN_1
 62
     2
  6
CONTINUOUS
 10
-1.565354
 20
3.324169
  0
SEQEND
  8
0
  0
POLYLINE
  8
PLAN_1
 62
     2
  6
CONTINUOUS
 66
     1
 40
0.003000
 41
0.003000
  0
VERTEX
  8
PLAN_1
 62
     2
  6
CONTINUOUS
 10
-1.537524
 20
3.357299
  0
VERTEX
  8
PLAN_1
 62
     2
  6
CONTINUOUS
 10
-1.537524
 20
3.359067
  0
VERTEX
  8
PLAN_1
 62
     2
  6
CONTINUOUS
 10
-1.537965
 20
3.361276
  0
VERTEX
  8
PLAN_1
 62
     2
  6
CONTINUOUS
 10
-1.538846
 20
3.363043
  0
VERTEX
  8
PLAN_1
 62
     2
  6
CONTINUOUS
 10
-1.540173
 20
3.364811
  0
VERTEX
  8
PLAN_1
 62
     2
  6
CONTINUOUS
 10
-1.541941
 20
3.366134
  0
VERTEX
  8
PLAN_1
 62
     2
  6
CONTINUOUS
 10
-1.544150
 20
3.367461
  0
VERTEX
  8
PLAN_1
 62
     2
  6
CONTINUOUS
 10
-1.547240
 20
3.368343
  0
VERTEX
  8
PLAN_1
 62
     2
  6
CONTINUOUS
 10
-1.550776
 20
3.368343
  0
VERTEX
  8
PLAN_1
 62
     2
  6
CONTINUOUS
 10
-1.554307
 20
3.367902
  0
VERTEX
  8
PLAN_1
 62
     2
  6
CONTINUOUS
 10
-1.556961
 20
3.367461
  0
VERTEX
  8
PLAN_1
 62
     2
  6
CONTINUOUS
 10
-1.559169
 20
3.366134
  0
VERTEX
  8
PLAN_1
 62
     2
  6
CONTINUOUS
 10
-1.560937
 20
3.364366
  0
VERTEX
  8
PLAN_1
 62
     2
  6
CONTINUOUS
 10
-1.561819
 20
3.362602
  0
VERTEX
  8
PLAN_1
 62
     2
  6
CONTINUOUS
 10
-1.562701
 20
3.360835
  0
VERTEX
  8
PLAN_1
 62
     2
  6
CONTINUOUS
 10
-1.563146
 20
3.358626
  0
VERTEX
  8
PLAN_1
 62
     2
  6
CONTINUOUS
 10
-1.563146
 20
3.356858
  0
VERTEX
  8
PLAN_1
 62
     2
  6
CONTINUOUS
 10
-1.562701
 20
3.354650
  0
VERTEX
  8
PLAN_1
 62
     2
  6
CONTINUOUS
 10
-1.562260
 20
3.352441
  0
VERTEX
  8
PLAN_1
 62
     2
  6
CONTINUOUS
 10
-1.560937
 20
3.350232
  0
VERTEX
  8
PLAN_1
 62
     2
  6
CONTINUOUS
 10
-1.559169
 20
3.348906
  0
VERTEX
  8
PLAN_1
 62
     2
  6
CONTINUOUS
 10
-1.557402
 20
3.347583
  0
VERTEX
  8
PLAN_1
 62
     2
  6
CONTINUOUS
 10
-1.555193
 20
3.346697
  0
VERTEX
  8
PLAN_1
 62
     2
  6
CONTINUOUS
 10
-1.552984
 20
3.345815
  0
VERTEX
  8
PLAN_1
 62
     2
  6
CONTINUOUS
 10
-1.550335
 20
3.345815
  0
VERTEX
  8
PLAN_1
 62
     2
  6
CONTINUOUS
 10
-1.547681
 20
3.345815
  0
VERTEX
  8
PLAN_1
 62
     2
  6
CONTINUOUS
 10
-1.545031
 20
3.346697
  0
VERTEX
  8
PLAN_1
 62
     2
  6
CONTINUOUS
 10
-1.542823
 20
3.347583
  0
VERTEX
  8
PLAN_1
 62
     2
  6
CONTINUOUS
 10
-1.541055
 20
3.348906
  0
VERTEX
  8
PLAN_1
 62
     2
  6
CONTINUOUS
 10
-1.539291
 20
3.350673
  0
VERTEX
  8
PLAN_1
 62
     2
  6
CONTINUOUS
 10
-1.538406
 20
3.352882
  0
VERTEX
  8
PLAN_1
 62
     2
  6
CONTINUOUS
 10
-1.537524
 20
3.355091
  0
VERTEX
  8
PLAN_1
 62
     2
  6
CONTINUOUS
 10
-1.537524
 20
3.357299
  0
SEQEND
  8
0
  0
POLYLINE
  8
PLAN_1
 62
     2
  6
CONTINUOUS
 66
     1
 40
0.003972
 41
0.003972
  0
VERTEX
  8
PLAN_1
 62
     2
  6
CONTINUOUS
 10
-1.442988
 20
3.153654
  0
VERTEX
  8
PLAN_1
 62
     2
  6
CONTINUOUS
 10
-1.442988
 20
3.303406
  0
SEQEND
  8
0
  0
POLYLINE
  8
PLAN_1
 62
     2
  6
CONTINUOUS
 66
     1
 40
0.003972
 41
0.003972
  0
VERTEX
  8
PLAN_1
 62
     2
  6
CONTINUOUS
 10
-1.168220
 20
3.153654
  0
VERTEX
  8
PLAN_1
 62
     2
  6
CONTINUOUS
 10
-1.168220
 20
3.303406
  0
SEQEND
  8
0
  0
POLYLINE
  8
PLAN_1
 62
     2
  6
CONTINUOUS
 66
     1
 40
0.003972
 41
0.003972
  0
VERTEX
  8
PLAN_1
 62
     2
  6
CONTINUOUS
 10
-1.313114
 20
3.156303
  0
VERTEX
  8
PLAN_1
 62
     2
  6
CONTINUOUS
 10
-1.313114
 20
3.255256
  0
SEQEND
  8
0
  0
POLYLINE
  8
PLAN_1
 62
     2
  6
CONTINUOUS
 66
     1
 40
0.003972
 41
0.003972
  0
VERTEX
  8
PLAN_1
 62
     2
  6
CONTINUOUS
 10
-1.313114
 20
3.305614
  0
VERTEX
  8
PLAN_1
 62
     2
  6
CONTINUOUS
 10
-1.313114
 20
3.460669
  0
SEQEND
  8
0
  0
POLYLINE
  8
PLAN_1
 62
     2
  6
CONTINUOUS
 66
     1
 40
0.003972
 41
0.003972
  0
VERTEX
  8
PLAN_1
 62
     2
  6
CONTINUOUS
 10
-0.762693
 20
1.748445
  0
VERTEX
  8
PLAN_1
 62
     2
  6
CONTINUOUS
 10
-0.762693
 20
3.460669
  0
SEQEND
  8
0
  0
ENDSEC
  0
EOF
