  0
SECTION
  2
HEADER
  9
$ACADVER
  1
AC1006
  9
$EXTMIN
 10
-2.274000
 20
-3.950020
  9
$EXTMAX
 10
2.276000
 20
3.951000
  9
$LTSCALE
 40
0.000394
  9
$PDMODE
 70
    35
  9
$PDSIZE
 40
0.000315
  0
ENDSEC
  0
SECTION
  2
TABLES
  0
TABLE
  2
LTYPE
 70
     9
  0
LTYPE
  2
CONTINUOUS
 70
    64
  3
Solid line
 72
    65
 73
     0
 40
0.000000
  0
LTYPE
  2
DASHED
 70
    64
  3
__ __ __ __ __ __ __ __ __ __ __ __ __ __ __
 72
    65
 73
     2
 40
0.000003
 49
0.000002
 49
-0.000001
  0
LTYPE
  2
HIDDEN
 70
    64
  3
 _ _ _ _ _ _ _ _ _ _ _ _ _ _ _ _ _ _ _ _ _ _
 72
    65
 73
     2
 40
0.000001
 49
0.000001
 49
-0.000000
  0
LTYPE
  2
CENTER
 70
    64
  3
____ _ ____ _ ____ _ ____ _ ____ _ ____ _ ____
 72
    65
 73
     4
 40
0.000008
 49
0.000005
 49
-0.000001
 49
0.000001
 49
-0.000001
  0
LTYPE
  2
PHANTOM
 70
    64
  3
_____ _ _ _____ _ _ _____ _ _ _____ _ _ ____
 72
    65
 73
     6
 40
0.000010
 49
0.000005
 49
-0.000001
 49
0.000001
 49
-0.000001
 49
0.000001
 49
-0.000001
  0
LTYPE
  2
DOT
 70
    64
  3
...............................................
 72
    65
 73
     2
 40
0.000001
 49
0.000000
 49
-0.000001
  0
LTYPE
  2
DASHDOT
 70
    64
  3
__ . __ . __ . __ . __ . __ . __ . __ . __ . __
 72
    65
 73
     4
 40
0.000004
 49
0.000002
 49
-0.000001
 49
0.000000
 49
-0.000001
  0
LTYPE
  2
BORDER
 70
    64
  3
__ __ . __ __ . __ __ . __ __ . __ __ . __ __
 72
    65
 73
     6
 40
0.000007
 49
0.000002
 49
-0.000001
 49
0.000002
 49
-0.000001
 49
0.000000
 49
-0.000001
  0
LTYPE
  2
DIVIDE
 70
    64
  3
__ . . __ . . __ . . __ . . __ . . __ . . __
 72
    65
 73
     6
 40
0.000005
 49
0.000002
 49
-0.000001
 49
0.000000
 49
-0.000001
 49
0.000000
 49
-0.000001
  0
LTYPE
  2
DOTDOT
 70
    64
  3
 . .  . .  . .  . .  . .  . . 
 72
    65
 73
     5
 40
0.000002
 49
-0.000001
 49
0.000000
 49
-0.000001
 49
0.000000
 49
-0.000001
  0
ENDTAB
  0
TABLE
  2
STYLE
 70
     0
  0
ENDTAB
  0
TABLE
  2
LAYER
 70
     3
  0
LAYER
  2
FOREGROUND
 70
    64
 62
     7
  6
CONTINUOUS
  0
LAYER
  2
BACKGROUND
 70
    65
 62
    -7
  6
CONTINUOUS
  0
LAYER
  2
PLAN_1
 70
    64
 62
     7
  6
CONTINUOUS
  0
ENDTAB
  0
ENDSEC
  0
SECTION
  2
ENTITIES
  0
POLYLINE
  8
PLAN_1
  6
CONTINUOUS
 66
     1
 40
0.003000
 41
0.003000
  0
VERTEX
  8
PLAN_1
  6
CONTINUOUS
 10
0.400000
 20
-3.915453
  0
VERTEX
  8
PLAN_1
  6
CONTINUOUS
 10
0.242969
 20
-3.915453
  0
VERTEX
  8
PLAN_1
  6
CONTINUOUS
 10
0.242969
 20
-3.892736
  0
VERTEX
  8
PLAN_1
  6
CONTINUOUS
 10
0.365433
 20
-3.739657
  0
VERTEX
  8
PLAN_1
  6
CONTINUOUS
 10
0.252350
 20
-3.739657
  0
VERTEX
  8
PLAN_1
  6
CONTINUOUS
 10
0.252350
 20
-3.715953
  0
VERTEX
  8
PLAN_1
  6
CONTINUOUS
 10
0.400000
 20
-3.715953
  0
VERTEX
  8
PLAN_1
  6
CONTINUOUS
 10
0.400000
 20
-3.739161
  0
VERTEX
  8
PLAN_1
  6
CONTINUOUS
 10
0.277043
 20
-3.891256
  0
VERTEX
  8
PLAN_1
  6
CONTINUOUS
 10
0.400000
 20
-3.891256
  0
VERTEX
  8
PLAN_1
  6
CONTINUOUS
 10
0.400000
 20
-3.915453
  0
SEQEND
  8
0
  0
POLYLINE
  8
PLAN_1
  6
CONTINUOUS
 66
     1
 40
0.003000
 41
0.003000
  0
VERTEX
  8
PLAN_1
  6
CONTINUOUS
 10
0.567406
 20
-3.776197
  0
VERTEX
  8
PLAN_1
  6
CONTINUOUS
 10
0.565429
 20
-3.769780
  0
VERTEX
  8
PLAN_1
  6
CONTINUOUS
 10
0.563453
 20
-3.764346
  0
VERTEX
  8
PLAN_1
  6
CONTINUOUS
 10
0.560984
 20
-3.759409
  0
VERTEX
  8
PLAN_1
  6
CONTINUOUS
 10
0.558024
 20
-3.754965
  0
VERTEX
  8
PLAN_1
  6
CONTINUOUS
 10
0.555059
 20
-3.751012
  0
VERTEX
  8
PLAN_1
  6
CONTINUOUS
 10
0.551602
 20
-3.747555
  0
VERTEX
  8
PLAN_1
  6
CONTINUOUS
 10
0.547654
 20
-3.744594
  0
VERTEX
  8
PLAN_1
  6
CONTINUOUS
 10
0.543701
 20
-3.742126
  0
VERTEX
  8
PLAN_1
  6
CONTINUOUS
 10
0.539752
 20
-3.740150
  0
VERTEX
  8
PLAN_1
  6
CONTINUOUS
 10
0.535799
 20
-3.738669
  0
VERTEX
  8
PLAN_1
  6
CONTINUOUS
 10
0.531354
 20
-3.737185
  0
VERTEX
  8
PLAN_1
  6
CONTINUOUS
 10
0.527406
 20
-3.736201
  0
VERTEX
  8
PLAN_1
  6
CONTINUOUS
 10
0.519012
 20
-3.735213
  0
VERTEX
  8
PLAN_1
  6
CONTINUOUS
 10
0.511602
 20
-3.734717
  0
VERTEX
  8
PLAN_1
  6
CONTINUOUS
 10
0.504689
 20
-3.734717
  0
VERTEX
  8
PLAN_1
  6
CONTINUOUS
 10
0.498272
 20
-3.735705
  0
VERTEX
  8
PLAN_1
  6
CONTINUOUS
 10
0.492346
 20
-3.737681
  0
VERTEX
  8
PLAN_1
  6
CONTINUOUS
 10
0.485925
 20
-3.739657
  0
VERTEX
  8
PLAN_1
  6
CONTINUOUS
 10
0.480492
 20
-3.742618
  0
VERTEX
  8
PLAN_1
  6
CONTINUOUS
 10
0.475063
 20
-3.746075
  0
VERTEX
  8
PLAN_1
  6
CONTINUOUS
 10
0.470122
 20
-3.750028
  0
VERTEX
  8
PLAN_1
  6
CONTINUOUS
 10
0.465185
 20
-3.754469
  0
VERTEX
  8
PLAN_1
  6
CONTINUOUS
 10
0.461236
 20
-3.759902
  0
VERTEX
  8
PLAN_1
  6
CONTINUOUS
 10
0.457283
 20
-3.765827
  0
VERTEX
  8
PLAN_1
  6
CONTINUOUS
 10
0.454323
 20
-3.772248
  0
VERTEX
  8
PLAN_1
  6
CONTINUOUS
 10
0.451358
 20
-3.779161
  0
VERTEX
  8
PLAN_1
  6
CONTINUOUS
 10
0.449382
 20
-3.787063
  0
VERTEX
  8
PLAN_1
  6
CONTINUOUS
 10
0.447409
 20
-3.795457
  0
VERTEX
  8
PLAN_1
  6
CONTINUOUS
 10
0.446421
 20
-3.804346
  0
VERTEX
  8
PLAN_1
  6
CONTINUOUS
 10
0.446421
 20
-3.813728
  0
VERTEX
  8
PLAN_1
  6
CONTINUOUS
 10
0.446421
 20
-3.822618
  0
VERTEX
  8
PLAN_1
  6
CONTINUOUS
 10
0.446913
 20
-3.831012
  0
VERTEX
  8
PLAN_1
  6
CONTINUOUS
 10
0.448394
 20
-3.838913
  0
VERTEX
  8
PLAN_1
  6
CONTINUOUS
 10
0.449878
 20
-3.846319
  0
VERTEX
  8
PLAN_1
  6
CONTINUOUS
 10
0.451850
 20
-3.853728
  0
VERTEX
  8
PLAN_1
  6
CONTINUOUS
 10
0.454323
 20
-3.860642
  0
VERTEX
  8
PLAN_1
  6
CONTINUOUS
 10
0.457283
 20
-3.867059
  0
VERTEX
  8
PLAN_1
  6
CONTINUOUS
 10
0.460740
 20
-3.872984
  0
VERTEX
  8
PLAN_1
  6
CONTINUOUS
 10
0.465185
 20
-3.877925
  0
VERTEX
  8
PLAN_1
  6
CONTINUOUS
 10
0.469630
 20
-3.882862
  0
VERTEX
  8
PLAN_1
  6
CONTINUOUS
 10
0.475063
 20
-3.886811
  0
VERTEX
  8
PLAN_1
  6
CONTINUOUS
 10
0.480988
 20
-3.890268
  0
VERTEX
  8
PLAN_1
  6
CONTINUOUS
 10
0.487902
 20
-3.893232
  0
VERTEX
  8
PLAN_1
  6
CONTINUOUS
 10
0.495307
 20
-3.895209
  0
VERTEX
  8
PLAN_1
  6
CONTINUOUS
 10
0.503701
 20
-3.896193
  0
VERTEX
  8
PLAN_1
  6
CONTINUOUS
 10
0.512591
 20
-3.896689
  0
VERTEX
  8
PLAN_1
  6
CONTINUOUS
 10
0.515555
 20
-3.896689
  0
VERTEX
  8
PLAN_1
  6
CONTINUOUS
 10
0.519504
 20
-3.896193
  0
VERTEX
  8
PLAN_1
  6
CONTINUOUS
 10
0.523457
 20
-3.895701
  0
VERTEX
  8
PLAN_1
  6
CONTINUOUS
 10
0.527406
 20
-3.894713
  0
VERTEX
  8
PLAN_1
  6
CONTINUOUS
 10
0.531354
 20
-3.893232
  0
VERTEX
  8
PLAN_1
  6
CONTINUOUS
 10
0.535799
 20
-3.891752
  0
VERTEX
  8
PLAN_1
  6
CONTINUOUS
 10
0.539752
 20
-3.889280
  0
VERTEX
  8
PLAN_1
  6
CONTINUOUS
 10
0.543701
 20
-3.886811
  0
VERTEX
  8
PLAN_1
  6
CONTINUOUS
 10
0.548146
 20
-3.883354
  0
VERTEX
  8
PLAN_1
  6
CONTINUOUS
 10
0.551602
 20
-3.879898
  0
VERTEX
  8
PLAN_1
  6
CONTINUOUS
 10
0.555551
 20
-3.875453
  0
VERTEX
  8
PLAN_1
  6
CONTINUOUS
 10
0.559008
 20
-3.870024
  0
VERTEX
  8
PLAN_1
  6
CONTINUOUS
 10
0.561972
 20
-3.864098
  0
VERTEX
  8
PLAN_1
  6
CONTINUOUS
 10
0.564937
 20
-3.857677
  0
VERTEX
  8
PLAN_1
  6
CONTINUOUS
 10
0.567406
 20
-3.850272
  0
VERTEX
  8
PLAN_1
  6
CONTINUOUS
 10
0.569378
 20
-3.841874
  0
VERTEX
  8
PLAN_1
  6
CONTINUOUS
 10
0.595551
 20
-3.841874
  0
VERTEX
  8
PLAN_1
  6
CONTINUOUS
 10
0.594071
 20
-3.848787
  0
VERTEX
  8
PLAN_1
  6
CONTINUOUS
 10
0.592591
 20
-3.855209
  0
VERTEX
  8
PLAN_1
  6
CONTINUOUS
 10
0.591106
 20
-3.861134
  0
VERTEX
  8
PLAN_1
  6
CONTINUOUS
 10
0.589134
 20
-3.867059
  0
VERTEX
  8
PLAN_1
  6
CONTINUOUS
 10
0.586661
 20
-3.872492
  0
VERTEX
  8
PLAN_1
  6
CONTINUOUS
 10
0.584689
 20
-3.877429
  0
VERTEX
  8
PLAN_1
  6
CONTINUOUS
 10
0.581724
 20
-3.881874
  0
VERTEX
  8
PLAN_1
  6
CONTINUOUS
 10
0.579256
 20
-3.885823
  0
VERTEX
  8
PLAN_1
  6
CONTINUOUS
 10
0.576291
 20
-3.889776
  0
VERTEX
  8
PLAN_1
  6
CONTINUOUS
 10
0.573331
 20
-3.893724
  0
VERTEX
  8
PLAN_1
  6
CONTINUOUS
 10
0.569874
 20
-3.896689
  0
VERTEX
  8
PLAN_1
  6
CONTINUOUS
 10
0.566909
 20
-3.900146
  0
VERTEX
  8
PLAN_1
  6
CONTINUOUS
 10
0.559996
 20
-3.905083
  0
VERTEX
  8
PLAN_1
  6
CONTINUOUS
 10
0.553083
 20
-3.909528
  0
VERTEX
  8
PLAN_1
  6
CONTINUOUS
 10
0.546169
 20
-3.912984
  0
VERTEX
  8
PLAN_1
  6
CONTINUOUS
 10
0.539256
 20
-3.915453
  0
VERTEX
  8
PLAN_1
  6
CONTINUOUS
 10
0.532839
 20
-3.917429
  0
VERTEX
  8
PLAN_1
  6
CONTINUOUS
 10
0.526417
 20
-3.918909
  0
VERTEX
  8
PLAN_1
  6
CONTINUOUS
 10
0.515555
 20
-3.920390
  0
VERTEX
  8
PLAN_1
  6
CONTINUOUS
 10
0.508146
 20
-3.920390
  0
VERTEX
  8
PLAN_1
  6
CONTINUOUS
 10
0.499752
 20
-3.920390
  0
VERTEX
  8
PLAN_1
  6
CONTINUOUS
 10
0.491358
 20
-3.919406
  0
VERTEX
  8
PLAN_1
  6
CONTINUOUS
 10
0.482961
 20
-3.917429
  0
VERTEX
  8
PLAN_1
  6
CONTINUOUS
 10
0.475063
 20
-3.914961
  0
VERTEX
  8
PLAN_1
  6
CONTINUOUS
 10
0.467161
 20
-3.911504
  0
VERTEX
  8
PLAN_1
  6
CONTINUOUS
 10
0.459752
 20
-3.907059
  0
VERTEX
  8
PLAN_1
  6
CONTINUOUS
 10
0.452839
 20
-3.902122
  0
VERTEX
  8
PLAN_1
  6
CONTINUOUS
 10
0.446421
 20
-3.896193
  0
VERTEX
  8
PLAN_1
  6
CONTINUOUS
 10
0.443457
 20
-3.893232
  0
VERTEX
  8
PLAN_1
  6
CONTINUOUS
 10
0.440496
 20
-3.889280
  0
VERTEX
  8
PLAN_1
  6
CONTINUOUS
 10
0.437531
 20
-3.885823
  0
VERTEX
  8
PLAN_1
  6
CONTINUOUS
 10
0.435063
 20
-3.881874
  0
VERTEX
  8
PLAN_1
  6
CONTINUOUS
 10
0.432594
 20
-3.877429
  0
VERTEX
  8
PLAN_1
  6
CONTINUOUS
 10
0.430126
 20
-3.872984
  0
VERTEX
  8
PLAN_1
  6
CONTINUOUS
 10
0.428150
 20
-3.868539
  0
VERTEX
  8
PLAN_1
  6
CONTINUOUS
 10
0.426173
 20
-3.863602
  0
VERTEX
  8
PLAN_1
  6
CONTINUOUS
 10
0.424693
 20
-3.858169
  0
VERTEX
  8
PLAN_1
  6
CONTINUOUS
 10
0.422717
 20
-3.852740
  0
VERTEX
  8
PLAN_1
  6
CONTINUOUS
 10
0.421728
 20
-3.847307
  0
VERTEX
  8
PLAN_1
  6
CONTINUOUS
 10
0.420740
 20
-3.840886
  0
VERTEX
  8
PLAN_1
  6
CONTINUOUS
 10
0.419756
 20
-3.834961
  0
VERTEX
  8
PLAN_1
  6
CONTINUOUS
 10
0.419260
 20
-3.828543
  0
VERTEX
  8
PLAN_1
  6
CONTINUOUS
 10
0.418768
 20
-3.821630
  0
VERTEX
  8
PLAN_1
  6
CONTINUOUS
 10
0.418768
 20
-3.814717
  0
VERTEX
  8
PLAN_1
  6
CONTINUOUS
 10
0.418768
 20
-3.803358
  0
VERTEX
  8
PLAN_1
  6
CONTINUOUS
 10
0.420248
 20
-3.792492
  0
VERTEX
  8
PLAN_1
  6
CONTINUOUS
 10
0.422224
 20
-3.782122
  0
VERTEX
  8
PLAN_1
  6
CONTINUOUS
 10
0.424693
 20
-3.772248
  0
VERTEX
  8
PLAN_1
  6
CONTINUOUS
 10
0.428642
 20
-3.763358
  0
VERTEX
  8
PLAN_1
  6
CONTINUOUS
 10
0.432594
 20
-3.754965
  0
VERTEX
  8
PLAN_1
  6
CONTINUOUS
 10
0.437531
 20
-3.747063
  0
VERTEX
  8
PLAN_1
  6
CONTINUOUS
 10
0.443457
 20
-3.739657
  0
VERTEX
  8
PLAN_1
  6
CONTINUOUS
 10
0.446421
 20
-3.736201
  0
VERTEX
  8
PLAN_1
  6
CONTINUOUS
 10
0.449382
 20
-3.733236
  0
VERTEX
  8
PLAN_1
  6
CONTINUOUS
 10
0.452839
 20
-3.730272
  0
VERTEX
  8
PLAN_1
  6
CONTINUOUS
 10
0.456791
 20
-3.727311
  0
VERTEX
  8
PLAN_1
  6
CONTINUOUS
 10
0.460248
 20
-3.724843
  0
VERTEX
  8
PLAN_1
  6
CONTINUOUS
 10
0.464197
 20
-3.722370
  0
VERTEX
  8
PLAN_1
  6
CONTINUOUS
 10
0.468150
 20
-3.720398
  0
VERTEX
  8
PLAN_1
  6
CONTINUOUS
 10
0.472591
 20
-3.718421
  0
VERTEX
  8
PLAN_1
  6
CONTINUOUS
 10
0.477035
 20
-3.716445
  0
VERTEX
  8
PLAN_1
  6
CONTINUOUS
 10
0.481480
 20
-3.714965
  0
VERTEX
  8
PLAN_1
  6
CONTINUOUS
 10
0.485925
 20
-3.713976
  0
VERTEX
  8
PLAN_1
  6
CONTINUOUS
 10
0.490862
 20
-3.712496
  0
VERTEX
  8
PLAN_1
  6
CONTINUOUS
 10
0.495803
 20
-3.712000
  0
VERTEX
  8
PLAN_1
  6
CONTINUOUS
 10
0.500740
 20
-3.711016
  0
VERTEX
  8
PLAN_1
  6
CONTINUOUS
 10
0.506173
 20
-3.711016
  0
VERTEX
  8
PLAN_1
  6
CONTINUOUS
 10
0.511602
 20
-3.710520
  0
VERTEX
  8
PLAN_1
  6
CONTINUOUS
 10
0.520984
 20
-3.711016
  0
VERTEX
  8
PLAN_1
  6
CONTINUOUS
 10
0.529382
 20
-3.712000
  0
VERTEX
  8
PLAN_1
  6
CONTINUOUS
 10
0.537776
 20
-3.713976
  0
VERTEX
  8
PLAN_1
  6
CONTINUOUS
 10
0.545677
 20
-3.716445
  0
VERTEX
  8
PLAN_1
  6
CONTINUOUS
 10
0.552591
 20
-3.719409
  0
VERTEX
  8
PLAN_1
  6
CONTINUOUS
 10
0.559008
 20
-3.722370
  0
VERTEX
  8
PLAN_1
  6
CONTINUOUS
 10
0.564937
 20
-3.726323
  0
VERTEX
  8
PLAN_1
  6
CONTINUOUS
 10
0.570366
 20
-3.730768
  0
VERTEX
  8
PLAN_1
  6
CONTINUOUS
 10
0.575307
 20
-3.735705
  0
VERTEX
  8
PLAN_1
  6
CONTINUOUS
 10
0.579256
 20
-3.740642
  0
VERTEX
  8
PLAN_1
  6
CONTINUOUS
 10
0.583205
 20
-3.746075
  0
VERTEX
  8
PLAN_1
  6
CONTINUOUS
 10
0.586169
 20
-3.751508
  0
VERTEX
  8
PLAN_1
  6
CONTINUOUS
 10
0.588638
 20
-3.757433
  0
VERTEX
  8
PLAN_1
  6
CONTINUOUS
 10
0.591106
 20
-3.763854
  0
VERTEX
  8
PLAN_1
  6
CONTINUOUS
 10
0.592591
 20
-3.769780
  0
VERTEX
  8
PLAN_1
  6
CONTINUOUS
 10
0.593575
 20
-3.776197
  0
VERTEX
  8
PLAN_1
  6
CONTINUOUS
 10
0.567406
 20
-3.776197
  0
SEQEND
  8
0
  0
POLYLINE
  8
PLAN_1
  6
CONTINUOUS
 66
     1
 40
0.003000
 41
0.003000
  0
VERTEX
  8
PLAN_1
  6
CONTINUOUS
 10
0.654811
 20
-3.915453
  0
VERTEX
  8
PLAN_1
  6
CONTINUOUS
 10
0.628142
 20
-3.915453
  0
VERTEX
  8
PLAN_1
  6
CONTINUOUS
 10
0.628142
 20
-3.715953
  0
VERTEX
  8
PLAN_1
  6
CONTINUOUS
 10
0.654811
 20
-3.715953
  0
VERTEX
  8
PLAN_1
  6
CONTINUOUS
 10
0.654811
 20
-3.812740
  0
VERTEX
  8
PLAN_1
  6
CONTINUOUS
 10
0.751598
 20
-3.715953
  0
VERTEX
  8
PLAN_1
  6
CONTINUOUS
 10
0.788634
 20
-3.715953
  0
VERTEX
  8
PLAN_1
  6
CONTINUOUS
 10
0.705673
 20
-3.796445
  0
VERTEX
  8
PLAN_1
  6
CONTINUOUS
 10
0.791102
 20
-3.915453
  0
VERTEX
  8
PLAN_1
  6
CONTINUOUS
 10
0.756039
 20
-3.915453
  0
VERTEX
  8
PLAN_1
  6
CONTINUOUS
 10
0.686413
 20
-3.815209
  0
VERTEX
  8
PLAN_1
  6
CONTINUOUS
 10
0.654811
 20
-3.845331
  0
VERTEX
  8
PLAN_1
  6
CONTINUOUS
 10
0.654811
 20
-3.915453
  0
SEQEND
  8
0
  0
POLYLINE
  8
PLAN_1
  6
CONTINUOUS
 66
     1
 40
0.003000
 41
0.003000
  0
VERTEX
  8
PLAN_1
  6
CONTINUOUS
 10
0.814311
 20
-3.715953
  0
VERTEX
  8
PLAN_1
  6
CONTINUOUS
 10
0.895295
 20
-3.715953
  0
VERTEX
  8
PLAN_1
  6
CONTINUOUS
 10
0.904681
 20
-3.716445
  0
VERTEX
  8
PLAN_1
  6
CONTINUOUS
 10
0.914063
 20
-3.717929
  0
VERTEX
  8
PLAN_1
  6
CONTINUOUS
 10
0.922457
 20
-3.719902
  0
VERTEX
  8
PLAN_1
  6
CONTINUOUS
 10
0.930358
 20
-3.722866
  0
VERTEX
  8
PLAN_1
  6
CONTINUOUS
 10
0.937764
 20
-3.726815
  0
VERTEX
  8
PLAN_1
  6
CONTINUOUS
 10
0.944677
 20
-3.731756
  0
VERTEX
  8
PLAN_1
  6
CONTINUOUS
 10
0.951098
 20
-3.736693
  0
VERTEX
  8
PLAN_1
  6
CONTINUOUS
 10
0.956531
 20
-3.743114
  0
VERTEX
  8
PLAN_1
  6
CONTINUOUS
 10
0.961961
 20
-3.749531
  0
VERTEX
  8
PLAN_1
  6
CONTINUOUS
 10
0.966406
 20
-3.756941
  0
VERTEX
  8
PLAN_1
  6
CONTINUOUS
 10
0.970358
 20
-3.764839
  0
VERTEX
  8
PLAN_1
  6
CONTINUOUS
 10
0.973319
 20
-3.773728
  0
VERTEX
  8
PLAN_1
  6
CONTINUOUS
 10
0.975787
 20
-3.782618
  0
VERTEX
  8
PLAN_1
  6
CONTINUOUS
 10
0.977764
 20
-3.792492
  0
VERTEX
  8
PLAN_1
  6
CONTINUOUS
 10
0.978752
 20
-3.802370
  0
VERTEX
  8
PLAN_1
  6
CONTINUOUS
 10
0.979244
 20
-3.812740
  0
VERTEX
  8
PLAN_1
  6
CONTINUOUS
 10
0.978752
 20
-3.821630
  0
VERTEX
  8
PLAN_1
  6
CONTINUOUS
 10
0.978256
 20
-3.830024
  0
VERTEX
  8
PLAN_1
  6
CONTINUOUS
 10
0.976776
 20
-3.838913
  0
VERTEX
  8
PLAN_1
  6
CONTINUOUS
 10
0.975295
 20
-3.847799
  0
VERTEX
  8
PLAN_1
  6
CONTINUOUS
 10
0.972827
 20
-3.856689
  0
VERTEX
  8
PLAN_1
  6
CONTINUOUS
 10
0.969370
 20
-3.865083
  0
VERTEX
  8
PLAN_1
  6
CONTINUOUS
 10
0.965913
 20
-3.872984
  0
VERTEX
  8
PLAN_1
  6
CONTINUOUS
 10
0.961469
 20
-3.880886
  0
VERTEX
  8
PLAN_1
  6
CONTINUOUS
 10
0.958504
 20
-3.884343
  0
VERTEX
  8
PLAN_1
  6
CONTINUOUS
 10
0.956035
 20
-3.888295
  0
VERTEX
  8
PLAN_1
  6
CONTINUOUS
 10
0.953075
 20
-3.891256
  0
VERTEX
  8
PLAN_1
  6
CONTINUOUS
 10
0.950110
 20
-3.894713
  0
VERTEX
  8
PLAN_1
  6
CONTINUOUS
 10
0.946654
 20
-3.897677
  0
VERTEX
  8
PLAN_1
  6
CONTINUOUS
 10
0.942705
 20
-3.900638
  0
VERTEX
  8
PLAN_1
  6
CONTINUOUS
 10
0.939248
 20
-3.903106
  0
VERTEX
  8
PLAN_1
  6
CONTINUOUS
 10
0.935295
 20
-3.905579
  0
VERTEX
  8
PLAN_1
  6
CONTINUOUS
 10
0.930850
 20
-3.907551
  0
VERTEX
  8
PLAN_1
  6
CONTINUOUS
 10
0.926406
 20
-3.909528
  0
VERTEX
  8
PLAN_1
  6
CONTINUOUS
 10
0.921469
 20
-3.911504
  0
VERTEX
  8
PLAN_1
  6
CONTINUOUS
 10
0.916531
 20
-3.912984
  0
VERTEX
  8
PLAN_1
  6
CONTINUOUS
 10
0.911594
 20
-3.913972
  0
VERTEX
  8
PLAN_1
  6
CONTINUOUS
 10
0.906161
 20
-3.914465
  0
VERTEX
  8
PLAN_1
  6
CONTINUOUS
 10
0.900236
 20
-3.914961
  0
VERTEX
  8
PLAN_1
  6
CONTINUOUS
 10
0.894311
 20
-3.915453
  0
VERTEX
  8
PLAN_1
  6
CONTINUOUS
 10
0.814311
 20
-3.915453
  0
VERTEX
  8
PLAN_1
  6
CONTINUOUS
 10
0.814311
 20
-3.715953
  0
SEQEND
  8
0
  0
POLYLINE
  8
PLAN_1
  6
CONTINUOUS
 66
     1
 40
0.003000
 41
0.003000
  0
VERTEX
  8
PLAN_1
  6
CONTINUOUS
 10
0.841472
 20
-3.892244
  0
VERTEX
  8
PLAN_1
  6
CONTINUOUS
 10
0.893815
 20
-3.892244
  0
VERTEX
  8
PLAN_1
  6
CONTINUOUS
 10
0.900236
 20
-3.891752
  0
VERTEX
  8
PLAN_1
  6
CONTINUOUS
 10
0.906161
 20
-3.891256
  0
VERTEX
  8
PLAN_1
  6
CONTINUOUS
 10
0.912087
 20
-3.889280
  0
VERTEX
  8
PLAN_1
  6
CONTINUOUS
 10
0.917520
 20
-3.887307
  0
VERTEX
  8
PLAN_1
  6
CONTINUOUS
 10
0.922457
 20
-3.884343
  0
VERTEX
  8
PLAN_1
  6
CONTINUOUS
 10
0.927394
 20
-3.880886
  0
VERTEX
  8
PLAN_1
  6
CONTINUOUS
 10
0.931839
 20
-3.876937
  0
VERTEX
  8
PLAN_1
  6
CONTINUOUS
 10
0.935791
 20
-3.872492
  0
VERTEX
  8
PLAN_1
  6
CONTINUOUS
 10
0.939248
 20
-3.867059
  0
VERTEX
  8
PLAN_1
  6
CONTINUOUS
 10
0.942209
 20
-3.861134
  0
VERTEX
  8
PLAN_1
  6
CONTINUOUS
 10
0.945173
 20
-3.854713
  0
VERTEX
  8
PLAN_1
  6
CONTINUOUS
 10
0.947146
 20
-3.847799
  0
VERTEX
  8
PLAN_1
  6
CONTINUOUS
 10
0.949122
 20
-3.840394
  0
VERTEX
  8
PLAN_1
  6
CONTINUOUS
 10
0.950110
 20
-3.832492
  0
VERTEX
  8
PLAN_1
  6
CONTINUOUS
 10
0.951098
 20
-3.823602
  0
VERTEX
  8
PLAN_1
  6
CONTINUOUS
 10
0.951591
 20
-3.814717
  0
VERTEX
  8
PLAN_1
  6
CONTINUOUS
 10
0.951098
 20
-3.805335
  0
VERTEX
  8
PLAN_1
  6
CONTINUOUS
 10
0.950110
 20
-3.796937
  0
VERTEX
  8
PLAN_1
  6
CONTINUOUS
 10
0.949122
 20
-3.789035
  0
VERTEX
  8
PLAN_1
  6
CONTINUOUS
 10
0.947146
 20
-3.781630
  0
VERTEX
  8
PLAN_1
  6
CONTINUOUS
 10
0.945173
 20
-3.774717
  0
VERTEX
  8
PLAN_1
  6
CONTINUOUS
 10
0.942209
 20
-3.768791
  0
VERTEX
  8
PLAN_1
  6
CONTINUOUS
 10
0.938752
 20
-3.762866
  0
VERTEX
  8
PLAN_1
  6
CONTINUOUS
 10
0.935295
 20
-3.757925
  0
VERTEX
  8
PLAN_1
  6
CONTINUOUS
 10
0.931346
 20
-3.753484
  0
VERTEX
  8
PLAN_1
  6
CONTINUOUS
 10
0.926902
 20
-3.749531
  0
VERTEX
  8
PLAN_1
  6
CONTINUOUS
 10
0.921965
 20
-3.746571
  0
VERTEX
  8
PLAN_1
  6
CONTINUOUS
 10
0.916531
 20
-3.743606
  0
VERTEX
  8
PLAN_1
  6
CONTINUOUS
 10
0.910606
 20
-3.741630
  0
VERTEX
  8
PLAN_1
  6
CONTINUOUS
 10
0.904681
 20
-3.740150
  0
VERTEX
  8
PLAN_1
  6
CONTINUOUS
 10
0.898260
 20
-3.739161
  0
VERTEX
  8
PLAN_1
  6
CONTINUOUS
 10
0.891839
 20
-3.739161
  0
VERTEX
  8
PLAN_1
  6
CONTINUOUS
 10
0.841472
 20
-3.739161
  0
VERTEX
  8
PLAN_1
  6
CONTINUOUS
 10
0.841472
 20
-3.892244
  0
SEQEND
  8
0
  0
POLYLINE
  8
PLAN_1
  6
CONTINUOUS
 66
     1
 40
0.003000
 41
0.003000
  0
VERTEX
  8
PLAN_1
  6
CONTINUOUS
 10
1.033563
 20
-3.801878
  0
VERTEX
  8
PLAN_1
  6
CONTINUOUS
 10
1.036528
 20
-3.799406
  0
VERTEX
  8
PLAN_1
  6
CONTINUOUS
 10
1.040476
 20
-3.797433
  0
VERTEX
  8
PLAN_1
  6
CONTINUOUS
 10
1.044429
 20
-3.794965
  0
VERTEX
  8
PLAN_1
  6
CONTINUOUS
 10
1.048874
 20
-3.793480
  0
VERTEX
  8
PLAN_1
  6
CONTINUOUS
 10
1.053811
 20
-3.792000
  0
VERTEX
  8
PLAN_1
  6
CONTINUOUS
 10
1.059244
 20
-3.790520
  0
VERTEX
  8
PLAN_1
  6
CONTINUOUS
 10
1.064673
 20
-3.790024
  0
VERTEX
  8
PLAN_1
  6
CONTINUOUS
 10
1.071094
 20
-3.789531
  0
VERTEX
  8
PLAN_1
  6
CONTINUOUS
 10
1.077020
 20
-3.790024
  0
VERTEX
  8
PLAN_1
  6
CONTINUOUS
 10
1.082945
 20
-3.790520
  0
VERTEX
  8
PLAN_1
  6
CONTINUOUS
 10
1.088870
 20
-3.792000
  0
VERTEX
  8
PLAN_1
  6
CONTINUOUS
 10
1.094303
 20
-3.793480
  0
VERTEX
  8
PLAN_1
  6
CONTINUOUS
 10
1.100228
 20
-3.795949
  0
VERTEX
  8
PLAN_1
  6
CONTINUOUS
 10
1.105169
 20
-3.798913
  0
VERTEX
  8
PLAN_1
  6
CONTINUOUS
 10
1.110106
 20
-3.801878
  0
VERTEX
  8
PLAN_1
  6
CONTINUOUS
 10
1.115043
 20
-3.805827
  0
VERTEX
  8
PLAN_1
  6
CONTINUOUS
 10
1.119488
 20
-3.809776
  0
VERTEX
  8
PLAN_1
  6
CONTINUOUS
 10
1.123437
 20
-3.814717
  0
VERTEX
  8
PLAN_1
  6
CONTINUOUS
 10
1.126894
 20
-3.819654
  0
VERTEX
  8
PLAN_1
  6
CONTINUOUS
 10
1.129858
 20
-3.825087
  0
VERTEX
  8
PLAN_1
  6
CONTINUOUS
 10
1.131835
 20
-3.831504
  0
VERTEX
  8
PLAN_1
  6
CONTINUOUS
 10
1.133807
 20
-3.837925
  0
VERTEX
  8
PLAN_1
  6
CONTINUOUS
 10
1.134795
 20
-3.844839
  0
VERTEX
  8
PLAN_1
  6
CONTINUOUS
 10
1.135291
 20
-3.852244
  0
VERTEX
  8
PLAN_1
  6
CONTINUOUS
 10
1.135291
 20
-3.856197
  0
VERTEX
  8
PLAN_1
  6
CONTINUOUS
 10
1.134795
 20
-3.861134
  0
VERTEX
  8
PLAN_1
  6
CONTINUOUS
 10
1.133807
 20
-3.866567
  0
VERTEX
  8
PLAN_1
  6
CONTINUOUS
 10
1.132823
 20
-3.871996
  0
VERTEX
  8
PLAN_1
  6
CONTINUOUS
 10
1.131339
 20
-3.877429
  0
VERTEX
  8
PLAN_1
  6
CONTINUOUS
 10
1.128870
 20
-3.883354
  0
VERTEX
  8
PLAN_1
  6
CONTINUOUS
 10
1.126402
 20
-3.888787
  0
VERTEX
  8
PLAN_1
  6
CONTINUOUS
 10
1.122945
 20
-3.894220
  0
VERTEX
  8
PLAN_1
  6
CONTINUOUS
 10
1.118500
 20
-3.899650
  0
VERTEX
  8
PLAN_1
  6
CONTINUOUS
 10
1.113563
 20
-3.904591
  0
VERTEX
  8
PLAN_1
  6
CONTINUOUS
 10
1.108130
 20
-3.909035
  0
VERTEX
  8
PLAN_1
  6
CONTINUOUS
 10
1.101217
 20
-3.912984
  0
VERTEX
  8
PLAN_1
  6
CONTINUOUS
 10
1.097760
 20
-3.914465
  0
VERTEX
  8
PLAN_1
  6
CONTINUOUS
 10
1.093811
 20
-3.915949
  0
VERTEX
  8
PLAN_1
  6
CONTINUOUS
 10
1.089366
 20
-3.917429
  0
VERTEX
  8
PLAN_1
  6
CONTINUOUS
 10
1.084921
 20
-3.918417
  0
VERTEX
  8
PLAN_1
  6
CONTINUOUS
 10
1.080476
 20
-3.919406
  0
VERTEX
  8
PLAN_1
  6
CONTINUOUS
 10
1.075539
 20
-3.919898
  0
VERTEX
  8
PLAN_1
  6
CONTINUOUS
 10
1.070106
 20
-3.920390
  0
VERTEX
  8
PLAN_1
  6
CONTINUOUS
 10
1.064673
 20
-3.920390
  0
VERTEX
  8
PLAN_1
  6
CONTINUOUS
 10
1.059736
 20
-3.920390
  0
VERTEX
  8
PLAN_1
  6
CONTINUOUS
 10
1.054799
 20
-3.919898
  0
VERTEX
  8
PLAN_1
  6
CONTINUOUS
 10
1.049366
 20
-3.919406
  0
VERTEX
  8
PLAN_1
  6
CONTINUOUS
 10
1.044429
 20
-3.918417
  0
VERTEX
  8
PLAN_1
  6
CONTINUOUS
 10
1.039492
 20
-3.916933
  0
VERTEX
  8
PLAN_1
  6
CONTINUOUS
 10
1.034551
 20
-3.914961
  0
VERTEX
  8
PLAN_1
  6
CONTINUOUS
 10
1.029614
 20
-3.912984
  0
VERTEX
  8
PLAN_1
  6
CONTINUOUS
 10
1.025169
 20
-3.910020
  0
VERTEX
  8
PLAN_1
  6
CONTINUOUS
 10
1.020724
 20
-3.906563
  0
VERTEX
  8
PLAN_1
  6
CONTINUOUS
 10
1.016776
 20
-3.903106
  0
VERTEX
  8
PLAN_1
  6
CONTINUOUS
 10
1.012823
 20
-3.898665
  0
VERTEX
  8
PLAN_1
  6
CONTINUOUS
 10
1.009862
 20
-3.893724
  0
VERTEX
  8
PLAN_1
  6
CONTINUOUS
 10
1.006898
 20
-3.887799
  0
VERTEX
  8
PLAN_1
  6
CONTINUOUS
 10
1.004429
 20
-3.881382
  0
VERTEX
  8
PLAN_1
  6
CONTINUOUS
 10
1.002453
 20
-3.874469
  0
VERTEX
  8
PLAN_1
  6
CONTINUOUS
 10
1.001469
 20
-3.866567
  0
VERTEX
  8
PLAN_1
  6
CONTINUOUS
 10
1.026650
 20
-3.866567
  0
VERTEX
  8
PLAN_1
  6
CONTINUOUS
 10
1.027146
 20
-3.871012
  0
VERTEX
  8
PLAN_1
  6
CONTINUOUS
 10
1.028134
 20
-3.874469
  0
VERTEX
  8
PLAN_1
  6
CONTINUOUS
 10
1.029614
 20
-3.878417
  0
VERTEX
  8
PLAN_1
  6
CONTINUOUS
 10
1.031094
 20
-3.881382
  0
VERTEX
  8
PLAN_1
  6
CONTINUOUS
 10
1.033071
 20
-3.884343
  0
VERTEX
  8
PLAN_1
  6
CONTINUOUS
 10
1.035047
 20
-3.887307
  0
VERTEX
  8
PLAN_1
  6
CONTINUOUS
 10
1.037516
 20
-3.889776
  0
VERTEX
  8
PLAN_1
  6
CONTINUOUS
 10
1.039984
 20
-3.891752
  0
VERTEX
  8
PLAN_1
  6
CONTINUOUS
 10
1.042949
 20
-3.893724
  0
VERTEX
  8
PLAN_1
  6
CONTINUOUS
 10
1.045909
 20
-3.895209
  0
VERTEX
  8
PLAN_1
  6
CONTINUOUS
 10
1.049366
 20
-3.896689
  0
VERTEX
  8
PLAN_1
  6
CONTINUOUS
 10
1.052823
 20
-3.897677
  0
VERTEX
  8
PLAN_1
  6
CONTINUOUS
 10
1.056280
 20
-3.898665
  0
VERTEX
  8
PLAN_1
  6
CONTINUOUS
 10
1.060232
 20
-3.899157
  0
VERTEX
  8
PLAN_1
  6
CONTINUOUS
 10
1.064181
 20
-3.899157
  0
VERTEX
  8
PLAN_1
  6
CONTINUOUS
 10
1.068130
 20
-3.899650
  0
VERTEX
  8
PLAN_1
  6
CONTINUOUS
 10
1.072575
 20
-3.899157
  0
VERTEX
  8
PLAN_1
  6
CONTINUOUS
 10
1.077020
 20
-3.898665
  0
VERTEX
  8
PLAN_1
  6
CONTINUOUS
 10
1.081465
 20
-3.897677
  0
VERTEX
  8
PLAN_1
  6
CONTINUOUS
 10
1.084921
 20
-3.896193
  0
VERTEX
  8
PLAN_1
  6
CONTINUOUS
 10
1.088870
 20
-3.894220
  0
VERTEX
  8
PLAN_1
  6
CONTINUOUS
 10
1.092327
 20
-3.891752
  0
VERTEX
  8
PLAN_1
  6
CONTINUOUS
 10
1.095291
 20
-3.889280
  0
VERTEX
  8
PLAN_1
  6
CONTINUOUS
 10
1.098256
 20
-3.886319
  0
VERTEX
  8
PLAN_1
  6
CONTINUOUS
 10
1.100724
 20
-3.883354
  0
VERTEX
  8
PLAN_1
  6
CONTINUOUS
 10
1.102697
 20
-3.879898
  0
VERTEX
  8
PLAN_1
  6
CONTINUOUS
 10
1.104673
 20
-3.875949
  0
VERTEX
  8
PLAN_1
  6
CONTINUOUS
 10
1.106154
 20
-3.871996
  0
VERTEX
  8
PLAN_1
  6
CONTINUOUS
 10
1.107638
 20
-3.868047
  0
VERTEX
  8
PLAN_1
  6
CONTINUOUS
 10
1.108626
 20
-3.863602
  0
VERTEX
  8
PLAN_1
  6
CONTINUOUS
 10
1.109118
 20
-3.859157
  0
VERTEX
  8
PLAN_1
  6
CONTINUOUS
 10
1.109118
 20
-3.854713
  0
VERTEX
  8
PLAN_1
  6
CONTINUOUS
 10
1.109118
 20
-3.849776
  0
VERTEX
  8
PLAN_1
  6
CONTINUOUS
 10
1.108130
 20
-3.844839
  0
VERTEX
  8
PLAN_1
  6
CONTINUOUS
 10
1.107142
 20
-3.840394
  0
VERTEX
  8
PLAN_1
  6
CONTINUOUS
 10
1.105661
 20
-3.836445
  0
VERTEX
  8
PLAN_1
  6
CONTINUOUS
 10
1.104181
 20
-3.832492
  0
VERTEX
  8
PLAN_1
  6
CONTINUOUS
 10
1.101713
 20
-3.829035
  0
VERTEX
  8
PLAN_1
  6
CONTINUOUS
 10
1.099240
 20
-3.825579
  0
VERTEX
  8
PLAN_1
  6
CONTINUOUS
 10
1.096772
 20
-3.822618
  0
VERTEX
  8
PLAN_1
  6
CONTINUOUS
 10
1.093315
 20
-3.820146
  0
VERTEX
  8
PLAN_1
  6
CONTINUOUS
 10
1.090354
 20
-3.817677
  0
VERTEX
  8
PLAN_1
  6
CONTINUOUS
 10
1.086402
 20
-3.815705
  0
VERTEX
  8
PLAN_1
  6
CONTINUOUS
 10
1.082945
 20
-3.814220
  0
VERTEX
  8
PLAN_1
  6
CONTINUOUS
 10
1.078996
 20
-3.813232
  0
VERTEX
  8
PLAN_1
  6
CONTINUOUS
 10
1.074551
 20
-3.812248
  0
VERTEX
  8
PLAN_1
  6
CONTINUOUS
 10
1.070106
 20
-3.811752
  0
VERTEX
  8
PLAN_1
  6
CONTINUOUS
 10
1.065661
 20
-3.811752
  0
VERTEX
  8
PLAN_1
  6
CONTINUOUS
 10
1.060724
 20
-3.811752
  0
VERTEX
  8
PLAN_1
  6
CONTINUOUS
 10
1.055291
 20
-3.812740
  0
VERTEX
  8
PLAN_1
  6
CONTINUOUS
 10
1.050846
 20
-3.814220
  0
VERTEX
  8
PLAN_1
  6
CONTINUOUS
 10
1.045909
 20
-3.816197
  0
VERTEX
  8
PLAN_1
  6
CONTINUOUS
 10
1.041465
 20
-3.819161
  0
VERTEX
  8
PLAN_1
  6
CONTINUOUS
 10
1.037516
 20
-3.822122
  0
VERTEX
  8
PLAN_1
  6
CONTINUOUS
 10
1.033563
 20
-3.826075
  0
VERTEX
  8
PLAN_1
  6
CONTINUOUS
 10
1.029614
 20
-3.830024
  0
VERTEX
  8
PLAN_1
  6
CONTINUOUS
 10
1.008874
 20
-3.829035
  0
VERTEX
  8
PLAN_1
  6
CONTINUOUS
 10
1.023193
 20
-3.724346
  0
VERTEX
  8
PLAN_1
  6
CONTINUOUS
 10
1.124425
 20
-3.724346
  0
VERTEX
  8
PLAN_1
  6
CONTINUOUS
 10
1.124425
 20
-3.748051
  0
VERTEX
  8
PLAN_1
  6
CONTINUOUS
 10
1.041465
 20
-3.748051
  0
VERTEX
  8
PLAN_1
  6
CONTINUOUS
 10
1.033563
 20
-3.801878
  0
SEQEND
  8
0
  0
POLYLINE
  8
PLAN_1
  6
CONTINUOUS
 66
     1
 40
0.003000
 41
0.003000
  0
VERTEX
  8
PLAN_1
  6
CONTINUOUS
 10
1.158500
 20
-3.787063
  0
VERTEX
  8
PLAN_1
  6
CONTINUOUS
 10
1.158992
 20
-3.780642
  0
VERTEX
  8
PLAN_1
  6
CONTINUOUS
 10
1.159488
 20
-3.774224
  0
VERTEX
  8
PLAN_1
  6
CONTINUOUS
 10
1.160969
 20
-3.767803
  0
VERTEX
  8
PLAN_1
  6
CONTINUOUS
 10
1.162449
 20
-3.761878
  0
VERTEX
  8
PLAN_1
  6
CONTINUOUS
 10
1.164917
 20
-3.755953
  0
VERTEX
  8
PLAN_1
  6
CONTINUOUS
 10
1.167390
 20
-3.750520
  0
VERTEX
  8
PLAN_1
  6
CONTINUOUS
 10
1.170846
 20
-3.745087
  0
VERTEX
  8
PLAN_1
  6
CONTINUOUS
 10
1.174795
 20
-3.740150
  0
VERTEX
  8
PLAN_1
  6
CONTINUOUS
 10
1.178744
 20
-3.735705
  0
VERTEX
  8
PLAN_1
  6
CONTINUOUS
 10
1.183685
 20
-3.731756
  0
VERTEX
  8
PLAN_1
  6
CONTINUOUS
 10
1.188622
 20
-3.728791
  0
VERTEX
  8
PLAN_1
  6
CONTINUOUS
 10
1.194055
 20
-3.725827
  0
VERTEX
  8
PLAN_1
  6
CONTINUOUS
 10
1.200472
 20
-3.723358
  0
VERTEX
  8
PLAN_1
  6
CONTINUOUS
 10
1.206894
 20
-3.721386
  0
VERTEX
  8
PLAN_1
  6
CONTINUOUS
 10
1.213807
 20
-3.720398
  0
VERTEX
  8
PLAN_1
  6
CONTINUOUS
 10
1.221213
 20
-3.720398
  0
VERTEX
  8
PLAN_1
  6
CONTINUOUS
 10
1.227138
 20
-3.720398
  0
VERTEX
  8
PLAN_1
  6
CONTINUOUS
 10
1.232571
 20
-3.720890
  0
VERTEX
  8
PLAN_1
  6
CONTINUOUS
 10
1.237508
 20
-3.721878
  0
VERTEX
  8
PLAN_1
  6
CONTINUOUS
 10
1.241953
 20
-3.722866
  0
VERTEX
  8
PLAN_1
  6
CONTINUOUS
 10
1.246398
 20
-3.724346
  0
VERTEX
  8
PLAN_1
  6
CONTINUOUS
 10
1.250843
 20
-3.725827
  0
VERTEX
  8
PLAN_1
  6
CONTINUOUS
 10
1.254791
 20
-3.727803
  0
VERTEX
  8
PLAN_1
  6
CONTINUOUS
 10
1.258248
 20
-3.729780
  0
VERTEX
  8
PLAN_1
  6
CONTINUOUS
 10
1.261705
 20
-3.732248
  0
VERTEX
  8
PLAN_1
  6
CONTINUOUS
 10
1.264669
 20
-3.734717
  0
VERTEX
  8
PLAN_1
  6
CONTINUOUS
 10
1.267634
 20
-3.737681
  0
VERTEX
  8
PLAN_1
  6
CONTINUOUS
 10
1.270102
 20
-3.740642
  0
VERTEX
  8
PLAN_1
  6
CONTINUOUS
 10
1.275039
 20
-3.746571
  0
VERTEX
  8
PLAN_1
  6
CONTINUOUS
 10
1.278988
 20
-3.753484
  0
VERTEX
  8
PLAN_1
  6
CONTINUOUS
 10
1.281953
 20
-3.760890
  0
VERTEX
  8
PLAN_1
  6
CONTINUOUS
 10
1.284421
 20
-3.768295
  0
VERTEX
  8
PLAN_1
  6
CONTINUOUS
 10
1.286398
 20
-3.775705
  0
VERTEX
  8
PLAN_1
  6
CONTINUOUS
 10
1.287878
 20
-3.783110
  0
VERTEX
  8
PLAN_1
  6
CONTINUOUS
 10
1.288866
 20
-3.790520
  0
VERTEX
  8
PLAN_1
  6
CONTINUOUS
 10
1.289358
 20
-3.797925
  0
VERTEX
  8
PLAN_1
  6
CONTINUOUS
 10
1.289358
 20
-3.804346
  0
VERTEX
  8
PLAN_1
  6
CONTINUOUS
 10
1.289854
 20
-3.810764
  0
VERTEX
  8
PLAN_1
  6
CONTINUOUS
 10
1.289358
 20
-3.821630
  0
VERTEX
  8
PLAN_1
  6
CONTINUOUS
 10
1.287878
 20
-3.836445
  0
VERTEX
  8
PLAN_1
  6
CONTINUOUS
 10
1.286890
 20
-3.845331
  0
VERTEX
  8
PLAN_1
  6
CONTINUOUS
 10
1.284917
 20
-3.854713
  0
VERTEX
  8
PLAN_1
  6
CONTINUOUS
 10
1.282445
 20
-3.864098
  0
VERTEX
  8
PLAN_1
  6
CONTINUOUS
 10
1.279484
 20
-3.873480
  0
VERTEX
  8
PLAN_1
  6
CONTINUOUS
 10
1.277508
 20
-3.877925
  0
VERTEX
  8
PLAN_1
  6
CONTINUOUS
 10
1.275531
 20
-3.882862
  0
VERTEX
  8
PLAN_1
  6
CONTINUOUS
 10
1.273063
 20
-3.886811
  0
VERTEX
  8
PLAN_1
  6
CONTINUOUS
 10
1.270594
 20
-3.891256
  0
VERTEX
  8
PLAN_1
  6
CONTINUOUS
 10
1.268126
 20
-3.895209
  0
VERTEX
  8
PLAN_1
  6
CONTINUOUS
 10
1.265161
 20
-3.899157
  0
VERTEX
  8
PLAN_1
  6
CONTINUOUS
 10
1.261705
 20
-3.903106
  0
VERTEX
  8
PLAN_1
  6
CONTINUOUS
 10
1.258248
 20
-3.906563
  0
VERTEX
  8
PLAN_1
  6
CONTINUOUS
 10
1.254299
 20
-3.909528
  0
VERTEX
  8
PLAN_1
  6
CONTINUOUS
 10
1.250350
 20
-3.912492
  0
VERTEX
  8
PLAN_1
  6
CONTINUOUS
 10
1.245906
 20
-3.914465
  0
VERTEX
  8
PLAN_1
  6
CONTINUOUS
 10
1.240965
 20
-3.916933
  0
VERTEX
  8
PLAN_1
  6
CONTINUOUS
 10
1.236028
 20
-3.918417
  0
VERTEX
  8
PLAN_1
  6
CONTINUOUS
 10
1.230594
 20
-3.919406
  0
VERTEX
  8
PLAN_1
  6
CONTINUOUS
 10
1.225165
 20
-3.920390
  0
VERTEX
  8
PLAN_1
  6
CONTINUOUS
 10
1.218744
 20
-3.920390
  0
VERTEX
  8
PLAN_1
  6
CONTINUOUS
 10
1.210843
 20
-3.920390
  0
VERTEX
  8
PLAN_1
  6
CONTINUOUS
 10
1.203437
 20
-3.918909
  0
VERTEX
  8
PLAN_1
  6
CONTINUOUS
 10
1.196524
 20
-3.917429
  0
VERTEX
  8
PLAN_1
  6
CONTINUOUS
 10
1.190598
 20
-3.914961
  0
VERTEX
  8
PLAN_1
  6
CONTINUOUS
 10
1.185165
 20
-3.912492
  0
VERTEX
  8
PLAN_1
  6
CONTINUOUS
 10
1.180228
 20
-3.909035
  0
VERTEX
  8
PLAN_1
  6
CONTINUOUS
 10
1.176276
 20
-3.905579
  0
VERTEX
  8
PLAN_1
  6
CONTINUOUS
 10
1.172819
 20
-3.901626
  0
VERTEX
  8
PLAN_1
  6
CONTINUOUS
 10
1.169858
 20
-3.897677
  0
VERTEX
  8
PLAN_1
  6
CONTINUOUS
 10
1.166894
 20
-3.893232
  0
VERTEX
  8
PLAN_1
  6
CONTINUOUS
 10
1.164917
 20
-3.888787
  0
VERTEX
  8
PLAN_1
  6
CONTINUOUS
 10
1.163437
 20
-3.884343
  0
VERTEX
  8
PLAN_1
  6
CONTINUOUS
 10
1.162449
 20
-3.880394
  0
VERTEX
  8
PLAN_1
  6
CONTINUOUS
 10
1.161461
 20
-3.875949
  0
VERTEX
  8
PLAN_1
  6
CONTINUOUS
 10
1.160969
 20
-3.871996
  0
VERTEX
  8
PLAN_1
  6
CONTINUOUS
 10
1.160969
 20
-3.868539
  0
VERTEX
  8
PLAN_1
  6
CONTINUOUS
 10
1.185165
 20
-3.868539
  0
VERTEX
  8
PLAN_1
  6
CONTINUOUS
 10
1.185657
 20
-3.871996
  0
VERTEX
  8
PLAN_1
  6
CONTINUOUS
 10
1.186154
 20
-3.875453
  0
VERTEX
  8
PLAN_1
  6
CONTINUOUS
 10
1.187142
 20
-3.878909
  0
VERTEX
  8
PLAN_1
  6
CONTINUOUS
 10
1.188130
 20
-3.881874
  0
VERTEX
  8
PLAN_1
  6
CONTINUOUS
 10
1.189610
 20
-3.884343
  0
VERTEX
  8
PLAN_1
  6
CONTINUOUS
 10
1.191091
 20
-3.887307
  0
VERTEX
  8
PLAN_1
  6
CONTINUOUS
 10
1.192571
 20
-3.889776
  0
VERTEX
  8
PLAN_1
  6
CONTINUOUS
 10
1.195043
 20
-3.891752
  0
VERTEX
  8
PLAN_1
  6
CONTINUOUS
 10
1.197016
 20
-3.893724
  0
VERTEX
  8
PLAN_1
  6
CONTINUOUS
 10
1.199484
 20
-3.895209
  0
VERTEX
  8
PLAN_1
  6
CONTINUOUS
 10
1.201957
 20
-3.896689
  0
VERTEX
  8
PLAN_1
  6
CONTINUOUS
 10
1.204917
 20
-3.898169
  0
VERTEX
  8
PLAN_1
  6
CONTINUOUS
 10
1.207882
 20
-3.899157
  0
VERTEX
  8
PLAN_1
  6
CONTINUOUS
 10
1.211339
 20
-3.899650
  0
VERTEX
  8
PLAN_1
  6
CONTINUOUS
 10
1.214795
 20
-3.900146
  0
VERTEX
  8
PLAN_1
  6
CONTINUOUS
 10
1.218252
 20
-3.900146
  0
VERTEX
  8
PLAN_1
  6
CONTINUOUS
 10
1.223189
 20
-3.900146
  0
VERTEX
  8
PLAN_1
  6
CONTINUOUS
 10
1.227634
 20
-3.899157
  0
VERTEX
  8
PLAN_1
  6
CONTINUOUS
 10
1.232079
 20
-3.898169
  0
VERTEX
  8
PLAN_1
  6
CONTINUOUS
 10
1.236028
 20
-3.896193
  0
VERTEX
  8
PLAN_1
  6
CONTINUOUS
 10
1.239980
 20
-3.893724
  0
VERTEX
  8
PLAN_1
  6
CONTINUOUS
 10
1.243437
 20
-3.890764
  0
VERTEX
  8
PLAN_1
  6
CONTINUOUS
 10
1.246398
 20
-3.886811
  0
VERTEX
  8
PLAN_1
  6
CONTINUOUS
 10
1.249362
 20
-3.882862
  0
VERTEX
  8
PLAN_1
  6
CONTINUOUS
 10
1.252323
 20
-3.877925
  0
VERTEX
  8
PLAN_1
  6
CONTINUOUS
 10
1.254791
 20
-3.872492
  0
VERTEX
  8
PLAN_1
  6
CONTINUOUS
 10
1.256768
 20
-3.866567
  0
VERTEX
  8
PLAN_1
  6
CONTINUOUS
 10
1.259236
 20
-3.860146
  0
VERTEX
  8
PLAN_1
  6
CONTINUOUS
 10
1.260720
 20
-3.852740
  0
VERTEX
  8
PLAN_1
  6
CONTINUOUS
 10
1.262693
 20
-3.844839
  0
VERTEX
  8
PLAN_1
  6
CONTINUOUS
 10
1.264177
 20
-3.836445
  0
VERTEX
  8
PLAN_1
  6
CONTINUOUS
 10
1.265161
 20
-3.827555
  0
VERTEX
  8
PLAN_1
  6
CONTINUOUS
 10
1.264669
 20
-3.826567
  0
VERTEX
  8
PLAN_1
  6
CONTINUOUS
 10
1.263189
 20
-3.829531
  0
VERTEX
  8
PLAN_1
  6
CONTINUOUS
 10
1.261213
 20
-3.832000
  0
VERTEX
  8
PLAN_1
  6
CONTINUOUS
 10
1.259236
 20
-3.834469
  0
VERTEX
  8
PLAN_1
  6
CONTINUOUS
 10
1.257264
 20
-3.836937
  0
VERTEX
  8
PLAN_1
  6
CONTINUOUS
 10
1.252323
 20
-3.840886
  0
VERTEX
  8
PLAN_1
  6
CONTINUOUS
 10
1.246398
 20
-3.843850
  0
VERTEX
  8
PLAN_1
  6
CONTINUOUS
 10
1.239980
 20
-3.846815
  0
VERTEX
  8
PLAN_1
  6
CONTINUOUS
 10
1.233559
 20
-3.848787
  0
VERTEX
  8
PLAN_1
  6
CONTINUOUS
 10
1.226646
 20
-3.849776
  0
VERTEX
  8
PLAN_1
  6
CONTINUOUS
 10
1.219732
 20
-3.850272
  0
VERTEX
  8
PLAN_1
  6
CONTINUOUS
 10
1.213311
 20
-3.849776
  0
VERTEX
  8
PLAN_1
  6
CONTINUOUS
 10
1.206894
 20
-3.848787
  0
VERTEX
  8
PLAN_1
  6
CONTINUOUS
 10
1.200969
 20
-3.847799
  0
VERTEX
  8
PLAN_1
  6
CONTINUOUS
 10
1.195043
 20
-3.845827
  0
VERTEX
  8
PLAN_1
  6
CONTINUOUS
 10
1.189610
 20
-3.843358
  0
VERTEX
  8
PLAN_1
  6
CONTINUOUS
 10
1.184673
 20
-3.840394
  0
VERTEX
  8
PLAN_1
  6
CONTINUOUS
 10
1.180228
 20
-3.836937
  0
VERTEX
  8
PLAN_1
  6
CONTINUOUS
 10
1.175783
 20
-3.832988
  0
VERTEX
  8
PLAN_1
  6
CONTINUOUS
 10
1.171831
 20
-3.829035
  0
VERTEX
  8
PLAN_1
  6
CONTINUOUS
 10
1.168374
 20
-3.824098
  0
VERTEX
  8
PLAN_1
  6
CONTINUOUS
 10
1.165413
 20
-3.819161
  0
VERTEX
  8
PLAN_1
  6
CONTINUOUS
 10
1.162945
 20
-3.813232
  0
VERTEX
  8
PLAN_1
  6
CONTINUOUS
 10
1.160969
 20
-3.807307
  0
VERTEX
  8
PLAN_1
  6
CONTINUOUS
 10
1.159980
 20
-3.800890
  0
VERTEX
  8
PLAN_1
  6
CONTINUOUS
 10
1.158992
 20
-3.793976
  0
VERTEX
  8
PLAN_1
  6
CONTINUOUS
 10
1.158500
 20
-3.787063
  0
SEQEND
  8
0
  0
POLYLINE
  8
PLAN_1
  6
CONTINUOUS
 66
     1
 40
0.003000
 41
0.003000
  0
VERTEX
  8
PLAN_1
  6
CONTINUOUS
 10
1.261213
 20
-3.783606
  0
VERTEX
  8
PLAN_1
  6
CONTINUOUS
 10
1.260720
 20
-3.779654
  0
VERTEX
  8
PLAN_1
  6
CONTINUOUS
 10
1.260720
 20
-3.775705
  0
VERTEX
  8
PLAN_1
  6
CONTINUOUS
 10
1.259732
 20
-3.771752
  0
VERTEX
  8
PLAN_1
  6
CONTINUOUS
 10
1.258744
 20
-3.767803
  0
VERTEX
  8
PLAN_1
  6
CONTINUOUS
 10
1.257756
 20
-3.764346
  0
VERTEX
  8
PLAN_1
  6
CONTINUOUS
 10
1.255780
 20
-3.760890
  0
VERTEX
  8
PLAN_1
  6
CONTINUOUS
 10
1.254299
 20
-3.757433
  0
VERTEX
  8
PLAN_1
  6
CONTINUOUS
 10
1.251831
 20
-3.754469
  0
VERTEX
  8
PLAN_1
  6
CONTINUOUS
 10
1.249362
 20
-3.752000
  0
VERTEX
  8
PLAN_1
  6
CONTINUOUS
 10
1.246398
 20
-3.749531
  0
VERTEX
  8
PLAN_1
  6
CONTINUOUS
 10
1.243437
 20
-3.747555
  0
VERTEX
  8
PLAN_1
  6
CONTINUOUS
 10
1.239484
 20
-3.745583
  0
VERTEX
  8
PLAN_1
  6
CONTINUOUS
 10
1.235535
 20
-3.744098
  0
VERTEX
  8
PLAN_1
  6
CONTINUOUS
 10
1.231583
 20
-3.743114
  0
VERTEX
  8
PLAN_1
  6
CONTINUOUS
 10
1.226646
 20
-3.742126
  0
VERTEX
  8
PLAN_1
  6
CONTINUOUS
 10
1.221709
 20
-3.742126
  0
VERTEX
  8
PLAN_1
  6
CONTINUOUS
 10
1.217264
 20
-3.742126
  0
VERTEX
  8
PLAN_1
  6
CONTINUOUS
 10
1.213311
 20
-3.743114
  0
VERTEX
  8
PLAN_1
  6
CONTINUOUS
 10
1.209854
 20
-3.744098
  0
VERTEX
  8
PLAN_1
  6
CONTINUOUS
 10
1.205906
 20
-3.745087
  0
VERTEX
  8
PLAN_1
  6
CONTINUOUS
 10
1.202941
 20
-3.747063
  0
VERTEX
  8
PLAN_1
  6
CONTINUOUS
 10
1.199484
 20
-3.749039
  0
VERTEX
  8
PLAN_1
  6
CONTINUOUS
 10
1.197016
 20
-3.751508
  0
VERTEX
  8
PLAN_1
  6
CONTINUOUS
 10
1.194055
 20
-3.754469
  0
VERTEX
  8
PLAN_1
  6
CONTINUOUS
 10
1.192079
 20
-3.757433
  0
VERTEX
  8
PLAN_1
  6
CONTINUOUS
 10
1.189610
 20
-3.760890
  0
VERTEX
  8
PLAN_1
  6
CONTINUOUS
 10
1.188130
 20
-3.764346
  0
VERTEX
  8
PLAN_1
  6
CONTINUOUS
 10
1.186646
 20
-3.768295
  0
VERTEX
  8
PLAN_1
  6
CONTINUOUS
 10
1.185165
 20
-3.772248
  0
VERTEX
  8
PLAN_1
  6
CONTINUOUS
 10
1.184673
 20
-3.776693
  0
VERTEX
  8
PLAN_1
  6
CONTINUOUS
 10
1.184177
 20
-3.781138
  0
VERTEX
  8
PLAN_1
  6
CONTINUOUS
 10
1.183685
 20
-3.786075
  0
VERTEX
  8
PLAN_1
  6
CONTINUOUS
 10
1.184177
 20
-3.792492
  0
VERTEX
  8
PLAN_1
  6
CONTINUOUS
 10
1.184673
 20
-3.798421
  0
VERTEX
  8
PLAN_1
  6
CONTINUOUS
 10
1.186154
 20
-3.803850
  0
VERTEX
  8
PLAN_1
  6
CONTINUOUS
 10
1.187634
 20
-3.808295
  0
VERTEX
  8
PLAN_1
  6
CONTINUOUS
 10
1.189610
 20
-3.812248
  0
VERTEX
  8
PLAN_1
  6
CONTINUOUS
 10
1.192079
 20
-3.815705
  0
VERTEX
  8
PLAN_1
  6
CONTINUOUS
 10
1.194547
 20
-3.818665
  0
VERTEX
  8
PLAN_1
  6
CONTINUOUS
 10
1.197512
 20
-3.821134
  0
VERTEX
  8
PLAN_1
  6
CONTINUOUS
 10
1.200472
 20
-3.823110
  0
VERTEX
  8
PLAN_1
  6
CONTINUOUS
 10
1.203929
 20
-3.824591
  0
VERTEX
  8
PLAN_1
  6
CONTINUOUS
 10
1.206894
 20
-3.826075
  0
VERTEX
  8
PLAN_1
  6
CONTINUOUS
 10
1.210350
 20
-3.827059
  0
VERTEX
  8
PLAN_1
  6
CONTINUOUS
 10
1.217264
 20
-3.828047
  0
VERTEX
  8
PLAN_1
  6
CONTINUOUS
 10
1.223681
 20
-3.828047
  0
VERTEX
  8
PLAN_1
  6
CONTINUOUS
 10
1.228622
 20
-3.828047
  0
VERTEX
  8
PLAN_1
  6
CONTINUOUS
 10
1.235039
 20
-3.826567
  0
VERTEX
  8
PLAN_1
  6
CONTINUOUS
 10
1.238004
 20
-3.825579
  0
VERTEX
  8
PLAN_1
  6
CONTINUOUS
 10
1.240965
 20
-3.824098
  0
VERTEX
  8
PLAN_1
  6
CONTINUOUS
 10
1.243929
 20
-3.822618
  0
VERTEX
  8
PLAN_1
  6
CONTINUOUS
 10
1.246894
 20
-3.820642
  0
VERTEX
  8
PLAN_1
  6
CONTINUOUS
 10
1.249854
 20
-3.817677
  0
VERTEX
  8
PLAN_1
  6
CONTINUOUS
 10
1.252323
 20
-3.814717
  0
VERTEX
  8
PLAN_1
  6
CONTINUOUS
 10
1.254791
 20
-3.811260
  0
VERTEX
  8
PLAN_1
  6
CONTINUOUS
 10
1.256768
 20
-3.806815
  0
VERTEX
  8
PLAN_1
  6
CONTINUOUS
 10
1.258744
 20
-3.802370
  0
VERTEX
  8
PLAN_1
  6
CONTINUOUS
 10
1.259732
 20
-3.796937
  0
VERTEX
  8
PLAN_1
  6
CONTINUOUS
 10
1.260720
 20
-3.790520
  0
VERTEX
  8
PLAN_1
  6
CONTINUOUS
 10
1.261213
 20
-3.783606
  0
SEQEND
  8
0
  0
SOLID
  8
PLAN_1
 10
1.301213
 20
-3.950020
 11
1.301213
 21
-3.936193
 12
1.455776
 22
-3.950020
 13
1.455776
 23
-3.936193
  0
POLYLINE
  8
PLAN_1
  6
CONTINUOUS
 66
     1
 40
0.003000
 41
0.003000
  0
VERTEX
  8
PLAN_1
  6
CONTINUOUS
 10
1.301213
 20
-3.950020
  0
VERTEX
  8
PLAN_1
  6
CONTINUOUS
 10
1.301213
 20
-3.936193
  0
VERTEX
  8
PLAN_1
  6
CONTINUOUS
 10
1.455776
 20
-3.936193
  0
VERTEX
  8
PLAN_1
  6
CONTINUOUS
 10
1.455776
 20
-3.950020
  0
VERTEX
  8
PLAN_1
  6
CONTINUOUS
 10
1.301213
 20
-3.950020
  0
SEQEND
  8
0
  0
POLYLINE
  8
PLAN_1
  6
CONTINUOUS
 66
     1
 40
0.003000
 41
0.003000
  0
VERTEX
  8
PLAN_1
  6
CONTINUOUS
 10
1.507134
 20
-3.915453
  0
VERTEX
  8
PLAN_1
  6
CONTINUOUS
 10
1.479972
 20
-3.915453
  0
VERTEX
  8
PLAN_1
  6
CONTINUOUS
 10
1.479972
 20
-3.715953
  0
VERTEX
  8
PLAN_1
  6
CONTINUOUS
 10
1.572315
 20
-3.715953
  0
VERTEX
  8
PLAN_1
  6
CONTINUOUS
 10
1.578240
 20
-3.715953
  0
VERTEX
  8
PLAN_1
  6
CONTINUOUS
 10
1.584661
 20
-3.716445
  0
VERTEX
  8
PLAN_1
  6
CONTINUOUS
 10
1.590587
 20
-3.717433
  0
VERTEX
  8
PLAN_1
  6
CONTINUOUS
 10
1.596512
 20
-3.718421
  0
VERTEX
  8
PLAN_1
  6
CONTINUOUS
 10
1.601945
 20
-3.719902
  0
VERTEX
  8
PLAN_1
  6
CONTINUOUS
 10
1.607378
 20
-3.721878
  0
VERTEX
  8
PLAN_1
  6
CONTINUOUS
 10
1.612807
 20
-3.724346
  0
VERTEX
  8
PLAN_1
  6
CONTINUOUS
 10
1.617252
 20
-3.726815
  0
VERTEX
  8
PLAN_1
  6
CONTINUOUS
 10
1.621697
 20
-3.730272
  0
VERTEX
  8
PLAN_1
  6
CONTINUOUS
 10
1.625646
 20
-3.734224
  0
VERTEX
  8
PLAN_1
  6
CONTINUOUS
 10
1.629102
 20
-3.738669
  0
VERTEX
  8
PLAN_1
  6
CONTINUOUS
 10
1.632067
 20
-3.743606
  0
VERTEX
  8
PLAN_1
  6
CONTINUOUS
 10
1.634535
 20
-3.749039
  0
VERTEX
  8
PLAN_1
  6
CONTINUOUS
 10
1.636512
 20
-3.754965
  0
VERTEX
  8
PLAN_1
  6
CONTINUOUS
 10
1.637500
 20
-3.761878
  0
VERTEX
  8
PLAN_1
  6
CONTINUOUS
 10
1.637992
 20
-3.769780
  0
VERTEX
  8
PLAN_1
  6
CONTINUOUS
 10
1.637500
 20
-3.774717
  0
VERTEX
  8
PLAN_1
  6
CONTINUOUS
 10
1.637004
 20
-3.779654
  0
VERTEX
  8
PLAN_1
  6
CONTINUOUS
 10
1.636512
 20
-3.784098
  0
VERTEX
  8
PLAN_1
  6
CONTINUOUS
 10
1.635524
 20
-3.788543
  0
VERTEX
  8
PLAN_1
  6
CONTINUOUS
 10
1.634043
 20
-3.792000
  0
VERTEX
  8
PLAN_1
  6
CONTINUOUS
 10
1.632559
 20
-3.795457
  0
VERTEX
  8
PLAN_1
  6
CONTINUOUS
 10
1.630587
 20
-3.798913
  0
VERTEX
  8
PLAN_1
  6
CONTINUOUS
 10
1.628610
 20
-3.801878
  0
VERTEX
  8
PLAN_1
  6
CONTINUOUS
 10
1.624661
 20
-3.806815
  0
VERTEX
  8
PLAN_1
  6
CONTINUOUS
 10
1.619720
 20
-3.810764
  0
VERTEX
  8
PLAN_1
  6
CONTINUOUS
 10
1.614783
 20
-3.814220
  0
VERTEX
  8
PLAN_1
  6
CONTINUOUS
 10
1.609846
 20
-3.817185
  0
VERTEX
  8
PLAN_1
  6
CONTINUOUS
 10
1.614291
 20
-3.819161
  0
VERTEX
  8
PLAN_1
  6
CONTINUOUS
 10
1.618240
 20
-3.821134
  0
VERTEX
  8
PLAN_1
  6
CONTINUOUS
 10
1.622189
 20
-3.824098
  0
VERTEX
  8
PLAN_1
  6
CONTINUOUS
 10
1.625646
 20
-3.827555
  0
VERTEX
  8
PLAN_1
  6
CONTINUOUS
 10
1.627622
 20
-3.829531
  0
VERTEX
  8
PLAN_1
  6
CONTINUOUS
 10
1.629102
 20
-3.832000
  0
VERTEX
  8
PLAN_1
  6
CONTINUOUS
 10
1.630091
 20
-3.834961
  0
VERTEX
  8
PLAN_1
  6
CONTINUOUS
 10
1.631575
 20
-3.837925
  0
VERTEX
  8
PLAN_1
  6
CONTINUOUS
 10
1.632067
 20
-3.841382
  0
VERTEX
  8
PLAN_1
  6
CONTINUOUS
 10
1.633055
 20
-3.845331
  0
VERTEX
  8
PLAN_1
  6
CONTINUOUS
 10
1.633547
 20
-3.849776
  0
VERTEX
  8
PLAN_1
  6
CONTINUOUS
 10
1.634043
 20
-3.854713
  0
VERTEX
  8
PLAN_1
  6
CONTINUOUS
 10
1.635524
 20
-3.890764
  0
VERTEX
  8
PLAN_1
  6
CONTINUOUS
 10
1.636016
 20
-3.894713
  0
VERTEX
  8
PLAN_1
  6
CONTINUOUS
 10
1.636016
 20
-3.898169
  0
VERTEX
  8
PLAN_1
  6
CONTINUOUS
 10
1.636512
 20
-3.900638
  0
VERTEX
  8
PLAN_1
  6
CONTINUOUS
 10
1.637500
 20
-3.903106
  0
VERTEX
  8
PLAN_1
  6
CONTINUOUS
 10
1.638980
 20
-3.905579
  0
VERTEX
  8
PLAN_1
  6
CONTINUOUS
 10
1.640461
 20
-3.907551
  0
VERTEX
  8
PLAN_1
  6
CONTINUOUS
 10
1.642929
 20
-3.909035
  0
VERTEX
  8
PLAN_1
  6
CONTINUOUS
 10
1.645402
 20
-3.911008
  0
VERTEX
  8
PLAN_1
  6
CONTINUOUS
 10
1.645402
 20
-3.915453
  0
VERTEX
  8
PLAN_1
  6
CONTINUOUS
 10
1.612807
 20
-3.915453
  0
VERTEX
  8
PLAN_1
  6
CONTINUOUS
 10
1.611327
 20
-3.910020
  0
VERTEX
  8
PLAN_1
  6
CONTINUOUS
 10
1.610339
 20
-3.903602
  0
VERTEX
  8
PLAN_1
  6
CONTINUOUS
 10
1.609350
 20
-3.896193
  0
VERTEX
  8
PLAN_1
  6
CONTINUOUS
 10
1.608858
 20
-3.888787
  0
VERTEX
  8
PLAN_1
  6
CONTINUOUS
 10
1.608362
 20
-3.881382
  0
VERTEX
  8
PLAN_1
  6
CONTINUOUS
 10
1.607870
 20
-3.874469
  0
VERTEX
  8
PLAN_1
  6
CONTINUOUS
 10
1.607870
 20
-3.869035
  0
VERTEX
  8
PLAN_1
  6
CONTINUOUS
 10
1.607870
 20
-3.865579
  0
VERTEX
  8
PLAN_1
  6
CONTINUOUS
 10
1.607870
 20
-3.859157
  0
VERTEX
  8
PLAN_1
  6
CONTINUOUS
 10
1.606882
 20
-3.852740
  0
VERTEX
  8
PLAN_1
  6
CONTINUOUS
 10
1.605894
 20
-3.849776
  0
VERTEX
  8
PLAN_1
  6
CONTINUOUS
 10
1.604906
 20
-3.846815
  0
VERTEX
  8
PLAN_1
  6
CONTINUOUS
 10
1.603921
 20
-3.844343
  0
VERTEX
  8
PLAN_1
  6
CONTINUOUS
 10
1.601945
 20
-3.841382
  0
VERTEX
  8
PLAN_1
  6
CONTINUOUS
 10
1.599969
 20
-3.838913
  0
VERTEX
  8
PLAN_1
  6
CONTINUOUS
 10
1.597500
 20
-3.836937
  0
VERTEX
  8
PLAN_1
  6
CONTINUOUS
 10
1.595031
 20
-3.834961
  0
VERTEX
  8
PLAN_1
  6
CONTINUOUS
 10
1.591575
 20
-3.832988
  0
VERTEX
  8
PLAN_1
  6
CONTINUOUS
 10
1.587622
 20
-3.831504
  0
VERTEX
  8
PLAN_1
  6
CONTINUOUS
 10
1.583181
 20
-3.830516
  0
VERTEX
  8
PLAN_1
  6
CONTINUOUS
 10
1.578240
 20
-3.830024
  0
VERTEX
  8
PLAN_1
  6
CONTINUOUS
 10
1.572315
 20
-3.830024
  0
VERTEX
  8
PLAN_1
  6
CONTINUOUS
 10
1.507134
 20
-3.830024
  0
VERTEX
  8
PLAN_1
  6
CONTINUOUS
 10
1.507134
 20
-3.915453
  0
SEQEND
  8
0
  0
POLYLINE
  8
PLAN_1
  6
CONTINUOUS
 66
     1
 40
0.003000
 41
0.003000
  0
VERTEX
  8
PLAN_1
  6
CONTINUOUS
 10
1.507134
 20
-3.806815
  0
VERTEX
  8
PLAN_1
  6
CONTINUOUS
 10
1.569354
 20
-3.806815
  0
VERTEX
  8
PLAN_1
  6
CONTINUOUS
 10
1.576760
 20
-3.806319
  0
VERTEX
  8
PLAN_1
  6
CONTINUOUS
 10
1.584165
 20
-3.805335
  0
VERTEX
  8
PLAN_1
  6
CONTINUOUS
 10
1.587622
 20
-3.804839
  0
VERTEX
  8
PLAN_1
  6
CONTINUOUS
 10
1.591079
 20
-3.803850
  0
VERTEX
  8
PLAN_1
  6
CONTINUOUS
 10
1.594043
 20
-3.802370
  0
VERTEX
  8
PLAN_1
  6
CONTINUOUS
 10
1.597008
 20
-3.800394
  0
VERTEX
  8
PLAN_1
  6
CONTINUOUS
 10
1.599969
 20
-3.798421
  0
VERTEX
  8
PLAN_1
  6
CONTINUOUS
 10
1.602437
 20
-3.796445
  0
VERTEX
  8
PLAN_1
  6
CONTINUOUS
 10
1.604413
 20
-3.793480
  0
VERTEX
  8
PLAN_1
  6
CONTINUOUS
 10
1.606390
 20
-3.790024
  0
VERTEX
  8
PLAN_1
  6
CONTINUOUS
 10
1.607870
 20
-3.786567
  0
VERTEX
  8
PLAN_1
  6
CONTINUOUS
 10
1.609350
 20
-3.782122
  0
VERTEX
  8
PLAN_1
  6
CONTINUOUS
 10
1.609846
 20
-3.777681
  0
VERTEX
  8
PLAN_1
  6
CONTINUOUS
 10
1.609846
 20
-3.772248
  0
VERTEX
  8
PLAN_1
  6
CONTINUOUS
 10
1.609846
 20
-3.766815
  0
VERTEX
  8
PLAN_1
  6
CONTINUOUS
 10
1.608858
 20
-3.761878
  0
VERTEX
  8
PLAN_1
  6
CONTINUOUS
 10
1.607870
 20
-3.757925
  0
VERTEX
  8
PLAN_1
  6
CONTINUOUS
 10
1.606390
 20
-3.753976
  0
VERTEX
  8
PLAN_1
  6
CONTINUOUS
 10
1.604413
 20
-3.751012
  0
VERTEX
  8
PLAN_1
  6
CONTINUOUS
 10
1.602437
 20
-3.748543
  0
VERTEX
  8
PLAN_1
  6
CONTINUOUS
 10
1.599969
 20
-3.746075
  0
VERTEX
  8
PLAN_1
  6
CONTINUOUS
 10
1.597008
 20
-3.744098
  0
VERTEX
  8
PLAN_1
  6
CONTINUOUS
 10
1.594535
 20
-3.742618
  0
VERTEX
  8
PLAN_1
  6
CONTINUOUS
 10
1.591575
 20
-3.741630
  0
VERTEX
  8
PLAN_1
  6
CONTINUOUS
 10
1.588610
 20
-3.740642
  0
VERTEX
  8
PLAN_1
  6
CONTINUOUS
 10
1.585650
 20
-3.740150
  0
VERTEX
  8
PLAN_1
  6
CONTINUOUS
 10
1.579724
 20
-3.739161
  0
VERTEX
  8
PLAN_1
  6
CONTINUOUS
 10
1.574291
 20
-3.739161
  0
VERTEX
  8
PLAN_1
  6
CONTINUOUS
 10
1.507134
 20
-3.739161
  0
VERTEX
  8
PLAN_1
  6
CONTINUOUS
 10
1.507134
 20
-3.806815
  0
SEQEND
  8
0
  0
SOLID
  8
PLAN_1
 10
1.709102
 20
-3.915453
 11
1.680461
 21
-3.915453
 12
1.709102
 22
-3.885823
 13
1.680461
 23
-3.885823
  0
POLYLINE
  8
PLAN_1
  6
CONTINUOUS
 66
     1
 40
0.003000
 41
0.003000
  0
VERTEX
  8
PLAN_1
  6
CONTINUOUS
 10
1.709102
 20
-3.915453
  0
VERTEX
  8
PLAN_1
  6
CONTINUOUS
 10
1.680461
 20
-3.915453
  0
VERTEX
  8
PLAN_1
  6
CONTINUOUS
 10
1.680461
 20
-3.885823
  0
VERTEX
  8
PLAN_1
  6
CONTINUOUS
 10
1.709102
 20
-3.885823
  0
VERTEX
  8
PLAN_1
  6
CONTINUOUS
 10
1.709102
 20
-3.915453
  0
SEQEND
  8
0
  0
POLYLINE
  8
PLAN_1
  6
CONTINUOUS
 66
     1
 40
0.003000
 41
0.003000
  0
VERTEX
  8
PLAN_1
  6
CONTINUOUS
 10
1.904157
 20
-3.915453
  0
VERTEX
  8
PLAN_1
  6
CONTINUOUS
 10
1.757496
 20
-3.915453
  0
VERTEX
  8
PLAN_1
  6
CONTINUOUS
 10
1.757496
 20
-3.715953
  0
VERTEX
  8
PLAN_1
  6
CONTINUOUS
 10
1.902677
 20
-3.715953
  0
VERTEX
  8
PLAN_1
  6
CONTINUOUS
 10
1.902677
 20
-3.739657
  0
VERTEX
  8
PLAN_1
  6
CONTINUOUS
 10
1.784161
 20
-3.739657
  0
VERTEX
  8
PLAN_1
  6
CONTINUOUS
 10
1.784161
 20
-3.800890
  0
VERTEX
  8
PLAN_1
  6
CONTINUOUS
 10
1.893295
 20
-3.800890
  0
VERTEX
  8
PLAN_1
  6
CONTINUOUS
 10
1.893295
 20
-3.824591
  0
VERTEX
  8
PLAN_1
  6
CONTINUOUS
 10
1.784161
 20
-3.824591
  0
VERTEX
  8
PLAN_1
  6
CONTINUOUS
 10
1.784161
 20
-3.891256
  0
VERTEX
  8
PLAN_1
  6
CONTINUOUS
 10
1.904157
 20
-3.891256
  0
VERTEX
  8
PLAN_1
  6
CONTINUOUS
 10
1.904157
 20
-3.915453
  0
SEQEND
  8
0
  0
POLYLINE
  8
PLAN_1
  6
CONTINUOUS
 66
     1
 40
0.003000
 41
0.003000
  0
VERTEX
  8
PLAN_1
  6
CONTINUOUS
 10
1.969343
 20
-3.915453
  0
VERTEX
  8
PLAN_1
  6
CONTINUOUS
 10
1.942677
 20
-3.915453
  0
VERTEX
  8
PLAN_1
  6
CONTINUOUS
 10
1.942677
 20
-3.715953
  0
VERTEX
  8
PLAN_1
  6
CONTINUOUS
 10
2.032055
 20
-3.715953
  0
VERTEX
  8
PLAN_1
  6
CONTINUOUS
 10
2.038969
 20
-3.716445
  0
VERTEX
  8
PLAN_1
  6
CONTINUOUS
 10
2.045390
 20
-3.716941
  0
VERTEX
  8
PLAN_1
  6
CONTINUOUS
 10
2.051315
 20
-3.718421
  0
VERTEX
  8
PLAN_1
  6
CONTINUOUS
 10
2.056748
 20
-3.720398
  0
VERTEX
  8
PLAN_1
  6
CONTINUOUS
 10
2.062177
 20
-3.722370
  0
VERTEX
  8
PLAN_1
  6
CONTINUOUS
 10
2.067118
 20
-3.725335
  0
VERTEX
  8
PLAN_1
  6
CONTINUOUS
 10
2.071563
 20
-3.728299
  0
VERTEX
  8
PLAN_1
  6
CONTINUOUS
 10
2.075512
 20
-3.731756
  0
VERTEX
  8
PLAN_1
  6
CONTINUOUS
 10
2.078969
 20
-3.735705
  0
VERTEX
  8
PLAN_1
  6
CONTINUOUS
 10
2.082425
 20
-3.740150
  0
VERTEX
  8
PLAN_1
  6
CONTINUOUS
 10
2.084894
 20
-3.744594
  0
VERTEX
  8
PLAN_1
  6
CONTINUOUS
 10
2.087362
 20
-3.749531
  0
VERTEX
  8
PLAN_1
  6
CONTINUOUS
 10
2.088846
 20
-3.754965
  0
VERTEX
  8
PLAN_1
  6
CONTINUOUS
 10
2.090327
 20
-3.760398
  0
VERTEX
  8
PLAN_1
  6
CONTINUOUS
 10
2.090819
 20
-3.766323
  0
VERTEX
  8
PLAN_1
  6
CONTINUOUS
 10
2.091315
 20
-3.772248
  0
VERTEX
  8
PLAN_1
  6
CONTINUOUS
 10
2.091315
 20
-3.777185
  0
VERTEX
  8
PLAN_1
  6
CONTINUOUS
 10
2.090327
 20
-3.782618
  0
VERTEX
  8
PLAN_1
  6
CONTINUOUS
 10
2.089339
 20
-3.788051
  0
VERTEX
  8
PLAN_1
  6
CONTINUOUS
 10
2.088350
 20
-3.792988
  0
VERTEX
  8
PLAN_1
  6
CONTINUOUS
 10
2.086374
 20
-3.797925
  0
VERTEX
  8
PLAN_1
  6
CONTINUOUS
 10
2.083906
 20
-3.802862
  0
VERTEX
  8
PLAN_1
  6
CONTINUOUS
 10
2.081437
 20
-3.807803
  0
VERTEX
  8
PLAN_1
  6
CONTINUOUS
 10
2.077980
 20
-3.812248
  0
VERTEX
  8
PLAN_1
  6
CONTINUOUS
 10
2.074031
 20
-3.816197
  0
VERTEX
  8
PLAN_1
  6
CONTINUOUS
 10
2.070079
 20
-3.819654
  0
VERTEX
  8
PLAN_1
  6
CONTINUOUS
 10
2.065142
 20
-3.823110
  0
VERTEX
  8
PLAN_1
  6
CONTINUOUS
 10
2.059709
 20
-3.826075
  0
VERTEX
  8
PLAN_1
  6
CONTINUOUS
 10
2.053783
 20
-3.828047
  0
VERTEX
  8
PLAN_1
  6
CONTINUOUS
 10
2.047366
 20
-3.830024
  0
VERTEX
  8
PLAN_1
  6
CONTINUOUS
 10
2.039957
 20
-3.831012
  0
VERTEX
  8
PLAN_1
  6
CONTINUOUS
 10
2.032055
 20
-3.831012
  0
VERTEX
  8
PLAN_1
  6
CONTINUOUS
 10
1.969343
 20
-3.831012
  0
VERTEX
  8
PLAN_1
  6
CONTINUOUS
 10
1.969343
 20
-3.915453
  0
SEQEND
  8
0
  0
POLYLINE
  8
PLAN_1
  6
CONTINUOUS
 66
     1
 40
0.003000
 41
0.003000
  0
VERTEX
  8
PLAN_1
  6
CONTINUOUS
 10
1.969343
 20
-3.808295
  0
VERTEX
  8
PLAN_1
  6
CONTINUOUS
 10
2.023169
 20
-3.808295
  0
VERTEX
  8
PLAN_1
  6
CONTINUOUS
 10
2.027610
 20
-3.808295
  0
VERTEX
  8
PLAN_1
  6
CONTINUOUS
 10
2.031563
 20
-3.807803
  0
VERTEX
  8
PLAN_1
  6
CONTINUOUS
 10
2.035512
 20
-3.807307
  0
VERTEX
  8
PLAN_1
  6
CONTINUOUS
 10
2.039465
 20
-3.806319
  0
VERTEX
  8
PLAN_1
  6
CONTINUOUS
 10
2.042921
 20
-3.805335
  0
VERTEX
  8
PLAN_1
  6
CONTINUOUS
 10
2.046378
 20
-3.803850
  0
VERTEX
  8
PLAN_1
  6
CONTINUOUS
 10
2.049339
 20
-3.802370
  0
VERTEX
  8
PLAN_1
  6
CONTINUOUS
 10
2.052303
 20
-3.800394
  0
VERTEX
  8
PLAN_1
  6
CONTINUOUS
 10
2.054772
 20
-3.797925
  0
VERTEX
  8
PLAN_1
  6
CONTINUOUS
 10
2.057240
 20
-3.795457
  0
VERTEX
  8
PLAN_1
  6
CONTINUOUS
 10
2.059217
 20
-3.792492
  0
VERTEX
  8
PLAN_1
  6
CONTINUOUS
 10
2.060697
 20
-3.789531
  0
VERTEX
  8
PLAN_1
  6
CONTINUOUS
 10
2.061685
 20
-3.785579
  0
VERTEX
  8
PLAN_1
  6
CONTINUOUS
 10
2.062673
 20
-3.781630
  0
VERTEX
  8
PLAN_1
  6
CONTINUOUS
 10
2.063165
 20
-3.777185
  0
VERTEX
  8
PLAN_1
  6
CONTINUOUS
 10
2.063661
 20
-3.772248
  0
VERTEX
  8
PLAN_1
  6
CONTINUOUS
 10
2.063165
 20
-3.767803
  0
VERTEX
  8
PLAN_1
  6
CONTINUOUS
 10
2.062673
 20
-3.763854
  0
VERTEX
  8
PLAN_1
  6
CONTINUOUS
 10
2.061685
 20
-3.759902
  0
VERTEX
  8
PLAN_1
  6
CONTINUOUS
 10
2.060697
 20
-3.756445
  0
VERTEX
  8
PLAN_1
  6
CONTINUOUS
 10
2.058720
 20
-3.753484
  0
VERTEX
  8
PLAN_1
  6
CONTINUOUS
 10
2.056748
 20
-3.750520
  0
VERTEX
  8
PLAN_1
  6
CONTINUOUS
 10
2.054772
 20
-3.748543
  0
VERTEX
  8
PLAN_1
  6
CONTINUOUS
 10
2.052303
 20
-3.746075
  0
VERTEX
  8
PLAN_1
  6
CONTINUOUS
 10
2.049339
 20
-3.744594
  0
VERTEX
  8
PLAN_1
  6
CONTINUOUS
 10
2.046378
 20
-3.743114
  0
VERTEX
  8
PLAN_1
  6
CONTINUOUS
 10
2.042921
 20
-3.741630
  0
VERTEX
  8
PLAN_1
  6
CONTINUOUS
 10
2.039465
 20
-3.740642
  0
VERTEX
  8
PLAN_1
  6
CONTINUOUS
 10
2.032055
 20
-3.739657
  0
VERTEX
  8
PLAN_1
  6
CONTINUOUS
 10
2.024154
 20
-3.739161
  0
VERTEX
  8
PLAN_1
  6
CONTINUOUS
 10
1.969343
 20
-3.739161
  0
VERTEX
  8
PLAN_1
  6
CONTINUOUS
 10
1.969343
 20
-3.808295
  0
SEQEND
  8
0
  0
POLYLINE
  8
PLAN_1
  6
CONTINUOUS
 66
     1
 40
0.003000
 41
0.003000
  0
VERTEX
  8
PLAN_1
  6
CONTINUOUS
 10
2.245382
 20
-3.774224
  0
VERTEX
  8
PLAN_1
  6
CONTINUOUS
 10
2.244890
 20
-3.768791
  0
VERTEX
  8
PLAN_1
  6
CONTINUOUS
 10
2.243409
 20
-3.763854
  0
VERTEX
  8
PLAN_1
  6
CONTINUOUS
 10
2.241925
 20
-3.758913
  0
VERTEX
  8
PLAN_1
  6
CONTINUOUS
 10
2.239953
 20
-3.754965
  0
VERTEX
  8
PLAN_1
  6
CONTINUOUS
 10
2.237484
 20
-3.751508
  0
VERTEX
  8
PLAN_1
  6
CONTINUOUS
 10
2.235012
 20
-3.748051
  0
VERTEX
  8
PLAN_1
  6
CONTINUOUS
 10
2.231555
 20
-3.745087
  0
VERTEX
  8
PLAN_1
  6
CONTINUOUS
 10
2.228594
 20
-3.742618
  0
VERTEX
  8
PLAN_1
  6
CONTINUOUS
 10
2.224642
 20
-3.740150
  0
VERTEX
  8
PLAN_1
  6
CONTINUOUS
 10
2.220693
 20
-3.738669
  0
VERTEX
  8
PLAN_1
  6
CONTINUOUS
 10
2.216744
 20
-3.737185
  0
VERTEX
  8
PLAN_1
  6
CONTINUOUS
 10
2.212791
 20
-3.735705
  0
VERTEX
  8
PLAN_1
  6
CONTINUOUS
 10
2.208346
 20
-3.734717
  0
VERTEX
  8
PLAN_1
  6
CONTINUOUS
 10
2.204398
 20
-3.734224
  0
VERTEX
  8
PLAN_1
  6
CONTINUOUS
 10
2.199953
 20
-3.733728
  0
VERTEX
  8
PLAN_1
  6
CONTINUOUS
 10
2.196004
 20
-3.733728
  0
VERTEX
  8
PLAN_1
  6
CONTINUOUS
 10
2.189091
 20
-3.734224
  0
VERTEX
  8
PLAN_1
  6
CONTINUOUS
 10
2.181681
 20
-3.735213
  0
VERTEX
  8
PLAN_1
  6
CONTINUOUS
 10
2.177732
 20
-3.735705
  0
VERTEX
  8
PLAN_1
  6
CONTINUOUS
 10
2.173780
 20
-3.736693
  0
VERTEX
  8
PLAN_1
  6
CONTINUOUS
 10
2.170323
 20
-3.738173
  0
VERTEX
  8
PLAN_1
  6
CONTINUOUS
 10
2.166866
 20
-3.740150
  0
VERTEX
  8
PLAN_1
  6
CONTINUOUS
 10
2.163409
 20
-3.742126
  0
VERTEX
  8
PLAN_1
  6
CONTINUOUS
 10
2.159953
 20
-3.744594
  0
VERTEX
  8
PLAN_1
  6
CONTINUOUS
 10
2.157484
 20
-3.747063
  0
VERTEX
  8
PLAN_1
  6
CONTINUOUS
 10
2.155016
 20
-3.750520
  0
VERTEX
  8
PLAN_1
  6
CONTINUOUS
 10
2.153039
 20
-3.754469
  0
VERTEX
  8
PLAN_1
  6
CONTINUOUS
 10
2.151559
 20
-3.758421
  0
VERTEX
  8
PLAN_1
  6
CONTINUOUS
 10
2.150571
 20
-3.763358
  0
VERTEX
  8
PLAN_1
  6
CONTINUOUS
 10
2.150079
 20
-3.768791
  0
VERTEX
  8
PLAN_1
  6
CONTINUOUS
 10
2.150571
 20
-3.771752
  0
VERTEX
  8
PLAN_1
  6
CONTINUOUS
 10
2.150571
 20
-3.774717
  0
VERTEX
  8
PLAN_1
  6
CONTINUOUS
 10
2.151559
 20
-3.777185
  0
VERTEX
  8
PLAN_1
  6
CONTINUOUS
 10
2.152547
 20
-3.779654
  0
VERTEX
  8
PLAN_1
  6
CONTINUOUS
 10
2.153535
 20
-3.781630
  0
VERTEX
  8
PLAN_1
  6
CONTINUOUS
 10
2.154524
 20
-3.783606
  0
VERTEX
  8
PLAN_1
  6
CONTINUOUS
 10
2.156004
 20
-3.785087
  0
VERTEX
  8
PLAN_1
  6
CONTINUOUS
 10
2.157484
 20
-3.786567
  0
VERTEX
  8
PLAN_1
  6
CONTINUOUS
 10
2.161437
 20
-3.789531
  0
VERTEX
  8
PLAN_1
  6
CONTINUOUS
 10
2.165386
 20
-3.791508
  0
VERTEX
  8
PLAN_1
  6
CONTINUOUS
 10
2.169335
 20
-3.792988
  0
VERTEX
  8
PLAN_1
  6
CONTINUOUS
 10
2.173780
 20
-3.793976
  0
VERTEX
  8
PLAN_1
  6
CONTINUOUS
 10
2.230571
 20
-3.807307
  0
VERTEX
  8
PLAN_1
  6
CONTINUOUS
 10
2.235508
 20
-3.808295
  0
VERTEX
  8
PLAN_1
  6
CONTINUOUS
 10
2.239953
 20
-3.809776
  0
VERTEX
  8
PLAN_1
  6
CONTINUOUS
 10
2.244398
 20
-3.811752
  0
VERTEX
  8
PLAN_1
  6
CONTINUOUS
 10
2.248839
 20
-3.813728
  0
VERTEX
  8
PLAN_1
  6
CONTINUOUS
 10
2.252791
 20
-3.815705
  0
VERTEX
  8
PLAN_1
  6
CONTINUOUS
 10
2.256248
 20
-3.818173
  0
VERTEX
  8
PLAN_1
  6
CONTINUOUS
 10
2.259705
 20
-3.821134
  0
VERTEX
  8
PLAN_1
  6
CONTINUOUS
 10
2.263161
 20
-3.824098
  0
VERTEX
  8
PLAN_1
  6
CONTINUOUS
 10
2.266122
 20
-3.827555
  0
VERTEX
  8
PLAN_1
  6
CONTINUOUS
 10
2.268594
 20
-3.831012
  0
VERTEX
  8
PLAN_1
  6
CONTINUOUS
 10
2.270567
 20
-3.835457
  0
VERTEX
  8
PLAN_1
  6
CONTINUOUS
 10
2.272543
 20
-3.839406
  0
VERTEX
  8
PLAN_1
  6
CONTINUOUS
 10
2.274024
 20
-3.844343
  0
VERTEX
  8
PLAN_1
  6
CONTINUOUS
 10
2.275012
 20
-3.849283
  0
VERTEX
  8
PLAN_1
  6
CONTINUOUS
 10
2.276000
 20
-3.854713
  0
VERTEX
  8
PLAN_1
  6
CONTINUOUS
 10
2.276000
 20
-3.860146
  0
VERTEX
  8
PLAN_1
  6
CONTINUOUS
 10
2.276000
 20
-3.864591
  0
VERTEX
  8
PLAN_1
  6
CONTINUOUS
 10
2.275508
 20
-3.869035
  0
VERTEX
  8
PLAN_1
  6
CONTINUOUS
 10
2.275012
 20
-3.872984
  0
VERTEX
  8
PLAN_1
  6
CONTINUOUS
 10
2.274024
 20
-3.876441
  0
VERTEX
  8
PLAN_1
  6
CONTINUOUS
 10
2.273035
 20
-3.879898
  0
VERTEX
  8
PLAN_1
  6
CONTINUOUS
 10
2.271555
 20
-3.883354
  0
VERTEX
  8
PLAN_1
  6
CONTINUOUS
 10
2.270075
 20
-3.886811
  0
VERTEX
  8
PLAN_1
  6
CONTINUOUS
 10
2.268594
 20
-3.889776
  0
VERTEX
  8
PLAN_1
  6
CONTINUOUS
 10
2.264642
 20
-3.895209
  0
VERTEX
  8
PLAN_1
  6
CONTINUOUS
 10
2.260197
 20
-3.900146
  0
VERTEX
  8
PLAN_1
  6
CONTINUOUS
 10
2.255260
 20
-3.904591
  0
VERTEX
  8
PLAN_1
  6
CONTINUOUS
 10
2.249827
 20
-3.908047
  0
VERTEX
  8
PLAN_1
  6
CONTINUOUS
 10
2.243902
 20
-3.911504
  0
VERTEX
  8
PLAN_1
  6
CONTINUOUS
 10
2.237484
 20
-3.913972
  0
VERTEX
  8
PLAN_1
  6
CONTINUOUS
 10
2.231063
 20
-3.915949
  0
VERTEX
  8
PLAN_1
  6
CONTINUOUS
 10
2.224642
 20
-3.917921
  0
VERTEX
  8
PLAN_1
  6
CONTINUOUS
 10
2.217728
 20
-3.918909
  0
VERTEX
  8
PLAN_1
  6
CONTINUOUS
 10
2.211311
 20
-3.919898
  0
VERTEX
  8
PLAN_1
  6
CONTINUOUS
 10
2.204398
 20
-3.920390
  0
VERTEX
  8
PLAN_1
  6
CONTINUOUS
 10
2.197976
 20
-3.920390
  0
VERTEX
  8
PLAN_1
  6
CONTINUOUS
 10
2.191559
 20
-3.920390
  0
VERTEX
  8
PLAN_1
  6
CONTINUOUS
 10
2.185138
 20
-3.919898
  0
VERTEX
  8
PLAN_1
  6
CONTINUOUS
 10
2.179705
 20
-3.919406
  0
VERTEX
  8
PLAN_1
  6
CONTINUOUS
 10
2.174276
 20
-3.918909
  0
VERTEX
  8
PLAN_1
  6
CONTINUOUS
 10
2.164894
 20
-3.916441
  0
VERTEX
  8
PLAN_1
  6
CONTINUOUS
 10
2.157484
 20
-3.913972
  0
VERTEX
  8
PLAN_1
  6
CONTINUOUS
 10
2.151067
 20
-3.911008
  0
VERTEX
  8
PLAN_1
  6
CONTINUOUS
 10
2.145634
 20
-3.908047
  0
VERTEX
  8
PLAN_1
  6
CONTINUOUS
 10
2.141189
 20
-3.904591
  0
VERTEX
  8
PLAN_1
  6
CONTINUOUS
 10
2.137732
 20
-3.901626
  0
VERTEX
  8
PLAN_1
  6
CONTINUOUS
 10
2.131807
 20
-3.895701
  0
VERTEX
  8
PLAN_1
  6
CONTINUOUS
 10
2.127362
 20
-3.889776
  0
VERTEX
  8
PLAN_1
  6
CONTINUOUS
 10
2.123906
 20
-3.883850
  0
VERTEX
  8
PLAN_1
  6
CONTINUOUS
 10
2.121437
 20
-3.877429
  0
VERTEX
  8
PLAN_1
  6
CONTINUOUS
 10
2.119461
 20
-3.871012
  0
VERTEX
  8
PLAN_1
  6
CONTINUOUS
 10
2.118472
 20
-3.864591
  0
VERTEX
  8
PLAN_1
  6
CONTINUOUS
 10
2.117484
 20
-3.857677
  0
VERTEX
  8
PLAN_1
  6
CONTINUOUS
 10
2.117484
 20
-3.850764
  0
VERTEX
  8
PLAN_1
  6
CONTINUOUS
 10
2.142669
 20
-3.850764
  0
VERTEX
  8
PLAN_1
  6
CONTINUOUS
 10
2.143165
 20
-3.857185
  0
VERTEX
  8
PLAN_1
  6
CONTINUOUS
 10
2.144154
 20
-3.863110
  0
VERTEX
  8
PLAN_1
  6
CONTINUOUS
 10
2.145634
 20
-3.868539
  0
VERTEX
  8
PLAN_1
  6
CONTINUOUS
 10
2.147610
 20
-3.873480
  0
VERTEX
  8
PLAN_1
  6
CONTINUOUS
 10
2.150571
 20
-3.877925
  0
VERTEX
  8
PLAN_1
  6
CONTINUOUS
 10
2.153535
 20
-3.881382
  0
VERTEX
  8
PLAN_1
  6
CONTINUOUS
 10
2.156992
 20
-3.884839
  0
VERTEX
  8
PLAN_1
  6
CONTINUOUS
 10
2.160449
 20
-3.887799
  0
VERTEX
  8
PLAN_1
  6
CONTINUOUS
 10
2.164894
 20
-3.890268
  0
VERTEX
  8
PLAN_1
  6
CONTINUOUS
 10
2.169335
 20
-3.892244
  0
VERTEX
  8
PLAN_1
  6
CONTINUOUS
 10
2.173780
 20
-3.894220
  0
VERTEX
  8
PLAN_1
  6
CONTINUOUS
 10
2.178224
 20
-3.895209
  0
VERTEX
  8
PLAN_1
  6
CONTINUOUS
 10
2.183161
 20
-3.896193
  0
VERTEX
  8
PLAN_1
  6
CONTINUOUS
 10
2.188102
 20
-3.897181
  0
VERTEX
  8
PLAN_1
  6
CONTINUOUS
 10
2.193039
 20
-3.897677
  0
VERTEX
  8
PLAN_1
  6
CONTINUOUS
 10
2.197484
 20
-3.897677
  0
VERTEX
  8
PLAN_1
  6
CONTINUOUS
 10
2.205386
 20
-3.897181
  0
VERTEX
  8
PLAN_1
  6
CONTINUOUS
 10
2.214272
 20
-3.896193
  0
VERTEX
  8
PLAN_1
  6
CONTINUOUS
 10
2.218224
 20
-3.895701
  0
VERTEX
  8
PLAN_1
  6
CONTINUOUS
 10
2.222669
 20
-3.894713
  0
VERTEX
  8
PLAN_1
  6
CONTINUOUS
 10
2.227114
 20
-3.893232
  0
VERTEX
  8
PLAN_1
  6
CONTINUOUS
 10
2.231063
 20
-3.891256
  0
VERTEX
  8
PLAN_1
  6
CONTINUOUS
 10
2.235012
 20
-3.889280
  0
VERTEX
  8
PLAN_1
  6
CONTINUOUS
 10
2.238469
 20
-3.887307
  0
VERTEX
  8
PLAN_1
  6
CONTINUOUS
 10
2.241925
 20
-3.884343
  0
VERTEX
  8
PLAN_1
  6
CONTINUOUS
 10
2.244398
 20
-3.881382
  0
VERTEX
  8
PLAN_1
  6
CONTINUOUS
 10
2.246866
 20
-3.877925
  0
VERTEX
  8
PLAN_1
  6
CONTINUOUS
 10
2.248346
 20
-3.873480
  0
VERTEX
  8
PLAN_1
  6
CONTINUOUS
 10
2.249335
 20
-3.869035
  0
VERTEX
  8
PLAN_1
  6
CONTINUOUS
 10
2.249827
 20
-3.864098
  0
VERTEX
  8
PLAN_1
  6
CONTINUOUS
 10
2.249827
 20
-3.860146
  0
VERTEX
  8
PLAN_1
  6
CONTINUOUS
 10
2.249335
 20
-3.856689
  0
VERTEX
  8
PLAN_1
  6
CONTINUOUS
 10
2.248839
 20
-3.853728
  0
VERTEX
  8
PLAN_1
  6
CONTINUOUS
 10
2.247854
 20
-3.850764
  0
VERTEX
  8
PLAN_1
  6
CONTINUOUS
 10
2.246866
 20
-3.848295
  0
VERTEX
  8
PLAN_1
  6
CONTINUOUS
 10
2.244890
 20
-3.845827
  0
VERTEX
  8
PLAN_1
  6
CONTINUOUS
 10
2.243409
 20
-3.843358
  0
VERTEX
  8
PLAN_1
  6
CONTINUOUS
 10
2.240941
 20
-3.841382
  0
VERTEX
  8
PLAN_1
  6
CONTINUOUS
 10
2.238469
 20
-3.839406
  0
VERTEX
  8
PLAN_1
  6
CONTINUOUS
 10
2.235012
 20
-3.837925
  0
VERTEX
  8
PLAN_1
  6
CONTINUOUS
 10
2.231555
 20
-3.835949
  0
VERTEX
  8
PLAN_1
  6
CONTINUOUS
 10
2.228098
 20
-3.834469
  0
VERTEX
  8
PLAN_1
  6
CONTINUOUS
 10
2.218717
 20
-3.831504
  0
VERTEX
  8
PLAN_1
  6
CONTINUOUS
 10
2.207358
 20
-3.828543
  0
VERTEX
  8
PLAN_1
  6
CONTINUOUS
 10
2.166866
 20
-3.819161
  0
VERTEX
  8
PLAN_1
  6
CONTINUOUS
 10
2.160941
 20
-3.817677
  0
VERTEX
  8
PLAN_1
  6
CONTINUOUS
 10
2.154524
 20
-3.815705
  0
VERTEX
  8
PLAN_1
  6
CONTINUOUS
 10
2.151067
 20
-3.814220
  0
VERTEX
  8
PLAN_1
  6
CONTINUOUS
 10
2.147610
 20
-3.812248
  0
VERTEX
  8
PLAN_1
  6
CONTINUOUS
 10
2.144154
 20
-3.810272
  0
VERTEX
  8
PLAN_1
  6
CONTINUOUS
 10
2.140697
 20
-3.807803
  0
VERTEX
  8
PLAN_1
  6
CONTINUOUS
 10
2.137240
 20
-3.804839
  0
VERTEX
  8
PLAN_1
  6
CONTINUOUS
 10
2.134276
 20
-3.801878
  0
VERTEX
  8
PLAN_1
  6
CONTINUOUS
 10
2.131311
 20
-3.797925
  0
VERTEX
  8
PLAN_1
  6
CONTINUOUS
 10
2.128843
 20
-3.793976
  0
VERTEX
  8
PLAN_1
  6
CONTINUOUS
 10
2.126870
 20
-3.789531
  0
VERTEX
  8
PLAN_1
  6
CONTINUOUS
 10
2.125386
 20
-3.784098
  0
VERTEX
  8
PLAN_1
  6
CONTINUOUS
 10
2.124398
 20
-3.778665
  0
VERTEX
  8
PLAN_1
  6
CONTINUOUS
 10
2.124398
 20
-3.772248
  0
VERTEX
  8
PLAN_1
  6
CONTINUOUS
 10
2.124398
 20
-3.766323
  0
VERTEX
  8
PLAN_1
  6
CONTINUOUS
 10
2.124894
 20
-3.760890
  0
VERTEX
  8
PLAN_1
  6
CONTINUOUS
 10
2.126374
 20
-3.754965
  0
VERTEX
  8
PLAN_1
  6
CONTINUOUS
 10
2.127854
 20
-3.749531
  0
VERTEX
  8
PLAN_1
  6
CONTINUOUS
 10
2.130327
 20
-3.744098
  0
VERTEX
  8
PLAN_1
  6
CONTINUOUS
 10
2.133287
 20
-3.739161
  0
VERTEX
  8
PLAN_1
  6
CONTINUOUS
 10
2.136252
 20
-3.734224
  0
VERTEX
  8
PLAN_1
  6
CONTINUOUS
 10
2.140201
 20
-3.729780
  0
VERTEX
  8
PLAN_1
  6
CONTINUOUS
 10
2.144646
 20
-3.725827
  0
VERTEX
  8
PLAN_1
  6
CONTINUOUS
 10
2.149583
 20
-3.721878
  0
VERTEX
  8
PLAN_1
  6
CONTINUOUS
 10
2.155508
 20
-3.718913
  0
VERTEX
  8
PLAN_1
  6
CONTINUOUS
 10
2.161437
 20
-3.715953
  0
VERTEX
  8
PLAN_1
  6
CONTINUOUS
 10
2.168350
 20
-3.713976
  0
VERTEX
  8
PLAN_1
  6
CONTINUOUS
 10
2.175756
 20
-3.712000
  0
VERTEX
  8
PLAN_1
  6
CONTINUOUS
 10
2.184150
 20
-3.711016
  0
VERTEX
  8
PLAN_1
  6
CONTINUOUS
 10
2.192547
 20
-3.710520
  0
VERTEX
  8
PLAN_1
  6
CONTINUOUS
 10
2.198965
 20
-3.711016
  0
VERTEX
  8
PLAN_1
  6
CONTINUOUS
 10
2.204890
 20
-3.711016
  0
VERTEX
  8
PLAN_1
  6
CONTINUOUS
 10
2.210815
 20
-3.712000
  0
VERTEX
  8
PLAN_1
  6
CONTINUOUS
 10
2.216248
 20
-3.712496
  0
VERTEX
  8
PLAN_1
  6
CONTINUOUS
 10
2.221185
 20
-3.713484
  0
VERTEX
  8
PLAN_1
  6
CONTINUOUS
 10
2.225630
 20
-3.714965
  0
VERTEX
  8
PLAN_1
  6
CONTINUOUS
 10
2.230075
 20
-3.715953
  0
VERTEX
  8
PLAN_1
  6
CONTINUOUS
 10
2.234028
 20
-3.717433
  0
VERTEX
  8
PLAN_1
  6
CONTINUOUS
 10
2.241433
 20
-3.720890
  0
VERTEX
  8
PLAN_1
  6
CONTINUOUS
 10
2.247854
 20
-3.725335
  0
VERTEX
  8
PLAN_1
  6
CONTINUOUS
 10
2.252791
 20
-3.729780
  0
VERTEX
  8
PLAN_1
  6
CONTINUOUS
 10
2.257236
 20
-3.734224
  0
VERTEX
  8
PLAN_1
  6
CONTINUOUS
 10
2.260693
 20
-3.739161
  0
VERTEX
  8
PLAN_1
  6
CONTINUOUS
 10
2.263654
 20
-3.744594
  0
VERTEX
  8
PLAN_1
  6
CONTINUOUS
 10
2.266122
 20
-3.750028
  0
VERTEX
  8
PLAN_1
  6
CONTINUOUS
 10
2.267606
 20
-3.754965
  0
VERTEX
  8
PLAN_1
  6
CONTINUOUS
 10
2.268594
 20
-3.760398
  0
VERTEX
  8
PLAN_1
  6
CONTINUOUS
 10
2.269579
 20
-3.765335
  0
VERTEX
  8
PLAN_1
  6
CONTINUOUS
 10
2.270075
 20
-3.769780
  0
VERTEX
  8
PLAN_1
  6
CONTINUOUS
 10
2.270567
 20
-3.774224
  0
VERTEX
  8
PLAN_1
  6
CONTINUOUS
 10
2.245382
 20
-3.774224
  0
SEQEND
  8
0
  0
POLYLINE
  8
PLAN_1
  6
CONTINUOUS
 66
     1
 40
0.008394
 41
0.008394
  0
VERTEX
  8
PLAN_1
  6
CONTINUOUS
 10
-0.107638
 20
1.790071
  0
VERTEX
  8
PLAN_1
  6
CONTINUOUS
 10
-0.107146
 20
0.635535
  0
VERTEX
  8
PLAN_1
  6
CONTINUOUS
 10
-1.293780
 20
0.635535
  0
VERTEX
  8
PLAN_1
  6
CONTINUOUS
 10
-1.293780
 20
1.790071
  0
VERTEX
  8
PLAN_1
  6
CONTINUOUS
 10
-0.107638
 20
1.790071
  0
SEQEND
  8
0
  0
POLYLINE
  8
PLAN_1
  6
CONTINUOUS
 66
     1
 40
0.008394
 41
0.008394
  0
VERTEX
  8
PLAN_1
  6
CONTINUOUS
 10
-2.022650
 20
1.535264
  0
VERTEX
  8
PLAN_1
  6
CONTINUOUS
 10
-2.089315
 20
1.534276
  0
VERTEX
  8
PLAN_1
  6
CONTINUOUS
 10
-2.089315
 20
0.828614
  0
VERTEX
  8
PLAN_1
  6
CONTINUOUS
 10
-2.024130
 20
0.828614
  0
SEQEND
  8
0
  0
POLYLINE
  8
PLAN_1
  6
CONTINUOUS
 66
     1
 40
0.008394
 41
0.008394
  0
VERTEX
  8
PLAN_1
  6
CONTINUOUS
 10
-1.759941
 20
0.828614
  0
VERTEX
  8
PLAN_1
  6
CONTINUOUS
 10
-1.685374
 20
0.828614
  0
VERTEX
  8
PLAN_1
  6
CONTINUOUS
 10
-1.685374
 20
1.536252
  0
VERTEX
  8
PLAN_1
  6
CONTINUOUS
 10
-1.760929
 20
1.535264
  0
SEQEND
  8
0
  0
POLYLINE
  8
PLAN_1
  6
CONTINUOUS
 66
     1
 40
0.008394
 41
0.008394
  0
VERTEX
  8
PLAN_1
  6
CONTINUOUS
 10
-2.023638
 20
2.605850
  0
VERTEX
  8
PLAN_1
  6
CONTINUOUS
 10
-2.023638
 20
3.696685
  0
VERTEX
  8
PLAN_1
  6
CONTINUOUS
 10
-1.759941
 20
3.696685
  0
VERTEX
  8
PLAN_1
  6
CONTINUOUS
 10
-1.759941
 20
2.760909
  0
SEQEND
  8
0
  0
POLYLINE
  8
PLAN_1
  6
CONTINUOUS
 66
     1
 40
0.008394
 41
0.008394
  0
VERTEX
  8
PLAN_1
  6
CONTINUOUS
 10
-0.210846
 20
0.569362
  0
VERTEX
  8
PLAN_1
  6
CONTINUOUS
 10
-0.206402
 20
0.569858
  0
VERTEX
  8
PLAN_1
  6
CONTINUOUS
 10
-0.201957
 20
0.570350
  0
VERTEX
  8
PLAN_1
  6
CONTINUOUS
 10
-0.197512
 20
0.570846
  0
VERTEX
  8
PLAN_1
  6
CONTINUOUS
 10
-0.194055
 20
0.572327
  0
VERTEX
  8
PLAN_1
  6
CONTINUOUS
 10
-0.190598
 20
0.573807
  0
VERTEX
  8
PLAN_1
  6
CONTINUOUS
 10
-0.187638
 20
0.575287
  0
VERTEX
  8
PLAN_1
  6
CONTINUOUS
 10
-0.184673
 20
0.577760
  0
VERTEX
  8
PLAN_1
  6
CONTINUOUS
 10
-0.182205
 20
0.579732
  0
VERTEX
  8
PLAN_1
  6
CONTINUOUS
 10
-0.179736
 20
0.582201
  0
VERTEX
  8
PLAN_1
  6
CONTINUOUS
 10
-0.177760
 20
0.584673
  0
VERTEX
  8
PLAN_1
  6
CONTINUOUS
 10
-0.175783
 20
0.587634
  0
VERTEX
  8
PLAN_1
  6
CONTINUOUS
 10
-0.174303
 20
0.590102
  0
VERTEX
  8
PLAN_1
  6
CONTINUOUS
 10
-0.171835
 20
0.596028
  0
VERTEX
  8
PLAN_1
  6
CONTINUOUS
 10
-0.169858
 20
0.602449
  0
VERTEX
  8
PLAN_1
  6
CONTINUOUS
 10
-0.168870
 20
0.608374
  0
VERTEX
  8
PLAN_1
  6
CONTINUOUS
 10
-0.167886
 20
0.614299
  0
VERTEX
  8
PLAN_1
  6
CONTINUOUS
 10
-0.167886
 20
0.620224
  0
VERTEX
  8
PLAN_1
  6
CONTINUOUS
 10
-0.167886
 20
0.625165
  0
VERTEX
  8
PLAN_1
  6
CONTINUOUS
 10
-0.167886
 20
0.632571
  0
VERTEX
  8
PLAN_1
  6
CONTINUOUS
 10
-0.168378
 20
0.635535
  0
SEQEND
  8
0
  0
POLYLINE
  8
PLAN_1
  6
CONTINUOUS
 66
     1
 40
0.008394
 41
0.008394
  0
VERTEX
  8
PLAN_1
  6
CONTINUOUS
 10
-0.168378
 20
0.635535
  0
VERTEX
  8
PLAN_1
  6
CONTINUOUS
 10
-1.223165
 20
0.635535
  0
SEQEND
  8
0
  0
POLYLINE
  8
PLAN_1
  6
CONTINUOUS
 66
     1
 40
0.008394
 41
0.008394
  0
VERTEX
  8
PLAN_1
  6
CONTINUOUS
 10
-1.223165
 20
0.635535
  0
VERTEX
  8
PLAN_1
  6
CONTINUOUS
 10
-1.224154
 20
0.632571
  0
VERTEX
  8
PLAN_1
  6
CONTINUOUS
 10
-1.226126
 20
0.625165
  0
VERTEX
  8
PLAN_1
  6
CONTINUOUS
 10
-1.227114
 20
0.620224
  0
VERTEX
  8
PLAN_1
  6
CONTINUOUS
 10
-1.227610
 20
0.614299
  0
VERTEX
  8
PLAN_1
  6
CONTINUOUS
 10
-1.228102
 20
0.608374
  0
VERTEX
  8
PLAN_1
  6
CONTINUOUS
 10
-1.228102
 20
0.602449
  0
VERTEX
  8
PLAN_1
  6
CONTINUOUS
 10
-1.227610
 20
0.596028
  0
VERTEX
  8
PLAN_1
  6
CONTINUOUS
 10
-1.225634
 20
0.590102
  0
VERTEX
  8
PLAN_1
  6
CONTINUOUS
 10
-1.224646
 20
0.587634
  0
VERTEX
  8
PLAN_1
  6
CONTINUOUS
 10
-1.223165
 20
0.584673
  0
VERTEX
  8
PLAN_1
  6
CONTINUOUS
 10
-1.221681
 20
0.582201
  0
VERTEX
  8
PLAN_1
  6
CONTINUOUS
 10
-1.219709
 20
0.579732
  0
VERTEX
  8
PLAN_1
  6
CONTINUOUS
 10
-1.217240
 20
0.577760
  0
VERTEX
  8
PLAN_1
  6
CONTINUOUS
 10
-1.214276
 20
0.575287
  0
VERTEX
  8
PLAN_1
  6
CONTINUOUS
 10
-1.211311
 20
0.573807
  0
VERTEX
  8
PLAN_1
  6
CONTINUOUS
 10
-1.207854
 20
0.572327
  0
VERTEX
  8
PLAN_1
  6
CONTINUOUS
 10
-1.204398
 20
0.570846
  0
VERTEX
  8
PLAN_1
  6
CONTINUOUS
 10
-1.199957
 20
0.570350
  0
VERTEX
  8
PLAN_1
  6
CONTINUOUS
 10
-1.195512
 20
0.569858
  0
VERTEX
  8
PLAN_1
  6
CONTINUOUS
 10
-1.190079
 20
0.569362
  0
VERTEX
  8
PLAN_1
  6
CONTINUOUS
 10
-1.140205
 20
0.569362
  0
VERTEX
  8
PLAN_1
  6
CONTINUOUS
 10
-1.031071
 20
0.569362
  0
VERTEX
  8
PLAN_1
  6
CONTINUOUS
 10
-0.882433
 20
0.569362
  0
VERTEX
  8
PLAN_1
  6
CONTINUOUS
 10
-0.713055
 20
0.569362
  0
VERTEX
  8
PLAN_1
  6
CONTINUOUS
 10
-0.542197
 20
0.569362
  0
VERTEX
  8
PLAN_1
  6
CONTINUOUS
 10
-0.388618
 20
0.569362
  0
VERTEX
  8
PLAN_1
  6
CONTINUOUS
 10
-0.272079
 20
0.569362
  0
VERTEX
  8
PLAN_1
  6
CONTINUOUS
 10
-0.210846
 20
0.569362
  0
SEQEND
  8
0
  0
POLYLINE
  8
PLAN_1
  6
CONTINUOUS
 66
     1
 40
0.008394
 41
0.008394
  0
VERTEX
  8
PLAN_1
  6
CONTINUOUS
 10
-1.138720
 20
0.569362
  0
VERTEX
  8
PLAN_1
  6
CONTINUOUS
 10
-1.138720
 20
0.217768
  0
VERTEX
  8
PLAN_1
  6
CONTINUOUS
 10
-1.091811
 20
0.217768
  0
VERTEX
  8
PLAN_1
  6
CONTINUOUS
 10
-1.091811
 20
0.169374
  0
VERTEX
  8
PLAN_1
  6
CONTINUOUS
 10
-1.049343
 20
0.169374
  0
VERTEX
  8
PLAN_1
  6
CONTINUOUS
 10
-1.049343
 20
0.217768
  0
VERTEX
  8
PLAN_1
  6
CONTINUOUS
 10
-0.368374
 20
0.217768
  0
VERTEX
  8
PLAN_1
  6
CONTINUOUS
 10
-0.368374
 20
0.169374
  0
VERTEX
  8
PLAN_1
  6
CONTINUOUS
 10
-0.325409
 20
0.169374
  0
VERTEX
  8
PLAN_1
  6
CONTINUOUS
 10
-0.325409
 20
0.217768
  0
VERTEX
  8
PLAN_1
  6
CONTINUOUS
 10
-0.259732
 20
0.217768
  0
VERTEX
  8
PLAN_1
  6
CONTINUOUS
 10
-0.259732
 20
0.569362
  0
VERTEX
  8
PLAN_1
  6
CONTINUOUS
 10
-1.138720
 20
0.569362
  0
SEQEND
  8
0
  0
POLYLINE
  8
PLAN_1
  6
CONTINUOUS
 66
     1
 40
0.006913
 41
0.006913
  0
VERTEX
  8
PLAN_1
  6
CONTINUOUS
 10
-0.833543
 20
0.218260
  0
VERTEX
  8
PLAN_1
  6
CONTINUOUS
 10
-0.969839
 20
0.194063
  0
VERTEX
  8
PLAN_1
  6
CONTINUOUS
 10
-0.978728
 20
0.192583
  0
SEQEND
  8
0
  0
POLYLINE
  8
PLAN_1
  6
CONTINUOUS
 66
     1
 40
0.006913
 41
0.006913
  0
VERTEX
  8
PLAN_1
  6
CONTINUOUS
 10
-0.978728
 20
0.192583
  0
VERTEX
  8
PLAN_1
  6
CONTINUOUS
 10
-0.982677
 20
0.191102
  0
VERTEX
  8
PLAN_1
  6
CONTINUOUS
 10
-0.986626
 20
0.189126
  0
VERTEX
  8
PLAN_1
  6
CONTINUOUS
 10
-0.990083
 20
0.186657
  0
VERTEX
  8
PLAN_1
  6
CONTINUOUS
 10
-0.993047
 20
0.183201
  0
VERTEX
  8
PLAN_1
  6
CONTINUOUS
 10
-0.995024
 20
0.179744
  0
VERTEX
  8
PLAN_1
  6
CONTINUOUS
 10
-0.996012
 20
0.175795
  0
VERTEX
  8
PLAN_1
  6
CONTINUOUS
 10
-0.996996
 20
0.171350
  0
VERTEX
  8
PLAN_1
  6
CONTINUOUS
 10
-0.996504
 20
0.166906
  0
VERTEX
  8
PLAN_1
  6
CONTINUOUS
 10
-0.995024
 20
0.162953
  0
VERTEX
  8
PLAN_1
  6
CONTINUOUS
 10
-0.993047
 20
0.159004
  0
VERTEX
  8
PLAN_1
  6
CONTINUOUS
 10
-0.990579
 20
0.155547
  0
VERTEX
  8
PLAN_1
  6
CONTINUOUS
 10
-0.987614
 20
0.152583
  0
VERTEX
  8
PLAN_1
  6
CONTINUOUS
 10
-0.983665
 20
0.150610
  0
VERTEX
  8
PLAN_1
  6
CONTINUOUS
 10
-0.979713
 20
0.149622
  0
VERTEX
  8
PLAN_1
  6
CONTINUOUS
 10
-0.975272
 20
0.148634
  0
VERTEX
  8
PLAN_1
  6
CONTINUOUS
 10
-0.970827
 20
0.149126
  0
SEQEND
  8
0
  0
POLYLINE
  8
PLAN_1
  6
CONTINUOUS
 66
     1
 40
0.006913
 41
0.006913
  0
VERTEX
  8
PLAN_1
  6
CONTINUOUS
 10
-0.970827
 20
0.149126
  0
VERTEX
  8
PLAN_1
  6
CONTINUOUS
 10
-0.962429
 20
0.150610
  0
VERTEX
  8
PLAN_1
  6
CONTINUOUS
 10
-0.581701
 20
0.218260
  0
VERTEX
  8
PLAN_1
  6
CONTINUOUS
 10
-0.833543
 20
0.218260
  0
SEQEND
  8
0
  0
POLYLINE
  8
PLAN_1
  6
CONTINUOUS
 66
     1
 40
0.006913
 41
0.006913
  0
VERTEX
  8
PLAN_1
  6
CONTINUOUS
 10
-0.431583
 20
0.053327
  0
VERTEX
  8
PLAN_1
  6
CONTINUOUS
 10
-0.427138
 20
0.054315
  0
VERTEX
  8
PLAN_1
  6
CONTINUOUS
 10
-0.423681
 20
0.056291
  0
VERTEX
  8
PLAN_1
  6
CONTINUOUS
 10
-0.420224
 20
0.058760
  0
VERTEX
  8
PLAN_1
  6
CONTINUOUS
 10
-0.417260
 20
0.062217
  0
VERTEX
  8
PLAN_1
  6
CONTINUOUS
 10
-0.415283
 20
0.065673
  0
VERTEX
  8
PLAN_1
  6
CONTINUOUS
 10
-0.414299
 20
0.070118
  0
VERTEX
  8
PLAN_1
  6
CONTINUOUS
 10
-0.413311
 20
0.074067
  0
VERTEX
  8
PLAN_1
  6
CONTINUOUS
 10
-0.413803
 20
0.078512
  0
VERTEX
  8
PLAN_1
  6
CONTINUOUS
 10
-0.415283
 20
0.082957
  0
VERTEX
  8
PLAN_1
  6
CONTINUOUS
 10
-0.417260
 20
0.086906
  0
VERTEX
  8
PLAN_1
  6
CONTINUOUS
 10
-0.419728
 20
0.089870
  0
VERTEX
  8
PLAN_1
  6
CONTINUOUS
 10
-0.422693
 20
0.092835
  0
VERTEX
  8
PLAN_1
  6
CONTINUOUS
 10
-0.426642
 20
0.094807
  0
VERTEX
  8
PLAN_1
  6
CONTINUOUS
 10
-0.430594
 20
0.096291
  0
VERTEX
  8
PLAN_1
  6
CONTINUOUS
 10
-0.435039
 20
0.096783
  0
VERTEX
  8
PLAN_1
  6
CONTINUOUS
 10
-0.439480
 20
0.096291
  0
SEQEND
  8
0
  0
POLYLINE
  8
PLAN_1
  6
CONTINUOUS
 66
     1
 40
0.006913
 41
0.006913
  0
VERTEX
  8
PLAN_1
  6
CONTINUOUS
 10
-0.439480
 20
0.096291
  0
VERTEX
  8
PLAN_1
  6
CONTINUOUS
 10
-0.452815
 20
0.093819
  0
VERTEX
  8
PLAN_1
  6
CONTINUOUS
 10
-0.969839
 20
0.002465
  0
VERTEX
  8
PLAN_1
  6
CONTINUOUS
 10
-0.978232
 20
0.000984
  0
SEQEND
  8
0
  0
POLYLINE
  8
PLAN_1
  6
CONTINUOUS
 66
     1
 40
0.006913
 41
0.006913
  0
VERTEX
  8
PLAN_1
  6
CONTINUOUS
 10
-0.978232
 20
0.000984
  0
VERTEX
  8
PLAN_1
  6
CONTINUOUS
 10
-0.982677
 20
-0.000004
  0
VERTEX
  8
PLAN_1
  6
CONTINUOUS
 10
-0.986626
 20
-0.001980
  0
VERTEX
  8
PLAN_1
  6
CONTINUOUS
 10
-0.990083
 20
-0.004449
  0
VERTEX
  8
PLAN_1
  6
CONTINUOUS
 10
-0.992555
 20
-0.007906
  0
VERTEX
  8
PLAN_1
  6
CONTINUOUS
 10
-0.994528
 20
-0.011362
  0
VERTEX
  8
PLAN_1
  6
CONTINUOUS
 10
-0.996012
 20
-0.015807
  0
VERTEX
  8
PLAN_1
  6
CONTINUOUS
 10
-0.996504
 20
-0.019756
  0
VERTEX
  8
PLAN_1
  6
CONTINUOUS
 10
-0.996012
 20
-0.024201
  0
VERTEX
  8
PLAN_1
  6
CONTINUOUS
 10
-0.995024
 20
-0.028646
  0
VERTEX
  8
PLAN_1
  6
CONTINUOUS
 10
-0.993047
 20
-0.032594
  0
VERTEX
  8
PLAN_1
  6
CONTINUOUS
 10
-0.990579
 20
-0.035559
  0
VERTEX
  8
PLAN_1
  6
CONTINUOUS
 10
-0.987122
 20
-0.038520
  0
VERTEX
  8
PLAN_1
  6
CONTINUOUS
 10
-0.983665
 20
-0.040496
  0
VERTEX
  8
PLAN_1
  6
CONTINUOUS
 10
-0.979713
 20
-0.041976
  0
VERTEX
  8
PLAN_1
  6
CONTINUOUS
 10
-0.975272
 20
-0.042472
  0
VERTEX
  8
PLAN_1
  6
CONTINUOUS
 10
-0.970827
 20
-0.041976
  0
SEQEND
  8
0
  0
POLYLINE
  8
PLAN_1
  6
CONTINUOUS
 66
     1
 40
0.006913
 41
0.006913
  0
VERTEX
  8
PLAN_1
  6
CONTINUOUS
 10
-0.970827
 20
-0.041976
  0
VERTEX
  8
PLAN_1
  6
CONTINUOUS
 10
-0.961937
 20
-0.040496
  0
VERTEX
  8
PLAN_1
  6
CONTINUOUS
 10
-0.445409
 20
0.050858
  0
VERTEX
  8
PLAN_1
  6
CONTINUOUS
 10
-0.431583
 20
0.053327
  0
SEQEND
  8
0
  0
POLYLINE
  8
PLAN_1
  6
CONTINUOUS
 66
     1
 40
0.006913
 41
0.006913
  0
VERTEX
  8
PLAN_1
  6
CONTINUOUS
 10
-0.426642
 20
-0.233083
  0
VERTEX
  8
PLAN_1
  6
CONTINUOUS
 10
-0.422197
 20
-0.233083
  0
VERTEX
  8
PLAN_1
  6
CONTINUOUS
 10
-0.418248
 20
-0.231602
  0
VERTEX
  8
PLAN_1
  6
CONTINUOUS
 10
-0.414299
 20
-0.229626
  0
VERTEX
  8
PLAN_1
  6
CONTINUOUS
 10
-0.411335
 20
-0.226665
  0
VERTEX
  8
PLAN_1
  6
CONTINUOUS
 10
-0.408370
 20
-0.223701
  0
VERTEX
  8
PLAN_1
  6
CONTINUOUS
 10
-0.406398
 20
-0.219752
  0
VERTEX
  8
PLAN_1
  6
CONTINUOUS
 10
-0.405409
 20
-0.215799
  0
VERTEX
  8
PLAN_1
  6
CONTINUOUS
 10
-0.404913
 20
-0.211354
  0
VERTEX
  8
PLAN_1
  6
CONTINUOUS
 10
-0.405409
 20
-0.206913
  0
VERTEX
  8
PLAN_1
  6
CONTINUOUS
 10
-0.406398
 20
-0.202961
  0
VERTEX
  8
PLAN_1
  6
CONTINUOUS
 10
-0.408370
 20
-0.199012
  0
VERTEX
  8
PLAN_1
  6
CONTINUOUS
 10
-0.411335
 20
-0.196047
  0
VERTEX
  8
PLAN_1
  6
CONTINUOUS
 10
-0.414299
 20
-0.193087
  0
VERTEX
  8
PLAN_1
  6
CONTINUOUS
 10
-0.418248
 20
-0.191110
  0
VERTEX
  8
PLAN_1
  6
CONTINUOUS
 10
-0.422197
 20
-0.189630
  0
VERTEX
  8
PLAN_1
  6
CONTINUOUS
 10
-0.426642
 20
-0.189630
  0
SEQEND
  8
0
  0
POLYLINE
  8
PLAN_1
  6
CONTINUOUS
 66
     1
 40
0.006913
 41
0.006913
  0
VERTEX
  8
PLAN_1
  6
CONTINUOUS
 10
-0.426642
 20
-0.189630
  0
VERTEX
  8
PLAN_1
  6
CONTINUOUS
 10
-0.440469
 20
-0.189630
  0
VERTEX
  8
PLAN_1
  6
CONTINUOUS
 10
-0.965394
 20
-0.189630
  0
VERTEX
  8
PLAN_1
  6
CONTINUOUS
 10
-0.974283
 20
-0.189630
  0
SEQEND
  8
0
  0
POLYLINE
  8
PLAN_1
  6
CONTINUOUS
 66
     1
 40
0.006913
 41
0.006913
  0
VERTEX
  8
PLAN_1
  6
CONTINUOUS
 10
-0.974283
 20
-0.189630
  0
VERTEX
  8
PLAN_1
  6
CONTINUOUS
 10
-0.978728
 20
-0.190122
  0
VERTEX
  8
PLAN_1
  6
CONTINUOUS
 10
-0.982677
 20
-0.191110
  0
VERTEX
  8
PLAN_1
  6
CONTINUOUS
 10
-0.986626
 20
-0.193579
  0
VERTEX
  8
PLAN_1
  6
CONTINUOUS
 10
-0.989591
 20
-0.196047
  0
VERTEX
  8
PLAN_1
  6
CONTINUOUS
 10
-0.992555
 20
-0.199504
  0
VERTEX
  8
PLAN_1
  6
CONTINUOUS
 10
-0.994528
 20
-0.202961
  0
VERTEX
  8
PLAN_1
  6
CONTINUOUS
 10
-0.996012
 20
-0.206913
  0
VERTEX
  8
PLAN_1
  6
CONTINUOUS
 10
-0.996012
 20
-0.211354
  0
VERTEX
  8
PLAN_1
  6
CONTINUOUS
 10
-0.996012
 20
-0.215799
  0
VERTEX
  8
PLAN_1
  6
CONTINUOUS
 10
-0.994528
 20
-0.220244
  0
VERTEX
  8
PLAN_1
  6
CONTINUOUS
 10
-0.992555
 20
-0.223701
  0
VERTEX
  8
PLAN_1
  6
CONTINUOUS
 10
-0.989591
 20
-0.227157
  0
VERTEX
  8
PLAN_1
  6
CONTINUOUS
 10
-0.986626
 20
-0.229626
  0
VERTEX
  8
PLAN_1
  6
CONTINUOUS
 10
-0.982677
 20
-0.231602
  0
VERTEX
  8
PLAN_1
  6
CONTINUOUS
 10
-0.978728
 20
-0.233083
  0
VERTEX
  8
PLAN_1
  6
CONTINUOUS
 10
-0.974283
 20
-0.233579
  0
SEQEND
  8
0
  0
POLYLINE
  8
PLAN_1
  6
CONTINUOUS
 66
     1
 40
0.006913
 41
0.006913
  0
VERTEX
  8
PLAN_1
  6
CONTINUOUS
 10
-0.974283
 20
-0.233579
  0
VERTEX
  8
PLAN_1
  6
CONTINUOUS
 10
-0.965394
 20
-0.233579
  0
VERTEX
  8
PLAN_1
  6
CONTINUOUS
 10
-0.440469
 20
-0.233083
  0
VERTEX
  8
PLAN_1
  6
CONTINUOUS
 10
-0.426642
 20
-0.233083
  0
SEQEND
  8
0
  0
POLYLINE
  8
PLAN_1
  6
CONTINUOUS
 66
     1
 40
0.006913
 41
0.006913
  0
VERTEX
  8
PLAN_1
  6
CONTINUOUS
 10
-0.962429
 20
1.790563
  0
VERTEX
  8
PLAN_1
  6
CONTINUOUS
 10
-0.962429
 20
1.658224
  0
VERTEX
  8
PLAN_1
  6
CONTINUOUS
 10
-1.293780
 20
1.658224
  0
SEQEND
  8
0
  0
POLYLINE
  8
PLAN_1
  6
CONTINUOUS
 66
     1
 40
0.006913
 41
0.006913
  0
VERTEX
  8
PLAN_1
  6
CONTINUOUS
 10
-0.107146
 20
1.658224
  0
VERTEX
  8
PLAN_1
  6
CONTINUOUS
 10
-0.435039
 20
1.658224
  0
VERTEX
  8
PLAN_1
  6
CONTINUOUS
 10
-0.435039
 20
1.790563
  0
SEQEND
  8
0
  0
POLYLINE
  8
PLAN_1
  6
CONTINUOUS
 66
     1
 40
0.006913
 41
0.006913
  0
VERTEX
  8
PLAN_1
  6
CONTINUOUS
 10
-0.995024
 20
1.724886
  0
VERTEX
  8
PLAN_1
  6
CONTINUOUS
 10
-0.995024
 20
1.658717
  0
VERTEX
  8
PLAN_1
  6
CONTINUOUS
 10
-1.293780
 20
1.658717
  0
VERTEX
  8
PLAN_1
  6
CONTINUOUS
 10
-1.293780
 20
1.724886
  0
VERTEX
  8
PLAN_1
  6
CONTINUOUS
 10
-0.995024
 20
1.724886
  0
SEQEND
  8
0
  0
POLYLINE
  8
PLAN_1
  6
CONTINUOUS
 66
     1
 40
0.006913
 41
0.006913
  0
VERTEX
  8
PLAN_1
  6
CONTINUOUS
 10
-1.118969
 20
1.699705
  0
VERTEX
  8
PLAN_1
  6
CONTINUOUS
 10
-1.118969
 20
1.724886
  0
VERTEX
  8
PLAN_1
  6
CONTINUOUS
 10
-1.171315
 20
1.724886
  0
VERTEX
  8
PLAN_1
  6
CONTINUOUS
 10
-1.171315
 20
1.699705
  0
VERTEX
  8
PLAN_1
  6
CONTINUOUS
 10
-1.118969
 20
1.699705
  0
SEQEND
  8
0
  0
POLYLINE
  8
PLAN_1
  6
CONTINUOUS
 66
     1
 40
0.006913
 41
0.006913
  0
VERTEX
  8
PLAN_1
  6
CONTINUOUS
 10
-0.107638
 20
1.724886
  0
VERTEX
  8
PLAN_1
  6
CONTINUOUS
 10
-0.107638
 20
1.658717
  0
VERTEX
  8
PLAN_1
  6
CONTINUOUS
 10
-0.405902
 20
1.658717
  0
VERTEX
  8
PLAN_1
  6
CONTINUOUS
 10
-0.405902
 20
1.724886
  0
VERTEX
  8
PLAN_1
  6
CONTINUOUS
 10
-0.107638
 20
1.724886
  0
SEQEND
  8
0
  0
POLYLINE
  8
PLAN_1
  6
CONTINUOUS
 66
     1
 40
0.006913
 41
0.006913
  0
VERTEX
  8
PLAN_1
  6
CONTINUOUS
 10
-0.231587
 20
1.699705
  0
VERTEX
  8
PLAN_1
  6
CONTINUOUS
 10
-0.231587
 20
1.724886
  0
VERTEX
  8
PLAN_1
  6
CONTINUOUS
 10
-0.283929
 20
1.724886
  0
VERTEX
  8
PLAN_1
  6
CONTINUOUS
 10
-0.283929
 20
1.699705
  0
VERTEX
  8
PLAN_1
  6
CONTINUOUS
 10
-0.231587
 20
1.699705
  0
SEQEND
  8
0
  0
POLYLINE
  8
PLAN_1
  6
CONTINUOUS
 66
     1
 40
0.008394
 41
0.008394
  0
VERTEX
  8
PLAN_1
  6
CONTINUOUS
 10
-1.686362
 20
0.789110
  0
VERTEX
  8
PLAN_1
  6
CONTINUOUS
 10
-1.686362
 20
1.616744
  0
VERTEX
  8
PLAN_1
  6
CONTINUOUS
 10
-1.409827
 20
1.663654
  0
VERTEX
  8
PLAN_1
  6
CONTINUOUS
 10
-1.409827
 20
0.756520
  0
VERTEX
  8
PLAN_1
  6
CONTINUOUS
 10
-1.686362
 20
0.789110
  0
SEQEND
  8
0
  0
POLYLINE
  8
PLAN_1
  6
CONTINUOUS
 66
     1
 40
0.006913
 41
0.006913
  0
VERTEX
  8
PLAN_1
  6
CONTINUOUS
 10
-2.090303
 20
0.936268
  0
VERTEX
  8
PLAN_1
  6
CONTINUOUS
 10
-2.090303
 20
1.428106
  0
VERTEX
  8
PLAN_1
  6
CONTINUOUS
 10
-2.206346
 20
1.428106
  0
VERTEX
  8
PLAN_1
  6
CONTINUOUS
 10
-2.206346
 20
0.936268
  0
VERTEX
  8
PLAN_1
  6
CONTINUOUS
 10
-2.090303
 20
0.936268
  0
SEQEND
  8
0
  0
POLYLINE
  8
PLAN_1
  6
CONTINUOUS
 66
     1
 40
0.003949
 41
0.003949
  0
VERTEX
  8
PLAN_1
  6
CONTINUOUS
 10
-2.205854
 20
1.302677
  0
VERTEX
  8
PLAN_1
  6
CONTINUOUS
 10
-2.093264
 20
1.302677
  0
SEQEND
  8
0
  0
POLYLINE
  8
PLAN_1
  6
CONTINUOUS
 66
     1
 40
0.003949
 41
0.003949
  0
VERTEX
  8
PLAN_1
  6
CONTINUOUS
 10
-2.205854
 20
1.061697
  0
VERTEX
  8
PLAN_1
  6
CONTINUOUS
 10
-2.093264
 20
1.061697
  0
SEQEND
  8
0
  0
POLYLINE
  8
PLAN_1
  6
CONTINUOUS
 66
     1
 40
0.003949
 41
0.003949
  0
VERTEX
  8
PLAN_1
  6
CONTINUOUS
 10
-2.192520
 20
1.427610
  0
VERTEX
  8
PLAN_1
  6
CONTINUOUS
 10
-2.194004
 20
1.425142
  0
VERTEX
  8
PLAN_1
  6
CONTINUOUS
 10
-2.196965
 20
1.416748
  0
VERTEX
  8
PLAN_1
  6
CONTINUOUS
 10
-2.198941
 20
1.411315
  0
VERTEX
  8
PLAN_1
  6
CONTINUOUS
 10
-2.200917
 20
1.404402
  0
VERTEX
  8
PLAN_1
  6
CONTINUOUS
 10
-2.202890
 20
1.396996
  0
VERTEX
  8
PLAN_1
  6
CONTINUOUS
 10
-2.204374
 20
1.388106
  0
VERTEX
  8
PLAN_1
  6
CONTINUOUS
 10
-2.205854
 20
1.379217
  0
VERTEX
  8
PLAN_1
  6
CONTINUOUS
 10
-2.206346
 20
1.369343
  0
VERTEX
  8
PLAN_1
  6
CONTINUOUS
 10
-2.206346
 20
1.358972
  0
VERTEX
  8
PLAN_1
  6
CONTINUOUS
 10
-2.205358
 20
1.348106
  0
VERTEX
  8
PLAN_1
  6
CONTINUOUS
 10
-2.204374
 20
1.342677
  0
VERTEX
  8
PLAN_1
  6
CONTINUOUS
 10
-2.203386
 20
1.336748
  0
VERTEX
  8
PLAN_1
  6
CONTINUOUS
 10
-2.201902
 20
1.331319
  0
VERTEX
  8
PLAN_1
  6
CONTINUOUS
 10
-2.200421
 20
1.325394
  0
VERTEX
  8
PLAN_1
  6
CONTINUOUS
 10
-2.198445
 20
1.319465
  0
VERTEX
  8
PLAN_1
  6
CONTINUOUS
 10
-2.195976
 20
1.314035
  0
VERTEX
  8
PLAN_1
  6
CONTINUOUS
 10
-2.193016
 20
1.308110
  0
VERTEX
  8
PLAN_1
  6
CONTINUOUS
 10
-2.190051
 20
1.302181
  0
VERTEX
  8
PLAN_1
  6
CONTINUOUS
 10
-2.191531
 20
1.297740
  0
VERTEX
  8
PLAN_1
  6
CONTINUOUS
 10
-2.194988
 20
1.284898
  0
VERTEX
  8
PLAN_1
  6
CONTINUOUS
 10
-2.196965
 20
1.275516
  0
VERTEX
  8
PLAN_1
  6
CONTINUOUS
 10
-2.199433
 20
1.264157
  0
VERTEX
  8
PLAN_1
  6
CONTINUOUS
 10
-2.201409
 20
1.250827
  0
VERTEX
  8
PLAN_1
  6
CONTINUOUS
 10
-2.203386
 20
1.236012
  0
VERTEX
  8
PLAN_1
  6
CONTINUOUS
 10
-2.204866
 20
1.219220
  0
VERTEX
  8
PLAN_1
  6
CONTINUOUS
 10
-2.206346
 20
1.200953
  0
VERTEX
  8
PLAN_1
  6
CONTINUOUS
 10
-2.206346
 20
1.181197
  0
VERTEX
  8
PLAN_1
  6
CONTINUOUS
 10
-2.205854
 20
1.159965
  0
VERTEX
  8
PLAN_1
  6
CONTINUOUS
 10
-2.205358
 20
1.148606
  0
VERTEX
  8
PLAN_1
  6
CONTINUOUS
 10
-2.204866
 20
1.137248
  0
VERTEX
  8
PLAN_1
  6
CONTINUOUS
 10
-2.203386
 20
1.125398
  0
VERTEX
  8
PLAN_1
  6
CONTINUOUS
 10
-2.201902
 20
1.113051
  0
VERTEX
  8
PLAN_1
  6
CONTINUOUS
 10
-2.200421
 20
1.100709
  0
VERTEX
  8
PLAN_1
  6
CONTINUOUS
 10
-2.198445
 20
1.087866
  0
VERTEX
  8
PLAN_1
  6
CONTINUOUS
 10
-2.195976
 20
1.075028
  0
VERTEX
  8
PLAN_1
  6
CONTINUOUS
 10
-2.193016
 20
1.061697
  0
VERTEX
  8
PLAN_1
  6
CONTINUOUS
 10
-2.194496
 20
1.058732
  0
VERTEX
  8
PLAN_1
  6
CONTINUOUS
 10
-2.197461
 20
1.050831
  0
VERTEX
  8
PLAN_1
  6
CONTINUOUS
 10
-2.199433
 20
1.045402
  0
VERTEX
  8
PLAN_1
  6
CONTINUOUS
 10
-2.201409
 20
1.038980
  0
VERTEX
  8
PLAN_1
  6
CONTINUOUS
 10
-2.203386
 20
1.031079
  0
VERTEX
  8
PLAN_1
  6
CONTINUOUS
 10
-2.204866
 20
1.022685
  0
VERTEX
  8
PLAN_1
  6
CONTINUOUS
 10
-2.206346
 20
1.013795
  0
VERTEX
  8
PLAN_1
  6
CONTINUOUS
 10
-2.206843
 20
1.003921
  0
VERTEX
  8
PLAN_1
  6
CONTINUOUS
 10
-2.206843
 20
0.994043
  0
VERTEX
  8
PLAN_1
  6
CONTINUOUS
 10
-2.205854
 20
0.983181
  0
VERTEX
  8
PLAN_1
  6
CONTINUOUS
 10
-2.204866
 20
0.977748
  0
VERTEX
  8
PLAN_1
  6
CONTINUOUS
 10
-2.203878
 20
0.972315
  0
VERTEX
  8
PLAN_1
  6
CONTINUOUS
 10
-2.202398
 20
0.966390
  0
VERTEX
  8
PLAN_1
  6
CONTINUOUS
 10
-2.200917
 20
0.960957
  0
VERTEX
  8
PLAN_1
  6
CONTINUOUS
 10
-2.198445
 20
0.955031
  0
VERTEX
  8
PLAN_1
  6
CONTINUOUS
 10
-2.196472
 20
0.949598
  0
VERTEX
  8
PLAN_1
  6
CONTINUOUS
 10
-2.193508
 20
0.943673
  0
VERTEX
  8
PLAN_1
  6
CONTINUOUS
 10
-2.190547
 20
0.937748
  0
SEQEND
  8
0
  0
POLYLINE
  8
PLAN_1
  6
CONTINUOUS
 66
     1
 40
0.008394
 41
0.008394
  0
VERTEX
  8
PLAN_1
  6
CONTINUOUS
 10
-1.411307
 20
0.747630
  0
VERTEX
  8
PLAN_1
  6
CONTINUOUS
 10
-1.411307
 20
1.662173
  0
VERTEX
  8
PLAN_1
  6
CONTINUOUS
 10
-1.294768
 20
1.662173
  0
VERTEX
  8
PLAN_1
  6
CONTINUOUS
 10
-1.294768
 20
0.747630
  0
VERTEX
  8
PLAN_1
  6
CONTINUOUS
 10
-1.411307
 20
0.747630
  0
SEQEND
  8
0
  0
POLYLINE
  8
PLAN_1
  6
CONTINUOUS
 66
     1
 40
0.006913
 41
0.006913
  0
VERTEX
  8
PLAN_1
  6
CONTINUOUS
 10
-2.260665
 20
1.041449
  0
VERTEX
  8
PLAN_1
  6
CONTINUOUS
 10
-2.270543
 20
1.050831
  0
VERTEX
  8
PLAN_1
  6
CONTINUOUS
 10
-2.270543
 20
1.309591
  0
VERTEX
  8
PLAN_1
  6
CONTINUOUS
 10
-2.257705
 20
1.320453
  0
VERTEX
  8
PLAN_1
  6
CONTINUOUS
 10
-2.206346
 20
1.320453
  0
VERTEX
  8
PLAN_1
  6
CONTINUOUS
 10
-2.206346
 20
1.041449
  0
VERTEX
  8
PLAN_1
  6
CONTINUOUS
 10
-2.260665
 20
1.041449
  0
SEQEND
  8
0
  0
POLYLINE
  8
PLAN_1
  6
CONTINUOUS
 66
     1
 40
0.006913
 41
0.006913
  0
VERTEX
  8
PLAN_1
  6
CONTINUOUS
 10
-1.724878
 20
0.870591
  0
VERTEX
  8
PLAN_1
  6
CONTINUOUS
 10
-1.724878
 20
1.486870
  0
VERTEX
  8
PLAN_1
  6
CONTINUOUS
 10
-2.050795
 20
1.486870
  0
VERTEX
  8
PLAN_1
  6
CONTINUOUS
 10
-2.050795
 20
0.870591
  0
VERTEX
  8
PLAN_1
  6
CONTINUOUS
 10
-1.724878
 20
0.870591
  0
SEQEND
  8
0
  0
POLYLINE
  8
PLAN_1
  6
CONTINUOUS
 66
     1
 40
0.006913
 41
0.006913
  0
VERTEX
  8
PLAN_1
  6
CONTINUOUS
 10
-2.051783
 20
1.486870
  0
VERTEX
  8
PLAN_1
  6
CONTINUOUS
 10
-2.090303
 20
1.536252
  0
SEQEND
  8
0
  0
POLYLINE
  8
PLAN_1
  6
CONTINUOUS
 66
     1
 40
0.006913
 41
0.006913
  0
VERTEX
  8
PLAN_1
  6
CONTINUOUS
 10
-2.089315
 20
0.828122
  0
VERTEX
  8
PLAN_1
  6
CONTINUOUS
 10
-2.050795
 20
0.870591
  0
SEQEND
  8
0
  0
POLYLINE
  8
PLAN_1
  6
CONTINUOUS
 66
     1
 40
0.006913
 41
0.006913
  0
VERTEX
  8
PLAN_1
  6
CONTINUOUS
 10
-1.723890
 20
1.487858
  0
VERTEX
  8
PLAN_1
  6
CONTINUOUS
 10
-1.685374
 20
1.537240
  0
SEQEND
  8
0
  0
POLYLINE
  8
PLAN_1
  6
CONTINUOUS
 66
     1
 40
0.006913
 41
0.006913
  0
VERTEX
  8
PLAN_1
  6
CONTINUOUS
 10
-1.686362
 20
0.829110
  0
VERTEX
  8
PLAN_1
  6
CONTINUOUS
 10
-1.724878
 20
0.871579
  0
SEQEND
  8
0
  0
POLYLINE
  8
PLAN_1
  6
CONTINUOUS
 66
     1
 40
0.003949
 41
0.003949
  0
VERTEX
  8
PLAN_1
  6
CONTINUOUS
 10
-1.296248
 20
-0.098272
  0
VERTEX
  8
PLAN_1
  6
CONTINUOUS
 10
-1.296248
 20
0.634051
  0
VERTEX
  8
PLAN_1
  6
CONTINUOUS
 10
-0.108134
 20
0.634547
  0
VERTEX
  8
PLAN_1
  6
CONTINUOUS
 10
-0.108134
 20
-0.096299
  0
SEQEND
  8
0
  0
POLYLINE
  8
PLAN_1
  6
CONTINUOUS
 66
     1
 40
0.003949
 41
0.003949
  0
VERTEX
  8
PLAN_1
  6
CONTINUOUS
 10
-2.178693
 20
2.517457
  0
VERTEX
  8
PLAN_1
  6
CONTINUOUS
 10
-1.633524
 20
2.832020
  0
SEQEND
  8
0
  0
POLYLINE
  8
PLAN_1
  6
CONTINUOUS
 66
     1
 40
0.008394
 41
0.008394
  0
VERTEX
  8
PLAN_1
  6
CONTINUOUS
 10
-1.759941
 20
0.870094
  0
VERTEX
  8
PLAN_1
  6
CONTINUOUS
 10
-1.759941
 20
0.081969
  0
VERTEX
  8
PLAN_1
  6
CONTINUOUS
 10
-2.023638
 20
0.081969
  0
VERTEX
  8
PLAN_1
  6
CONTINUOUS
 10
-2.023638
 20
0.870094
  0
VERTEX
  8
PLAN_1
  6
CONTINUOUS
 10
-1.759941
 20
0.870094
  0
SEQEND
  8
0
  0
POLYLINE
  8
PLAN_1
  6
CONTINUOUS
 66
     1
 40
0.008394
 41
0.008394
  0
VERTEX
  8
PLAN_1
  6
CONTINUOUS
 10
-2.023638
 20
2.444374
  0
VERTEX
  8
PLAN_1
  6
CONTINUOUS
 10
-2.023638
 20
1.488350
  0
VERTEX
  8
PLAN_1
  6
CONTINUOUS
 10
-1.759941
 20
1.488350
  0
VERTEX
  8
PLAN_1
  6
CONTINUOUS
 10
-1.759941
 20
2.596469
  0
SEQEND
  8
0
  0
POLYLINE
  8
PLAN_1
  6
CONTINUOUS
 66
     1
 40
0.003949
 41
0.003949
  0
VERTEX
  8
PLAN_1
  6
CONTINUOUS
 10
-2.257705
 20
1.320453
  0
VERTEX
  8
PLAN_1
  6
CONTINUOUS
 10
-2.257705
 20
1.041449
  0
SEQEND
  8
0
  0
POLYLINE
  8
PLAN_1
  6
CONTINUOUS
 66
     1
 40
0.003949
 41
0.003949
  0
VERTEX
  8
PLAN_1
  6
CONTINUOUS
 10
-2.177213
 20
2.369807
  0
VERTEX
  8
PLAN_1
  6
CONTINUOUS
 10
-1.629079
 20
2.684366
  0
SEQEND
  8
0
  0
POLYLINE
  8
PLAN_1
  6
CONTINUOUS
 66
     1
 40
0.006913
 41
0.006913
  0
VERTEX
  8
PLAN_1
  6
CONTINUOUS
 10
-0.731327
 20
-0.191110
  0
VERTEX
  8
PLAN_1
  6
CONTINUOUS
 10
-0.444913
 20
-0.140248
  0
VERTEX
  8
PLAN_1
  6
CONTINUOUS
 10
-0.431583
 20
-0.137780
  0
SEQEND
  8
0
  0
POLYLINE
  8
PLAN_1
  6
CONTINUOUS
 66
     1
 40
0.006913
 41
0.006913
  0
VERTEX
  8
PLAN_1
  6
CONTINUOUS
 10
-0.431583
 20
-0.137780
  0
VERTEX
  8
PLAN_1
  6
CONTINUOUS
 10
-0.427138
 20
-0.136791
  0
VERTEX
  8
PLAN_1
  6
CONTINUOUS
 10
-0.423681
 20
-0.134815
  0
VERTEX
  8
PLAN_1
  6
CONTINUOUS
 10
-0.420224
 20
-0.132346
  0
VERTEX
  8
PLAN_1
  6
CONTINUOUS
 10
-0.417260
 20
-0.128890
  0
VERTEX
  8
PLAN_1
  6
CONTINUOUS
 10
-0.415283
 20
-0.125433
  0
VERTEX
  8
PLAN_1
  6
CONTINUOUS
 10
-0.413803
 20
-0.121480
  0
VERTEX
  8
PLAN_1
  6
CONTINUOUS
 10
-0.413311
 20
-0.117039
  0
VERTEX
  8
PLAN_1
  6
CONTINUOUS
 10
-0.413803
 20
-0.112594
  0
VERTEX
  8
PLAN_1
  6
CONTINUOUS
 10
-0.414791
 20
-0.108150
  0
VERTEX
  8
PLAN_1
  6
CONTINUOUS
 10
-0.416768
 20
-0.104197
  0
VERTEX
  8
PLAN_1
  6
CONTINUOUS
 10
-0.419728
 20
-0.101236
  0
VERTEX
  8
PLAN_1
  6
CONTINUOUS
 10
-0.422693
 20
-0.098272
  0
VERTEX
  8
PLAN_1
  6
CONTINUOUS
 10
-0.426642
 20
-0.096299
  0
VERTEX
  8
PLAN_1
  6
CONTINUOUS
 10
-0.430594
 20
-0.094815
  0
VERTEX
  8
PLAN_1
  6
CONTINUOUS
 10
-0.434543
 20
-0.094323
  0
VERTEX
  8
PLAN_1
  6
CONTINUOUS
 10
-0.438988
 20
-0.094815
  0
SEQEND
  8
0
  0
POLYLINE
  8
PLAN_1
  6
CONTINUOUS
 66
     1
 40
0.006913
 41
0.006913
  0
VERTEX
  8
PLAN_1
  6
CONTINUOUS
 10
-0.438988
 20
-0.094815
  0
VERTEX
  8
PLAN_1
  6
CONTINUOUS
 10
-0.452815
 20
-0.097283
  0
VERTEX
  8
PLAN_1
  6
CONTINUOUS
 10
-0.969343
 20
-0.188642
  0
VERTEX
  8
PLAN_1
  6
CONTINUOUS
 10
-0.978232
 20
-0.190122
  0
SEQEND
  8
0
  0
POLYLINE
  8
PLAN_1
  6
CONTINUOUS
 66
     1
 40
0.006913
 41
0.006913
  0
VERTEX
  8
PLAN_1
  6
CONTINUOUS
 10
-0.978232
 20
-0.190122
  0
VERTEX
  8
PLAN_1
  6
CONTINUOUS
 10
-0.982677
 20
-0.191110
  0
VERTEX
  8
PLAN_1
  6
CONTINUOUS
 10
-0.986626
 20
-0.193087
  0
VERTEX
  8
PLAN_1
  6
CONTINUOUS
 10
-0.989591
 20
-0.196047
  0
VERTEX
  8
PLAN_1
  6
CONTINUOUS
 10
-0.992555
 20
-0.199012
  0
VERTEX
  8
PLAN_1
  6
CONTINUOUS
 10
-0.994528
 20
-0.202469
  0
VERTEX
  8
PLAN_1
  6
CONTINUOUS
 10
-0.996012
 20
-0.206913
  0
VERTEX
  8
PLAN_1
  6
CONTINUOUS
 10
-0.996504
 20
-0.210862
  0
VERTEX
  8
PLAN_1
  6
CONTINUOUS
 10
-0.996012
 20
-0.215307
  0
VERTEX
  8
PLAN_1
  6
CONTINUOUS
 10
-0.995024
 20
-0.219752
  0
VERTEX
  8
PLAN_1
  6
CONTINUOUS
 10
-0.993047
 20
-0.223701
  0
VERTEX
  8
PLAN_1
  6
CONTINUOUS
 10
-0.990579
 20
-0.226665
  0
VERTEX
  8
PLAN_1
  6
CONTINUOUS
 10
-0.987122
 20
-0.229626
  0
VERTEX
  8
PLAN_1
  6
CONTINUOUS
 10
-0.983665
 20
-0.231602
  0
VERTEX
  8
PLAN_1
  6
CONTINUOUS
 10
-0.979220
 20
-0.233083
  0
VERTEX
  8
PLAN_1
  6
CONTINUOUS
 10
-0.975272
 20
-0.233579
  0
VERTEX
  8
PLAN_1
  6
CONTINUOUS
 10
-0.970827
 20
-0.233083
  0
SEQEND
  8
0
  0
POLYLINE
  8
PLAN_1
  6
CONTINUOUS
 66
     1
 40
0.006913
 41
0.006913
  0
VERTEX
  8
PLAN_1
  6
CONTINUOUS
 10
-0.559972
 20
0.075055
  0
VERTEX
  8
PLAN_1
  6
CONTINUOUS
 10
-0.969343
 20
0.147154
  0
VERTEX
  8
PLAN_1
  6
CONTINUOUS
 10
-0.978232
 20
0.148634
  0
SEQEND
  8
0
  0
POLYLINE
  8
PLAN_1
  6
CONTINUOUS
 66
     1
 40
0.006913
 41
0.006913
  0
VERTEX
  8
PLAN_1
  6
CONTINUOUS
 10
-0.978232
 20
0.148634
  0
VERTEX
  8
PLAN_1
  6
CONTINUOUS
 10
-0.982677
 20
0.150114
  0
VERTEX
  8
PLAN_1
  6
CONTINUOUS
 10
-0.986134
 20
0.152091
  0
VERTEX
  8
PLAN_1
  6
CONTINUOUS
 10
-0.989591
 20
0.154559
  0
VERTEX
  8
PLAN_1
  6
CONTINUOUS
 10
-0.992555
 20
0.158016
  0
VERTEX
  8
PLAN_1
  6
CONTINUOUS
 10
-0.994528
 20
0.161472
  0
VERTEX
  8
PLAN_1
  6
CONTINUOUS
 10
-0.996012
 20
0.165425
  0
VERTEX
  8
PLAN_1
  6
CONTINUOUS
 10
-0.996504
 20
0.169866
  0
VERTEX
  8
PLAN_1
  6
CONTINUOUS
 10
-0.996012
 20
0.174311
  0
VERTEX
  8
PLAN_1
  6
CONTINUOUS
 10
-0.995024
 20
0.178756
  0
VERTEX
  8
PLAN_1
  6
CONTINUOUS
 10
-0.993047
 20
0.182213
  0
VERTEX
  8
PLAN_1
  6
CONTINUOUS
 10
-0.990083
 20
0.185669
  0
VERTEX
  8
PLAN_1
  6
CONTINUOUS
 10
-0.987122
 20
0.188634
  0
VERTEX
  8
PLAN_1
  6
CONTINUOUS
 10
-0.983169
 20
0.190606
  0
VERTEX
  8
PLAN_1
  6
CONTINUOUS
 10
-0.979220
 20
0.192091
  0
VERTEX
  8
PLAN_1
  6
CONTINUOUS
 10
-0.974776
 20
0.192583
  0
VERTEX
  8
PLAN_1
  6
CONTINUOUS
 10
-0.970331
 20
0.192091
  0
SEQEND
  8
0
  0
POLYLINE
  8
PLAN_1
  6
CONTINUOUS
 66
     1
 40
0.006913
 41
0.006913
  0
VERTEX
  8
PLAN_1
  6
CONTINUOUS
 10
-0.853299
 20
0.171350
  0
VERTEX
  8
PLAN_1
  6
CONTINUOUS
 10
-0.444913
 20
0.099252
  0
VERTEX
  8
PLAN_1
  6
CONTINUOUS
 10
-0.431583
 20
0.096783
  0
SEQEND
  8
0
  0
POLYLINE
  8
PLAN_1
  6
CONTINUOUS
 66
     1
 40
0.006913
 41
0.006913
  0
VERTEX
  8
PLAN_1
  6
CONTINUOUS
 10
-0.431583
 20
0.096783
  0
VERTEX
  8
PLAN_1
  6
CONTINUOUS
 10
-0.427138
 20
0.095795
  0
VERTEX
  8
PLAN_1
  6
CONTINUOUS
 10
-0.423185
 20
0.093819
  0
VERTEX
  8
PLAN_1
  6
CONTINUOUS
 10
-0.419728
 20
0.090858
  0
VERTEX
  8
PLAN_1
  6
CONTINUOUS
 10
-0.417260
 20
0.087894
  0
VERTEX
  8
PLAN_1
  6
CONTINUOUS
 10
-0.415283
 20
0.083945
  0
VERTEX
  8
PLAN_1
  6
CONTINUOUS
 10
-0.413803
 20
0.079992
  0
VERTEX
  8
PLAN_1
  6
CONTINUOUS
 10
-0.413311
 20
0.076043
  0
VERTEX
  8
PLAN_1
  6
CONTINUOUS
 10
-0.413803
 20
0.071598
  0
VERTEX
  8
PLAN_1
  6
CONTINUOUS
 10
-0.414791
 20
0.067154
  0
VERTEX
  8
PLAN_1
  6
CONTINUOUS
 10
-0.416768
 20
0.063205
  0
VERTEX
  8
PLAN_1
  6
CONTINUOUS
 10
-0.419236
 20
0.059748
  0
VERTEX
  8
PLAN_1
  6
CONTINUOUS
 10
-0.422693
 20
0.057280
  0
VERTEX
  8
PLAN_1
  6
CONTINUOUS
 10
-0.426150
 20
0.055303
  0
VERTEX
  8
PLAN_1
  6
CONTINUOUS
 10
-0.430098
 20
0.053823
  0
VERTEX
  8
PLAN_1
  6
CONTINUOUS
 10
-0.434543
 20
0.053327
  0
VERTEX
  8
PLAN_1
  6
CONTINUOUS
 10
-0.438988
 20
0.053823
  0
SEQEND
  8
0
  0
POLYLINE
  8
PLAN_1
  6
CONTINUOUS
 66
     1
 40
0.006913
 41
0.006913
  0
VERTEX
  8
PLAN_1
  6
CONTINUOUS
 10
-0.563429
 20
-0.116051
  0
VERTEX
  8
PLAN_1
  6
CONTINUOUS
 10
-0.969343
 20
-0.044449
  0
VERTEX
  8
PLAN_1
  6
CONTINUOUS
 10
-0.978232
 20
-0.042472
  0
SEQEND
  8
0
  0
POLYLINE
  8
PLAN_1
  6
CONTINUOUS
 66
     1
 40
0.006913
 41
0.006913
  0
VERTEX
  8
PLAN_1
  6
CONTINUOUS
 10
-0.978232
 20
-0.042472
  0
VERTEX
  8
PLAN_1
  6
CONTINUOUS
 10
-0.982677
 20
-0.041484
  0
VERTEX
  8
PLAN_1
  6
CONTINUOUS
 10
-0.986134
 20
-0.039508
  0
VERTEX
  8
PLAN_1
  6
CONTINUOUS
 10
-0.989591
 20
-0.037039
  0
VERTEX
  8
PLAN_1
  6
CONTINUOUS
 10
-0.992555
 20
-0.033583
  0
VERTEX
  8
PLAN_1
  6
CONTINUOUS
 10
-0.994528
 20
-0.030126
  0
VERTEX
  8
PLAN_1
  6
CONTINUOUS
 10
-0.996012
 20
-0.025681
  0
VERTEX
  8
PLAN_1
  6
CONTINUOUS
 10
-0.996504
 20
-0.021732
  0
VERTEX
  8
PLAN_1
  6
CONTINUOUS
 10
-0.996012
 20
-0.017287
  0
VERTEX
  8
PLAN_1
  6
CONTINUOUS
 10
-0.995024
 20
-0.012843
  0
VERTEX
  8
PLAN_1
  6
CONTINUOUS
 10
-0.993047
 20
-0.008894
  0
VERTEX
  8
PLAN_1
  6
CONTINUOUS
 10
-0.990083
 20
-0.005929
  0
VERTEX
  8
PLAN_1
  6
CONTINUOUS
 10
-0.987122
 20
-0.002969
  0
VERTEX
  8
PLAN_1
  6
CONTINUOUS
 10
-0.983169
 20
-0.000992
  0
VERTEX
  8
PLAN_1
  6
CONTINUOUS
 10
-0.979220
 20
0.000488
  0
VERTEX
  8
PLAN_1
  6
CONTINUOUS
 10
-0.975272
 20
0.000984
  0
VERTEX
  8
PLAN_1
  6
CONTINUOUS
 10
-0.970827
 20
0.000488
  0
SEQEND
  8
0
  0
POLYLINE
  8
PLAN_1
  6
CONTINUOUS
 66
     1
 40
0.006913
 41
0.006913
  0
VERTEX
  8
PLAN_1
  6
CONTINUOUS
 10
-0.849346
 20
-0.020744
  0
VERTEX
  8
PLAN_1
  6
CONTINUOUS
 10
-0.444913
 20
-0.092346
  0
VERTEX
  8
PLAN_1
  6
CONTINUOUS
 10
-0.431583
 20
-0.094815
  0
SEQEND
  8
0
  0
POLYLINE
  8
PLAN_1
  6
CONTINUOUS
 66
     1
 40
0.006913
 41
0.006913
  0
VERTEX
  8
PLAN_1
  6
CONTINUOUS
 10
-0.431583
 20
-0.094815
  0
VERTEX
  8
PLAN_1
  6
CONTINUOUS
 10
-0.427138
 20
-0.095803
  0
VERTEX
  8
PLAN_1
  6
CONTINUOUS
 10
-0.423185
 20
-0.097780
  0
VERTEX
  8
PLAN_1
  6
CONTINUOUS
 10
-0.420224
 20
-0.100248
  0
VERTEX
  8
PLAN_1
  6
CONTINUOUS
 10
-0.417260
 20
-0.103705
  0
VERTEX
  8
PLAN_1
  6
CONTINUOUS
 10
-0.415283
 20
-0.107161
  0
VERTEX
  8
PLAN_1
  6
CONTINUOUS
 10
-0.413803
 20
-0.111606
  0
VERTEX
  8
PLAN_1
  6
CONTINUOUS
 10
-0.413311
 20
-0.115555
  0
VERTEX
  8
PLAN_1
  6
CONTINUOUS
 10
-0.413803
 20
-0.120000
  0
VERTEX
  8
PLAN_1
  6
CONTINUOUS
 10
-0.414791
 20
-0.124445
  0
VERTEX
  8
PLAN_1
  6
CONTINUOUS
 10
-0.416768
 20
-0.128394
  0
VERTEX
  8
PLAN_1
  6
CONTINUOUS
 10
-0.419236
 20
-0.131358
  0
VERTEX
  8
PLAN_1
  6
CONTINUOUS
 10
-0.422693
 20
-0.134323
  0
VERTEX
  8
PLAN_1
  6
CONTINUOUS
 10
-0.426150
 20
-0.136295
  0
VERTEX
  8
PLAN_1
  6
CONTINUOUS
 10
-0.430594
 20
-0.137780
  0
VERTEX
  8
PLAN_1
  6
CONTINUOUS
 10
-0.434543
 20
-0.138272
  0
VERTEX
  8
PLAN_1
  6
CONTINUOUS
 10
-0.438988
 20
-0.137780
  0
SEQEND
  8
0
  0
POLYLINE
  8
PLAN_1
 62
     2
  6
CONTINUOUS
 66
     1
 40
0.003949
 41
0.003949
  0
VERTEX
  8
PLAN_1
 62
     2
  6
CONTINUOUS
 10
-2.240913
 20
-0.391106
  0
VERTEX
  8
PLAN_1
 62
     2
  6
CONTINUOUS
 10
-0.136280
 20
-0.391106
  0
SEQEND
  8
0
  0
SOLID
  8
PLAN_1
 62
     2
 10
-0.106650
 20
-0.391106
 11
-0.165909
 21
-0.375303
 12
-0.106650
 22
-0.391106
 13
-0.165909
 23
-0.406906
  0
POLYLINE
  8
PLAN_1
 62
     2
  6
CONTINUOUS
 66
     1
 40
0.003000
 41
0.003000
  0
VERTEX
  8
PLAN_1
 62
     2
  6
CONTINUOUS
 10
-0.106650
 20
-0.391106
  0
VERTEX
  8
PLAN_1
 62
     2
  6
CONTINUOUS
 10
-0.165909
 20
-0.375303
  0
VERTEX
  8
PLAN_1
 62
     2
  6
CONTINUOUS
 10
-0.165909
 20
-0.406906
  0
VERTEX
  8
PLAN_1
 62
     2
  6
CONTINUOUS
 10
-0.106650
 20
-0.391106
  0
SEQEND
  8
0
  0
SOLID
  8
PLAN_1
 62
     2
 10
-2.270543
 20
-0.391106
 11
-2.211287
 21
-0.375303
 12
-2.270543
 22
-0.391106
 13
-2.211287
 23
-0.406906
  0
POLYLINE
  8
PLAN_1
 62
     2
  6
CONTINUOUS
 66
     1
 40
0.003000
 41
0.003000
  0
VERTEX
  8
PLAN_1
 62
     2
  6
CONTINUOUS
 10
-2.270543
 20
-0.391106
  0
VERTEX
  8
PLAN_1
 62
     2
  6
CONTINUOUS
 10
-2.211287
 20
-0.375303
  0
VERTEX
  8
PLAN_1
 62
     2
  6
CONTINUOUS
 10
-2.211287
 20
-0.406906
  0
VERTEX
  8
PLAN_1
 62
     2
  6
CONTINUOUS
 10
-2.270543
 20
-0.391106
  0
SEQEND
  8
0
  0
POLYLINE
  8
PLAN_1
 62
     2
  6
CONTINUOUS
 66
     1
 40
0.003949
 41
0.003949
  0
VERTEX
  8
PLAN_1
 62
     2
  6
CONTINUOUS
 10
-2.270543
 20
1.027130
  0
VERTEX
  8
PLAN_1
 62
     2
  6
CONTINUOUS
 10
-2.270543
 20
-0.414807
  0
SEQEND
  8
0
  0
POLYLINE
  8
PLAN_1
 62
     2
  6
CONTINUOUS
 66
     1
 40
0.003949
 41
0.003949
  0
VERTEX
  8
PLAN_1
 62
     2
  6
CONTINUOUS
 10
-0.106650
 20
-0.120000
  0
VERTEX
  8
PLAN_1
 62
     2
  6
CONTINUOUS
 10
-0.106650
 20
-0.414807
  0
SEQEND
  8
0
  0
POLYLINE
  8
PLAN_1
 62
     2
  6
CONTINUOUS
 66
     1
 40
0.003949
 41
0.003949
  0
VERTEX
  8
PLAN_1
 62
     2
  6
CONTINUOUS
 10
-1.862157
 20
3.854213
  0
VERTEX
  8
PLAN_1
 62
     2
  6
CONTINUOUS
 10
-0.136280
 20
3.854213
  0
SEQEND
  8
0
  0
SOLID
  8
PLAN_1
 62
     2
 10
-0.106650
 20
3.854213
 11
-0.165909
 21
3.870016
 12
-0.106650
 22
3.854213
 13
-0.165909
 23
3.838409
  0
POLYLINE
  8
PLAN_1
 62
     2
  6
CONTINUOUS
 66
     1
 40
0.003000
 41
0.003000
  0
VERTEX
  8
PLAN_1
 62
     2
  6
CONTINUOUS
 10
-0.106650
 20
3.854213
  0
VERTEX
  8
PLAN_1
 62
     2
  6
CONTINUOUS
 10
-0.165909
 20
3.870016
  0
VERTEX
  8
PLAN_1
 62
     2
  6
CONTINUOUS
 10
-0.165909
 20
3.838409
  0
VERTEX
  8
PLAN_1
 62
     2
  6
CONTINUOUS
 10
-0.106650
 20
3.854213
  0
SEQEND
  8
0
  0
SOLID
  8
PLAN_1
 62
     2
 10
-1.891787
 20
3.854213
 11
-1.833024
 21
3.870016
 12
-1.891787
 22
3.854213
 13
-1.833024
 23
3.838409
  0
POLYLINE
  8
PLAN_1
 62
     2
  6
CONTINUOUS
 66
     1
 40
0.003000
 41
0.003000
  0
VERTEX
  8
PLAN_1
 62
     2
  6
CONTINUOUS
 10
-1.891787
 20
3.854213
  0
VERTEX
  8
PLAN_1
 62
     2
  6
CONTINUOUS
 10
-1.833024
 20
3.870016
  0
VERTEX
  8
PLAN_1
 62
     2
  6
CONTINUOUS
 10
-1.833024
 20
3.838409
  0
VERTEX
  8
PLAN_1
 62
     2
  6
CONTINUOUS
 10
-1.891787
 20
3.854213
  0
SEQEND
  8
0
  0
POLYLINE
  8
PLAN_1
 62
     2
  6
CONTINUOUS
 66
     1
 40
0.003000
 41
0.003000
  0
VERTEX
  8
PLAN_1
 62
     2
  6
CONTINUOUS
 10
-1.231067
 20
-0.324933
  0
VERTEX
  8
PLAN_1
 62
     2
  6
CONTINUOUS
 10
-1.230079
 20
-0.323945
  0
VERTEX
  8
PLAN_1
 62
     2
  6
CONTINUOUS
 10
-1.228594
 20
-0.323453
  0
VERTEX
  8
PLAN_1
 62
     2
  6
CONTINUOUS
 10
-1.227114
 20
-0.322465
  0
VERTEX
  8
PLAN_1
 62
     2
  6
CONTINUOUS
 10
-1.225634
 20
-0.321972
  0
VERTEX
  8
PLAN_1
 62
     2
  6
CONTINUOUS
 10
-1.223657
 20
-0.321476
  0
VERTEX
  8
PLAN_1
 62
     2
  6
CONTINUOUS
 10
-1.221681
 20
-0.320984
  0
VERTEX
  8
PLAN_1
 62
     2
  6
CONTINUOUS
 10
-1.219709
 20
-0.320488
  0
VERTEX
  8
PLAN_1
 62
     2
  6
CONTINUOUS
 10
-1.217240
 20
-0.320488
  0
VERTEX
  8
PLAN_1
 62
     2
  6
CONTINUOUS
 10
-1.212795
 20
-0.320984
  0
VERTEX
  8
PLAN_1
 62
     2
  6
CONTINUOUS
 10
-1.208350
 20
-0.321972
  0
VERTEX
  8
PLAN_1
 62
     2
  6
CONTINUOUS
 10
-1.204398
 20
-0.323945
  0
VERTEX
  8
PLAN_1
 62
     2
  6
CONTINUOUS
 10
-1.200449
 20
-0.326413
  0
VERTEX
  8
PLAN_1
 62
     2
  6
CONTINUOUS
 10
-1.197484
 20
-0.329870
  0
VERTEX
  8
PLAN_1
 62
     2
  6
CONTINUOUS
 10
-1.195016
 20
-0.333823
  0
VERTEX
  8
PLAN_1
 62
     2
  6
CONTINUOUS
 10
-1.194524
 20
-0.336291
  0
VERTEX
  8
PLAN_1
 62
     2
  6
CONTINUOUS
 10
-1.193535
 20
-0.338268
  0
VERTEX
  8
PLAN_1
 62
     2
  6
CONTINUOUS
 10
-1.193043
 20
-0.341228
  0
VERTEX
  8
PLAN_1
 62
     2
  6
CONTINUOUS
 10
-1.193043
 20
-0.343697
  0
VERTEX
  8
PLAN_1
 62
     2
  6
CONTINUOUS
 10
-1.193535
 20
-0.347154
  0
VERTEX
  8
PLAN_1
 62
     2
  6
CONTINUOUS
 10
-1.194028
 20
-0.351106
  0
VERTEX
  8
PLAN_1
 62
     2
  6
CONTINUOUS
 10
-1.195512
 20
-0.355551
  0
VERTEX
  8
PLAN_1
 62
     2
  6
CONTINUOUS
 10
-1.197980
 20
-0.359500
  0
VERTEX
  8
PLAN_1
 62
     2
  6
CONTINUOUS
 10
-1.199461
 20
-0.361476
  0
VERTEX
  8
PLAN_1
 62
     2
  6
CONTINUOUS
 10
-1.201437
 20
-0.363453
  0
VERTEX
  8
PLAN_1
 62
     2
  6
CONTINUOUS
 10
-1.203413
 20
-0.365425
  0
VERTEX
  8
PLAN_1
 62
     2
  6
CONTINUOUS
 10
-1.205882
 20
-0.366909
  0
VERTEX
  8
PLAN_1
 62
     2
  6
CONTINUOUS
 10
-1.208843
 20
-0.367894
  0
VERTEX
  8
PLAN_1
 62
     2
  6
CONTINUOUS
 10
-1.211807
 20
-0.368882
  0
VERTEX
  8
PLAN_1
 62
     2
  6
CONTINUOUS
 10
-1.215756
 20
-0.369378
  0
VERTEX
  8
PLAN_1
 62
     2
  6
CONTINUOUS
 10
-1.219709
 20
-0.369378
  0
VERTEX
  8
PLAN_1
 62
     2
  6
CONTINUOUS
 10
-1.223165
 20
-0.369378
  0
VERTEX
  8
PLAN_1
 62
     2
  6
CONTINUOUS
 10
-1.227114
 20
-0.368882
  0
VERTEX
  8
PLAN_1
 62
     2
  6
CONTINUOUS
 10
-1.231067
 20
-0.367402
  0
VERTEX
  8
PLAN_1
 62
     2
  6
CONTINUOUS
 10
-1.234524
 20
-0.365425
  0
VERTEX
  8
PLAN_1
 62
     2
  6
CONTINUOUS
 10
-1.236004
 20
-0.364437
  0
VERTEX
  8
PLAN_1
 62
     2
  6
CONTINUOUS
 10
-1.237484
 20
-0.362957
  0
VERTEX
  8
PLAN_1
 62
     2
  6
CONTINUOUS
 10
-1.238965
 20
-0.361476
  0
VERTEX
  8
PLAN_1
 62
     2
  6
CONTINUOUS
 10
-1.239953
 20
-0.359500
  0
VERTEX
  8
PLAN_1
 62
     2
  6
CONTINUOUS
 10
-1.241437
 20
-0.357524
  0
VERTEX
  8
PLAN_1
 62
     2
  6
CONTINUOUS
 10
-1.241929
 20
-0.355055
  0
VERTEX
  8
PLAN_1
 62
     2
  6
CONTINUOUS
 10
-1.242917
 20
-0.352094
  0
VERTEX
  8
PLAN_1
 62
     2
  6
CONTINUOUS
 10
-1.243409
 20
-0.349130
  0
VERTEX
  8
PLAN_1
 62
     2
  6
CONTINUOUS
 10
-1.234028
 20
-0.349130
  0
VERTEX
  8
PLAN_1
 62
     2
  6
CONTINUOUS
 10
-1.233039
 20
-0.352094
  0
VERTEX
  8
PLAN_1
 62
     2
  6
CONTINUOUS
 10
-1.232051
 20
-0.355055
  0
VERTEX
  8
PLAN_1
 62
     2
  6
CONTINUOUS
 10
-1.230571
 20
-0.357031
  0
VERTEX
  8
PLAN_1
 62
     2
  6
CONTINUOUS
 10
-1.228594
 20
-0.358512
  0
VERTEX
  8
PLAN_1
 62
     2
  6
CONTINUOUS
 10
-1.226622
 20
-0.359996
  0
VERTEX
  8
PLAN_1
 62
     2
  6
CONTINUOUS
 10
-1.224154
 20
-0.360980
  0
VERTEX
  8
PLAN_1
 62
     2
  6
CONTINUOUS
 10
-1.221189
 20
-0.361476
  0
VERTEX
  8
PLAN_1
 62
     2
  6
CONTINUOUS
 10
-1.218224
 20
-0.361476
  0
VERTEX
  8
PLAN_1
 62
     2
  6
CONTINUOUS
 10
-1.214768
 20
-0.361476
  0
VERTEX
  8
PLAN_1
 62
     2
  6
CONTINUOUS
 10
-1.211807
 20
-0.360488
  0
VERTEX
  8
PLAN_1
 62
     2
  6
CONTINUOUS
 10
-1.209339
 20
-0.358512
  0
VERTEX
  8
PLAN_1
 62
     2
  6
CONTINUOUS
 10
-1.206870
 20
-0.356539
  0
VERTEX
  8
PLAN_1
 62
     2
  6
CONTINUOUS
 10
-1.205386
 20
-0.354067
  0
VERTEX
  8
PLAN_1
 62
     2
  6
CONTINUOUS
 10
-1.203906
 20
-0.351598
  0
VERTEX
  8
PLAN_1
 62
     2
  6
CONTINUOUS
 10
-1.203413
 20
-0.348142
  0
VERTEX
  8
PLAN_1
 62
     2
  6
CONTINUOUS
 10
-1.202917
 20
-0.344685
  0
VERTEX
  8
PLAN_1
 62
     2
  6
CONTINUOUS
 10
-1.203413
 20
-0.341228
  0
VERTEX
  8
PLAN_1
 62
     2
  6
CONTINUOUS
 10
-1.204398
 20
-0.337772
  0
VERTEX
  8
PLAN_1
 62
     2
  6
CONTINUOUS
 10
-1.205882
 20
-0.335303
  0
VERTEX
  8
PLAN_1
 62
     2
  6
CONTINUOUS
 10
-1.207854
 20
-0.332835
  0
VERTEX
  8
PLAN_1
 62
     2
  6
CONTINUOUS
 10
-1.209831
 20
-0.330858
  0
VERTEX
  8
PLAN_1
 62
     2
  6
CONTINUOUS
 10
-1.212795
 20
-0.329870
  0
VERTEX
  8
PLAN_1
 62
     2
  6
CONTINUOUS
 10
-1.215756
 20
-0.328886
  0
VERTEX
  8
PLAN_1
 62
     2
  6
CONTINUOUS
 10
-1.219213
 20
-0.328886
  0
VERTEX
  8
PLAN_1
 62
     2
  6
CONTINUOUS
 10
-1.221189
 20
-0.328886
  0
VERTEX
  8
PLAN_1
 62
     2
  6
CONTINUOUS
 10
-1.223165
 20
-0.328886
  0
VERTEX
  8
PLAN_1
 62
     2
  6
CONTINUOUS
 10
-1.224646
 20
-0.329870
  0
VERTEX
  8
PLAN_1
 62
     2
  6
CONTINUOUS
 10
-1.226622
 20
-0.330366
  0
VERTEX
  8
PLAN_1
 62
     2
  6
CONTINUOUS
 10
-1.228102
 20
-0.331354
  0
VERTEX
  8
PLAN_1
 62
     2
  6
CONTINUOUS
 10
-1.230079
 20
-0.332835
  0
VERTEX
  8
PLAN_1
 62
     2
  6
CONTINUOUS
 10
-1.231559
 20
-0.333823
  0
VERTEX
  8
PLAN_1
 62
     2
  6
CONTINUOUS
 10
-1.232547
 20
-0.335799
  0
VERTEX
  8
PLAN_1
 62
     2
  6
CONTINUOUS
 10
-1.240449
 20
-0.335303
  0
VERTEX
  8
PLAN_1
 62
     2
  6
CONTINUOUS
 10
-1.235016
 20
-0.295799
  0
VERTEX
  8
PLAN_1
 62
     2
  6
CONTINUOUS
 10
-1.196992
 20
-0.295799
  0
VERTEX
  8
PLAN_1
 62
     2
  6
CONTINUOUS
 10
-1.196992
 20
-0.304685
  0
VERTEX
  8
PLAN_1
 62
     2
  6
CONTINUOUS
 10
-1.228102
 20
-0.304685
  0
VERTEX
  8
PLAN_1
 62
     2
  6
CONTINUOUS
 10
-1.231067
 20
-0.324933
  0
SEQEND
  8
0
  0
POLYLINE
  8
PLAN_1
 62
     2
  6
CONTINUOUS
 66
     1
 40
0.003000
 41
0.003000
  0
VERTEX
  8
PLAN_1
 62
     2
  6
CONTINUOUS
 10
-1.173287
 20
-0.324933
  0
VERTEX
  8
PLAN_1
 62
     2
  6
CONTINUOUS
 10
-1.172303
 20
-0.323945
  0
VERTEX
  8
PLAN_1
 62
     2
  6
CONTINUOUS
 10
-1.170819
 20
-0.323453
  0
VERTEX
  8
PLAN_1
 62
     2
  6
CONTINUOUS
 10
-1.169339
 20
-0.322465
  0
VERTEX
  8
PLAN_1
 62
     2
  6
CONTINUOUS
 10
-1.167858
 20
-0.321972
  0
VERTEX
  8
PLAN_1
 62
     2
  6
CONTINUOUS
 10
-1.165882
 20
-0.321476
  0
VERTEX
  8
PLAN_1
 62
     2
  6
CONTINUOUS
 10
-1.163906
 20
-0.320984
  0
VERTEX
  8
PLAN_1
 62
     2
  6
CONTINUOUS
 10
-1.161437
 20
-0.320488
  0
VERTEX
  8
PLAN_1
 62
     2
  6
CONTINUOUS
 10
-1.159461
 20
-0.320488
  0
VERTEX
  8
PLAN_1
 62
     2
  6
CONTINUOUS
 10
-1.155020
 20
-0.320984
  0
VERTEX
  8
PLAN_1
 62
     2
  6
CONTINUOUS
 10
-1.150575
 20
-0.321972
  0
VERTEX
  8
PLAN_1
 62
     2
  6
CONTINUOUS
 10
-1.146622
 20
-0.323945
  0
VERTEX
  8
PLAN_1
 62
     2
  6
CONTINUOUS
 10
-1.142673
 20
-0.326413
  0
VERTEX
  8
PLAN_1
 62
     2
  6
CONTINUOUS
 10
-1.139709
 20
-0.329870
  0
VERTEX
  8
PLAN_1
 62
     2
  6
CONTINUOUS
 10
-1.137240
 20
-0.333823
  0
VERTEX
  8
PLAN_1
 62
     2
  6
CONTINUOUS
 10
-1.136252
 20
-0.336291
  0
VERTEX
  8
PLAN_1
 62
     2
  6
CONTINUOUS
 10
-1.135760
 20
-0.338268
  0
VERTEX
  8
PLAN_1
 62
     2
  6
CONTINUOUS
 10
-1.135264
 20
-0.341228
  0
VERTEX
  8
PLAN_1
 62
     2
  6
CONTINUOUS
 10
-1.135264
 20
-0.343697
  0
VERTEX
  8
PLAN_1
 62
     2
  6
CONTINUOUS
 10
-1.135264
 20
-0.347154
  0
VERTEX
  8
PLAN_1
 62
     2
  6
CONTINUOUS
 10
-1.136252
 20
-0.351106
  0
VERTEX
  8
PLAN_1
 62
     2
  6
CONTINUOUS
 10
-1.137736
 20
-0.355551
  0
VERTEX
  8
PLAN_1
 62
     2
  6
CONTINUOUS
 10
-1.139709
 20
-0.359500
  0
VERTEX
  8
PLAN_1
 62
     2
  6
CONTINUOUS
 10
-1.141685
 20
-0.361476
  0
VERTEX
  8
PLAN_1
 62
     2
  6
CONTINUOUS
 10
-1.143165
 20
-0.363453
  0
VERTEX
  8
PLAN_1
 62
     2
  6
CONTINUOUS
 10
-1.145634
 20
-0.365425
  0
VERTEX
  8
PLAN_1
 62
     2
  6
CONTINUOUS
 10
-1.148106
 20
-0.366909
  0
VERTEX
  8
PLAN_1
 62
     2
  6
CONTINUOUS
 10
-1.150575
 20
-0.367894
  0
VERTEX
  8
PLAN_1
 62
     2
  6
CONTINUOUS
 10
-1.154031
 20
-0.368882
  0
VERTEX
  8
PLAN_1
 62
     2
  6
CONTINUOUS
 10
-1.157488
 20
-0.369378
  0
VERTEX
  8
PLAN_1
 62
     2
  6
CONTINUOUS
 10
-1.161933
 20
-0.369378
  0
VERTEX
  8
PLAN_1
 62
     2
  6
CONTINUOUS
 10
-1.165390
 20
-0.369378
  0
VERTEX
  8
PLAN_1
 62
     2
  6
CONTINUOUS
 10
-1.169339
 20
-0.368882
  0
VERTEX
  8
PLAN_1
 62
     2
  6
CONTINUOUS
 10
-1.172795
 20
-0.367402
  0
VERTEX
  8
PLAN_1
 62
     2
  6
CONTINUOUS
 10
-1.176252
 20
-0.365425
  0
VERTEX
  8
PLAN_1
 62
     2
  6
CONTINUOUS
 10
-1.178228
 20
-0.364437
  0
VERTEX
  8
PLAN_1
 62
     2
  6
CONTINUOUS
 10
-1.179709
 20
-0.362957
  0
VERTEX
  8
PLAN_1
 62
     2
  6
CONTINUOUS
 10
-1.181189
 20
-0.361476
  0
VERTEX
  8
PLAN_1
 62
     2
  6
CONTINUOUS
 10
-1.182177
 20
-0.359500
  0
VERTEX
  8
PLAN_1
 62
     2
  6
CONTINUOUS
 10
-1.183165
 20
-0.357524
  0
VERTEX
  8
PLAN_1
 62
     2
  6
CONTINUOUS
 10
-1.184154
 20
-0.355055
  0
VERTEX
  8
PLAN_1
 62
     2
  6
CONTINUOUS
 10
-1.185142
 20
-0.352094
  0
VERTEX
  8
PLAN_1
 62
     2
  6
CONTINUOUS
 10
-1.185142
 20
-0.349130
  0
VERTEX
  8
PLAN_1
 62
     2
  6
CONTINUOUS
 10
-1.175760
 20
-0.349130
  0
VERTEX
  8
PLAN_1
 62
     2
  6
CONTINUOUS
 10
-1.175264
 20
-0.352094
  0
VERTEX
  8
PLAN_1
 62
     2
  6
CONTINUOUS
 10
-1.174276
 20
-0.355055
  0
VERTEX
  8
PLAN_1
 62
     2
  6
CONTINUOUS
 10
-1.172795
 20
-0.357031
  0
VERTEX
  8
PLAN_1
 62
     2
  6
CONTINUOUS
 10
-1.170819
 20
-0.358512
  0
VERTEX
  8
PLAN_1
 62
     2
  6
CONTINUOUS
 10
-1.168846
 20
-0.359996
  0
VERTEX
  8
PLAN_1
 62
     2
  6
CONTINUOUS
 10
-1.166374
 20
-0.360980
  0
VERTEX
  8
PLAN_1
 62
     2
  6
CONTINUOUS
 10
-1.163413
 20
-0.361476
  0
VERTEX
  8
PLAN_1
 62
     2
  6
CONTINUOUS
 10
-1.160449
 20
-0.361476
  0
VERTEX
  8
PLAN_1
 62
     2
  6
CONTINUOUS
 10
-1.156992
 20
-0.361476
  0
VERTEX
  8
PLAN_1
 62
     2
  6
CONTINUOUS
 10
-1.154031
 20
-0.360488
  0
VERTEX
  8
PLAN_1
 62
     2
  6
CONTINUOUS
 10
-1.151563
 20
-0.358512
  0
VERTEX
  8
PLAN_1
 62
     2
  6
CONTINUOUS
 10
-1.149091
 20
-0.356539
  0
VERTEX
  8
PLAN_1
 62
     2
  6
CONTINUOUS
 10
-1.147610
 20
-0.354067
  0
VERTEX
  8
PLAN_1
 62
     2
  6
CONTINUOUS
 10
-1.146130
 20
-0.351598
  0
VERTEX
  8
PLAN_1
 62
     2
  6
CONTINUOUS
 10
-1.145142
 20
-0.348142
  0
VERTEX
  8
PLAN_1
 62
     2
  6
CONTINUOUS
 10
-1.145142
 20
-0.344685
  0
VERTEX
  8
PLAN_1
 62
     2
  6
CONTINUOUS
 10
-1.145142
 20
-0.341228
  0
VERTEX
  8
PLAN_1
 62
     2
  6
CONTINUOUS
 10
-1.146130
 20
-0.337772
  0
VERTEX
  8
PLAN_1
 62
     2
  6
CONTINUOUS
 10
-1.147610
 20
-0.335303
  0
VERTEX
  8
PLAN_1
 62
     2
  6
CONTINUOUS
 10
-1.149587
 20
-0.332835
  0
VERTEX
  8
PLAN_1
 62
     2
  6
CONTINUOUS
 10
-1.152055
 20
-0.330858
  0
VERTEX
  8
PLAN_1
 62
     2
  6
CONTINUOUS
 10
-1.155020
 20
-0.329870
  0
VERTEX
  8
PLAN_1
 62
     2
  6
CONTINUOUS
 10
-1.157980
 20
-0.328886
  0
VERTEX
  8
PLAN_1
 62
     2
  6
CONTINUOUS
 10
-1.161437
 20
-0.328886
  0
VERTEX
  8
PLAN_1
 62
     2
  6
CONTINUOUS
 10
-1.163413
 20
-0.328886
  0
VERTEX
  8
PLAN_1
 62
     2
  6
CONTINUOUS
 10
-1.164894
 20
-0.328886
  0
VERTEX
  8
PLAN_1
 62
     2
  6
CONTINUOUS
 10
-1.166870
 20
-0.329870
  0
VERTEX
  8
PLAN_1
 62
     2
  6
CONTINUOUS
 10
-1.168846
 20
-0.330366
  0
VERTEX
  8
PLAN_1
 62
     2
  6
CONTINUOUS
 10
-1.170327
 20
-0.331354
  0
VERTEX
  8
PLAN_1
 62
     2
  6
CONTINUOUS
 10
-1.171807
 20
-0.332835
  0
VERTEX
  8
PLAN_1
 62
     2
  6
CONTINUOUS
 10
-1.173287
 20
-0.333823
  0
VERTEX
  8
PLAN_1
 62
     2
  6
CONTINUOUS
 10
-1.174772
 20
-0.335799
  0
VERTEX
  8
PLAN_1
 62
     2
  6
CONTINUOUS
 10
-1.182673
 20
-0.335303
  0
VERTEX
  8
PLAN_1
 62
     2
  6
CONTINUOUS
 10
-1.177240
 20
-0.295799
  0
VERTEX
  8
PLAN_1
 62
     2
  6
CONTINUOUS
 10
-1.139217
 20
-0.295799
  0
VERTEX
  8
PLAN_1
 62
     2
  6
CONTINUOUS
 10
-1.139217
 20
-0.304685
  0
VERTEX
  8
PLAN_1
 62
     2
  6
CONTINUOUS
 10
-1.170327
 20
-0.304685
  0
VERTEX
  8
PLAN_1
 62
     2
  6
CONTINUOUS
 10
-1.173287
 20
-0.324933
  0
SEQEND
  8
0
  0
POLYLINE
  8
PLAN_1
 62
     2
  6
CONTINUOUS
 66
     1
 40
0.003000
 41
0.003000
  0
VERTEX
  8
PLAN_1
 62
     2
  6
CONTINUOUS
 10
-1.041933
 20
3.920382
  0
VERTEX
  8
PLAN_1
 62
     2
  6
CONTINUOUS
 10
-1.040949
 20
3.921370
  0
VERTEX
  8
PLAN_1
 62
     2
  6
CONTINUOUS
 10
-1.039465
 20
3.922358
  0
VERTEX
  8
PLAN_1
 62
     2
  6
CONTINUOUS
 10
-1.037984
 20
3.922854
  0
VERTEX
  8
PLAN_1
 62
     2
  6
CONTINUOUS
 10
-1.036008
 20
3.923839
  0
VERTEX
  8
PLAN_1
 62
     2
  6
CONTINUOUS
 10
-1.034528
 20
3.924335
  0
VERTEX
  8
PLAN_1
 62
     2
  6
CONTINUOUS
 10
-1.032551
 20
3.924827
  0
VERTEX
  8
PLAN_1
 62
     2
  6
CONTINUOUS
 10
-1.030083
 20
3.924827
  0
VERTEX
  8
PLAN_1
 62
     2
  6
CONTINUOUS
 10
-1.027614
 20
3.924827
  0
VERTEX
  8
PLAN_1
 62
     2
  6
CONTINUOUS
 10
-1.023169
 20
3.924827
  0
VERTEX
  8
PLAN_1
 62
     2
  6
CONTINUOUS
 10
-1.019220
 20
3.923346
  0
VERTEX
  8
PLAN_1
 62
     2
  6
CONTINUOUS
 10
-1.014776
 20
3.921370
  0
VERTEX
  8
PLAN_1
 62
     2
  6
CONTINUOUS
 10
-1.011319
 20
3.918902
  0
VERTEX
  8
PLAN_1
 62
     2
  6
CONTINUOUS
 10
-1.008354
 20
3.915445
  0
VERTEX
  8
PLAN_1
 62
     2
  6
CONTINUOUS
 10
-1.005886
 20
3.911496
  0
VERTEX
  8
PLAN_1
 62
     2
  6
CONTINUOUS
 10
-1.004898
 20
3.909520
  0
VERTEX
  8
PLAN_1
 62
     2
  6
CONTINUOUS
 10
-1.004406
 20
3.907051
  0
VERTEX
  8
PLAN_1
 62
     2
  6
CONTINUOUS
 10
-1.003909
 20
3.904087
  0
VERTEX
  8
PLAN_1
 62
     2
  6
CONTINUOUS
 10
-1.003909
 20
3.901618
  0
VERTEX
  8
PLAN_1
 62
     2
  6
CONTINUOUS
 10
-1.003909
 20
3.898161
  0
VERTEX
  8
PLAN_1
 62
     2
  6
CONTINUOUS
 10
-1.004898
 20
3.894213
  0
VERTEX
  8
PLAN_1
 62
     2
  6
CONTINUOUS
 10
-1.006382
 20
3.889768
  0
VERTEX
  8
PLAN_1
 62
     2
  6
CONTINUOUS
 10
-1.008354
 20
3.885815
  0
VERTEX
  8
PLAN_1
 62
     2
  6
CONTINUOUS
 10
-1.009839
 20
3.883843
  0
VERTEX
  8
PLAN_1
 62
     2
  6
CONTINUOUS
 10
-1.011811
 20
3.881866
  0
VERTEX
  8
PLAN_1
 62
     2
  6
CONTINUOUS
 10
-1.013787
 20
3.880386
  0
VERTEX
  8
PLAN_1
 62
     2
  6
CONTINUOUS
 10
-1.016256
 20
3.878902
  0
VERTEX
  8
PLAN_1
 62
     2
  6
CONTINUOUS
 10
-1.019220
 20
3.877421
  0
VERTEX
  8
PLAN_1
 62
     2
  6
CONTINUOUS
 10
-1.022677
 20
3.876433
  0
VERTEX
  8
PLAN_1
 62
     2
  6
CONTINUOUS
 10
-1.026134
 20
3.875941
  0
VERTEX
  8
PLAN_1
 62
     2
  6
CONTINUOUS
 10
-1.030083
 20
3.875941
  0
VERTEX
  8
PLAN_1
 62
     2
  6
CONTINUOUS
 10
-1.034035
 20
3.875941
  0
VERTEX
  8
PLAN_1
 62
     2
  6
CONTINUOUS
 10
-1.037984
 20
3.876929
  0
VERTEX
  8
PLAN_1
 62
     2
  6
CONTINUOUS
 10
-1.041441
 20
3.877917
  0
VERTEX
  8
PLAN_1
 62
     2
  6
CONTINUOUS
 10
-1.044898
 20
3.879890
  0
VERTEX
  8
PLAN_1
 62
     2
  6
CONTINUOUS
 10
-1.046874
 20
3.880878
  0
VERTEX
  8
PLAN_1
 62
     2
  6
CONTINUOUS
 10
-1.048354
 20
3.882358
  0
VERTEX
  8
PLAN_1
 62
     2
  6
CONTINUOUS
 10
-1.049835
 20
3.884335
  0
VERTEX
  8
PLAN_1
 62
     2
  6
CONTINUOUS
 10
-1.050823
 20
3.885815
  0
VERTEX
  8
PLAN_1
 62
     2
  6
CONTINUOUS
 10
-1.051811
 20
3.888287
  0
VERTEX
  8
PLAN_1
 62
     2
  6
CONTINUOUS
 10
-1.052799
 20
3.890260
  0
VERTEX
  8
PLAN_1
 62
     2
  6
CONTINUOUS
 10
-1.053291
 20
3.893224
  0
VERTEX
  8
PLAN_1
 62
     2
  6
CONTINUOUS
 10
-1.053787
 20
3.896185
  0
VERTEX
  8
PLAN_1
 62
     2
  6
CONTINUOUS
 10
-1.044406
 20
3.896185
  0
VERTEX
  8
PLAN_1
 62
     2
  6
CONTINUOUS
 10
-1.043909
 20
3.893224
  0
VERTEX
  8
PLAN_1
 62
     2
  6
CONTINUOUS
 10
-1.042921
 20
3.890756
  0
VERTEX
  8
PLAN_1
 62
     2
  6
CONTINUOUS
 10
-1.041441
 20
3.888287
  0
VERTEX
  8
PLAN_1
 62
     2
  6
CONTINUOUS
 10
-1.039465
 20
3.886803
  0
VERTEX
  8
PLAN_1
 62
     2
  6
CONTINUOUS
 10
-1.036996
 20
3.885323
  0
VERTEX
  8
PLAN_1
 62
     2
  6
CONTINUOUS
 10
-1.034528
 20
3.884335
  0
VERTEX
  8
PLAN_1
 62
     2
  6
CONTINUOUS
 10
-1.032059
 20
3.883843
  0
VERTEX
  8
PLAN_1
 62
     2
  6
CONTINUOUS
 10
-1.029094
 20
3.883843
  0
VERTEX
  8
PLAN_1
 62
     2
  6
CONTINUOUS
 10
-1.025638
 20
3.884335
  0
VERTEX
  8
PLAN_1
 62
     2
  6
CONTINUOUS
 10
-1.022677
 20
3.885323
  0
VERTEX
  8
PLAN_1
 62
     2
  6
CONTINUOUS
 10
-1.019713
 20
3.886803
  0
VERTEX
  8
PLAN_1
 62
     2
  6
CONTINUOUS
 10
-1.017736
 20
3.888780
  0
VERTEX
  8
PLAN_1
 62
     2
  6
CONTINUOUS
 10
-1.015764
 20
3.891248
  0
VERTEX
  8
PLAN_1
 62
     2
  6
CONTINUOUS
 10
-1.014776
 20
3.894213
  0
VERTEX
  8
PLAN_1
 62
     2
  6
CONTINUOUS
 10
-1.013787
 20
3.897173
  0
VERTEX
  8
PLAN_1
 62
     2
  6
CONTINUOUS
 10
-1.013787
 20
3.900630
  0
VERTEX
  8
PLAN_1
 62
     2
  6
CONTINUOUS
 10
-1.013787
 20
3.904087
  0
VERTEX
  8
PLAN_1
 62
     2
  6
CONTINUOUS
 10
-1.014776
 20
3.907543
  0
VERTEX
  8
PLAN_1
 62
     2
  6
CONTINUOUS
 10
-1.016256
 20
3.910508
  0
VERTEX
  8
PLAN_1
 62
     2
  6
CONTINUOUS
 10
-1.018232
 20
3.912484
  0
VERTEX
  8
PLAN_1
 62
     2
  6
CONTINUOUS
 10
-1.020701
 20
3.914457
  0
VERTEX
  8
PLAN_1
 62
     2
  6
CONTINUOUS
 10
-1.023665
 20
3.915941
  0
VERTEX
  8
PLAN_1
 62
     2
  6
CONTINUOUS
 10
-1.026626
 20
3.916433
  0
VERTEX
  8
PLAN_1
 62
     2
  6
CONTINUOUS
 10
-1.029591
 20
3.916925
  0
VERTEX
  8
PLAN_1
 62
     2
  6
CONTINUOUS
 10
-1.031563
 20
3.916433
  0
VERTEX
  8
PLAN_1
 62
     2
  6
CONTINUOUS
 10
-1.033539
 20
3.916433
  0
VERTEX
  8
PLAN_1
 62
     2
  6
CONTINUOUS
 10
-1.035516
 20
3.915941
  0
VERTEX
  8
PLAN_1
 62
     2
  6
CONTINUOUS
 10
-1.037492
 20
3.914953
  0
VERTEX
  8
PLAN_1
 62
     2
  6
CONTINUOUS
 10
-1.038972
 20
3.913965
  0
VERTEX
  8
PLAN_1
 62
     2
  6
CONTINUOUS
 10
-1.040453
 20
3.912976
  0
VERTEX
  8
PLAN_1
 62
     2
  6
CONTINUOUS
 10
-1.041933
 20
3.911496
  0
VERTEX
  8
PLAN_1
 62
     2
  6
CONTINUOUS
 10
-1.043417
 20
3.910012
  0
VERTEX
  8
PLAN_1
 62
     2
  6
CONTINUOUS
 10
-1.051319
 20
3.910012
  0
VERTEX
  8
PLAN_1
 62
     2
  6
CONTINUOUS
 10
-1.045886
 20
3.949520
  0
VERTEX
  8
PLAN_1
 62
     2
  6
CONTINUOUS
 10
-1.007862
 20
3.949520
  0
VERTEX
  8
PLAN_1
 62
     2
  6
CONTINUOUS
 10
-1.007862
 20
3.940630
  0
VERTEX
  8
PLAN_1
 62
     2
  6
CONTINUOUS
 10
-1.038972
 20
3.940630
  0
VERTEX
  8
PLAN_1
 62
     2
  6
CONTINUOUS
 10
-1.041933
 20
3.920382
  0
SEQEND
  8
0
  0
POLYLINE
  8
PLAN_1
 62
     2
  6
CONTINUOUS
 66
     1
 40
0.003000
 41
0.003000
  0
VERTEX
  8
PLAN_1
 62
     2
  6
CONTINUOUS
 10
-0.961937
 20
3.877917
  0
VERTEX
  8
PLAN_1
 62
     2
  6
CONTINUOUS
 10
-0.971815
 20
3.877917
  0
VERTEX
  8
PLAN_1
 62
     2
  6
CONTINUOUS
 10
-0.971815
 20
3.929768
  0
VERTEX
  8
PLAN_1
 62
     2
  6
CONTINUOUS
 10
-0.988602
 20
3.929768
  0
VERTEX
  8
PLAN_1
 62
     2
  6
CONTINUOUS
 10
-0.988602
 20
3.937173
  0
VERTEX
  8
PLAN_1
 62
     2
  6
CONTINUOUS
 10
-0.984654
 20
3.937173
  0
VERTEX
  8
PLAN_1
 62
     2
  6
CONTINUOUS
 10
-0.981197
 20
3.937665
  0
VERTEX
  8
PLAN_1
 62
     2
  6
CONTINUOUS
 10
-0.978232
 20
3.938654
  0
VERTEX
  8
PLAN_1
 62
     2
  6
CONTINUOUS
 10
-0.975764
 20
3.939642
  0
VERTEX
  8
PLAN_1
 62
     2
  6
CONTINUOUS
 10
-0.973787
 20
3.941618
  0
VERTEX
  8
PLAN_1
 62
     2
  6
CONTINUOUS
 10
-0.971815
 20
3.944087
  0
VERTEX
  8
PLAN_1
 62
     2
  6
CONTINUOUS
 10
-0.970331
 20
3.947051
  0
VERTEX
  8
PLAN_1
 62
     2
  6
CONTINUOUS
 10
-0.969343
 20
3.951000
  0
VERTEX
  8
PLAN_1
 62
     2
  6
CONTINUOUS
 10
-0.961937
 20
3.951000
  0
VERTEX
  8
PLAN_1
 62
     2
  6
CONTINUOUS
 10
-0.961937
 20
3.877917
  0
SEQEND
  8
0
  0
POLYLINE
  8
PLAN_1
 62
     2
  6
CONTINUOUS
 66
     1
 40
0.003949
 41
0.003949
  0
VERTEX
  8
PLAN_1
 62
     2
  6
CONTINUOUS
 10
-1.891787
 20
3.721870
  0
VERTEX
  8
PLAN_1
 62
     2
  6
CONTINUOUS
 10
-1.891787
 20
3.877917
  0
SEQEND
  8
0
  0
POLYLINE
  8
PLAN_1
 62
     2
  6
CONTINUOUS
 66
     1
 40
0.003949
 41
0.003949
  0
VERTEX
  8
PLAN_1
 62
     2
  6
CONTINUOUS
 10
-0.106650
 20
1.813776
  0
VERTEX
  8
PLAN_1
 62
     2
  6
CONTINUOUS
 10
-0.106650
 20
3.877917
  0
SEQEND
  8
0
  0
ENDSEC
  0
EOF
