  0
SECTION
  2
HEADER
  9
$ACADVER
  1
AC1006
  9
$EXTMIN
 10
-2.183000
 20
-3.234000
  9
$EXTMAX
 10
2.182500
 20
3.240000
  9
$LTSCALE
 40
0.000394
  9
$PDMODE
 70
    35
  9
$PDSIZE
 40
0.000315
  0
ENDSEC
  0
SECTION
  2
TABLES
  0
TABLE
  2
LTYPE
 70
     9
  0
LTYPE
  2
CONTINUOUS
 70
    64
  3
Solid line
 72
    65
 73
     0
 40
0.000000
  0
LTYPE
  2
DASHED
 70
    64
  3
__ __ __ __ __ __ __ __ __ __ __ __ __ __ __
 72
    65
 73
     2
 40
0.000003
 49
0.000002
 49
-0.000001
  0
LTYPE
  2
HIDDEN
 70
    64
  3
 _ _ _ _ _ _ _ _ _ _ _ _ _ _ _ _ _ _ _ _ _ _
 72
    65
 73
     2
 40
0.000001
 49
0.000001
 49
-0.000000
  0
LTYPE
  2
CENTER
 70
    64
  3
____ _ ____ _ ____ _ ____ _ ____ _ ____ _ ____
 72
    65
 73
     4
 40
0.000008
 49
0.000005
 49
-0.000001
 49
0.000001
 49
-0.000001
  0
LTYPE
  2
PHANTOM
 70
    64
  3
_____ _ _ _____ _ _ _____ _ _ _____ _ _ ____
 72
    65
 73
     6
 40
0.000010
 49
0.000005
 49
-0.000001
 49
0.000001
 49
-0.000001
 49
0.000001
 49
-0.000001
  0
LTYPE
  2
DOT
 70
    64
  3
...............................................
 72
    65
 73
     2
 40
0.000001
 49
0.000000
 49
-0.000001
  0
LTYPE
  2
DASHDOT
 70
    64
  3
__ . __ . __ . __ . __ . __ . __ . __ . __ . __
 72
    65
 73
     4
 40
0.000004
 49
0.000002
 49
-0.000001
 49
0.000000
 49
-0.000001
  0
LTYPE
  2
BORDER
 70
    64
  3
__ __ . __ __ . __ __ . __ __ . __ __ . __ __
 72
    65
 73
     6
 40
0.000007
 49
0.000002
 49
-0.000001
 49
0.000002
 49
-0.000001
 49
0.000000
 49
-0.000001
  0
LTYPE
  2
DIVIDE
 70
    64
  3
__ . . __ . . __ . . __ . . __ . . __ . . __
 72
    65
 73
     6
 40
0.000005
 49
0.000002
 49
-0.000001
 49
0.000000
 49
-0.000001
 49
0.000000
 49
-0.000001
  0
LTYPE
  2
DOTDOT
 70
    64
  3
 . .  . .  . .  . .  . .  . . 
 72
    65
 73
     5
 40
0.000002
 49
-0.000001
 49
0.000000
 49
-0.000001
 49
0.000000
 49
-0.000001
  0
ENDTAB
  0
TABLE
  2
STYLE
 70
     0
  0
ENDTAB
  0
TABLE
  2
LAYER
 70
     3
  0
LAYER
  2
FOREGROUND
 70
    64
 62
     7
  6
CONTINUOUS
  0
LAYER
  2
BACKGROUND
 70
    65
 62
    -7
  6
CONTINUOUS
  0
LAYER
  2
PLAN_1
 70
    64
 62
     7
  6
CONTINUOUS
  0
ENDTAB
  0
ENDSEC
  0
SECTION
  2
ENTITIES
  0
POLYLINE
  8
PLAN_1
  6
CONTINUOUS
 66
     1
 40
0.003000
 41
0.003000
  0
VERTEX
  8
PLAN_1
  6
CONTINUOUS
 10
0.379087
 20
-3.228740
  0
VERTEX
  8
PLAN_1
  6
CONTINUOUS
 10
0.222091
 20
-3.228740
  0
VERTEX
  8
PLAN_1
  6
CONTINUOUS
 10
0.222091
 20
-3.206083
  0
VERTEX
  8
PLAN_1
  6
CONTINUOUS
 10
0.344287
 20
-3.053134
  0
VERTEX
  8
PLAN_1
  6
CONTINUOUS
 10
0.231398
 20
-3.053134
  0
VERTEX
  8
PLAN_1
  6
CONTINUOUS
 10
0.231398
 20
-3.029260
  0
VERTEX
  8
PLAN_1
  6
CONTINUOUS
 10
0.379087
 20
-3.029260
  0
VERTEX
  8
PLAN_1
  6
CONTINUOUS
 10
0.379087
 20
-3.052728
  0
VERTEX
  8
PLAN_1
  6
CONTINUOUS
 10
0.256484
 20
-3.204866
  0
VERTEX
  8
PLAN_1
  6
CONTINUOUS
 10
0.379087
 20
-3.204866
  0
VERTEX
  8
PLAN_1
  6
CONTINUOUS
 10
0.379087
 20
-3.228740
  0
SEQEND
  8
0
  0
POLYLINE
  8
PLAN_1
  6
CONTINUOUS
 66
     1
 40
0.003000
 41
0.003000
  0
VERTEX
  8
PLAN_1
  6
CONTINUOUS
 10
0.546197
 20
-3.089547
  0
VERTEX
  8
PLAN_1
  6
CONTINUOUS
 10
0.544579
 20
-3.083075
  0
VERTEX
  8
PLAN_1
  6
CONTINUOUS
 10
0.542555
 20
-3.077409
  0
VERTEX
  8
PLAN_1
  6
CONTINUOUS
 10
0.540126
 20
-3.072555
  0
VERTEX
  8
PLAN_1
  6
CONTINUOUS
 10
0.537295
 20
-3.068102
  0
VERTEX
  8
PLAN_1
  6
CONTINUOUS
 10
0.534055
 20
-3.064461
  0
VERTEX
  8
PLAN_1
  6
CONTINUOUS
 10
0.530413
 20
-3.060819
  0
VERTEX
  8
PLAN_1
  6
CONTINUOUS
 10
0.526772
 20
-3.057988
  0
VERTEX
  8
PLAN_1
  6
CONTINUOUS
 10
0.522728
 20
-3.055559
  0
VERTEX
  8
PLAN_1
  6
CONTINUOUS
 10
0.518681
 20
-3.053535
  0
VERTEX
  8
PLAN_1
  6
CONTINUOUS
 10
0.514634
 20
-3.051917
  0
VERTEX
  8
PLAN_1
  6
CONTINUOUS
 10
0.510591
 20
-3.050705
  0
VERTEX
  8
PLAN_1
  6
CONTINUOUS
 10
0.506543
 20
-3.049492
  0
VERTEX
  8
PLAN_1
  6
CONTINUOUS
 10
0.498043
 20
-3.048276
  0
VERTEX
  8
PLAN_1
  6
CONTINUOUS
 10
0.490764
 20
-3.047874
  0
VERTEX
  8
PLAN_1
  6
CONTINUOUS
 10
0.483882
 20
-3.048276
  0
VERTEX
  8
PLAN_1
  6
CONTINUOUS
 10
0.477409
 20
-3.049087
  0
VERTEX
  8
PLAN_1
  6
CONTINUOUS
 10
0.471339
 20
-3.050705
  0
VERTEX
  8
PLAN_1
  6
CONTINUOUS
 10
0.465272
 20
-3.053134
  0
VERTEX
  8
PLAN_1
  6
CONTINUOUS
 10
0.459606
 20
-3.055965
  0
VERTEX
  8
PLAN_1
  6
CONTINUOUS
 10
0.453941
 20
-3.059201
  0
VERTEX
  8
PLAN_1
  6
CONTINUOUS
 10
0.449087
 20
-3.063248
  0
VERTEX
  8
PLAN_1
  6
CONTINUOUS
 10
0.444634
 20
-3.068102
  0
VERTEX
  8
PLAN_1
  6
CONTINUOUS
 10
0.440185
 20
-3.073362
  0
VERTEX
  8
PLAN_1
  6
CONTINUOUS
 10
0.436543
 20
-3.079028
  0
VERTEX
  8
PLAN_1
  6
CONTINUOUS
 10
0.433307
 20
-3.085504
  0
VERTEX
  8
PLAN_1
  6
CONTINUOUS
 10
0.430472
 20
-3.092787
  0
VERTEX
  8
PLAN_1
  6
CONTINUOUS
 10
0.428449
 20
-3.100472
  0
VERTEX
  8
PLAN_1
  6
CONTINUOUS
 10
0.426831
 20
-3.108567
  0
VERTEX
  8
PLAN_1
  6
CONTINUOUS
 10
0.425618
 20
-3.117469
  0
VERTEX
  8
PLAN_1
  6
CONTINUOUS
 10
0.425213
 20
-3.127177
  0
VERTEX
  8
PLAN_1
  6
CONTINUOUS
 10
0.425618
 20
-3.135677
  0
VERTEX
  8
PLAN_1
  6
CONTINUOUS
 10
0.426024
 20
-3.144173
  0
VERTEX
  8
PLAN_1
  6
CONTINUOUS
 10
0.427236
 20
-3.152264
  0
VERTEX
  8
PLAN_1
  6
CONTINUOUS
 10
0.428854
 20
-3.159953
  0
VERTEX
  8
PLAN_1
  6
CONTINUOUS
 10
0.430878
 20
-3.167236
  0
VERTEX
  8
PLAN_1
  6
CONTINUOUS
 10
0.433307
 20
-3.174114
  0
VERTEX
  8
PLAN_1
  6
CONTINUOUS
 10
0.436138
 20
-3.180185
  0
VERTEX
  8
PLAN_1
  6
CONTINUOUS
 10
0.439780
 20
-3.186256
  0
VERTEX
  8
PLAN_1
  6
CONTINUOUS
 10
0.441803
 20
-3.189087
  0
VERTEX
  8
PLAN_1
  6
CONTINUOUS
 10
0.444228
 20
-3.191516
  0
VERTEX
  8
PLAN_1
  6
CONTINUOUS
 10
0.446252
 20
-3.193941
  0
VERTEX
  8
PLAN_1
  6
CONTINUOUS
 10
0.448681
 20
-3.196370
  0
VERTEX
  8
PLAN_1
  6
CONTINUOUS
 10
0.451512
 20
-3.198394
  0
VERTEX
  8
PLAN_1
  6
CONTINUOUS
 10
0.454346
 20
-3.200417
  0
VERTEX
  8
PLAN_1
  6
CONTINUOUS
 10
0.457177
 20
-3.202035
  0
VERTEX
  8
PLAN_1
  6
CONTINUOUS
 10
0.460413
 20
-3.203654
  0
VERTEX
  8
PLAN_1
  6
CONTINUOUS
 10
0.463654
 20
-3.205272
  0
VERTEX
  8
PLAN_1
  6
CONTINUOUS
 10
0.466890
 20
-3.206484
  0
VERTEX
  8
PLAN_1
  6
CONTINUOUS
 10
0.470531
 20
-3.207701
  0
VERTEX
  8
PLAN_1
  6
CONTINUOUS
 10
0.474579
 20
-3.208508
  0
VERTEX
  8
PLAN_1
  6
CONTINUOUS
 10
0.478220
 20
-3.209319
  0
VERTEX
  8
PLAN_1
  6
CONTINUOUS
 10
0.482669
 20
-3.209724
  0
VERTEX
  8
PLAN_1
  6
CONTINUOUS
 10
0.486717
 20
-3.210126
  0
VERTEX
  8
PLAN_1
  6
CONTINUOUS
 10
0.491571
 20
-3.210126
  0
VERTEX
  8
PLAN_1
  6
CONTINUOUS
 10
0.494807
 20
-3.210126
  0
VERTEX
  8
PLAN_1
  6
CONTINUOUS
 10
0.498449
 20
-3.209724
  0
VERTEX
  8
PLAN_1
  6
CONTINUOUS
 10
0.502496
 20
-3.208913
  0
VERTEX
  8
PLAN_1
  6
CONTINUOUS
 10
0.506543
 20
-3.208102
  0
VERTEX
  8
PLAN_1
  6
CONTINUOUS
 10
0.510591
 20
-3.206890
  0
VERTEX
  8
PLAN_1
  6
CONTINUOUS
 10
0.514634
 20
-3.204866
  0
VERTEX
  8
PLAN_1
  6
CONTINUOUS
 10
0.518681
 20
-3.202843
  0
VERTEX
  8
PLAN_1
  6
CONTINUOUS
 10
0.523134
 20
-3.200012
  0
VERTEX
  8
PLAN_1
  6
CONTINUOUS
 10
0.527177
 20
-3.196776
  0
VERTEX
  8
PLAN_1
  6
CONTINUOUS
 10
0.530819
 20
-3.193134
  0
VERTEX
  8
PLAN_1
  6
CONTINUOUS
 10
0.534461
 20
-3.188681
  0
VERTEX
  8
PLAN_1
  6
CONTINUOUS
 10
0.538102
 20
-3.183421
  0
VERTEX
  8
PLAN_1
  6
CONTINUOUS
 10
0.541339
 20
-3.177756
  0
VERTEX
  8
PLAN_1
  6
CONTINUOUS
 10
0.544173
 20
-3.171283
  0
VERTEX
  8
PLAN_1
  6
CONTINUOUS
 10
0.546197
 20
-3.163594
  0
VERTEX
  8
PLAN_1
  6
CONTINUOUS
 10
0.548220
 20
-3.155504
  0
VERTEX
  8
PLAN_1
  6
CONTINUOUS
 10
0.574520
 20
-3.155504
  0
VERTEX
  8
PLAN_1
  6
CONTINUOUS
 10
0.573307
 20
-3.162382
  0
VERTEX
  8
PLAN_1
  6
CONTINUOUS
 10
0.571685
 20
-3.168854
  0
VERTEX
  8
PLAN_1
  6
CONTINUOUS
 10
0.570067
 20
-3.174925
  0
VERTEX
  8
PLAN_1
  6
CONTINUOUS
 10
0.568047
 20
-3.180591
  0
VERTEX
  8
PLAN_1
  6
CONTINUOUS
 10
0.566024
 20
-3.185850
  0
VERTEX
  8
PLAN_1
  6
CONTINUOUS
 10
0.563594
 20
-3.190705
  0
VERTEX
  8
PLAN_1
  6
CONTINUOUS
 10
0.560764
 20
-3.195157
  0
VERTEX
  8
PLAN_1
  6
CONTINUOUS
 10
0.558335
 20
-3.199606
  0
VERTEX
  8
PLAN_1
  6
CONTINUOUS
 10
0.555504
 20
-3.203248
  0
VERTEX
  8
PLAN_1
  6
CONTINUOUS
 10
0.552264
 20
-3.206890
  0
VERTEX
  8
PLAN_1
  6
CONTINUOUS
 10
0.549028
 20
-3.210531
  0
VERTEX
  8
PLAN_1
  6
CONTINUOUS
 10
0.545791
 20
-3.213362
  0
VERTEX
  8
PLAN_1
  6
CONTINUOUS
 10
0.542555
 20
-3.216197
  0
VERTEX
  8
PLAN_1
  6
CONTINUOUS
 10
0.539319
 20
-3.218626
  0
VERTEX
  8
PLAN_1
  6
CONTINUOUS
 10
0.535677
 20
-3.221051
  0
VERTEX
  8
PLAN_1
  6
CONTINUOUS
 10
0.532437
 20
-3.223075
  0
VERTEX
  8
PLAN_1
  6
CONTINUOUS
 10
0.525154
 20
-3.226311
  0
VERTEX
  8
PLAN_1
  6
CONTINUOUS
 10
0.518681
 20
-3.229146
  0
VERTEX
  8
PLAN_1
  6
CONTINUOUS
 10
0.511803
 20
-3.230764
  0
VERTEX
  8
PLAN_1
  6
CONTINUOUS
 10
0.505732
 20
-3.232382
  0
VERTEX
  8
PLAN_1
  6
CONTINUOUS
 10
0.500067
 20
-3.233189
  0
VERTEX
  8
PLAN_1
  6
CONTINUOUS
 10
0.494807
 20
-3.233594
  0
VERTEX
  8
PLAN_1
  6
CONTINUOUS
 10
0.490764
 20
-3.234000
  0
VERTEX
  8
PLAN_1
  6
CONTINUOUS
 10
0.487122
 20
-3.234000
  0
VERTEX
  8
PLAN_1
  6
CONTINUOUS
 10
0.478622
 20
-3.233594
  0
VERTEX
  8
PLAN_1
  6
CONTINUOUS
 10
0.470531
 20
-3.232787
  0
VERTEX
  8
PLAN_1
  6
CONTINUOUS
 10
0.462035
 20
-3.230764
  0
VERTEX
  8
PLAN_1
  6
CONTINUOUS
 10
0.454346
 20
-3.228335
  0
VERTEX
  8
PLAN_1
  6
CONTINUOUS
 10
0.450299
 20
-3.226717
  0
VERTEX
  8
PLAN_1
  6
CONTINUOUS
 10
0.446252
 20
-3.224693
  0
VERTEX
  8
PLAN_1
  6
CONTINUOUS
 10
0.442610
 20
-3.222669
  0
VERTEX
  8
PLAN_1
  6
CONTINUOUS
 10
0.438969
 20
-3.220646
  0
VERTEX
  8
PLAN_1
  6
CONTINUOUS
 10
0.435327
 20
-3.218220
  0
VERTEX
  8
PLAN_1
  6
CONTINUOUS
 10
0.432091
 20
-3.215791
  0
VERTEX
  8
PLAN_1
  6
CONTINUOUS
 10
0.428854
 20
-3.212961
  0
VERTEX
  8
PLAN_1
  6
CONTINUOUS
 10
0.425618
 20
-3.209724
  0
VERTEX
  8
PLAN_1
  6
CONTINUOUS
 10
0.422382
 20
-3.206484
  0
VERTEX
  8
PLAN_1
  6
CONTINUOUS
 10
0.419547
 20
-3.202843
  0
VERTEX
  8
PLAN_1
  6
CONTINUOUS
 10
0.416717
 20
-3.199201
  0
VERTEX
  8
PLAN_1
  6
CONTINUOUS
 10
0.413882
 20
-3.195157
  0
VERTEX
  8
PLAN_1
  6
CONTINUOUS
 10
0.411457
 20
-3.191110
  0
VERTEX
  8
PLAN_1
  6
CONTINUOUS
 10
0.409433
 20
-3.186657
  0
VERTEX
  8
PLAN_1
  6
CONTINUOUS
 10
0.407004
 20
-3.181803
  0
VERTEX
  8
PLAN_1
  6
CONTINUOUS
 10
0.405386
 20
-3.176949
  0
VERTEX
  8
PLAN_1
  6
CONTINUOUS
 10
0.403362
 20
-3.171689
  0
VERTEX
  8
PLAN_1
  6
CONTINUOUS
 10
0.402150
 20
-3.166024
  0
VERTEX
  8
PLAN_1
  6
CONTINUOUS
 10
0.400531
 20
-3.160358
  0
VERTEX
  8
PLAN_1
  6
CONTINUOUS
 10
0.399720
 20
-3.154693
  0
VERTEX
  8
PLAN_1
  6
CONTINUOUS
 10
0.398913
 20
-3.148220
  0
VERTEX
  8
PLAN_1
  6
CONTINUOUS
 10
0.398102
 20
-3.141744
  0
VERTEX
  8
PLAN_1
  6
CONTINUOUS
 10
0.397697
 20
-3.134866
  0
VERTEX
  8
PLAN_1
  6
CONTINUOUS
 10
0.397697
 20
-3.127988
  0
VERTEX
  8
PLAN_1
  6
CONTINUOUS
 10
0.397697
 20
-3.122323
  0
VERTEX
  8
PLAN_1
  6
CONTINUOUS
 10
0.398102
 20
-3.116657
  0
VERTEX
  8
PLAN_1
  6
CONTINUOUS
 10
0.398508
 20
-3.111398
  0
VERTEX
  8
PLAN_1
  6
CONTINUOUS
 10
0.399315
 20
-3.105732
  0
VERTEX
  8
PLAN_1
  6
CONTINUOUS
 10
0.400126
 20
-3.100878
  0
VERTEX
  8
PLAN_1
  6
CONTINUOUS
 10
0.401339
 20
-3.095618
  0
VERTEX
  8
PLAN_1
  6
CONTINUOUS
 10
0.402555
 20
-3.090764
  0
VERTEX
  8
PLAN_1
  6
CONTINUOUS
 10
0.404173
 20
-3.085906
  0
VERTEX
  8
PLAN_1
  6
CONTINUOUS
 10
0.405791
 20
-3.081051
  0
VERTEX
  8
PLAN_1
  6
CONTINUOUS
 10
0.407409
 20
-3.076602
  0
VERTEX
  8
PLAN_1
  6
CONTINUOUS
 10
0.409433
 20
-3.072555
  0
VERTEX
  8
PLAN_1
  6
CONTINUOUS
 10
0.411858
 20
-3.068102
  0
VERTEX
  8
PLAN_1
  6
CONTINUOUS
 10
0.414287
 20
-3.064059
  0
VERTEX
  8
PLAN_1
  6
CONTINUOUS
 10
0.416717
 20
-3.060417
  0
VERTEX
  8
PLAN_1
  6
CONTINUOUS
 10
0.419547
 20
-3.056776
  0
VERTEX
  8
PLAN_1
  6
CONTINUOUS
 10
0.422382
 20
-3.053134
  0
VERTEX
  8
PLAN_1
  6
CONTINUOUS
 10
0.425618
 20
-3.049894
  0
VERTEX
  8
PLAN_1
  6
CONTINUOUS
 10
0.428854
 20
-3.046657
  0
VERTEX
  8
PLAN_1
  6
CONTINUOUS
 10
0.432091
 20
-3.043421
  0
VERTEX
  8
PLAN_1
  6
CONTINUOUS
 10
0.435732
 20
-3.040992
  0
VERTEX
  8
PLAN_1
  6
CONTINUOUS
 10
0.439374
 20
-3.038161
  0
VERTEX
  8
PLAN_1
  6
CONTINUOUS
 10
0.443421
 20
-3.035732
  0
VERTEX
  8
PLAN_1
  6
CONTINUOUS
 10
0.447469
 20
-3.033709
  0
VERTEX
  8
PLAN_1
  6
CONTINUOUS
 10
0.451512
 20
-3.031689
  0
VERTEX
  8
PLAN_1
  6
CONTINUOUS
 10
0.455965
 20
-3.030071
  0
VERTEX
  8
PLAN_1
  6
CONTINUOUS
 10
0.460413
 20
-3.028449
  0
VERTEX
  8
PLAN_1
  6
CONTINUOUS
 10
0.465272
 20
-3.027236
  0
VERTEX
  8
PLAN_1
  6
CONTINUOUS
 10
0.470126
 20
-3.026024
  0
VERTEX
  8
PLAN_1
  6
CONTINUOUS
 10
0.474980
 20
-3.025213
  0
VERTEX
  8
PLAN_1
  6
CONTINUOUS
 10
0.479839
 20
-3.024807
  0
VERTEX
  8
PLAN_1
  6
CONTINUOUS
 10
0.485098
 20
-3.024406
  0
VERTEX
  8
PLAN_1
  6
CONTINUOUS
 10
0.490764
 20
-3.024000
  0
VERTEX
  8
PLAN_1
  6
CONTINUOUS
 10
0.500067
 20
-3.024406
  0
VERTEX
  8
PLAN_1
  6
CONTINUOUS
 10
0.508567
 20
-3.025618
  0
VERTEX
  8
PLAN_1
  6
CONTINUOUS
 10
0.517063
 20
-3.027236
  0
VERTEX
  8
PLAN_1
  6
CONTINUOUS
 10
0.524346
 20
-3.029665
  0
VERTEX
  8
PLAN_1
  6
CONTINUOUS
 10
0.531630
 20
-3.032496
  0
VERTEX
  8
PLAN_1
  6
CONTINUOUS
 10
0.538102
 20
-3.036138
  0
VERTEX
  8
PLAN_1
  6
CONTINUOUS
 10
0.544173
 20
-3.039780
  0
VERTEX
  8
PLAN_1
  6
CONTINUOUS
 10
0.549433
 20
-3.044232
  0
VERTEX
  8
PLAN_1
  6
CONTINUOUS
 10
0.554287
 20
-3.049087
  0
VERTEX
  8
PLAN_1
  6
CONTINUOUS
 10
0.558335
 20
-3.053941
  0
VERTEX
  8
PLAN_1
  6
CONTINUOUS
 10
0.561976
 20
-3.059606
  0
VERTEX
  8
PLAN_1
  6
CONTINUOUS
 10
0.565213
 20
-3.065272
  0
VERTEX
  8
PLAN_1
  6
CONTINUOUS
 10
0.568047
 20
-3.070937
  0
VERTEX
  8
PLAN_1
  6
CONTINUOUS
 10
0.570067
 20
-3.077004
  0
VERTEX
  8
PLAN_1
  6
CONTINUOUS
 10
0.571283
 20
-3.083075
  0
VERTEX
  8
PLAN_1
  6
CONTINUOUS
 10
0.572496
 20
-3.089547
  0
VERTEX
  8
PLAN_1
  6
CONTINUOUS
 10
0.546197
 20
-3.089547
  0
SEQEND
  8
0
  0
POLYLINE
  8
PLAN_1
  6
CONTINUOUS
 66
     1
 40
0.003000
 41
0.003000
  0
VERTEX
  8
PLAN_1
  6
CONTINUOUS
 10
0.634000
 20
-3.228740
  0
VERTEX
  8
PLAN_1
  6
CONTINUOUS
 10
0.606890
 20
-3.228740
  0
VERTEX
  8
PLAN_1
  6
CONTINUOUS
 10
0.606890
 20
-3.029260
  0
VERTEX
  8
PLAN_1
  6
CONTINUOUS
 10
0.634000
 20
-3.029260
  0
VERTEX
  8
PLAN_1
  6
CONTINUOUS
 10
0.634000
 20
-3.125965
  0
VERTEX
  8
PLAN_1
  6
CONTINUOUS
 10
0.730705
 20
-3.029260
  0
VERTEX
  8
PLAN_1
  6
CONTINUOUS
 10
0.767524
 20
-3.029260
  0
VERTEX
  8
PLAN_1
  6
CONTINUOUS
 10
0.684579
 20
-3.109780
  0
VERTEX
  8
PLAN_1
  6
CONTINUOUS
 10
0.769953
 20
-3.228740
  0
VERTEX
  8
PLAN_1
  6
CONTINUOUS
 10
0.734752
 20
-3.228740
  0
VERTEX
  8
PLAN_1
  6
CONTINUOUS
 10
0.665154
 20
-3.128799
  0
VERTEX
  8
PLAN_1
  6
CONTINUOUS
 10
0.634000
 20
-3.158740
  0
VERTEX
  8
PLAN_1
  6
CONTINUOUS
 10
0.634000
 20
-3.228740
  0
SEQEND
  8
0
  0
POLYLINE
  8
PLAN_1
  6
CONTINUOUS
 66
     1
 40
0.003000
 41
0.003000
  0
VERTEX
  8
PLAN_1
  6
CONTINUOUS
 10
0.793421
 20
-3.029260
  0
VERTEX
  8
PLAN_1
  6
CONTINUOUS
 10
0.874346
 20
-3.029260
  0
VERTEX
  8
PLAN_1
  6
CONTINUOUS
 10
0.879201
 20
-3.029665
  0
VERTEX
  8
PLAN_1
  6
CONTINUOUS
 10
0.884059
 20
-3.030071
  0
VERTEX
  8
PLAN_1
  6
CONTINUOUS
 10
0.888508
 20
-3.030472
  0
VERTEX
  8
PLAN_1
  6
CONTINUOUS
 10
0.892961
 20
-3.031283
  0
VERTEX
  8
PLAN_1
  6
CONTINUOUS
 10
0.897004
 20
-3.032091
  0
VERTEX
  8
PLAN_1
  6
CONTINUOUS
 10
0.901457
 20
-3.033307
  0
VERTEX
  8
PLAN_1
  6
CONTINUOUS
 10
0.905504
 20
-3.034925
  0
VERTEX
  8
PLAN_1
  6
CONTINUOUS
 10
0.909547
 20
-3.036543
  0
VERTEX
  8
PLAN_1
  6
CONTINUOUS
 10
0.913189
 20
-3.038161
  0
VERTEX
  8
PLAN_1
  6
CONTINUOUS
 10
0.916831
 20
-3.040185
  0
VERTEX
  8
PLAN_1
  6
CONTINUOUS
 10
0.920472
 20
-3.042614
  0
VERTEX
  8
PLAN_1
  6
CONTINUOUS
 10
0.923713
 20
-3.045039
  0
VERTEX
  8
PLAN_1
  6
CONTINUOUS
 10
0.926949
 20
-3.047469
  0
VERTEX
  8
PLAN_1
  6
CONTINUOUS
 10
0.930185
 20
-3.050299
  0
VERTEX
  8
PLAN_1
  6
CONTINUOUS
 10
0.933016
 20
-3.053134
  0
VERTEX
  8
PLAN_1
  6
CONTINUOUS
 10
0.935850
 20
-3.056370
  0
VERTEX
  8
PLAN_1
  6
CONTINUOUS
 10
0.938276
 20
-3.059606
  0
VERTEX
  8
PLAN_1
  6
CONTINUOUS
 10
0.940705
 20
-3.063248
  0
VERTEX
  8
PLAN_1
  6
CONTINUOUS
 10
0.943134
 20
-3.066484
  0
VERTEX
  8
PLAN_1
  6
CONTINUOUS
 10
0.945559
 20
-3.070531
  0
VERTEX
  8
PLAN_1
  6
CONTINUOUS
 10
0.947177
 20
-3.074173
  0
VERTEX
  8
PLAN_1
  6
CONTINUOUS
 10
0.949201
 20
-3.078220
  0
VERTEX
  8
PLAN_1
  6
CONTINUOUS
 10
0.950819
 20
-3.082669
  0
VERTEX
  8
PLAN_1
  6
CONTINUOUS
 10
0.952441
 20
-3.087122
  0
VERTEX
  8
PLAN_1
  6
CONTINUOUS
 10
0.954866
 20
-3.096024
  0
VERTEX
  8
PLAN_1
  6
CONTINUOUS
 10
0.956890
 20
-3.105732
  0
VERTEX
  8
PLAN_1
  6
CONTINUOUS
 10
0.957701
 20
-3.115850
  0
VERTEX
  8
PLAN_1
  6
CONTINUOUS
 10
0.958102
 20
-3.126370
  0
VERTEX
  8
PLAN_1
  6
CONTINUOUS
 10
0.958102
 20
-3.134866
  0
VERTEX
  8
PLAN_1
  6
CONTINUOUS
 10
0.957295
 20
-3.143362
  0
VERTEX
  8
PLAN_1
  6
CONTINUOUS
 10
0.956083
 20
-3.152264
  0
VERTEX
  8
PLAN_1
  6
CONTINUOUS
 10
0.954059
 20
-3.161169
  0
VERTEX
  8
PLAN_1
  6
CONTINUOUS
 10
0.951630
 20
-3.170071
  0
VERTEX
  8
PLAN_1
  6
CONTINUOUS
 10
0.948799
 20
-3.178161
  0
VERTEX
  8
PLAN_1
  6
CONTINUOUS
 10
0.946776
 20
-3.182614
  0
VERTEX
  8
PLAN_1
  6
CONTINUOUS
 10
0.944752
 20
-3.186657
  0
VERTEX
  8
PLAN_1
  6
CONTINUOUS
 10
0.942728
 20
-3.190299
  0
VERTEX
  8
PLAN_1
  6
CONTINUOUS
 10
0.940299
 20
-3.194346
  0
VERTEX
  8
PLAN_1
  6
CONTINUOUS
 10
0.937874
 20
-3.197988
  0
VERTEX
  8
PLAN_1
  6
CONTINUOUS
 10
0.935039
 20
-3.201630
  0
VERTEX
  8
PLAN_1
  6
CONTINUOUS
 10
0.932209
 20
-3.204866
  0
VERTEX
  8
PLAN_1
  6
CONTINUOUS
 10
0.928972
 20
-3.208102
  0
VERTEX
  8
PLAN_1
  6
CONTINUOUS
 10
0.925732
 20
-3.211343
  0
VERTEX
  8
PLAN_1
  6
CONTINUOUS
 10
0.922091
 20
-3.214173
  0
VERTEX
  8
PLAN_1
  6
CONTINUOUS
 10
0.918047
 20
-3.216602
  0
VERTEX
  8
PLAN_1
  6
CONTINUOUS
 10
0.914000
 20
-3.219028
  0
VERTEX
  8
PLAN_1
  6
CONTINUOUS
 10
0.909953
 20
-3.221051
  0
VERTEX
  8
PLAN_1
  6
CONTINUOUS
 10
0.905504
 20
-3.223075
  0
VERTEX
  8
PLAN_1
  6
CONTINUOUS
 10
0.900646
 20
-3.224693
  0
VERTEX
  8
PLAN_1
  6
CONTINUOUS
 10
0.895791
 20
-3.226311
  0
VERTEX
  8
PLAN_1
  6
CONTINUOUS
 10
0.890531
 20
-3.227122
  0
VERTEX
  8
PLAN_1
  6
CONTINUOUS
 10
0.884866
 20
-3.227929
  0
VERTEX
  8
PLAN_1
  6
CONTINUOUS
 10
0.879201
 20
-3.228740
  0
VERTEX
  8
PLAN_1
  6
CONTINUOUS
 10
0.873134
 20
-3.228740
  0
VERTEX
  8
PLAN_1
  6
CONTINUOUS
 10
0.793421
 20
-3.228740
  0
VERTEX
  8
PLAN_1
  6
CONTINUOUS
 10
0.793421
 20
-3.029260
  0
SEQEND
  8
0
  0
POLYLINE
  8
PLAN_1
  6
CONTINUOUS
 66
     1
 40
0.003000
 41
0.003000
  0
VERTEX
  8
PLAN_1
  6
CONTINUOUS
 10
0.820531
 20
-3.205677
  0
VERTEX
  8
PLAN_1
  6
CONTINUOUS
 10
0.872728
 20
-3.205677
  0
VERTEX
  8
PLAN_1
  6
CONTINUOUS
 10
0.879201
 20
-3.205272
  0
VERTEX
  8
PLAN_1
  6
CONTINUOUS
 10
0.885272
 20
-3.204461
  0
VERTEX
  8
PLAN_1
  6
CONTINUOUS
 10
0.890937
 20
-3.202843
  0
VERTEX
  8
PLAN_1
  6
CONTINUOUS
 10
0.896602
 20
-3.200417
  0
VERTEX
  8
PLAN_1
  6
CONTINUOUS
 10
0.901457
 20
-3.197988
  0
VERTEX
  8
PLAN_1
  6
CONTINUOUS
 10
0.906311
 20
-3.194346
  0
VERTEX
  8
PLAN_1
  6
CONTINUOUS
 10
0.910764
 20
-3.190299
  0
VERTEX
  8
PLAN_1
  6
CONTINUOUS
 10
0.914807
 20
-3.185850
  0
VERTEX
  8
PLAN_1
  6
CONTINUOUS
 10
0.918449
 20
-3.180591
  0
VERTEX
  8
PLAN_1
  6
CONTINUOUS
 10
0.921283
 20
-3.174520
  0
VERTEX
  8
PLAN_1
  6
CONTINUOUS
 10
0.924114
 20
-3.168449
  0
VERTEX
  8
PLAN_1
  6
CONTINUOUS
 10
0.926543
 20
-3.161169
  0
VERTEX
  8
PLAN_1
  6
CONTINUOUS
 10
0.928161
 20
-3.153886
  0
VERTEX
  8
PLAN_1
  6
CONTINUOUS
 10
0.929374
 20
-3.145791
  0
VERTEX
  8
PLAN_1
  6
CONTINUOUS
 10
0.930185
 20
-3.137295
  0
VERTEX
  8
PLAN_1
  6
CONTINUOUS
 10
0.930591
 20
-3.127988
  0
VERTEX
  8
PLAN_1
  6
CONTINUOUS
 10
0.930185
 20
-3.118681
  0
VERTEX
  8
PLAN_1
  6
CONTINUOUS
 10
0.929374
 20
-3.110185
  0
VERTEX
  8
PLAN_1
  6
CONTINUOUS
 10
0.928161
 20
-3.102496
  0
VERTEX
  8
PLAN_1
  6
CONTINUOUS
 10
0.926138
 20
-3.094807
  0
VERTEX
  8
PLAN_1
  6
CONTINUOUS
 10
0.924114
 20
-3.088335
  0
VERTEX
  8
PLAN_1
  6
CONTINUOUS
 10
0.921283
 20
-3.081862
  0
VERTEX
  8
PLAN_1
  6
CONTINUOUS
 10
0.918047
 20
-3.076602
  0
VERTEX
  8
PLAN_1
  6
CONTINUOUS
 10
0.914406
 20
-3.071343
  0
VERTEX
  8
PLAN_1
  6
CONTINUOUS
 10
0.910358
 20
-3.066890
  0
VERTEX
  8
PLAN_1
  6
CONTINUOUS
 10
0.905906
 20
-3.063248
  0
VERTEX
  8
PLAN_1
  6
CONTINUOUS
 10
0.900646
 20
-3.060012
  0
VERTEX
  8
PLAN_1
  6
CONTINUOUS
 10
0.895386
 20
-3.057177
  0
VERTEX
  8
PLAN_1
  6
CONTINUOUS
 10
0.889720
 20
-3.055157
  0
VERTEX
  8
PLAN_1
  6
CONTINUOUS
 10
0.884059
 20
-3.053535
  0
VERTEX
  8
PLAN_1
  6
CONTINUOUS
 10
0.877583
 20
-3.052728
  0
VERTEX
  8
PLAN_1
  6
CONTINUOUS
 10
0.870705
 20
-3.052323
  0
VERTEX
  8
PLAN_1
  6
CONTINUOUS
 10
0.820531
 20
-3.052323
  0
VERTEX
  8
PLAN_1
  6
CONTINUOUS
 10
0.820531
 20
-3.205677
  0
SEQEND
  8
0
  0
POLYLINE
  8
PLAN_1
  6
CONTINUOUS
 66
     1
 40
0.003000
 41
0.003000
  0
VERTEX
  8
PLAN_1
  6
CONTINUOUS
 10
1.071398
 20
-3.228740
  0
VERTEX
  8
PLAN_1
  6
CONTINUOUS
 10
1.045098
 20
-3.228740
  0
VERTEX
  8
PLAN_1
  6
CONTINUOUS
 10
1.045098
 20
-3.090358
  0
VERTEX
  8
PLAN_1
  6
CONTINUOUS
 10
0.999780
 20
-3.090358
  0
VERTEX
  8
PLAN_1
  6
CONTINUOUS
 10
0.999780
 20
-3.070937
  0
VERTEX
  8
PLAN_1
  6
CONTINUOUS
 10
1.010705
 20
-3.069720
  0
VERTEX
  8
PLAN_1
  6
CONTINUOUS
 10
1.020012
 20
-3.068508
  0
VERTEX
  8
PLAN_1
  6
CONTINUOUS
 10
1.024461
 20
-3.067701
  0
VERTEX
  8
PLAN_1
  6
CONTINUOUS
 10
1.028102
 20
-3.066484
  0
VERTEX
  8
PLAN_1
  6
CONTINUOUS
 10
1.031744
 20
-3.064866
  0
VERTEX
  8
PLAN_1
  6
CONTINUOUS
 10
1.034984
 20
-3.063248
  0
VERTEX
  8
PLAN_1
  6
CONTINUOUS
 10
1.037815
 20
-3.061224
  0
VERTEX
  8
PLAN_1
  6
CONTINUOUS
 10
1.040244
 20
-3.058799
  0
VERTEX
  8
PLAN_1
  6
CONTINUOUS
 10
1.042669
 20
-3.055965
  0
VERTEX
  8
PLAN_1
  6
CONTINUOUS
 10
1.045098
 20
-3.052728
  0
VERTEX
  8
PLAN_1
  6
CONTINUOUS
 10
1.047122
 20
-3.048681
  0
VERTEX
  8
PLAN_1
  6
CONTINUOUS
 10
1.048740
 20
-3.044232
  0
VERTEX
  8
PLAN_1
  6
CONTINUOUS
 10
1.050764
 20
-3.039374
  0
VERTEX
  8
PLAN_1
  6
CONTINUOUS
 10
1.051976
 20
-3.033709
  0
VERTEX
  8
PLAN_1
  6
CONTINUOUS
 10
1.071398
 20
-3.033709
  0
VERTEX
  8
PLAN_1
  6
CONTINUOUS
 10
1.071398
 20
-3.228740
  0
SEQEND
  8
0
  0
POLYLINE
  8
PLAN_1
  6
CONTINUOUS
 66
     1
 40
0.003000
 41
0.003000
  0
VERTEX
  8
PLAN_1
  6
CONTINUOUS
 10
1.203307
 20
-3.234000
  0
VERTEX
  8
PLAN_1
  6
CONTINUOUS
 10
1.198047
 20
-3.234000
  0
VERTEX
  8
PLAN_1
  6
CONTINUOUS
 10
1.193193
 20
-3.233189
  0
VERTEX
  8
PLAN_1
  6
CONTINUOUS
 10
1.188740
 20
-3.232382
  0
VERTEX
  8
PLAN_1
  6
CONTINUOUS
 10
1.184287
 20
-3.231169
  0
VERTEX
  8
PLAN_1
  6
CONTINUOUS
 10
1.180244
 20
-3.229953
  0
VERTEX
  8
PLAN_1
  6
CONTINUOUS
 10
1.176197
 20
-3.228335
  0
VERTEX
  8
PLAN_1
  6
CONTINUOUS
 10
1.172555
 20
-3.226311
  0
VERTEX
  8
PLAN_1
  6
CONTINUOUS
 10
1.168913
 20
-3.223886
  0
VERTEX
  8
PLAN_1
  6
CONTINUOUS
 10
1.165677
 20
-3.221457
  0
VERTEX
  8
PLAN_1
  6
CONTINUOUS
 10
1.162843
 20
-3.219028
  0
VERTEX
  8
PLAN_1
  6
CONTINUOUS
 10
1.160012
 20
-3.216197
  0
VERTEX
  8
PLAN_1
  6
CONTINUOUS
 10
1.157181
 20
-3.212961
  0
VERTEX
  8
PLAN_1
  6
CONTINUOUS
 10
1.154752
 20
-3.209724
  0
VERTEX
  8
PLAN_1
  6
CONTINUOUS
 10
1.152728
 20
-3.206484
  0
VERTEX
  8
PLAN_1
  6
CONTINUOUS
 10
1.150705
 20
-3.202843
  0
VERTEX
  8
PLAN_1
  6
CONTINUOUS
 10
1.148681
 20
-3.199201
  0
VERTEX
  8
PLAN_1
  6
CONTINUOUS
 10
1.145445
 20
-3.191516
  0
VERTEX
  8
PLAN_1
  6
CONTINUOUS
 10
1.142614
 20
-3.183421
  0
VERTEX
  8
PLAN_1
  6
CONTINUOUS
 10
1.140591
 20
-3.174925
  0
VERTEX
  8
PLAN_1
  6
CONTINUOUS
 10
1.138972
 20
-3.166429
  0
VERTEX
  8
PLAN_1
  6
CONTINUOUS
 10
1.137756
 20
-3.157929
  0
VERTEX
  8
PLAN_1
  6
CONTINUOUS
 10
1.136949
 20
-3.149839
  0
VERTEX
  8
PLAN_1
  6
CONTINUOUS
 10
1.136543
 20
-3.141744
  0
VERTEX
  8
PLAN_1
  6
CONTINUOUS
 10
1.136138
 20
-3.133654
  0
VERTEX
  8
PLAN_1
  6
CONTINUOUS
 10
1.136543
 20
-3.125965
  0
VERTEX
  8
PLAN_1
  6
CONTINUOUS
 10
1.136949
 20
-3.117874
  0
VERTEX
  8
PLAN_1
  6
CONTINUOUS
 10
1.137756
 20
-3.109374
  0
VERTEX
  8
PLAN_1
  6
CONTINUOUS
 10
1.138972
 20
-3.100878
  0
VERTEX
  8
PLAN_1
  6
CONTINUOUS
 10
1.140591
 20
-3.092787
  0
VERTEX
  8
PLAN_1
  6
CONTINUOUS
 10
1.142614
 20
-3.084287
  0
VERTEX
  8
PLAN_1
  6
CONTINUOUS
 10
1.145445
 20
-3.076197
  0
VERTEX
  8
PLAN_1
  6
CONTINUOUS
 10
1.148681
 20
-3.068508
  0
VERTEX
  8
PLAN_1
  6
CONTINUOUS
 10
1.150705
 20
-3.064866
  0
VERTEX
  8
PLAN_1
  6
CONTINUOUS
 10
1.152728
 20
-3.061224
  0
VERTEX
  8
PLAN_1
  6
CONTINUOUS
 10
1.154752
 20
-3.057988
  0
VERTEX
  8
PLAN_1
  6
CONTINUOUS
 10
1.157181
 20
-3.054752
  0
VERTEX
  8
PLAN_1
  6
CONTINUOUS
 10
1.160012
 20
-3.051516
  0
VERTEX
  8
PLAN_1
  6
CONTINUOUS
 10
1.162843
 20
-3.048681
  0
VERTEX
  8
PLAN_1
  6
CONTINUOUS
 10
1.165677
 20
-3.045850
  0
VERTEX
  8
PLAN_1
  6
CONTINUOUS
 10
1.168913
 20
-3.043421
  0
VERTEX
  8
PLAN_1
  6
CONTINUOUS
 10
1.172555
 20
-3.041398
  0
VERTEX
  8
PLAN_1
  6
CONTINUOUS
 10
1.176197
 20
-3.039374
  0
VERTEX
  8
PLAN_1
  6
CONTINUOUS
 10
1.180244
 20
-3.037756
  0
VERTEX
  8
PLAN_1
  6
CONTINUOUS
 10
1.184287
 20
-3.036138
  0
VERTEX
  8
PLAN_1
  6
CONTINUOUS
 10
1.188740
 20
-3.034925
  0
VERTEX
  8
PLAN_1
  6
CONTINUOUS
 10
1.193193
 20
-3.034114
  0
VERTEX
  8
PLAN_1
  6
CONTINUOUS
 10
1.198047
 20
-3.033709
  0
VERTEX
  8
PLAN_1
  6
CONTINUOUS
 10
1.203307
 20
-3.033709
  0
VERTEX
  8
PLAN_1
  6
CONTINUOUS
 10
1.208161
 20
-3.033709
  0
VERTEX
  8
PLAN_1
  6
CONTINUOUS
 10
1.213016
 20
-3.034114
  0
VERTEX
  8
PLAN_1
  6
CONTINUOUS
 10
1.217874
 20
-3.034925
  0
VERTEX
  8
PLAN_1
  6
CONTINUOUS
 10
1.222323
 20
-3.036138
  0
VERTEX
  8
PLAN_1
  6
CONTINUOUS
 10
1.226370
 20
-3.037756
  0
VERTEX
  8
PLAN_1
  6
CONTINUOUS
 10
1.230012
 20
-3.039374
  0
VERTEX
  8
PLAN_1
  6
CONTINUOUS
 10
1.233654
 20
-3.041398
  0
VERTEX
  8
PLAN_1
  6
CONTINUOUS
 10
1.237295
 20
-3.043421
  0
VERTEX
  8
PLAN_1
  6
CONTINUOUS
 10
1.240531
 20
-3.045850
  0
VERTEX
  8
PLAN_1
  6
CONTINUOUS
 10
1.243366
 20
-3.048681
  0
VERTEX
  8
PLAN_1
  6
CONTINUOUS
 10
1.246197
 20
-3.051516
  0
VERTEX
  8
PLAN_1
  6
CONTINUOUS
 10
1.249028
 20
-3.054752
  0
VERTEX
  8
PLAN_1
  6
CONTINUOUS
 10
1.251457
 20
-3.057988
  0
VERTEX
  8
PLAN_1
  6
CONTINUOUS
 10
1.253480
 20
-3.061224
  0
VERTEX
  8
PLAN_1
  6
CONTINUOUS
 10
1.255909
 20
-3.064866
  0
VERTEX
  8
PLAN_1
  6
CONTINUOUS
 10
1.257528
 20
-3.068508
  0
VERTEX
  8
PLAN_1
  6
CONTINUOUS
 10
1.260764
 20
-3.076197
  0
VERTEX
  8
PLAN_1
  6
CONTINUOUS
 10
1.263594
 20
-3.084287
  0
VERTEX
  8
PLAN_1
  6
CONTINUOUS
 10
1.266024
 20
-3.092787
  0
VERTEX
  8
PLAN_1
  6
CONTINUOUS
 10
1.267642
 20
-3.100878
  0
VERTEX
  8
PLAN_1
  6
CONTINUOUS
 10
1.268854
 20
-3.109374
  0
VERTEX
  8
PLAN_1
  6
CONTINUOUS
 10
1.269665
 20
-3.117874
  0
VERTEX
  8
PLAN_1
  6
CONTINUOUS
 10
1.270071
 20
-3.125965
  0
VERTEX
  8
PLAN_1
  6
CONTINUOUS
 10
1.270071
 20
-3.133654
  0
VERTEX
  8
PLAN_1
  6
CONTINUOUS
 10
1.270071
 20
-3.141744
  0
VERTEX
  8
PLAN_1
  6
CONTINUOUS
 10
1.269665
 20
-3.149839
  0
VERTEX
  8
PLAN_1
  6
CONTINUOUS
 10
1.268854
 20
-3.157929
  0
VERTEX
  8
PLAN_1
  6
CONTINUOUS
 10
1.267642
 20
-3.166429
  0
VERTEX
  8
PLAN_1
  6
CONTINUOUS
 10
1.266024
 20
-3.174925
  0
VERTEX
  8
PLAN_1
  6
CONTINUOUS
 10
1.263594
 20
-3.183421
  0
VERTEX
  8
PLAN_1
  6
CONTINUOUS
 10
1.260764
 20
-3.191516
  0
VERTEX
  8
PLAN_1
  6
CONTINUOUS
 10
1.257528
 20
-3.199201
  0
VERTEX
  8
PLAN_1
  6
CONTINUOUS
 10
1.255909
 20
-3.202843
  0
VERTEX
  8
PLAN_1
  6
CONTINUOUS
 10
1.253480
 20
-3.206484
  0
VERTEX
  8
PLAN_1
  6
CONTINUOUS
 10
1.251457
 20
-3.209724
  0
VERTEX
  8
PLAN_1
  6
CONTINUOUS
 10
1.249028
 20
-3.212961
  0
VERTEX
  8
PLAN_1
  6
CONTINUOUS
 10
1.246197
 20
-3.216197
  0
VERTEX
  8
PLAN_1
  6
CONTINUOUS
 10
1.243366
 20
-3.219028
  0
VERTEX
  8
PLAN_1
  6
CONTINUOUS
 10
1.240531
 20
-3.221457
  0
VERTEX
  8
PLAN_1
  6
CONTINUOUS
 10
1.237295
 20
-3.223886
  0
VERTEX
  8
PLAN_1
  6
CONTINUOUS
 10
1.233654
 20
-3.226311
  0
VERTEX
  8
PLAN_1
  6
CONTINUOUS
 10
1.230012
 20
-3.228335
  0
VERTEX
  8
PLAN_1
  6
CONTINUOUS
 10
1.226370
 20
-3.229953
  0
VERTEX
  8
PLAN_1
  6
CONTINUOUS
 10
1.222323
 20
-3.231169
  0
VERTEX
  8
PLAN_1
  6
CONTINUOUS
 10
1.217874
 20
-3.232382
  0
VERTEX
  8
PLAN_1
  6
CONTINUOUS
 10
1.213016
 20
-3.233189
  0
VERTEX
  8
PLAN_1
  6
CONTINUOUS
 10
1.208161
 20
-3.234000
  0
VERTEX
  8
PLAN_1
  6
CONTINUOUS
 10
1.203307
 20
-3.234000
  0
SEQEND
  8
0
  0
POLYLINE
  8
PLAN_1
  6
CONTINUOUS
 66
     1
 40
0.003000
 41
0.003000
  0
VERTEX
  8
PLAN_1
  6
CONTINUOUS
 10
1.203307
 20
-3.055559
  0
VERTEX
  8
PLAN_1
  6
CONTINUOUS
 10
1.198047
 20
-3.055965
  0
VERTEX
  8
PLAN_1
  6
CONTINUOUS
 10
1.193193
 20
-3.056776
  0
VERTEX
  8
PLAN_1
  6
CONTINUOUS
 10
1.189146
 20
-3.058394
  0
VERTEX
  8
PLAN_1
  6
CONTINUOUS
 10
1.185098
 20
-3.060819
  0
VERTEX
  8
PLAN_1
  6
CONTINUOUS
 10
1.181457
 20
-3.063654
  0
VERTEX
  8
PLAN_1
  6
CONTINUOUS
 10
1.177815
 20
-3.067295
  0
VERTEX
  8
PLAN_1
  6
CONTINUOUS
 10
1.174984
 20
-3.071744
  0
VERTEX
  8
PLAN_1
  6
CONTINUOUS
 10
1.172150
 20
-3.076197
  0
VERTEX
  8
PLAN_1
  6
CONTINUOUS
 10
1.169724
 20
-3.081862
  0
VERTEX
  8
PLAN_1
  6
CONTINUOUS
 10
1.167701
 20
-3.087528
  0
VERTEX
  8
PLAN_1
  6
CONTINUOUS
 10
1.166083
 20
-3.094000
  0
VERTEX
  8
PLAN_1
  6
CONTINUOUS
 10
1.164866
 20
-3.100878
  0
VERTEX
  8
PLAN_1
  6
CONTINUOUS
 10
1.163654
 20
-3.108567
  0
VERTEX
  8
PLAN_1
  6
CONTINUOUS
 10
1.162843
 20
-3.116256
  0
VERTEX
  8
PLAN_1
  6
CONTINUOUS
 10
1.162441
 20
-3.124752
  0
VERTEX
  8
PLAN_1
  6
CONTINUOUS
 10
1.162441
 20
-3.133654
  0
VERTEX
  8
PLAN_1
  6
CONTINUOUS
 10
1.162441
 20
-3.142555
  0
VERTEX
  8
PLAN_1
  6
CONTINUOUS
 10
1.162843
 20
-3.151051
  0
VERTEX
  8
PLAN_1
  6
CONTINUOUS
 10
1.163654
 20
-3.159146
  0
VERTEX
  8
PLAN_1
  6
CONTINUOUS
 10
1.164866
 20
-3.166831
  0
VERTEX
  8
PLAN_1
  6
CONTINUOUS
 10
1.166083
 20
-3.173713
  0
VERTEX
  8
PLAN_1
  6
CONTINUOUS
 10
1.167701
 20
-3.180185
  0
VERTEX
  8
PLAN_1
  6
CONTINUOUS
 10
1.169724
 20
-3.185850
  0
VERTEX
  8
PLAN_1
  6
CONTINUOUS
 10
1.172150
 20
-3.191110
  0
VERTEX
  8
PLAN_1
  6
CONTINUOUS
 10
1.174984
 20
-3.195965
  0
VERTEX
  8
PLAN_1
  6
CONTINUOUS
 10
1.177815
 20
-3.200012
  0
VERTEX
  8
PLAN_1
  6
CONTINUOUS
 10
1.181457
 20
-3.203654
  0
VERTEX
  8
PLAN_1
  6
CONTINUOUS
 10
1.185098
 20
-3.206890
  0
VERTEX
  8
PLAN_1
  6
CONTINUOUS
 10
1.189146
 20
-3.208913
  0
VERTEX
  8
PLAN_1
  6
CONTINUOUS
 10
1.193193
 20
-3.210531
  0
VERTEX
  8
PLAN_1
  6
CONTINUOUS
 10
1.198047
 20
-3.211744
  0
VERTEX
  8
PLAN_1
  6
CONTINUOUS
 10
1.203307
 20
-3.212150
  0
VERTEX
  8
PLAN_1
  6
CONTINUOUS
 10
1.208161
 20
-3.211744
  0
VERTEX
  8
PLAN_1
  6
CONTINUOUS
 10
1.213016
 20
-3.210531
  0
VERTEX
  8
PLAN_1
  6
CONTINUOUS
 10
1.217469
 20
-3.208913
  0
VERTEX
  8
PLAN_1
  6
CONTINUOUS
 10
1.221516
 20
-3.206890
  0
VERTEX
  8
PLAN_1
  6
CONTINUOUS
 10
1.225157
 20
-3.203654
  0
VERTEX
  8
PLAN_1
  6
CONTINUOUS
 10
1.228394
 20
-3.200012
  0
VERTEX
  8
PLAN_1
  6
CONTINUOUS
 10
1.231224
 20
-3.195965
  0
VERTEX
  8
PLAN_1
  6
CONTINUOUS
 10
1.234059
 20
-3.191110
  0
VERTEX
  8
PLAN_1
  6
CONTINUOUS
 10
1.236484
 20
-3.185850
  0
VERTEX
  8
PLAN_1
  6
CONTINUOUS
 10
1.238508
 20
-3.180185
  0
VERTEX
  8
PLAN_1
  6
CONTINUOUS
 10
1.240126
 20
-3.173713
  0
VERTEX
  8
PLAN_1
  6
CONTINUOUS
 10
1.241343
 20
-3.166831
  0
VERTEX
  8
PLAN_1
  6
CONTINUOUS
 10
1.242555
 20
-3.159146
  0
VERTEX
  8
PLAN_1
  6
CONTINUOUS
 10
1.243366
 20
-3.151051
  0
VERTEX
  8
PLAN_1
  6
CONTINUOUS
 10
1.243768
 20
-3.142555
  0
VERTEX
  8
PLAN_1
  6
CONTINUOUS
 10
1.243768
 20
-3.133654
  0
VERTEX
  8
PLAN_1
  6
CONTINUOUS
 10
1.243768
 20
-3.124752
  0
VERTEX
  8
PLAN_1
  6
CONTINUOUS
 10
1.243366
 20
-3.116256
  0
VERTEX
  8
PLAN_1
  6
CONTINUOUS
 10
1.242555
 20
-3.108567
  0
VERTEX
  8
PLAN_1
  6
CONTINUOUS
 10
1.241343
 20
-3.100878
  0
VERTEX
  8
PLAN_1
  6
CONTINUOUS
 10
1.240126
 20
-3.094000
  0
VERTEX
  8
PLAN_1
  6
CONTINUOUS
 10
1.238508
 20
-3.087528
  0
VERTEX
  8
PLAN_1
  6
CONTINUOUS
 10
1.236484
 20
-3.081862
  0
VERTEX
  8
PLAN_1
  6
CONTINUOUS
 10
1.234059
 20
-3.076197
  0
VERTEX
  8
PLAN_1
  6
CONTINUOUS
 10
1.231224
 20
-3.071744
  0
VERTEX
  8
PLAN_1
  6
CONTINUOUS
 10
1.228394
 20
-3.067295
  0
VERTEX
  8
PLAN_1
  6
CONTINUOUS
 10
1.225157
 20
-3.063654
  0
VERTEX
  8
PLAN_1
  6
CONTINUOUS
 10
1.221516
 20
-3.060819
  0
VERTEX
  8
PLAN_1
  6
CONTINUOUS
 10
1.217469
 20
-3.058394
  0
VERTEX
  8
PLAN_1
  6
CONTINUOUS
 10
1.213016
 20
-3.056776
  0
VERTEX
  8
PLAN_1
  6
CONTINUOUS
 10
1.208161
 20
-3.055965
  0
VERTEX
  8
PLAN_1
  6
CONTINUOUS
 10
1.203307
 20
-3.055559
  0
SEQEND
  8
0
  0
POLYLINE
  8
PLAN_1
  6
CONTINUOUS
 66
     1
 40
0.003000
 41
0.003000
  0
VERTEX
  8
PLAN_1
  6
CONTINUOUS
 10
1.291921
 20
-3.100472
  0
VERTEX
  8
PLAN_1
  6
CONTINUOUS
 10
1.292323
 20
-3.094000
  0
VERTEX
  8
PLAN_1
  6
CONTINUOUS
 10
1.293134
 20
-3.087528
  0
VERTEX
  8
PLAN_1
  6
CONTINUOUS
 10
1.294346
 20
-3.081051
  0
VERTEX
  8
PLAN_1
  6
CONTINUOUS
 10
1.295965
 20
-3.074984
  0
VERTEX
  8
PLAN_1
  6
CONTINUOUS
 10
1.298394
 20
-3.069319
  0
VERTEX
  8
PLAN_1
  6
CONTINUOUS
 10
1.301224
 20
-3.063654
  0
VERTEX
  8
PLAN_1
  6
CONTINUOUS
 10
1.304465
 20
-3.058394
  0
VERTEX
  8
PLAN_1
  6
CONTINUOUS
 10
1.308106
 20
-3.053535
  0
VERTEX
  8
PLAN_1
  6
CONTINUOUS
 10
1.312150
 20
-3.049492
  0
VERTEX
  8
PLAN_1
  6
CONTINUOUS
 10
1.317008
 20
-3.045445
  0
VERTEX
  8
PLAN_1
  6
CONTINUOUS
 10
1.321862
 20
-3.041803
  0
VERTEX
  8
PLAN_1
  6
CONTINUOUS
 10
1.327528
 20
-3.038972
  0
VERTEX
  8
PLAN_1
  6
CONTINUOUS
 10
1.333594
 20
-3.036543
  0
VERTEX
  8
PLAN_1
  6
CONTINUOUS
 10
1.340476
 20
-3.034925
  0
VERTEX
  8
PLAN_1
  6
CONTINUOUS
 10
1.347354
 20
-3.034114
  0
VERTEX
  8
PLAN_1
  6
CONTINUOUS
 10
1.354638
 20
-3.033709
  0
VERTEX
  8
PLAN_1
  6
CONTINUOUS
 10
1.360299
 20
-3.033709
  0
VERTEX
  8
PLAN_1
  6
CONTINUOUS
 10
1.365965
 20
-3.034114
  0
VERTEX
  8
PLAN_1
  6
CONTINUOUS
 10
1.370823
 20
-3.034925
  0
VERTEX
  8
PLAN_1
  6
CONTINUOUS
 10
1.375677
 20
-3.036138
  0
VERTEX
  8
PLAN_1
  6
CONTINUOUS
 10
1.380126
 20
-3.037756
  0
VERTEX
  8
PLAN_1
  6
CONTINUOUS
 10
1.384173
 20
-3.039374
  0
VERTEX
  8
PLAN_1
  6
CONTINUOUS
 10
1.388220
 20
-3.040992
  0
VERTEX
  8
PLAN_1
  6
CONTINUOUS
 10
1.391862
 20
-3.043421
  0
VERTEX
  8
PLAN_1
  6
CONTINUOUS
 10
1.395098
 20
-3.045850
  0
VERTEX
  8
PLAN_1
  6
CONTINUOUS
 10
1.398335
 20
-3.048276
  0
VERTEX
  8
PLAN_1
  6
CONTINUOUS
 10
1.401169
 20
-3.051110
  0
VERTEX
  8
PLAN_1
  6
CONTINUOUS
 10
1.403594
 20
-3.053941
  0
VERTEX
  8
PLAN_1
  6
CONTINUOUS
 10
1.406024
 20
-3.056776
  0
VERTEX
  8
PLAN_1
  6
CONTINUOUS
 10
1.408453
 20
-3.060012
  0
VERTEX
  8
PLAN_1
  6
CONTINUOUS
 10
1.410476
 20
-3.063654
  0
VERTEX
  8
PLAN_1
  6
CONTINUOUS
 10
1.412094
 20
-3.066890
  0
VERTEX
  8
PLAN_1
  6
CONTINUOUS
 10
1.415331
 20
-3.074173
  0
VERTEX
  8
PLAN_1
  6
CONTINUOUS
 10
1.417756
 20
-3.081457
  0
VERTEX
  8
PLAN_1
  6
CONTINUOUS
 10
1.419780
 20
-3.089146
  0
VERTEX
  8
PLAN_1
  6
CONTINUOUS
 10
1.420996
 20
-3.096429
  0
VERTEX
  8
PLAN_1
  6
CONTINUOUS
 10
1.422209
 20
-3.104114
  0
VERTEX
  8
PLAN_1
  6
CONTINUOUS
 10
1.422614
 20
-3.110992
  0
VERTEX
  8
PLAN_1
  6
CONTINUOUS
 10
1.423020
 20
-3.117874
  0
VERTEX
  8
PLAN_1
  6
CONTINUOUS
 10
1.423020
 20
-3.123941
  0
VERTEX
  8
PLAN_1
  6
CONTINUOUS
 10
1.422614
 20
-3.134866
  0
VERTEX
  8
PLAN_1
  6
CONTINUOUS
 10
1.421398
 20
-3.150244
  0
VERTEX
  8
PLAN_1
  6
CONTINUOUS
 10
1.420185
 20
-3.158740
  0
VERTEX
  8
PLAN_1
  6
CONTINUOUS
 10
1.418567
 20
-3.168047
  0
VERTEX
  8
PLAN_1
  6
CONTINUOUS
 10
1.416138
 20
-3.177354
  0
VERTEX
  8
PLAN_1
  6
CONTINUOUS
 10
1.412902
 20
-3.186657
  0
VERTEX
  8
PLAN_1
  6
CONTINUOUS
 10
1.410878
 20
-3.191516
  0
VERTEX
  8
PLAN_1
  6
CONTINUOUS
 10
1.408854
 20
-3.195965
  0
VERTEX
  8
PLAN_1
  6
CONTINUOUS
 10
1.406835
 20
-3.200417
  0
VERTEX
  8
PLAN_1
  6
CONTINUOUS
 10
1.404000
 20
-3.204866
  0
VERTEX
  8
PLAN_1
  6
CONTINUOUS
 10
1.401575
 20
-3.208913
  0
VERTEX
  8
PLAN_1
  6
CONTINUOUS
 10
1.398335
 20
-3.212555
  0
VERTEX
  8
PLAN_1
  6
CONTINUOUS
 10
1.395098
 20
-3.216197
  0
VERTEX
  8
PLAN_1
  6
CONTINUOUS
 10
1.391862
 20
-3.219839
  0
VERTEX
  8
PLAN_1
  6
CONTINUOUS
 10
1.387815
 20
-3.222669
  0
VERTEX
  8
PLAN_1
  6
CONTINUOUS
 10
1.383768
 20
-3.225504
  0
VERTEX
  8
PLAN_1
  6
CONTINUOUS
 10
1.379319
 20
-3.227929
  0
VERTEX
  8
PLAN_1
  6
CONTINUOUS
 10
1.374465
 20
-3.229953
  0
VERTEX
  8
PLAN_1
  6
CONTINUOUS
 10
1.369606
 20
-3.231976
  0
VERTEX
  8
PLAN_1
  6
CONTINUOUS
 10
1.363941
 20
-3.233189
  0
VERTEX
  8
PLAN_1
  6
CONTINUOUS
 10
1.358280
 20
-3.233594
  0
VERTEX
  8
PLAN_1
  6
CONTINUOUS
 10
1.352209
 20
-3.234000
  0
VERTEX
  8
PLAN_1
  6
CONTINUOUS
 10
1.344114
 20
-3.233594
  0
VERTEX
  8
PLAN_1
  6
CONTINUOUS
 10
1.336835
 20
-3.232382
  0
VERTEX
  8
PLAN_1
  6
CONTINUOUS
 10
1.329953
 20
-3.230764
  0
VERTEX
  8
PLAN_1
  6
CONTINUOUS
 10
1.323886
 20
-3.228335
  0
VERTEX
  8
PLAN_1
  6
CONTINUOUS
 10
1.318626
 20
-3.225909
  0
VERTEX
  8
PLAN_1
  6
CONTINUOUS
 10
1.313768
 20
-3.222669
  0
VERTEX
  8
PLAN_1
  6
CONTINUOUS
 10
1.309724
 20
-3.219028
  0
VERTEX
  8
PLAN_1
  6
CONTINUOUS
 10
1.306083
 20
-3.214984
  0
VERTEX
  8
PLAN_1
  6
CONTINUOUS
 10
1.303248
 20
-3.210937
  0
VERTEX
  8
PLAN_1
  6
CONTINUOUS
 10
1.300417
 20
-3.206484
  0
VERTEX
  8
PLAN_1
  6
CONTINUOUS
 10
1.298394
 20
-3.202441
  0
VERTEX
  8
PLAN_1
  6
CONTINUOUS
 10
1.296776
 20
-3.197988
  0
VERTEX
  8
PLAN_1
  6
CONTINUOUS
 10
1.295563
 20
-3.193539
  0
VERTEX
  8
PLAN_1
  6
CONTINUOUS
 10
1.294752
 20
-3.189492
  0
VERTEX
  8
PLAN_1
  6
CONTINUOUS
 10
1.294346
 20
-3.185445
  0
VERTEX
  8
PLAN_1
  6
CONTINUOUS
 10
1.294346
 20
-3.181803
  0
VERTEX
  8
PLAN_1
  6
CONTINUOUS
 10
1.318626
 20
-3.181803
  0
VERTEX
  8
PLAN_1
  6
CONTINUOUS
 10
1.319028
 20
-3.185445
  0
VERTEX
  8
PLAN_1
  6
CONTINUOUS
 10
1.319839
 20
-3.188681
  0
VERTEX
  8
PLAN_1
  6
CONTINUOUS
 10
1.320650
 20
-3.191917
  0
VERTEX
  8
PLAN_1
  6
CONTINUOUS
 10
1.321457
 20
-3.195157
  0
VERTEX
  8
PLAN_1
  6
CONTINUOUS
 10
1.323075
 20
-3.197988
  0
VERTEX
  8
PLAN_1
  6
CONTINUOUS
 10
1.324291
 20
-3.200417
  0
VERTEX
  8
PLAN_1
  6
CONTINUOUS
 10
1.326311
 20
-3.202843
  0
VERTEX
  8
PLAN_1
  6
CONTINUOUS
 10
1.328335
 20
-3.205272
  0
VERTEX
  8
PLAN_1
  6
CONTINUOUS
 10
1.330358
 20
-3.207295
  0
VERTEX
  8
PLAN_1
  6
CONTINUOUS
 10
1.332787
 20
-3.208913
  0
VERTEX
  8
PLAN_1
  6
CONTINUOUS
 10
1.335618
 20
-3.210126
  0
VERTEX
  8
PLAN_1
  6
CONTINUOUS
 10
1.338453
 20
-3.211343
  0
VERTEX
  8
PLAN_1
  6
CONTINUOUS
 10
1.341283
 20
-3.212555
  0
VERTEX
  8
PLAN_1
  6
CONTINUOUS
 10
1.344520
 20
-3.213362
  0
VERTEX
  8
PLAN_1
  6
CONTINUOUS
 10
1.348161
 20
-3.213768
  0
VERTEX
  8
PLAN_1
  6
CONTINUOUS
 10
1.351803
 20
-3.213768
  0
VERTEX
  8
PLAN_1
  6
CONTINUOUS
 10
1.356661
 20
-3.213362
  0
VERTEX
  8
PLAN_1
  6
CONTINUOUS
 10
1.361110
 20
-3.212555
  0
VERTEX
  8
PLAN_1
  6
CONTINUOUS
 10
1.365563
 20
-3.211343
  0
VERTEX
  8
PLAN_1
  6
CONTINUOUS
 10
1.369606
 20
-3.209319
  0
VERTEX
  8
PLAN_1
  6
CONTINUOUS
 10
1.373248
 20
-3.206890
  0
VERTEX
  8
PLAN_1
  6
CONTINUOUS
 10
1.376484
 20
-3.204059
  0
VERTEX
  8
PLAN_1
  6
CONTINUOUS
 10
1.379724
 20
-3.200417
  0
VERTEX
  8
PLAN_1
  6
CONTINUOUS
 10
1.382961
 20
-3.196370
  0
VERTEX
  8
PLAN_1
  6
CONTINUOUS
 10
1.385791
 20
-3.191516
  0
VERTEX
  8
PLAN_1
  6
CONTINUOUS
 10
1.388220
 20
-3.185850
  0
VERTEX
  8
PLAN_1
  6
CONTINUOUS
 10
1.390244
 20
-3.180185
  0
VERTEX
  8
PLAN_1
  6
CONTINUOUS
 10
1.392268
 20
-3.173307
  0
VERTEX
  8
PLAN_1
  6
CONTINUOUS
 10
1.394291
 20
-3.166429
  0
VERTEX
  8
PLAN_1
  6
CONTINUOUS
 10
1.395909
 20
-3.158335
  0
VERTEX
  8
PLAN_1
  6
CONTINUOUS
 10
1.397528
 20
-3.149839
  0
VERTEX
  8
PLAN_1
  6
CONTINUOUS
 10
1.398740
 20
-3.140937
  0
VERTEX
  8
PLAN_1
  6
CONTINUOUS
 10
1.397933
 20
-3.140126
  0
VERTEX
  8
PLAN_1
  6
CONTINUOUS
 10
1.396717
 20
-3.142961
  0
VERTEX
  8
PLAN_1
  6
CONTINUOUS
 10
1.394693
 20
-3.145386
  0
VERTEX
  8
PLAN_1
  6
CONTINUOUS
 10
1.392669
 20
-3.147815
  0
VERTEX
  8
PLAN_1
  6
CONTINUOUS
 10
1.390650
 20
-3.150244
  0
VERTEX
  8
PLAN_1
  6
CONTINUOUS
 10
1.388220
 20
-3.152264
  0
VERTEX
  8
PLAN_1
  6
CONTINUOUS
 10
1.385390
 20
-3.154287
  0
VERTEX
  8
PLAN_1
  6
CONTINUOUS
 10
1.382555
 20
-3.155906
  0
VERTEX
  8
PLAN_1
  6
CONTINUOUS
 10
1.379724
 20
-3.157528
  0
VERTEX
  8
PLAN_1
  6
CONTINUOUS
 10
1.373654
 20
-3.159953
  0
VERTEX
  8
PLAN_1
  6
CONTINUOUS
 10
1.366776
 20
-3.161976
  0
VERTEX
  8
PLAN_1
  6
CONTINUOUS
 10
1.360299
 20
-3.163189
  0
VERTEX
  8
PLAN_1
  6
CONTINUOUS
 10
1.353421
 20
-3.163594
  0
VERTEX
  8
PLAN_1
  6
CONTINUOUS
 10
1.346543
 20
-3.163189
  0
VERTEX
  8
PLAN_1
  6
CONTINUOUS
 10
1.340476
 20
-3.162382
  0
VERTEX
  8
PLAN_1
  6
CONTINUOUS
 10
1.334406
 20
-3.161169
  0
VERTEX
  8
PLAN_1
  6
CONTINUOUS
 10
1.328740
 20
-3.159146
  0
VERTEX
  8
PLAN_1
  6
CONTINUOUS
 10
1.323075
 20
-3.156717
  0
VERTEX
  8
PLAN_1
  6
CONTINUOUS
 10
1.318220
 20
-3.153886
  0
VERTEX
  8
PLAN_1
  6
CONTINUOUS
 10
1.313366
 20
-3.150244
  0
VERTEX
  8
PLAN_1
  6
CONTINUOUS
 10
1.309319
 20
-3.146602
  0
VERTEX
  8
PLAN_1
  6
CONTINUOUS
 10
1.305272
 20
-3.142150
  0
VERTEX
  8
PLAN_1
  6
CONTINUOUS
 10
1.302035
 20
-3.137701
  0
VERTEX
  8
PLAN_1
  6
CONTINUOUS
 10
1.298799
 20
-3.132441
  0
VERTEX
  8
PLAN_1
  6
CONTINUOUS
 10
1.296370
 20
-3.126776
  0
VERTEX
  8
PLAN_1
  6
CONTINUOUS
 10
1.294752
 20
-3.120705
  0
VERTEX
  8
PLAN_1
  6
CONTINUOUS
 10
1.293134
 20
-3.114232
  0
VERTEX
  8
PLAN_1
  6
CONTINUOUS
 10
1.292323
 20
-3.107756
  0
VERTEX
  8
PLAN_1
  6
CONTINUOUS
 10
1.291921
 20
-3.100472
  0
SEQEND
  8
0
  0
POLYLINE
  8
PLAN_1
  6
CONTINUOUS
 66
     1
 40
0.003000
 41
0.003000
  0
VERTEX
  8
PLAN_1
  6
CONTINUOUS
 10
1.394291
 20
-3.097236
  0
VERTEX
  8
PLAN_1
  6
CONTINUOUS
 10
1.394291
 20
-3.093189
  0
VERTEX
  8
PLAN_1
  6
CONTINUOUS
 10
1.393886
 20
-3.089146
  0
VERTEX
  8
PLAN_1
  6
CONTINUOUS
 10
1.393075
 20
-3.085098
  0
VERTEX
  8
PLAN_1
  6
CONTINUOUS
 10
1.392268
 20
-3.081457
  0
VERTEX
  8
PLAN_1
  6
CONTINUOUS
 10
1.391051
 20
-3.077815
  0
VERTEX
  8
PLAN_1
  6
CONTINUOUS
 10
1.389433
 20
-3.074173
  0
VERTEX
  8
PLAN_1
  6
CONTINUOUS
 10
1.387409
 20
-3.070937
  0
VERTEX
  8
PLAN_1
  6
CONTINUOUS
 10
1.385390
 20
-3.068102
  0
VERTEX
  8
PLAN_1
  6
CONTINUOUS
 10
1.382555
 20
-3.065272
  0
VERTEX
  8
PLAN_1
  6
CONTINUOUS
 10
1.379724
 20
-3.062843
  0
VERTEX
  8
PLAN_1
  6
CONTINUOUS
 10
1.376484
 20
-3.060819
  0
VERTEX
  8
PLAN_1
  6
CONTINUOUS
 10
1.372846
 20
-3.058799
  0
VERTEX
  8
PLAN_1
  6
CONTINUOUS
 10
1.369205
 20
-3.057583
  0
VERTEX
  8
PLAN_1
  6
CONTINUOUS
 10
1.364752
 20
-3.056370
  0
VERTEX
  8
PLAN_1
  6
CONTINUOUS
 10
1.360299
 20
-3.055559
  0
VERTEX
  8
PLAN_1
  6
CONTINUOUS
 10
1.355039
 20
-3.055559
  0
VERTEX
  8
PLAN_1
  6
CONTINUOUS
 10
1.350996
 20
-3.055559
  0
VERTEX
  8
PLAN_1
  6
CONTINUOUS
 10
1.346949
 20
-3.056370
  0
VERTEX
  8
PLAN_1
  6
CONTINUOUS
 10
1.343307
 20
-3.057177
  0
VERTEX
  8
PLAN_1
  6
CONTINUOUS
 10
1.339665
 20
-3.058799
  0
VERTEX
  8
PLAN_1
  6
CONTINUOUS
 10
1.336024
 20
-3.060417
  0
VERTEX
  8
PLAN_1
  6
CONTINUOUS
 10
1.333193
 20
-3.062441
  0
VERTEX
  8
PLAN_1
  6
CONTINUOUS
 10
1.330358
 20
-3.064866
  0
VERTEX
  8
PLAN_1
  6
CONTINUOUS
 10
1.327528
 20
-3.067701
  0
VERTEX
  8
PLAN_1
  6
CONTINUOUS
 10
1.325098
 20
-3.070531
  0
VERTEX
  8
PLAN_1
  6
CONTINUOUS
 10
1.323075
 20
-3.074173
  0
VERTEX
  8
PLAN_1
  6
CONTINUOUS
 10
1.321457
 20
-3.077815
  0
VERTEX
  8
PLAN_1
  6
CONTINUOUS
 10
1.319839
 20
-3.081457
  0
VERTEX
  8
PLAN_1
  6
CONTINUOUS
 10
1.319028
 20
-3.085504
  0
VERTEX
  8
PLAN_1
  6
CONTINUOUS
 10
1.317815
 20
-3.089953
  0
VERTEX
  8
PLAN_1
  6
CONTINUOUS
 10
1.317409
 20
-3.094406
  0
VERTEX
  8
PLAN_1
  6
CONTINUOUS
 10
1.317409
 20
-3.099260
  0
VERTEX
  8
PLAN_1
  6
CONTINUOUS
 10
1.317409
 20
-3.106138
  0
VERTEX
  8
PLAN_1
  6
CONTINUOUS
 10
1.318220
 20
-3.111803
  0
VERTEX
  8
PLAN_1
  6
CONTINUOUS
 10
1.319433
 20
-3.117063
  0
VERTEX
  8
PLAN_1
  6
CONTINUOUS
 10
1.321051
 20
-3.121917
  0
VERTEX
  8
PLAN_1
  6
CONTINUOUS
 10
1.323075
 20
-3.125965
  0
VERTEX
  8
PLAN_1
  6
CONTINUOUS
 10
1.325504
 20
-3.129201
  0
VERTEX
  8
PLAN_1
  6
CONTINUOUS
 10
1.328335
 20
-3.132035
  0
VERTEX
  8
PLAN_1
  6
CONTINUOUS
 10
1.331169
 20
-3.134461
  0
VERTEX
  8
PLAN_1
  6
CONTINUOUS
 10
1.334000
 20
-3.136484
  0
VERTEX
  8
PLAN_1
  6
CONTINUOUS
 10
1.337236
 20
-3.138102
  0
VERTEX
  8
PLAN_1
  6
CONTINUOUS
 10
1.340476
 20
-3.139319
  0
VERTEX
  8
PLAN_1
  6
CONTINUOUS
 10
1.343713
 20
-3.140126
  0
VERTEX
  8
PLAN_1
  6
CONTINUOUS
 10
1.350591
 20
-3.141343
  0
VERTEX
  8
PLAN_1
  6
CONTINUOUS
 10
1.357063
 20
-3.141744
  0
VERTEX
  8
PLAN_1
  6
CONTINUOUS
 10
1.362323
 20
-3.141343
  0
VERTEX
  8
PLAN_1
  6
CONTINUOUS
 10
1.368394
 20
-3.140126
  0
VERTEX
  8
PLAN_1
  6
CONTINUOUS
 10
1.371224
 20
-3.138913
  0
VERTEX
  8
PLAN_1
  6
CONTINUOUS
 10
1.374465
 20
-3.137701
  0
VERTEX
  8
PLAN_1
  6
CONTINUOUS
 10
1.377701
 20
-3.136083
  0
VERTEX
  8
PLAN_1
  6
CONTINUOUS
 10
1.380531
 20
-3.133654
  0
VERTEX
  8
PLAN_1
  6
CONTINUOUS
 10
1.383366
 20
-3.131224
  0
VERTEX
  8
PLAN_1
  6
CONTINUOUS
 10
1.385791
 20
-3.127988
  0
VERTEX
  8
PLAN_1
  6
CONTINUOUS
 10
1.388220
 20
-3.124752
  0
VERTEX
  8
PLAN_1
  6
CONTINUOUS
 10
1.390244
 20
-3.120299
  0
VERTEX
  8
PLAN_1
  6
CONTINUOUS
 10
1.392268
 20
-3.115445
  0
VERTEX
  8
PLAN_1
  6
CONTINUOUS
 10
1.393480
 20
-3.110185
  0
VERTEX
  8
PLAN_1
  6
CONTINUOUS
 10
1.394291
 20
-3.104114
  0
VERTEX
  8
PLAN_1
  6
CONTINUOUS
 10
1.394291
 20
-3.097236
  0
SEQEND
  8
0
  0
POLYLINE
  8
PLAN_1
  6
CONTINUOUS
 66
     1
 40
0.003000
 41
0.003000
  0
VERTEX
  8
PLAN_1
  6
CONTINUOUS
 10
1.485736
 20
-3.228740
  0
VERTEX
  8
PLAN_1
  6
CONTINUOUS
 10
1.458626
 20
-3.228740
  0
VERTEX
  8
PLAN_1
  6
CONTINUOUS
 10
1.458626
 20
-3.029260
  0
VERTEX
  8
PLAN_1
  6
CONTINUOUS
 10
1.596602
 20
-3.029260
  0
VERTEX
  8
PLAN_1
  6
CONTINUOUS
 10
1.596602
 20
-3.053134
  0
VERTEX
  8
PLAN_1
  6
CONTINUOUS
 10
1.485736
 20
-3.053134
  0
VERTEX
  8
PLAN_1
  6
CONTINUOUS
 10
1.485736
 20
-3.114232
  0
VERTEX
  8
PLAN_1
  6
CONTINUOUS
 10
1.583248
 20
-3.114232
  0
VERTEX
  8
PLAN_1
  6
CONTINUOUS
 10
1.583248
 20
-3.138102
  0
VERTEX
  8
PLAN_1
  6
CONTINUOUS
 10
1.485736
 20
-3.138102
  0
VERTEX
  8
PLAN_1
  6
CONTINUOUS
 10
1.485736
 20
-3.228740
  0
SEQEND
  8
0
  0
SOLID
  8
PLAN_1
 10
1.615618
 20
-3.228740
 11
1.586890
 21
-3.228740
 12
1.615618
 22
-3.199201
 13
1.586890
 23
-3.199201
  0
POLYLINE
  8
PLAN_1
  6
CONTINUOUS
 66
     1
 40
0.003000
 41
0.003000
  0
VERTEX
  8
PLAN_1
  6
CONTINUOUS
 10
1.615618
 20
-3.228740
  0
VERTEX
  8
PLAN_1
  6
CONTINUOUS
 10
1.586890
 20
-3.228740
  0
VERTEX
  8
PLAN_1
  6
CONTINUOUS
 10
1.586890
 20
-3.199201
  0
VERTEX
  8
PLAN_1
  6
CONTINUOUS
 10
1.615618
 20
-3.199201
  0
VERTEX
  8
PLAN_1
  6
CONTINUOUS
 10
1.615618
 20
-3.228740
  0
SEQEND
  8
0
  0
POLYLINE
  8
PLAN_1
  6
CONTINUOUS
 66
     1
 40
0.003000
 41
0.003000
  0
VERTEX
  8
PLAN_1
  6
CONTINUOUS
 10
1.811055
 20
-3.228740
  0
VERTEX
  8
PLAN_1
  6
CONTINUOUS
 10
1.663772
 20
-3.228740
  0
VERTEX
  8
PLAN_1
  6
CONTINUOUS
 10
1.663772
 20
-3.029260
  0
VERTEX
  8
PLAN_1
  6
CONTINUOUS
 10
1.809031
 20
-3.029260
  0
VERTEX
  8
PLAN_1
  6
CONTINUOUS
 10
1.809031
 20
-3.053134
  0
VERTEX
  8
PLAN_1
  6
CONTINUOUS
 10
1.690878
 20
-3.053134
  0
VERTEX
  8
PLAN_1
  6
CONTINUOUS
 10
1.690878
 20
-3.114232
  0
VERTEX
  8
PLAN_1
  6
CONTINUOUS
 10
1.799724
 20
-3.114232
  0
VERTEX
  8
PLAN_1
  6
CONTINUOUS
 10
1.799724
 20
-3.138102
  0
VERTEX
  8
PLAN_1
  6
CONTINUOUS
 10
1.690878
 20
-3.138102
  0
VERTEX
  8
PLAN_1
  6
CONTINUOUS
 10
1.690878
 20
-3.204866
  0
VERTEX
  8
PLAN_1
  6
CONTINUOUS
 10
1.811055
 20
-3.204866
  0
VERTEX
  8
PLAN_1
  6
CONTINUOUS
 10
1.811055
 20
-3.228740
  0
SEQEND
  8
0
  0
POLYLINE
  8
PLAN_1
  6
CONTINUOUS
 66
     1
 40
0.003000
 41
0.003000
  0
VERTEX
  8
PLAN_1
  6
CONTINUOUS
 10
1.875795
 20
-3.228740
  0
VERTEX
  8
PLAN_1
  6
CONTINUOUS
 10
1.849087
 20
-3.228740
  0
VERTEX
  8
PLAN_1
  6
CONTINUOUS
 10
1.849087
 20
-3.029260
  0
VERTEX
  8
PLAN_1
  6
CONTINUOUS
 10
1.938512
 20
-3.029260
  0
VERTEX
  8
PLAN_1
  6
CONTINUOUS
 10
1.945390
 20
-3.029665
  0
VERTEX
  8
PLAN_1
  6
CONTINUOUS
 10
1.951862
 20
-3.030472
  0
VERTEX
  8
PLAN_1
  6
CONTINUOUS
 10
1.957933
 20
-3.031689
  0
VERTEX
  8
PLAN_1
  6
CONTINUOUS
 10
1.963598
 20
-3.033709
  0
VERTEX
  8
PLAN_1
  6
CONTINUOUS
 10
1.968858
 20
-3.036138
  0
VERTEX
  8
PLAN_1
  6
CONTINUOUS
 10
1.973713
 20
-3.038567
  0
VERTEX
  8
PLAN_1
  6
CONTINUOUS
 10
1.978165
 20
-3.041803
  0
VERTEX
  8
PLAN_1
  6
CONTINUOUS
 10
1.982209
 20
-3.045445
  0
VERTEX
  8
PLAN_1
  6
CONTINUOUS
 10
1.985850
 20
-3.049492
  0
VERTEX
  8
PLAN_1
  6
CONTINUOUS
 10
1.988685
 20
-3.053535
  0
VERTEX
  8
PLAN_1
  6
CONTINUOUS
 10
1.991516
 20
-3.058394
  0
VERTEX
  8
PLAN_1
  6
CONTINUOUS
 10
1.993945
 20
-3.063248
  0
VERTEX
  8
PLAN_1
  6
CONTINUOUS
 10
1.995563
 20
-3.068508
  0
VERTEX
  8
PLAN_1
  6
CONTINUOUS
 10
1.996776
 20
-3.073768
  0
VERTEX
  8
PLAN_1
  6
CONTINUOUS
 10
1.997587
 20
-3.079433
  0
VERTEX
  8
PLAN_1
  6
CONTINUOUS
 10
1.997988
 20
-3.085504
  0
VERTEX
  8
PLAN_1
  6
CONTINUOUS
 10
1.997587
 20
-3.090764
  0
VERTEX
  8
PLAN_1
  6
CONTINUOUS
 10
1.997181
 20
-3.096024
  0
VERTEX
  8
PLAN_1
  6
CONTINUOUS
 10
1.995969
 20
-3.101283
  0
VERTEX
  8
PLAN_1
  6
CONTINUOUS
 10
1.994752
 20
-3.106543
  0
VERTEX
  8
PLAN_1
  6
CONTINUOUS
 10
1.992728
 20
-3.111398
  0
VERTEX
  8
PLAN_1
  6
CONTINUOUS
 10
1.990709
 20
-3.116256
  0
VERTEX
  8
PLAN_1
  6
CONTINUOUS
 10
1.987874
 20
-3.121110
  0
VERTEX
  8
PLAN_1
  6
CONTINUOUS
 10
1.984638
 20
-3.125559
  0
VERTEX
  8
PLAN_1
  6
CONTINUOUS
 10
1.980591
 20
-3.129606
  0
VERTEX
  8
PLAN_1
  6
CONTINUOUS
 10
1.976543
 20
-3.133248
  0
VERTEX
  8
PLAN_1
  6
CONTINUOUS
 10
1.971689
 20
-3.136484
  0
VERTEX
  8
PLAN_1
  6
CONTINUOUS
 10
1.966024
 20
-3.139319
  0
VERTEX
  8
PLAN_1
  6
CONTINUOUS
 10
1.960358
 20
-3.141744
  0
VERTEX
  8
PLAN_1
  6
CONTINUOUS
 10
1.953480
 20
-3.143362
  0
VERTEX
  8
PLAN_1
  6
CONTINUOUS
 10
1.946602
 20
-3.144173
  0
VERTEX
  8
PLAN_1
  6
CONTINUOUS
 10
1.938512
 20
-3.144579
  0
VERTEX
  8
PLAN_1
  6
CONTINUOUS
 10
1.875795
 20
-3.144579
  0
VERTEX
  8
PLAN_1
  6
CONTINUOUS
 10
1.875795
 20
-3.228740
  0
SEQEND
  8
0
  0
POLYLINE
  8
PLAN_1
  6
CONTINUOUS
 66
     1
 40
0.003000
 41
0.003000
  0
VERTEX
  8
PLAN_1
  6
CONTINUOUS
 10
1.875795
 20
-3.121516
  0
VERTEX
  8
PLAN_1
  6
CONTINUOUS
 10
1.929610
 20
-3.121516
  0
VERTEX
  8
PLAN_1
  6
CONTINUOUS
 10
1.934059
 20
-3.121516
  0
VERTEX
  8
PLAN_1
  6
CONTINUOUS
 10
1.938106
 20
-3.121110
  0
VERTEX
  8
PLAN_1
  6
CONTINUOUS
 10
1.942154
 20
-3.120705
  0
VERTEX
  8
PLAN_1
  6
CONTINUOUS
 10
1.946197
 20
-3.119898
  0
VERTEX
  8
PLAN_1
  6
CONTINUOUS
 10
1.949437
 20
-3.118681
  0
VERTEX
  8
PLAN_1
  6
CONTINUOUS
 10
1.953075
 20
-3.117469
  0
VERTEX
  8
PLAN_1
  6
CONTINUOUS
 10
1.955909
 20
-3.115850
  0
VERTEX
  8
PLAN_1
  6
CONTINUOUS
 10
1.958740
 20
-3.113827
  0
VERTEX
  8
PLAN_1
  6
CONTINUOUS
 10
1.961575
 20
-3.111398
  0
VERTEX
  8
PLAN_1
  6
CONTINUOUS
 10
1.963598
 20
-3.108972
  0
VERTEX
  8
PLAN_1
  6
CONTINUOUS
 10
1.965622
 20
-3.106138
  0
VERTEX
  8
PLAN_1
  6
CONTINUOUS
 10
1.967240
 20
-3.102902
  0
VERTEX
  8
PLAN_1
  6
CONTINUOUS
 10
1.968453
 20
-3.099260
  0
VERTEX
  8
PLAN_1
  6
CONTINUOUS
 10
1.969260
 20
-3.095213
  0
VERTEX
  8
PLAN_1
  6
CONTINUOUS
 10
1.970071
 20
-3.090764
  0
VERTEX
  8
PLAN_1
  6
CONTINUOUS
 10
1.970071
 20
-3.085906
  0
VERTEX
  8
PLAN_1
  6
CONTINUOUS
 10
1.969665
 20
-3.081051
  0
VERTEX
  8
PLAN_1
  6
CONTINUOUS
 10
1.969260
 20
-3.077004
  0
VERTEX
  8
PLAN_1
  6
CONTINUOUS
 10
1.968453
 20
-3.073362
  0
VERTEX
  8
PLAN_1
  6
CONTINUOUS
 10
1.966835
 20
-3.069720
  0
VERTEX
  8
PLAN_1
  6
CONTINUOUS
 10
1.965217
 20
-3.066890
  0
VERTEX
  8
PLAN_1
  6
CONTINUOUS
 10
1.963598
 20
-3.064059
  0
VERTEX
  8
PLAN_1
  6
CONTINUOUS
 10
1.961169
 20
-3.061630
  0
VERTEX
  8
PLAN_1
  6
CONTINUOUS
 10
1.958740
 20
-3.059606
  0
VERTEX
  8
PLAN_1
  6
CONTINUOUS
 10
1.955909
 20
-3.057988
  0
VERTEX
  8
PLAN_1
  6
CONTINUOUS
 10
1.952673
 20
-3.056370
  0
VERTEX
  8
PLAN_1
  6
CONTINUOUS
 10
1.949437
 20
-3.055157
  0
VERTEX
  8
PLAN_1
  6
CONTINUOUS
 10
1.946197
 20
-3.053941
  0
VERTEX
  8
PLAN_1
  6
CONTINUOUS
 10
1.942555
 20
-3.053535
  0
VERTEX
  8
PLAN_1
  6
CONTINUOUS
 10
1.938913
 20
-3.052728
  0
VERTEX
  8
PLAN_1
  6
CONTINUOUS
 10
1.934870
 20
-3.052728
  0
VERTEX
  8
PLAN_1
  6
CONTINUOUS
 10
1.930823
 20
-3.052323
  0
VERTEX
  8
PLAN_1
  6
CONTINUOUS
 10
1.875795
 20
-3.052323
  0
VERTEX
  8
PLAN_1
  6
CONTINUOUS
 10
1.875795
 20
-3.121516
  0
SEQEND
  8
0
  0
POLYLINE
  8
PLAN_1
  6
CONTINUOUS
 66
     1
 40
0.003000
 41
0.003000
  0
VERTEX
  8
PLAN_1
  6
CONTINUOUS
 10
2.151748
 20
-3.087528
  0
VERTEX
  8
PLAN_1
  6
CONTINUOUS
 10
2.151343
 20
-3.082264
  0
VERTEX
  8
PLAN_1
  6
CONTINUOUS
 10
2.150130
 20
-3.077004
  0
VERTEX
  8
PLAN_1
  6
CONTINUOUS
 10
2.148512
 20
-3.072555
  0
VERTEX
  8
PLAN_1
  6
CONTINUOUS
 10
2.146488
 20
-3.068508
  0
VERTEX
  8
PLAN_1
  6
CONTINUOUS
 10
2.144059
 20
-3.064866
  0
VERTEX
  8
PLAN_1
  6
CONTINUOUS
 10
2.141228
 20
-3.061224
  0
VERTEX
  8
PLAN_1
  6
CONTINUOUS
 10
2.138394
 20
-3.058394
  0
VERTEX
  8
PLAN_1
  6
CONTINUOUS
 10
2.134752
 20
-3.055965
  0
VERTEX
  8
PLAN_1
  6
CONTINUOUS
 10
2.131110
 20
-3.053941
  0
VERTEX
  8
PLAN_1
  6
CONTINUOUS
 10
2.127469
 20
-3.051917
  0
VERTEX
  8
PLAN_1
  6
CONTINUOUS
 10
2.123425
 20
-3.050299
  0
VERTEX
  8
PLAN_1
  6
CONTINUOUS
 10
2.119378
 20
-3.049087
  0
VERTEX
  8
PLAN_1
  6
CONTINUOUS
 10
2.114925
 20
-3.048276
  0
VERTEX
  8
PLAN_1
  6
CONTINUOUS
 10
2.110882
 20
-3.047874
  0
VERTEX
  8
PLAN_1
  6
CONTINUOUS
 10
2.106429
 20
-3.047469
  0
VERTEX
  8
PLAN_1
  6
CONTINUOUS
 10
2.102382
 20
-3.047063
  0
VERTEX
  8
PLAN_1
  6
CONTINUOUS
 10
2.095504
 20
-3.047469
  0
VERTEX
  8
PLAN_1
  6
CONTINUOUS
 10
2.088220
 20
-3.048276
  0
VERTEX
  8
PLAN_1
  6
CONTINUOUS
 10
2.084177
 20
-3.049087
  0
VERTEX
  8
PLAN_1
  6
CONTINUOUS
 10
2.080535
 20
-3.050299
  0
VERTEX
  8
PLAN_1
  6
CONTINUOUS
 10
2.076894
 20
-3.051516
  0
VERTEX
  8
PLAN_1
  6
CONTINUOUS
 10
2.073252
 20
-3.053535
  0
VERTEX
  8
PLAN_1
  6
CONTINUOUS
 10
2.069610
 20
-3.055559
  0
VERTEX
  8
PLAN_1
  6
CONTINUOUS
 10
2.066776
 20
-3.057988
  0
VERTEX
  8
PLAN_1
  6
CONTINUOUS
 10
2.063945
 20
-3.060819
  0
VERTEX
  8
PLAN_1
  6
CONTINUOUS
 10
2.061516
 20
-3.064059
  0
VERTEX
  8
PLAN_1
  6
CONTINUOUS
 10
2.059492
 20
-3.067701
  0
VERTEX
  8
PLAN_1
  6
CONTINUOUS
 10
2.057874
 20
-3.072150
  0
VERTEX
  8
PLAN_1
  6
CONTINUOUS
 10
2.057067
 20
-3.076602
  0
VERTEX
  8
PLAN_1
  6
CONTINUOUS
 10
2.056661
 20
-3.082264
  0
VERTEX
  8
PLAN_1
  6
CONTINUOUS
 10
2.057067
 20
-3.085098
  0
VERTEX
  8
PLAN_1
  6
CONTINUOUS
 10
2.057469
 20
-3.087929
  0
VERTEX
  8
PLAN_1
  6
CONTINUOUS
 10
2.057874
 20
-3.090358
  0
VERTEX
  8
PLAN_1
  6
CONTINUOUS
 10
2.058685
 20
-3.092787
  0
VERTEX
  8
PLAN_1
  6
CONTINUOUS
 10
2.059898
 20
-3.094807
  0
VERTEX
  8
PLAN_1
  6
CONTINUOUS
 10
2.061110
 20
-3.096831
  0
VERTEX
  8
PLAN_1
  6
CONTINUOUS
 10
2.062728
 20
-3.098449
  0
VERTEX
  8
PLAN_1
  6
CONTINUOUS
 10
2.064350
 20
-3.100071
  0
VERTEX
  8
PLAN_1
  6
CONTINUOUS
 10
2.067587
 20
-3.102496
  0
VERTEX
  8
PLAN_1
  6
CONTINUOUS
 10
2.071630
 20
-3.104520
  0
VERTEX
  8
PLAN_1
  6
CONTINUOUS
 10
2.076083
 20
-3.106138
  0
VERTEX
  8
PLAN_1
  6
CONTINUOUS
 10
2.080535
 20
-3.107350
  0
VERTEX
  8
PLAN_1
  6
CONTINUOUS
 10
2.137181
 20
-3.120299
  0
VERTEX
  8
PLAN_1
  6
CONTINUOUS
 10
2.142035
 20
-3.121917
  0
VERTEX
  8
PLAN_1
  6
CONTINUOUS
 10
2.146488
 20
-3.123134
  0
VERTEX
  8
PLAN_1
  6
CONTINUOUS
 10
2.150937
 20
-3.124752
  0
VERTEX
  8
PLAN_1
  6
CONTINUOUS
 10
2.155390
 20
-3.126776
  0
VERTEX
  8
PLAN_1
  6
CONTINUOUS
 10
2.159031
 20
-3.129201
  0
VERTEX
  8
PLAN_1
  6
CONTINUOUS
 10
2.163079
 20
-3.131630
  0
VERTEX
  8
PLAN_1
  6
CONTINUOUS
 10
2.166315
 20
-3.134461
  0
VERTEX
  8
PLAN_1
  6
CONTINUOUS
 10
2.169551
 20
-3.137701
  0
VERTEX
  8
PLAN_1
  6
CONTINUOUS
 10
2.172382
 20
-3.140937
  0
VERTEX
  8
PLAN_1
  6
CONTINUOUS
 10
2.174811
 20
-3.144579
  0
VERTEX
  8
PLAN_1
  6
CONTINUOUS
 10
2.177240
 20
-3.148626
  0
VERTEX
  8
PLAN_1
  6
CONTINUOUS
 10
2.178858
 20
-3.153075
  0
VERTEX
  8
PLAN_1
  6
CONTINUOUS
 10
2.180476
 20
-3.157528
  0
VERTEX
  8
PLAN_1
  6
CONTINUOUS
 10
2.181689
 20
-3.162787
  0
VERTEX
  8
PLAN_1
  6
CONTINUOUS
 10
2.182094
 20
-3.168047
  0
VERTEX
  8
PLAN_1
  6
CONTINUOUS
 10
2.182500
 20
-3.173713
  0
VERTEX
  8
PLAN_1
  6
CONTINUOUS
 10
2.182500
 20
-3.178161
  0
VERTEX
  8
PLAN_1
  6
CONTINUOUS
 10
2.182094
 20
-3.182209
  0
VERTEX
  8
PLAN_1
  6
CONTINUOUS
 10
2.181283
 20
-3.186256
  0
VERTEX
  8
PLAN_1
  6
CONTINUOUS
 10
2.180476
 20
-3.189898
  0
VERTEX
  8
PLAN_1
  6
CONTINUOUS
 10
2.179665
 20
-3.193539
  0
VERTEX
  8
PLAN_1
  6
CONTINUOUS
 10
2.178047
 20
-3.196776
  0
VERTEX
  8
PLAN_1
  6
CONTINUOUS
 10
2.176835
 20
-3.200012
  0
VERTEX
  8
PLAN_1
  6
CONTINUOUS
 10
2.175217
 20
-3.203248
  0
VERTEX
  8
PLAN_1
  6
CONTINUOUS
 10
2.173193
 20
-3.206083
  0
VERTEX
  8
PLAN_1
  6
CONTINUOUS
 10
2.171169
 20
-3.208508
  0
VERTEX
  8
PLAN_1
  6
CONTINUOUS
 10
2.169146
 20
-3.211343
  0
VERTEX
  8
PLAN_1
  6
CONTINUOUS
 10
2.166720
 20
-3.213768
  0
VERTEX
  8
PLAN_1
  6
CONTINUOUS
 10
2.161862
 20
-3.217815
  0
VERTEX
  8
PLAN_1
  6
CONTINUOUS
 10
2.156197
 20
-3.221457
  0
VERTEX
  8
PLAN_1
  6
CONTINUOUS
 10
2.150535
 20
-3.224693
  0
VERTEX
  8
PLAN_1
  6
CONTINUOUS
 10
2.144059
 20
-3.227528
  0
VERTEX
  8
PLAN_1
  6
CONTINUOUS
 10
2.137587
 20
-3.229547
  0
VERTEX
  8
PLAN_1
  6
CONTINUOUS
 10
2.131110
 20
-3.231169
  0
VERTEX
  8
PLAN_1
  6
CONTINUOUS
 10
2.124232
 20
-3.232382
  0
VERTEX
  8
PLAN_1
  6
CONTINUOUS
 10
2.117760
 20
-3.233189
  0
VERTEX
  8
PLAN_1
  6
CONTINUOUS
 10
2.110882
 20
-3.234000
  0
VERTEX
  8
PLAN_1
  6
CONTINUOUS
 10
2.104406
 20
-3.234000
  0
VERTEX
  8
PLAN_1
  6
CONTINUOUS
 10
2.097933
 20
-3.234000
  0
VERTEX
  8
PLAN_1
  6
CONTINUOUS
 10
2.091862
 20
-3.233594
  0
VERTEX
  8
PLAN_1
  6
CONTINUOUS
 10
2.085795
 20
-3.232787
  0
VERTEX
  8
PLAN_1
  6
CONTINUOUS
 10
2.080937
 20
-3.231976
  0
VERTEX
  8
PLAN_1
  6
CONTINUOUS
 10
2.076083
 20
-3.231169
  0
VERTEX
  8
PLAN_1
  6
CONTINUOUS
 10
2.071630
 20
-3.229953
  0
VERTEX
  8
PLAN_1
  6
CONTINUOUS
 10
2.067587
 20
-3.228740
  0
VERTEX
  8
PLAN_1
  6
CONTINUOUS
 10
2.063945
 20
-3.227528
  0
VERTEX
  8
PLAN_1
  6
CONTINUOUS
 10
2.057469
 20
-3.224287
  0
VERTEX
  8
PLAN_1
  6
CONTINUOUS
 10
2.052209
 20
-3.221051
  0
VERTEX
  8
PLAN_1
  6
CONTINUOUS
 10
2.047760
 20
-3.217815
  0
VERTEX
  8
PLAN_1
  6
CONTINUOUS
 10
2.044118
 20
-3.214984
  0
VERTEX
  8
PLAN_1
  6
CONTINUOUS
 10
2.041283
 20
-3.212150
  0
VERTEX
  8
PLAN_1
  6
CONTINUOUS
 10
2.038453
 20
-3.208913
  0
VERTEX
  8
PLAN_1
  6
CONTINUOUS
 10
2.036024
 20
-3.206083
  0
VERTEX
  8
PLAN_1
  6
CONTINUOUS
 10
2.034000
 20
-3.203248
  0
VERTEX
  8
PLAN_1
  6
CONTINUOUS
 10
2.031980
 20
-3.200012
  0
VERTEX
  8
PLAN_1
  6
CONTINUOUS
 10
2.030358
 20
-3.197177
  0
VERTEX
  8
PLAN_1
  6
CONTINUOUS
 10
2.029146
 20
-3.193941
  0
VERTEX
  8
PLAN_1
  6
CONTINUOUS
 10
2.027933
 20
-3.190705
  0
VERTEX
  8
PLAN_1
  6
CONTINUOUS
 10
2.025909
 20
-3.184634
  0
VERTEX
  8
PLAN_1
  6
CONTINUOUS
 10
2.024697
 20
-3.177756
  0
VERTEX
  8
PLAN_1
  6
CONTINUOUS
 10
2.024291
 20
-3.171283
  0
VERTEX
  8
PLAN_1
  6
CONTINUOUS
 10
2.023886
 20
-3.164406
  0
VERTEX
  8
PLAN_1
  6
CONTINUOUS
 10
2.049378
 20
-3.164406
  0
VERTEX
  8
PLAN_1
  6
CONTINUOUS
 10
2.049783
 20
-3.170878
  0
VERTEX
  8
PLAN_1
  6
CONTINUOUS
 10
2.050591
 20
-3.176543
  0
VERTEX
  8
PLAN_1
  6
CONTINUOUS
 10
2.052209
 20
-3.182209
  0
VERTEX
  8
PLAN_1
  6
CONTINUOUS
 10
2.054232
 20
-3.186657
  0
VERTEX
  8
PLAN_1
  6
CONTINUOUS
 10
2.057067
 20
-3.191110
  0
VERTEX
  8
PLAN_1
  6
CONTINUOUS
 10
2.059898
 20
-3.194752
  0
VERTEX
  8
PLAN_1
  6
CONTINUOUS
 10
2.063539
 20
-3.198394
  0
VERTEX
  8
PLAN_1
  6
CONTINUOUS
 10
2.067181
 20
-3.201224
  0
VERTEX
  8
PLAN_1
  6
CONTINUOUS
 10
2.071228
 20
-3.203654
  0
VERTEX
  8
PLAN_1
  6
CONTINUOUS
 10
2.075677
 20
-3.205677
  0
VERTEX
  8
PLAN_1
  6
CONTINUOUS
 10
2.080130
 20
-3.207295
  0
VERTEX
  8
PLAN_1
  6
CONTINUOUS
 10
2.084984
 20
-3.208913
  0
VERTEX
  8
PLAN_1
  6
CONTINUOUS
 10
2.089839
 20
-3.209724
  0
VERTEX
  8
PLAN_1
  6
CONTINUOUS
 10
2.094697
 20
-3.210531
  0
VERTEX
  8
PLAN_1
  6
CONTINUOUS
 10
2.099551
 20
-3.210937
  0
VERTEX
  8
PLAN_1
  6
CONTINUOUS
 10
2.104406
 20
-3.210937
  0
VERTEX
  8
PLAN_1
  6
CONTINUOUS
 10
2.112094
 20
-3.210531
  0
VERTEX
  8
PLAN_1
  6
CONTINUOUS
 10
2.120591
 20
-3.209724
  0
VERTEX
  8
PLAN_1
  6
CONTINUOUS
 10
2.125043
 20
-3.208913
  0
VERTEX
  8
PLAN_1
  6
CONTINUOUS
 10
2.129091
 20
-3.207701
  0
VERTEX
  8
PLAN_1
  6
CONTINUOUS
 10
2.133539
 20
-3.206484
  0
VERTEX
  8
PLAN_1
  6
CONTINUOUS
 10
2.137587
 20
-3.204866
  0
VERTEX
  8
PLAN_1
  6
CONTINUOUS
 10
2.141634
 20
-3.202843
  0
VERTEX
  8
PLAN_1
  6
CONTINUOUS
 10
2.144870
 20
-3.200417
  0
VERTEX
  8
PLAN_1
  6
CONTINUOUS
 10
2.148106
 20
-3.197988
  0
VERTEX
  8
PLAN_1
  6
CONTINUOUS
 10
2.150937
 20
-3.194752
  0
VERTEX
  8
PLAN_1
  6
CONTINUOUS
 10
2.153366
 20
-3.191110
  0
VERTEX
  8
PLAN_1
  6
CONTINUOUS
 10
2.154984
 20
-3.187063
  0
VERTEX
  8
PLAN_1
  6
CONTINUOUS
 10
2.156197
 20
-3.182614
  0
VERTEX
  8
PLAN_1
  6
CONTINUOUS
 10
2.156602
 20
-3.177354
  0
VERTEX
  8
PLAN_1
  6
CONTINUOUS
 10
2.156197
 20
-3.173713
  0
VERTEX
  8
PLAN_1
  6
CONTINUOUS
 10
2.155795
 20
-3.170071
  0
VERTEX
  8
PLAN_1
  6
CONTINUOUS
 10
2.155390
 20
-3.167236
  0
VERTEX
  8
PLAN_1
  6
CONTINUOUS
 10
2.154177
 20
-3.164000
  0
VERTEX
  8
PLAN_1
  6
CONTINUOUS
 10
2.152961
 20
-3.161571
  0
VERTEX
  8
PLAN_1
  6
CONTINUOUS
 10
2.151748
 20
-3.159146
  0
VERTEX
  8
PLAN_1
  6
CONTINUOUS
 10
2.149724
 20
-3.156717
  0
VERTEX
  8
PLAN_1
  6
CONTINUOUS
 10
2.147295
 20
-3.154693
  0
VERTEX
  8
PLAN_1
  6
CONTINUOUS
 10
2.144870
 20
-3.153075
  0
VERTEX
  8
PLAN_1
  6
CONTINUOUS
 10
2.141634
 20
-3.151051
  0
VERTEX
  8
PLAN_1
  6
CONTINUOUS
 10
2.138394
 20
-3.149433
  0
VERTEX
  8
PLAN_1
  6
CONTINUOUS
 10
2.134350
 20
-3.147815
  0
VERTEX
  8
PLAN_1
  6
CONTINUOUS
 10
2.125043
 20
-3.144984
  0
VERTEX
  8
PLAN_1
  6
CONTINUOUS
 10
2.114118
 20
-3.142150
  0
VERTEX
  8
PLAN_1
  6
CONTINUOUS
 10
2.073252
 20
-3.132843
  0
VERTEX
  8
PLAN_1
  6
CONTINUOUS
 10
2.067587
 20
-3.131224
  0
VERTEX
  8
PLAN_1
  6
CONTINUOUS
 10
2.061110
 20
-3.128799
  0
VERTEX
  8
PLAN_1
  6
CONTINUOUS
 10
2.057469
 20
-3.127583
  0
VERTEX
  8
PLAN_1
  6
CONTINUOUS
 10
2.053827
 20
-3.125559
  0
VERTEX
  8
PLAN_1
  6
CONTINUOUS
 10
2.050591
 20
-3.123535
  0
VERTEX
  8
PLAN_1
  6
CONTINUOUS
 10
2.046949
 20
-3.121110
  0
VERTEX
  8
PLAN_1
  6
CONTINUOUS
 10
2.043713
 20
-3.118276
  0
VERTEX
  8
PLAN_1
  6
CONTINUOUS
 10
2.040476
 20
-3.115039
  0
VERTEX
  8
PLAN_1
  6
CONTINUOUS
 10
2.038047
 20
-3.111398
  0
VERTEX
  8
PLAN_1
  6
CONTINUOUS
 10
2.035622
 20
-3.107350
  0
VERTEX
  8
PLAN_1
  6
CONTINUOUS
 10
2.033598
 20
-3.102902
  0
VERTEX
  8
PLAN_1
  6
CONTINUOUS
 10
2.031980
 20
-3.097642
  0
VERTEX
  8
PLAN_1
  6
CONTINUOUS
 10
2.031169
 20
-3.091976
  0
VERTEX
  8
PLAN_1
  6
CONTINUOUS
 10
2.030764
 20
-3.085906
  0
VERTEX
  8
PLAN_1
  6
CONTINUOUS
 10
2.030764
 20
-3.079839
  0
VERTEX
  8
PLAN_1
  6
CONTINUOUS
 10
2.031575
 20
-3.074173
  0
VERTEX
  8
PLAN_1
  6
CONTINUOUS
 10
2.032787
 20
-3.068508
  0
VERTEX
  8
PLAN_1
  6
CONTINUOUS
 10
2.034406
 20
-3.062843
  0
VERTEX
  8
PLAN_1
  6
CONTINUOUS
 10
2.036835
 20
-3.057583
  0
VERTEX
  8
PLAN_1
  6
CONTINUOUS
 10
2.039665
 20
-3.052728
  0
VERTEX
  8
PLAN_1
  6
CONTINUOUS
 10
2.042902
 20
-3.047874
  0
VERTEX
  8
PLAN_1
  6
CONTINUOUS
 10
2.046949
 20
-3.043421
  0
VERTEX
  8
PLAN_1
  6
CONTINUOUS
 10
2.051402
 20
-3.039374
  0
VERTEX
  8
PLAN_1
  6
CONTINUOUS
 10
2.056256
 20
-3.035331
  0
VERTEX
  8
PLAN_1
  6
CONTINUOUS
 10
2.061921
 20
-3.032091
  0
VERTEX
  8
PLAN_1
  6
CONTINUOUS
 10
2.067992
 20
-3.029260
  0
VERTEX
  8
PLAN_1
  6
CONTINUOUS
 10
2.074870
 20
-3.027236
  0
VERTEX
  8
PLAN_1
  6
CONTINUOUS
 10
2.082555
 20
-3.025618
  0
VERTEX
  8
PLAN_1
  6
CONTINUOUS
 10
2.090650
 20
-3.024406
  0
VERTEX
  8
PLAN_1
  6
CONTINUOUS
 10
2.099146
 20
-3.024000
  0
VERTEX
  8
PLAN_1
  6
CONTINUOUS
 10
2.105622
 20
-3.024406
  0
VERTEX
  8
PLAN_1
  6
CONTINUOUS
 10
2.111689
 20
-3.024807
  0
VERTEX
  8
PLAN_1
  6
CONTINUOUS
 10
2.117354
 20
-3.025213
  0
VERTEX
  8
PLAN_1
  6
CONTINUOUS
 10
2.122614
 20
-3.026024
  0
VERTEX
  8
PLAN_1
  6
CONTINUOUS
 10
2.127469
 20
-3.026831
  0
VERTEX
  8
PLAN_1
  6
CONTINUOUS
 10
2.132327
 20
-3.028047
  0
VERTEX
  8
PLAN_1
  6
CONTINUOUS
 10
2.136370
 20
-3.029665
  0
VERTEX
  8
PLAN_1
  6
CONTINUOUS
 10
2.140417
 20
-3.030878
  0
VERTEX
  8
PLAN_1
  6
CONTINUOUS
 10
2.144465
 20
-3.032496
  0
VERTEX
  8
PLAN_1
  6
CONTINUOUS
 10
2.147701
 20
-3.034520
  0
VERTEX
  8
PLAN_1
  6
CONTINUOUS
 10
2.150937
 20
-3.036543
  0
VERTEX
  8
PLAN_1
  6
CONTINUOUS
 10
2.154177
 20
-3.038567
  0
VERTEX
  8
PLAN_1
  6
CONTINUOUS
 10
2.157008
 20
-3.040591
  0
VERTEX
  8
PLAN_1
  6
CONTINUOUS
 10
2.159437
 20
-3.043016
  0
VERTEX
  8
PLAN_1
  6
CONTINUOUS
 10
2.161862
 20
-3.045445
  0
VERTEX
  8
PLAN_1
  6
CONTINUOUS
 10
2.163886
 20
-3.047874
  0
VERTEX
  8
PLAN_1
  6
CONTINUOUS
 10
2.167528
 20
-3.052728
  0
VERTEX
  8
PLAN_1
  6
CONTINUOUS
 10
2.170362
 20
-3.057988
  0
VERTEX
  8
PLAN_1
  6
CONTINUOUS
 10
2.172382
 20
-3.063248
  0
VERTEX
  8
PLAN_1
  6
CONTINUOUS
 10
2.174004
 20
-3.068508
  0
VERTEX
  8
PLAN_1
  6
CONTINUOUS
 10
2.175217
 20
-3.073768
  0
VERTEX
  8
PLAN_1
  6
CONTINUOUS
 10
2.176024
 20
-3.078622
  0
VERTEX
  8
PLAN_1
  6
CONTINUOUS
 10
2.176835
 20
-3.083480
  0
VERTEX
  8
PLAN_1
  6
CONTINUOUS
 10
2.176835
 20
-3.087528
  0
VERTEX
  8
PLAN_1
  6
CONTINUOUS
 10
2.151748
 20
-3.087528
  0
SEQEND
  8
0
  0
POLYLINE
  8
PLAN_1
  6
CONTINUOUS
 66
     1
 40
0.008496
 41
0.008496
  0
VERTEX
  8
PLAN_1
  6
CONTINUOUS
 10
-1.520630
 20
2.342945
  0
VERTEX
  8
PLAN_1
  6
CONTINUOUS
 10
-1.520630
 20
2.034622
  0
VERTEX
  8
PLAN_1
  6
CONTINUOUS
 10
-0.464154
 20
2.034622
  0
VERTEX
  8
PLAN_1
  6
CONTINUOUS
 10
-0.464154
 20
2.342945
  0
SEQEND
  8
0
  0
POLYLINE
  8
PLAN_1
  6
CONTINUOUS
 66
     1
 40
0.006878
 41
0.006878
  0
VERTEX
  8
PLAN_1
  6
CONTINUOUS
 10
-1.481382
 20
2.034217
  0
VERTEX
  8
PLAN_1
  6
CONTINUOUS
 10
-1.481382
 20
2.113118
  0
VERTEX
  8
PLAN_1
  6
CONTINUOUS
 10
-1.520630
 20
2.113118
  0
SEQEND
  8
0
  0
POLYLINE
  8
PLAN_1
  6
CONTINUOUS
 66
     1
 40
0.006878
 41
0.006878
  0
VERTEX
  8
PLAN_1
  6
CONTINUOUS
 10
-0.502189
 20
2.034217
  0
VERTEX
  8
PLAN_1
  6
CONTINUOUS
 10
-0.501783
 20
2.113118
  0
VERTEX
  8
PLAN_1
  6
CONTINUOUS
 10
-0.465366
 20
2.113118
  0
SEQEND
  8
0
  0
POLYLINE
  8
PLAN_1
  6
CONTINUOUS
 66
     1
 40
0.004043
 41
0.004043
  0
VERTEX
  8
PLAN_1
  6
CONTINUOUS
 10
-2.180976
 20
1.385201
  0
VERTEX
  8
PLAN_1
  6
CONTINUOUS
 10
-2.180976
 20
1.889768
  0
SEQEND
  8
0
  0
POLYLINE
  8
PLAN_1
  6
CONTINUOUS
 66
     1
 40
0.004043
 41
0.004043
  0
VERTEX
  8
PLAN_1
  6
CONTINUOUS
 10
-2.180976
 20
1.889768
  0
VERTEX
  8
PLAN_1
  6
CONTINUOUS
 10
-2.180571
 20
1.896240
  0
VERTEX
  8
PLAN_1
  6
CONTINUOUS
 10
-2.177740
 20
1.912831
  0
VERTEX
  8
PLAN_1
  6
CONTINUOUS
 10
-2.176528
 20
1.918091
  0
VERTEX
  8
PLAN_1
  6
CONTINUOUS
 10
-2.174909
 20
1.923756
  0
VERTEX
  8
PLAN_1
  6
CONTINUOUS
 10
-2.173287
 20
1.929823
  0
VERTEX
  8
PLAN_1
  6
CONTINUOUS
 10
-2.170862
 20
1.935894
  0
VERTEX
  8
PLAN_1
  6
CONTINUOUS
 10
-2.168433
 20
1.942366
  0
VERTEX
  8
PLAN_1
  6
CONTINUOUS
 10
-2.165197
 20
1.948843
  0
VERTEX
  8
PLAN_1
  6
CONTINUOUS
 10
-2.161961
 20
1.955720
  0
VERTEX
  8
PLAN_1
  6
CONTINUOUS
 10
-2.157913
 20
1.962598
  0
VERTEX
  8
PLAN_1
  6
CONTINUOUS
 10
-2.153461
 20
1.969476
  0
VERTEX
  8
PLAN_1
  6
CONTINUOUS
 10
-2.148606
 20
1.975953
  0
VERTEX
  8
PLAN_1
  6
CONTINUOUS
 10
-2.143346
 20
1.982831
  0
VERTEX
  8
PLAN_1
  6
CONTINUOUS
 10
-2.137276
 20
1.989303
  0
VERTEX
  8
PLAN_1
  6
CONTINUOUS
 10
-2.130398
 20
1.995374
  0
VERTEX
  8
PLAN_1
  6
CONTINUOUS
 10
-2.123114
 20
2.001441
  0
VERTEX
  8
PLAN_1
  6
CONTINUOUS
 10
-2.115429
 20
2.007106
  0
VERTEX
  8
PLAN_1
  6
CONTINUOUS
 10
-2.106528
 20
2.012366
  0
VERTEX
  8
PLAN_1
  6
CONTINUOUS
 10
-2.097220
 20
2.017224
  0
VERTEX
  8
PLAN_1
  6
CONTINUOUS
 10
-2.087102
 20
2.021673
  0
VERTEX
  8
PLAN_1
  6
CONTINUOUS
 10
-2.075776
 20
2.025720
  0
VERTEX
  8
PLAN_1
  6
CONTINUOUS
 10
-2.064039
 20
2.028957
  0
VERTEX
  8
PLAN_1
  6
CONTINUOUS
 10
-2.051496
 20
2.031386
  0
VERTEX
  8
PLAN_1
  6
CONTINUOUS
 10
-2.038146
 20
2.033409
  0
VERTEX
  8
PLAN_1
  6
CONTINUOUS
 10
-2.023579
 20
2.034622
  0
VERTEX
  8
PLAN_1
  6
CONTINUOUS
 10
-2.008201
 20
2.035028
  0
VERTEX
  8
PLAN_1
  6
CONTINUOUS
 10
-1.870630
 20
2.035028
  0
VERTEX
  8
PLAN_1
  6
CONTINUOUS
 10
-1.615311
 20
2.035028
  0
VERTEX
  8
PLAN_1
  6
CONTINUOUS
 10
-1.283925
 20
2.035028
  0
VERTEX
  8
PLAN_1
  6
CONTINUOUS
 10
-0.918547
 20
2.035028
  0
VERTEX
  8
PLAN_1
  6
CONTINUOUS
 10
-0.561669
 20
2.035028
  0
VERTEX
  8
PLAN_1
  6
CONTINUOUS
 10
-0.254559
 20
2.035028
  0
VERTEX
  8
PLAN_1
  6
CONTINUOUS
 10
-0.039295
 20
2.035028
  0
VERTEX
  8
PLAN_1
  6
CONTINUOUS
 10
0.041630
 20
2.035028
  0
VERTEX
  8
PLAN_1
  6
CONTINUOUS
 10
0.043248
 20
2.035028
  0
VERTEX
  8
PLAN_1
  6
CONTINUOUS
 10
0.048102
 20
2.035028
  0
VERTEX
  8
PLAN_1
  6
CONTINUOUS
 10
0.055791
 20
2.034622
  0
VERTEX
  8
PLAN_1
  6
CONTINUOUS
 10
0.065500
 20
2.033811
  0
VERTEX
  8
PLAN_1
  6
CONTINUOUS
 10
0.070760
 20
2.032598
  0
VERTEX
  8
PLAN_1
  6
CONTINUOUS
 10
0.076831
 20
2.031386
  0
VERTEX
  8
PLAN_1
  6
CONTINUOUS
 10
0.083303
 20
2.029768
  0
VERTEX
  8
PLAN_1
  6
CONTINUOUS
 10
0.089780
 20
2.027744
  0
VERTEX
  8
PLAN_1
  6
CONTINUOUS
 10
0.096657
 20
2.025315
  0
VERTEX
  8
PLAN_1
  6
CONTINUOUS
 10
0.103535
 20
2.022484
  0
VERTEX
  8
PLAN_1
  6
CONTINUOUS
 10
0.110413
 20
2.019248
  0
VERTEX
  8
PLAN_1
  6
CONTINUOUS
 10
0.117697
 20
2.015201
  0
VERTEX
  8
PLAN_1
  6
CONTINUOUS
 10
0.124575
 20
2.010748
  0
VERTEX
  8
PLAN_1
  6
CONTINUOUS
 10
0.131858
 20
2.005488
  0
VERTEX
  8
PLAN_1
  6
CONTINUOUS
 10
0.138740
 20
1.999823
  0
VERTEX
  8
PLAN_1
  6
CONTINUOUS
 10
0.145618
 20
1.993350
  0
VERTEX
  8
PLAN_1
  6
CONTINUOUS
 10
0.152091
 20
1.986067
  0
VERTEX
  8
PLAN_1
  6
CONTINUOUS
 10
0.158563
 20
1.977976
  0
VERTEX
  8
PLAN_1
  6
CONTINUOUS
 10
0.164228
 20
1.969075
  0
VERTEX
  8
PLAN_1
  6
CONTINUOUS
 10
0.169894
 20
1.959362
  0
VERTEX
  8
PLAN_1
  6
CONTINUOUS
 10
0.175154
 20
1.948437
  0
VERTEX
  8
PLAN_1
  6
CONTINUOUS
 10
0.179606
 20
1.937106
  0
VERTEX
  8
PLAN_1
  6
CONTINUOUS
 10
0.183654
 20
1.924563
  0
VERTEX
  8
PLAN_1
  6
CONTINUOUS
 10
0.187291
 20
1.910807
  0
VERTEX
  8
PLAN_1
  6
CONTINUOUS
 10
0.189720
 20
1.896240
  0
VERTEX
  8
PLAN_1
  6
CONTINUOUS
 10
0.191744
 20
1.880055
  0
VERTEX
  8
PLAN_1
  6
CONTINUOUS
 10
0.193362
 20
1.863063
  0
VERTEX
  8
PLAN_1
  6
CONTINUOUS
 10
0.193768
 20
1.844854
  0
VERTEX
  8
PLAN_1
  6
CONTINUOUS
 10
0.193768
 20
1.767165
  0
VERTEX
  8
PLAN_1
  6
CONTINUOUS
 10
0.193768
 20
1.687051
  0
VERTEX
  8
PLAN_1
  6
CONTINUOUS
 10
0.193768
 20
1.608146
  0
VERTEX
  8
PLAN_1
  6
CONTINUOUS
 10
0.193768
 20
1.534909
  0
VERTEX
  8
PLAN_1
  6
CONTINUOUS
 10
0.193768
 20
1.470980
  0
VERTEX
  8
PLAN_1
  6
CONTINUOUS
 10
0.193768
 20
1.420402
  0
VERTEX
  8
PLAN_1
  6
CONTINUOUS
 10
0.193768
 20
1.386819
  0
VERTEX
  8
PLAN_1
  6
CONTINUOUS
 10
0.193768
 20
1.375083
  0
SEQEND
  8
0
  0
POLYLINE
  8
PLAN_1
  6
CONTINUOUS
 66
     1
 40
0.008496
 41
0.008496
  0
VERTEX
  8
PLAN_1
  6
CONTINUOUS
 10
-1.311843
 20
1.697165
  0
VERTEX
  8
PLAN_1
  6
CONTINUOUS
 10
-1.263287
 20
1.513059
  0
VERTEX
  8
PLAN_1
  6
CONTINUOUS
 10
-0.724327
 20
1.513059
  0
VERTEX
  8
PLAN_1
  6
CONTINUOUS
 10
-0.663634
 20
1.697165
  0
VERTEX
  8
PLAN_1
  6
CONTINUOUS
 10
-1.311843
 20
1.697165
  0
SEQEND
  8
0
  0
POLYLINE
  8
PLAN_1
  6
CONTINUOUS
 66
     1
 40
0.006878
 41
0.006878
  0
VERTEX
  8
PLAN_1
  6
CONTINUOUS
 10
-1.268547
 20
1.694736
  0
VERTEX
  8
PLAN_1
  6
CONTINUOUS
 10
-1.222016
 20
1.513059
  0
SEQEND
  8
0
  0
POLYLINE
  8
PLAN_1
  6
CONTINUOUS
 66
     1
 40
0.006878
 41
0.006878
  0
VERTEX
  8
PLAN_1
  6
CONTINUOUS
 10
-1.237390
 20
1.694736
  0
VERTEX
  8
PLAN_1
  6
CONTINUOUS
 10
-1.190858
 20
1.513059
  0
SEQEND
  8
0
  0
POLYLINE
  8
PLAN_1
  6
CONTINUOUS
 66
     1
 40
0.006878
 41
0.006878
  0
VERTEX
  8
PLAN_1
  6
CONTINUOUS
 10
-0.724327
 20
1.696354
  0
VERTEX
  8
PLAN_1
  6
CONTINUOUS
 10
-0.770858
 20
1.515083
  0
SEQEND
  8
0
  0
POLYLINE
  8
PLAN_1
  6
CONTINUOUS
 66
     1
 40
0.006878
 41
0.006878
  0
VERTEX
  8
PLAN_1
  6
CONTINUOUS
 10
-0.755484
 20
1.696354
  0
VERTEX
  8
PLAN_1
  6
CONTINUOUS
 10
-0.802016
 20
1.515083
  0
SEQEND
  8
0
  0
POLYLINE
  8
PLAN_1
  6
CONTINUOUS
 66
     1
 40
0.003000
 41
0.003000
  0
VERTEX
  8
PLAN_1
  6
CONTINUOUS
 10
-1.855252
 20
1.874390
  0
VERTEX
  8
PLAN_1
  6
CONTINUOUS
 10
-1.858492
 20
1.874390
  0
VERTEX
  8
PLAN_1
  6
CONTINUOUS
 10
-1.861323
 20
1.873984
  0
VERTEX
  8
PLAN_1
  6
CONTINUOUS
 10
-1.864559
 20
1.873177
  0
VERTEX
  8
PLAN_1
  6
CONTINUOUS
 10
-1.867394
 20
1.871965
  0
VERTEX
  8
PLAN_1
  6
CONTINUOUS
 10
-1.870224
 20
1.870748
  0
VERTEX
  8
PLAN_1
  6
CONTINUOUS
 10
-1.873059
 20
1.869130
  0
VERTEX
  8
PLAN_1
  6
CONTINUOUS
 10
-1.875484
 20
1.867106
  0
VERTEX
  8
PLAN_1
  6
CONTINUOUS
 10
-1.877508
 20
1.865083
  0
VERTEX
  8
PLAN_1
  6
CONTINUOUS
 10
-1.879531
 20
1.863063
  0
VERTEX
  8
PLAN_1
  6
CONTINUOUS
 10
-1.881555
 20
1.860634
  0
VERTEX
  8
PLAN_1
  6
CONTINUOUS
 10
-1.883173
 20
1.857799
  0
VERTEX
  8
PLAN_1
  6
CONTINUOUS
 10
-1.884386
 20
1.854969
  0
VERTEX
  8
PLAN_1
  6
CONTINUOUS
 10
-1.885602
 20
1.852138
  0
VERTEX
  8
PLAN_1
  6
CONTINUOUS
 10
-1.886409
 20
1.849303
  0
VERTEX
  8
PLAN_1
  6
CONTINUOUS
 10
-1.886815
 20
1.846067
  0
VERTEX
  8
PLAN_1
  6
CONTINUOUS
 10
-1.886815
 20
1.842831
  0
VERTEX
  8
PLAN_1
  6
CONTINUOUS
 10
-1.886815
 20
1.839594
  0
VERTEX
  8
PLAN_1
  6
CONTINUOUS
 10
-1.886409
 20
1.836354
  0
VERTEX
  8
PLAN_1
  6
CONTINUOUS
 10
-1.885602
 20
1.833524
  0
VERTEX
  8
PLAN_1
  6
CONTINUOUS
 10
-1.884386
 20
1.830287
  0
VERTEX
  8
PLAN_1
  6
CONTINUOUS
 10
-1.883173
 20
1.827453
  0
VERTEX
  8
PLAN_1
  6
CONTINUOUS
 10
-1.881555
 20
1.825028
  0
VERTEX
  8
PLAN_1
  6
CONTINUOUS
 10
-1.879531
 20
1.822598
  0
VERTEX
  8
PLAN_1
  6
CONTINUOUS
 10
-1.877508
 20
1.820169
  0
VERTEX
  8
PLAN_1
  6
CONTINUOUS
 10
-1.875484
 20
1.818150
  0
VERTEX
  8
PLAN_1
  6
CONTINUOUS
 10
-1.873059
 20
1.816528
  0
VERTEX
  8
PLAN_1
  6
CONTINUOUS
 10
-1.870224
 20
1.814909
  0
VERTEX
  8
PLAN_1
  6
CONTINUOUS
 10
-1.867394
 20
1.813697
  0
VERTEX
  8
PLAN_1
  6
CONTINUOUS
 10
-1.864559
 20
1.812484
  0
VERTEX
  8
PLAN_1
  6
CONTINUOUS
 10
-1.861323
 20
1.811673
  0
VERTEX
  8
PLAN_1
  6
CONTINUOUS
 10
-1.858492
 20
1.811268
  0
VERTEX
  8
PLAN_1
  6
CONTINUOUS
 10
-1.855252
 20
1.810866
  0
VERTEX
  8
PLAN_1
  6
CONTINUOUS
 10
-1.852016
 20
1.811268
  0
VERTEX
  8
PLAN_1
  6
CONTINUOUS
 10
-1.848780
 20
1.811673
  0
VERTEX
  8
PLAN_1
  6
CONTINUOUS
 10
-1.845543
 20
1.812484
  0
VERTEX
  8
PLAN_1
  6
CONTINUOUS
 10
-1.842709
 20
1.813697
  0
VERTEX
  8
PLAN_1
  6
CONTINUOUS
 10
-1.839878
 20
1.814909
  0
VERTEX
  8
PLAN_1
  6
CONTINUOUS
 10
-1.837449
 20
1.816528
  0
VERTEX
  8
PLAN_1
  6
CONTINUOUS
 10
-1.835024
 20
1.818150
  0
VERTEX
  8
PLAN_1
  6
CONTINUOUS
 10
-1.832594
 20
1.820169
  0
VERTEX
  8
PLAN_1
  6
CONTINUOUS
 10
-1.830571
 20
1.822598
  0
VERTEX
  8
PLAN_1
  6
CONTINUOUS
 10
-1.828953
 20
1.825028
  0
VERTEX
  8
PLAN_1
  6
CONTINUOUS
 10
-1.827335
 20
1.827453
  0
VERTEX
  8
PLAN_1
  6
CONTINUOUS
 10
-1.825717
 20
1.830287
  0
VERTEX
  8
PLAN_1
  6
CONTINUOUS
 10
-1.824906
 20
1.833524
  0
VERTEX
  8
PLAN_1
  6
CONTINUOUS
 10
-1.824098
 20
1.836354
  0
VERTEX
  8
PLAN_1
  6
CONTINUOUS
 10
-1.823693
 20
1.839594
  0
VERTEX
  8
PLAN_1
  6
CONTINUOUS
 10
-1.823287
 20
1.842831
  0
VERTEX
  8
PLAN_1
  6
CONTINUOUS
 10
-1.823693
 20
1.846067
  0
VERTEX
  8
PLAN_1
  6
CONTINUOUS
 10
-1.824098
 20
1.849303
  0
VERTEX
  8
PLAN_1
  6
CONTINUOUS
 10
-1.824906
 20
1.852138
  0
VERTEX
  8
PLAN_1
  6
CONTINUOUS
 10
-1.825717
 20
1.854969
  0
VERTEX
  8
PLAN_1
  6
CONTINUOUS
 10
-1.827335
 20
1.857799
  0
VERTEX
  8
PLAN_1
  6
CONTINUOUS
 10
-1.828953
 20
1.860634
  0
VERTEX
  8
PLAN_1
  6
CONTINUOUS
 10
-1.830571
 20
1.863063
  0
VERTEX
  8
PLAN_1
  6
CONTINUOUS
 10
-1.832594
 20
1.865083
  0
VERTEX
  8
PLAN_1
  6
CONTINUOUS
 10
-1.835024
 20
1.867106
  0
VERTEX
  8
PLAN_1
  6
CONTINUOUS
 10
-1.837449
 20
1.869130
  0
VERTEX
  8
PLAN_1
  6
CONTINUOUS
 10
-1.839878
 20
1.870748
  0
VERTEX
  8
PLAN_1
  6
CONTINUOUS
 10
-1.842709
 20
1.871965
  0
VERTEX
  8
PLAN_1
  6
CONTINUOUS
 10
-1.845543
 20
1.873177
  0
VERTEX
  8
PLAN_1
  6
CONTINUOUS
 10
-1.848780
 20
1.873984
  0
VERTEX
  8
PLAN_1
  6
CONTINUOUS
 10
-1.852016
 20
1.874390
  0
VERTEX
  8
PLAN_1
  6
CONTINUOUS
 10
-1.855252
 20
1.874390
  0
SEQEND
  8
0
  0
POLYLINE
  8
PLAN_1
  6
CONTINUOUS
 66
     1
 40
0.003000
 41
0.003000
  0
VERTEX
  8
PLAN_1
  6
CONTINUOUS
 10
-0.111724
 20
1.874390
  0
VERTEX
  8
PLAN_1
  6
CONTINUOUS
 10
-0.114961
 20
1.874390
  0
VERTEX
  8
PLAN_1
  6
CONTINUOUS
 10
-0.118197
 20
1.873984
  0
VERTEX
  8
PLAN_1
  6
CONTINUOUS
 10
-0.121437
 20
1.873177
  0
VERTEX
  8
PLAN_1
  6
CONTINUOUS
 10
-0.124268
 20
1.871965
  0
VERTEX
  8
PLAN_1
  6
CONTINUOUS
 10
-0.127098
 20
1.870748
  0
VERTEX
  8
PLAN_1
  6
CONTINUOUS
 10
-0.129528
 20
1.869130
  0
VERTEX
  8
PLAN_1
  6
CONTINUOUS
 10
-0.131957
 20
1.867106
  0
VERTEX
  8
PLAN_1
  6
CONTINUOUS
 10
-0.134382
 20
1.865083
  0
VERTEX
  8
PLAN_1
  6
CONTINUOUS
 10
-0.136406
 20
1.863063
  0
VERTEX
  8
PLAN_1
  6
CONTINUOUS
 10
-0.138429
 20
1.860634
  0
VERTEX
  8
PLAN_1
  6
CONTINUOUS
 10
-0.140047
 20
1.857799
  0
VERTEX
  8
PLAN_1
  6
CONTINUOUS
 10
-0.141264
 20
1.854969
  0
VERTEX
  8
PLAN_1
  6
CONTINUOUS
 10
-0.142071
 20
1.852138
  0
VERTEX
  8
PLAN_1
  6
CONTINUOUS
 10
-0.142882
 20
1.849303
  0
VERTEX
  8
PLAN_1
  6
CONTINUOUS
 10
-0.143689
 20
1.846067
  0
VERTEX
  8
PLAN_1
  6
CONTINUOUS
 10
-0.143689
 20
1.842831
  0
VERTEX
  8
PLAN_1
  6
CONTINUOUS
 10
-0.143689
 20
1.839594
  0
VERTEX
  8
PLAN_1
  6
CONTINUOUS
 10
-0.142882
 20
1.836354
  0
VERTEX
  8
PLAN_1
  6
CONTINUOUS
 10
-0.142071
 20
1.833524
  0
VERTEX
  8
PLAN_1
  6
CONTINUOUS
 10
-0.141264
 20
1.830287
  0
VERTEX
  8
PLAN_1
  6
CONTINUOUS
 10
-0.140047
 20
1.827453
  0
VERTEX
  8
PLAN_1
  6
CONTINUOUS
 10
-0.138429
 20
1.825028
  0
VERTEX
  8
PLAN_1
  6
CONTINUOUS
 10
-0.136406
 20
1.822598
  0
VERTEX
  8
PLAN_1
  6
CONTINUOUS
 10
-0.134382
 20
1.820169
  0
VERTEX
  8
PLAN_1
  6
CONTINUOUS
 10
-0.131957
 20
1.818150
  0
VERTEX
  8
PLAN_1
  6
CONTINUOUS
 10
-0.129528
 20
1.816528
  0
VERTEX
  8
PLAN_1
  6
CONTINUOUS
 10
-0.127098
 20
1.814909
  0
VERTEX
  8
PLAN_1
  6
CONTINUOUS
 10
-0.124268
 20
1.813697
  0
VERTEX
  8
PLAN_1
  6
CONTINUOUS
 10
-0.121437
 20
1.812484
  0
VERTEX
  8
PLAN_1
  6
CONTINUOUS
 10
-0.118197
 20
1.811673
  0
VERTEX
  8
PLAN_1
  6
CONTINUOUS
 10
-0.114961
 20
1.811268
  0
VERTEX
  8
PLAN_1
  6
CONTINUOUS
 10
-0.111724
 20
1.810866
  0
VERTEX
  8
PLAN_1
  6
CONTINUOUS
 10
-0.108488
 20
1.811268
  0
VERTEX
  8
PLAN_1
  6
CONTINUOUS
 10
-0.105654
 20
1.811673
  0
VERTEX
  8
PLAN_1
  6
CONTINUOUS
 10
-0.102417
 20
1.812484
  0
VERTEX
  8
PLAN_1
  6
CONTINUOUS
 10
-0.099587
 20
1.813697
  0
VERTEX
  8
PLAN_1
  6
CONTINUOUS
 10
-0.096752
 20
1.814909
  0
VERTEX
  8
PLAN_1
  6
CONTINUOUS
 10
-0.094327
 20
1.816528
  0
VERTEX
  8
PLAN_1
  6
CONTINUOUS
 10
-0.091898
 20
1.818150
  0
VERTEX
  8
PLAN_1
  6
CONTINUOUS
 10
-0.089469
 20
1.820169
  0
VERTEX
  8
PLAN_1
  6
CONTINUOUS
 10
-0.087449
 20
1.822598
  0
VERTEX
  8
PLAN_1
  6
CONTINUOUS
 10
-0.085425
 20
1.825028
  0
VERTEX
  8
PLAN_1
  6
CONTINUOUS
 10
-0.083807
 20
1.827453
  0
VERTEX
  8
PLAN_1
  6
CONTINUOUS
 10
-0.082591
 20
1.830287
  0
VERTEX
  8
PLAN_1
  6
CONTINUOUS
 10
-0.081378
 20
1.833524
  0
VERTEX
  8
PLAN_1
  6
CONTINUOUS
 10
-0.080972
 20
1.836354
  0
VERTEX
  8
PLAN_1
  6
CONTINUOUS
 10
-0.080165
 20
1.839594
  0
VERTEX
  8
PLAN_1
  6
CONTINUOUS
 10
-0.080165
 20
1.842831
  0
VERTEX
  8
PLAN_1
  6
CONTINUOUS
 10
-0.080165
 20
1.846067
  0
VERTEX
  8
PLAN_1
  6
CONTINUOUS
 10
-0.080972
 20
1.849303
  0
VERTEX
  8
PLAN_1
  6
CONTINUOUS
 10
-0.081378
 20
1.852138
  0
VERTEX
  8
PLAN_1
  6
CONTINUOUS
 10
-0.082591
 20
1.854969
  0
VERTEX
  8
PLAN_1
  6
CONTINUOUS
 10
-0.083807
 20
1.857799
  0
VERTEX
  8
PLAN_1
  6
CONTINUOUS
 10
-0.085425
 20
1.860634
  0
VERTEX
  8
PLAN_1
  6
CONTINUOUS
 10
-0.087449
 20
1.863063
  0
VERTEX
  8
PLAN_1
  6
CONTINUOUS
 10
-0.089469
 20
1.865083
  0
VERTEX
  8
PLAN_1
  6
CONTINUOUS
 10
-0.091898
 20
1.867106
  0
VERTEX
  8
PLAN_1
  6
CONTINUOUS
 10
-0.094327
 20
1.869130
  0
VERTEX
  8
PLAN_1
  6
CONTINUOUS
 10
-0.096752
 20
1.870748
  0
VERTEX
  8
PLAN_1
  6
CONTINUOUS
 10
-0.099587
 20
1.871965
  0
VERTEX
  8
PLAN_1
  6
CONTINUOUS
 10
-0.102417
 20
1.873177
  0
VERTEX
  8
PLAN_1
  6
CONTINUOUS
 10
-0.105654
 20
1.873984
  0
VERTEX
  8
PLAN_1
  6
CONTINUOUS
 10
-0.108488
 20
1.874390
  0
VERTEX
  8
PLAN_1
  6
CONTINUOUS
 10
-0.111724
 20
1.874390
  0
SEQEND
  8
0
  0
POLYLINE
  8
PLAN_1
  6
CONTINUOUS
 66
     1
 40
0.008496
 41
0.008496
  0
VERTEX
  8
PLAN_1
  6
CONTINUOUS
 10
-0.603343
 20
2.540807
  0
VERTEX
  8
PLAN_1
  6
CONTINUOUS
 10
-0.603343
 20
2.579654
  0
VERTEX
  8
PLAN_1
  6
CONTINUOUS
 10
-1.388315
 20
2.579654
  0
VERTEX
  8
PLAN_1
  6
CONTINUOUS
 10
-1.388315
 20
2.540807
  0
SEQEND
  8
0
  0
POLYLINE
  8
PLAN_1
  6
CONTINUOUS
 66
     1
 40
0.008496
 41
0.008496
  0
VERTEX
  8
PLAN_1
  6
CONTINUOUS
 10
-1.336118
 20
2.791677
  0
VERTEX
  8
PLAN_1
  6
CONTINUOUS
 10
-1.335311
 20
2.794508
  0
VERTEX
  8
PLAN_1
  6
CONTINUOUS
 10
-1.334098
 20
2.796937
  0
VERTEX
  8
PLAN_1
  6
CONTINUOUS
 10
-1.332882
 20
2.798961
  0
VERTEX
  8
PLAN_1
  6
CONTINUOUS
 10
-1.331264
 20
2.801386
  0
VERTEX
  8
PLAN_1
  6
CONTINUOUS
 10
-1.328028
 20
2.805028
  0
VERTEX
  8
PLAN_1
  6
CONTINUOUS
 10
-1.323980
 20
2.808669
  0
VERTEX
  8
PLAN_1
  6
CONTINUOUS
 10
-1.321957
 20
2.809882
  0
VERTEX
  8
PLAN_1
  6
CONTINUOUS
 10
-1.319531
 20
2.811504
  0
VERTEX
  8
PLAN_1
  6
CONTINUOUS
 10
-1.317102
 20
2.812311
  0
VERTEX
  8
PLAN_1
  6
CONTINUOUS
 10
-1.314673
 20
2.813524
  0
VERTEX
  8
PLAN_1
  6
CONTINUOUS
 10
-1.312248
 20
2.814335
  0
VERTEX
  8
PLAN_1
  6
CONTINUOUS
 10
-1.309413
 20
2.814740
  0
VERTEX
  8
PLAN_1
  6
CONTINUOUS
 10
-1.306988
 20
2.815146
  0
VERTEX
  8
PLAN_1
  6
CONTINUOUS
 10
-1.304154
 20
2.815146
  0
SEQEND
  8
0
  0
POLYLINE
  8
PLAN_1
  6
CONTINUOUS
 66
     1
 40
0.008496
 41
0.008496
  0
VERTEX
  8
PLAN_1
  6
CONTINUOUS
 10
-1.304154
 20
2.815146
  0
VERTEX
  8
PLAN_1
  6
CONTINUOUS
 10
-0.687102
 20
2.815146
  0
SEQEND
  8
0
  0
POLYLINE
  8
PLAN_1
  6
CONTINUOUS
 66
     1
 40
0.008496
 41
0.008496
  0
VERTEX
  8
PLAN_1
  6
CONTINUOUS
 10
-0.687102
 20
2.815146
  0
VERTEX
  8
PLAN_1
  6
CONTINUOUS
 10
-0.683461
 20
2.815146
  0
VERTEX
  8
PLAN_1
  6
CONTINUOUS
 10
-0.680224
 20
2.814335
  0
VERTEX
  8
PLAN_1
  6
CONTINUOUS
 10
-0.676984
 20
2.813524
  0
VERTEX
  8
PLAN_1
  6
CONTINUOUS
 10
-0.674154
 20
2.812311
  0
VERTEX
  8
PLAN_1
  6
CONTINUOUS
 10
-0.670917
 20
2.811098
  0
VERTEX
  8
PLAN_1
  6
CONTINUOUS
 10
-0.668083
 20
2.809480
  0
VERTEX
  8
PLAN_1
  6
CONTINUOUS
 10
-0.665657
 20
2.807457
  0
VERTEX
  8
PLAN_1
  6
CONTINUOUS
 10
-0.663228
 20
2.805433
  0
VERTEX
  8
PLAN_1
  6
CONTINUOUS
 10
-0.661205
 20
2.803004
  0
VERTEX
  8
PLAN_1
  6
CONTINUOUS
 10
-0.659181
 20
2.800173
  0
VERTEX
  8
PLAN_1
  6
CONTINUOUS
 10
-0.657563
 20
2.797339
  0
VERTEX
  8
PLAN_1
  6
CONTINUOUS
 10
-0.655945
 20
2.794508
  0
VERTEX
  8
PLAN_1
  6
CONTINUOUS
 10
-0.654732
 20
2.791677
  0
VERTEX
  8
PLAN_1
  6
CONTINUOUS
 10
-0.653921
 20
2.788437
  0
VERTEX
  8
PLAN_1
  6
CONTINUOUS
 10
-0.653516
 20
2.784795
  0
VERTEX
  8
PLAN_1
  6
CONTINUOUS
 10
-0.653516
 20
2.781559
  0
SEQEND
  8
0
  0
POLYLINE
  8
PLAN_1
  6
CONTINUOUS
 66
     1
 40
0.008496
 41
0.008496
  0
VERTEX
  8
PLAN_1
  6
CONTINUOUS
 10
-0.653516
 20
2.781559
  0
VERTEX
  8
PLAN_1
  6
CONTINUOUS
 10
-0.603343
 20
2.579654
  0
VERTEX
  8
PLAN_1
  6
CONTINUOUS
 10
-1.388315
 20
2.579654
  0
VERTEX
  8
PLAN_1
  6
CONTINUOUS
 10
-1.336118
 20
2.791677
  0
SEQEND
  8
0
  0
POLYLINE
  8
PLAN_1
  6
CONTINUOUS
 66
     1
 40
0.008496
 41
0.008496
  0
VERTEX
  8
PLAN_1
  6
CONTINUOUS
 10
-0.799587
 20
2.914681
  0
VERTEX
  8
PLAN_1
  6
CONTINUOUS
 10
-0.808894
 20
2.922370
  0
VERTEX
  8
PLAN_1
  6
CONTINUOUS
 10
-0.818201
 20
2.929654
  0
VERTEX
  8
PLAN_1
  6
CONTINUOUS
 10
-0.828315
 20
2.936126
  0
VERTEX
  8
PLAN_1
  6
CONTINUOUS
 10
-0.838835
 20
2.942602
  0
VERTEX
  8
PLAN_1
  6
CONTINUOUS
 10
-0.850165
 20
2.948669
  0
VERTEX
  8
PLAN_1
  6
CONTINUOUS
 10
-0.861496
 20
2.954335
  0
VERTEX
  8
PLAN_1
  6
CONTINUOUS
 10
-0.873228
 20
2.959189
  0
VERTEX
  8
PLAN_1
  6
CONTINUOUS
 10
-0.885772
 20
2.964047
  0
VERTEX
  8
PLAN_1
  6
CONTINUOUS
 10
-0.898315
 20
2.968091
  0
VERTEX
  8
PLAN_1
  6
CONTINUOUS
 10
-0.911264
 20
2.971732
  0
VERTEX
  8
PLAN_1
  6
CONTINUOUS
 10
-0.925020
 20
2.974972
  0
VERTEX
  8
PLAN_1
  6
CONTINUOUS
 10
-0.938374
 20
2.977398
  0
VERTEX
  8
PLAN_1
  6
CONTINUOUS
 10
-0.952535
 20
2.979421
  0
VERTEX
  8
PLAN_1
  6
CONTINUOUS
 10
-0.966697
 20
2.981039
  0
VERTEX
  8
PLAN_1
  6
CONTINUOUS
 10
-0.981264
 20
2.981850
  0
VERTEX
  8
PLAN_1
  6
CONTINUOUS
 10
-0.995831
 20
2.982252
  0
VERTEX
  8
PLAN_1
  6
CONTINUOUS
 10
-1.010803
 20
2.981850
  0
VERTEX
  8
PLAN_1
  6
CONTINUOUS
 10
-1.025366
 20
2.981039
  0
VERTEX
  8
PLAN_1
  6
CONTINUOUS
 10
-1.039531
 20
2.979421
  0
VERTEX
  8
PLAN_1
  6
CONTINUOUS
 10
-1.053287
 20
2.977398
  0
VERTEX
  8
PLAN_1
  6
CONTINUOUS
 10
-1.067043
 20
2.974972
  0
VERTEX
  8
PLAN_1
  6
CONTINUOUS
 10
-1.080398
 20
2.971732
  0
VERTEX
  8
PLAN_1
  6
CONTINUOUS
 10
-1.093748
 20
2.968091
  0
VERTEX
  8
PLAN_1
  6
CONTINUOUS
 10
-1.106291
 20
2.964047
  0
VERTEX
  8
PLAN_1
  6
CONTINUOUS
 10
-1.118835
 20
2.959189
  0
VERTEX
  8
PLAN_1
  6
CONTINUOUS
 10
-1.130571
 20
2.954335
  0
VERTEX
  8
PLAN_1
  6
CONTINUOUS
 10
-1.141902
 20
2.948669
  0
VERTEX
  8
PLAN_1
  6
CONTINUOUS
 10
-1.153228
 20
2.942602
  0
VERTEX
  8
PLAN_1
  6
CONTINUOUS
 10
-1.163748
 20
2.936126
  0
VERTEX
  8
PLAN_1
  6
CONTINUOUS
 10
-1.173866
 20
2.929248
  0
VERTEX
  8
PLAN_1
  6
CONTINUOUS
 10
-1.183173
 20
2.922370
  0
VERTEX
  8
PLAN_1
  6
CONTINUOUS
 10
-1.192476
 20
2.914681
  0
SEQEND
  8
0
  0
POLYLINE
  8
PLAN_1
  6
CONTINUOUS
 66
     1
 40
0.008496
 41
0.008496
  0
VERTEX
  8
PLAN_1
  6
CONTINUOUS
 10
-1.192476
 20
2.914681
  0
VERTEX
  8
PLAN_1
  6
CONTINUOUS
 10
-1.192075
 20
2.815146
  0
VERTEX
  8
PLAN_1
  6
CONTINUOUS
 10
-0.799587
 20
2.815146
  0
VERTEX
  8
PLAN_1
  6
CONTINUOUS
 10
-0.799587
 20
2.914681
  0
SEQEND
  8
0
  0
POLYLINE
  8
PLAN_1
  6
CONTINUOUS
 66
     1
 40
0.008496
 41
0.008496
  0
VERTEX
  8
PLAN_1
  6
CONTINUOUS
 10
-1.396409
 20
2.540000
  0
VERTEX
  8
PLAN_1
  6
CONTINUOUS
 10
-1.309413
 20
2.540000
  0
VERTEX
  8
PLAN_1
  6
CONTINUOUS
 10
-1.309413
 20
2.480925
  0
VERTEX
  8
PLAN_1
  6
CONTINUOUS
 10
-1.522654
 20
2.480925
  0
VERTEX
  8
PLAN_1
  6
CONTINUOUS
 10
-1.522654
 20
2.540000
  0
VERTEX
  8
PLAN_1
  6
CONTINUOUS
 10
-1.438087
 20
2.540000
  0
VERTEX
  8
PLAN_1
  6
CONTINUOUS
 10
-1.438087
 20
2.539594
  0
VERTEX
  8
PLAN_1
  6
CONTINUOUS
 10
-1.438087
 20
2.509248
  0
VERTEX
  8
PLAN_1
  6
CONTINUOUS
 10
-1.396815
 20
2.509248
  0
VERTEX
  8
PLAN_1
  6
CONTINUOUS
 10
-1.396815
 20
2.539594
  0
VERTEX
  8
PLAN_1
  6
CONTINUOUS
 10
-1.396409
 20
2.540000
  0
SEQEND
  8
0
  0
POLYLINE
  8
PLAN_1
  6
CONTINUOUS
 66
     1
 40
0.008496
 41
0.008496
  0
VERTEX
  8
PLAN_1
  6
CONTINUOUS
 10
-0.553980
 20
2.540000
  0
VERTEX
  8
PLAN_1
  6
CONTINUOUS
 10
-0.466583
 20
2.540000
  0
VERTEX
  8
PLAN_1
  6
CONTINUOUS
 10
-0.466583
 20
2.480925
  0
VERTEX
  8
PLAN_1
  6
CONTINUOUS
 10
-0.682650
 20
2.480925
  0
VERTEX
  8
PLAN_1
  6
CONTINUOUS
 10
-0.682650
 20
2.540000
  0
VERTEX
  8
PLAN_1
  6
CONTINUOUS
 10
-0.595252
 20
2.540000
  0
VERTEX
  8
PLAN_1
  6
CONTINUOUS
 10
-0.595252
 20
2.539594
  0
VERTEX
  8
PLAN_1
  6
CONTINUOUS
 10
-0.595252
 20
2.509248
  0
VERTEX
  8
PLAN_1
  6
CONTINUOUS
 10
-0.553980
 20
2.509248
  0
VERTEX
  8
PLAN_1
  6
CONTINUOUS
 10
-0.553980
 20
2.539594
  0
VERTEX
  8
PLAN_1
  6
CONTINUOUS
 10
-0.553980
 20
2.540000
  0
SEQEND
  8
0
  0
POLYLINE
  8
PLAN_1
  6
CONTINUOUS
 66
     1
 40
0.008496
 41
0.008496
  0
VERTEX
  8
PLAN_1
  6
CONTINUOUS
 10
-0.464961
 20
2.343350
  0
VERTEX
  8
PLAN_1
  6
CONTINUOUS
 10
-0.464961
 20
2.478902
  0
VERTEX
  8
PLAN_1
  6
CONTINUOUS
 10
-1.522654
 20
2.478902
  0
VERTEX
  8
PLAN_1
  6
CONTINUOUS
 10
-1.522654
 20
2.343350
  0
VERTEX
  8
PLAN_1
  6
CONTINUOUS
 10
-0.464961
 20
2.343350
  0
SEQEND
  8
0
  0
POLYLINE
  8
PLAN_1
  6
CONTINUOUS
 66
     1
 40
0.008496
 41
0.008496
  0
VERTEX
  8
PLAN_1
  6
CONTINUOUS
 10
-0.803228
 20
2.917917
  0
VERTEX
  8
PLAN_1
  6
CONTINUOUS
 10
-1.187217
 20
2.917917
  0
SEQEND
  8
0
  0
POLYLINE
  8
PLAN_1
  6
CONTINUOUS
 66
     1
 40
0.008496
 41
0.008496
  0
VERTEX
  8
PLAN_1
  6
CONTINUOUS
 10
-0.582303
 20
1.734390
  0
VERTEX
  8
PLAN_1
  6
CONTINUOUS
 10
-0.582303
 20
1.990114
  0
VERTEX
  8
PLAN_1
  6
CONTINUOUS
 10
-1.398028
 20
1.990114
  0
VERTEX
  8
PLAN_1
  6
CONTINUOUS
 10
-1.398028
 20
1.734390
  0
VERTEX
  8
PLAN_1
  6
CONTINUOUS
 10
-1.361205
 20
1.697165
  0
VERTEX
  8
PLAN_1
  6
CONTINUOUS
 10
-0.619528
 20
1.697165
  0
VERTEX
  8
PLAN_1
  6
CONTINUOUS
 10
-0.582303
 20
1.734390
  0
SEQEND
  8
0
  0
POLYLINE
  8
PLAN_1
  6
CONTINUOUS
 66
     1
 40
0.008496
 41
0.008496
  0
VERTEX
  8
PLAN_1
  6
CONTINUOUS
 10
-1.398028
 20
1.737224
  0
VERTEX
  8
PLAN_1
  6
CONTINUOUS
 10
-0.582303
 20
1.737224
  0
SEQEND
  8
0
  0
POLYLINE
  8
PLAN_1
  6
CONTINUOUS
 66
     1
 40
0.008496
 41
0.008496
  0
VERTEX
  8
PLAN_1
  6
CONTINUOUS
 10
-0.530512
 20
1.990114
  0
VERTEX
  8
PLAN_1
  6
CONTINUOUS
 10
-0.530512
 20
2.035028
  0
VERTEX
  8
PLAN_1
  6
CONTINUOUS
 10
-1.453461
 20
2.035028
  0
VERTEX
  8
PLAN_1
  6
CONTINUOUS
 10
-1.453461
 20
1.990114
  0
VERTEX
  8
PLAN_1
  6
CONTINUOUS
 10
-0.530512
 20
1.990114
  0
SEQEND
  8
0
  0
POLYLINE
  8
PLAN_1
  6
CONTINUOUS
 66
     1
 40
0.004043
 41
0.004043
  0
VERTEX
  8
PLAN_1
  6
CONTINUOUS
 10
-1.856469
 20
1.967858
  0
VERTEX
  8
PLAN_1
  6
CONTINUOUS
 10
-1.856469
 20
1.713350
  0
SEQEND
  8
0
  0
POLYLINE
  8
PLAN_1
  6
CONTINUOUS
 66
     1
 40
0.004043
 41
0.004043
  0
VERTEX
  8
PLAN_1
  6
CONTINUOUS
 10
-0.111319
 20
1.967858
  0
VERTEX
  8
PLAN_1
  6
CONTINUOUS
 10
-0.111319
 20
1.713350
  0
SEQEND
  8
0
  0
POLYLINE
  8
PLAN_1
  6
CONTINUOUS
 66
     1
 40
0.004043
 41
0.004043
  0
VERTEX
  8
PLAN_1
  6
CONTINUOUS
 10
-1.978260
 20
1.843638
  0
VERTEX
  8
PLAN_1
  6
CONTINUOUS
 10
-1.720917
 20
1.843638
  0
SEQEND
  8
0
  0
POLYLINE
  8
PLAN_1
  6
CONTINUOUS
 66
     1
 40
0.004043
 41
0.004043
  0
VERTEX
  8
PLAN_1
  6
CONTINUOUS
 10
-0.235945
 20
1.843638
  0
VERTEX
  8
PLAN_1
  6
CONTINUOUS
 10
0.021398
 20
1.843638
  0
SEQEND
  8
0
  0
POLYLINE
  8
PLAN_1
 62
     2
  6
CONTINUOUS
 66
     1
 40
0.004043
 41
0.004043
  0
VERTEX
  8
PLAN_1
 62
     2
  6
CONTINUOUS
 10
-1.155657
 20
3.139654
  0
VERTEX
  8
PLAN_1
 62
     2
  6
CONTINUOUS
 10
-0.824268
 20
3.139654
  0
SEQEND
  8
0
  0
SOLID
  8
PLAN_1
 62
     2
 10
-0.794732
 20
3.139654
 11
-0.853807
 21
3.155433
 12
-0.794732
 22
3.139654
 13
-0.853807
 23
3.123874
  0
POLYLINE
  8
PLAN_1
 62
     2
  6
CONTINUOUS
 66
     1
 40
0.003000
 41
0.003000
  0
VERTEX
  8
PLAN_1
 62
     2
  6
CONTINUOUS
 10
-0.794732
 20
3.139654
  0
VERTEX
  8
PLAN_1
 62
     2
  6
CONTINUOUS
 10
-0.853807
 20
3.155433
  0
VERTEX
  8
PLAN_1
 62
     2
  6
CONTINUOUS
 10
-0.853807
 20
3.123874
  0
VERTEX
  8
PLAN_1
 62
     2
  6
CONTINUOUS
 10
-0.794732
 20
3.139654
  0
SEQEND
  8
0
  0
SOLID
  8
PLAN_1
 62
     2
 10
-1.185193
 20
3.139654
 11
-1.126118
 21
3.155433
 12
-1.185193
 22
3.139654
 13
-1.126118
 23
3.123874
  0
POLYLINE
  8
PLAN_1
 62
     2
  6
CONTINUOUS
 66
     1
 40
0.003000
 41
0.003000
  0
VERTEX
  8
PLAN_1
 62
     2
  6
CONTINUOUS
 10
-1.185193
 20
3.139654
  0
VERTEX
  8
PLAN_1
 62
     2
  6
CONTINUOUS
 10
-1.126118
 20
3.155433
  0
VERTEX
  8
PLAN_1
 62
     2
  6
CONTINUOUS
 10
-1.126118
 20
3.123874
  0
VERTEX
  8
PLAN_1
 62
     2
  6
CONTINUOUS
 10
-1.185193
 20
3.139654
  0
SEQEND
  8
0
  0
POLYLINE
  8
PLAN_1
 62
     2
  6
CONTINUOUS
 66
     1
 40
0.003000
 41
0.003000
  0
VERTEX
  8
PLAN_1
 62
     2
  6
CONTINUOUS
 10
-1.019299
 20
3.227457
  0
VERTEX
  8
PLAN_1
 62
     2
  6
CONTINUOUS
 10
-1.017276
 20
3.224220
  0
VERTEX
  8
PLAN_1
 62
     2
  6
CONTINUOUS
 10
-1.015657
 20
3.220984
  0
VERTEX
  8
PLAN_1
 62
     2
  6
CONTINUOUS
 10
-1.014039
 20
3.217744
  0
VERTEX
  8
PLAN_1
 62
     2
  6
CONTINUOUS
 10
-1.012823
 20
3.214102
  0
VERTEX
  8
PLAN_1
 62
     2
  6
CONTINUOUS
 10
-1.012016
 20
3.210866
  0
VERTEX
  8
PLAN_1
 62
     2
  6
CONTINUOUS
 10
-1.011205
 20
3.207224
  0
VERTEX
  8
PLAN_1
 62
     2
  6
CONTINUOUS
 10
-1.011205
 20
3.203988
  0
VERTEX
  8
PLAN_1
 62
     2
  6
CONTINUOUS
 10
-1.010803
 20
3.200752
  0
VERTEX
  8
PLAN_1
 62
     2
  6
CONTINUOUS
 10
-1.011205
 20
3.197516
  0
VERTEX
  8
PLAN_1
 62
     2
  6
CONTINUOUS
 10
-1.011205
 20
3.194276
  0
VERTEX
  8
PLAN_1
 62
     2
  6
CONTINUOUS
 10
-1.012016
 20
3.191039
  0
VERTEX
  8
PLAN_1
 62
     2
  6
CONTINUOUS
 10
-1.012823
 20
3.187803
  0
VERTEX
  8
PLAN_1
 62
     2
  6
CONTINUOUS
 10
-1.013634
 20
3.184567
  0
VERTEX
  8
PLAN_1
 62
     2
  6
CONTINUOUS
 10
-1.015252
 20
3.181331
  0
VERTEX
  8
PLAN_1
 62
     2
  6
CONTINUOUS
 10
-1.016870
 20
3.178091
  0
VERTEX
  8
PLAN_1
 62
     2
  6
CONTINUOUS
 10
-1.018488
 20
3.174854
  0
VERTEX
  8
PLAN_1
 62
     2
  6
CONTINUOUS
 10
-1.020917
 20
3.172024
  0
VERTEX
  8
PLAN_1
 62
     2
  6
CONTINUOUS
 10
-1.023748
 20
3.169594
  0
VERTEX
  8
PLAN_1
 62
     2
  6
CONTINUOUS
 10
-1.026583
 20
3.167169
  0
VERTEX
  8
PLAN_1
 62
     2
  6
CONTINUOUS
 10
-1.029819
 20
3.165146
  0
VERTEX
  8
PLAN_1
 62
     2
  6
CONTINUOUS
 10
-1.033461
 20
3.163528
  0
VERTEX
  8
PLAN_1
 62
     2
  6
CONTINUOUS
 10
-1.037909
 20
3.162311
  0
VERTEX
  8
PLAN_1
 62
     2
  6
CONTINUOUS
 10
-1.042362
 20
3.161504
  0
VERTEX
  8
PLAN_1
 62
     2
  6
CONTINUOUS
 10
-1.047217
 20
3.161504
  0
VERTEX
  8
PLAN_1
 62
     2
  6
CONTINUOUS
 10
-1.051264
 20
3.161504
  0
VERTEX
  8
PLAN_1
 62
     2
  6
CONTINUOUS
 10
-1.054906
 20
3.161906
  0
VERTEX
  8
PLAN_1
 62
     2
  6
CONTINUOUS
 10
-1.058547
 20
3.162717
  0
VERTEX
  8
PLAN_1
 62
     2
  6
CONTINUOUS
 10
-1.061783
 20
3.163929
  0
VERTEX
  8
PLAN_1
 62
     2
  6
CONTINUOUS
 10
-1.064618
 20
3.165146
  0
VERTEX
  8
PLAN_1
 62
     2
  6
CONTINUOUS
 10
-1.067043
 20
3.166764
  0
VERTEX
  8
PLAN_1
 62
     2
  6
CONTINUOUS
 10
-1.069472
 20
3.168382
  0
VERTEX
  8
PLAN_1
 62
     2
  6
CONTINUOUS
 10
-1.071902
 20
3.170406
  0
VERTEX
  8
PLAN_1
 62
     2
  6
CONTINUOUS
 10
-1.080398
 20
3.161504
  0
VERTEX
  8
PLAN_1
 62
     2
  6
CONTINUOUS
 10
-1.083634
 20
3.164335
  0
VERTEX
  8
PLAN_1
 62
     2
  6
CONTINUOUS
 10
-1.074732
 20
3.173642
  0
VERTEX
  8
PLAN_1
 62
     2
  6
CONTINUOUS
 10
-1.077161
 20
3.176878
  0
VERTEX
  8
PLAN_1
 62
     2
  6
CONTINUOUS
 10
-1.079181
 20
3.180114
  0
VERTEX
  8
PLAN_1
 62
     2
  6
CONTINUOUS
 10
-1.080398
 20
3.183354
  0
VERTEX
  8
PLAN_1
 62
     2
  6
CONTINUOUS
 10
-1.081610
 20
3.186996
  0
VERTEX
  8
PLAN_1
 62
     2
  6
CONTINUOUS
 10
-1.082823
 20
3.190634
  0
VERTEX
  8
PLAN_1
 62
     2
  6
CONTINUOUS
 10
-1.083228
 20
3.193874
  0
VERTEX
  8
PLAN_1
 62
     2
  6
CONTINUOUS
 10
-1.083634
 20
3.197516
  0
VERTEX
  8
PLAN_1
 62
     2
  6
CONTINUOUS
 10
-1.083634
 20
3.200752
  0
VERTEX
  8
PLAN_1
 62
     2
  6
CONTINUOUS
 10
-1.083634
 20
3.203583
  0
VERTEX
  8
PLAN_1
 62
     2
  6
CONTINUOUS
 10
-1.083228
 20
3.206819
  0
VERTEX
  8
PLAN_1
 62
     2
  6
CONTINUOUS
 10
-1.082823
 20
3.210461
  0
VERTEX
  8
PLAN_1
 62
     2
  6
CONTINUOUS
 10
-1.082016
 20
3.213701
  0
VERTEX
  8
PLAN_1
 62
     2
  6
CONTINUOUS
 10
-1.080803
 20
3.216937
  0
VERTEX
  8
PLAN_1
 62
     2
  6
CONTINUOUS
 10
-1.079587
 20
3.220173
  0
VERTEX
  8
PLAN_1
 62
     2
  6
CONTINUOUS
 10
-1.077969
 20
3.223409
  0
VERTEX
  8
PLAN_1
 62
     2
  6
CONTINUOUS
 10
-1.075945
 20
3.226244
  0
VERTEX
  8
PLAN_1
 62
     2
  6
CONTINUOUS
 10
-1.073921
 20
3.229075
  0
VERTEX
  8
PLAN_1
 62
     2
  6
CONTINUOUS
 10
-1.071091
 20
3.231909
  0
VERTEX
  8
PLAN_1
 62
     2
  6
CONTINUOUS
 10
-1.068260
 20
3.233929
  0
VERTEX
  8
PLAN_1
 62
     2
  6
CONTINUOUS
 10
-1.064618
 20
3.235953
  0
VERTEX
  8
PLAN_1
 62
     2
  6
CONTINUOUS
 10
-1.060976
 20
3.237571
  0
VERTEX
  8
PLAN_1
 62
     2
  6
CONTINUOUS
 10
-1.056929
 20
3.238787
  0
VERTEX
  8
PLAN_1
 62
     2
  6
CONTINUOUS
 10
-1.052476
 20
3.239594
  0
VERTEX
  8
PLAN_1
 62
     2
  6
CONTINUOUS
 10
-1.047217
 20
3.240000
  0
VERTEX
  8
PLAN_1
 62
     2
  6
CONTINUOUS
 10
-1.043173
 20
3.240000
  0
VERTEX
  8
PLAN_1
 62
     2
  6
CONTINUOUS
 10
-1.039531
 20
3.239189
  0
VERTEX
  8
PLAN_1
 62
     2
  6
CONTINUOUS
 10
-1.035890
 20
3.238382
  0
VERTEX
  8
PLAN_1
 62
     2
  6
CONTINUOUS
 10
-1.032650
 20
3.237571
  0
VERTEX
  8
PLAN_1
 62
     2
  6
CONTINUOUS
 10
-1.029819
 20
3.235953
  0
VERTEX
  8
PLAN_1
 62
     2
  6
CONTINUOUS
 10
-1.026988
 20
3.234335
  0
VERTEX
  8
PLAN_1
 62
     2
  6
CONTINUOUS
 10
-1.024559
 20
3.232717
  0
VERTEX
  8
PLAN_1
 62
     2
  6
CONTINUOUS
 10
-1.022535
 20
3.230693
  0
VERTEX
  8
PLAN_1
 62
     2
  6
CONTINUOUS
 10
-1.014039
 20
3.240000
  0
VERTEX
  8
PLAN_1
 62
     2
  6
CONTINUOUS
 10
-1.010803
 20
3.236764
  0
VERTEX
  8
PLAN_1
 62
     2
  6
CONTINUOUS
 10
-1.019299
 20
3.227457
  0
SEQEND
  8
0
  0
POLYLINE
  8
PLAN_1
 62
     2
  6
CONTINUOUS
 66
     1
 40
0.003000
 41
0.003000
  0
VERTEX
  8
PLAN_1
 62
     2
  6
CONTINUOUS
 10
-1.065020
 20
3.177689
  0
VERTEX
  8
PLAN_1
 62
     2
  6
CONTINUOUS
 10
-1.063402
 20
3.176071
  0
VERTEX
  8
PLAN_1
 62
     2
  6
CONTINUOUS
 10
-1.061783
 20
3.174449
  0
VERTEX
  8
PLAN_1
 62
     2
  6
CONTINUOUS
 10
-1.059760
 20
3.173236
  0
VERTEX
  8
PLAN_1
 62
     2
  6
CONTINUOUS
 10
-1.057335
 20
3.172429
  0
VERTEX
  8
PLAN_1
 62
     2
  6
CONTINUOUS
 10
-1.055311
 20
3.171213
  0
VERTEX
  8
PLAN_1
 62
     2
  6
CONTINUOUS
 10
-1.052476
 20
3.170811
  0
VERTEX
  8
PLAN_1
 62
     2
  6
CONTINUOUS
 10
-1.050051
 20
3.170406
  0
VERTEX
  8
PLAN_1
 62
     2
  6
CONTINUOUS
 10
-1.047217
 20
3.170406
  0
VERTEX
  8
PLAN_1
 62
     2
  6
CONTINUOUS
 10
-1.044386
 20
3.170406
  0
VERTEX
  8
PLAN_1
 62
     2
  6
CONTINUOUS
 10
-1.041551
 20
3.170811
  0
VERTEX
  8
PLAN_1
 62
     2
  6
CONTINUOUS
 10
-1.038720
 20
3.171618
  0
VERTEX
  8
PLAN_1
 62
     2
  6
CONTINUOUS
 10
-1.036291
 20
3.172429
  0
VERTEX
  8
PLAN_1
 62
     2
  6
CONTINUOUS
 10
-1.034268
 20
3.173642
  0
VERTEX
  8
PLAN_1
 62
     2
  6
CONTINUOUS
 10
-1.031843
 20
3.175260
  0
VERTEX
  8
PLAN_1
 62
     2
  6
CONTINUOUS
 10
-1.029819
 20
3.176878
  0
VERTEX
  8
PLAN_1
 62
     2
  6
CONTINUOUS
 10
-1.028201
 20
3.178902
  0
VERTEX
  8
PLAN_1
 62
     2
  6
CONTINUOUS
 10
-1.026583
 20
3.180925
  0
VERTEX
  8
PLAN_1
 62
     2
  6
CONTINUOUS
 10
-1.025366
 20
3.183354
  0
VERTEX
  8
PLAN_1
 62
     2
  6
CONTINUOUS
 10
-1.024154
 20
3.185780
  0
VERTEX
  8
PLAN_1
 62
     2
  6
CONTINUOUS
 10
-1.022941
 20
3.188614
  0
VERTEX
  8
PLAN_1
 62
     2
  6
CONTINUOUS
 10
-1.022535
 20
3.191445
  0
VERTEX
  8
PLAN_1
 62
     2
  6
CONTINUOUS
 10
-1.021724
 20
3.194276
  0
VERTEX
  8
PLAN_1
 62
     2
  6
CONTINUOUS
 10
-1.021323
 20
3.197516
  0
VERTEX
  8
PLAN_1
 62
     2
  6
CONTINUOUS
 10
-1.021323
 20
3.200752
  0
VERTEX
  8
PLAN_1
 62
     2
  6
CONTINUOUS
 10
-1.021323
 20
3.203583
  0
VERTEX
  8
PLAN_1
 62
     2
  6
CONTINUOUS
 10
-1.021724
 20
3.206012
  0
VERTEX
  8
PLAN_1
 62
     2
  6
CONTINUOUS
 10
-1.022130
 20
3.208843
  0
VERTEX
  8
PLAN_1
 62
     2
  6
CONTINUOUS
 10
-1.022535
 20
3.211272
  0
VERTEX
  8
PLAN_1
 62
     2
  6
CONTINUOUS
 10
-1.023346
 20
3.213701
  0
VERTEX
  8
PLAN_1
 62
     2
  6
CONTINUOUS
 10
-1.024154
 20
3.215724
  0
VERTEX
  8
PLAN_1
 62
     2
  6
CONTINUOUS
 10
-1.025366
 20
3.217744
  0
VERTEX
  8
PLAN_1
 62
     2
  6
CONTINUOUS
 10
-1.026583
 20
3.219768
  0
VERTEX
  8
PLAN_1
 62
     2
  6
CONTINUOUS
 10
-1.065020
 20
3.177689
  0
SEQEND
  8
0
  0
POLYLINE
  8
PLAN_1
 62
     2
  6
CONTINUOUS
 66
     1
 40
0.003000
 41
0.003000
  0
VERTEX
  8
PLAN_1
 62
     2
  6
CONTINUOUS
 10
-1.029008
 20
3.223409
  0
VERTEX
  8
PLAN_1
 62
     2
  6
CONTINUOUS
 10
-1.031031
 20
3.225028
  0
VERTEX
  8
PLAN_1
 62
     2
  6
CONTINUOUS
 10
-1.032650
 20
3.226646
  0
VERTEX
  8
PLAN_1
 62
     2
  6
CONTINUOUS
 10
-1.034673
 20
3.227862
  0
VERTEX
  8
PLAN_1
 62
     2
  6
CONTINUOUS
 10
-1.037102
 20
3.229075
  0
VERTEX
  8
PLAN_1
 62
     2
  6
CONTINUOUS
 10
-1.039531
 20
3.229886
  0
VERTEX
  8
PLAN_1
 62
     2
  6
CONTINUOUS
 10
-1.041957
 20
3.230693
  0
VERTEX
  8
PLAN_1
 62
     2
  6
CONTINUOUS
 10
-1.044386
 20
3.231098
  0
VERTEX
  8
PLAN_1
 62
     2
  6
CONTINUOUS
 10
-1.047217
 20
3.231098
  0
VERTEX
  8
PLAN_1
 62
     2
  6
CONTINUOUS
 10
-1.050453
 20
3.231098
  0
VERTEX
  8
PLAN_1
 62
     2
  6
CONTINUOUS
 10
-1.053287
 20
3.230287
  0
VERTEX
  8
PLAN_1
 62
     2
  6
CONTINUOUS
 10
-1.055717
 20
3.229886
  0
VERTEX
  8
PLAN_1
 62
     2
  6
CONTINUOUS
 10
-1.058142
 20
3.228669
  0
VERTEX
  8
PLAN_1
 62
     2
  6
CONTINUOUS
 10
-1.060571
 20
3.227457
  0
VERTEX
  8
PLAN_1
 62
     2
  6
CONTINUOUS
 10
-1.062594
 20
3.226244
  0
VERTEX
  8
PLAN_1
 62
     2
  6
CONTINUOUS
 10
-1.064618
 20
3.224220
  0
VERTEX
  8
PLAN_1
 62
     2
  6
CONTINUOUS
 10
-1.066236
 20
3.222602
  0
VERTEX
  8
PLAN_1
 62
     2
  6
CONTINUOUS
 10
-1.067854
 20
3.220173
  0
VERTEX
  8
PLAN_1
 62
     2
  6
CONTINUOUS
 10
-1.069472
 20
3.218150
  0
VERTEX
  8
PLAN_1
 62
     2
  6
CONTINUOUS
 10
-1.070685
 20
3.215319
  0
VERTEX
  8
PLAN_1
 62
     2
  6
CONTINUOUS
 10
-1.071496
 20
3.212890
  0
VERTEX
  8
PLAN_1
 62
     2
  6
CONTINUOUS
 10
-1.072303
 20
3.210059
  0
VERTEX
  8
PLAN_1
 62
     2
  6
CONTINUOUS
 10
-1.072709
 20
3.206819
  0
VERTEX
  8
PLAN_1
 62
     2
  6
CONTINUOUS
 10
-1.073114
 20
3.203988
  0
VERTEX
  8
PLAN_1
 62
     2
  6
CONTINUOUS
 10
-1.073520
 20
3.200752
  0
VERTEX
  8
PLAN_1
 62
     2
  6
CONTINUOUS
 10
-1.073114
 20
3.197917
  0
VERTEX
  8
PLAN_1
 62
     2
  6
CONTINUOUS
 10
-1.073114
 20
3.195087
  0
VERTEX
  8
PLAN_1
 62
     2
  6
CONTINUOUS
 10
-1.072709
 20
3.192657
  0
VERTEX
  8
PLAN_1
 62
     2
  6
CONTINUOUS
 10
-1.071902
 20
3.190232
  0
VERTEX
  8
PLAN_1
 62
     2
  6
CONTINUOUS
 10
-1.071091
 20
3.187803
  0
VERTEX
  8
PLAN_1
 62
     2
  6
CONTINUOUS
 10
-1.070280
 20
3.185374
  0
VERTEX
  8
PLAN_1
 62
     2
  6
CONTINUOUS
 10
-1.069067
 20
3.183354
  0
VERTEX
  8
PLAN_1
 62
     2
  6
CONTINUOUS
 10
-1.067854
 20
3.180925
  0
VERTEX
  8
PLAN_1
 62
     2
  6
CONTINUOUS
 10
-1.029008
 20
3.223409
  0
SEQEND
  8
0
  0
POLYLINE
  8
PLAN_1
 62
     2
  6
CONTINUOUS
 66
     1
 40
0.003000
 41
0.003000
  0
VERTEX
  8
PLAN_1
 62
     2
  6
CONTINUOUS
 10
-0.969531
 20
3.163528
  0
VERTEX
  8
PLAN_1
 62
     2
  6
CONTINUOUS
 10
-0.979240
 20
3.163528
  0
VERTEX
  8
PLAN_1
 62
     2
  6
CONTINUOUS
 10
-0.979240
 20
3.215319
  0
VERTEX
  8
PLAN_1
 62
     2
  6
CONTINUOUS
 10
-0.996236
 20
3.215319
  0
VERTEX
  8
PLAN_1
 62
     2
  6
CONTINUOUS
 10
-0.996236
 20
3.222602
  0
VERTEX
  8
PLAN_1
 62
     2
  6
CONTINUOUS
 10
-0.992189
 20
3.223004
  0
VERTEX
  8
PLAN_1
 62
     2
  6
CONTINUOUS
 10
-0.988547
 20
3.223409
  0
VERTEX
  8
PLAN_1
 62
     2
  6
CONTINUOUS
 10
-0.985717
 20
3.224220
  0
VERTEX
  8
PLAN_1
 62
     2
  6
CONTINUOUS
 10
-0.983287
 20
3.225433
  0
VERTEX
  8
PLAN_1
 62
     2
  6
CONTINUOUS
 10
-0.980858
 20
3.227051
  0
VERTEX
  8
PLAN_1
 62
     2
  6
CONTINUOUS
 10
-0.979240
 20
3.229480
  0
VERTEX
  8
PLAN_1
 62
     2
  6
CONTINUOUS
 10
-0.977622
 20
3.232311
  0
VERTEX
  8
PLAN_1
 62
     2
  6
CONTINUOUS
 10
-0.976811
 20
3.236358
  0
VERTEX
  8
PLAN_1
 62
     2
  6
CONTINUOUS
 10
-0.969531
 20
3.236358
  0
VERTEX
  8
PLAN_1
 62
     2
  6
CONTINUOUS
 10
-0.969531
 20
3.163528
  0
SEQEND
  8
0
  0
POLYLINE
  8
PLAN_1
 62
     2
  6
CONTINUOUS
 66
     1
 40
0.003000
 41
0.003000
  0
VERTEX
  8
PLAN_1
 62
     2
  6
CONTINUOUS
 10
-0.920165
 20
3.161504
  0
VERTEX
  8
PLAN_1
 62
     2
  6
CONTINUOUS
 10
-0.923807
 20
3.161504
  0
VERTEX
  8
PLAN_1
 62
     2
  6
CONTINUOUS
 10
-0.927043
 20
3.162311
  0
VERTEX
  8
PLAN_1
 62
     2
  6
CONTINUOUS
 10
-0.930280
 20
3.163528
  0
VERTEX
  8
PLAN_1
 62
     2
  6
CONTINUOUS
 10
-0.932709
 20
3.165146
  0
VERTEX
  8
PLAN_1
 62
     2
  6
CONTINUOUS
 10
-0.935138
 20
3.167169
  0
VERTEX
  8
PLAN_1
 62
     2
  6
CONTINUOUS
 10
-0.937161
 20
3.169189
  0
VERTEX
  8
PLAN_1
 62
     2
  6
CONTINUOUS
 10
-0.938780
 20
3.171618
  0
VERTEX
  8
PLAN_1
 62
     2
  6
CONTINUOUS
 10
-0.940398
 20
3.174449
  0
VERTEX
  8
PLAN_1
 62
     2
  6
CONTINUOUS
 10
-0.941610
 20
3.177283
  0
VERTEX
  8
PLAN_1
 62
     2
  6
CONTINUOUS
 10
-0.942823
 20
3.180520
  0
VERTEX
  8
PLAN_1
 62
     2
  6
CONTINUOUS
 10
-0.943634
 20
3.183354
  0
VERTEX
  8
PLAN_1
 62
     2
  6
CONTINUOUS
 10
-0.944039
 20
3.186591
  0
VERTEX
  8
PLAN_1
 62
     2
  6
CONTINUOUS
 10
-0.944846
 20
3.193063
  0
VERTEX
  8
PLAN_1
 62
     2
  6
CONTINUOUS
 10
-0.945252
 20
3.198728
  0
VERTEX
  8
PLAN_1
 62
     2
  6
CONTINUOUS
 10
-0.944846
 20
3.204799
  0
VERTEX
  8
PLAN_1
 62
     2
  6
CONTINUOUS
 10
-0.944039
 20
3.211272
  0
VERTEX
  8
PLAN_1
 62
     2
  6
CONTINUOUS
 10
-0.943634
 20
3.214508
  0
VERTEX
  8
PLAN_1
 62
     2
  6
CONTINUOUS
 10
-0.942823
 20
3.217343
  0
VERTEX
  8
PLAN_1
 62
     2
  6
CONTINUOUS
 10
-0.941610
 20
3.220579
  0
VERTEX
  8
PLAN_1
 62
     2
  6
CONTINUOUS
 10
-0.940398
 20
3.223409
  0
VERTEX
  8
PLAN_1
 62
     2
  6
CONTINUOUS
 10
-0.938780
 20
3.226244
  0
VERTEX
  8
PLAN_1
 62
     2
  6
CONTINUOUS
 10
-0.937161
 20
3.228669
  0
VERTEX
  8
PLAN_1
 62
     2
  6
CONTINUOUS
 10
-0.935138
 20
3.230693
  0
VERTEX
  8
PLAN_1
 62
     2
  6
CONTINUOUS
 10
-0.932709
 20
3.232717
  0
VERTEX
  8
PLAN_1
 62
     2
  6
CONTINUOUS
 10
-0.930280
 20
3.234335
  0
VERTEX
  8
PLAN_1
 62
     2
  6
CONTINUOUS
 10
-0.927043
 20
3.235547
  0
VERTEX
  8
PLAN_1
 62
     2
  6
CONTINUOUS
 10
-0.923807
 20
3.236358
  0
VERTEX
  8
PLAN_1
 62
     2
  6
CONTINUOUS
 10
-0.920165
 20
3.236358
  0
VERTEX
  8
PLAN_1
 62
     2
  6
CONTINUOUS
 10
-0.916118
 20
3.236358
  0
VERTEX
  8
PLAN_1
 62
     2
  6
CONTINUOUS
 10
-0.912882
 20
3.235547
  0
VERTEX
  8
PLAN_1
 62
     2
  6
CONTINUOUS
 10
-0.910051
 20
3.234335
  0
VERTEX
  8
PLAN_1
 62
     2
  6
CONTINUOUS
 10
-0.907217
 20
3.232717
  0
VERTEX
  8
PLAN_1
 62
     2
  6
CONTINUOUS
 10
-0.904791
 20
3.230693
  0
VERTEX
  8
PLAN_1
 62
     2
  6
CONTINUOUS
 10
-0.902768
 20
3.228669
  0
VERTEX
  8
PLAN_1
 62
     2
  6
CONTINUOUS
 10
-0.901150
 20
3.226244
  0
VERTEX
  8
PLAN_1
 62
     2
  6
CONTINUOUS
 10
-0.899528
 20
3.223409
  0
VERTEX
  8
PLAN_1
 62
     2
  6
CONTINUOUS
 10
-0.898315
 20
3.220579
  0
VERTEX
  8
PLAN_1
 62
     2
  6
CONTINUOUS
 10
-0.897102
 20
3.217343
  0
VERTEX
  8
PLAN_1
 62
     2
  6
CONTINUOUS
 10
-0.896291
 20
3.214508
  0
VERTEX
  8
PLAN_1
 62
     2
  6
CONTINUOUS
 10
-0.895890
 20
3.211272
  0
VERTEX
  8
PLAN_1
 62
     2
  6
CONTINUOUS
 10
-0.895079
 20
3.204799
  0
VERTEX
  8
PLAN_1
 62
     2
  6
CONTINUOUS
 10
-0.895079
 20
3.198728
  0
VERTEX
  8
PLAN_1
 62
     2
  6
CONTINUOUS
 10
-0.895079
 20
3.193063
  0
VERTEX
  8
PLAN_1
 62
     2
  6
CONTINUOUS
 10
-0.895890
 20
3.186591
  0
VERTEX
  8
PLAN_1
 62
     2
  6
CONTINUOUS
 10
-0.896291
 20
3.183354
  0
VERTEX
  8
PLAN_1
 62
     2
  6
CONTINUOUS
 10
-0.897102
 20
3.180520
  0
VERTEX
  8
PLAN_1
 62
     2
  6
CONTINUOUS
 10
-0.898315
 20
3.177283
  0
VERTEX
  8
PLAN_1
 62
     2
  6
CONTINUOUS
 10
-0.899528
 20
3.174449
  0
VERTEX
  8
PLAN_1
 62
     2
  6
CONTINUOUS
 10
-0.901150
 20
3.171618
  0
VERTEX
  8
PLAN_1
 62
     2
  6
CONTINUOUS
 10
-0.902768
 20
3.169189
  0
VERTEX
  8
PLAN_1
 62
     2
  6
CONTINUOUS
 10
-0.904791
 20
3.167169
  0
VERTEX
  8
PLAN_1
 62
     2
  6
CONTINUOUS
 10
-0.907217
 20
3.165146
  0
VERTEX
  8
PLAN_1
 62
     2
  6
CONTINUOUS
 10
-0.910051
 20
3.163528
  0
VERTEX
  8
PLAN_1
 62
     2
  6
CONTINUOUS
 10
-0.912882
 20
3.162311
  0
VERTEX
  8
PLAN_1
 62
     2
  6
CONTINUOUS
 10
-0.916118
 20
3.161504
  0
VERTEX
  8
PLAN_1
 62
     2
  6
CONTINUOUS
 10
-0.920165
 20
3.161504
  0
SEQEND
  8
0
  0
POLYLINE
  8
PLAN_1
 62
     2
  6
CONTINUOUS
 66
     1
 40
0.003000
 41
0.003000
  0
VERTEX
  8
PLAN_1
 62
     2
  6
CONTINUOUS
 10
-0.920165
 20
3.228268
  0
VERTEX
  8
PLAN_1
 62
     2
  6
CONTINUOUS
 10
-0.921783
 20
3.228268
  0
VERTEX
  8
PLAN_1
 62
     2
  6
CONTINUOUS
 10
-0.923807
 20
3.227862
  0
VERTEX
  8
PLAN_1
 62
     2
  6
CONTINUOUS
 10
-0.925425
 20
3.227051
  0
VERTEX
  8
PLAN_1
 62
     2
  6
CONTINUOUS
 10
-0.926638
 20
3.226244
  0
VERTEX
  8
PLAN_1
 62
     2
  6
CONTINUOUS
 10
-0.928260
 20
3.225028
  0
VERTEX
  8
PLAN_1
 62
     2
  6
CONTINUOUS
 10
-0.929472
 20
3.223815
  0
VERTEX
  8
PLAN_1
 62
     2
  6
CONTINUOUS
 10
-0.930685
 20
3.222197
  0
VERTEX
  8
PLAN_1
 62
     2
  6
CONTINUOUS
 10
-0.931496
 20
3.220579
  0
VERTEX
  8
PLAN_1
 62
     2
  6
CONTINUOUS
 10
-0.933114
 20
3.216126
  0
VERTEX
  8
PLAN_1
 62
     2
  6
CONTINUOUS
 10
-0.934327
 20
3.211272
  0
VERTEX
  8
PLAN_1
 62
     2
  6
CONTINUOUS
 10
-0.935138
 20
3.205606
  0
VERTEX
  8
PLAN_1
 62
     2
  6
CONTINUOUS
 10
-0.935138
 20
3.198728
  0
VERTEX
  8
PLAN_1
 62
     2
  6
CONTINUOUS
 10
-0.935138
 20
3.192256
  0
VERTEX
  8
PLAN_1
 62
     2
  6
CONTINUOUS
 10
-0.934327
 20
3.186591
  0
VERTEX
  8
PLAN_1
 62
     2
  6
CONTINUOUS
 10
-0.933114
 20
3.181732
  0
VERTEX
  8
PLAN_1
 62
     2
  6
CONTINUOUS
 10
-0.931496
 20
3.177283
  0
VERTEX
  8
PLAN_1
 62
     2
  6
CONTINUOUS
 10
-0.930685
 20
3.175665
  0
VERTEX
  8
PLAN_1
 62
     2
  6
CONTINUOUS
 10
-0.929472
 20
3.174047
  0
VERTEX
  8
PLAN_1
 62
     2
  6
CONTINUOUS
 10
-0.928260
 20
3.172831
  0
VERTEX
  8
PLAN_1
 62
     2
  6
CONTINUOUS
 10
-0.926638
 20
3.171618
  0
VERTEX
  8
PLAN_1
 62
     2
  6
CONTINUOUS
 10
-0.925425
 20
3.170811
  0
VERTEX
  8
PLAN_1
 62
     2
  6
CONTINUOUS
 10
-0.923807
 20
3.170000
  0
VERTEX
  8
PLAN_1
 62
     2
  6
CONTINUOUS
 10
-0.921783
 20
3.169594
  0
VERTEX
  8
PLAN_1
 62
     2
  6
CONTINUOUS
 10
-0.920165
 20
3.169594
  0
VERTEX
  8
PLAN_1
 62
     2
  6
CONTINUOUS
 10
-0.918142
 20
3.169594
  0
VERTEX
  8
PLAN_1
 62
     2
  6
CONTINUOUS
 10
-0.916118
 20
3.170000
  0
VERTEX
  8
PLAN_1
 62
     2
  6
CONTINUOUS
 10
-0.914500
 20
3.170811
  0
VERTEX
  8
PLAN_1
 62
     2
  6
CONTINUOUS
 10
-0.913287
 20
3.171618
  0
VERTEX
  8
PLAN_1
 62
     2
  6
CONTINUOUS
 10
-0.911669
 20
3.172831
  0
VERTEX
  8
PLAN_1
 62
     2
  6
CONTINUOUS
 10
-0.910453
 20
3.174047
  0
VERTEX
  8
PLAN_1
 62
     2
  6
CONTINUOUS
 10
-0.909240
 20
3.175665
  0
VERTEX
  8
PLAN_1
 62
     2
  6
CONTINUOUS
 10
-0.908433
 20
3.177283
  0
VERTEX
  8
PLAN_1
 62
     2
  6
CONTINUOUS
 10
-0.906811
 20
3.181732
  0
VERTEX
  8
PLAN_1
 62
     2
  6
CONTINUOUS
 10
-0.905598
 20
3.186591
  0
VERTEX
  8
PLAN_1
 62
     2
  6
CONTINUOUS
 10
-0.904791
 20
3.192256
  0
VERTEX
  8
PLAN_1
 62
     2
  6
CONTINUOUS
 10
-0.904791
 20
3.198728
  0
VERTEX
  8
PLAN_1
 62
     2
  6
CONTINUOUS
 10
-0.904791
 20
3.205606
  0
VERTEX
  8
PLAN_1
 62
     2
  6
CONTINUOUS
 10
-0.905598
 20
3.211272
  0
VERTEX
  8
PLAN_1
 62
     2
  6
CONTINUOUS
 10
-0.906811
 20
3.216126
  0
VERTEX
  8
PLAN_1
 62
     2
  6
CONTINUOUS
 10
-0.908433
 20
3.220579
  0
VERTEX
  8
PLAN_1
 62
     2
  6
CONTINUOUS
 10
-0.909240
 20
3.222197
  0
VERTEX
  8
PLAN_1
 62
     2
  6
CONTINUOUS
 10
-0.910453
 20
3.223815
  0
VERTEX
  8
PLAN_1
 62
     2
  6
CONTINUOUS
 10
-0.911669
 20
3.225028
  0
VERTEX
  8
PLAN_1
 62
     2
  6
CONTINUOUS
 10
-0.913287
 20
3.226244
  0
VERTEX
  8
PLAN_1
 62
     2
  6
CONTINUOUS
 10
-0.914500
 20
3.227051
  0
VERTEX
  8
PLAN_1
 62
     2
  6
CONTINUOUS
 10
-0.916118
 20
3.227862
  0
VERTEX
  8
PLAN_1
 62
     2
  6
CONTINUOUS
 10
-0.918142
 20
3.228268
  0
VERTEX
  8
PLAN_1
 62
     2
  6
CONTINUOUS
 10
-0.920165
 20
3.228268
  0
SEQEND
  8
0
  0
POLYLINE
  8
PLAN_1
 62
     2
  6
CONTINUOUS
 66
     1
 40
0.004043
 41
0.004043
  0
VERTEX
  8
PLAN_1
 62
     2
  6
CONTINUOUS
 10
0.352382
 20
1.873583
  0
VERTEX
  8
PLAN_1
 62
     2
  6
CONTINUOUS
 10
0.352382
 20
2.956764
  0
SEQEND
  8
0
  0
SOLID
  8
PLAN_1
 62
     2
 10
0.352382
 20
2.986299
 11
0.336598
 21
2.927224
 12
0.352382
 22
2.986299
 13
0.368161
 23
2.927224
  0
POLYLINE
  8
PLAN_1
 62
     2
  6
CONTINUOUS
 66
     1
 40
0.003000
 41
0.003000
  0
VERTEX
  8
PLAN_1
 62
     2
  6
CONTINUOUS
 10
0.352382
 20
2.986299
  0
VERTEX
  8
PLAN_1
 62
     2
  6
CONTINUOUS
 10
0.336598
 20
2.927224
  0
VERTEX
  8
PLAN_1
 62
     2
  6
CONTINUOUS
 10
0.368161
 20
2.927224
  0
VERTEX
  8
PLAN_1
 62
     2
  6
CONTINUOUS
 10
0.352382
 20
2.986299
  0
SEQEND
  8
0
  0
SOLID
  8
PLAN_1
 62
     2
 10
0.352382
 20
1.844043
 11
0.336598
 21
1.903118
 12
0.352382
 22
1.844043
 13
0.368161
 23
1.903118
  0
POLYLINE
  8
PLAN_1
 62
     2
  6
CONTINUOUS
 66
     1
 40
0.003000
 41
0.003000
  0
VERTEX
  8
PLAN_1
 62
     2
  6
CONTINUOUS
 10
0.352382
 20
1.844043
  0
VERTEX
  8
PLAN_1
 62
     2
  6
CONTINUOUS
 10
0.336598
 20
1.903118
  0
VERTEX
  8
PLAN_1
 62
     2
  6
CONTINUOUS
 10
0.368161
 20
1.903118
  0
VERTEX
  8
PLAN_1
 62
     2
  6
CONTINUOUS
 10
0.352382
 20
1.844043
  0
SEQEND
  8
0
  0
POLYLINE
  8
PLAN_1
 62
     2
  6
CONTINUOUS
 66
     1
 40
0.003000
 41
0.003000
  0
VERTEX
  8
PLAN_1
 62
     2
  6
CONTINUOUS
 10
0.287236
 20
2.380575
  0
VERTEX
  8
PLAN_1
 62
     2
  6
CONTINUOUS
 10
0.287236
 20
2.380980
  0
VERTEX
  8
PLAN_1
 62
     2
  6
CONTINUOUS
 10
0.287236
 20
2.381791
  0
VERTEX
  8
PLAN_1
 62
     2
  6
CONTINUOUS
 10
0.287236
 20
2.382197
  0
VERTEX
  8
PLAN_1
 62
     2
  6
CONTINUOUS
 10
0.287236
 20
2.383004
  0
VERTEX
  8
PLAN_1
 62
     2
  6
CONTINUOUS
 10
0.287236
 20
2.383409
  0
VERTEX
  8
PLAN_1
 62
     2
  6
CONTINUOUS
 10
0.287236
 20
2.384217
  0
VERTEX
  8
PLAN_1
 62
     2
  6
CONTINUOUS
 10
0.287236
 20
2.384622
  0
VERTEX
  8
PLAN_1
 62
     2
  6
CONTINUOUS
 10
0.287236
 20
2.385433
  0
VERTEX
  8
PLAN_1
 62
     2
  6
CONTINUOUS
 10
0.287236
 20
2.387858
  0
VERTEX
  8
PLAN_1
 62
     2
  6
CONTINUOUS
 10
0.286831
 20
2.390693
  0
VERTEX
  8
PLAN_1
 62
     2
  6
CONTINUOUS
 10
0.286024
 20
2.392717
  0
VERTEX
  8
PLAN_1
 62
     2
  6
CONTINUOUS
 10
0.284807
 20
2.395142
  0
VERTEX
  8
PLAN_1
 62
     2
  6
CONTINUOUS
 10
0.283189
 20
2.396760
  0
VERTEX
  8
PLAN_1
 62
     2
  6
CONTINUOUS
 10
0.281165
 20
2.397976
  0
VERTEX
  8
PLAN_1
 62
     2
  6
CONTINUOUS
 10
0.278740
 20
2.398783
  0
VERTEX
  8
PLAN_1
 62
     2
  6
CONTINUOUS
 10
0.275500
 20
2.399189
  0
VERTEX
  8
PLAN_1
 62
     2
  6
CONTINUOUS
 10
0.273480
 20
2.399189
  0
VERTEX
  8
PLAN_1
 62
     2
  6
CONTINUOUS
 10
0.271858
 20
2.398783
  0
VERTEX
  8
PLAN_1
 62
     2
  6
CONTINUOUS
 10
0.269839
 20
2.397976
  0
VERTEX
  8
PLAN_1
 62
     2
  6
CONTINUOUS
 10
0.267815
 20
2.396760
  0
VERTEX
  8
PLAN_1
 62
     2
  6
CONTINUOUS
 10
0.266197
 20
2.394740
  0
VERTEX
  8
PLAN_1
 62
     2
  6
CONTINUOUS
 10
0.264980
 20
2.392311
  0
VERTEX
  8
PLAN_1
 62
     2
  6
CONTINUOUS
 10
0.264173
 20
2.389476
  0
VERTEX
  8
PLAN_1
 62
     2
  6
CONTINUOUS
 10
0.263768
 20
2.385839
  0
VERTEX
  8
PLAN_1
 62
     2
  6
CONTINUOUS
 10
0.264173
 20
2.383409
  0
VERTEX
  8
PLAN_1
 62
     2
  6
CONTINUOUS
 10
0.264173
 20
2.381386
  0
VERTEX
  8
PLAN_1
 62
     2
  6
CONTINUOUS
 10
0.264980
 20
2.379768
  0
VERTEX
  8
PLAN_1
 62
     2
  6
CONTINUOUS
 10
0.265791
 20
2.378150
  0
VERTEX
  8
PLAN_1
 62
     2
  6
CONTINUOUS
 10
0.266598
 20
2.376933
  0
VERTEX
  8
PLAN_1
 62
     2
  6
CONTINUOUS
 10
0.267409
 20
2.375720
  0
VERTEX
  8
PLAN_1
 62
     2
  6
CONTINUOUS
 10
0.268622
 20
2.374508
  0
VERTEX
  8
PLAN_1
 62
     2
  6
CONTINUOUS
 10
0.269839
 20
2.374102
  0
VERTEX
  8
PLAN_1
 62
     2
  6
CONTINUOUS
 10
0.272264
 20
2.372890
  0
VERTEX
  8
PLAN_1
 62
     2
  6
CONTINUOUS
 10
0.275098
 20
2.372079
  0
VERTEX
  8
PLAN_1
 62
     2
  6
CONTINUOUS
 10
0.277524
 20
2.371673
  0
VERTEX
  8
PLAN_1
 62
     2
  6
CONTINUOUS
 10
0.279547
 20
2.371673
  0
VERTEX
  8
PLAN_1
 62
     2
  6
CONTINUOUS
 10
0.279547
 20
2.362370
  0
VERTEX
  8
PLAN_1
 62
     2
  6
CONTINUOUS
 10
0.275500
 20
2.362772
  0
VERTEX
  8
PLAN_1
 62
     2
  6
CONTINUOUS
 10
0.271457
 20
2.363583
  0
VERTEX
  8
PLAN_1
 62
     2
  6
CONTINUOUS
 10
0.269433
 20
2.363988
  0
VERTEX
  8
PLAN_1
 62
     2
  6
CONTINUOUS
 10
0.267409
 20
2.364795
  0
VERTEX
  8
PLAN_1
 62
     2
  6
CONTINUOUS
 10
0.265386
 20
2.366012
  0
VERTEX
  8
PLAN_1
 62
     2
  6
CONTINUOUS
 10
0.263768
 20
2.367224
  0
VERTEX
  8
PLAN_1
 62
     2
  6
CONTINUOUS
 10
0.261744
 20
2.368437
  0
VERTEX
  8
PLAN_1
 62
     2
  6
CONTINUOUS
 10
0.260531
 20
2.370055
  0
VERTEX
  8
PLAN_1
 62
     2
  6
CONTINUOUS
 10
0.258913
 20
2.372079
  0
VERTEX
  8
PLAN_1
 62
     2
  6
CONTINUOUS
 10
0.257697
 20
2.374508
  0
VERTEX
  8
PLAN_1
 62
     2
  6
CONTINUOUS
 10
0.256890
 20
2.376933
  0
VERTEX
  8
PLAN_1
 62
     2
  6
CONTINUOUS
 10
0.256079
 20
2.379768
  0
VERTEX
  8
PLAN_1
 62
     2
  6
CONTINUOUS
 10
0.255673
 20
2.382598
  0
VERTEX
  8
PLAN_1
 62
     2
  6
CONTINUOUS
 10
0.255673
 20
2.386240
  0
VERTEX
  8
PLAN_1
 62
     2
  6
CONTINUOUS
 10
0.256079
 20
2.391098
  0
VERTEX
  8
PLAN_1
 62
     2
  6
CONTINUOUS
 10
0.256890
 20
2.395547
  0
VERTEX
  8
PLAN_1
 62
     2
  6
CONTINUOUS
 10
0.257697
 20
2.397571
  0
VERTEX
  8
PLAN_1
 62
     2
  6
CONTINUOUS
 10
0.258913
 20
2.399594
  0
VERTEX
  8
PLAN_1
 62
     2
  6
CONTINUOUS
 10
0.259720
 20
2.401213
  0
VERTEX
  8
PLAN_1
 62
     2
  6
CONTINUOUS
 10
0.260933
 20
2.402831
  0
VERTEX
  8
PLAN_1
 62
     2
  6
CONTINUOUS
 10
0.262555
 20
2.404043
  0
VERTEX
  8
PLAN_1
 62
     2
  6
CONTINUOUS
 10
0.263768
 20
2.405260
  0
VERTEX
  8
PLAN_1
 62
     2
  6
CONTINUOUS
 10
0.265386
 20
2.406472
  0
VERTEX
  8
PLAN_1
 62
     2
  6
CONTINUOUS
 10
0.267004
 20
2.407283
  0
VERTEX
  8
PLAN_1
 62
     2
  6
CONTINUOUS
 10
0.271051
 20
2.408496
  0
VERTEX
  8
PLAN_1
 62
     2
  6
CONTINUOUS
 10
0.274693
 20
2.408902
  0
VERTEX
  8
PLAN_1
 62
     2
  6
CONTINUOUS
 10
0.278335
 20
2.408496
  0
VERTEX
  8
PLAN_1
 62
     2
  6
CONTINUOUS
 10
0.281165
 20
2.407685
  0
VERTEX
  8
PLAN_1
 62
     2
  6
CONTINUOUS
 10
0.283594
 20
2.406878
  0
VERTEX
  8
PLAN_1
 62
     2
  6
CONTINUOUS
 10
0.285618
 20
2.405661
  0
VERTEX
  8
PLAN_1
 62
     2
  6
CONTINUOUS
 10
0.287236
 20
2.404043
  0
VERTEX
  8
PLAN_1
 62
     2
  6
CONTINUOUS
 10
0.288449
 20
2.402425
  0
VERTEX
  8
PLAN_1
 62
     2
  6
CONTINUOUS
 10
0.289260
 20
2.400807
  0
VERTEX
  8
PLAN_1
 62
     2
  6
CONTINUOUS
 10
0.290067
 20
2.399594
  0
VERTEX
  8
PLAN_1
 62
     2
  6
CONTINUOUS
 10
0.291283
 20
2.402020
  0
VERTEX
  8
PLAN_1
 62
     2
  6
CONTINUOUS
 10
0.292496
 20
2.404449
  0
VERTEX
  8
PLAN_1
 62
     2
  6
CONTINUOUS
 10
0.294114
 20
2.406472
  0
VERTEX
  8
PLAN_1
 62
     2
  6
CONTINUOUS
 10
0.295732
 20
2.408091
  0
VERTEX
  8
PLAN_1
 62
     2
  6
CONTINUOUS
 10
0.298161
 20
2.409709
  0
VERTEX
  8
PLAN_1
 62
     2
  6
CONTINUOUS
 10
0.300587
 20
2.410520
  0
VERTEX
  8
PLAN_1
 62
     2
  6
CONTINUOUS
 10
0.303827
 20
2.411327
  0
VERTEX
  8
PLAN_1
 62
     2
  6
CONTINUOUS
 10
0.307063
 20
2.411732
  0
VERTEX
  8
PLAN_1
 62
     2
  6
CONTINUOUS
 10
0.311512
 20
2.411327
  0
VERTEX
  8
PLAN_1
 62
     2
  6
CONTINUOUS
 10
0.315965
 20
2.410114
  0
VERTEX
  8
PLAN_1
 62
     2
  6
CONTINUOUS
 10
0.317988
 20
2.409303
  0
VERTEX
  8
PLAN_1
 62
     2
  6
CONTINUOUS
 10
0.320012
 20
2.408091
  0
VERTEX
  8
PLAN_1
 62
     2
  6
CONTINUOUS
 10
0.321630
 20
2.406878
  0
VERTEX
  8
PLAN_1
 62
     2
  6
CONTINUOUS
 10
0.323654
 20
2.405260
  0
VERTEX
  8
PLAN_1
 62
     2
  6
CONTINUOUS
 10
0.324866
 20
2.403642
  0
VERTEX
  8
PLAN_1
 62
     2
  6
CONTINUOUS
 10
0.326484
 20
2.401618
  0
VERTEX
  8
PLAN_1
 62
     2
  6
CONTINUOUS
 10
0.327697
 20
2.399594
  0
VERTEX
  8
PLAN_1
 62
     2
  6
CONTINUOUS
 10
0.328913
 20
2.397165
  0
VERTEX
  8
PLAN_1
 62
     2
  6
CONTINUOUS
 10
0.329720
 20
2.394740
  0
VERTEX
  8
PLAN_1
 62
     2
  6
CONTINUOUS
 10
0.330126
 20
2.391906
  0
VERTEX
  8
PLAN_1
 62
     2
  6
CONTINUOUS
 10
0.330531
 20
2.388669
  0
VERTEX
  8
PLAN_1
 62
     2
  6
CONTINUOUS
 10
0.330937
 20
2.385433
  0
VERTEX
  8
PLAN_1
 62
     2
  6
CONTINUOUS
 10
0.330531
 20
2.383409
  0
VERTEX
  8
PLAN_1
 62
     2
  6
CONTINUOUS
 10
0.330531
 20
2.381386
  0
VERTEX
  8
PLAN_1
 62
     2
  6
CONTINUOUS
 10
0.330126
 20
2.379362
  0
VERTEX
  8
PLAN_1
 62
     2
  6
CONTINUOUS
 10
0.329720
 20
2.377744
  0
VERTEX
  8
PLAN_1
 62
     2
  6
CONTINUOUS
 10
0.329315
 20
2.376126
  0
VERTEX
  8
PLAN_1
 62
     2
  6
CONTINUOUS
 10
0.328913
 20
2.374508
  0
VERTEX
  8
PLAN_1
 62
     2
  6
CONTINUOUS
 10
0.328102
 20
2.372890
  0
VERTEX
  8
PLAN_1
 62
     2
  6
CONTINUOUS
 10
0.327697
 20
2.371673
  0
VERTEX
  8
PLAN_1
 62
     2
  6
CONTINUOUS
 10
0.325673
 20
2.368843
  0
VERTEX
  8
PLAN_1
 62
     2
  6
CONTINUOUS
 10
0.323654
 20
2.366819
  0
VERTEX
  8
PLAN_1
 62
     2
  6
CONTINUOUS
 10
0.321224
 20
2.364795
  0
VERTEX
  8
PLAN_1
 62
     2
  6
CONTINUOUS
 10
0.318394
 20
2.363583
  0
VERTEX
  8
PLAN_1
 62
     2
  6
CONTINUOUS
 10
0.315559
 20
2.362370
  0
VERTEX
  8
PLAN_1
 62
     2
  6
CONTINUOUS
 10
0.312728
 20
2.361559
  0
VERTEX
  8
PLAN_1
 62
     2
  6
CONTINUOUS
 10
0.309488
 20
2.361154
  0
VERTEX
  8
PLAN_1
 62
     2
  6
CONTINUOUS
 10
0.306252
 20
2.360748
  0
VERTEX
  8
PLAN_1
 62
     2
  6
CONTINUOUS
 10
0.306252
 20
2.370461
  0
VERTEX
  8
PLAN_1
 62
     2
  6
CONTINUOUS
 10
0.309087
 20
2.370461
  0
VERTEX
  8
PLAN_1
 62
     2
  6
CONTINUOUS
 10
0.311917
 20
2.370866
  0
VERTEX
  8
PLAN_1
 62
     2
  6
CONTINUOUS
 10
0.314346
 20
2.371673
  0
VERTEX
  8
PLAN_1
 62
     2
  6
CONTINUOUS
 10
0.317177
 20
2.372890
  0
VERTEX
  8
PLAN_1
 62
     2
  6
CONTINUOUS
 10
0.318394
 20
2.374102
  0
VERTEX
  8
PLAN_1
 62
     2
  6
CONTINUOUS
 10
0.319201
 20
2.374913
  0
VERTEX
  8
PLAN_1
 62
     2
  6
CONTINUOUS
 10
0.320012
 20
2.376126
  0
VERTEX
  8
PLAN_1
 62
     2
  6
CONTINUOUS
 10
0.320819
 20
2.377744
  0
VERTEX
  8
PLAN_1
 62
     2
  6
CONTINUOUS
 10
0.321630
 20
2.379362
  0
VERTEX
  8
PLAN_1
 62
     2
  6
CONTINUOUS
 10
0.322031
 20
2.381386
  0
VERTEX
  8
PLAN_1
 62
     2
  6
CONTINUOUS
 10
0.322437
 20
2.383409
  0
VERTEX
  8
PLAN_1
 62
     2
  6
CONTINUOUS
 10
0.322437
 20
2.385839
  0
VERTEX
  8
PLAN_1
 62
     2
  6
CONTINUOUS
 10
0.322437
 20
2.389075
  0
VERTEX
  8
PLAN_1
 62
     2
  6
CONTINUOUS
 10
0.321630
 20
2.392311
  0
VERTEX
  8
PLAN_1
 62
     2
  6
CONTINUOUS
 10
0.320413
 20
2.395142
  0
VERTEX
  8
PLAN_1
 62
     2
  6
CONTINUOUS
 10
0.318795
 20
2.397165
  0
VERTEX
  8
PLAN_1
 62
     2
  6
CONTINUOUS
 10
0.316370
 20
2.399189
  0
VERTEX
  8
PLAN_1
 62
     2
  6
CONTINUOUS
 10
0.314346
 20
2.400807
  0
VERTEX
  8
PLAN_1
 62
     2
  6
CONTINUOUS
 10
0.311512
 20
2.401618
  0
VERTEX
  8
PLAN_1
 62
     2
  6
CONTINUOUS
 10
0.308276
 20
2.401618
  0
VERTEX
  8
PLAN_1
 62
     2
  6
CONTINUOUS
 10
0.306252
 20
2.401618
  0
VERTEX
  8
PLAN_1
 62
     2
  6
CONTINUOUS
 10
0.304228
 20
2.401213
  0
VERTEX
  8
PLAN_1
 62
     2
  6
CONTINUOUS
 10
0.302610
 20
2.400807
  0
VERTEX
  8
PLAN_1
 62
     2
  6
CONTINUOUS
 10
0.300992
 20
2.400000
  0
VERTEX
  8
PLAN_1
 62
     2
  6
CONTINUOUS
 10
0.299780
 20
2.399189
  0
VERTEX
  8
PLAN_1
 62
     2
  6
CONTINUOUS
 10
0.298567
 20
2.397976
  0
VERTEX
  8
PLAN_1
 62
     2
  6
CONTINUOUS
 10
0.297756
 20
2.396760
  0
VERTEX
  8
PLAN_1
 62
     2
  6
CONTINUOUS
 10
0.296945
 20
2.395547
  0
VERTEX
  8
PLAN_1
 62
     2
  6
CONTINUOUS
 10
0.296138
 20
2.392717
  0
VERTEX
  8
PLAN_1
 62
     2
  6
CONTINUOUS
 10
0.295327
 20
2.389882
  0
VERTEX
  8
PLAN_1
 62
     2
  6
CONTINUOUS
 10
0.294925
 20
2.387051
  0
VERTEX
  8
PLAN_1
 62
     2
  6
CONTINUOUS
 10
0.294925
 20
2.384622
  0
VERTEX
  8
PLAN_1
 62
     2
  6
CONTINUOUS
 10
0.294925
 20
2.384217
  0
VERTEX
  8
PLAN_1
 62
     2
  6
CONTINUOUS
 10
0.294925
 20
2.383815
  0
VERTEX
  8
PLAN_1
 62
     2
  6
CONTINUOUS
 10
0.294925
 20
2.383004
  0
VERTEX
  8
PLAN_1
 62
     2
  6
CONTINUOUS
 10
0.294925
 20
2.382598
  0
VERTEX
  8
PLAN_1
 62
     2
  6
CONTINUOUS
 10
0.294925
 20
2.382197
  0
VERTEX
  8
PLAN_1
 62
     2
  6
CONTINUOUS
 10
0.294925
 20
2.381791
  0
VERTEX
  8
PLAN_1
 62
     2
  6
CONTINUOUS
 10
0.294925
 20
2.380980
  0
VERTEX
  8
PLAN_1
 62
     2
  6
CONTINUOUS
 10
0.294925
 20
2.380575
  0
VERTEX
  8
PLAN_1
 62
     2
  6
CONTINUOUS
 10
0.287236
 20
2.380575
  0
SEQEND
  8
0
  0
POLYLINE
  8
PLAN_1
 62
     2
  6
CONTINUOUS
 66
     1
 40
0.003000
 41
0.003000
  0
VERTEX
  8
PLAN_1
 62
     2
  6
CONTINUOUS
 10
0.330937
 20
2.444102
  0
VERTEX
  8
PLAN_1
 62
     2
  6
CONTINUOUS
 10
0.330531
 20
2.440461
  0
VERTEX
  8
PLAN_1
 62
     2
  6
CONTINUOUS
 10
0.329720
 20
2.436819
  0
VERTEX
  8
PLAN_1
 62
     2
  6
CONTINUOUS
 10
0.328508
 20
2.433988
  0
VERTEX
  8
PLAN_1
 62
     2
  6
CONTINUOUS
 10
0.326890
 20
2.431154
  0
VERTEX
  8
PLAN_1
 62
     2
  6
CONTINUOUS
 10
0.325272
 20
2.429130
  0
VERTEX
  8
PLAN_1
 62
     2
  6
CONTINUOUS
 10
0.322843
 20
2.426705
  0
VERTEX
  8
PLAN_1
 62
     2
  6
CONTINUOUS
 10
0.320413
 20
2.425087
  0
VERTEX
  8
PLAN_1
 62
     2
  6
CONTINUOUS
 10
0.317583
 20
2.423469
  0
VERTEX
  8
PLAN_1
 62
     2
  6
CONTINUOUS
 10
0.314752
 20
2.422252
  0
VERTEX
  8
PLAN_1
 62
     2
  6
CONTINUOUS
 10
0.311917
 20
2.421445
  0
VERTEX
  8
PLAN_1
 62
     2
  6
CONTINUOUS
 10
0.308681
 20
2.420634
  0
VERTEX
  8
PLAN_1
 62
     2
  6
CONTINUOUS
 10
0.305445
 20
2.419827
  0
VERTEX
  8
PLAN_1
 62
     2
  6
CONTINUOUS
 10
0.298969
 20
2.419421
  0
VERTEX
  8
PLAN_1
 62
     2
  6
CONTINUOUS
 10
0.293303
 20
2.419016
  0
VERTEX
  8
PLAN_1
 62
     2
  6
CONTINUOUS
 10
0.287236
 20
2.419421
  0
VERTEX
  8
PLAN_1
 62
     2
  6
CONTINUOUS
 10
0.280760
 20
2.419827
  0
VERTEX
  8
PLAN_1
 62
     2
  6
CONTINUOUS
 10
0.277929
 20
2.420634
  0
VERTEX
  8
PLAN_1
 62
     2
  6
CONTINUOUS
 10
0.274693
 20
2.421445
  0
VERTEX
  8
PLAN_1
 62
     2
  6
CONTINUOUS
 10
0.271457
 20
2.422252
  0
VERTEX
  8
PLAN_1
 62
     2
  6
CONTINUOUS
 10
0.268622
 20
2.423469
  0
VERTEX
  8
PLAN_1
 62
     2
  6
CONTINUOUS
 10
0.266197
 20
2.425087
  0
VERTEX
  8
PLAN_1
 62
     2
  6
CONTINUOUS
 10
0.263362
 20
2.426705
  0
VERTEX
  8
PLAN_1
 62
     2
  6
CONTINUOUS
 10
0.261339
 20
2.429130
  0
VERTEX
  8
PLAN_1
 62
     2
  6
CONTINUOUS
 10
0.259315
 20
2.431154
  0
VERTEX
  8
PLAN_1
 62
     2
  6
CONTINUOUS
 10
0.257697
 20
2.433988
  0
VERTEX
  8
PLAN_1
 62
     2
  6
CONTINUOUS
 10
0.256484
 20
2.436819
  0
VERTEX
  8
PLAN_1
 62
     2
  6
CONTINUOUS
 10
0.256079
 20
2.440461
  0
VERTEX
  8
PLAN_1
 62
     2
  6
CONTINUOUS
 10
0.255673
 20
2.444102
  0
VERTEX
  8
PLAN_1
 62
     2
  6
CONTINUOUS
 10
0.256079
 20
2.447744
  0
VERTEX
  8
PLAN_1
 62
     2
  6
CONTINUOUS
 10
0.256484
 20
2.451386
  0
VERTEX
  8
PLAN_1
 62
     2
  6
CONTINUOUS
 10
0.257697
 20
2.454217
  0
VERTEX
  8
PLAN_1
 62
     2
  6
CONTINUOUS
 10
0.259315
 20
2.457051
  0
VERTEX
  8
PLAN_1
 62
     2
  6
CONTINUOUS
 10
0.261339
 20
2.459075
  0
VERTEX
  8
PLAN_1
 62
     2
  6
CONTINUOUS
 10
0.263362
 20
2.461098
  0
VERTEX
  8
PLAN_1
 62
     2
  6
CONTINUOUS
 10
0.266197
 20
2.463118
  0
VERTEX
  8
PLAN_1
 62
     2
  6
CONTINUOUS
 10
0.268622
 20
2.464335
  0
VERTEX
  8
PLAN_1
 62
     2
  6
CONTINUOUS
 10
0.271457
 20
2.465547
  0
VERTEX
  8
PLAN_1
 62
     2
  6
CONTINUOUS
 10
0.274693
 20
2.466760
  0
VERTEX
  8
PLAN_1
 62
     2
  6
CONTINUOUS
 10
0.277929
 20
2.467571
  0
VERTEX
  8
PLAN_1
 62
     2
  6
CONTINUOUS
 10
0.280760
 20
2.468382
  0
VERTEX
  8
PLAN_1
 62
     2
  6
CONTINUOUS
 10
0.287236
 20
2.468783
  0
VERTEX
  8
PLAN_1
 62
     2
  6
CONTINUOUS
 10
0.293303
 20
2.469189
  0
VERTEX
  8
PLAN_1
 62
     2
  6
CONTINUOUS
 10
0.298969
 20
2.468783
  0
VERTEX
  8
PLAN_1
 62
     2
  6
CONTINUOUS
 10
0.305445
 20
2.468382
  0
VERTEX
  8
PLAN_1
 62
     2
  6
CONTINUOUS
 10
0.308681
 20
2.467571
  0
VERTEX
  8
PLAN_1
 62
     2
  6
CONTINUOUS
 10
0.311917
 20
2.466760
  0
VERTEX
  8
PLAN_1
 62
     2
  6
CONTINUOUS
 10
0.314752
 20
2.465547
  0
VERTEX
  8
PLAN_1
 62
     2
  6
CONTINUOUS
 10
0.317583
 20
2.464335
  0
VERTEX
  8
PLAN_1
 62
     2
  6
CONTINUOUS
 10
0.320413
 20
2.463118
  0
VERTEX
  8
PLAN_1
 62
     2
  6
CONTINUOUS
 10
0.322843
 20
2.461098
  0
VERTEX
  8
PLAN_1
 62
     2
  6
CONTINUOUS
 10
0.325272
 20
2.459075
  0
VERTEX
  8
PLAN_1
 62
     2
  6
CONTINUOUS
 10
0.326890
 20
2.457051
  0
VERTEX
  8
PLAN_1
 62
     2
  6
CONTINUOUS
 10
0.328508
 20
2.454217
  0
VERTEX
  8
PLAN_1
 62
     2
  6
CONTINUOUS
 10
0.329720
 20
2.451386
  0
VERTEX
  8
PLAN_1
 62
     2
  6
CONTINUOUS
 10
0.330531
 20
2.447744
  0
VERTEX
  8
PLAN_1
 62
     2
  6
CONTINUOUS
 10
0.330937
 20
2.444102
  0
SEQEND
  8
0
  0
POLYLINE
  8
PLAN_1
 62
     2
  6
CONTINUOUS
 66
     1
 40
0.003000
 41
0.003000
  0
VERTEX
  8
PLAN_1
 62
     2
  6
CONTINUOUS
 10
0.263768
 20
2.444102
  0
VERTEX
  8
PLAN_1
 62
     2
  6
CONTINUOUS
 10
0.264173
 20
2.442079
  0
VERTEX
  8
PLAN_1
 62
     2
  6
CONTINUOUS
 10
0.264173
 20
2.440461
  0
VERTEX
  8
PLAN_1
 62
     2
  6
CONTINUOUS
 10
0.264980
 20
2.438843
  0
VERTEX
  8
PLAN_1
 62
     2
  6
CONTINUOUS
 10
0.265791
 20
2.437224
  0
VERTEX
  8
PLAN_1
 62
     2
  6
CONTINUOUS
 10
0.267004
 20
2.436012
  0
VERTEX
  8
PLAN_1
 62
     2
  6
CONTINUOUS
 10
0.268217
 20
2.434795
  0
VERTEX
  8
PLAN_1
 62
     2
  6
CONTINUOUS
 10
0.269839
 20
2.433583
  0
VERTEX
  8
PLAN_1
 62
     2
  6
CONTINUOUS
 10
0.271858
 20
2.432370
  0
VERTEX
  8
PLAN_1
 62
     2
  6
CONTINUOUS
 10
0.275906
 20
2.430752
  0
VERTEX
  8
PLAN_1
 62
     2
  6
CONTINUOUS
 10
0.280760
 20
2.429535
  0
VERTEX
  8
PLAN_1
 62
     2
  6
CONTINUOUS
 10
0.286831
 20
2.429130
  0
VERTEX
  8
PLAN_1
 62
     2
  6
CONTINUOUS
 10
0.293303
 20
2.428728
  0
VERTEX
  8
PLAN_1
 62
     2
  6
CONTINUOUS
 10
0.299780
 20
2.429130
  0
VERTEX
  8
PLAN_1
 62
     2
  6
CONTINUOUS
 10
0.305445
 20
2.429535
  0
VERTEX
  8
PLAN_1
 62
     2
  6
CONTINUOUS
 10
0.310705
 20
2.430752
  0
VERTEX
  8
PLAN_1
 62
     2
  6
CONTINUOUS
 10
0.314752
 20
2.432370
  0
VERTEX
  8
PLAN_1
 62
     2
  6
CONTINUOUS
 10
0.316370
 20
2.433583
  0
VERTEX
  8
PLAN_1
 62
     2
  6
CONTINUOUS
 10
0.317988
 20
2.434795
  0
VERTEX
  8
PLAN_1
 62
     2
  6
CONTINUOUS
 10
0.319606
 20
2.436012
  0
VERTEX
  8
PLAN_1
 62
     2
  6
CONTINUOUS
 10
0.320413
 20
2.437224
  0
VERTEX
  8
PLAN_1
 62
     2
  6
CONTINUOUS
 10
0.321224
 20
2.438843
  0
VERTEX
  8
PLAN_1
 62
     2
  6
CONTINUOUS
 10
0.322031
 20
2.440461
  0
VERTEX
  8
PLAN_1
 62
     2
  6
CONTINUOUS
 10
0.322437
 20
2.442079
  0
VERTEX
  8
PLAN_1
 62
     2
  6
CONTINUOUS
 10
0.322437
 20
2.444102
  0
VERTEX
  8
PLAN_1
 62
     2
  6
CONTINUOUS
 10
0.322437
 20
2.446126
  0
VERTEX
  8
PLAN_1
 62
     2
  6
CONTINUOUS
 10
0.322031
 20
2.447744
  0
VERTEX
  8
PLAN_1
 62
     2
  6
CONTINUOUS
 10
0.321224
 20
2.449362
  0
VERTEX
  8
PLAN_1
 62
     2
  6
CONTINUOUS
 10
0.320413
 20
2.450980
  0
VERTEX
  8
PLAN_1
 62
     2
  6
CONTINUOUS
 10
0.319606
 20
2.452197
  0
VERTEX
  8
PLAN_1
 62
     2
  6
CONTINUOUS
 10
0.317988
 20
2.453409
  0
VERTEX
  8
PLAN_1
 62
     2
  6
CONTINUOUS
 10
0.316370
 20
2.454622
  0
VERTEX
  8
PLAN_1
 62
     2
  6
CONTINUOUS
 10
0.314752
 20
2.455839
  0
VERTEX
  8
PLAN_1
 62
     2
  6
CONTINUOUS
 10
0.310705
 20
2.457457
  0
VERTEX
  8
PLAN_1
 62
     2
  6
CONTINUOUS
 10
0.305445
 20
2.458264
  0
VERTEX
  8
PLAN_1
 62
     2
  6
CONTINUOUS
 10
0.299780
 20
2.459075
  0
VERTEX
  8
PLAN_1
 62
     2
  6
CONTINUOUS
 10
0.293303
 20
2.459480
  0
VERTEX
  8
PLAN_1
 62
     2
  6
CONTINUOUS
 10
0.286831
 20
2.459075
  0
VERTEX
  8
PLAN_1
 62
     2
  6
CONTINUOUS
 10
0.280760
 20
2.458264
  0
VERTEX
  8
PLAN_1
 62
     2
  6
CONTINUOUS
 10
0.275906
 20
2.457457
  0
VERTEX
  8
PLAN_1
 62
     2
  6
CONTINUOUS
 10
0.271858
 20
2.455839
  0
VERTEX
  8
PLAN_1
 62
     2
  6
CONTINUOUS
 10
0.269839
 20
2.454622
  0
VERTEX
  8
PLAN_1
 62
     2
  6
CONTINUOUS
 10
0.268217
 20
2.453409
  0
VERTEX
  8
PLAN_1
 62
     2
  6
CONTINUOUS
 10
0.267004
 20
2.452197
  0
VERTEX
  8
PLAN_1
 62
     2
  6
CONTINUOUS
 10
0.265791
 20
2.450980
  0
VERTEX
  8
PLAN_1
 62
     2
  6
CONTINUOUS
 10
0.264980
 20
2.449362
  0
VERTEX
  8
PLAN_1
 62
     2
  6
CONTINUOUS
 10
0.264173
 20
2.447744
  0
VERTEX
  8
PLAN_1
 62
     2
  6
CONTINUOUS
 10
0.264173
 20
2.446126
  0
VERTEX
  8
PLAN_1
 62
     2
  6
CONTINUOUS
 10
0.263768
 20
2.444102
  0
SEQEND
  8
0
  0
POLYLINE
  8
PLAN_1
 62
     2
  6
CONTINUOUS
 66
     1
 40
0.004043
 41
0.004043
  0
VERTEX
  8
PLAN_1
 62
     2
  6
CONTINUOUS
 10
-1.188433
 20
2.941791
  0
VERTEX
  8
PLAN_1
 62
     2
  6
CONTINUOUS
 10
-1.188433
 20
3.163528
  0
SEQEND
  8
0
  0
POLYLINE
  8
PLAN_1
 62
     2
  6
CONTINUOUS
 66
     1
 40
0.004043
 41
0.004043
  0
VERTEX
  8
PLAN_1
 62
     2
  6
CONTINUOUS
 10
-0.794732
 20
2.941791
  0
VERTEX
  8
PLAN_1
 62
     2
  6
CONTINUOUS
 10
-0.794732
 20
3.163528
  0
SEQEND
  8
0
  0
POLYLINE
  8
PLAN_1
 62
     2
  6
CONTINUOUS
 66
     1
 40
0.004043
 41
0.004043
  0
VERTEX
  8
PLAN_1
 62
     2
  6
CONTINUOUS
 10
0.375850
 20
2.986299
  0
VERTEX
  8
PLAN_1
 62
     2
  6
CONTINUOUS
 10
-0.771669
 20
2.986299
  0
SEQEND
  8
0
  0
POLYLINE
  8
PLAN_1
 62
     2
  6
CONTINUOUS
 66
     1
 40
0.004043
 41
0.004043
  0
VERTEX
  8
PLAN_1
 62
     2
  6
CONTINUOUS
 10
-0.818606
 20
2.986299
  0
VERTEX
  8
PLAN_1
 62
     2
  6
CONTINUOUS
 10
-0.948894
 20
2.986299
  0
SEQEND
  8
0
  0
POLYLINE
  8
PLAN_1
 62
     2
  6
CONTINUOUS
 66
     1
 40
0.004043
 41
0.004043
  0
VERTEX
  8
PLAN_1
 62
     2
  6
CONTINUOUS
 10
0.375850
 20
1.844043
  0
VERTEX
  8
PLAN_1
 62
     2
  6
CONTINUOUS
 10
0.045272
 20
1.844043
  0
SEQEND
  8
0
  0
ENDSEC
  0
EOF
