  0
SECTION
  2
HEADER
  9
$ACADVER
  1
AC1006
  9
$EXTMIN
 10
-2.342000
 20
-3.490697
  9
$EXTMAX
 10
2.336000
 20
3.494000
  9
$LTSCALE
 40
0.000394
  9
$PDMODE
 70
    35
  9
$PDSIZE
 40
0.000315
  0
ENDSEC
  0
SECTION
  2
TABLES
  0
TABLE
  2
LTYPE
 70
     9
  0
LTYPE
  2
CONTINUOUS
 70
    64
  3
Solid line
 72
    65
 73
     0
 40
0.000000
  0
LTYPE
  2
DASHED
 70
    64
  3
__ __ __ __ __ __ __ __ __ __ __ __ __ __ __
 72
    65
 73
     2
 40
0.000003
 49
0.000002
 49
-0.000001
  0
LTYPE
  2
HIDDEN
 70
    64
  3
 _ _ _ _ _ _ _ _ _ _ _ _ _ _ _ _ _ _ _ _ _ _
 72
    65
 73
     2
 40
0.000001
 49
0.000001
 49
-0.000000
  0
LTYPE
  2
CENTER
 70
    64
  3
____ _ ____ _ ____ _ ____ _ ____ _ ____ _ ____
 72
    65
 73
     4
 40
0.000008
 49
0.000005
 49
-0.000001
 49
0.000001
 49
-0.000001
  0
LTYPE
  2
PHANTOM
 70
    64
  3
_____ _ _ _____ _ _ _____ _ _ _____ _ _ ____
 72
    65
 73
     6
 40
0.000010
 49
0.000005
 49
-0.000001
 49
0.000001
 49
-0.000001
 49
0.000001
 49
-0.000001
  0
LTYPE
  2
DOT
 70
    64
  3
...............................................
 72
    65
 73
     2
 40
0.000001
 49
0.000000
 49
-0.000001
  0
LTYPE
  2
DASHDOT
 70
    64
  3
__ . __ . __ . __ . __ . __ . __ . __ . __ . __
 72
    65
 73
     4
 40
0.000004
 49
0.000002
 49
-0.000001
 49
0.000000
 49
-0.000001
  0
LTYPE
  2
BORDER
 70
    64
  3
__ __ . __ __ . __ __ . __ __ . __ __ . __ __
 72
    65
 73
     6
 40
0.000007
 49
0.000002
 49
-0.000001
 49
0.000002
 49
-0.000001
 49
0.000000
 49
-0.000001
  0
LTYPE
  2
DIVIDE
 70
    64
  3
__ . . __ . . __ . . __ . . __ . . __ . . __
 72
    65
 73
     6
 40
0.000005
 49
0.000002
 49
-0.000001
 49
0.000000
 49
-0.000001
 49
0.000000
 49
-0.000001
  0
LTYPE
  2
DOTDOT
 70
    64
  3
 . .  . .  . .  . .  . .  . . 
 72
    65
 73
     5
 40
0.000002
 49
-0.000001
 49
0.000000
 49
-0.000001
 49
0.000000
 49
-0.000001
  0
ENDTAB
  0
TABLE
  2
STYLE
 70
     0
  0
ENDTAB
  0
TABLE
  2
LAYER
 70
     3
  0
LAYER
  2
FOREGROUND
 70
    64
 62
     7
  6
CONTINUOUS
  0
LAYER
  2
BACKGROUND
 70
    65
 62
    -7
  6
CONTINUOUS
  0
LAYER
  2
PLAN_1
 70
    64
 62
     7
  6
CONTINUOUS
  0
ENDTAB
  0
ENDSEC
  0
SECTION
  2
ENTITIES
  0
POLYLINE
  8
PLAN_1
  6
CONTINUOUS
 66
     1
 40
0.003000
 41
0.003000
  0
VERTEX
  8
PLAN_1
  6
CONTINUOUS
 10
0.532201
 20
-3.485457
  0
VERTEX
  8
PLAN_1
  6
CONTINUOUS
 10
0.375484
 20
-3.485457
  0
VERTEX
  8
PLAN_1
  6
CONTINUOUS
 10
0.375484
 20
-3.462756
  0
VERTEX
  8
PLAN_1
  6
CONTINUOUS
 10
0.497717
 20
-3.309969
  0
VERTEX
  8
PLAN_1
  6
CONTINUOUS
 10
0.384650
 20
-3.309969
  0
VERTEX
  8
PLAN_1
  6
CONTINUOUS
 10
0.384650
 20
-3.285957
  0
VERTEX
  8
PLAN_1
  6
CONTINUOUS
 10
0.532201
 20
-3.285957
  0
VERTEX
  8
PLAN_1
  6
CONTINUOUS
 10
0.532201
 20
-3.309531
  0
VERTEX
  8
PLAN_1
  6
CONTINUOUS
 10
0.409535
 20
-3.461449
  0
VERTEX
  8
PLAN_1
  6
CONTINUOUS
 10
0.532201
 20
-3.461449
  0
VERTEX
  8
PLAN_1
  6
CONTINUOUS
 10
0.532201
 20
-3.485457
  0
SEQEND
  8
0
  0
POLYLINE
  8
PLAN_1
  6
CONTINUOUS
 66
     1
 40
0.003000
 41
0.003000
  0
VERTEX
  8
PLAN_1
  6
CONTINUOUS
 10
0.699835
 20
-3.346201
  0
VERTEX
  8
PLAN_1
  6
CONTINUOUS
 10
0.698091
 20
-3.339654
  0
VERTEX
  8
PLAN_1
  6
CONTINUOUS
 10
0.695906
 20
-3.334413
  0
VERTEX
  8
PLAN_1
  6
CONTINUOUS
 10
0.693287
 20
-3.329173
  0
VERTEX
  8
PLAN_1
  6
CONTINUOUS
 10
0.690669
 20
-3.324811
  0
VERTEX
  8
PLAN_1
  6
CONTINUOUS
 10
0.687177
 20
-3.320882
  0
VERTEX
  8
PLAN_1
  6
CONTINUOUS
 10
0.683681
 20
-3.317823
  0
VERTEX
  8
PLAN_1
  6
CONTINUOUS
 10
0.680189
 20
-3.314768
  0
VERTEX
  8
PLAN_1
  6
CONTINUOUS
 10
0.676260
 20
-3.312150
  0
VERTEX
  8
PLAN_1
  6
CONTINUOUS
 10
0.672335
 20
-3.310402
  0
VERTEX
  8
PLAN_1
  6
CONTINUOUS
 10
0.667969
 20
-3.308657
  0
VERTEX
  8
PLAN_1
  6
CONTINUOUS
 10
0.664039
 20
-3.307346
  0
VERTEX
  8
PLAN_1
  6
CONTINUOUS
 10
0.659673
 20
-3.306476
  0
VERTEX
  8
PLAN_1
  6
CONTINUOUS
 10
0.651378
 20
-3.305165
  0
VERTEX
  8
PLAN_1
  6
CONTINUOUS
 10
0.643957
 20
-3.304728
  0
VERTEX
  8
PLAN_1
  6
CONTINUOUS
 10
0.637409
 20
-3.305165
  0
VERTEX
  8
PLAN_1
  6
CONTINUOUS
 10
0.630862
 20
-3.306039
  0
VERTEX
  8
PLAN_1
  6
CONTINUOUS
 10
0.624748
 20
-3.307346
  0
VERTEX
  8
PLAN_1
  6
CONTINUOUS
 10
0.618638
 20
-3.309531
  0
VERTEX
  8
PLAN_1
  6
CONTINUOUS
 10
0.612965
 20
-3.312587
  0
VERTEX
  8
PLAN_1
  6
CONTINUOUS
 10
0.607287
 20
-3.316079
  0
VERTEX
  8
PLAN_1
  6
CONTINUOUS
 10
0.602484
 20
-3.320008
  0
VERTEX
  8
PLAN_1
  6
CONTINUOUS
 10
0.597685
 20
-3.324811
  0
VERTEX
  8
PLAN_1
  6
CONTINUOUS
 10
0.593756
 20
-3.330047
  0
VERTEX
  8
PLAN_1
  6
CONTINUOUS
 10
0.589827
 20
-3.335724
  0
VERTEX
  8
PLAN_1
  6
CONTINUOUS
 10
0.586772
 20
-3.342272
  0
VERTEX
  8
PLAN_1
  6
CONTINUOUS
 10
0.583713
 20
-3.349256
  0
VERTEX
  8
PLAN_1
  6
CONTINUOUS
 10
0.581531
 20
-3.357114
  0
VERTEX
  8
PLAN_1
  6
CONTINUOUS
 10
0.580220
 20
-3.365409
  0
VERTEX
  8
PLAN_1
  6
CONTINUOUS
 10
0.578913
 20
-3.374138
  0
VERTEX
  8
PLAN_1
  6
CONTINUOUS
 10
0.578913
 20
-3.383744
  0
VERTEX
  8
PLAN_1
  6
CONTINUOUS
 10
0.578913
 20
-3.392472
  0
VERTEX
  8
PLAN_1
  6
CONTINUOUS
 10
0.579787
 20
-3.400768
  0
VERTEX
  8
PLAN_1
  6
CONTINUOUS
 10
0.580657
 20
-3.409063
  0
VERTEX
  8
PLAN_1
  6
CONTINUOUS
 10
0.581969
 20
-3.416484
  0
VERTEX
  8
PLAN_1
  6
CONTINUOUS
 10
0.584150
 20
-3.423906
  0
VERTEX
  8
PLAN_1
  6
CONTINUOUS
 10
0.586772
 20
-3.430890
  0
VERTEX
  8
PLAN_1
  6
CONTINUOUS
 10
0.589827
 20
-3.437000
  0
VERTEX
  8
PLAN_1
  6
CONTINUOUS
 10
0.593319
 20
-3.443114
  0
VERTEX
  8
PLAN_1
  6
CONTINUOUS
 10
0.597248
 20
-3.448350
  0
VERTEX
  8
PLAN_1
  6
CONTINUOUS
 10
0.602051
 20
-3.452717
  0
VERTEX
  8
PLAN_1
  6
CONTINUOUS
 10
0.604669
 20
-3.454898
  0
VERTEX
  8
PLAN_1
  6
CONTINUOUS
 10
0.607724
 20
-3.457083
  0
VERTEX
  8
PLAN_1
  6
CONTINUOUS
 10
0.610343
 20
-3.458827
  0
VERTEX
  8
PLAN_1
  6
CONTINUOUS
 10
0.613835
 20
-3.460575
  0
VERTEX
  8
PLAN_1
  6
CONTINUOUS
 10
0.616894
 20
-3.461886
  0
VERTEX
  8
PLAN_1
  6
CONTINUOUS
 10
0.620386
 20
-3.463193
  0
VERTEX
  8
PLAN_1
  6
CONTINUOUS
 10
0.623878
 20
-3.464504
  0
VERTEX
  8
PLAN_1
  6
CONTINUOUS
 10
0.627807
 20
-3.465378
  0
VERTEX
  8
PLAN_1
  6
CONTINUOUS
 10
0.631732
 20
-3.465811
  0
VERTEX
  8
PLAN_1
  6
CONTINUOUS
 10
0.636098
 20
-3.466248
  0
VERTEX
  8
PLAN_1
  6
CONTINUOUS
 10
0.640465
 20
-3.466685
  0
VERTEX
  8
PLAN_1
  6
CONTINUOUS
 10
0.644831
 20
-3.466685
  0
VERTEX
  8
PLAN_1
  6
CONTINUOUS
 10
0.648323
 20
-3.466685
  0
VERTEX
  8
PLAN_1
  6
CONTINUOUS
 10
0.651815
 20
-3.466248
  0
VERTEX
  8
PLAN_1
  6
CONTINUOUS
 10
0.655744
 20
-3.465811
  0
VERTEX
  8
PLAN_1
  6
CONTINUOUS
 10
0.659673
 20
-3.464941
  0
VERTEX
  8
PLAN_1
  6
CONTINUOUS
 10
0.664039
 20
-3.463630
  0
VERTEX
  8
PLAN_1
  6
CONTINUOUS
 10
0.667969
 20
-3.461886
  0
VERTEX
  8
PLAN_1
  6
CONTINUOUS
 10
0.672335
 20
-3.459701
  0
VERTEX
  8
PLAN_1
  6
CONTINUOUS
 10
0.676260
 20
-3.456646
  0
VERTEX
  8
PLAN_1
  6
CONTINUOUS
 10
0.680626
 20
-3.453591
  0
VERTEX
  8
PLAN_1
  6
CONTINUOUS
 10
0.684118
 20
-3.449661
  0
VERTEX
  8
PLAN_1
  6
CONTINUOUS
 10
0.688047
 20
-3.445295
  0
VERTEX
  8
PLAN_1
  6
CONTINUOUS
 10
0.691539
 20
-3.440055
  0
VERTEX
  8
PLAN_1
  6
CONTINUOUS
 10
0.694598
 20
-3.434382
  0
VERTEX
  8
PLAN_1
  6
CONTINUOUS
 10
0.697217
 20
-3.427835
  0
VERTEX
  8
PLAN_1
  6
CONTINUOUS
 10
0.699835
 20
-3.420413
  0
VERTEX
  8
PLAN_1
  6
CONTINUOUS
 10
0.701583
 20
-3.412118
  0
VERTEX
  8
PLAN_1
  6
CONTINUOUS
 10
0.727776
 20
-3.412118
  0
VERTEX
  8
PLAN_1
  6
CONTINUOUS
 10
0.726465
 20
-3.419102
  0
VERTEX
  8
PLAN_1
  6
CONTINUOUS
 10
0.725154
 20
-3.425213
  0
VERTEX
  8
PLAN_1
  6
CONTINUOUS
 10
0.723409
 20
-3.431327
  0
VERTEX
  8
PLAN_1
  6
CONTINUOUS
 10
0.721661
 20
-3.437000
  0
VERTEX
  8
PLAN_1
  6
CONTINUOUS
 10
0.719480
 20
-3.442240
  0
VERTEX
  8
PLAN_1
  6
CONTINUOUS
 10
0.716858
 20
-3.447476
  0
VERTEX
  8
PLAN_1
  6
CONTINUOUS
 10
0.714240
 20
-3.451843
  0
VERTEX
  8
PLAN_1
  6
CONTINUOUS
 10
0.711622
 20
-3.456209
  0
VERTEX
  8
PLAN_1
  6
CONTINUOUS
 10
0.708567
 20
-3.460138
  0
VERTEX
  8
PLAN_1
  6
CONTINUOUS
 10
0.705512
 20
-3.463630
  0
VERTEX
  8
PLAN_1
  6
CONTINUOUS
 10
0.702453
 20
-3.467122
  0
VERTEX
  8
PLAN_1
  6
CONTINUOUS
 10
0.699398
 20
-3.470177
  0
VERTEX
  8
PLAN_1
  6
CONTINUOUS
 10
0.695906
 20
-3.472799
  0
VERTEX
  8
PLAN_1
  6
CONTINUOUS
 10
0.692413
 20
-3.475417
  0
VERTEX
  8
PLAN_1
  6
CONTINUOUS
 10
0.689358
 20
-3.477598
  0
VERTEX
  8
PLAN_1
  6
CONTINUOUS
 10
0.685866
 20
-3.479783
  0
VERTEX
  8
PLAN_1
  6
CONTINUOUS
 10
0.678882
 20
-3.482839
  0
VERTEX
  8
PLAN_1
  6
CONTINUOUS
 10
0.671898
 20
-3.485894
  0
VERTEX
  8
PLAN_1
  6
CONTINUOUS
 10
0.665346
 20
-3.487642
  0
VERTEX
  8
PLAN_1
  6
CONTINUOUS
 10
0.659236
 20
-3.488949
  0
VERTEX
  8
PLAN_1
  6
CONTINUOUS
 10
0.648323
 20
-3.490260
  0
VERTEX
  8
PLAN_1
  6
CONTINUOUS
 10
0.640465
 20
-3.490697
  0
VERTEX
  8
PLAN_1
  6
CONTINUOUS
 10
0.632169
 20
-3.490260
  0
VERTEX
  8
PLAN_1
  6
CONTINUOUS
 10
0.623878
 20
-3.489386
  0
VERTEX
  8
PLAN_1
  6
CONTINUOUS
 10
0.615583
 20
-3.487642
  0
VERTEX
  8
PLAN_1
  6
CONTINUOUS
 10
0.607724
 20
-3.485020
  0
VERTEX
  8
PLAN_1
  6
CONTINUOUS
 10
0.603795
 20
-3.483276
  0
VERTEX
  8
PLAN_1
  6
CONTINUOUS
 10
0.599866
 20
-3.481528
  0
VERTEX
  8
PLAN_1
  6
CONTINUOUS
 10
0.595937
 20
-3.479346
  0
VERTEX
  8
PLAN_1
  6
CONTINUOUS
 10
0.592445
 20
-3.477161
  0
VERTEX
  8
PLAN_1
  6
CONTINUOUS
 10
0.588953
 20
-3.474980
  0
VERTEX
  8
PLAN_1
  6
CONTINUOUS
 10
0.585461
 20
-3.472362
  0
VERTEX
  8
PLAN_1
  6
CONTINUOUS
 10
0.581969
 20
-3.469307
  0
VERTEX
  8
PLAN_1
  6
CONTINUOUS
 10
0.578913
 20
-3.466248
  0
VERTEX
  8
PLAN_1
  6
CONTINUOUS
 10
0.575858
 20
-3.463193
  0
VERTEX
  8
PLAN_1
  6
CONTINUOUS
 10
0.572799
 20
-3.459701
  0
VERTEX
  8
PLAN_1
  6
CONTINUOUS
 10
0.570181
 20
-3.455772
  0
VERTEX
  8
PLAN_1
  6
CONTINUOUS
 10
0.567563
 20
-3.451843
  0
VERTEX
  8
PLAN_1
  6
CONTINUOUS
 10
0.564945
 20
-3.447476
  0
VERTEX
  8
PLAN_1
  6
CONTINUOUS
 10
0.562760
 20
-3.443114
  0
VERTEX
  8
PLAN_1
  6
CONTINUOUS
 10
0.560579
 20
-3.438311
  0
VERTEX
  8
PLAN_1
  6
CONTINUOUS
 10
0.558831
 20
-3.433508
  0
VERTEX
  8
PLAN_1
  6
CONTINUOUS
 10
0.557087
 20
-3.428272
  0
VERTEX
  8
PLAN_1
  6
CONTINUOUS
 10
0.555339
 20
-3.423031
  0
VERTEX
  8
PLAN_1
  6
CONTINUOUS
 10
0.554028
 20
-3.417358
  0
VERTEX
  8
PLAN_1
  6
CONTINUOUS
 10
0.553157
 20
-3.411244
  0
VERTEX
  8
PLAN_1
  6
CONTINUOUS
 10
0.552283
 20
-3.405134
  0
VERTEX
  8
PLAN_1
  6
CONTINUOUS
 10
0.551409
 20
-3.398587
  0
VERTEX
  8
PLAN_1
  6
CONTINUOUS
 10
0.550972
 20
-3.391602
  0
VERTEX
  8
PLAN_1
  6
CONTINUOUS
 10
0.550972
 20
-3.384614
  0
VERTEX
  8
PLAN_1
  6
CONTINUOUS
 10
0.551409
 20
-3.373264
  0
VERTEX
  8
PLAN_1
  6
CONTINUOUS
 10
0.552720
 20
-3.362787
  0
VERTEX
  8
PLAN_1
  6
CONTINUOUS
 10
0.553594
 20
-3.357551
  0
VERTEX
  8
PLAN_1
  6
CONTINUOUS
 10
0.554465
 20
-3.352311
  0
VERTEX
  8
PLAN_1
  6
CONTINUOUS
 10
0.555776
 20
-3.347508
  0
VERTEX
  8
PLAN_1
  6
CONTINUOUS
 10
0.557524
 20
-3.342709
  0
VERTEX
  8
PLAN_1
  6
CONTINUOUS
 10
0.558831
 20
-3.337906
  0
VERTEX
  8
PLAN_1
  6
CONTINUOUS
 10
0.561016
 20
-3.333539
  0
VERTEX
  8
PLAN_1
  6
CONTINUOUS
 10
0.562760
 20
-3.329173
  0
VERTEX
  8
PLAN_1
  6
CONTINUOUS
 10
0.564945
 20
-3.324811
  0
VERTEX
  8
PLAN_1
  6
CONTINUOUS
 10
0.567563
 20
-3.320882
  0
VERTEX
  8
PLAN_1
  6
CONTINUOUS
 10
0.570181
 20
-3.316953
  0
VERTEX
  8
PLAN_1
  6
CONTINUOUS
 10
0.572799
 20
-3.313461
  0
VERTEX
  8
PLAN_1
  6
CONTINUOUS
 10
0.575858
 20
-3.309531
  0
VERTEX
  8
PLAN_1
  6
CONTINUOUS
 10
0.578913
 20
-3.306476
  0
VERTEX
  8
PLAN_1
  6
CONTINUOUS
 10
0.581969
 20
-3.303417
  0
VERTEX
  8
PLAN_1
  6
CONTINUOUS
 10
0.585461
 20
-3.300362
  0
VERTEX
  8
PLAN_1
  6
CONTINUOUS
 10
0.588953
 20
-3.297307
  0
VERTEX
  8
PLAN_1
  6
CONTINUOUS
 10
0.592882
 20
-3.295126
  0
VERTEX
  8
PLAN_1
  6
CONTINUOUS
 10
0.596811
 20
-3.292504
  0
VERTEX
  8
PLAN_1
  6
CONTINUOUS
 10
0.600740
 20
-3.290323
  0
VERTEX
  8
PLAN_1
  6
CONTINUOUS
 10
0.605106
 20
-3.288575
  0
VERTEX
  8
PLAN_1
  6
CONTINUOUS
 10
0.609472
 20
-3.286831
  0
VERTEX
  8
PLAN_1
  6
CONTINUOUS
 10
0.613835
 20
-3.285083
  0
VERTEX
  8
PLAN_1
  6
CONTINUOUS
 10
0.618638
 20
-3.283776
  0
VERTEX
  8
PLAN_1
  6
CONTINUOUS
 10
0.623441
 20
-3.282902
  0
VERTEX
  8
PLAN_1
  6
CONTINUOUS
 10
0.628240
 20
-3.282028
  0
VERTEX
  8
PLAN_1
  6
CONTINUOUS
 10
0.633480
 20
-3.281154
  0
VERTEX
  8
PLAN_1
  6
CONTINUOUS
 10
0.638720
 20
-3.281154
  0
VERTEX
  8
PLAN_1
  6
CONTINUOUS
 10
0.643957
 20
-3.280717
  0
VERTEX
  8
PLAN_1
  6
CONTINUOUS
 10
0.653126
 20
-3.281154
  0
VERTEX
  8
PLAN_1
  6
CONTINUOUS
 10
0.662291
 20
-3.282465
  0
VERTEX
  8
PLAN_1
  6
CONTINUOUS
 10
0.670150
 20
-3.284213
  0
VERTEX
  8
PLAN_1
  6
CONTINUOUS
 10
0.678008
 20
-3.286394
  0
VERTEX
  8
PLAN_1
  6
CONTINUOUS
 10
0.684992
 20
-3.289449
  0
VERTEX
  8
PLAN_1
  6
CONTINUOUS
 10
0.691539
 20
-3.292504
  0
VERTEX
  8
PLAN_1
  6
CONTINUOUS
 10
0.697217
 20
-3.296433
  0
VERTEX
  8
PLAN_1
  6
CONTINUOUS
 10
0.702890
 20
-3.300799
  0
VERTEX
  8
PLAN_1
  6
CONTINUOUS
 10
0.707693
 20
-3.305602
  0
VERTEX
  8
PLAN_1
  6
CONTINUOUS
 10
0.711622
 20
-3.310839
  0
VERTEX
  8
PLAN_1
  6
CONTINUOUS
 10
0.715551
 20
-3.316079
  0
VERTEX
  8
PLAN_1
  6
CONTINUOUS
 10
0.718606
 20
-3.321752
  0
VERTEX
  8
PLAN_1
  6
CONTINUOUS
 10
0.721224
 20
-3.327866
  0
VERTEX
  8
PLAN_1
  6
CONTINUOUS
 10
0.723409
 20
-3.333539
  0
VERTEX
  8
PLAN_1
  6
CONTINUOUS
 10
0.724717
 20
-3.339654
  0
VERTEX
  8
PLAN_1
  6
CONTINUOUS
 10
0.726028
 20
-3.346201
  0
VERTEX
  8
PLAN_1
  6
CONTINUOUS
 10
0.699835
 20
-3.346201
  0
SEQEND
  8
0
  0
POLYLINE
  8
PLAN_1
  6
CONTINUOUS
 66
     1
 40
0.003000
 41
0.003000
  0
VERTEX
  8
PLAN_1
  6
CONTINUOUS
 10
0.787146
 20
-3.485457
  0
VERTEX
  8
PLAN_1
  6
CONTINUOUS
 10
0.760516
 20
-3.485457
  0
VERTEX
  8
PLAN_1
  6
CONTINUOUS
 10
0.760516
 20
-3.285957
  0
VERTEX
  8
PLAN_1
  6
CONTINUOUS
 10
0.787146
 20
-3.285957
  0
VERTEX
  8
PLAN_1
  6
CONTINUOUS
 10
0.787146
 20
-3.382870
  0
VERTEX
  8
PLAN_1
  6
CONTINUOUS
 10
0.884055
 20
-3.285957
  0
VERTEX
  8
PLAN_1
  6
CONTINUOUS
 10
0.921161
 20
-3.285957
  0
VERTEX
  8
PLAN_1
  6
CONTINUOUS
 10
0.838220
 20
-3.366717
  0
VERTEX
  8
PLAN_1
  6
CONTINUOUS
 10
0.923346
 20
-3.485457
  0
VERTEX
  8
PLAN_1
  6
CONTINUOUS
 10
0.888421
 20
-3.485457
  0
VERTEX
  8
PLAN_1
  6
CONTINUOUS
 10
0.818575
 20
-3.385488
  0
VERTEX
  8
PLAN_1
  6
CONTINUOUS
 10
0.787146
 20
-3.415610
  0
VERTEX
  8
PLAN_1
  6
CONTINUOUS
 10
0.787146
 20
-3.485457
  0
SEQEND
  8
0
  0
POLYLINE
  8
PLAN_1
  6
CONTINUOUS
 66
     1
 40
0.003000
 41
0.003000
  0
VERTEX
  8
PLAN_1
  6
CONTINUOUS
 10
0.946917
 20
-3.285957
  0
VERTEX
  8
PLAN_1
  6
CONTINUOUS
 10
1.027681
 20
-3.285957
  0
VERTEX
  8
PLAN_1
  6
CONTINUOUS
 10
1.032480
 20
-3.286394
  0
VERTEX
  8
PLAN_1
  6
CONTINUOUS
 10
1.037283
 20
-3.286394
  0
VERTEX
  8
PLAN_1
  6
CONTINUOUS
 10
1.041650
 20
-3.287268
  0
VERTEX
  8
PLAN_1
  6
CONTINUOUS
 10
1.046449
 20
-3.288138
  0
VERTEX
  8
PLAN_1
  6
CONTINUOUS
 10
1.050815
 20
-3.289012
  0
VERTEX
  8
PLAN_1
  6
CONTINUOUS
 10
1.054744
 20
-3.290323
  0
VERTEX
  8
PLAN_1
  6
CONTINUOUS
 10
1.058673
 20
-3.291634
  0
VERTEX
  8
PLAN_1
  6
CONTINUOUS
 10
1.062602
 20
-3.293378
  0
VERTEX
  8
PLAN_1
  6
CONTINUOUS
 10
1.066531
 20
-3.295126
  0
VERTEX
  8
PLAN_1
  6
CONTINUOUS
 10
1.070461
 20
-3.296870
  0
VERTEX
  8
PLAN_1
  6
CONTINUOUS
 10
1.073953
 20
-3.299055
  0
VERTEX
  8
PLAN_1
  6
CONTINUOUS
 10
1.077008
 20
-3.301673
  0
VERTEX
  8
PLAN_1
  6
CONTINUOUS
 10
1.080500
 20
-3.304291
  0
VERTEX
  8
PLAN_1
  6
CONTINUOUS
 10
1.083555
 20
-3.306909
  0
VERTEX
  8
PLAN_1
  6
CONTINUOUS
 10
1.086177
 20
-3.309969
  0
VERTEX
  8
PLAN_1
  6
CONTINUOUS
 10
1.089232
 20
-3.313024
  0
VERTEX
  8
PLAN_1
  6
CONTINUOUS
 10
1.094469
 20
-3.319571
  0
VERTEX
  8
PLAN_1
  6
CONTINUOUS
 10
1.098835
 20
-3.326992
  0
VERTEX
  8
PLAN_1
  6
CONTINUOUS
 10
1.102764
 20
-3.334850
  0
VERTEX
  8
PLAN_1
  6
CONTINUOUS
 10
1.105819
 20
-3.343579
  0
VERTEX
  8
PLAN_1
  6
CONTINUOUS
 10
1.108441
 20
-3.352748
  0
VERTEX
  8
PLAN_1
  6
CONTINUOUS
 10
1.110185
 20
-3.362350
  0
VERTEX
  8
PLAN_1
  6
CONTINUOUS
 10
1.111059
 20
-3.372394
  0
VERTEX
  8
PLAN_1
  6
CONTINUOUS
 10
1.111496
 20
-3.382870
  0
VERTEX
  8
PLAN_1
  6
CONTINUOUS
 10
1.111496
 20
-3.391602
  0
VERTEX
  8
PLAN_1
  6
CONTINUOUS
 10
1.110622
 20
-3.400331
  0
VERTEX
  8
PLAN_1
  6
CONTINUOUS
 10
1.109311
 20
-3.409063
  0
VERTEX
  8
PLAN_1
  6
CONTINUOUS
 10
1.107567
 20
-3.417791
  0
VERTEX
  8
PLAN_1
  6
CONTINUOUS
 10
1.104949
 20
-3.426524
  0
VERTEX
  8
PLAN_1
  6
CONTINUOUS
 10
1.101890
 20
-3.435256
  0
VERTEX
  8
PLAN_1
  6
CONTINUOUS
 10
1.098398
 20
-3.443114
  0
VERTEX
  8
PLAN_1
  6
CONTINUOUS
 10
1.093598
 20
-3.450969
  0
VERTEX
  8
PLAN_1
  6
CONTINUOUS
 10
1.090976
 20
-3.454465
  0
VERTEX
  8
PLAN_1
  6
CONTINUOUS
 10
1.088358
 20
-3.458390
  0
VERTEX
  8
PLAN_1
  6
CONTINUOUS
 10
1.085303
 20
-3.461449
  0
VERTEX
  8
PLAN_1
  6
CONTINUOUS
 10
1.082248
 20
-3.464941
  0
VERTEX
  8
PLAN_1
  6
CONTINUOUS
 10
1.079193
 20
-3.467996
  0
VERTEX
  8
PLAN_1
  6
CONTINUOUS
 10
1.075264
 20
-3.470614
  0
VERTEX
  8
PLAN_1
  6
CONTINUOUS
 10
1.071772
 20
-3.473232
  0
VERTEX
  8
PLAN_1
  6
CONTINUOUS
 10
1.067406
 20
-3.475854
  0
VERTEX
  8
PLAN_1
  6
CONTINUOUS
 10
1.063476
 20
-3.478035
  0
VERTEX
  8
PLAN_1
  6
CONTINUOUS
 10
1.058673
 20
-3.479783
  0
VERTEX
  8
PLAN_1
  6
CONTINUOUS
 10
1.054307
 20
-3.481528
  0
VERTEX
  8
PLAN_1
  6
CONTINUOUS
 10
1.049071
 20
-3.482839
  0
VERTEX
  8
PLAN_1
  6
CONTINUOUS
 10
1.043831
 20
-3.484146
  0
VERTEX
  8
PLAN_1
  6
CONTINUOUS
 10
1.038594
 20
-3.484583
  0
VERTEX
  8
PLAN_1
  6
CONTINUOUS
 10
1.032917
 20
-3.485457
  0
VERTEX
  8
PLAN_1
  6
CONTINUOUS
 10
1.026807
 20
-3.485457
  0
VERTEX
  8
PLAN_1
  6
CONTINUOUS
 10
0.946917
 20
-3.485457
  0
VERTEX
  8
PLAN_1
  6
CONTINUOUS
 10
0.946917
 20
-3.285957
  0
SEQEND
  8
0
  0
POLYLINE
  8
PLAN_1
  6
CONTINUOUS
 66
     1
 40
0.003000
 41
0.003000
  0
VERTEX
  8
PLAN_1
  6
CONTINUOUS
 10
0.973984
 20
-3.462319
  0
VERTEX
  8
PLAN_1
  6
CONTINUOUS
 10
1.025933
 20
-3.462319
  0
VERTEX
  8
PLAN_1
  6
CONTINUOUS
 10
1.032480
 20
-3.461886
  0
VERTEX
  8
PLAN_1
  6
CONTINUOUS
 10
1.038594
 20
-3.461012
  0
VERTEX
  8
PLAN_1
  6
CONTINUOUS
 10
1.044268
 20
-3.459701
  0
VERTEX
  8
PLAN_1
  6
CONTINUOUS
 10
1.049941
 20
-3.457520
  0
VERTEX
  8
PLAN_1
  6
CONTINUOUS
 10
1.055181
 20
-3.454465
  0
VERTEX
  8
PLAN_1
  6
CONTINUOUS
 10
1.059984
 20
-3.450969
  0
VERTEX
  8
PLAN_1
  6
CONTINUOUS
 10
1.064350
 20
-3.447043
  0
VERTEX
  8
PLAN_1
  6
CONTINUOUS
 10
1.068280
 20
-3.442240
  0
VERTEX
  8
PLAN_1
  6
CONTINUOUS
 10
1.071772
 20
-3.437000
  0
VERTEX
  8
PLAN_1
  6
CONTINUOUS
 10
1.074827
 20
-3.431327
  0
VERTEX
  8
PLAN_1
  6
CONTINUOUS
 10
1.077445
 20
-3.424780
  0
VERTEX
  8
PLAN_1
  6
CONTINUOUS
 10
1.079626
 20
-3.417791
  0
VERTEX
  8
PLAN_1
  6
CONTINUOUS
 10
1.081374
 20
-3.410370
  0
VERTEX
  8
PLAN_1
  6
CONTINUOUS
 10
1.082685
 20
-3.402516
  0
VERTEX
  8
PLAN_1
  6
CONTINUOUS
 10
1.083555
 20
-3.393783
  0
VERTEX
  8
PLAN_1
  6
CONTINUOUS
 10
1.083992
 20
-3.384614
  0
VERTEX
  8
PLAN_1
  6
CONTINUOUS
 10
1.083555
 20
-3.375449
  0
VERTEX
  8
PLAN_1
  6
CONTINUOUS
 10
1.082685
 20
-3.367154
  0
VERTEX
  8
PLAN_1
  6
CONTINUOUS
 10
1.081374
 20
-3.358858
  0
VERTEX
  8
PLAN_1
  6
CONTINUOUS
 10
1.079626
 20
-3.351874
  0
VERTEX
  8
PLAN_1
  6
CONTINUOUS
 10
1.077445
 20
-3.344890
  0
VERTEX
  8
PLAN_1
  6
CONTINUOUS
 10
1.074827
 20
-3.338780
  0
VERTEX
  8
PLAN_1
  6
CONTINUOUS
 10
1.071335
 20
-3.333102
  0
VERTEX
  8
PLAN_1
  6
CONTINUOUS
 10
1.067843
 20
-3.327866
  0
VERTEX
  8
PLAN_1
  6
CONTINUOUS
 10
1.063476
 20
-3.323500
  0
VERTEX
  8
PLAN_1
  6
CONTINUOUS
 10
1.059110
 20
-3.320008
  0
VERTEX
  8
PLAN_1
  6
CONTINUOUS
 10
1.054307
 20
-3.316516
  0
VERTEX
  8
PLAN_1
  6
CONTINUOUS
 10
1.049071
 20
-3.313898
  0
VERTEX
  8
PLAN_1
  6
CONTINUOUS
 10
1.043394
 20
-3.311713
  0
VERTEX
  8
PLAN_1
  6
CONTINUOUS
 10
1.037283
 20
-3.310402
  0
VERTEX
  8
PLAN_1
  6
CONTINUOUS
 10
1.030736
 20
-3.309531
  0
VERTEX
  8
PLAN_1
  6
CONTINUOUS
 10
1.024185
 20
-3.309094
  0
VERTEX
  8
PLAN_1
  6
CONTINUOUS
 10
0.973984
 20
-3.309094
  0
VERTEX
  8
PLAN_1
  6
CONTINUOUS
 10
0.973984
 20
-3.462319
  0
SEQEND
  8
0
  0
POLYLINE
  8
PLAN_1
  6
CONTINUOUS
 66
     1
 40
0.003000
 41
0.003000
  0
VERTEX
  8
PLAN_1
  6
CONTINUOUS
 10
1.202295
 20
-3.490697
  0
VERTEX
  8
PLAN_1
  6
CONTINUOUS
 10
1.197059
 20
-3.490697
  0
VERTEX
  8
PLAN_1
  6
CONTINUOUS
 10
1.192256
 20
-3.489823
  0
VERTEX
  8
PLAN_1
  6
CONTINUOUS
 10
1.187453
 20
-3.489386
  0
VERTEX
  8
PLAN_1
  6
CONTINUOUS
 10
1.183091
 20
-3.488075
  0
VERTEX
  8
PLAN_1
  6
CONTINUOUS
 10
1.179161
 20
-3.486768
  0
VERTEX
  8
PLAN_1
  6
CONTINUOUS
 10
1.175232
 20
-3.485020
  0
VERTEX
  8
PLAN_1
  6
CONTINUOUS
 10
1.171740
 20
-3.482839
  0
VERTEX
  8
PLAN_1
  6
CONTINUOUS
 10
1.168248
 20
-3.480654
  0
VERTEX
  8
PLAN_1
  6
CONTINUOUS
 10
1.164752
 20
-3.478472
  0
VERTEX
  8
PLAN_1
  6
CONTINUOUS
 10
1.161697
 20
-3.475417
  0
VERTEX
  8
PLAN_1
  6
CONTINUOUS
 10
1.159079
 20
-3.472799
  0
VERTEX
  8
PLAN_1
  6
CONTINUOUS
 10
1.156461
 20
-3.469740
  0
VERTEX
  8
PLAN_1
  6
CONTINUOUS
 10
1.153839
 20
-3.466248
  0
VERTEX
  8
PLAN_1
  6
CONTINUOUS
 10
1.151657
 20
-3.463193
  0
VERTEX
  8
PLAN_1
  6
CONTINUOUS
 10
1.149476
 20
-3.459701
  0
VERTEX
  8
PLAN_1
  6
CONTINUOUS
 10
1.147728
 20
-3.455772
  0
VERTEX
  8
PLAN_1
  6
CONTINUOUS
 10
1.144236
 20
-3.447913
  0
VERTEX
  8
PLAN_1
  6
CONTINUOUS
 10
1.141618
 20
-3.440055
  0
VERTEX
  8
PLAN_1
  6
CONTINUOUS
 10
1.139433
 20
-3.431764
  0
VERTEX
  8
PLAN_1
  6
CONTINUOUS
 10
1.137689
 20
-3.423031
  0
VERTEX
  8
PLAN_1
  6
CONTINUOUS
 10
1.136815
 20
-3.414736
  0
VERTEX
  8
PLAN_1
  6
CONTINUOUS
 10
1.135941
 20
-3.406441
  0
VERTEX
  8
PLAN_1
  6
CONTINUOUS
 10
1.135504
 20
-3.398150
  0
VERTEX
  8
PLAN_1
  6
CONTINUOUS
 10
1.135504
 20
-3.390291
  0
VERTEX
  8
PLAN_1
  6
CONTINUOUS
 10
1.135504
 20
-3.382870
  0
VERTEX
  8
PLAN_1
  6
CONTINUOUS
 10
1.135941
 20
-3.374575
  0
VERTEX
  8
PLAN_1
  6
CONTINUOUS
 10
1.136815
 20
-3.366280
  0
VERTEX
  8
PLAN_1
  6
CONTINUOUS
 10
1.137689
 20
-3.357551
  0
VERTEX
  8
PLAN_1
  6
CONTINUOUS
 10
1.139433
 20
-3.349256
  0
VERTEX
  8
PLAN_1
  6
CONTINUOUS
 10
1.141618
 20
-3.340961
  0
VERTEX
  8
PLAN_1
  6
CONTINUOUS
 10
1.144236
 20
-3.333102
  0
VERTEX
  8
PLAN_1
  6
CONTINUOUS
 10
1.147728
 20
-3.325244
  0
VERTEX
  8
PLAN_1
  6
CONTINUOUS
 10
1.149476
 20
-3.321315
  0
VERTEX
  8
PLAN_1
  6
CONTINUOUS
 10
1.151657
 20
-3.317823
  0
VERTEX
  8
PLAN_1
  6
CONTINUOUS
 10
1.153839
 20
-3.314768
  0
VERTEX
  8
PLAN_1
  6
CONTINUOUS
 10
1.156461
 20
-3.311276
  0
VERTEX
  8
PLAN_1
  6
CONTINUOUS
 10
1.159079
 20
-3.308220
  0
VERTEX
  8
PLAN_1
  6
CONTINUOUS
 10
1.161697
 20
-3.305165
  0
VERTEX
  8
PLAN_1
  6
CONTINUOUS
 10
1.164752
 20
-3.302547
  0
VERTEX
  8
PLAN_1
  6
CONTINUOUS
 10
1.168248
 20
-3.300362
  0
VERTEX
  8
PLAN_1
  6
CONTINUOUS
 10
1.171740
 20
-3.298181
  0
VERTEX
  8
PLAN_1
  6
CONTINUOUS
 10
1.175232
 20
-3.295996
  0
VERTEX
  8
PLAN_1
  6
CONTINUOUS
 10
1.179161
 20
-3.294252
  0
VERTEX
  8
PLAN_1
  6
CONTINUOUS
 10
1.183091
 20
-3.292941
  0
VERTEX
  8
PLAN_1
  6
CONTINUOUS
 10
1.187453
 20
-3.291634
  0
VERTEX
  8
PLAN_1
  6
CONTINUOUS
 10
1.192256
 20
-3.290760
  0
VERTEX
  8
PLAN_1
  6
CONTINUOUS
 10
1.197059
 20
-3.290323
  0
VERTEX
  8
PLAN_1
  6
CONTINUOUS
 10
1.202295
 20
-3.290323
  0
VERTEX
  8
PLAN_1
  6
CONTINUOUS
 10
1.207535
 20
-3.290323
  0
VERTEX
  8
PLAN_1
  6
CONTINUOUS
 10
1.212339
 20
-3.290760
  0
VERTEX
  8
PLAN_1
  6
CONTINUOUS
 10
1.216701
 20
-3.291634
  0
VERTEX
  8
PLAN_1
  6
CONTINUOUS
 10
1.221067
 20
-3.292941
  0
VERTEX
  8
PLAN_1
  6
CONTINUOUS
 10
1.225433
 20
-3.294252
  0
VERTEX
  8
PLAN_1
  6
CONTINUOUS
 10
1.229362
 20
-3.295996
  0
VERTEX
  8
PLAN_1
  6
CONTINUOUS
 10
1.232854
 20
-3.298181
  0
VERTEX
  8
PLAN_1
  6
CONTINUOUS
 10
1.236346
 20
-3.300362
  0
VERTEX
  8
PLAN_1
  6
CONTINUOUS
 10
1.239402
 20
-3.302547
  0
VERTEX
  8
PLAN_1
  6
CONTINUOUS
 10
1.242457
 20
-3.305165
  0
VERTEX
  8
PLAN_1
  6
CONTINUOUS
 10
1.245516
 20
-3.308220
  0
VERTEX
  8
PLAN_1
  6
CONTINUOUS
 10
1.248134
 20
-3.311276
  0
VERTEX
  8
PLAN_1
  6
CONTINUOUS
 10
1.250315
 20
-3.314768
  0
VERTEX
  8
PLAN_1
  6
CONTINUOUS
 10
1.252500
 20
-3.317823
  0
VERTEX
  8
PLAN_1
  6
CONTINUOUS
 10
1.254681
 20
-3.321315
  0
VERTEX
  8
PLAN_1
  6
CONTINUOUS
 10
1.256866
 20
-3.325244
  0
VERTEX
  8
PLAN_1
  6
CONTINUOUS
 10
1.259921
 20
-3.333102
  0
VERTEX
  8
PLAN_1
  6
CONTINUOUS
 10
1.262539
 20
-3.340961
  0
VERTEX
  8
PLAN_1
  6
CONTINUOUS
 10
1.264720
 20
-3.349256
  0
VERTEX
  8
PLAN_1
  6
CONTINUOUS
 10
1.266469
 20
-3.357551
  0
VERTEX
  8
PLAN_1
  6
CONTINUOUS
 10
1.267780
 20
-3.366280
  0
VERTEX
  8
PLAN_1
  6
CONTINUOUS
 10
1.268650
 20
-3.374575
  0
VERTEX
  8
PLAN_1
  6
CONTINUOUS
 10
1.269087
 20
-3.382870
  0
VERTEX
  8
PLAN_1
  6
CONTINUOUS
 10
1.269087
 20
-3.390291
  0
VERTEX
  8
PLAN_1
  6
CONTINUOUS
 10
1.269087
 20
-3.398150
  0
VERTEX
  8
PLAN_1
  6
CONTINUOUS
 10
1.268650
 20
-3.406441
  0
VERTEX
  8
PLAN_1
  6
CONTINUOUS
 10
1.267780
 20
-3.414736
  0
VERTEX
  8
PLAN_1
  6
CONTINUOUS
 10
1.266469
 20
-3.423031
  0
VERTEX
  8
PLAN_1
  6
CONTINUOUS
 10
1.264720
 20
-3.431764
  0
VERTEX
  8
PLAN_1
  6
CONTINUOUS
 10
1.262539
 20
-3.440055
  0
VERTEX
  8
PLAN_1
  6
CONTINUOUS
 10
1.259921
 20
-3.447913
  0
VERTEX
  8
PLAN_1
  6
CONTINUOUS
 10
1.256866
 20
-3.455772
  0
VERTEX
  8
PLAN_1
  6
CONTINUOUS
 10
1.254681
 20
-3.459701
  0
VERTEX
  8
PLAN_1
  6
CONTINUOUS
 10
1.252500
 20
-3.463193
  0
VERTEX
  8
PLAN_1
  6
CONTINUOUS
 10
1.250315
 20
-3.466248
  0
VERTEX
  8
PLAN_1
  6
CONTINUOUS
 10
1.248134
 20
-3.469740
  0
VERTEX
  8
PLAN_1
  6
CONTINUOUS
 10
1.245516
 20
-3.472799
  0
VERTEX
  8
PLAN_1
  6
CONTINUOUS
 10
1.242457
 20
-3.475417
  0
VERTEX
  8
PLAN_1
  6
CONTINUOUS
 10
1.239402
 20
-3.478472
  0
VERTEX
  8
PLAN_1
  6
CONTINUOUS
 10
1.236346
 20
-3.480654
  0
VERTEX
  8
PLAN_1
  6
CONTINUOUS
 10
1.232854
 20
-3.482839
  0
VERTEX
  8
PLAN_1
  6
CONTINUOUS
 10
1.229362
 20
-3.485020
  0
VERTEX
  8
PLAN_1
  6
CONTINUOUS
 10
1.225433
 20
-3.486768
  0
VERTEX
  8
PLAN_1
  6
CONTINUOUS
 10
1.221067
 20
-3.488075
  0
VERTEX
  8
PLAN_1
  6
CONTINUOUS
 10
1.216701
 20
-3.489386
  0
VERTEX
  8
PLAN_1
  6
CONTINUOUS
 10
1.212339
 20
-3.489823
  0
VERTEX
  8
PLAN_1
  6
CONTINUOUS
 10
1.207535
 20
-3.490697
  0
VERTEX
  8
PLAN_1
  6
CONTINUOUS
 10
1.202295
 20
-3.490697
  0
SEQEND
  8
0
  0
POLYLINE
  8
PLAN_1
  6
CONTINUOUS
 66
     1
 40
0.003000
 41
0.003000
  0
VERTEX
  8
PLAN_1
  6
CONTINUOUS
 10
1.202295
 20
-3.312150
  0
VERTEX
  8
PLAN_1
  6
CONTINUOUS
 10
1.197059
 20
-3.312587
  0
VERTEX
  8
PLAN_1
  6
CONTINUOUS
 10
1.192256
 20
-3.313461
  0
VERTEX
  8
PLAN_1
  6
CONTINUOUS
 10
1.187890
 20
-3.315205
  0
VERTEX
  8
PLAN_1
  6
CONTINUOUS
 10
1.183961
 20
-3.317390
  0
VERTEX
  8
PLAN_1
  6
CONTINUOUS
 10
1.180469
 20
-3.320445
  0
VERTEX
  8
PLAN_1
  6
CONTINUOUS
 10
1.176976
 20
-3.323937
  0
VERTEX
  8
PLAN_1
  6
CONTINUOUS
 10
1.173921
 20
-3.328303
  0
VERTEX
  8
PLAN_1
  6
CONTINUOUS
 10
1.171303
 20
-3.333102
  0
VERTEX
  8
PLAN_1
  6
CONTINUOUS
 10
1.169118
 20
-3.338343
  0
VERTEX
  8
PLAN_1
  6
CONTINUOUS
 10
1.166937
 20
-3.344453
  0
VERTEX
  8
PLAN_1
  6
CONTINUOUS
 10
1.165189
 20
-3.350567
  0
VERTEX
  8
PLAN_1
  6
CONTINUOUS
 10
1.163882
 20
-3.357551
  0
VERTEX
  8
PLAN_1
  6
CONTINUOUS
 10
1.162571
 20
-3.364972
  0
VERTEX
  8
PLAN_1
  6
CONTINUOUS
 10
1.162134
 20
-3.373264
  0
VERTEX
  8
PLAN_1
  6
CONTINUOUS
 10
1.161697
 20
-3.381559
  0
VERTEX
  8
PLAN_1
  6
CONTINUOUS
 10
1.161260
 20
-3.390291
  0
VERTEX
  8
PLAN_1
  6
CONTINUOUS
 10
1.161697
 20
-3.399457
  0
VERTEX
  8
PLAN_1
  6
CONTINUOUS
 10
1.162134
 20
-3.407752
  0
VERTEX
  8
PLAN_1
  6
CONTINUOUS
 10
1.162571
 20
-3.416047
  0
VERTEX
  8
PLAN_1
  6
CONTINUOUS
 10
1.163882
 20
-3.423469
  0
VERTEX
  8
PLAN_1
  6
CONTINUOUS
 10
1.165189
 20
-3.430453
  0
VERTEX
  8
PLAN_1
  6
CONTINUOUS
 10
1.166937
 20
-3.436563
  0
VERTEX
  8
PLAN_1
  6
CONTINUOUS
 10
1.169118
 20
-3.442677
  0
VERTEX
  8
PLAN_1
  6
CONTINUOUS
 10
1.171303
 20
-3.447913
  0
VERTEX
  8
PLAN_1
  6
CONTINUOUS
 10
1.173921
 20
-3.452717
  0
VERTEX
  8
PLAN_1
  6
CONTINUOUS
 10
1.176976
 20
-3.457083
  0
VERTEX
  8
PLAN_1
  6
CONTINUOUS
 10
1.180469
 20
-3.460575
  0
VERTEX
  8
PLAN_1
  6
CONTINUOUS
 10
1.183961
 20
-3.463193
  0
VERTEX
  8
PLAN_1
  6
CONTINUOUS
 10
1.187890
 20
-3.465811
  0
VERTEX
  8
PLAN_1
  6
CONTINUOUS
 10
1.192256
 20
-3.467559
  0
VERTEX
  8
PLAN_1
  6
CONTINUOUS
 10
1.197059
 20
-3.468433
  0
VERTEX
  8
PLAN_1
  6
CONTINUOUS
 10
1.202295
 20
-3.468870
  0
VERTEX
  8
PLAN_1
  6
CONTINUOUS
 10
1.207098
 20
-3.468433
  0
VERTEX
  8
PLAN_1
  6
CONTINUOUS
 10
1.211902
 20
-3.467559
  0
VERTEX
  8
PLAN_1
  6
CONTINUOUS
 10
1.216268
 20
-3.465811
  0
VERTEX
  8
PLAN_1
  6
CONTINUOUS
 10
1.220630
 20
-3.463193
  0
VERTEX
  8
PLAN_1
  6
CONTINUOUS
 10
1.224122
 20
-3.460575
  0
VERTEX
  8
PLAN_1
  6
CONTINUOUS
 10
1.227614
 20
-3.457083
  0
VERTEX
  8
PLAN_1
  6
CONTINUOUS
 10
1.230236
 20
-3.452717
  0
VERTEX
  8
PLAN_1
  6
CONTINUOUS
 10
1.233291
 20
-3.447913
  0
VERTEX
  8
PLAN_1
  6
CONTINUOUS
 10
1.235472
 20
-3.442677
  0
VERTEX
  8
PLAN_1
  6
CONTINUOUS
 10
1.237657
 20
-3.436563
  0
VERTEX
  8
PLAN_1
  6
CONTINUOUS
 10
1.239402
 20
-3.430453
  0
VERTEX
  8
PLAN_1
  6
CONTINUOUS
 10
1.240713
 20
-3.423469
  0
VERTEX
  8
PLAN_1
  6
CONTINUOUS
 10
1.241587
 20
-3.416047
  0
VERTEX
  8
PLAN_1
  6
CONTINUOUS
 10
1.242457
 20
-3.407752
  0
VERTEX
  8
PLAN_1
  6
CONTINUOUS
 10
1.242894
 20
-3.399457
  0
VERTEX
  8
PLAN_1
  6
CONTINUOUS
 10
1.242894
 20
-3.390291
  0
VERTEX
  8
PLAN_1
  6
CONTINUOUS
 10
1.242894
 20
-3.381559
  0
VERTEX
  8
PLAN_1
  6
CONTINUOUS
 10
1.242457
 20
-3.373264
  0
VERTEX
  8
PLAN_1
  6
CONTINUOUS
 10
1.241587
 20
-3.364972
  0
VERTEX
  8
PLAN_1
  6
CONTINUOUS
 10
1.240713
 20
-3.357551
  0
VERTEX
  8
PLAN_1
  6
CONTINUOUS
 10
1.239402
 20
-3.350567
  0
VERTEX
  8
PLAN_1
  6
CONTINUOUS
 10
1.237657
 20
-3.344453
  0
VERTEX
  8
PLAN_1
  6
CONTINUOUS
 10
1.235472
 20
-3.338343
  0
VERTEX
  8
PLAN_1
  6
CONTINUOUS
 10
1.233291
 20
-3.333102
  0
VERTEX
  8
PLAN_1
  6
CONTINUOUS
 10
1.230236
 20
-3.328303
  0
VERTEX
  8
PLAN_1
  6
CONTINUOUS
 10
1.227614
 20
-3.323937
  0
VERTEX
  8
PLAN_1
  6
CONTINUOUS
 10
1.224122
 20
-3.320445
  0
VERTEX
  8
PLAN_1
  6
CONTINUOUS
 10
1.220630
 20
-3.317390
  0
VERTEX
  8
PLAN_1
  6
CONTINUOUS
 10
1.216268
 20
-3.315205
  0
VERTEX
  8
PLAN_1
  6
CONTINUOUS
 10
1.211902
 20
-3.313461
  0
VERTEX
  8
PLAN_1
  6
CONTINUOUS
 10
1.207098
 20
-3.312587
  0
VERTEX
  8
PLAN_1
  6
CONTINUOUS
 10
1.202295
 20
-3.312150
  0
SEQEND
  8
0
  0
POLYLINE
  8
PLAN_1
  6
CONTINUOUS
 66
     1
 40
0.003000
 41
0.003000
  0
VERTEX
  8
PLAN_1
  6
CONTINUOUS
 10
1.291787
 20
-3.360169
  0
VERTEX
  8
PLAN_1
  6
CONTINUOUS
 10
1.291787
 20
-3.354496
  0
VERTEX
  8
PLAN_1
  6
CONTINUOUS
 10
1.292224
 20
-3.348819
  0
VERTEX
  8
PLAN_1
  6
CONTINUOUS
 10
1.292661
 20
-3.344016
  0
VERTEX
  8
PLAN_1
  6
CONTINUOUS
 10
1.293535
 20
-3.338780
  0
VERTEX
  8
PLAN_1
  6
CONTINUOUS
 10
1.294843
 20
-3.334413
  0
VERTEX
  8
PLAN_1
  6
CONTINUOUS
 10
1.296154
 20
-3.330047
  0
VERTEX
  8
PLAN_1
  6
CONTINUOUS
 10
1.297465
 20
-3.326118
  0
VERTEX
  8
PLAN_1
  6
CONTINUOUS
 10
1.299209
 20
-3.322626
  0
VERTEX
  8
PLAN_1
  6
CONTINUOUS
 10
1.300957
 20
-3.319134
  0
VERTEX
  8
PLAN_1
  6
CONTINUOUS
 10
1.303138
 20
-3.315642
  0
VERTEX
  8
PLAN_1
  6
CONTINUOUS
 10
1.305319
 20
-3.313024
  0
VERTEX
  8
PLAN_1
  6
CONTINUOUS
 10
1.307504
 20
-3.309969
  0
VERTEX
  8
PLAN_1
  6
CONTINUOUS
 10
1.312307
 20
-3.305602
  0
VERTEX
  8
PLAN_1
  6
CONTINUOUS
 10
1.317543
 20
-3.301236
  0
VERTEX
  8
PLAN_1
  6
CONTINUOUS
 10
1.322783
 20
-3.298181
  0
VERTEX
  8
PLAN_1
  6
CONTINUOUS
 10
1.328457
 20
-3.295559
  0
VERTEX
  8
PLAN_1
  6
CONTINUOUS
 10
1.334134
 20
-3.293815
  0
VERTEX
  8
PLAN_1
  6
CONTINUOUS
 10
1.339807
 20
-3.292067
  0
VERTEX
  8
PLAN_1
  6
CONTINUOUS
 10
1.345047
 20
-3.291197
  0
VERTEX
  8
PLAN_1
  6
CONTINUOUS
 10
1.350283
 20
-3.290760
  0
VERTEX
  8
PLAN_1
  6
CONTINUOUS
 10
1.354650
 20
-3.290323
  0
VERTEX
  8
PLAN_1
  6
CONTINUOUS
 10
1.359016
 20
-3.290323
  0
VERTEX
  8
PLAN_1
  6
CONTINUOUS
 10
1.365563
 20
-3.290323
  0
VERTEX
  8
PLAN_1
  6
CONTINUOUS
 10
1.371240
 20
-3.291197
  0
VERTEX
  8
PLAN_1
  6
CONTINUOUS
 10
1.377350
 20
-3.292504
  0
VERTEX
  8
PLAN_1
  6
CONTINUOUS
 10
1.383024
 20
-3.294252
  0
VERTEX
  8
PLAN_1
  6
CONTINUOUS
 10
1.388264
 20
-3.296433
  0
VERTEX
  8
PLAN_1
  6
CONTINUOUS
 10
1.393504
 20
-3.299055
  0
VERTEX
  8
PLAN_1
  6
CONTINUOUS
 10
1.397866
 20
-3.302110
  0
VERTEX
  8
PLAN_1
  6
CONTINUOUS
 10
1.402232
 20
-3.305602
  0
VERTEX
  8
PLAN_1
  6
CONTINUOUS
 10
1.406161
 20
-3.309969
  0
VERTEX
  8
PLAN_1
  6
CONTINUOUS
 10
1.409654
 20
-3.314331
  0
VERTEX
  8
PLAN_1
  6
CONTINUOUS
 10
1.412709
 20
-3.319134
  0
VERTEX
  8
PLAN_1
  6
CONTINUOUS
 10
1.415331
 20
-3.323937
  0
VERTEX
  8
PLAN_1
  6
CONTINUOUS
 10
1.417512
 20
-3.329610
  0
VERTEX
  8
PLAN_1
  6
CONTINUOUS
 10
1.418823
 20
-3.335724
  0
VERTEX
  8
PLAN_1
  6
CONTINUOUS
 10
1.419697
 20
-3.341835
  0
VERTEX
  8
PLAN_1
  6
CONTINUOUS
 10
1.420130
 20
-3.348382
  0
VERTEX
  8
PLAN_1
  6
CONTINUOUS
 10
1.419697
 20
-3.354929
  0
VERTEX
  8
PLAN_1
  6
CONTINUOUS
 10
1.419260
 20
-3.360606
  0
VERTEX
  8
PLAN_1
  6
CONTINUOUS
 10
1.417949
 20
-3.366280
  0
VERTEX
  8
PLAN_1
  6
CONTINUOUS
 10
1.416205
 20
-3.371520
  0
VERTEX
  8
PLAN_1
  6
CONTINUOUS
 10
1.414020
 20
-3.375886
  0
VERTEX
  8
PLAN_1
  6
CONTINUOUS
 10
1.411402
 20
-3.380685
  0
VERTEX
  8
PLAN_1
  6
CONTINUOUS
 10
1.408346
 20
-3.384614
  0
VERTEX
  8
PLAN_1
  6
CONTINUOUS
 10
1.404854
 20
-3.388543
  0
VERTEX
  8
PLAN_1
  6
CONTINUOUS
 10
1.401362
 20
-3.392035
  0
VERTEX
  8
PLAN_1
  6
CONTINUOUS
 10
1.397433
 20
-3.395528
  0
VERTEX
  8
PLAN_1
  6
CONTINUOUS
 10
1.393067
 20
-3.399020
  0
VERTEX
  8
PLAN_1
  6
CONTINUOUS
 10
1.388264
 20
-3.402079
  0
VERTEX
  8
PLAN_1
  6
CONTINUOUS
 10
1.378661
 20
-3.408189
  0
VERTEX
  8
PLAN_1
  6
CONTINUOUS
 10
1.368185
 20
-3.413862
  0
VERTEX
  8
PLAN_1
  6
CONTINUOUS
 10
1.347665
 20
-3.424780
  0
VERTEX
  8
PLAN_1
  6
CONTINUOUS
 10
1.342862
 20
-3.427835
  0
VERTEX
  8
PLAN_1
  6
CONTINUOUS
 10
1.338500
 20
-3.430453
  0
VERTEX
  8
PLAN_1
  6
CONTINUOUS
 10
1.335004
 20
-3.433071
  0
VERTEX
  8
PLAN_1
  6
CONTINUOUS
 10
1.331512
 20
-3.436126
  0
VERTEX
  8
PLAN_1
  6
CONTINUOUS
 10
1.325839
 20
-3.441366
  0
VERTEX
  8
PLAN_1
  6
CONTINUOUS
 10
1.321472
 20
-3.446169
  0
VERTEX
  8
PLAN_1
  6
CONTINUOUS
 10
1.318417
 20
-3.450969
  0
VERTEX
  8
PLAN_1
  6
CONTINUOUS
 10
1.316236
 20
-3.455335
  0
VERTEX
  8
PLAN_1
  6
CONTINUOUS
 10
1.314925
 20
-3.459264
  0
VERTEX
  8
PLAN_1
  6
CONTINUOUS
 10
1.314051
 20
-3.462319
  0
VERTEX
  8
PLAN_1
  6
CONTINUOUS
 10
1.420130
 20
-3.462319
  0
VERTEX
  8
PLAN_1
  6
CONTINUOUS
 10
1.420130
 20
-3.485457
  0
VERTEX
  8
PLAN_1
  6
CONTINUOUS
 10
1.286551
 20
-3.485457
  0
VERTEX
  8
PLAN_1
  6
CONTINUOUS
 10
1.286984
 20
-3.478035
  0
VERTEX
  8
PLAN_1
  6
CONTINUOUS
 10
1.287858
 20
-3.471051
  0
VERTEX
  8
PLAN_1
  6
CONTINUOUS
 10
1.289169
 20
-3.464504
  0
VERTEX
  8
PLAN_1
  6
CONTINUOUS
 10
1.290913
 20
-3.458390
  0
VERTEX
  8
PLAN_1
  6
CONTINUOUS
 10
1.292661
 20
-3.452717
  0
VERTEX
  8
PLAN_1
  6
CONTINUOUS
 10
1.294843
 20
-3.447043
  0
VERTEX
  8
PLAN_1
  6
CONTINUOUS
 10
1.297465
 20
-3.442240
  0
VERTEX
  8
PLAN_1
  6
CONTINUOUS
 10
1.300083
 20
-3.437437
  0
VERTEX
  8
PLAN_1
  6
CONTINUOUS
 10
1.303575
 20
-3.432634
  0
VERTEX
  8
PLAN_1
  6
CONTINUOUS
 10
1.307067
 20
-3.428705
  0
VERTEX
  8
PLAN_1
  6
CONTINUOUS
 10
1.310559
 20
-3.424343
  0
VERTEX
  8
PLAN_1
  6
CONTINUOUS
 10
1.314488
 20
-3.420850
  0
VERTEX
  8
PLAN_1
  6
CONTINUOUS
 10
1.318854
 20
-3.417358
  0
VERTEX
  8
PLAN_1
  6
CONTINUOUS
 10
1.323220
 20
-3.413862
  0
VERTEX
  8
PLAN_1
  6
CONTINUOUS
 10
1.327583
 20
-3.410807
  0
VERTEX
  8
PLAN_1
  6
CONTINUOUS
 10
1.332386
 20
-3.408189
  0
VERTEX
  8
PLAN_1
  6
CONTINUOUS
 10
1.358142
 20
-3.392909
  0
VERTEX
  8
PLAN_1
  6
CONTINUOUS
 10
1.366000
 20
-3.388543
  0
VERTEX
  8
PLAN_1
  6
CONTINUOUS
 10
1.372547
 20
-3.384614
  0
VERTEX
  8
PLAN_1
  6
CONTINUOUS
 10
1.378661
 20
-3.380252
  0
VERTEX
  8
PLAN_1
  6
CONTINUOUS
 10
1.383898
 20
-3.375449
  0
VERTEX
  8
PLAN_1
  6
CONTINUOUS
 10
1.386083
 20
-3.372831
  0
VERTEX
  8
PLAN_1
  6
CONTINUOUS
 10
1.388264
 20
-3.369772
  0
VERTEX
  8
PLAN_1
  6
CONTINUOUS
 10
1.390012
 20
-3.367154
  0
VERTEX
  8
PLAN_1
  6
CONTINUOUS
 10
1.391319
 20
-3.363661
  0
VERTEX
  8
PLAN_1
  6
CONTINUOUS
 10
1.392630
 20
-3.360169
  0
VERTEX
  8
PLAN_1
  6
CONTINUOUS
 10
1.393504
 20
-3.356240
  0
VERTEX
  8
PLAN_1
  6
CONTINUOUS
 10
1.393941
 20
-3.351874
  0
VERTEX
  8
PLAN_1
  6
CONTINUOUS
 10
1.393941
 20
-3.347508
  0
VERTEX
  8
PLAN_1
  6
CONTINUOUS
 10
1.393941
 20
-3.344453
  0
VERTEX
  8
PLAN_1
  6
CONTINUOUS
 10
1.393504
 20
-3.341398
  0
VERTEX
  8
PLAN_1
  6
CONTINUOUS
 10
1.393067
 20
-3.338343
  0
VERTEX
  8
PLAN_1
  6
CONTINUOUS
 10
1.392193
 20
-3.335287
  0
VERTEX
  8
PLAN_1
  6
CONTINUOUS
 10
1.390882
 20
-3.332232
  0
VERTEX
  8
PLAN_1
  6
CONTINUOUS
 10
1.389575
 20
-3.329610
  0
VERTEX
  8
PLAN_1
  6
CONTINUOUS
 10
1.387827
 20
-3.326555
  0
VERTEX
  8
PLAN_1
  6
CONTINUOUS
 10
1.385646
 20
-3.323937
  0
VERTEX
  8
PLAN_1
  6
CONTINUOUS
 10
1.383024
 20
-3.321315
  0
VERTEX
  8
PLAN_1
  6
CONTINUOUS
 10
1.380406
 20
-3.319134
  0
VERTEX
  8
PLAN_1
  6
CONTINUOUS
 10
1.376913
 20
-3.317390
  0
VERTEX
  8
PLAN_1
  6
CONTINUOUS
 10
1.373421
 20
-3.315642
  0
VERTEX
  8
PLAN_1
  6
CONTINUOUS
 10
1.369492
 20
-3.314331
  0
VERTEX
  8
PLAN_1
  6
CONTINUOUS
 10
1.365563
 20
-3.313024
  0
VERTEX
  8
PLAN_1
  6
CONTINUOUS
 10
1.360764
 20
-3.312587
  0
VERTEX
  8
PLAN_1
  6
CONTINUOUS
 10
1.355524
 20
-3.312150
  0
VERTEX
  8
PLAN_1
  6
CONTINUOUS
 10
1.348976
 20
-3.312587
  0
VERTEX
  8
PLAN_1
  6
CONTINUOUS
 10
1.343299
 20
-3.313898
  0
VERTEX
  8
PLAN_1
  6
CONTINUOUS
 10
1.338063
 20
-3.315642
  0
VERTEX
  8
PLAN_1
  6
CONTINUOUS
 10
1.333697
 20
-3.317823
  0
VERTEX
  8
PLAN_1
  6
CONTINUOUS
 10
1.330205
 20
-3.320445
  0
VERTEX
  8
PLAN_1
  6
CONTINUOUS
 10
1.327150
 20
-3.323937
  0
VERTEX
  8
PLAN_1
  6
CONTINUOUS
 10
1.324528
 20
-3.327429
  0
VERTEX
  8
PLAN_1
  6
CONTINUOUS
 10
1.322346
 20
-3.330921
  0
VERTEX
  8
PLAN_1
  6
CONTINUOUS
 10
1.320598
 20
-3.334850
  0
VERTEX
  8
PLAN_1
  6
CONTINUOUS
 10
1.319291
 20
-3.339217
  0
VERTEX
  8
PLAN_1
  6
CONTINUOUS
 10
1.317980
 20
-3.343146
  0
VERTEX
  8
PLAN_1
  6
CONTINUOUS
 10
1.317543
 20
-3.347075
  0
VERTEX
  8
PLAN_1
  6
CONTINUOUS
 10
1.316669
 20
-3.354059
  0
VERTEX
  8
PLAN_1
  6
CONTINUOUS
 10
1.316236
 20
-3.360169
  0
VERTEX
  8
PLAN_1
  6
CONTINUOUS
 10
1.291787
 20
-3.360169
  0
SEQEND
  8
0
  0
POLYLINE
  8
PLAN_1
  6
CONTINUOUS
 66
     1
 40
0.003000
 41
0.003000
  0
VERTEX
  8
PLAN_1
  6
CONTINUOUS
 10
1.445453
 20
-3.357114
  0
VERTEX
  8
PLAN_1
  6
CONTINUOUS
 10
1.445890
 20
-3.350567
  0
VERTEX
  8
PLAN_1
  6
CONTINUOUS
 10
1.446323
 20
-3.344016
  0
VERTEX
  8
PLAN_1
  6
CONTINUOUS
 10
1.447634
 20
-3.337906
  0
VERTEX
  8
PLAN_1
  6
CONTINUOUS
 10
1.449382
 20
-3.331795
  0
VERTEX
  8
PLAN_1
  6
CONTINUOUS
 10
1.451563
 20
-3.326118
  0
VERTEX
  8
PLAN_1
  6
CONTINUOUS
 10
1.454618
 20
-3.320445
  0
VERTEX
  8
PLAN_1
  6
CONTINUOUS
 10
1.457673
 20
-3.315205
  0
VERTEX
  8
PLAN_1
  6
CONTINUOUS
 10
1.461602
 20
-3.310402
  0
VERTEX
  8
PLAN_1
  6
CONTINUOUS
 10
1.465531
 20
-3.306039
  0
VERTEX
  8
PLAN_1
  6
CONTINUOUS
 10
1.470335
 20
-3.302110
  0
VERTEX
  8
PLAN_1
  6
CONTINUOUS
 10
1.475571
 20
-3.298618
  0
VERTEX
  8
PLAN_1
  6
CONTINUOUS
 10
1.481248
 20
-3.295559
  0
VERTEX
  8
PLAN_1
  6
CONTINUOUS
 10
1.487358
 20
-3.293378
  0
VERTEX
  8
PLAN_1
  6
CONTINUOUS
 10
1.493909
 20
-3.291634
  0
VERTEX
  8
PLAN_1
  6
CONTINUOUS
 10
1.500894
 20
-3.290760
  0
VERTEX
  8
PLAN_1
  6
CONTINUOUS
 10
1.508315
 20
-3.290323
  0
VERTEX
  8
PLAN_1
  6
CONTINUOUS
 10
1.513988
 20
-3.290323
  0
VERTEX
  8
PLAN_1
  6
CONTINUOUS
 10
1.519228
 20
-3.290760
  0
VERTEX
  8
PLAN_1
  6
CONTINUOUS
 10
1.524465
 20
-3.291634
  0
VERTEX
  8
PLAN_1
  6
CONTINUOUS
 10
1.528831
 20
-3.292941
  0
VERTEX
  8
PLAN_1
  6
CONTINUOUS
 10
1.533634
 20
-3.294252
  0
VERTEX
  8
PLAN_1
  6
CONTINUOUS
 10
1.537563
 20
-3.295996
  0
VERTEX
  8
PLAN_1
  6
CONTINUOUS
 10
1.541492
 20
-3.297744
  0
VERTEX
  8
PLAN_1
  6
CONTINUOUS
 10
1.544984
 20
-3.299925
  0
VERTEX
  8
PLAN_1
  6
CONTINUOUS
 10
1.548476
 20
-3.302547
  0
VERTEX
  8
PLAN_1
  6
CONTINUOUS
 10
1.551531
 20
-3.304728
  0
VERTEX
  8
PLAN_1
  6
CONTINUOUS
 10
1.554587
 20
-3.307783
  0
VERTEX
  8
PLAN_1
  6
CONTINUOUS
 10
1.557205
 20
-3.310402
  0
VERTEX
  8
PLAN_1
  6
CONTINUOUS
 10
1.559390
 20
-3.313461
  0
VERTEX
  8
PLAN_1
  6
CONTINUOUS
 10
1.562008
 20
-3.316953
  0
VERTEX
  8
PLAN_1
  6
CONTINUOUS
 10
1.563756
 20
-3.320008
  0
VERTEX
  8
PLAN_1
  6
CONTINUOUS
 10
1.565500
 20
-3.323500
  0
VERTEX
  8
PLAN_1
  6
CONTINUOUS
 10
1.568992
 20
-3.330921
  0
VERTEX
  8
PLAN_1
  6
CONTINUOUS
 10
1.571177
 20
-3.338343
  0
VERTEX
  8
PLAN_1
  6
CONTINUOUS
 10
1.573358
 20
-3.345764
  0
VERTEX
  8
PLAN_1
  6
CONTINUOUS
 10
1.574669
 20
-3.353185
  0
VERTEX
  8
PLAN_1
  6
CONTINUOUS
 10
1.575539
 20
-3.360606
  0
VERTEX
  8
PLAN_1
  6
CONTINUOUS
 10
1.575976
 20
-3.367591
  0
VERTEX
  8
PLAN_1
  6
CONTINUOUS
 10
1.576413
 20
-3.374575
  0
VERTEX
  8
PLAN_1
  6
CONTINUOUS
 10
1.576413
 20
-3.380685
  0
VERTEX
  8
PLAN_1
  6
CONTINUOUS
 10
1.576413
 20
-3.391602
  0
VERTEX
  8
PLAN_1
  6
CONTINUOUS
 10
1.575106
 20
-3.406878
  0
VERTEX
  8
PLAN_1
  6
CONTINUOUS
 10
1.573795
 20
-3.415610
  0
VERTEX
  8
PLAN_1
  6
CONTINUOUS
 10
1.571614
 20
-3.424780
  0
VERTEX
  8
PLAN_1
  6
CONTINUOUS
 10
1.569429
 20
-3.433945
  0
VERTEX
  8
PLAN_1
  6
CONTINUOUS
 10
1.566374
 20
-3.443547
  0
VERTEX
  8
PLAN_1
  6
CONTINUOUS
 10
1.564626
 20
-3.448350
  0
VERTEX
  8
PLAN_1
  6
CONTINUOUS
 10
1.562445
 20
-3.452717
  0
VERTEX
  8
PLAN_1
  6
CONTINUOUS
 10
1.560264
 20
-3.457083
  0
VERTEX
  8
PLAN_1
  6
CONTINUOUS
 10
1.557642
 20
-3.461449
  0
VERTEX
  8
PLAN_1
  6
CONTINUOUS
 10
1.555024
 20
-3.465378
  0
VERTEX
  8
PLAN_1
  6
CONTINUOUS
 10
1.551969
 20
-3.469307
  0
VERTEX
  8
PLAN_1
  6
CONTINUOUS
 10
1.548476
 20
-3.473232
  0
VERTEX
  8
PLAN_1
  6
CONTINUOUS
 10
1.544984
 20
-3.476291
  0
VERTEX
  8
PLAN_1
  6
CONTINUOUS
 10
1.541492
 20
-3.479346
  0
VERTEX
  8
PLAN_1
  6
CONTINUOUS
 10
1.537126
 20
-3.482402
  0
VERTEX
  8
PLAN_1
  6
CONTINUOUS
 10
1.532760
 20
-3.484583
  0
VERTEX
  8
PLAN_1
  6
CONTINUOUS
 10
1.527957
 20
-3.486768
  0
VERTEX
  8
PLAN_1
  6
CONTINUOUS
 10
1.523157
 20
-3.488512
  0
VERTEX
  8
PLAN_1
  6
CONTINUOUS
 10
1.517480
 20
-3.489823
  0
VERTEX
  8
PLAN_1
  6
CONTINUOUS
 10
1.511807
 20
-3.490260
  0
VERTEX
  8
PLAN_1
  6
CONTINUOUS
 10
1.505693
 20
-3.490697
  0
VERTEX
  8
PLAN_1
  6
CONTINUOUS
 10
1.497402
 20
-3.490260
  0
VERTEX
  8
PLAN_1
  6
CONTINUOUS
 10
1.489980
 20
-3.489386
  0
VERTEX
  8
PLAN_1
  6
CONTINUOUS
 10
1.483429
 20
-3.487642
  0
VERTEX
  8
PLAN_1
  6
CONTINUOUS
 10
1.477319
 20
-3.485020
  0
VERTEX
  8
PLAN_1
  6
CONTINUOUS
 10
1.472079
 20
-3.482402
  0
VERTEX
  8
PLAN_1
  6
CONTINUOUS
 10
1.467280
 20
-3.479346
  0
VERTEX
  8
PLAN_1
  6
CONTINUOUS
 10
1.462913
 20
-3.475417
  0
VERTEX
  8
PLAN_1
  6
CONTINUOUS
 10
1.459421
 20
-3.471488
  0
VERTEX
  8
PLAN_1
  6
CONTINUOUS
 10
1.456366
 20
-3.467559
  0
VERTEX
  8
PLAN_1
  6
CONTINUOUS
 10
1.454181
 20
-3.463193
  0
VERTEX
  8
PLAN_1
  6
CONTINUOUS
 10
1.452000
 20
-3.458827
  0
VERTEX
  8
PLAN_1
  6
CONTINUOUS
 10
1.450252
 20
-3.454465
  0
VERTEX
  8
PLAN_1
  6
CONTINUOUS
 10
1.448945
 20
-3.450535
  0
VERTEX
  8
PLAN_1
  6
CONTINUOUS
 10
1.448508
 20
-3.446169
  0
VERTEX
  8
PLAN_1
  6
CONTINUOUS
 10
1.448071
 20
-3.442240
  0
VERTEX
  8
PLAN_1
  6
CONTINUOUS
 10
1.447634
 20
-3.438311
  0
VERTEX
  8
PLAN_1
  6
CONTINUOUS
 10
1.472079
 20
-3.438311
  0
VERTEX
  8
PLAN_1
  6
CONTINUOUS
 10
1.472516
 20
-3.442240
  0
VERTEX
  8
PLAN_1
  6
CONTINUOUS
 10
1.472953
 20
-3.445732
  0
VERTEX
  8
PLAN_1
  6
CONTINUOUS
 10
1.473827
 20
-3.448787
  0
VERTEX
  8
PLAN_1
  6
CONTINUOUS
 10
1.475138
 20
-3.451843
  0
VERTEX
  8
PLAN_1
  6
CONTINUOUS
 10
1.476445
 20
-3.454465
  0
VERTEX
  8
PLAN_1
  6
CONTINUOUS
 10
1.477756
 20
-3.457083
  0
VERTEX
  8
PLAN_1
  6
CONTINUOUS
 10
1.479500
 20
-3.459701
  0
VERTEX
  8
PLAN_1
  6
CONTINUOUS
 10
1.481685
 20
-3.461886
  0
VERTEX
  8
PLAN_1
  6
CONTINUOUS
 10
1.483866
 20
-3.463630
  0
VERTEX
  8
PLAN_1
  6
CONTINUOUS
 10
1.486488
 20
-3.465378
  0
VERTEX
  8
PLAN_1
  6
CONTINUOUS
 10
1.489106
 20
-3.467122
  0
VERTEX
  8
PLAN_1
  6
CONTINUOUS
 10
1.491724
 20
-3.468433
  0
VERTEX
  8
PLAN_1
  6
CONTINUOUS
 10
1.494780
 20
-3.469307
  0
VERTEX
  8
PLAN_1
  6
CONTINUOUS
 10
1.498272
 20
-3.469740
  0
VERTEX
  8
PLAN_1
  6
CONTINUOUS
 10
1.501331
 20
-3.470177
  0
VERTEX
  8
PLAN_1
  6
CONTINUOUS
 10
1.505256
 20
-3.470614
  0
VERTEX
  8
PLAN_1
  6
CONTINUOUS
 10
1.510059
 20
-3.470177
  0
VERTEX
  8
PLAN_1
  6
CONTINUOUS
 10
1.514425
 20
-3.469307
  0
VERTEX
  8
PLAN_1
  6
CONTINUOUS
 10
1.518791
 20
-3.467996
  0
VERTEX
  8
PLAN_1
  6
CONTINUOUS
 10
1.522720
 20
-3.466248
  0
VERTEX
  8
PLAN_1
  6
CONTINUOUS
 10
1.526650
 20
-3.463630
  0
VERTEX
  8
PLAN_1
  6
CONTINUOUS
 10
1.530142
 20
-3.460575
  0
VERTEX
  8
PLAN_1
  6
CONTINUOUS
 10
1.533197
 20
-3.457083
  0
VERTEX
  8
PLAN_1
  6
CONTINUOUS
 10
1.536252
 20
-3.452717
  0
VERTEX
  8
PLAN_1
  6
CONTINUOUS
 10
1.538870
 20
-3.447913
  0
VERTEX
  8
PLAN_1
  6
CONTINUOUS
 10
1.541492
 20
-3.442677
  0
VERTEX
  8
PLAN_1
  6
CONTINUOUS
 10
1.543673
 20
-3.436563
  0
VERTEX
  8
PLAN_1
  6
CONTINUOUS
 10
1.545854
 20
-3.430016
  0
VERTEX
  8
PLAN_1
  6
CONTINUOUS
 10
1.547602
 20
-3.423031
  0
VERTEX
  8
PLAN_1
  6
CONTINUOUS
 10
1.549350
 20
-3.415173
  0
VERTEX
  8
PLAN_1
  6
CONTINUOUS
 10
1.550657
 20
-3.406441
  0
VERTEX
  8
PLAN_1
  6
CONTINUOUS
 10
1.551969
 20
-3.397276
  0
VERTEX
  8
PLAN_1
  6
CONTINUOUS
 10
1.551531
 20
-3.396839
  0
VERTEX
  8
PLAN_1
  6
CONTINUOUS
 10
1.550220
 20
-3.399457
  0
VERTEX
  8
PLAN_1
  6
CONTINUOUS
 10
1.548476
 20
-3.402079
  0
VERTEX
  8
PLAN_1
  6
CONTINUOUS
 10
1.546291
 20
-3.404697
  0
VERTEX
  8
PLAN_1
  6
CONTINUOUS
 10
1.544110
 20
-3.406878
  0
VERTEX
  8
PLAN_1
  6
CONTINUOUS
 10
1.541492
 20
-3.409063
  0
VERTEX
  8
PLAN_1
  6
CONTINUOUS
 10
1.538870
 20
-3.410807
  0
VERTEX
  8
PLAN_1
  6
CONTINUOUS
 10
1.536252
 20
-3.412555
  0
VERTEX
  8
PLAN_1
  6
CONTINUOUS
 10
1.533197
 20
-3.414299
  0
VERTEX
  8
PLAN_1
  6
CONTINUOUS
 10
1.527087
 20
-3.416921
  0
VERTEX
  8
PLAN_1
  6
CONTINUOUS
 10
1.520535
 20
-3.418665
  0
VERTEX
  8
PLAN_1
  6
CONTINUOUS
 10
1.513551
 20
-3.419976
  0
VERTEX
  8
PLAN_1
  6
CONTINUOUS
 10
1.507004
 20
-3.419976
  0
VERTEX
  8
PLAN_1
  6
CONTINUOUS
 10
1.500020
 20
-3.419976
  0
VERTEX
  8
PLAN_1
  6
CONTINUOUS
 10
1.493909
 20
-3.419102
  0
VERTEX
  8
PLAN_1
  6
CONTINUOUS
 10
1.487795
 20
-3.417791
  0
VERTEX
  8
PLAN_1
  6
CONTINUOUS
 10
1.482122
 20
-3.415610
  0
VERTEX
  8
PLAN_1
  6
CONTINUOUS
 10
1.476445
 20
-3.413429
  0
VERTEX
  8
PLAN_1
  6
CONTINUOUS
 10
1.471646
 20
-3.410370
  0
VERTEX
  8
PLAN_1
  6
CONTINUOUS
 10
1.466843
 20
-3.407315
  0
VERTEX
  8
PLAN_1
  6
CONTINUOUS
 10
1.462476
 20
-3.403386
  0
VERTEX
  8
PLAN_1
  6
CONTINUOUS
 10
1.458984
 20
-3.399020
  0
VERTEX
  8
PLAN_1
  6
CONTINUOUS
 10
1.455492
 20
-3.394220
  0
VERTEX
  8
PLAN_1
  6
CONTINUOUS
 10
1.452437
 20
-3.388980
  0
VERTEX
  8
PLAN_1
  6
CONTINUOUS
 10
1.449815
 20
-3.383307
  0
VERTEX
  8
PLAN_1
  6
CONTINUOUS
 10
1.448071
 20
-3.377630
  0
VERTEX
  8
PLAN_1
  6
CONTINUOUS
 10
1.446760
 20
-3.371083
  0
VERTEX
  8
PLAN_1
  6
CONTINUOUS
 10
1.445890
 20
-3.364098
  0
VERTEX
  8
PLAN_1
  6
CONTINUOUS
 10
1.445453
 20
-3.357114
  0
SEQEND
  8
0
  0
POLYLINE
  8
PLAN_1
  6
CONTINUOUS
 66
     1
 40
0.003000
 41
0.003000
  0
VERTEX
  8
PLAN_1
  6
CONTINUOUS
 10
1.548039
 20
-3.354059
  0
VERTEX
  8
PLAN_1
  6
CONTINUOUS
 10
1.547602
 20
-3.349693
  0
VERTEX
  8
PLAN_1
  6
CONTINUOUS
 10
1.547165
 20
-3.345764
  0
VERTEX
  8
PLAN_1
  6
CONTINUOUS
 10
1.546728
 20
-3.341835
  0
VERTEX
  8
PLAN_1
  6
CONTINUOUS
 10
1.545854
 20
-3.337906
  0
VERTEX
  8
PLAN_1
  6
CONTINUOUS
 10
1.544547
 20
-3.334413
  0
VERTEX
  8
PLAN_1
  6
CONTINUOUS
 10
1.542799
 20
-3.330921
  0
VERTEX
  8
PLAN_1
  6
CONTINUOUS
 10
1.541055
 20
-3.327866
  0
VERTEX
  8
PLAN_1
  6
CONTINUOUS
 10
1.538870
 20
-3.324811
  0
VERTEX
  8
PLAN_1
  6
CONTINUOUS
 10
1.536252
 20
-3.322189
  0
VERTEX
  8
PLAN_1
  6
CONTINUOUS
 10
1.533197
 20
-3.319571
  0
VERTEX
  8
PLAN_1
  6
CONTINUOUS
 10
1.530142
 20
-3.317390
  0
VERTEX
  8
PLAN_1
  6
CONTINUOUS
 10
1.526650
 20
-3.315642
  0
VERTEX
  8
PLAN_1
  6
CONTINUOUS
 10
1.522720
 20
-3.314331
  0
VERTEX
  8
PLAN_1
  6
CONTINUOUS
 10
1.518354
 20
-3.313024
  0
VERTEX
  8
PLAN_1
  6
CONTINUOUS
 10
1.513551
 20
-3.312587
  0
VERTEX
  8
PLAN_1
  6
CONTINUOUS
 10
1.508315
 20
-3.312150
  0
VERTEX
  8
PLAN_1
  6
CONTINUOUS
 10
1.504386
 20
-3.312587
  0
VERTEX
  8
PLAN_1
  6
CONTINUOUS
 10
1.500457
 20
-3.313024
  0
VERTEX
  8
PLAN_1
  6
CONTINUOUS
 10
1.496528
 20
-3.313898
  0
VERTEX
  8
PLAN_1
  6
CONTINUOUS
 10
1.493035
 20
-3.315205
  0
VERTEX
  8
PLAN_1
  6
CONTINUOUS
 10
1.489543
 20
-3.316953
  0
VERTEX
  8
PLAN_1
  6
CONTINUOUS
 10
1.486488
 20
-3.319134
  0
VERTEX
  8
PLAN_1
  6
CONTINUOUS
 10
1.483866
 20
-3.321752
  0
VERTEX
  8
PLAN_1
  6
CONTINUOUS
 10
1.481248
 20
-3.324374
  0
VERTEX
  8
PLAN_1
  6
CONTINUOUS
 10
1.478630
 20
-3.327429
  0
VERTEX
  8
PLAN_1
  6
CONTINUOUS
 10
1.476882
 20
-3.330921
  0
VERTEX
  8
PLAN_1
  6
CONTINUOUS
 10
1.475138
 20
-3.334413
  0
VERTEX
  8
PLAN_1
  6
CONTINUOUS
 10
1.473390
 20
-3.338343
  0
VERTEX
  8
PLAN_1
  6
CONTINUOUS
 10
1.472079
 20
-3.342272
  0
VERTEX
  8
PLAN_1
  6
CONTINUOUS
 10
1.471646
 20
-3.346638
  0
VERTEX
  8
PLAN_1
  6
CONTINUOUS
 10
1.470772
 20
-3.351437
  0
VERTEX
  8
PLAN_1
  6
CONTINUOUS
 10
1.470772
 20
-3.356240
  0
VERTEX
  8
PLAN_1
  6
CONTINUOUS
 10
1.471209
 20
-3.362787
  0
VERTEX
  8
PLAN_1
  6
CONTINUOUS
 10
1.471646
 20
-3.368465
  0
VERTEX
  8
PLAN_1
  6
CONTINUOUS
 10
1.472953
 20
-3.373701
  0
VERTEX
  8
PLAN_1
  6
CONTINUOUS
 10
1.474701
 20
-3.378504
  0
VERTEX
  8
PLAN_1
  6
CONTINUOUS
 10
1.476445
 20
-3.382433
  0
VERTEX
  8
PLAN_1
  6
CONTINUOUS
 10
1.479067
 20
-3.385925
  0
VERTEX
  8
PLAN_1
  6
CONTINUOUS
 10
1.481685
 20
-3.388980
  0
VERTEX
  8
PLAN_1
  6
CONTINUOUS
 10
1.484303
 20
-3.391165
  0
VERTEX
  8
PLAN_1
  6
CONTINUOUS
 10
1.487358
 20
-3.393346
  0
VERTEX
  8
PLAN_1
  6
CONTINUOUS
 10
1.490850
 20
-3.394657
  0
VERTEX
  8
PLAN_1
  6
CONTINUOUS
 10
1.493909
 20
-3.395965
  0
VERTEX
  8
PLAN_1
  6
CONTINUOUS
 10
1.497402
 20
-3.396839
  0
VERTEX
  8
PLAN_1
  6
CONTINUOUS
 10
1.503949
 20
-3.398150
  0
VERTEX
  8
PLAN_1
  6
CONTINUOUS
 10
1.510496
 20
-3.398150
  0
VERTEX
  8
PLAN_1
  6
CONTINUOUS
 10
1.515736
 20
-3.398150
  0
VERTEX
  8
PLAN_1
  6
CONTINUOUS
 10
1.521846
 20
-3.396839
  0
VERTEX
  8
PLAN_1
  6
CONTINUOUS
 10
1.524902
 20
-3.395528
  0
VERTEX
  8
PLAN_1
  6
CONTINUOUS
 10
1.527957
 20
-3.394220
  0
VERTEX
  8
PLAN_1
  6
CONTINUOUS
 10
1.531016
 20
-3.392472
  0
VERTEX
  8
PLAN_1
  6
CONTINUOUS
 10
1.534071
 20
-3.390728
  0
VERTEX
  8
PLAN_1
  6
CONTINUOUS
 10
1.536689
 20
-3.388106
  0
VERTEX
  8
PLAN_1
  6
CONTINUOUS
 10
1.539307
 20
-3.385051
  0
VERTEX
  8
PLAN_1
  6
CONTINUOUS
 10
1.541929
 20
-3.381122
  0
VERTEX
  8
PLAN_1
  6
CONTINUOUS
 10
1.543673
 20
-3.377193
  0
VERTEX
  8
PLAN_1
  6
CONTINUOUS
 10
1.545421
 20
-3.372394
  0
VERTEX
  8
PLAN_1
  6
CONTINUOUS
 10
1.546728
 20
-3.366717
  0
VERTEX
  8
PLAN_1
  6
CONTINUOUS
 10
1.547602
 20
-3.360606
  0
VERTEX
  8
PLAN_1
  6
CONTINUOUS
 10
1.548039
 20
-3.354059
  0
SEQEND
  8
0
  0
POLYLINE
  8
PLAN_1
  6
CONTINUOUS
 66
     1
 40
0.003000
 41
0.003000
  0
VERTEX
  8
PLAN_1
  6
CONTINUOUS
 10
1.638839
 20
-3.485457
  0
VERTEX
  8
PLAN_1
  6
CONTINUOUS
 10
1.612213
 20
-3.485457
  0
VERTEX
  8
PLAN_1
  6
CONTINUOUS
 10
1.612213
 20
-3.285957
  0
VERTEX
  8
PLAN_1
  6
CONTINUOUS
 10
1.750157
 20
-3.285957
  0
VERTEX
  8
PLAN_1
  6
CONTINUOUS
 10
1.750157
 20
-3.309969
  0
VERTEX
  8
PLAN_1
  6
CONTINUOUS
 10
1.638839
 20
-3.309969
  0
VERTEX
  8
PLAN_1
  6
CONTINUOUS
 10
1.638839
 20
-3.371083
  0
VERTEX
  8
PLAN_1
  6
CONTINUOUS
 10
1.736626
 20
-3.371083
  0
VERTEX
  8
PLAN_1
  6
CONTINUOUS
 10
1.736626
 20
-3.395094
  0
VERTEX
  8
PLAN_1
  6
CONTINUOUS
 10
1.638839
 20
-3.395094
  0
VERTEX
  8
PLAN_1
  6
CONTINUOUS
 10
1.638839
 20
-3.485457
  0
SEQEND
  8
0
  0
SOLID
  8
PLAN_1
 10
1.769366
 20
-3.485457
 11
1.740555
 21
-3.485457
 12
1.769366
 22
-3.456209
 13
1.740555
 23
-3.456209
  0
POLYLINE
  8
PLAN_1
  6
CONTINUOUS
 66
     1
 40
0.003000
 41
0.003000
  0
VERTEX
  8
PLAN_1
  6
CONTINUOUS
 10
1.769366
 20
-3.485457
  0
VERTEX
  8
PLAN_1
  6
CONTINUOUS
 10
1.740555
 20
-3.485457
  0
VERTEX
  8
PLAN_1
  6
CONTINUOUS
 10
1.740555
 20
-3.456209
  0
VERTEX
  8
PLAN_1
  6
CONTINUOUS
 10
1.769366
 20
-3.456209
  0
VERTEX
  8
PLAN_1
  6
CONTINUOUS
 10
1.769366
 20
-3.485457
  0
SEQEND
  8
0
  0
POLYLINE
  8
PLAN_1
  6
CONTINUOUS
 66
     1
 40
0.003000
 41
0.003000
  0
VERTEX
  8
PLAN_1
  6
CONTINUOUS
 10
1.964500
 20
-3.485457
  0
VERTEX
  8
PLAN_1
  6
CONTINUOUS
 10
1.817386
 20
-3.485457
  0
VERTEX
  8
PLAN_1
  6
CONTINUOUS
 10
1.817386
 20
-3.285957
  0
VERTEX
  8
PLAN_1
  6
CONTINUOUS
 10
1.962319
 20
-3.285957
  0
VERTEX
  8
PLAN_1
  6
CONTINUOUS
 10
1.962319
 20
-3.309969
  0
VERTEX
  8
PLAN_1
  6
CONTINUOUS
 10
1.844016
 20
-3.309969
  0
VERTEX
  8
PLAN_1
  6
CONTINUOUS
 10
1.844016
 20
-3.371083
  0
VERTEX
  8
PLAN_1
  6
CONTINUOUS
 10
1.953150
 20
-3.371083
  0
VERTEX
  8
PLAN_1
  6
CONTINUOUS
 10
1.953150
 20
-3.395094
  0
VERTEX
  8
PLAN_1
  6
CONTINUOUS
 10
1.844016
 20
-3.395094
  0
VERTEX
  8
PLAN_1
  6
CONTINUOUS
 10
1.844016
 20
-3.461449
  0
VERTEX
  8
PLAN_1
  6
CONTINUOUS
 10
1.964500
 20
-3.461449
  0
VERTEX
  8
PLAN_1
  6
CONTINUOUS
 10
1.964500
 20
-3.485457
  0
SEQEND
  8
0
  0
POLYLINE
  8
PLAN_1
  6
CONTINUOUS
 66
     1
 40
0.003000
 41
0.003000
  0
VERTEX
  8
PLAN_1
  6
CONTINUOUS
 10
2.029547
 20
-3.485457
  0
VERTEX
  8
PLAN_1
  6
CONTINUOUS
 10
2.002480
 20
-3.485457
  0
VERTEX
  8
PLAN_1
  6
CONTINUOUS
 10
2.002480
 20
-3.285957
  0
VERTEX
  8
PLAN_1
  6
CONTINUOUS
 10
2.091972
 20
-3.285957
  0
VERTEX
  8
PLAN_1
  6
CONTINUOUS
 10
2.098957
 20
-3.286394
  0
VERTEX
  8
PLAN_1
  6
CONTINUOUS
 10
2.105504
 20
-3.287268
  0
VERTEX
  8
PLAN_1
  6
CONTINUOUS
 10
2.111181
 20
-3.288575
  0
VERTEX
  8
PLAN_1
  6
CONTINUOUS
 10
2.116854
 20
-3.290323
  0
VERTEX
  8
PLAN_1
  6
CONTINUOUS
 10
2.122094
 20
-3.292504
  0
VERTEX
  8
PLAN_1
  6
CONTINUOUS
 10
2.126898
 20
-3.295559
  0
VERTEX
  8
PLAN_1
  6
CONTINUOUS
 10
2.131697
 20
-3.298618
  0
VERTEX
  8
PLAN_1
  6
CONTINUOUS
 10
2.135626
 20
-3.302110
  0
VERTEX
  8
PLAN_1
  6
CONTINUOUS
 10
2.139118
 20
-3.306039
  0
VERTEX
  8
PLAN_1
  6
CONTINUOUS
 10
2.142173
 20
-3.310402
  0
VERTEX
  8
PLAN_1
  6
CONTINUOUS
 10
2.145232
 20
-3.314768
  0
VERTEX
  8
PLAN_1
  6
CONTINUOUS
 10
2.147413
 20
-3.320008
  0
VERTEX
  8
PLAN_1
  6
CONTINUOUS
 10
2.149157
 20
-3.325244
  0
VERTEX
  8
PLAN_1
  6
CONTINUOUS
 10
2.150469
 20
-3.330484
  0
VERTEX
  8
PLAN_1
  6
CONTINUOUS
 10
2.150906
 20
-3.336157
  0
VERTEX
  8
PLAN_1
  6
CONTINUOUS
 10
2.151343
 20
-3.342272
  0
VERTEX
  8
PLAN_1
  6
CONTINUOUS
 10
2.150906
 20
-3.347508
  0
VERTEX
  8
PLAN_1
  6
CONTINUOUS
 10
2.150469
 20
-3.352748
  0
VERTEX
  8
PLAN_1
  6
CONTINUOUS
 10
2.149594
 20
-3.357988
  0
VERTEX
  8
PLAN_1
  6
CONTINUOUS
 10
2.148287
 20
-3.363224
  0
VERTEX
  8
PLAN_1
  6
CONTINUOUS
 10
2.146102
 20
-3.368028
  0
VERTEX
  8
PLAN_1
  6
CONTINUOUS
 10
2.143921
 20
-3.373264
  0
VERTEX
  8
PLAN_1
  6
CONTINUOUS
 10
2.141303
 20
-3.377630
  0
VERTEX
  8
PLAN_1
  6
CONTINUOUS
 10
2.137811
 20
-3.381996
  0
VERTEX
  8
PLAN_1
  6
CONTINUOUS
 10
2.134315
 20
-3.386362
  0
VERTEX
  8
PLAN_1
  6
CONTINUOUS
 10
2.129953
 20
-3.389854
  0
VERTEX
  8
PLAN_1
  6
CONTINUOUS
 10
2.125150
 20
-3.393346
  0
VERTEX
  8
PLAN_1
  6
CONTINUOUS
 10
2.119476
 20
-3.395965
  0
VERTEX
  8
PLAN_1
  6
CONTINUOUS
 10
2.113799
 20
-3.398150
  0
VERTEX
  8
PLAN_1
  6
CONTINUOUS
 10
2.107252
 20
-3.399894
  0
VERTEX
  8
PLAN_1
  6
CONTINUOUS
 10
2.099831
 20
-3.400768
  0
VERTEX
  8
PLAN_1
  6
CONTINUOUS
 10
2.091972
 20
-3.401205
  0
VERTEX
  8
PLAN_1
  6
CONTINUOUS
 10
2.029547
 20
-3.401205
  0
VERTEX
  8
PLAN_1
  6
CONTINUOUS
 10
2.029547
 20
-3.485457
  0
SEQEND
  8
0
  0
POLYLINE
  8
PLAN_1
  6
CONTINUOUS
 66
     1
 40
0.003000
 41
0.003000
  0
VERTEX
  8
PLAN_1
  6
CONTINUOUS
 10
2.029547
 20
-3.378067
  0
VERTEX
  8
PLAN_1
  6
CONTINUOUS
 10
2.083240
 20
-3.378067
  0
VERTEX
  8
PLAN_1
  6
CONTINUOUS
 10
2.087606
 20
-3.378067
  0
VERTEX
  8
PLAN_1
  6
CONTINUOUS
 10
2.091535
 20
-3.377630
  0
VERTEX
  8
PLAN_1
  6
CONTINUOUS
 10
2.095902
 20
-3.377193
  0
VERTEX
  8
PLAN_1
  6
CONTINUOUS
 10
2.099394
 20
-3.376323
  0
VERTEX
  8
PLAN_1
  6
CONTINUOUS
 10
2.103323
 20
-3.375449
  0
VERTEX
  8
PLAN_1
  6
CONTINUOUS
 10
2.106378
 20
-3.374138
  0
VERTEX
  8
PLAN_1
  6
CONTINUOUS
 10
2.109433
 20
-3.372394
  0
VERTEX
  8
PLAN_1
  6
CONTINUOUS
 10
2.112488
 20
-3.370646
  0
VERTEX
  8
PLAN_1
  6
CONTINUOUS
 10
2.114673
 20
-3.368028
  0
VERTEX
  8
PLAN_1
  6
CONTINUOUS
 10
2.117291
 20
-3.365843
  0
VERTEX
  8
PLAN_1
  6
CONTINUOUS
 10
2.119039
 20
-3.362787
  0
VERTEX
  8
PLAN_1
  6
CONTINUOUS
 10
2.120783
 20
-3.359295
  0
VERTEX
  8
PLAN_1
  6
CONTINUOUS
 10
2.122094
 20
-3.355803
  0
VERTEX
  8
PLAN_1
  6
CONTINUOUS
 10
2.122969
 20
-3.351874
  0
VERTEX
  8
PLAN_1
  6
CONTINUOUS
 10
2.123402
 20
-3.347508
  0
VERTEX
  8
PLAN_1
  6
CONTINUOUS
 10
2.123402
 20
-3.342272
  0
VERTEX
  8
PLAN_1
  6
CONTINUOUS
 10
2.123402
 20
-3.337906
  0
VERTEX
  8
PLAN_1
  6
CONTINUOUS
 10
2.122969
 20
-3.333976
  0
VERTEX
  8
PLAN_1
  6
CONTINUOUS
 10
2.121657
 20
-3.330047
  0
VERTEX
  8
PLAN_1
  6
CONTINUOUS
 10
2.120346
 20
-3.326555
  0
VERTEX
  8
PLAN_1
  6
CONTINUOUS
 10
2.119039
 20
-3.323500
  0
VERTEX
  8
PLAN_1
  6
CONTINUOUS
 10
2.116854
 20
-3.320882
  0
VERTEX
  8
PLAN_1
  6
CONTINUOUS
 10
2.114673
 20
-3.318260
  0
VERTEX
  8
PLAN_1
  6
CONTINUOUS
 10
2.112055
 20
-3.316516
  0
VERTEX
  8
PLAN_1
  6
CONTINUOUS
 10
2.109433
 20
-3.314331
  0
VERTEX
  8
PLAN_1
  6
CONTINUOUS
 10
2.106378
 20
-3.313024
  0
VERTEX
  8
PLAN_1
  6
CONTINUOUS
 10
2.103323
 20
-3.311713
  0
VERTEX
  8
PLAN_1
  6
CONTINUOUS
 10
2.099831
 20
-3.310839
  0
VERTEX
  8
PLAN_1
  6
CONTINUOUS
 10
2.095902
 20
-3.309969
  0
VERTEX
  8
PLAN_1
  6
CONTINUOUS
 10
2.092409
 20
-3.309531
  0
VERTEX
  8
PLAN_1
  6
CONTINUOUS
 10
2.088043
 20
-3.309094
  0
VERTEX
  8
PLAN_1
  6
CONTINUOUS
 10
2.084114
 20
-3.309094
  0
VERTEX
  8
PLAN_1
  6
CONTINUOUS
 10
2.029547
 20
-3.309094
  0
VERTEX
  8
PLAN_1
  6
CONTINUOUS
 10
2.029547
 20
-3.378067
  0
SEQEND
  8
0
  0
POLYLINE
  8
PLAN_1
  6
CONTINUOUS
 66
     1
 40
0.003000
 41
0.003000
  0
VERTEX
  8
PLAN_1
  6
CONTINUOUS
 10
2.305004
 20
-3.344453
  0
VERTEX
  8
PLAN_1
  6
CONTINUOUS
 10
2.304567
 20
-3.338780
  0
VERTEX
  8
PLAN_1
  6
CONTINUOUS
 10
2.303697
 20
-3.333976
  0
VERTEX
  8
PLAN_1
  6
CONTINUOUS
 10
2.301949
 20
-3.329173
  0
VERTEX
  8
PLAN_1
  6
CONTINUOUS
 10
2.300205
 20
-3.325244
  0
VERTEX
  8
PLAN_1
  6
CONTINUOUS
 10
2.297583
 20
-3.321315
  0
VERTEX
  8
PLAN_1
  6
CONTINUOUS
 10
2.294965
 20
-3.318260
  0
VERTEX
  8
PLAN_1
  6
CONTINUOUS
 10
2.291909
 20
-3.315205
  0
VERTEX
  8
PLAN_1
  6
CONTINUOUS
 10
2.288417
 20
-3.312587
  0
VERTEX
  8
PLAN_1
  6
CONTINUOUS
 10
2.284925
 20
-3.310402
  0
VERTEX
  8
PLAN_1
  6
CONTINUOUS
 10
2.280996
 20
-3.308657
  0
VERTEX
  8
PLAN_1
  6
CONTINUOUS
 10
2.277067
 20
-3.306909
  0
VERTEX
  8
PLAN_1
  6
CONTINUOUS
 10
2.272701
 20
-3.306039
  0
VERTEX
  8
PLAN_1
  6
CONTINUOUS
 10
2.268772
 20
-3.305165
  0
VERTEX
  8
PLAN_1
  6
CONTINUOUS
 10
2.264406
 20
-3.304291
  0
VERTEX
  8
PLAN_1
  6
CONTINUOUS
 10
2.260043
 20
-3.303854
  0
VERTEX
  8
PLAN_1
  6
CONTINUOUS
 10
2.255677
 20
-3.303854
  0
VERTEX
  8
PLAN_1
  6
CONTINUOUS
 10
2.249126
 20
-3.304291
  0
VERTEX
  8
PLAN_1
  6
CONTINUOUS
 10
2.241705
 20
-3.305165
  0
VERTEX
  8
PLAN_1
  6
CONTINUOUS
 10
2.237780
 20
-3.306039
  0
VERTEX
  8
PLAN_1
  6
CONTINUOUS
 10
2.233850
 20
-3.306909
  0
VERTEX
  8
PLAN_1
  6
CONTINUOUS
 10
2.230358
 20
-3.308220
  0
VERTEX
  8
PLAN_1
  6
CONTINUOUS
 10
2.226862
 20
-3.309969
  0
VERTEX
  8
PLAN_1
  6
CONTINUOUS
 10
2.223370
 20
-3.312150
  0
VERTEX
  8
PLAN_1
  6
CONTINUOUS
 10
2.220315
 20
-3.314331
  0
VERTEX
  8
PLAN_1
  6
CONTINUOUS
 10
2.217260
 20
-3.317390
  0
VERTEX
  8
PLAN_1
  6
CONTINUOUS
 10
2.215079
 20
-3.320445
  0
VERTEX
  8
PLAN_1
  6
CONTINUOUS
 10
2.212894
 20
-3.324374
  0
VERTEX
  8
PLAN_1
  6
CONTINUOUS
 10
2.211587
 20
-3.328736
  0
VERTEX
  8
PLAN_1
  6
CONTINUOUS
 10
2.210713
 20
-3.333539
  0
VERTEX
  8
PLAN_1
  6
CONTINUOUS
 10
2.210276
 20
-3.338780
  0
VERTEX
  8
PLAN_1
  6
CONTINUOUS
 10
2.210276
 20
-3.341835
  0
VERTEX
  8
PLAN_1
  6
CONTINUOUS
 10
2.210713
 20
-3.344890
  0
VERTEX
  8
PLAN_1
  6
CONTINUOUS
 10
2.211587
 20
-3.347075
  0
VERTEX
  8
PLAN_1
  6
CONTINUOUS
 10
2.212457
 20
-3.349693
  0
VERTEX
  8
PLAN_1
  6
CONTINUOUS
 10
2.213331
 20
-3.351874
  0
VERTEX
  8
PLAN_1
  6
CONTINUOUS
 10
2.214642
 20
-3.353622
  0
VERTEX
  8
PLAN_1
  6
CONTINUOUS
 10
2.215949
 20
-3.355366
  0
VERTEX
  8
PLAN_1
  6
CONTINUOUS
 10
2.217697
 20
-3.356677
  0
VERTEX
  8
PLAN_1
  6
CONTINUOUS
 10
2.221189
 20
-3.359295
  0
VERTEX
  8
PLAN_1
  6
CONTINUOUS
 10
2.225118
 20
-3.361480
  0
VERTEX
  8
PLAN_1
  6
CONTINUOUS
 10
2.229484
 20
-3.362787
  0
VERTEX
  8
PLAN_1
  6
CONTINUOUS
 10
2.233850
 20
-3.364098
  0
VERTEX
  8
PLAN_1
  6
CONTINUOUS
 10
2.290598
 20
-3.377193
  0
VERTEX
  8
PLAN_1
  6
CONTINUOUS
 10
2.295402
 20
-3.378504
  0
VERTEX
  8
PLAN_1
  6
CONTINUOUS
 10
2.300205
 20
-3.379815
  0
VERTEX
  8
PLAN_1
  6
CONTINUOUS
 10
2.304567
 20
-3.381559
  0
VERTEX
  8
PLAN_1
  6
CONTINUOUS
 10
2.308496
 20
-3.383744
  0
VERTEX
  8
PLAN_1
  6
CONTINUOUS
 10
2.312862
 20
-3.385925
  0
VERTEX
  8
PLAN_1
  6
CONTINUOUS
 10
2.316354
 20
-3.388543
  0
VERTEX
  8
PLAN_1
  6
CONTINUOUS
 10
2.319846
 20
-3.391165
  0
VERTEX
  8
PLAN_1
  6
CONTINUOUS
 10
2.322906
 20
-3.394220
  0
VERTEX
  8
PLAN_1
  6
CONTINUOUS
 10
2.325961
 20
-3.397713
  0
VERTEX
  8
PLAN_1
  6
CONTINUOUS
 10
2.328579
 20
-3.401205
  0
VERTEX
  8
PLAN_1
  6
CONTINUOUS
 10
2.330760
 20
-3.405134
  0
VERTEX
  8
PLAN_1
  6
CONTINUOUS
 10
2.332508
 20
-3.409500
  0
VERTEX
  8
PLAN_1
  6
CONTINUOUS
 10
2.333819
 20
-3.414299
  0
VERTEX
  8
PLAN_1
  6
CONTINUOUS
 10
2.335126
 20
-3.419539
  0
VERTEX
  8
PLAN_1
  6
CONTINUOUS
 10
2.335563
 20
-3.424780
  0
VERTEX
  8
PLAN_1
  6
CONTINUOUS
 10
2.336000
 20
-3.430453
  0
VERTEX
  8
PLAN_1
  6
CONTINUOUS
 10
2.336000
 20
-3.434819
  0
VERTEX
  8
PLAN_1
  6
CONTINUOUS
 10
2.335563
 20
-3.438748
  0
VERTEX
  8
PLAN_1
  6
CONTINUOUS
 10
2.334689
 20
-3.442677
  0
VERTEX
  8
PLAN_1
  6
CONTINUOUS
 10
2.334252
 20
-3.446606
  0
VERTEX
  8
PLAN_1
  6
CONTINUOUS
 10
2.332945
 20
-3.450098
  0
VERTEX
  8
PLAN_1
  6
CONTINUOUS
 10
2.331634
 20
-3.453591
  0
VERTEX
  8
PLAN_1
  6
CONTINUOUS
 10
2.330327
 20
-3.456646
  0
VERTEX
  8
PLAN_1
  6
CONTINUOUS
 10
2.328579
 20
-3.459701
  0
VERTEX
  8
PLAN_1
  6
CONTINUOUS
 10
2.326831
 20
-3.462756
  0
VERTEX
  8
PLAN_1
  6
CONTINUOUS
 10
2.324650
 20
-3.465378
  0
VERTEX
  8
PLAN_1
  6
CONTINUOUS
 10
2.322469
 20
-3.467996
  0
VERTEX
  8
PLAN_1
  6
CONTINUOUS
 10
2.320283
 20
-3.470177
  0
VERTEX
  8
PLAN_1
  6
CONTINUOUS
 10
2.315484
 20
-3.474543
  0
VERTEX
  8
PLAN_1
  6
CONTINUOUS
 10
2.309807
 20
-3.478472
  0
VERTEX
  8
PLAN_1
  6
CONTINUOUS
 10
2.303697
 20
-3.481528
  0
VERTEX
  8
PLAN_1
  6
CONTINUOUS
 10
2.297583
 20
-3.484146
  0
VERTEX
  8
PLAN_1
  6
CONTINUOUS
 10
2.291035
 20
-3.486331
  0
VERTEX
  8
PLAN_1
  6
CONTINUOUS
 10
2.284488
 20
-3.488075
  0
VERTEX
  8
PLAN_1
  6
CONTINUOUS
 10
2.277941
 20
-3.489386
  0
VERTEX
  8
PLAN_1
  6
CONTINUOUS
 10
2.270957
 20
-3.490260
  0
VERTEX
  8
PLAN_1
  6
CONTINUOUS
 10
2.264406
 20
-3.490697
  0
VERTEX
  8
PLAN_1
  6
CONTINUOUS
 10
2.257858
 20
-3.490697
  0
VERTEX
  8
PLAN_1
  6
CONTINUOUS
 10
2.251311
 20
-3.490697
  0
VERTEX
  8
PLAN_1
  6
CONTINUOUS
 10
2.245201
 20
-3.490260
  0
VERTEX
  8
PLAN_1
  6
CONTINUOUS
 10
2.239524
 20
-3.489823
  0
VERTEX
  8
PLAN_1
  6
CONTINUOUS
 10
2.234283
 20
-3.488949
  0
VERTEX
  8
PLAN_1
  6
CONTINUOUS
 10
2.229484
 20
-3.488075
  0
VERTEX
  8
PLAN_1
  6
CONTINUOUS
 10
2.225118
 20
-3.486768
  0
VERTEX
  8
PLAN_1
  6
CONTINUOUS
 10
2.221189
 20
-3.485457
  0
VERTEX
  8
PLAN_1
  6
CONTINUOUS
 10
2.217260
 20
-3.484146
  0
VERTEX
  8
PLAN_1
  6
CONTINUOUS
 10
2.211150
 20
-3.481091
  0
VERTEX
  8
PLAN_1
  6
CONTINUOUS
 10
2.205909
 20
-3.478035
  0
VERTEX
  8
PLAN_1
  6
CONTINUOUS
 10
2.201543
 20
-3.474543
  0
VERTEX
  8
PLAN_1
  6
CONTINUOUS
 10
2.197614
 20
-3.471488
  0
VERTEX
  8
PLAN_1
  6
CONTINUOUS
 10
2.194559
 20
-3.468870
  0
VERTEX
  8
PLAN_1
  6
CONTINUOUS
 10
2.191941
 20
-3.465811
  0
VERTEX
  8
PLAN_1
  6
CONTINUOUS
 10
2.189760
 20
-3.462756
  0
VERTEX
  8
PLAN_1
  6
CONTINUOUS
 10
2.187575
 20
-3.459701
  0
VERTEX
  8
PLAN_1
  6
CONTINUOUS
 10
2.185394
 20
-3.456646
  0
VERTEX
  8
PLAN_1
  6
CONTINUOUS
 10
2.184083
 20
-3.453591
  0
VERTEX
  8
PLAN_1
  6
CONTINUOUS
 10
2.182339
 20
-3.450535
  0
VERTEX
  8
PLAN_1
  6
CONTINUOUS
 10
2.181465
 20
-3.447476
  0
VERTEX
  8
PLAN_1
  6
CONTINUOUS
 10
2.179280
 20
-3.441366
  0
VERTEX
  8
PLAN_1
  6
CONTINUOUS
 10
2.178409
 20
-3.434819
  0
VERTEX
  8
PLAN_1
  6
CONTINUOUS
 10
2.177535
 20
-3.427835
  0
VERTEX
  8
PLAN_1
  6
CONTINUOUS
 10
2.177535
 20
-3.420850
  0
VERTEX
  8
PLAN_1
  6
CONTINUOUS
 10
2.202854
 20
-3.420850
  0
VERTEX
  8
PLAN_1
  6
CONTINUOUS
 10
2.203291
 20
-3.427398
  0
VERTEX
  8
PLAN_1
  6
CONTINUOUS
 10
2.204165
 20
-3.433508
  0
VERTEX
  8
PLAN_1
  6
CONTINUOUS
 10
2.205472
 20
-3.438748
  0
VERTEX
  8
PLAN_1
  6
CONTINUOUS
 10
2.207657
 20
-3.443547
  0
VERTEX
  8
PLAN_1
  6
CONTINUOUS
 10
2.210276
 20
-3.447913
  0
VERTEX
  8
PLAN_1
  6
CONTINUOUS
 10
2.213331
 20
-3.451843
  0
VERTEX
  8
PLAN_1
  6
CONTINUOUS
 10
2.216823
 20
-3.454898
  0
VERTEX
  8
PLAN_1
  6
CONTINUOUS
 10
2.220752
 20
-3.457957
  0
VERTEX
  8
PLAN_1
  6
CONTINUOUS
 10
2.224681
 20
-3.460138
  0
VERTEX
  8
PLAN_1
  6
CONTINUOUS
 10
2.229047
 20
-3.462319
  0
VERTEX
  8
PLAN_1
  6
CONTINUOUS
 10
2.233850
 20
-3.464067
  0
VERTEX
  8
PLAN_1
  6
CONTINUOUS
 10
2.238213
 20
-3.465378
  0
VERTEX
  8
PLAN_1
  6
CONTINUOUS
 10
2.243016
 20
-3.466248
  0
VERTEX
  8
PLAN_1
  6
CONTINUOUS
 10
2.247819
 20
-3.467122
  0
VERTEX
  8
PLAN_1
  6
CONTINUOUS
 10
2.253055
 20
-3.467559
  0
VERTEX
  8
PLAN_1
  6
CONTINUOUS
 10
2.257858
 20
-3.467559
  0
VERTEX
  8
PLAN_1
  6
CONTINUOUS
 10
2.265717
 20
-3.467559
  0
VERTEX
  8
PLAN_1
  6
CONTINUOUS
 10
2.274012
 20
-3.466248
  0
VERTEX
  8
PLAN_1
  6
CONTINUOUS
 10
2.278378
 20
-3.465811
  0
VERTEX
  8
PLAN_1
  6
CONTINUOUS
 10
2.282740
 20
-3.464504
  0
VERTEX
  8
PLAN_1
  6
CONTINUOUS
 10
2.287106
 20
-3.463193
  0
VERTEX
  8
PLAN_1
  6
CONTINUOUS
 10
2.291035
 20
-3.461449
  0
VERTEX
  8
PLAN_1
  6
CONTINUOUS
 10
2.294965
 20
-3.459701
  0
VERTEX
  8
PLAN_1
  6
CONTINUOUS
 10
2.298457
 20
-3.457083
  0
VERTEX
  8
PLAN_1
  6
CONTINUOUS
 10
2.301512
 20
-3.454465
  0
VERTEX
  8
PLAN_1
  6
CONTINUOUS
 10
2.304567
 20
-3.451406
  0
VERTEX
  8
PLAN_1
  6
CONTINUOUS
 10
2.306752
 20
-3.447913
  0
VERTEX
  8
PLAN_1
  6
CONTINUOUS
 10
2.308496
 20
-3.443547
  0
VERTEX
  8
PLAN_1
  6
CONTINUOUS
 10
2.309370
 20
-3.439185
  0
VERTEX
  8
PLAN_1
  6
CONTINUOUS
 10
2.309807
 20
-3.433945
  0
VERTEX
  8
PLAN_1
  6
CONTINUOUS
 10
2.309807
 20
-3.430453
  0
VERTEX
  8
PLAN_1
  6
CONTINUOUS
 10
2.309370
 20
-3.426961
  0
VERTEX
  8
PLAN_1
  6
CONTINUOUS
 10
2.308933
 20
-3.423906
  0
VERTEX
  8
PLAN_1
  6
CONTINUOUS
 10
2.308063
 20
-3.420850
  0
VERTEX
  8
PLAN_1
  6
CONTINUOUS
 10
2.306752
 20
-3.418228
  0
VERTEX
  8
PLAN_1
  6
CONTINUOUS
 10
2.305004
 20
-3.415610
  0
VERTEX
  8
PLAN_1
  6
CONTINUOUS
 10
2.303260
 20
-3.413429
  0
VERTEX
  8
PLAN_1
  6
CONTINUOUS
 10
2.301075
 20
-3.411681
  0
VERTEX
  8
PLAN_1
  6
CONTINUOUS
 10
2.298457
 20
-3.409500
  0
VERTEX
  8
PLAN_1
  6
CONTINUOUS
 10
2.295402
 20
-3.407752
  0
VERTEX
  8
PLAN_1
  6
CONTINUOUS
 10
2.291909
 20
-3.406441
  0
VERTEX
  8
PLAN_1
  6
CONTINUOUS
 10
2.287980
 20
-3.404697
  0
VERTEX
  8
PLAN_1
  6
CONTINUOUS
 10
2.278811
 20
-3.401642
  0
VERTEX
  8
PLAN_1
  6
CONTINUOUS
 10
2.267465
 20
-3.399020
  0
VERTEX
  8
PLAN_1
  6
CONTINUOUS
 10
2.226429
 20
-3.389417
  0
VERTEX
  8
PLAN_1
  6
CONTINUOUS
 10
2.221189
 20
-3.388106
  0
VERTEX
  8
PLAN_1
  6
CONTINUOUS
 10
2.214642
 20
-3.385488
  0
VERTEX
  8
PLAN_1
  6
CONTINUOUS
 10
2.211150
 20
-3.384181
  0
VERTEX
  8
PLAN_1
  6
CONTINUOUS
 10
2.207657
 20
-3.382433
  0
VERTEX
  8
PLAN_1
  6
CONTINUOUS
 10
2.203728
 20
-3.380252
  0
VERTEX
  8
PLAN_1
  6
CONTINUOUS
 10
2.200673
 20
-3.377630
  0
VERTEX
  8
PLAN_1
  6
CONTINUOUS
 10
2.197181
 20
-3.375012
  0
VERTEX
  8
PLAN_1
  6
CONTINUOUS
 10
2.194122
 20
-3.371957
  0
VERTEX
  8
PLAN_1
  6
CONTINUOUS
 10
2.191504
 20
-3.368028
  0
VERTEX
  8
PLAN_1
  6
CONTINUOUS
 10
2.188886
 20
-3.364098
  0
VERTEX
  8
PLAN_1
  6
CONTINUOUS
 10
2.187138
 20
-3.359295
  0
VERTEX
  8
PLAN_1
  6
CONTINUOUS
 10
2.185394
 20
-3.354496
  0
VERTEX
  8
PLAN_1
  6
CONTINUOUS
 10
2.184520
 20
-3.348819
  0
VERTEX
  8
PLAN_1
  6
CONTINUOUS
 10
2.184083
 20
-3.342272
  0
VERTEX
  8
PLAN_1
  6
CONTINUOUS
 10
2.184520
 20
-3.336594
  0
VERTEX
  8
PLAN_1
  6
CONTINUOUS
 10
2.184957
 20
-3.330921
  0
VERTEX
  8
PLAN_1
  6
CONTINUOUS
 10
2.186264
 20
-3.325244
  0
VERTEX
  8
PLAN_1
  6
CONTINUOUS
 10
2.188012
 20
-3.319571
  0
VERTEX
  8
PLAN_1
  6
CONTINUOUS
 10
2.190193
 20
-3.314331
  0
VERTEX
  8
PLAN_1
  6
CONTINUOUS
 10
2.193252
 20
-3.309094
  0
VERTEX
  8
PLAN_1
  6
CONTINUOUS
 10
2.196307
 20
-3.304291
  0
VERTEX
  8
PLAN_1
  6
CONTINUOUS
 10
2.200236
 20
-3.299925
  0
VERTEX
  8
PLAN_1
  6
CONTINUOUS
 10
2.204602
 20
-3.295996
  0
VERTEX
  8
PLAN_1
  6
CONTINUOUS
 10
2.209839
 20
-3.292067
  0
VERTEX
  8
PLAN_1
  6
CONTINUOUS
 10
2.215516
 20
-3.289012
  0
VERTEX
  8
PLAN_1
  6
CONTINUOUS
 10
2.221626
 20
-3.285957
  0
VERTEX
  8
PLAN_1
  6
CONTINUOUS
 10
2.228610
 20
-3.283776
  0
VERTEX
  8
PLAN_1
  6
CONTINUOUS
 10
2.236031
 20
-3.282028
  0
VERTEX
  8
PLAN_1
  6
CONTINUOUS
 10
2.243890
 20
-3.281154
  0
VERTEX
  8
PLAN_1
  6
CONTINUOUS
 10
2.252622
 20
-3.280717
  0
VERTEX
  8
PLAN_1
  6
CONTINUOUS
 10
2.259169
 20
-3.281154
  0
VERTEX
  8
PLAN_1
  6
CONTINUOUS
 10
2.265280
 20
-3.281154
  0
VERTEX
  8
PLAN_1
  6
CONTINUOUS
 10
2.270520
 20
-3.282028
  0
VERTEX
  8
PLAN_1
  6
CONTINUOUS
 10
2.276193
 20
-3.282465
  0
VERTEX
  8
PLAN_1
  6
CONTINUOUS
 10
2.280996
 20
-3.283776
  0
VERTEX
  8
PLAN_1
  6
CONTINUOUS
 10
2.285799
 20
-3.284646
  0
VERTEX
  8
PLAN_1
  6
CONTINUOUS
 10
2.290161
 20
-3.286394
  0
VERTEX
  8
PLAN_1
  6
CONTINUOUS
 10
2.294091
 20
-3.287705
  0
VERTEX
  8
PLAN_1
  6
CONTINUOUS
 10
2.298020
 20
-3.289449
  0
VERTEX
  8
PLAN_1
  6
CONTINUOUS
 10
2.301512
 20
-3.291197
  0
VERTEX
  8
PLAN_1
  6
CONTINUOUS
 10
2.304567
 20
-3.292941
  0
VERTEX
  8
PLAN_1
  6
CONTINUOUS
 10
2.307626
 20
-3.295126
  0
VERTEX
  8
PLAN_1
  6
CONTINUOUS
 10
2.312862
 20
-3.299488
  0
VERTEX
  8
PLAN_1
  6
CONTINUOUS
 10
2.317228
 20
-3.304291
  0
VERTEX
  8
PLAN_1
  6
CONTINUOUS
 10
2.320720
 20
-3.309531
  0
VERTEX
  8
PLAN_1
  6
CONTINUOUS
 10
2.323776
 20
-3.314768
  0
VERTEX
  8
PLAN_1
  6
CONTINUOUS
 10
2.325961
 20
-3.320008
  0
VERTEX
  8
PLAN_1
  6
CONTINUOUS
 10
2.327705
 20
-3.325244
  0
VERTEX
  8
PLAN_1
  6
CONTINUOUS
 10
2.329016
 20
-3.330484
  0
VERTEX
  8
PLAN_1
  6
CONTINUOUS
 10
2.329453
 20
-3.335287
  0
VERTEX
  8
PLAN_1
  6
CONTINUOUS
 10
2.330327
 20
-3.340087
  0
VERTEX
  8
PLAN_1
  6
CONTINUOUS
 10
2.330327
 20
-3.344453
  0
VERTEX
  8
PLAN_1
  6
CONTINUOUS
 10
2.305004
 20
-3.344453
  0
SEQEND
  8
0
  0
POLYLINE
  8
PLAN_1
  6
CONTINUOUS
 66
     1
 40
0.008291
 41
0.008291
  0
VERTEX
  8
PLAN_1
  6
CONTINUOUS
 10
-0.613724
 20
1.553126
  0
VERTEX
  8
PLAN_1
  6
CONTINUOUS
 10
-0.613724
 20
2.066067
  0
VERTEX
  8
PLAN_1
  6
CONTINUOUS
 10
-1.678453
 20
2.066067
  0
VERTEX
  8
PLAN_1
  6
CONTINUOUS
 10
-1.678453
 20
1.553126
  0
VERTEX
  8
PLAN_1
  6
CONTINUOUS
 10
-0.613724
 20
1.553126
  0
SEQEND
  8
0
  0
POLYLINE
  8
PLAN_1
  6
CONTINUOUS
 66
     1
 40
0.008291
 41
0.008291
  0
VERTEX
  8
PLAN_1
  6
CONTINUOUS
 10
-0.752110
 20
2.165161
  0
VERTEX
  8
PLAN_1
  6
CONTINUOUS
 10
-1.540508
 20
2.165161
  0
SEQEND
  8
0
  0
POLYLINE
  8
PLAN_1
  6
CONTINUOUS
 66
     1
 40
0.008291
 41
0.008291
  0
VERTEX
  8
PLAN_1
  6
CONTINUOUS
 10
-1.548362
 20
2.125000
  0
VERTEX
  8
PLAN_1
  6
CONTINUOUS
 10
-1.461055
 20
2.125000
  0
VERTEX
  8
PLAN_1
  6
CONTINUOUS
 10
-1.461055
 20
2.065630
  0
VERTEX
  8
PLAN_1
  6
CONTINUOUS
 10
-1.677583
 20
2.065630
  0
VERTEX
  8
PLAN_1
  6
CONTINUOUS
 10
-1.677583
 20
2.125000
  0
VERTEX
  8
PLAN_1
  6
CONTINUOUS
 10
-1.590272
 20
2.125000
  0
VERTEX
  8
PLAN_1
  6
CONTINUOUS
 10
-1.589835
 20
2.124563
  0
VERTEX
  8
PLAN_1
  6
CONTINUOUS
 10
-1.589835
 20
2.094441
  0
VERTEX
  8
PLAN_1
  6
CONTINUOUS
 10
-1.548799
 20
2.094441
  0
VERTEX
  8
PLAN_1
  6
CONTINUOUS
 10
-1.548799
 20
2.124563
  0
VERTEX
  8
PLAN_1
  6
CONTINUOUS
 10
-1.548362
 20
2.125000
  0
SEQEND
  8
0
  0
POLYLINE
  8
PLAN_1
  6
CONTINUOUS
 66
     1
 40
0.008291
 41
0.008291
  0
VERTEX
  8
PLAN_1
  6
CONTINUOUS
 10
-0.701906
 20
2.125000
  0
VERTEX
  8
PLAN_1
  6
CONTINUOUS
 10
-0.614598
 20
2.125000
  0
VERTEX
  8
PLAN_1
  6
CONTINUOUS
 10
-0.614598
 20
2.065630
  0
VERTEX
  8
PLAN_1
  6
CONTINUOUS
 10
-0.831122
 20
2.065630
  0
VERTEX
  8
PLAN_1
  6
CONTINUOUS
 10
-0.831122
 20
2.125000
  0
VERTEX
  8
PLAN_1
  6
CONTINUOUS
 10
-0.743815
 20
2.125000
  0
VERTEX
  8
PLAN_1
  6
CONTINUOUS
 10
-0.743378
 20
2.124563
  0
VERTEX
  8
PLAN_1
  6
CONTINUOUS
 10
-0.743378
 20
2.094441
  0
VERTEX
  8
PLAN_1
  6
CONTINUOUS
 10
-0.702343
 20
2.094441
  0
VERTEX
  8
PLAN_1
  6
CONTINUOUS
 10
-0.702343
 20
2.124563
  0
VERTEX
  8
PLAN_1
  6
CONTINUOUS
 10
-0.701906
 20
2.125000
  0
SEQEND
  8
0
  0
POLYLINE
  8
PLAN_1
  6
CONTINUOUS
 66
     1
 40
0.006984
 41
0.006984
  0
VERTEX
  8
PLAN_1
  6
CONTINUOUS
 10
-0.655197
 20
1.553126
  0
VERTEX
  8
PLAN_1
  6
CONTINUOUS
 10
-0.654760
 20
1.636071
  0
VERTEX
  8
PLAN_1
  6
CONTINUOUS
 10
-0.615472
 20
1.636071
  0
SEQEND
  8
0
  0
POLYLINE
  8
PLAN_1
  6
CONTINUOUS
 66
     1
 40
0.008291
 41
0.008291
  0
VERTEX
  8
PLAN_1
  6
CONTINUOUS
 10
-0.683571
 20
1.512528
  0
VERTEX
  8
PLAN_1
  6
CONTINUOUS
 10
-0.683571
 20
1.553126
  0
VERTEX
  8
PLAN_1
  6
CONTINUOUS
 10
-1.610791
 20
1.553126
  0
VERTEX
  8
PLAN_1
  6
CONTINUOUS
 10
-1.610791
 20
1.512528
  0
VERTEX
  8
PLAN_1
  6
CONTINUOUS
 10
-0.683571
 20
1.512528
  0
SEQEND
  8
0
  0
POLYLINE
  8
PLAN_1
  6
CONTINUOUS
 66
     1
 40
0.008291
 41
0.008291
  0
VERTEX
  8
PLAN_1
  6
CONTINUOUS
 10
-0.849020
 20
2.400024
  0
VERTEX
  8
PLAN_1
  6
CONTINUOUS
 10
-0.849894
 20
2.403953
  0
VERTEX
  8
PLAN_1
  6
CONTINUOUS
 10
-0.852949
 20
2.414429
  0
VERTEX
  8
PLAN_1
  6
CONTINUOUS
 10
-0.855571
 20
2.421413
  0
VERTEX
  8
PLAN_1
  6
CONTINUOUS
 10
-0.858626
 20
2.428835
  0
VERTEX
  8
PLAN_1
  6
CONTINUOUS
 10
-0.862555
 20
2.437130
  0
VERTEX
  8
PLAN_1
  6
CONTINUOUS
 10
-0.867791
 20
2.445858
  0
VERTEX
  8
PLAN_1
  6
CONTINUOUS
 10
-0.870413
 20
2.449787
  0
VERTEX
  8
PLAN_1
  6
CONTINUOUS
 10
-0.873469
 20
2.454154
  0
VERTEX
  8
PLAN_1
  6
CONTINUOUS
 10
-0.876961
 20
2.458520
  0
VERTEX
  8
PLAN_1
  6
CONTINUOUS
 10
-0.880453
 20
2.462449
  0
VERTEX
  8
PLAN_1
  6
CONTINUOUS
 10
-0.884382
 20
2.466378
  0
VERTEX
  8
PLAN_1
  6
CONTINUOUS
 10
-0.888748
 20
2.470307
  0
VERTEX
  8
PLAN_1
  6
CONTINUOUS
 10
-0.893110
 20
2.473799
  0
VERTEX
  8
PLAN_1
  6
CONTINUOUS
 10
-0.897913
 20
2.476854
  0
VERTEX
  8
PLAN_1
  6
CONTINUOUS
 10
-0.903154
 20
2.479909
  0
VERTEX
  8
PLAN_1
  6
CONTINUOUS
 10
-0.908827
 20
2.482965
  0
VERTEX
  8
PLAN_1
  6
CONTINUOUS
 10
-0.914504
 20
2.485150
  0
VERTEX
  8
PLAN_1
  6
CONTINUOUS
 10
-0.920614
 20
2.487331
  0
VERTEX
  8
PLAN_1
  6
CONTINUOUS
 10
-0.927598
 20
2.489079
  0
VERTEX
  8
PLAN_1
  6
CONTINUOUS
 10
-0.934146
 20
2.490386
  0
VERTEX
  8
PLAN_1
  6
CONTINUOUS
 10
-0.941567
 20
2.490823
  0
VERTEX
  8
PLAN_1
  6
CONTINUOUS
 10
-0.949425
 20
2.491260
  0
SEQEND
  8
0
  0
POLYLINE
  8
PLAN_1
  6
CONTINUOUS
 66
     1
 40
0.008291
 41
0.008291
  0
VERTEX
  8
PLAN_1
  6
CONTINUOUS
 10
-0.949425
 20
2.491260
  0
VERTEX
  8
PLAN_1
  6
CONTINUOUS
 10
-0.952480
 20
2.491260
  0
SEQEND
  8
0
  0
POLYLINE
  8
PLAN_1
  6
CONTINUOUS
 66
     1
 40
0.008291
 41
0.008291
  0
VERTEX
  8
PLAN_1
  6
CONTINUOUS
 10
-0.952480
 20
2.491260
  0
VERTEX
  8
PLAN_1
  6
CONTINUOUS
 10
-0.965579
 20
2.491260
  0
VERTEX
  8
PLAN_1
  6
CONTINUOUS
 10
-1.001374
 20
2.491260
  0
VERTEX
  8
PLAN_1
  6
CONTINUOUS
 10
-1.053323
 20
2.491260
  0
VERTEX
  8
PLAN_1
  6
CONTINUOUS
 10
-1.114878
 20
2.491260
  0
VERTEX
  8
PLAN_1
  6
CONTINUOUS
 10
-1.180795
 20
2.491260
  0
VERTEX
  8
PLAN_1
  6
CONTINUOUS
 10
-1.244531
 20
2.491260
  0
VERTEX
  8
PLAN_1
  6
CONTINUOUS
 10
-1.299972
 20
2.491260
  0
VERTEX
  8
PLAN_1
  6
CONTINUOUS
 10
-1.341004
 20
2.491260
  0
VERTEX
  8
PLAN_1
  6
CONTINUOUS
 10
-1.348425
 20
2.490823
  0
VERTEX
  8
PLAN_1
  6
CONTINUOUS
 10
-1.355846
 20
2.490386
  0
VERTEX
  8
PLAN_1
  6
CONTINUOUS
 10
-1.362835
 20
2.489079
  0
VERTEX
  8
PLAN_1
  6
CONTINUOUS
 10
-1.369382
 20
2.487331
  0
VERTEX
  8
PLAN_1
  6
CONTINUOUS
 10
-1.375492
 20
2.485150
  0
VERTEX
  8
PLAN_1
  6
CONTINUOUS
 10
-1.381602
 20
2.482965
  0
VERTEX
  8
PLAN_1
  6
CONTINUOUS
 10
-1.386843
 20
2.479909
  0
VERTEX
  8
PLAN_1
  6
CONTINUOUS
 10
-1.392083
 20
2.476854
  0
VERTEX
  8
PLAN_1
  6
CONTINUOUS
 10
-1.396882
 20
2.473799
  0
VERTEX
  8
PLAN_1
  6
CONTINUOUS
 10
-1.401685
 20
2.470307
  0
VERTEX
  8
PLAN_1
  6
CONTINUOUS
 10
-1.405614
 20
2.466378
  0
VERTEX
  8
PLAN_1
  6
CONTINUOUS
 10
-1.409543
 20
2.462449
  0
VERTEX
  8
PLAN_1
  6
CONTINUOUS
 10
-1.413472
 20
2.458520
  0
VERTEX
  8
PLAN_1
  6
CONTINUOUS
 10
-1.416528
 20
2.454154
  0
VERTEX
  8
PLAN_1
  6
CONTINUOUS
 10
-1.420020
 20
2.449787
  0
VERTEX
  8
PLAN_1
  6
CONTINUOUS
 10
-1.422638
 20
2.445858
  0
VERTEX
  8
PLAN_1
  6
CONTINUOUS
 10
-1.427441
 20
2.437130
  0
VERTEX
  8
PLAN_1
  6
CONTINUOUS
 10
-1.431807
 20
2.428835
  0
VERTEX
  8
PLAN_1
  6
CONTINUOUS
 10
-1.434862
 20
2.421413
  0
VERTEX
  8
PLAN_1
  6
CONTINUOUS
 10
-1.437480
 20
2.414429
  0
VERTEX
  8
PLAN_1
  6
CONTINUOUS
 10
-1.440102
 20
2.403953
  0
VERTEX
  8
PLAN_1
  6
CONTINUOUS
 10
-1.440972
 20
2.400024
  0
SEQEND
  8
0
  0
POLYLINE
  8
PLAN_1
  6
CONTINUOUS
 66
     1
 40
0.008291
 41
0.008291
  0
VERTEX
  8
PLAN_1
  6
CONTINUOUS
 10
-1.440972
 20
2.400024
  0
VERTEX
  8
PLAN_1
  6
CONTINUOUS
 10
-0.849020
 20
2.400024
  0
SEQEND
  8
0
  0
POLYLINE
  8
PLAN_1
  6
CONTINUOUS
 66
     1
 40
0.008291
 41
0.008291
  0
VERTEX
  8
PLAN_1
  6
CONTINUOUS
 10
-1.322669
 20
3.155677
  0
VERTEX
  8
PLAN_1
  6
CONTINUOUS
 10
-1.320925
 20
3.157862
  0
VERTEX
  8
PLAN_1
  6
CONTINUOUS
 10
-1.315248
 20
3.162665
  0
VERTEX
  8
PLAN_1
  6
CONTINUOUS
 10
-1.305646
 20
3.170520
  0
VERTEX
  8
PLAN_1
  6
CONTINUOUS
 10
-1.293421
 20
3.180126
  0
VERTEX
  8
PLAN_1
  6
CONTINUOUS
 10
-1.286000
 20
3.184929
  0
VERTEX
  8
PLAN_1
  6
CONTINUOUS
 10
-1.277709
 20
3.190165
  0
VERTEX
  8
PLAN_1
  6
CONTINUOUS
 10
-1.268976
 20
3.195843
  0
VERTEX
  8
PLAN_1
  6
CONTINUOUS
 10
-1.259374
 20
3.201079
  0
VERTEX
  8
PLAN_1
  6
CONTINUOUS
 10
-1.249331
 20
3.206319
  0
VERTEX
  8
PLAN_1
  6
CONTINUOUS
 10
-1.238854
 20
3.211118
  0
VERTEX
  8
PLAN_1
  6
CONTINUOUS
 10
-1.227941
 20
3.215921
  0
VERTEX
  8
PLAN_1
  6
CONTINUOUS
 10
-1.216154
 20
3.220287
  0
VERTEX
  8
PLAN_1
  6
CONTINUOUS
 10
-1.203933
 20
3.223780
  0
VERTEX
  8
PLAN_1
  6
CONTINUOUS
 10
-1.191272
 20
3.227272
  0
VERTEX
  8
PLAN_1
  6
CONTINUOUS
 10
-1.178610
 20
3.229453
  0
VERTEX
  8
PLAN_1
  6
CONTINUOUS
 10
-1.165079
 20
3.231201
  0
VERTEX
  8
PLAN_1
  6
CONTINUOUS
 10
-1.151547
 20
3.232075
  0
VERTEX
  8
PLAN_1
  6
CONTINUOUS
 10
-1.137575
 20
3.232075
  0
VERTEX
  8
PLAN_1
  6
CONTINUOUS
 10
-1.123606
 20
3.230764
  0
VERTEX
  8
PLAN_1
  6
CONTINUOUS
 10
-1.109201
 20
3.228146
  0
VERTEX
  8
PLAN_1
  6
CONTINUOUS
 10
-1.094358
 20
3.224654
  0
VERTEX
  8
PLAN_1
  6
CONTINUOUS
 10
-1.079516
 20
3.219413
  0
VERTEX
  8
PLAN_1
  6
CONTINUOUS
 10
-1.064673
 20
3.213303
  0
VERTEX
  8
PLAN_1
  6
CONTINUOUS
 10
-1.049831
 20
3.205008
  0
VERTEX
  8
PLAN_1
  6
CONTINUOUS
 10
-1.034551
 20
3.195406
  0
VERTEX
  8
PLAN_1
  6
CONTINUOUS
 10
-1.019709
 20
3.184055
  0
VERTEX
  8
PLAN_1
  6
CONTINUOUS
 10
-1.004429
 20
3.170957
  0
VERTEX
  8
PLAN_1
  6
CONTINUOUS
 10
-0.989587
 20
3.155677
  0
SEQEND
  8
0
  0
POLYLINE
  8
PLAN_1
  6
CONTINUOUS
 66
     1
 40
0.008291
 41
0.008291
  0
VERTEX
  8
PLAN_1
  6
CONTINUOUS
 10
-1.323543
 20
3.155244
  0
VERTEX
  8
PLAN_1
  6
CONTINUOUS
 10
-1.323543
 20
2.492571
  0
VERTEX
  8
PLAN_1
  6
CONTINUOUS
 10
-0.988717
 20
2.492571
  0
VERTEX
  8
PLAN_1
  6
CONTINUOUS
 10
-0.988717
 20
3.155244
  0
SEQEND
  8
0
  0
POLYLINE
  8
PLAN_1
  6
CONTINUOUS
 66
     1
 40
0.006984
 41
0.006984
  0
VERTEX
  8
PLAN_1
  6
CONTINUOUS
 10
-1.158969
 20
3.030390
  0
VERTEX
  8
PLAN_1
  6
CONTINUOUS
 10
-1.154602
 20
3.030390
  0
VERTEX
  8
PLAN_1
  6
CONTINUOUS
 10
-1.150236
 20
3.031264
  0
VERTEX
  8
PLAN_1
  6
CONTINUOUS
 10
-1.146307
 20
3.032138
  0
VERTEX
  8
PLAN_1
  6
CONTINUOUS
 10
-1.142378
 20
3.033445
  0
VERTEX
  8
PLAN_1
  6
CONTINUOUS
 10
-1.138886
 20
3.035193
  0
VERTEX
  8
PLAN_1
  6
CONTINUOUS
 10
-1.135394
 20
3.037374
  0
VERTEX
  8
PLAN_1
  6
CONTINUOUS
 10
-1.131902
 20
3.039996
  0
VERTEX
  8
PLAN_1
  6
CONTINUOUS
 10
-1.129283
 20
3.042614
  0
VERTEX
  8
PLAN_1
  6
CONTINUOUS
 10
-1.126228
 20
3.045669
  0
VERTEX
  8
PLAN_1
  6
CONTINUOUS
 10
-1.124043
 20
3.048724
  0
VERTEX
  8
PLAN_1
  6
CONTINUOUS
 10
-1.121862
 20
3.052217
  0
VERTEX
  8
PLAN_1
  6
CONTINUOUS
 10
-1.120114
 20
3.056146
  0
VERTEX
  8
PLAN_1
  6
CONTINUOUS
 10
-1.118807
 20
3.060075
  0
VERTEX
  8
PLAN_1
  6
CONTINUOUS
 10
-1.117496
 20
3.064004
  0
VERTEX
  8
PLAN_1
  6
CONTINUOUS
 10
-1.117059
 20
3.067933
  0
VERTEX
  8
PLAN_1
  6
CONTINUOUS
 10
-1.116622
 20
3.072299
  0
VERTEX
  8
PLAN_1
  6
CONTINUOUS
 10
-1.117059
 20
3.076665
  0
VERTEX
  8
PLAN_1
  6
CONTINUOUS
 10
-1.117496
 20
3.081031
  0
VERTEX
  8
PLAN_1
  6
CONTINUOUS
 10
-1.118807
 20
3.084961
  0
VERTEX
  8
PLAN_1
  6
CONTINUOUS
 10
-1.120114
 20
3.088886
  0
VERTEX
  8
PLAN_1
  6
CONTINUOUS
 10
-1.121862
 20
3.092382
  0
VERTEX
  8
PLAN_1
  6
CONTINUOUS
 10
-1.124043
 20
3.095874
  0
VERTEX
  8
PLAN_1
  6
CONTINUOUS
 10
-1.126228
 20
3.099366
  0
VERTEX
  8
PLAN_1
  6
CONTINUOUS
 10
-1.129283
 20
3.102421
  0
VERTEX
  8
PLAN_1
  6
CONTINUOUS
 10
-1.131902
 20
3.105039
  0
VERTEX
  8
PLAN_1
  6
CONTINUOUS
 10
-1.135394
 20
3.107657
  0
VERTEX
  8
PLAN_1
  6
CONTINUOUS
 10
-1.138886
 20
3.109406
  0
VERTEX
  8
PLAN_1
  6
CONTINUOUS
 10
-1.142378
 20
3.111150
  0
VERTEX
  8
PLAN_1
  6
CONTINUOUS
 10
-1.146307
 20
3.112898
  0
VERTEX
  8
PLAN_1
  6
CONTINUOUS
 10
-1.150236
 20
3.113772
  0
VERTEX
  8
PLAN_1
  6
CONTINUOUS
 10
-1.154602
 20
3.114646
  0
VERTEX
  8
PLAN_1
  6
CONTINUOUS
 10
-1.158969
 20
3.114646
  0
VERTEX
  8
PLAN_1
  6
CONTINUOUS
 10
-1.163331
 20
3.114646
  0
VERTEX
  8
PLAN_1
  6
CONTINUOUS
 10
-1.167260
 20
3.113772
  0
VERTEX
  8
PLAN_1
  6
CONTINUOUS
 10
-1.171626
 20
3.112898
  0
VERTEX
  8
PLAN_1
  6
CONTINUOUS
 10
-1.175555
 20
3.111150
  0
VERTEX
  8
PLAN_1
  6
CONTINUOUS
 10
-1.179047
 20
3.109406
  0
VERTEX
  8
PLAN_1
  6
CONTINUOUS
 10
-1.182539
 20
3.107657
  0
VERTEX
  8
PLAN_1
  6
CONTINUOUS
 10
-1.186031
 20
3.105039
  0
VERTEX
  8
PLAN_1
  6
CONTINUOUS
 10
-1.188654
 20
3.102421
  0
VERTEX
  8
PLAN_1
  6
CONTINUOUS
 10
-1.191709
 20
3.099366
  0
VERTEX
  8
PLAN_1
  6
CONTINUOUS
 10
-1.193890
 20
3.095874
  0
VERTEX
  8
PLAN_1
  6
CONTINUOUS
 10
-1.196075
 20
3.092382
  0
VERTEX
  8
PLAN_1
  6
CONTINUOUS
 10
-1.197819
 20
3.088886
  0
VERTEX
  8
PLAN_1
  6
CONTINUOUS
 10
-1.199130
 20
3.084961
  0
VERTEX
  8
PLAN_1
  6
CONTINUOUS
 10
-1.200437
 20
3.081031
  0
VERTEX
  8
PLAN_1
  6
CONTINUOUS
 10
-1.200874
 20
3.076665
  0
VERTEX
  8
PLAN_1
  6
CONTINUOUS
 10
-1.201311
 20
3.072299
  0
VERTEX
  8
PLAN_1
  6
CONTINUOUS
 10
-1.200874
 20
3.067933
  0
VERTEX
  8
PLAN_1
  6
CONTINUOUS
 10
-1.200437
 20
3.064004
  0
VERTEX
  8
PLAN_1
  6
CONTINUOUS
 10
-1.199130
 20
3.060075
  0
VERTEX
  8
PLAN_1
  6
CONTINUOUS
 10
-1.197819
 20
3.056146
  0
VERTEX
  8
PLAN_1
  6
CONTINUOUS
 10
-1.196075
 20
3.052217
  0
VERTEX
  8
PLAN_1
  6
CONTINUOUS
 10
-1.193890
 20
3.048724
  0
VERTEX
  8
PLAN_1
  6
CONTINUOUS
 10
-1.191709
 20
3.045669
  0
VERTEX
  8
PLAN_1
  6
CONTINUOUS
 10
-1.188654
 20
3.042614
  0
VERTEX
  8
PLAN_1
  6
CONTINUOUS
 10
-1.186031
 20
3.039996
  0
VERTEX
  8
PLAN_1
  6
CONTINUOUS
 10
-1.182539
 20
3.037374
  0
VERTEX
  8
PLAN_1
  6
CONTINUOUS
 10
-1.179047
 20
3.035193
  0
VERTEX
  8
PLAN_1
  6
CONTINUOUS
 10
-1.175555
 20
3.033445
  0
VERTEX
  8
PLAN_1
  6
CONTINUOUS
 10
-1.171626
 20
3.032138
  0
VERTEX
  8
PLAN_1
  6
CONTINUOUS
 10
-1.167260
 20
3.031264
  0
VERTEX
  8
PLAN_1
  6
CONTINUOUS
 10
-1.163331
 20
3.030390
  0
VERTEX
  8
PLAN_1
  6
CONTINUOUS
 10
-1.158969
 20
3.030390
  0
SEQEND
  8
0
  0
POLYLINE
  8
PLAN_1
  6
CONTINUOUS
 66
     1
 40
0.004362
 41
0.004362
  0
VERTEX
  8
PLAN_1
  6
CONTINUOUS
 10
-2.339819
 20
0.900059
  0
VERTEX
  8
PLAN_1
  6
CONTINUOUS
 10
-2.339819
 20
1.406886
  0
SEQEND
  8
0
  0
POLYLINE
  8
PLAN_1
  6
CONTINUOUS
 66
     1
 40
0.004362
 41
0.004362
  0
VERTEX
  8
PLAN_1
  6
CONTINUOUS
 10
-2.339819
 20
1.406886
  0
VERTEX
  8
PLAN_1
  6
CONTINUOUS
 10
-2.339382
 20
1.413433
  0
VERTEX
  8
PLAN_1
  6
CONTINUOUS
 10
-2.336760
 20
1.430024
  0
VERTEX
  8
PLAN_1
  6
CONTINUOUS
 10
-2.334142
 20
1.440937
  0
VERTEX
  8
PLAN_1
  6
CONTINUOUS
 10
-2.329776
 20
1.453157
  0
VERTEX
  8
PLAN_1
  6
CONTINUOUS
 10
-2.327157
 20
1.459709
  0
VERTEX
  8
PLAN_1
  6
CONTINUOUS
 10
-2.324102
 20
1.466256
  0
VERTEX
  8
PLAN_1
  6
CONTINUOUS
 10
-2.321047
 20
1.473240
  0
VERTEX
  8
PLAN_1
  6
CONTINUOUS
 10
-2.317118
 20
1.479787
  0
VERTEX
  8
PLAN_1
  6
CONTINUOUS
 10
-2.312315
 20
1.486772
  0
VERTEX
  8
PLAN_1
  6
CONTINUOUS
 10
-2.307512
 20
1.493756
  0
VERTEX
  8
PLAN_1
  6
CONTINUOUS
 10
-2.302276
 20
1.500307
  0
VERTEX
  8
PLAN_1
  6
CONTINUOUS
 10
-2.296161
 20
1.506854
  0
VERTEX
  8
PLAN_1
  6
CONTINUOUS
 10
-2.289177
 20
1.512965
  0
VERTEX
  8
PLAN_1
  6
CONTINUOUS
 10
-2.282193
 20
1.519079
  0
VERTEX
  8
PLAN_1
  6
CONTINUOUS
 10
-2.273898
 20
1.524752
  0
VERTEX
  8
PLAN_1
  6
CONTINUOUS
 10
-2.265169
 20
1.529992
  0
VERTEX
  8
PLAN_1
  6
CONTINUOUS
 10
-2.255563
 20
1.534791
  0
VERTEX
  8
PLAN_1
  6
CONTINUOUS
 10
-2.245524
 20
1.539594
  0
VERTEX
  8
PLAN_1
  6
CONTINUOUS
 10
-2.234610
 20
1.543087
  0
VERTEX
  8
PLAN_1
  6
CONTINUOUS
 10
-2.222823
 20
1.546579
  0
VERTEX
  8
PLAN_1
  6
CONTINUOUS
 10
-2.209728
 20
1.549197
  0
VERTEX
  8
PLAN_1
  6
CONTINUOUS
 10
-2.196193
 20
1.551382
  0
VERTEX
  8
PLAN_1
  6
CONTINUOUS
 10
-2.181787
 20
1.552256
  0
VERTEX
  8
PLAN_1
  6
CONTINUOUS
 10
-2.166508
 20
1.552693
  0
VERTEX
  8
PLAN_1
  6
CONTINUOUS
 10
-2.029000
 20
1.552693
  0
VERTEX
  8
PLAN_1
  6
CONTINUOUS
 10
-1.773185
 20
1.552693
  0
VERTEX
  8
PLAN_1
  6
CONTINUOUS
 10
-1.440972
 20
1.552693
  0
VERTEX
  8
PLAN_1
  6
CONTINUOUS
 10
-1.074280
 20
1.552693
  0
VERTEX
  8
PLAN_1
  6
CONTINUOUS
 10
-0.715874
 20
1.552693
  0
VERTEX
  8
PLAN_1
  6
CONTINUOUS
 10
-0.407240
 20
1.552693
  0
VERTEX
  8
PLAN_1
  6
CONTINUOUS
 10
-0.191150
 20
1.552693
  0
VERTEX
  8
PLAN_1
  6
CONTINUOUS
 10
-0.109953
 20
1.552693
  0
VERTEX
  8
PLAN_1
  6
CONTINUOUS
 10
-0.108209
 20
1.553126
  0
VERTEX
  8
PLAN_1
  6
CONTINUOUS
 10
-0.103406
 20
1.553126
  0
VERTEX
  8
PLAN_1
  6
CONTINUOUS
 10
-0.095984
 20
1.552693
  0
VERTEX
  8
PLAN_1
  6
CONTINUOUS
 10
-0.085945
 20
1.551382
  0
VERTEX
  8
PLAN_1
  6
CONTINUOUS
 10
-0.080268
 20
1.550508
  0
VERTEX
  8
PLAN_1
  6
CONTINUOUS
 10
-0.074594
 20
1.549197
  0
VERTEX
  8
PLAN_1
  6
CONTINUOUS
 10
-0.068043
 20
1.547453
  0
VERTEX
  8
PLAN_1
  6
CONTINUOUS
 10
-0.061496
 20
1.545705
  0
VERTEX
  8
PLAN_1
  6
CONTINUOUS
 10
-0.054949
 20
1.543087
  0
VERTEX
  8
PLAN_1
  6
CONTINUOUS
 10
-0.047965
 20
1.540031
  0
VERTEX
  8
PLAN_1
  6
CONTINUOUS
 10
-0.040543
 20
1.536976
  0
VERTEX
  8
PLAN_1
  6
CONTINUOUS
 10
-0.033559
 20
1.533047
  0
VERTEX
  8
PLAN_1
  6
CONTINUOUS
 10
-0.026575
 20
1.528244
  0
VERTEX
  8
PLAN_1
  6
CONTINUOUS
 10
-0.019154
 20
1.523008
  0
VERTEX
  8
PLAN_1
  6
CONTINUOUS
 10
-0.012169
 20
1.517331
  0
VERTEX
  8
PLAN_1
  6
CONTINUOUS
 10
-0.005618
 20
1.510783
  0
VERTEX
  8
PLAN_1
  6
CONTINUOUS
 10
0.000929
 20
1.503362
  0
VERTEX
  8
PLAN_1
  6
CONTINUOUS
 10
0.007476
 20
1.495504
  0
VERTEX
  8
PLAN_1
  6
CONTINUOUS
 10
0.013591
 20
1.486335
  0
VERTEX
  8
PLAN_1
  6
CONTINUOUS
 10
0.018827
 20
1.476732
  0
VERTEX
  8
PLAN_1
  6
CONTINUOUS
 10
0.024067
 20
1.465819
  0
VERTEX
  8
PLAN_1
  6
CONTINUOUS
 10
0.028866
 20
1.454469
  0
VERTEX
  8
PLAN_1
  6
CONTINUOUS
 10
0.032795
 20
1.441811
  0
VERTEX
  8
PLAN_1
  6
CONTINUOUS
 10
0.036287
 20
1.427839
  0
VERTEX
  8
PLAN_1
  6
CONTINUOUS
 10
0.038909
 20
1.412996
  0
VERTEX
  8
PLAN_1
  6
CONTINUOUS
 10
0.041091
 20
1.397283
  0
VERTEX
  8
PLAN_1
  6
CONTINUOUS
 10
0.042402
 20
1.380256
  0
VERTEX
  8
PLAN_1
  6
CONTINUOUS
 10
0.042839
 20
1.361921
  0
SEQEND
  8
0
  0
POLYLINE
  8
PLAN_1
  6
CONTINUOUS
 66
     1
 40
0.004362
 41
0.004362
  0
VERTEX
  8
PLAN_1
  6
CONTINUOUS
 10
0.042839
 20
1.361921
  0
VERTEX
  8
PLAN_1
  6
CONTINUOUS
 10
0.042839
 20
0.907917
  0
SEQEND
  8
0
  0
POLYLINE
  8
PLAN_1
  6
CONTINUOUS
 66
     1
 40
0.004362
 41
0.004362
  0
VERTEX
  8
PLAN_1
  6
CONTINUOUS
 10
-2.149921
 20
1.359740
  0
VERTEX
  8
PLAN_1
  6
CONTINUOUS
 10
-1.878390
 20
1.359740
  0
SEQEND
  8
0
  0
POLYLINE
  8
PLAN_1
  6
CONTINUOUS
 66
     1
 40
0.004362
 41
0.004362
  0
VERTEX
  8
PLAN_1
  6
CONTINUOUS
 10
-2.012846
 20
1.235323
  0
VERTEX
  8
PLAN_1
  6
CONTINUOUS
 10
-2.013283
 20
1.485028
  0
SEQEND
  8
0
  0
POLYLINE
  8
PLAN_1
  6
CONTINUOUS
 66
     1
 40
0.003000
 41
0.003000
  0
VERTEX
  8
PLAN_1
  6
CONTINUOUS
 10
-2.011972
 20
1.391606
  0
VERTEX
  8
PLAN_1
  6
CONTINUOUS
 10
-2.015465
 20
1.391606
  0
VERTEX
  8
PLAN_1
  6
CONTINUOUS
 10
-2.018520
 20
1.390732
  0
VERTEX
  8
PLAN_1
  6
CONTINUOUS
 10
-2.021579
 20
1.390295
  0
VERTEX
  8
PLAN_1
  6
CONTINUOUS
 10
-2.024634
 20
1.388988
  0
VERTEX
  8
PLAN_1
  6
CONTINUOUS
 10
-2.027252
 20
1.387677
  0
VERTEX
  8
PLAN_1
  6
CONTINUOUS
 10
-2.029870
 20
1.385933
  0
VERTEX
  8
PLAN_1
  6
CONTINUOUS
 10
-2.032492
 20
1.384185
  0
VERTEX
  8
PLAN_1
  6
CONTINUOUS
 10
-2.034673
 20
1.382441
  0
VERTEX
  8
PLAN_1
  6
CONTINUOUS
 10
-2.036854
 20
1.379819
  0
VERTEX
  8
PLAN_1
  6
CONTINUOUS
 10
-2.038602
 20
1.377638
  0
VERTEX
  8
PLAN_1
  6
CONTINUOUS
 10
-2.040350
 20
1.375020
  0
VERTEX
  8
PLAN_1
  6
CONTINUOUS
 10
-2.041657
 20
1.371961
  0
VERTEX
  8
PLAN_1
  6
CONTINUOUS
 10
-2.042531
 20
1.369343
  0
VERTEX
  8
PLAN_1
  6
CONTINUOUS
 10
-2.043406
 20
1.366287
  0
VERTEX
  8
PLAN_1
  6
CONTINUOUS
 10
-2.043843
 20
1.362795
  0
VERTEX
  8
PLAN_1
  6
CONTINUOUS
 10
-2.043843
 20
1.359740
  0
VERTEX
  8
PLAN_1
  6
CONTINUOUS
 10
-2.043843
 20
1.356248
  0
VERTEX
  8
PLAN_1
  6
CONTINUOUS
 10
-2.043406
 20
1.353189
  0
VERTEX
  8
PLAN_1
  6
CONTINUOUS
 10
-2.042531
 20
1.350134
  0
VERTEX
  8
PLAN_1
  6
CONTINUOUS
 10
-2.041657
 20
1.347079
  0
VERTEX
  8
PLAN_1
  6
CONTINUOUS
 10
-2.040350
 20
1.344461
  0
VERTEX
  8
PLAN_1
  6
CONTINUOUS
 10
-2.038602
 20
1.341843
  0
VERTEX
  8
PLAN_1
  6
CONTINUOUS
 10
-2.036854
 20
1.339220
  0
VERTEX
  8
PLAN_1
  6
CONTINUOUS
 10
-2.034673
 20
1.337039
  0
VERTEX
  8
PLAN_1
  6
CONTINUOUS
 10
-2.032492
 20
1.334854
  0
VERTEX
  8
PLAN_1
  6
CONTINUOUS
 10
-2.029870
 20
1.333110
  0
VERTEX
  8
PLAN_1
  6
CONTINUOUS
 10
-2.027252
 20
1.331799
  0
VERTEX
  8
PLAN_1
  6
CONTINUOUS
 10
-2.024634
 20
1.330055
  0
VERTEX
  8
PLAN_1
  6
CONTINUOUS
 10
-2.021579
 20
1.329181
  0
VERTEX
  8
PLAN_1
  6
CONTINUOUS
 10
-2.018520
 20
1.328307
  0
VERTEX
  8
PLAN_1
  6
CONTINUOUS
 10
-2.015465
 20
1.327870
  0
VERTEX
  8
PLAN_1
  6
CONTINUOUS
 10
-2.011972
 20
1.327870
  0
VERTEX
  8
PLAN_1
  6
CONTINUOUS
 10
-2.008917
 20
1.327870
  0
VERTEX
  8
PLAN_1
  6
CONTINUOUS
 10
-2.005862
 20
1.328307
  0
VERTEX
  8
PLAN_1
  6
CONTINUOUS
 10
-2.002807
 20
1.329181
  0
VERTEX
  8
PLAN_1
  6
CONTINUOUS
 10
-1.999748
 20
1.330055
  0
VERTEX
  8
PLAN_1
  6
CONTINUOUS
 10
-1.996693
 20
1.331799
  0
VERTEX
  8
PLAN_1
  6
CONTINUOUS
 10
-1.994075
 20
1.333110
  0
VERTEX
  8
PLAN_1
  6
CONTINUOUS
 10
-1.991894
 20
1.334854
  0
VERTEX
  8
PLAN_1
  6
CONTINUOUS
 10
-1.989709
 20
1.337039
  0
VERTEX
  8
PLAN_1
  6
CONTINUOUS
 10
-1.987528
 20
1.339220
  0
VERTEX
  8
PLAN_1
  6
CONTINUOUS
 10
-1.985780
 20
1.341843
  0
VERTEX
  8
PLAN_1
  6
CONTINUOUS
 10
-1.984035
 20
1.344461
  0
VERTEX
  8
PLAN_1
  6
CONTINUOUS
 10
-1.982724
 20
1.347079
  0
VERTEX
  8
PLAN_1
  6
CONTINUOUS
 10
-1.981850
 20
1.350134
  0
VERTEX
  8
PLAN_1
  6
CONTINUOUS
 10
-1.980980
 20
1.353189
  0
VERTEX
  8
PLAN_1
  6
CONTINUOUS
 10
-1.980543
 20
1.356248
  0
VERTEX
  8
PLAN_1
  6
CONTINUOUS
 10
-1.980106
 20
1.359740
  0
VERTEX
  8
PLAN_1
  6
CONTINUOUS
 10
-1.980543
 20
1.362795
  0
VERTEX
  8
PLAN_1
  6
CONTINUOUS
 10
-1.980980
 20
1.366287
  0
VERTEX
  8
PLAN_1
  6
CONTINUOUS
 10
-1.981850
 20
1.369343
  0
VERTEX
  8
PLAN_1
  6
CONTINUOUS
 10
-1.982724
 20
1.371961
  0
VERTEX
  8
PLAN_1
  6
CONTINUOUS
 10
-1.984035
 20
1.375020
  0
VERTEX
  8
PLAN_1
  6
CONTINUOUS
 10
-1.985780
 20
1.377638
  0
VERTEX
  8
PLAN_1
  6
CONTINUOUS
 10
-1.987528
 20
1.379819
  0
VERTEX
  8
PLAN_1
  6
CONTINUOUS
 10
-1.989709
 20
1.382441
  0
VERTEX
  8
PLAN_1
  6
CONTINUOUS
 10
-1.991894
 20
1.384185
  0
VERTEX
  8
PLAN_1
  6
CONTINUOUS
 10
-1.994075
 20
1.385933
  0
VERTEX
  8
PLAN_1
  6
CONTINUOUS
 10
-1.996693
 20
1.387677
  0
VERTEX
  8
PLAN_1
  6
CONTINUOUS
 10
-1.999748
 20
1.388988
  0
VERTEX
  8
PLAN_1
  6
CONTINUOUS
 10
-2.002807
 20
1.390295
  0
VERTEX
  8
PLAN_1
  6
CONTINUOUS
 10
-2.005862
 20
1.390732
  0
VERTEX
  8
PLAN_1
  6
CONTINUOUS
 10
-2.008917
 20
1.391606
  0
VERTEX
  8
PLAN_1
  6
CONTINUOUS
 10
-2.011972
 20
1.391606
  0
SEQEND
  8
0
  0
POLYLINE
  8
PLAN_1
  6
CONTINUOUS
 66
     1
 40
0.008291
 41
0.008291
  0
VERTEX
  8
PLAN_1
  6
CONTINUOUS
 10
-0.736831
 20
1.258024
  0
VERTEX
  8
PLAN_1
  6
CONTINUOUS
 10
-0.774374
 20
1.220480
  0
VERTEX
  8
PLAN_1
  6
CONTINUOUS
 10
-1.519114
 20
1.220480
  0
VERTEX
  8
PLAN_1
  6
CONTINUOUS
 10
-1.559276
 20
1.258024
  0
VERTEX
  8
PLAN_1
  6
CONTINUOUS
 10
-1.559276
 20
1.512528
  0
VERTEX
  8
PLAN_1
  6
CONTINUOUS
 10
-0.736831
 20
1.512528
  0
VERTEX
  8
PLAN_1
  6
CONTINUOUS
 10
-0.736831
 20
1.258024
  0
SEQEND
  8
0
  0
POLYLINE
  8
PLAN_1
  6
CONTINUOUS
 66
     1
 40
0.008291
 41
0.008291
  0
VERTEX
  8
PLAN_1
  6
CONTINUOUS
 10
-1.469350
 20
1.220480
  0
VERTEX
  8
PLAN_1
  6
CONTINUOUS
 10
-1.420894
 20
1.035823
  0
VERTEX
  8
PLAN_1
  6
CONTINUOUS
 10
-0.879142
 20
1.035823
  0
VERTEX
  8
PLAN_1
  6
CONTINUOUS
 10
-0.818465
 20
1.220480
  0
VERTEX
  8
PLAN_1
  6
CONTINUOUS
 10
-1.469350
 20
1.220480
  0
SEQEND
  8
0
  0
POLYLINE
  8
PLAN_1
  6
CONTINUOUS
 66
     1
 40
0.006984
 41
0.006984
  0
VERTEX
  8
PLAN_1
  6
CONTINUOUS
 10
-1.426130
 20
1.217862
  0
VERTEX
  8
PLAN_1
  6
CONTINUOUS
 10
-1.379421
 20
1.035823
  0
SEQEND
  8
0
  0
POLYLINE
  8
PLAN_1
  6
CONTINUOUS
 66
     1
 40
0.006984
 41
0.006984
  0
VERTEX
  8
PLAN_1
  6
CONTINUOUS
 10
-1.394701
 20
1.217862
  0
VERTEX
  8
PLAN_1
  6
CONTINUOUS
 10
-1.347992
 20
1.035823
  0
SEQEND
  8
0
  0
POLYLINE
  8
PLAN_1
  6
CONTINUOUS
 66
     1
 40
0.006984
 41
0.006984
  0
VERTEX
  8
PLAN_1
  6
CONTINUOUS
 10
-0.879142
 20
1.219610
  0
VERTEX
  8
PLAN_1
  6
CONTINUOUS
 10
-0.926291
 20
1.037571
  0
SEQEND
  8
0
  0
POLYLINE
  8
PLAN_1
  6
CONTINUOUS
 66
     1
 40
0.006984
 41
0.006984
  0
VERTEX
  8
PLAN_1
  6
CONTINUOUS
 10
-0.910575
 20
1.219610
  0
VERTEX
  8
PLAN_1
  6
CONTINUOUS
 10
-0.957283
 20
1.037571
  0
SEQEND
  8
0
  0
POLYLINE
  8
PLAN_1
  6
CONTINUOUS
 66
     1
 40
0.004362
 41
0.004362
  0
VERTEX
  8
PLAN_1
  6
CONTINUOUS
 10
-0.397197
 20
1.359740
  0
VERTEX
  8
PLAN_1
  6
CONTINUOUS
 10
-0.125669
 20
1.359740
  0
SEQEND
  8
0
  0
POLYLINE
  8
PLAN_1
  6
CONTINUOUS
 66
     1
 40
0.004362
 41
0.004362
  0
VERTEX
  8
PLAN_1
  6
CONTINUOUS
 10
-0.260559
 20
1.235323
  0
VERTEX
  8
PLAN_1
  6
CONTINUOUS
 10
-0.260996
 20
1.485028
  0
SEQEND
  8
0
  0
POLYLINE
  8
PLAN_1
  6
CONTINUOUS
 66
     1
 40
0.003000
 41
0.003000
  0
VERTEX
  8
PLAN_1
  6
CONTINUOUS
 10
-0.259689
 20
1.391606
  0
VERTEX
  8
PLAN_1
  6
CONTINUOUS
 10
-0.262744
 20
1.391606
  0
VERTEX
  8
PLAN_1
  6
CONTINUOUS
 10
-0.266236
 20
1.390732
  0
VERTEX
  8
PLAN_1
  6
CONTINUOUS
 10
-0.269291
 20
1.390295
  0
VERTEX
  8
PLAN_1
  6
CONTINUOUS
 10
-0.271909
 20
1.388988
  0
VERTEX
  8
PLAN_1
  6
CONTINUOUS
 10
-0.274969
 20
1.387677
  0
VERTEX
  8
PLAN_1
  6
CONTINUOUS
 10
-0.277587
 20
1.385933
  0
VERTEX
  8
PLAN_1
  6
CONTINUOUS
 10
-0.279768
 20
1.384185
  0
VERTEX
  8
PLAN_1
  6
CONTINUOUS
 10
-0.282390
 20
1.382441
  0
VERTEX
  8
PLAN_1
  6
CONTINUOUS
 10
-0.284134
 20
1.379819
  0
VERTEX
  8
PLAN_1
  6
CONTINUOUS
 10
-0.285882
 20
1.377638
  0
VERTEX
  8
PLAN_1
  6
CONTINUOUS
 10
-0.287626
 20
1.375020
  0
VERTEX
  8
PLAN_1
  6
CONTINUOUS
 10
-0.288937
 20
1.371961
  0
VERTEX
  8
PLAN_1
  6
CONTINUOUS
 10
-0.290244
 20
1.369343
  0
VERTEX
  8
PLAN_1
  6
CONTINUOUS
 10
-0.290681
 20
1.366287
  0
VERTEX
  8
PLAN_1
  6
CONTINUOUS
 10
-0.291555
 20
1.362795
  0
VERTEX
  8
PLAN_1
  6
CONTINUOUS
 10
-0.291555
 20
1.359740
  0
VERTEX
  8
PLAN_1
  6
CONTINUOUS
 10
-0.291555
 20
1.356248
  0
VERTEX
  8
PLAN_1
  6
CONTINUOUS
 10
-0.290681
 20
1.353189
  0
VERTEX
  8
PLAN_1
  6
CONTINUOUS
 10
-0.290244
 20
1.350134
  0
VERTEX
  8
PLAN_1
  6
CONTINUOUS
 10
-0.288937
 20
1.347079
  0
VERTEX
  8
PLAN_1
  6
CONTINUOUS
 10
-0.287626
 20
1.344461
  0
VERTEX
  8
PLAN_1
  6
CONTINUOUS
 10
-0.285882
 20
1.341843
  0
VERTEX
  8
PLAN_1
  6
CONTINUOUS
 10
-0.284134
 20
1.339220
  0
VERTEX
  8
PLAN_1
  6
CONTINUOUS
 10
-0.282390
 20
1.337039
  0
VERTEX
  8
PLAN_1
  6
CONTINUOUS
 10
-0.279768
 20
1.334854
  0
VERTEX
  8
PLAN_1
  6
CONTINUOUS
 10
-0.277587
 20
1.333110
  0
VERTEX
  8
PLAN_1
  6
CONTINUOUS
 10
-0.274969
 20
1.331799
  0
VERTEX
  8
PLAN_1
  6
CONTINUOUS
 10
-0.271909
 20
1.330055
  0
VERTEX
  8
PLAN_1
  6
CONTINUOUS
 10
-0.269291
 20
1.329181
  0
VERTEX
  8
PLAN_1
  6
CONTINUOUS
 10
-0.266236
 20
1.328307
  0
VERTEX
  8
PLAN_1
  6
CONTINUOUS
 10
-0.262744
 20
1.327870
  0
VERTEX
  8
PLAN_1
  6
CONTINUOUS
 10
-0.259689
 20
1.327870
  0
VERTEX
  8
PLAN_1
  6
CONTINUOUS
 10
-0.256197
 20
1.327870
  0
VERTEX
  8
PLAN_1
  6
CONTINUOUS
 10
-0.253138
 20
1.328307
  0
VERTEX
  8
PLAN_1
  6
CONTINUOUS
 10
-0.250083
 20
1.329181
  0
VERTEX
  8
PLAN_1
  6
CONTINUOUS
 10
-0.247028
 20
1.330055
  0
VERTEX
  8
PLAN_1
  6
CONTINUOUS
 10
-0.244409
 20
1.331799
  0
VERTEX
  8
PLAN_1
  6
CONTINUOUS
 10
-0.241787
 20
1.333110
  0
VERTEX
  8
PLAN_1
  6
CONTINUOUS
 10
-0.239169
 20
1.334854
  0
VERTEX
  8
PLAN_1
  6
CONTINUOUS
 10
-0.236988
 20
1.337039
  0
VERTEX
  8
PLAN_1
  6
CONTINUOUS
 10
-0.234803
 20
1.339220
  0
VERTEX
  8
PLAN_1
  6
CONTINUOUS
 10
-0.233059
 20
1.341843
  0
VERTEX
  8
PLAN_1
  6
CONTINUOUS
 10
-0.231748
 20
1.344461
  0
VERTEX
  8
PLAN_1
  6
CONTINUOUS
 10
-0.230004
 20
1.347079
  0
VERTEX
  8
PLAN_1
  6
CONTINUOUS
 10
-0.229130
 20
1.350134
  0
VERTEX
  8
PLAN_1
  6
CONTINUOUS
 10
-0.228256
 20
1.353189
  0
VERTEX
  8
PLAN_1
  6
CONTINUOUS
 10
-0.227819
 20
1.356248
  0
VERTEX
  8
PLAN_1
  6
CONTINUOUS
 10
-0.227819
 20
1.359740
  0
VERTEX
  8
PLAN_1
  6
CONTINUOUS
 10
-0.227819
 20
1.362795
  0
VERTEX
  8
PLAN_1
  6
CONTINUOUS
 10
-0.228256
 20
1.366287
  0
VERTEX
  8
PLAN_1
  6
CONTINUOUS
 10
-0.229130
 20
1.369343
  0
VERTEX
  8
PLAN_1
  6
CONTINUOUS
 10
-0.230004
 20
1.371961
  0
VERTEX
  8
PLAN_1
  6
CONTINUOUS
 10
-0.231748
 20
1.375020
  0
VERTEX
  8
PLAN_1
  6
CONTINUOUS
 10
-0.233059
 20
1.377638
  0
VERTEX
  8
PLAN_1
  6
CONTINUOUS
 10
-0.234803
 20
1.379819
  0
VERTEX
  8
PLAN_1
  6
CONTINUOUS
 10
-0.236988
 20
1.382441
  0
VERTEX
  8
PLAN_1
  6
CONTINUOUS
 10
-0.239169
 20
1.384185
  0
VERTEX
  8
PLAN_1
  6
CONTINUOUS
 10
-0.241787
 20
1.385933
  0
VERTEX
  8
PLAN_1
  6
CONTINUOUS
 10
-0.244409
 20
1.387677
  0
VERTEX
  8
PLAN_1
  6
CONTINUOUS
 10
-0.247028
 20
1.388988
  0
VERTEX
  8
PLAN_1
  6
CONTINUOUS
 10
-0.250083
 20
1.390295
  0
VERTEX
  8
PLAN_1
  6
CONTINUOUS
 10
-0.253138
 20
1.390732
  0
VERTEX
  8
PLAN_1
  6
CONTINUOUS
 10
-0.256197
 20
1.391606
  0
VERTEX
  8
PLAN_1
  6
CONTINUOUS
 10
-0.259689
 20
1.391606
  0
SEQEND
  8
0
  0
POLYLINE
  8
PLAN_1
  6
CONTINUOUS
 66
     1
 40
0.006984
 41
0.006984
  0
VERTEX
  8
PLAN_1
  6
CONTINUOUS
 10
-1.636110
 20
1.553126
  0
VERTEX
  8
PLAN_1
  6
CONTINUOUS
 10
-1.638728
 20
1.636071
  0
VERTEX
  8
PLAN_1
  6
CONTINUOUS
 10
-1.678016
 20
1.636071
  0
SEQEND
  8
0
  0
POLYLINE
  8
PLAN_1
  6
CONTINUOUS
 66
     1
 40
0.008291
 41
0.008291
  0
VERTEX
  8
PLAN_1
  6
CONTINUOUS
 10
-1.559276
 20
1.260642
  0
VERTEX
  8
PLAN_1
  6
CONTINUOUS
 10
-0.736831
 20
1.260642
  0
SEQEND
  8
0
  0
POLYLINE
  8
PLAN_1
  6
CONTINUOUS
 66
     1
 40
0.008291
 41
0.008291
  0
VERTEX
  8
PLAN_1
  6
CONTINUOUS
 10
-0.989154
 20
2.909031
  0
VERTEX
  8
PLAN_1
  6
CONTINUOUS
 10
-0.981295
 20
2.916890
  0
VERTEX
  8
PLAN_1
  6
CONTINUOUS
 10
-0.973874
 20
2.925622
  0
VERTEX
  8
PLAN_1
  6
CONTINUOUS
 10
-0.966890
 20
2.934787
  0
VERTEX
  8
PLAN_1
  6
CONTINUOUS
 10
-0.960339
 20
2.943957
  0
VERTEX
  8
PLAN_1
  6
CONTINUOUS
 10
-0.954228
 20
2.953559
  0
VERTEX
  8
PLAN_1
  6
CONTINUOUS
 10
-0.948555
 20
2.963161
  0
VERTEX
  8
PLAN_1
  6
CONTINUOUS
 10
-0.943315
 20
2.973642
  0
VERTEX
  8
PLAN_1
  6
CONTINUOUS
 10
-0.938512
 20
2.984118
  0
VERTEX
  8
PLAN_1
  6
CONTINUOUS
 10
-0.934146
 20
2.994594
  0
VERTEX
  8
PLAN_1
  6
CONTINUOUS
 10
-0.930654
 20
3.005508
  0
VERTEX
  8
PLAN_1
  6
CONTINUOUS
 10
-0.927598
 20
3.016858
  0
VERTEX
  8
PLAN_1
  6
CONTINUOUS
 10
-0.924980
 20
3.028209
  0
VERTEX
  8
PLAN_1
  6
CONTINUOUS
 10
-0.922795
 20
3.039996
  0
VERTEX
  8
PLAN_1
  6
CONTINUOUS
 10
-0.921051
 20
3.051780
  0
VERTEX
  8
PLAN_1
  6
CONTINUOUS
 10
-0.920177
 20
3.063567
  0
VERTEX
  8
PLAN_1
  6
CONTINUOUS
 10
-0.920177
 20
3.075791
  0
VERTEX
  8
PLAN_1
  6
CONTINUOUS
 10
-0.920177
 20
3.088016
  0
VERTEX
  8
PLAN_1
  6
CONTINUOUS
 10
-0.921051
 20
3.100236
  0
VERTEX
  8
PLAN_1
  6
CONTINUOUS
 10
-0.922795
 20
3.112024
  0
VERTEX
  8
PLAN_1
  6
CONTINUOUS
 10
-0.924980
 20
3.123374
  0
VERTEX
  8
PLAN_1
  6
CONTINUOUS
 10
-0.927598
 20
3.134724
  0
VERTEX
  8
PLAN_1
  6
CONTINUOUS
 10
-0.930654
 20
3.146075
  0
VERTEX
  8
PLAN_1
  6
CONTINUOUS
 10
-0.934146
 20
3.156988
  0
VERTEX
  8
PLAN_1
  6
CONTINUOUS
 10
-0.938512
 20
3.167902
  0
VERTEX
  8
PLAN_1
  6
CONTINUOUS
 10
-0.943315
 20
3.178378
  0
VERTEX
  8
PLAN_1
  6
CONTINUOUS
 10
-0.948555
 20
3.188421
  0
VERTEX
  8
PLAN_1
  6
CONTINUOUS
 10
-0.954228
 20
3.198461
  0
VERTEX
  8
PLAN_1
  6
CONTINUOUS
 10
-0.960339
 20
3.208063
  0
VERTEX
  8
PLAN_1
  6
CONTINUOUS
 10
-0.966890
 20
3.217232
  0
VERTEX
  8
PLAN_1
  6
CONTINUOUS
 10
-0.973874
 20
3.225961
  0
VERTEX
  8
PLAN_1
  6
CONTINUOUS
 10
-0.981295
 20
3.234693
  0
VERTEX
  8
PLAN_1
  6
CONTINUOUS
 10
-0.989154
 20
3.242988
  0
VERTEX
  8
PLAN_1
  6
CONTINUOUS
 10
-0.997445
 20
3.250846
  0
VERTEX
  8
PLAN_1
  6
CONTINUOUS
 10
-1.006177
 20
3.258268
  0
VERTEX
  8
PLAN_1
  6
CONTINUOUS
 10
-1.014909
 20
3.265252
  0
VERTEX
  8
PLAN_1
  6
CONTINUOUS
 10
-1.024075
 20
3.271799
  0
VERTEX
  8
PLAN_1
  6
CONTINUOUS
 10
-1.033681
 20
3.277909
  0
VERTEX
  8
PLAN_1
  6
CONTINUOUS
 10
-1.043720
 20
3.283587
  0
VERTEX
  8
PLAN_1
  6
CONTINUOUS
 10
-1.053760
 20
3.288823
  0
VERTEX
  8
PLAN_1
  6
CONTINUOUS
 10
-1.064236
 20
3.293626
  0
VERTEX
  8
PLAN_1
  6
CONTINUOUS
 10
-1.075150
 20
3.297555
  0
VERTEX
  8
PLAN_1
  6
CONTINUOUS
 10
-1.086063
 20
3.301484
  0
VERTEX
  8
PLAN_1
  6
CONTINUOUS
 10
-1.096976
 20
3.304539
  0
VERTEX
  8
PLAN_1
  6
CONTINUOUS
 10
-1.108764
 20
3.307157
  0
VERTEX
  8
PLAN_1
  6
CONTINUOUS
 10
-1.120114
 20
3.309343
  0
VERTEX
  8
PLAN_1
  6
CONTINUOUS
 10
-1.131902
 20
3.311087
  0
VERTEX
  8
PLAN_1
  6
CONTINUOUS
 10
-1.144126
 20
3.311961
  0
VERTEX
  8
PLAN_1
  6
CONTINUOUS
 10
-1.156346
 20
3.311961
  0
VERTEX
  8
PLAN_1
  6
CONTINUOUS
 10
-1.168571
 20
3.311961
  0
VERTEX
  8
PLAN_1
  6
CONTINUOUS
 10
-1.180358
 20
3.311087
  0
VERTEX
  8
PLAN_1
  6
CONTINUOUS
 10
-1.192146
 20
3.309343
  0
VERTEX
  8
PLAN_1
  6
CONTINUOUS
 10
-1.203933
 20
3.307157
  0
VERTEX
  8
PLAN_1
  6
CONTINUOUS
 10
-1.215280
 20
3.304539
  0
VERTEX
  8
PLAN_1
  6
CONTINUOUS
 10
-1.226630
 20
3.301484
  0
VERTEX
  8
PLAN_1
  6
CONTINUOUS
 10
-1.237543
 20
3.297555
  0
VERTEX
  8
PLAN_1
  6
CONTINUOUS
 10
-1.248024
 20
3.293626
  0
VERTEX
  8
PLAN_1
  6
CONTINUOUS
 10
-1.258500
 20
3.288823
  0
VERTEX
  8
PLAN_1
  6
CONTINUOUS
 10
-1.268976
 20
3.283587
  0
VERTEX
  8
PLAN_1
  6
CONTINUOUS
 10
-1.278579
 20
3.277909
  0
VERTEX
  8
PLAN_1
  6
CONTINUOUS
 10
-1.288185
 20
3.271799
  0
VERTEX
  8
PLAN_1
  6
CONTINUOUS
 10
-1.297350
 20
3.265252
  0
VERTEX
  8
PLAN_1
  6
CONTINUOUS
 10
-1.306520
 20
3.258268
  0
VERTEX
  8
PLAN_1
  6
CONTINUOUS
 10
-1.314815
 20
3.250846
  0
VERTEX
  8
PLAN_1
  6
CONTINUOUS
 10
-1.323106
 20
3.242988
  0
VERTEX
  8
PLAN_1
  6
CONTINUOUS
 10
-1.330965
 20
3.234693
  0
VERTEX
  8
PLAN_1
  6
CONTINUOUS
 10
-1.338386
 20
3.225961
  0
VERTEX
  8
PLAN_1
  6
CONTINUOUS
 10
-1.345370
 20
3.217232
  0
VERTEX
  8
PLAN_1
  6
CONTINUOUS
 10
-1.351921
 20
3.208063
  0
VERTEX
  8
PLAN_1
  6
CONTINUOUS
 10
-1.358031
 20
3.198461
  0
VERTEX
  8
PLAN_1
  6
CONTINUOUS
 10
-1.363705
 20
3.188421
  0
VERTEX
  8
PLAN_1
  6
CONTINUOUS
 10
-1.368945
 20
3.178378
  0
VERTEX
  8
PLAN_1
  6
CONTINUOUS
 10
-1.373748
 20
3.167902
  0
VERTEX
  8
PLAN_1
  6
CONTINUOUS
 10
-1.378110
 20
3.156988
  0
VERTEX
  8
PLAN_1
  6
CONTINUOUS
 10
-1.381602
 20
3.146075
  0
VERTEX
  8
PLAN_1
  6
CONTINUOUS
 10
-1.385098
 20
3.134724
  0
VERTEX
  8
PLAN_1
  6
CONTINUOUS
 10
-1.387717
 20
3.123374
  0
VERTEX
  8
PLAN_1
  6
CONTINUOUS
 10
-1.389461
 20
3.112024
  0
VERTEX
  8
PLAN_1
  6
CONTINUOUS
 10
-1.391209
 20
3.100236
  0
VERTEX
  8
PLAN_1
  6
CONTINUOUS
 10
-1.392083
 20
3.088016
  0
VERTEX
  8
PLAN_1
  6
CONTINUOUS
 10
-1.392520
 20
3.075791
  0
VERTEX
  8
PLAN_1
  6
CONTINUOUS
 10
-1.392083
 20
3.064004
  0
VERTEX
  8
PLAN_1
  6
CONTINUOUS
 10
-1.391209
 20
3.051780
  0
VERTEX
  8
PLAN_1
  6
CONTINUOUS
 10
-1.389898
 20
3.039996
  0
VERTEX
  8
PLAN_1
  6
CONTINUOUS
 10
-1.387717
 20
3.028646
  0
VERTEX
  8
PLAN_1
  6
CONTINUOUS
 10
-1.385098
 20
3.017295
  0
VERTEX
  8
PLAN_1
  6
CONTINUOUS
 10
-1.382039
 20
3.005945
  0
VERTEX
  8
PLAN_1
  6
CONTINUOUS
 10
-1.378110
 20
2.995031
  0
VERTEX
  8
PLAN_1
  6
CONTINUOUS
 10
-1.374185
 20
2.984555
  0
VERTEX
  8
PLAN_1
  6
CONTINUOUS
 10
-1.369382
 20
2.974075
  0
VERTEX
  8
PLAN_1
  6
CONTINUOUS
 10
-1.364142
 20
2.963598
  0
VERTEX
  8
PLAN_1
  6
CONTINUOUS
 10
-1.358469
 20
2.953996
  0
VERTEX
  8
PLAN_1
  6
CONTINUOUS
 10
-1.352354
 20
2.944394
  0
VERTEX
  8
PLAN_1
  6
CONTINUOUS
 10
-1.345807
 20
2.935224
  0
VERTEX
  8
PLAN_1
  6
CONTINUOUS
 10
-1.338823
 20
2.926055
  0
VERTEX
  8
PLAN_1
  6
CONTINUOUS
 10
-1.331402
 20
2.917764
  0
VERTEX
  8
PLAN_1
  6
CONTINUOUS
 10
-1.323980
 20
2.909469
  0
SEQEND
  8
0
  0
POLYLINE
  8
PLAN_1
  6
CONTINUOUS
 66
     1
 40
0.008291
 41
0.008291
  0
VERTEX
  8
PLAN_1
  6
CONTINUOUS
 10
-0.752110
 20
2.125000
  0
VERTEX
  8
PLAN_1
  6
CONTINUOUS
 10
-0.752110
 20
2.165161
  0
VERTEX
  8
PLAN_1
  6
CONTINUOUS
 10
-0.801874
 20
2.367717
  0
SEQEND
  8
0
  0
POLYLINE
  8
PLAN_1
  6
CONTINUOUS
 66
     1
 40
0.008291
 41
0.008291
  0
VERTEX
  8
PLAN_1
  6
CONTINUOUS
 10
-0.801874
 20
2.367717
  0
VERTEX
  8
PLAN_1
  6
CONTINUOUS
 10
-0.802311
 20
2.371209
  0
VERTEX
  8
PLAN_1
  6
CONTINUOUS
 10
-0.802748
 20
2.374268
  0
VERTEX
  8
PLAN_1
  6
CONTINUOUS
 10
-0.803622
 20
2.377760
  0
VERTEX
  8
PLAN_1
  6
CONTINUOUS
 10
-0.804492
 20
2.380815
  0
VERTEX
  8
PLAN_1
  6
CONTINUOUS
 10
-0.806240
 20
2.383433
  0
VERTEX
  8
PLAN_1
  6
CONTINUOUS
 10
-0.807984
 20
2.386051
  0
VERTEX
  8
PLAN_1
  6
CONTINUOUS
 10
-0.809732
 20
2.388673
  0
VERTEX
  8
PLAN_1
  6
CONTINUOUS
 10
-0.811913
 20
2.390854
  0
VERTEX
  8
PLAN_1
  6
CONTINUOUS
 10
-0.814098
 20
2.393035
  0
VERTEX
  8
PLAN_1
  6
CONTINUOUS
 10
-0.816717
 20
2.394783
  0
VERTEX
  8
PLAN_1
  6
CONTINUOUS
 10
-0.819772
 20
2.396531
  0
VERTEX
  8
PLAN_1
  6
CONTINUOUS
 10
-0.822827
 20
2.397839
  0
VERTEX
  8
PLAN_1
  6
CONTINUOUS
 10
-0.825886
 20
2.398713
  0
VERTEX
  8
PLAN_1
  6
CONTINUOUS
 10
-0.828941
 20
2.399587
  0
VERTEX
  8
PLAN_1
  6
CONTINUOUS
 10
-0.832433
 20
2.400024
  0
VERTEX
  8
PLAN_1
  6
CONTINUOUS
 10
-0.835925
 20
2.400024
  0
SEQEND
  8
0
  0
POLYLINE
  8
PLAN_1
  6
CONTINUOUS
 66
     1
 40
0.008291
 41
0.008291
  0
VERTEX
  8
PLAN_1
  6
CONTINUOUS
 10
-0.835925
 20
2.400024
  0
VERTEX
  8
PLAN_1
  6
CONTINUOUS
 10
-1.455382
 20
2.400024
  0
SEQEND
  8
0
  0
POLYLINE
  8
PLAN_1
  6
CONTINUOUS
 66
     1
 40
0.008291
 41
0.008291
  0
VERTEX
  8
PLAN_1
  6
CONTINUOUS
 10
-1.455382
 20
2.400024
  0
VERTEX
  8
PLAN_1
  6
CONTINUOUS
 10
-1.461055
 20
2.399587
  0
VERTEX
  8
PLAN_1
  6
CONTINUOUS
 10
-1.466295
 20
2.398713
  0
VERTEX
  8
PLAN_1
  6
CONTINUOUS
 10
-1.471094
 20
2.396965
  0
VERTEX
  8
PLAN_1
  6
CONTINUOUS
 10
-1.475461
 20
2.394346
  0
VERTEX
  8
PLAN_1
  6
CONTINUOUS
 10
-1.479390
 20
2.390854
  0
VERTEX
  8
PLAN_1
  6
CONTINUOUS
 10
-1.482882
 20
2.387362
  0
VERTEX
  8
PLAN_1
  6
CONTINUOUS
 10
-1.485500
 20
2.382996
  0
VERTEX
  8
PLAN_1
  6
CONTINUOUS
 10
-1.487685
 20
2.378193
  0
SEQEND
  8
0
  0
POLYLINE
  8
PLAN_1
  6
CONTINUOUS
 66
     1
 40
0.008291
 41
0.008291
  0
VERTEX
  8
PLAN_1
  6
CONTINUOUS
 10
-1.487685
 20
2.378193
  0
VERTEX
  8
PLAN_1
  6
CONTINUOUS
 10
-1.537449
 20
2.165161
  0
VERTEX
  8
PLAN_1
  6
CONTINUOUS
 10
-1.538760
 20
2.125874
  0
SEQEND
  8
0
  0
POLYLINE
  8
PLAN_1
 62
     2
  6
CONTINUOUS
 66
     1
 40
0.004362
 41
0.004362
  0
VERTEX
  8
PLAN_1
 62
     2
  6
CONTINUOUS
 10
0.199992
 20
1.389862
  0
VERTEX
  8
PLAN_1
 62
     2
  6
CONTINUOUS
 10
0.199992
 20
3.279220
  0
SEQEND
  8
0
  0
SOLID
  8
PLAN_1
 62
     2
 10
0.199992
 20
3.308906
 11
0.184276
 21
3.249535
 12
0.199992
 22
3.308906
 13
0.215709
 23
3.249535
  0
POLYLINE
  8
PLAN_1
 62
     2
  6
CONTINUOUS
 66
     1
 40
0.003000
 41
0.003000
  0
VERTEX
  8
PLAN_1
 62
     2
  6
CONTINUOUS
 10
0.199992
 20
3.308906
  0
VERTEX
  8
PLAN_1
 62
     2
  6
CONTINUOUS
 10
0.184276
 20
3.249535
  0
VERTEX
  8
PLAN_1
 62
     2
  6
CONTINUOUS
 10
0.215709
 20
3.249535
  0
VERTEX
  8
PLAN_1
 62
     2
  6
CONTINUOUS
 10
0.199992
 20
3.308906
  0
SEQEND
  8
0
  0
SOLID
  8
PLAN_1
 62
     2
 10
0.199992
 20
1.360177
 11
0.184276
 21
1.419110
 12
0.199992
 22
1.360177
 13
0.215709
 23
1.419110
  0
POLYLINE
  8
PLAN_1
 62
     2
  6
CONTINUOUS
 66
     1
 40
0.003000
 41
0.003000
  0
VERTEX
  8
PLAN_1
 62
     2
  6
CONTINUOUS
 10
0.199992
 20
1.360177
  0
VERTEX
  8
PLAN_1
 62
     2
  6
CONTINUOUS
 10
0.184276
 20
1.419110
  0
VERTEX
  8
PLAN_1
 62
     2
  6
CONTINUOUS
 10
0.215709
 20
1.419110
  0
VERTEX
  8
PLAN_1
 62
     2
  6
CONTINUOUS
 10
0.199992
 20
1.360177
  0
SEQEND
  8
0
  0
POLYLINE
  8
PLAN_1
 62
     2
  6
CONTINUOUS
 66
     1
 40
0.003000
 41
0.003000
  0
VERTEX
  8
PLAN_1
 62
     2
  6
CONTINUOUS
 10
0.158520
 20
2.320134
  0
VERTEX
  8
PLAN_1
 62
     2
  6
CONTINUOUS
 10
0.176421
 20
2.320134
  0
VERTEX
  8
PLAN_1
 62
     2
  6
CONTINUOUS
 10
0.176421
 20
2.310969
  0
VERTEX
  8
PLAN_1
 62
     2
  6
CONTINUOUS
 10
0.158520
 20
2.310969
  0
VERTEX
  8
PLAN_1
 62
     2
  6
CONTINUOUS
 10
0.158520
 20
2.279098
  0
VERTEX
  8
PLAN_1
 62
     2
  6
CONTINUOUS
 10
0.149791
 20
2.279098
  0
VERTEX
  8
PLAN_1
 62
     2
  6
CONTINUOUS
 10
0.103516
 20
2.312713
  0
VERTEX
  8
PLAN_1
 62
     2
  6
CONTINUOUS
 10
0.103516
 20
2.320134
  0
VERTEX
  8
PLAN_1
 62
     2
  6
CONTINUOUS
 10
0.150661
 20
2.320134
  0
VERTEX
  8
PLAN_1
 62
     2
  6
CONTINUOUS
 10
0.150661
 20
2.331047
  0
VERTEX
  8
PLAN_1
 62
     2
  6
CONTINUOUS
 10
0.158520
 20
2.331047
  0
VERTEX
  8
PLAN_1
 62
     2
  6
CONTINUOUS
 10
0.158520
 20
2.320134
  0
SEQEND
  8
0
  0
SOLID
  8
PLAN_1
 62
     2
 10
0.150661
 20
2.287394
 11
0.150661
 21
2.310969
 12
0.150661
 22
2.287394
 13
0.117484
 23
2.310969
  0
POLYLINE
  8
PLAN_1
 62
     2
  6
CONTINUOUS
 66
     1
 40
0.003000
 41
0.003000
  0
VERTEX
  8
PLAN_1
 62
     2
  6
CONTINUOUS
 10
0.150661
 20
2.287394
  0
VERTEX
  8
PLAN_1
 62
     2
  6
CONTINUOUS
 10
0.150661
 20
2.310969
  0
VERTEX
  8
PLAN_1
 62
     2
  6
CONTINUOUS
 10
0.117484
 20
2.310969
  0
VERTEX
  8
PLAN_1
 62
     2
  6
CONTINUOUS
 10
0.150661
 20
2.287394
  0
SEQEND
  8
0
  0
POLYLINE
  8
PLAN_1
 62
     2
  6
CONTINUOUS
 66
     1
 40
0.003000
 41
0.003000
  0
VERTEX
  8
PLAN_1
 62
     2
  6
CONTINUOUS
 10
0.137567
 20
2.376449
  0
VERTEX
  8
PLAN_1
 62
     2
  6
CONTINUOUS
 10
0.139315
 20
2.379504
  0
VERTEX
  8
PLAN_1
 62
     2
  6
CONTINUOUS
 10
0.141496
 20
2.382122
  0
VERTEX
  8
PLAN_1
 62
     2
  6
CONTINUOUS
 10
0.143677
 20
2.384307
  0
VERTEX
  8
PLAN_1
 62
     2
  6
CONTINUOUS
 10
0.145862
 20
2.386051
  0
VERTEX
  8
PLAN_1
 62
     2
  6
CONTINUOUS
 10
0.148480
 20
2.386925
  0
VERTEX
  8
PLAN_1
 62
     2
  6
CONTINUOUS
 10
0.150661
 20
2.387799
  0
VERTEX
  8
PLAN_1
 62
     2
  6
CONTINUOUS
 10
0.153283
 20
2.388236
  0
VERTEX
  8
PLAN_1
 62
     2
  6
CONTINUOUS
 10
0.155465
 20
2.388236
  0
VERTEX
  8
PLAN_1
 62
     2
  6
CONTINUOUS
 10
0.159831
 20
2.387799
  0
VERTEX
  8
PLAN_1
 62
     2
  6
CONTINUOUS
 10
0.163760
 20
2.386925
  0
VERTEX
  8
PLAN_1
 62
     2
  6
CONTINUOUS
 10
0.165941
 20
2.386051
  0
VERTEX
  8
PLAN_1
 62
     2
  6
CONTINUOUS
 10
0.167689
 20
2.385181
  0
VERTEX
  8
PLAN_1
 62
     2
  6
CONTINUOUS
 10
0.169433
 20
2.383870
  0
VERTEX
  8
PLAN_1
 62
     2
  6
CONTINUOUS
 10
0.171181
 20
2.382559
  0
VERTEX
  8
PLAN_1
 62
     2
  6
CONTINUOUS
 10
0.172925
 20
2.380815
  0
VERTEX
  8
PLAN_1
 62
     2
  6
CONTINUOUS
 10
0.174236
 20
2.379067
  0
VERTEX
  8
PLAN_1
 62
     2
  6
CONTINUOUS
 10
0.175547
 20
2.376886
  0
VERTEX
  8
PLAN_1
 62
     2
  6
CONTINUOUS
 10
0.176421
 20
2.374701
  0
VERTEX
  8
PLAN_1
 62
     2
  6
CONTINUOUS
 10
0.177291
 20
2.372083
  0
VERTEX
  8
PLAN_1
 62
     2
  6
CONTINUOUS
 10
0.177728
 20
2.369465
  0
VERTEX
  8
PLAN_1
 62
     2
  6
CONTINUOUS
 10
0.178165
 20
2.366409
  0
VERTEX
  8
PLAN_1
 62
     2
  6
CONTINUOUS
 10
0.178602
 20
2.363354
  0
VERTEX
  8
PLAN_1
 62
     2
  6
CONTINUOUS
 10
0.178165
 20
2.361606
  0
VERTEX
  8
PLAN_1
 62
     2
  6
CONTINUOUS
 10
0.178165
 20
2.359858
  0
VERTEX
  8
PLAN_1
 62
     2
  6
CONTINUOUS
 10
0.177728
 20
2.357677
  0
VERTEX
  8
PLAN_1
 62
     2
  6
CONTINUOUS
 10
0.177291
 20
2.355496
  0
VERTEX
  8
PLAN_1
 62
     2
  6
CONTINUOUS
 10
0.176421
 20
2.352874
  0
VERTEX
  8
PLAN_1
 62
     2
  6
CONTINUOUS
 10
0.175547
 20
2.350693
  0
VERTEX
  8
PLAN_1
 62
     2
  6
CONTINUOUS
 10
0.174236
 20
2.348075
  0
VERTEX
  8
PLAN_1
 62
     2
  6
CONTINUOUS
 10
0.172925
 20
2.345890
  0
VERTEX
  8
PLAN_1
 62
     2
  6
CONTINUOUS
 10
0.170307
 20
2.343272
  0
VERTEX
  8
PLAN_1
 62
     2
  6
CONTINUOUS
 10
0.168126
 20
2.341524
  0
VERTEX
  8
PLAN_1
 62
     2
  6
CONTINUOUS
 10
0.165504
 20
2.340217
  0
VERTEX
  8
PLAN_1
 62
     2
  6
CONTINUOUS
 10
0.163323
 20
2.339343
  0
VERTEX
  8
PLAN_1
 62
     2
  6
CONTINUOUS
 10
0.161142
 20
2.338906
  0
VERTEX
  8
PLAN_1
 62
     2
  6
CONTINUOUS
 10
0.158957
 20
2.338469
  0
VERTEX
  8
PLAN_1
 62
     2
  6
CONTINUOUS
 10
0.156776
 20
2.338469
  0
VERTEX
  8
PLAN_1
 62
     2
  6
CONTINUOUS
 10
0.155465
 20
2.338469
  0
VERTEX
  8
PLAN_1
 62
     2
  6
CONTINUOUS
 10
0.152409
 20
2.338469
  0
VERTEX
  8
PLAN_1
 62
     2
  6
CONTINUOUS
 10
0.149354
 20
2.339343
  0
VERTEX
  8
PLAN_1
 62
     2
  6
CONTINUOUS
 10
0.146736
 20
2.340217
  0
VERTEX
  8
PLAN_1
 62
     2
  6
CONTINUOUS
 10
0.144551
 20
2.341524
  0
VERTEX
  8
PLAN_1
 62
     2
  6
CONTINUOUS
 10
0.142370
 20
2.343709
  0
VERTEX
  8
PLAN_1
 62
     2
  6
CONTINUOUS
 10
0.140622
 20
2.345453
  0
VERTEX
  8
PLAN_1
 62
     2
  6
CONTINUOUS
 10
0.138878
 20
2.348075
  0
VERTEX
  8
PLAN_1
 62
     2
  6
CONTINUOUS
 10
0.137567
 20
2.350693
  0
VERTEX
  8
PLAN_1
 62
     2
  6
CONTINUOUS
 10
0.136693
 20
2.348512
  0
VERTEX
  8
PLAN_1
 62
     2
  6
CONTINUOUS
 10
0.135386
 20
2.346764
  0
VERTEX
  8
PLAN_1
 62
     2
  6
CONTINUOUS
 10
0.134075
 20
2.345016
  0
VERTEX
  8
PLAN_1
 62
     2
  6
CONTINUOUS
 10
0.132327
 20
2.343709
  0
VERTEX
  8
PLAN_1
 62
     2
  6
CONTINUOUS
 10
0.130146
 20
2.342398
  0
VERTEX
  8
PLAN_1
 62
     2
  6
CONTINUOUS
 10
0.127965
 20
2.341524
  0
VERTEX
  8
PLAN_1
 62
     2
  6
CONTINUOUS
 10
0.125780
 20
2.341091
  0
VERTEX
  8
PLAN_1
 62
     2
  6
CONTINUOUS
 10
0.123598
 20
2.341091
  0
VERTEX
  8
PLAN_1
 62
     2
  6
CONTINUOUS
 10
0.120543
 20
2.341091
  0
VERTEX
  8
PLAN_1
 62
     2
  6
CONTINUOUS
 10
0.117051
 20
2.341961
  0
VERTEX
  8
PLAN_1
 62
     2
  6
CONTINUOUS
 10
0.113559
 20
2.343272
  0
VERTEX
  8
PLAN_1
 62
     2
  6
CONTINUOUS
 10
0.110500
 20
2.345453
  0
VERTEX
  8
PLAN_1
 62
     2
  6
CONTINUOUS
 10
0.109193
 20
2.346764
  0
VERTEX
  8
PLAN_1
 62
     2
  6
CONTINUOUS
 10
0.107445
 20
2.348512
  0
VERTEX
  8
PLAN_1
 62
     2
  6
CONTINUOUS
 10
0.106571
 20
2.350256
  0
VERTEX
  8
PLAN_1
 62
     2
  6
CONTINUOUS
 10
0.105264
 20
2.352437
  0
VERTEX
  8
PLAN_1
 62
     2
  6
CONTINUOUS
 10
0.104390
 20
2.354622
  0
VERTEX
  8
PLAN_1
 62
     2
  6
CONTINUOUS
 10
0.103953
 20
2.357240
  0
VERTEX
  8
PLAN_1
 62
     2
  6
CONTINUOUS
 10
0.103516
 20
2.359858
  0
VERTEX
  8
PLAN_1
 62
     2
  6
CONTINUOUS
 10
0.103516
 20
2.362917
  0
VERTEX
  8
PLAN_1
 62
     2
  6
CONTINUOUS
 10
0.103516
 20
2.365972
  0
VERTEX
  8
PLAN_1
 62
     2
  6
CONTINUOUS
 10
0.103953
 20
2.368591
  0
VERTEX
  8
PLAN_1
 62
     2
  6
CONTINUOUS
 10
0.104390
 20
2.371209
  0
VERTEX
  8
PLAN_1
 62
     2
  6
CONTINUOUS
 10
0.105264
 20
2.373394
  0
VERTEX
  8
PLAN_1
 62
     2
  6
CONTINUOUS
 10
0.106138
 20
2.375575
  0
VERTEX
  8
PLAN_1
 62
     2
  6
CONTINUOUS
 10
0.107008
 20
2.377323
  0
VERTEX
  8
PLAN_1
 62
     2
  6
CONTINUOUS
 10
0.108319
 20
2.379067
  0
VERTEX
  8
PLAN_1
 62
     2
  6
CONTINUOUS
 10
0.109630
 20
2.380378
  0
VERTEX
  8
PLAN_1
 62
     2
  6
CONTINUOUS
 10
0.112248
 20
2.382996
  0
VERTEX
  8
PLAN_1
 62
     2
  6
CONTINUOUS
 10
0.115740
 20
2.384307
  0
VERTEX
  8
PLAN_1
 62
     2
  6
CONTINUOUS
 10
0.118795
 20
2.385181
  0
VERTEX
  8
PLAN_1
 62
     2
  6
CONTINUOUS
 10
0.122287
 20
2.385614
  0
VERTEX
  8
PLAN_1
 62
     2
  6
CONTINUOUS
 10
0.125780
 20
2.385181
  0
VERTEX
  8
PLAN_1
 62
     2
  6
CONTINUOUS
 10
0.128835
 20
2.384744
  0
VERTEX
  8
PLAN_1
 62
     2
  6
CONTINUOUS
 10
0.131020
 20
2.383433
  0
VERTEX
  8
PLAN_1
 62
     2
  6
CONTINUOUS
 10
0.133201
 20
2.382122
  0
VERTEX
  8
PLAN_1
 62
     2
  6
CONTINUOUS
 10
0.134512
 20
2.380815
  0
VERTEX
  8
PLAN_1
 62
     2
  6
CONTINUOUS
 10
0.135819
 20
2.379067
  0
VERTEX
  8
PLAN_1
 62
     2
  6
CONTINUOUS
 10
0.136693
 20
2.377760
  0
VERTEX
  8
PLAN_1
 62
     2
  6
CONTINUOUS
 10
0.137567
 20
2.376449
  0
SEQEND
  8
0
  0
POLYLINE
  8
PLAN_1
 62
     2
  6
CONTINUOUS
 66
     1
 40
0.003000
 41
0.003000
  0
VERTEX
  8
PLAN_1
 62
     2
  6
CONTINUOUS
 10
0.155465
 20
2.348075
  0
VERTEX
  8
PLAN_1
 62
     2
  6
CONTINUOUS
 10
0.158083
 20
2.348512
  0
VERTEX
  8
PLAN_1
 62
     2
  6
CONTINUOUS
 10
0.160268
 20
2.348945
  0
VERTEX
  8
PLAN_1
 62
     2
  6
CONTINUOUS
 10
0.162886
 20
2.349819
  0
VERTEX
  8
PLAN_1
 62
     2
  6
CONTINUOUS
 10
0.165071
 20
2.351130
  0
VERTEX
  8
PLAN_1
 62
     2
  6
CONTINUOUS
 10
0.167252
 20
2.353311
  0
VERTEX
  8
PLAN_1
 62
     2
  6
CONTINUOUS
 10
0.168563
 20
2.355933
  0
VERTEX
  8
PLAN_1
 62
     2
  6
CONTINUOUS
 10
0.169870
 20
2.359425
  0
VERTEX
  8
PLAN_1
 62
     2
  6
CONTINUOUS
 10
0.170307
 20
2.363787
  0
VERTEX
  8
PLAN_1
 62
     2
  6
CONTINUOUS
 10
0.169870
 20
2.366409
  0
VERTEX
  8
PLAN_1
 62
     2
  6
CONTINUOUS
 10
0.169870
 20
2.369028
  0
VERTEX
  8
PLAN_1
 62
     2
  6
CONTINUOUS
 10
0.169000
 20
2.371209
  0
VERTEX
  8
PLAN_1
 62
     2
  6
CONTINUOUS
 10
0.167689
 20
2.373831
  0
VERTEX
  8
PLAN_1
 62
     2
  6
CONTINUOUS
 10
0.165941
 20
2.375575
  0
VERTEX
  8
PLAN_1
 62
     2
  6
CONTINUOUS
 10
0.163323
 20
2.377323
  0
VERTEX
  8
PLAN_1
 62
     2
  6
CONTINUOUS
 10
0.160268
 20
2.378193
  0
VERTEX
  8
PLAN_1
 62
     2
  6
CONTINUOUS
 10
0.156339
 20
2.378630
  0
VERTEX
  8
PLAN_1
 62
     2
  6
CONTINUOUS
 10
0.152846
 20
2.378193
  0
VERTEX
  8
PLAN_1
 62
     2
  6
CONTINUOUS
 10
0.149791
 20
2.377323
  0
VERTEX
  8
PLAN_1
 62
     2
  6
CONTINUOUS
 10
0.147606
 20
2.376012
  0
VERTEX
  8
PLAN_1
 62
     2
  6
CONTINUOUS
 10
0.145425
 20
2.373831
  0
VERTEX
  8
PLAN_1
 62
     2
  6
CONTINUOUS
 10
0.144114
 20
2.371646
  0
VERTEX
  8
PLAN_1
 62
     2
  6
CONTINUOUS
 10
0.142807
 20
2.369028
  0
VERTEX
  8
PLAN_1
 62
     2
  6
CONTINUOUS
 10
0.142370
 20
2.366409
  0
VERTEX
  8
PLAN_1
 62
     2
  6
CONTINUOUS
 10
0.141933
 20
2.363354
  0
VERTEX
  8
PLAN_1
 62
     2
  6
CONTINUOUS
 10
0.142370
 20
2.359858
  0
VERTEX
  8
PLAN_1
 62
     2
  6
CONTINUOUS
 10
0.143240
 20
2.356803
  0
VERTEX
  8
PLAN_1
 62
     2
  6
CONTINUOUS
 10
0.144551
 20
2.354185
  0
VERTEX
  8
PLAN_1
 62
     2
  6
CONTINUOUS
 10
0.146299
 20
2.352004
  0
VERTEX
  8
PLAN_1
 62
     2
  6
CONTINUOUS
 10
0.148480
 20
2.350256
  0
VERTEX
  8
PLAN_1
 62
     2
  6
CONTINUOUS
 10
0.150661
 20
2.348945
  0
VERTEX
  8
PLAN_1
 62
     2
  6
CONTINUOUS
 10
0.153283
 20
2.348512
  0
VERTEX
  8
PLAN_1
 62
     2
  6
CONTINUOUS
 10
0.155465
 20
2.348075
  0
SEQEND
  8
0
  0
POLYLINE
  8
PLAN_1
 62
     2
  6
CONTINUOUS
 66
     1
 40
0.003000
 41
0.003000
  0
VERTEX
  8
PLAN_1
 62
     2
  6
CONTINUOUS
 10
0.122287
 20
2.376012
  0
VERTEX
  8
PLAN_1
 62
     2
  6
CONTINUOUS
 10
0.120543
 20
2.376012
  0
VERTEX
  8
PLAN_1
 62
     2
  6
CONTINUOUS
 10
0.118795
 20
2.375575
  0
VERTEX
  8
PLAN_1
 62
     2
  6
CONTINUOUS
 10
0.117051
 20
2.374701
  0
VERTEX
  8
PLAN_1
 62
     2
  6
CONTINUOUS
 10
0.115303
 20
2.373394
  0
VERTEX
  8
PLAN_1
 62
     2
  6
CONTINUOUS
 10
0.113992
 20
2.371646
  0
VERTEX
  8
PLAN_1
 62
     2
  6
CONTINUOUS
 10
0.112685
 20
2.369028
  0
VERTEX
  8
PLAN_1
 62
     2
  6
CONTINUOUS
 10
0.111811
 20
2.366409
  0
VERTEX
  8
PLAN_1
 62
     2
  6
CONTINUOUS
 10
0.111374
 20
2.362480
  0
VERTEX
  8
PLAN_1
 62
     2
  6
CONTINUOUS
 10
0.111811
 20
2.359425
  0
VERTEX
  8
PLAN_1
 62
     2
  6
CONTINUOUS
 10
0.112685
 20
2.356366
  0
VERTEX
  8
PLAN_1
 62
     2
  6
CONTINUOUS
 10
0.113992
 20
2.354622
  0
VERTEX
  8
PLAN_1
 62
     2
  6
CONTINUOUS
 10
0.115303
 20
2.352874
  0
VERTEX
  8
PLAN_1
 62
     2
  6
CONTINUOUS
 10
0.117484
 20
2.351567
  0
VERTEX
  8
PLAN_1
 62
     2
  6
CONTINUOUS
 10
0.119232
 20
2.351130
  0
VERTEX
  8
PLAN_1
 62
     2
  6
CONTINUOUS
 10
0.120980
 20
2.350693
  0
VERTEX
  8
PLAN_1
 62
     2
  6
CONTINUOUS
 10
0.123161
 20
2.350256
  0
VERTEX
  8
PLAN_1
 62
     2
  6
CONTINUOUS
 10
0.125343
 20
2.350693
  0
VERTEX
  8
PLAN_1
 62
     2
  6
CONTINUOUS
 10
0.127528
 20
2.351567
  0
VERTEX
  8
PLAN_1
 62
     2
  6
CONTINUOUS
 10
0.129709
 20
2.352874
  0
VERTEX
  8
PLAN_1
 62
     2
  6
CONTINUOUS
 10
0.131020
 20
2.354185
  0
VERTEX
  8
PLAN_1
 62
     2
  6
CONTINUOUS
 10
0.132327
 20
2.356366
  0
VERTEX
  8
PLAN_1
 62
     2
  6
CONTINUOUS
 10
0.133638
 20
2.358551
  0
VERTEX
  8
PLAN_1
 62
     2
  6
CONTINUOUS
 10
0.134075
 20
2.360732
  0
VERTEX
  8
PLAN_1
 62
     2
  6
CONTINUOUS
 10
0.134075
 20
2.363354
  0
VERTEX
  8
PLAN_1
 62
     2
  6
CONTINUOUS
 10
0.134075
 20
2.365972
  0
VERTEX
  8
PLAN_1
 62
     2
  6
CONTINUOUS
 10
0.133201
 20
2.368591
  0
VERTEX
  8
PLAN_1
 62
     2
  6
CONTINUOUS
 10
0.132327
 20
2.370772
  0
VERTEX
  8
PLAN_1
 62
     2
  6
CONTINUOUS
 10
0.131020
 20
2.372520
  0
VERTEX
  8
PLAN_1
 62
     2
  6
CONTINUOUS
 10
0.129272
 20
2.374268
  0
VERTEX
  8
PLAN_1
 62
     2
  6
CONTINUOUS
 10
0.127091
 20
2.375138
  0
VERTEX
  8
PLAN_1
 62
     2
  6
CONTINUOUS
 10
0.124906
 20
2.376012
  0
VERTEX
  8
PLAN_1
 62
     2
  6
CONTINUOUS
 10
0.122287
 20
2.376012
  0
SEQEND
  8
0
  0
SOLID
  8
PLAN_1
 62
     2
 10
-1.326598
 20
3.242551
 11
-1.357594
 21
3.295374
 12
-1.326598
 22
3.242551
 13
-1.379858
 23
3.273110
  0
POLYLINE
  8
PLAN_1
 62
     2
  6
CONTINUOUS
 66
     1
 40
0.003000
 41
0.003000
  0
VERTEX
  8
PLAN_1
 62
     2
  6
CONTINUOUS
 10
-1.326598
 20
3.242551
  0
VERTEX
  8
PLAN_1
 62
     2
  6
CONTINUOUS
 10
-1.357594
 20
3.295374
  0
VERTEX
  8
PLAN_1
 62
     2
  6
CONTINUOUS
 10
-1.379858
 20
3.273110
  0
VERTEX
  8
PLAN_1
 62
     2
  6
CONTINUOUS
 10
-1.326598
 20
3.242551
  0
SEQEND
  8
0
  0
POLYLINE
  8
PLAN_1
 62
     2
  6
CONTINUOUS
 66
     1
 40
0.004362
 41
0.004362
  0
VERTEX
  8
PLAN_1
 62
     2
  6
CONTINUOUS
 10
-1.353228
 20
3.269181
  0
VERTEX
  8
PLAN_1
 62
     2
  6
CONTINUOUS
 10
-1.482882
 20
3.393594
  0
VERTEX
  8
PLAN_1
 62
     2
  6
CONTINUOUS
 10
-1.771000
 20
3.393594
  0
SEQEND
  8
0
  0
POLYLINE
  8
PLAN_1
 62
     2
  6
CONTINUOUS
 66
     1
 40
0.003000
 41
0.003000
  0
VERTEX
  8
PLAN_1
 62
     2
  6
CONTINUOUS
 10
-1.676272
 20
3.481339
  0
VERTEX
  8
PLAN_1
 62
     2
  6
CONTINUOUS
 10
-1.674087
 20
3.478283
  0
VERTEX
  8
PLAN_1
 62
     2
  6
CONTINUOUS
 10
-1.672343
 20
3.475228
  0
VERTEX
  8
PLAN_1
 62
     2
  6
CONTINUOUS
 10
-1.670594
 20
3.471736
  0
VERTEX
  8
PLAN_1
 62
     2
  6
CONTINUOUS
 10
-1.669724
 20
3.468244
  0
VERTEX
  8
PLAN_1
 62
     2
  6
CONTINUOUS
 10
-1.668850
 20
3.464752
  0
VERTEX
  8
PLAN_1
 62
     2
  6
CONTINUOUS
 10
-1.667976
 20
3.461260
  0
VERTEX
  8
PLAN_1
 62
     2
  6
CONTINUOUS
 10
-1.667976
 20
3.457768
  0
VERTEX
  8
PLAN_1
 62
     2
  6
CONTINUOUS
 10
-1.667539
 20
3.454713
  0
VERTEX
  8
PLAN_1
 62
     2
  6
CONTINUOUS
 10
-1.667976
 20
3.448161
  0
VERTEX
  8
PLAN_1
 62
     2
  6
CONTINUOUS
 10
-1.669287
 20
3.441614
  0
VERTEX
  8
PLAN_1
 62
     2
  6
CONTINUOUS
 10
-1.670594
 20
3.438559
  0
VERTEX
  8
PLAN_1
 62
     2
  6
CONTINUOUS
 10
-1.671906
 20
3.435067
  0
VERTEX
  8
PLAN_1
 62
     2
  6
CONTINUOUS
 10
-1.673654
 20
3.432012
  0
VERTEX
  8
PLAN_1
 62
     2
  6
CONTINUOUS
 10
-1.675398
 20
3.428957
  0
VERTEX
  8
PLAN_1
 62
     2
  6
CONTINUOUS
 10
-1.677583
 20
3.425898
  0
VERTEX
  8
PLAN_1
 62
     2
  6
CONTINUOUS
 10
-1.680201
 20
3.423717
  0
VERTEX
  8
PLAN_1
 62
     2
  6
CONTINUOUS
 10
-1.683256
 20
3.421098
  0
VERTEX
  8
PLAN_1
 62
     2
  6
CONTINUOUS
 10
-1.686748
 20
3.419350
  0
VERTEX
  8
PLAN_1
 62
     2
  6
CONTINUOUS
 10
-1.690240
 20
3.417606
  0
VERTEX
  8
PLAN_1
 62
     2
  6
CONTINUOUS
 10
-1.694606
 20
3.416295
  0
VERTEX
  8
PLAN_1
 62
     2
  6
CONTINUOUS
 10
-1.698972
 20
3.415421
  0
VERTEX
  8
PLAN_1
 62
     2
  6
CONTINUOUS
 10
-1.704209
 20
3.415421
  0
VERTEX
  8
PLAN_1
 62
     2
  6
CONTINUOUS
 10
-1.708138
 20
3.415421
  0
VERTEX
  8
PLAN_1
 62
     2
  6
CONTINUOUS
 10
-1.711630
 20
3.415858
  0
VERTEX
  8
PLAN_1
 62
     2
  6
CONTINUOUS
 10
-1.715122
 20
3.416732
  0
VERTEX
  8
PLAN_1
 62
     2
  6
CONTINUOUS
 10
-1.718181
 20
3.418043
  0
VERTEX
  8
PLAN_1
 62
     2
  6
CONTINUOUS
 10
-1.721236
 20
3.419350
  0
VERTEX
  8
PLAN_1
 62
     2
  6
CONTINUOUS
 10
-1.723854
 20
3.420661
  0
VERTEX
  8
PLAN_1
 62
     2
  6
CONTINUOUS
 10
-1.726472
 20
3.422406
  0
VERTEX
  8
PLAN_1
 62
     2
  6
CONTINUOUS
 10
-1.728657
 20
3.424591
  0
VERTEX
  8
PLAN_1
 62
     2
  6
CONTINUOUS
 10
-1.736949
 20
3.415421
  0
VERTEX
  8
PLAN_1
 62
     2
  6
CONTINUOUS
 10
-1.740445
 20
3.418043
  0
VERTEX
  8
PLAN_1
 62
     2
  6
CONTINUOUS
 10
-1.731713
 20
3.427646
  0
VERTEX
  8
PLAN_1
 62
     2
  6
CONTINUOUS
 10
-1.733894
 20
3.430701
  0
VERTEX
  8
PLAN_1
 62
     2
  6
CONTINUOUS
 10
-1.735642
 20
3.434193
  0
VERTEX
  8
PLAN_1
 62
     2
  6
CONTINUOUS
 10
-1.737386
 20
3.437248
  0
VERTEX
  8
PLAN_1
 62
     2
  6
CONTINUOUS
 10
-1.738697
 20
3.440740
  0
VERTEX
  8
PLAN_1
 62
     2
  6
CONTINUOUS
 10
-1.739571
 20
3.444669
  0
VERTEX
  8
PLAN_1
 62
     2
  6
CONTINUOUS
 10
-1.740008
 20
3.448161
  0
VERTEX
  8
PLAN_1
 62
     2
  6
CONTINUOUS
 10
-1.740445
 20
3.451220
  0
VERTEX
  8
PLAN_1
 62
     2
  6
CONTINUOUS
 10
-1.740445
 20
3.454713
  0
VERTEX
  8
PLAN_1
 62
     2
  6
CONTINUOUS
 10
-1.740445
 20
3.457768
  0
VERTEX
  8
PLAN_1
 62
     2
  6
CONTINUOUS
 10
-1.740008
 20
3.460823
  0
VERTEX
  8
PLAN_1
 62
     2
  6
CONTINUOUS
 10
-1.739571
 20
3.464315
  0
VERTEX
  8
PLAN_1
 62
     2
  6
CONTINUOUS
 10
-1.738697
 20
3.467807
  0
VERTEX
  8
PLAN_1
 62
     2
  6
CONTINUOUS
 10
-1.737823
 20
3.470862
  0
VERTEX
  8
PLAN_1
 62
     2
  6
CONTINUOUS
 10
-1.736516
 20
3.474354
  0
VERTEX
  8
PLAN_1
 62
     2
  6
CONTINUOUS
 10
-1.734768
 20
3.477409
  0
VERTEX
  8
PLAN_1
 62
     2
  6
CONTINUOUS
 10
-1.732587
 20
3.480469
  0
VERTEX
  8
PLAN_1
 62
     2
  6
CONTINUOUS
 10
-1.730402
 20
3.483087
  0
VERTEX
  8
PLAN_1
 62
     2
  6
CONTINUOUS
 10
-1.727783
 20
3.485705
  0
VERTEX
  8
PLAN_1
 62
     2
  6
CONTINUOUS
 10
-1.724728
 20
3.488327
  0
VERTEX
  8
PLAN_1
 62
     2
  6
CONTINUOUS
 10
-1.721673
 20
3.490071
  0
VERTEX
  8
PLAN_1
 62
     2
  6
CONTINUOUS
 10
-1.717744
 20
3.491819
  0
VERTEX
  8
PLAN_1
 62
     2
  6
CONTINUOUS
 10
-1.713815
 20
3.493126
  0
VERTEX
  8
PLAN_1
 62
     2
  6
CONTINUOUS
 10
-1.709012
 20
3.493563
  0
VERTEX
  8
PLAN_1
 62
     2
  6
CONTINUOUS
 10
-1.704209
 20
3.494000
  0
VERTEX
  8
PLAN_1
 62
     2
  6
CONTINUOUS
 10
-1.699846
 20
3.494000
  0
VERTEX
  8
PLAN_1
 62
     2
  6
CONTINUOUS
 10
-1.696350
 20
3.493126
  0
VERTEX
  8
PLAN_1
 62
     2
  6
CONTINUOUS
 10
-1.692858
 20
3.492689
  0
VERTEX
  8
PLAN_1
 62
     2
  6
CONTINUOUS
 10
-1.689366
 20
3.491382
  0
VERTEX
  8
PLAN_1
 62
     2
  6
CONTINUOUS
 10
-1.686748
 20
3.490071
  0
VERTEX
  8
PLAN_1
 62
     2
  6
CONTINUOUS
 10
-1.683693
 20
3.488327
  0
VERTEX
  8
PLAN_1
 62
     2
  6
CONTINUOUS
 10
-1.681508
 20
3.486579
  0
VERTEX
  8
PLAN_1
 62
     2
  6
CONTINUOUS
 10
-1.679327
 20
3.484831
  0
VERTEX
  8
PLAN_1
 62
     2
  6
CONTINUOUS
 10
-1.670594
 20
3.494000
  0
VERTEX
  8
PLAN_1
 62
     2
  6
CONTINUOUS
 10
-1.667539
 20
3.490945
  0
VERTEX
  8
PLAN_1
 62
     2
  6
CONTINUOUS
 10
-1.676272
 20
3.481339
  0
SEQEND
  8
0
  0
POLYLINE
  8
PLAN_1
 62
     2
  6
CONTINUOUS
 66
     1
 40
0.003000
 41
0.003000
  0
VERTEX
  8
PLAN_1
 62
     2
  6
CONTINUOUS
 10
-1.722106
 20
3.431575
  0
VERTEX
  8
PLAN_1
 62
     2
  6
CONTINUOUS
 10
-1.720362
 20
3.429827
  0
VERTEX
  8
PLAN_1
 62
     2
  6
CONTINUOUS
 10
-1.718181
 20
3.428520
  0
VERTEX
  8
PLAN_1
 62
     2
  6
CONTINUOUS
 10
-1.716433
 20
3.427209
  0
VERTEX
  8
PLAN_1
 62
     2
  6
CONTINUOUS
 10
-1.714252
 20
3.426335
  0
VERTEX
  8
PLAN_1
 62
     2
  6
CONTINUOUS
 10
-1.712067
 20
3.425465
  0
VERTEX
  8
PLAN_1
 62
     2
  6
CONTINUOUS
 10
-1.709449
 20
3.424591
  0
VERTEX
  8
PLAN_1
 62
     2
  6
CONTINUOUS
 10
-1.706831
 20
3.424591
  0
VERTEX
  8
PLAN_1
 62
     2
  6
CONTINUOUS
 10
-1.704209
 20
3.424154
  0
VERTEX
  8
PLAN_1
 62
     2
  6
CONTINUOUS
 10
-1.701154
 20
3.424591
  0
VERTEX
  8
PLAN_1
 62
     2
  6
CONTINUOUS
 10
-1.698098
 20
3.425028
  0
VERTEX
  8
PLAN_1
 62
     2
  6
CONTINUOUS
 10
-1.695480
 20
3.425465
  0
VERTEX
  8
PLAN_1
 62
     2
  6
CONTINUOUS
 10
-1.693295
 20
3.426772
  0
VERTEX
  8
PLAN_1
 62
     2
  6
CONTINUOUS
 10
-1.690677
 20
3.427646
  0
VERTEX
  8
PLAN_1
 62
     2
  6
CONTINUOUS
 10
-1.688929
 20
3.429390
  0
VERTEX
  8
PLAN_1
 62
     2
  6
CONTINUOUS
 10
-1.686748
 20
3.431138
  0
VERTEX
  8
PLAN_1
 62
     2
  6
CONTINUOUS
 10
-1.685004
 20
3.432886
  0
VERTEX
  8
PLAN_1
 62
     2
  6
CONTINUOUS
 10
-1.683256
 20
3.435067
  0
VERTEX
  8
PLAN_1
 62
     2
  6
CONTINUOUS
 10
-1.681945
 20
3.437248
  0
VERTEX
  8
PLAN_1
 62
     2
  6
CONTINUOUS
 10
-1.680638
 20
3.439870
  0
VERTEX
  8
PLAN_1
 62
     2
  6
CONTINUOUS
 10
-1.679764
 20
3.442488
  0
VERTEX
  8
PLAN_1
 62
     2
  6
CONTINUOUS
 10
-1.678890
 20
3.445543
  0
VERTEX
  8
PLAN_1
 62
     2
  6
CONTINUOUS
 10
-1.678453
 20
3.448161
  0
VERTEX
  8
PLAN_1
 62
     2
  6
CONTINUOUS
 10
-1.678016
 20
3.451220
  0
VERTEX
  8
PLAN_1
 62
     2
  6
CONTINUOUS
 10
-1.678016
 20
3.454713
  0
VERTEX
  8
PLAN_1
 62
     2
  6
CONTINUOUS
 10
-1.678016
 20
3.457331
  0
VERTEX
  8
PLAN_1
 62
     2
  6
CONTINUOUS
 10
-1.678453
 20
3.459949
  0
VERTEX
  8
PLAN_1
 62
     2
  6
CONTINUOUS
 10
-1.678890
 20
3.462567
  0
VERTEX
  8
PLAN_1
 62
     2
  6
CONTINUOUS
 10
-1.679327
 20
3.465189
  0
VERTEX
  8
PLAN_1
 62
     2
  6
CONTINUOUS
 10
-1.680201
 20
3.467370
  0
VERTEX
  8
PLAN_1
 62
     2
  6
CONTINUOUS
 10
-1.681075
 20
3.469555
  0
VERTEX
  8
PLAN_1
 62
     2
  6
CONTINUOUS
 10
-1.681945
 20
3.471736
  0
VERTEX
  8
PLAN_1
 62
     2
  6
CONTINUOUS
 10
-1.683256
 20
3.473917
  0
VERTEX
  8
PLAN_1
 62
     2
  6
CONTINUOUS
 10
-1.722106
 20
3.431575
  0
SEQEND
  8
0
  0
POLYLINE
  8
PLAN_1
 62
     2
  6
CONTINUOUS
 66
     1
 40
0.003000
 41
0.003000
  0
VERTEX
  8
PLAN_1
 62
     2
  6
CONTINUOUS
 10
-1.685874
 20
3.477409
  0
VERTEX
  8
PLAN_1
 62
     2
  6
CONTINUOUS
 10
-1.687622
 20
3.479157
  0
VERTEX
  8
PLAN_1
 62
     2
  6
CONTINUOUS
 10
-1.689366
 20
3.480469
  0
VERTEX
  8
PLAN_1
 62
     2
  6
CONTINUOUS
 10
-1.691551
 20
3.481776
  0
VERTEX
  8
PLAN_1
 62
     2
  6
CONTINUOUS
 10
-1.693732
 20
3.483087
  0
VERTEX
  8
PLAN_1
 62
     2
  6
CONTINUOUS
 10
-1.696350
 20
3.483961
  0
VERTEX
  8
PLAN_1
 62
     2
  6
CONTINUOUS
 10
-1.698535
 20
3.484398
  0
VERTEX
  8
PLAN_1
 62
     2
  6
CONTINUOUS
 10
-1.701154
 20
3.484831
  0
VERTEX
  8
PLAN_1
 62
     2
  6
CONTINUOUS
 10
-1.704209
 20
3.484831
  0
VERTEX
  8
PLAN_1
 62
     2
  6
CONTINUOUS
 10
-1.707268
 20
3.484831
  0
VERTEX
  8
PLAN_1
 62
     2
  6
CONTINUOUS
 10
-1.709886
 20
3.484398
  0
VERTEX
  8
PLAN_1
 62
     2
  6
CONTINUOUS
 10
-1.712504
 20
3.483961
  0
VERTEX
  8
PLAN_1
 62
     2
  6
CONTINUOUS
 10
-1.715122
 20
3.482650
  0
VERTEX
  8
PLAN_1
 62
     2
  6
CONTINUOUS
 10
-1.717307
 20
3.481339
  0
VERTEX
  8
PLAN_1
 62
     2
  6
CONTINUOUS
 10
-1.719488
 20
3.480031
  0
VERTEX
  8
PLAN_1
 62
     2
  6
CONTINUOUS
 10
-1.721236
 20
3.478283
  0
VERTEX
  8
PLAN_1
 62
     2
  6
CONTINUOUS
 10
-1.722980
 20
3.476539
  0
VERTEX
  8
PLAN_1
 62
     2
  6
CONTINUOUS
 10
-1.724728
 20
3.474354
  0
VERTEX
  8
PLAN_1
 62
     2
  6
CONTINUOUS
 10
-1.726035
 20
3.472173
  0
VERTEX
  8
PLAN_1
 62
     2
  6
CONTINUOUS
 10
-1.727346
 20
3.469555
  0
VERTEX
  8
PLAN_1
 62
     2
  6
CONTINUOUS
 10
-1.728220
 20
3.466933
  0
VERTEX
  8
PLAN_1
 62
     2
  6
CONTINUOUS
 10
-1.729094
 20
3.463878
  0
VERTEX
  8
PLAN_1
 62
     2
  6
CONTINUOUS
 10
-1.729528
 20
3.460823
  0
VERTEX
  8
PLAN_1
 62
     2
  6
CONTINUOUS
 10
-1.729965
 20
3.457768
  0
VERTEX
  8
PLAN_1
 62
     2
  6
CONTINUOUS
 10
-1.729965
 20
3.454713
  0
VERTEX
  8
PLAN_1
 62
     2
  6
CONTINUOUS
 10
-1.729965
 20
3.451654
  0
VERTEX
  8
PLAN_1
 62
     2
  6
CONTINUOUS
 10
-1.729965
 20
3.449035
  0
VERTEX
  8
PLAN_1
 62
     2
  6
CONTINUOUS
 10
-1.729528
 20
3.446417
  0
VERTEX
  8
PLAN_1
 62
     2
  6
CONTINUOUS
 10
-1.728657
 20
3.444232
  0
VERTEX
  8
PLAN_1
 62
     2
  6
CONTINUOUS
 10
-1.727783
 20
3.441614
  0
VERTEX
  8
PLAN_1
 62
     2
  6
CONTINUOUS
 10
-1.726909
 20
3.439433
  0
VERTEX
  8
PLAN_1
 62
     2
  6
CONTINUOUS
 10
-1.726035
 20
3.437248
  0
VERTEX
  8
PLAN_1
 62
     2
  6
CONTINUOUS
 10
-1.724728
 20
3.435067
  0
VERTEX
  8
PLAN_1
 62
     2
  6
CONTINUOUS
 10
-1.685874
 20
3.477409
  0
SEQEND
  8
0
  0
POLYLINE
  8
PLAN_1
 62
     2
  6
CONTINUOUS
 66
     1
 40
0.003000
 41
0.003000
  0
VERTEX
  8
PLAN_1
 62
     2
  6
CONTINUOUS
 10
-1.626067
 20
3.417169
  0
VERTEX
  8
PLAN_1
 62
     2
  6
CONTINUOUS
 10
-1.636110
 20
3.417169
  0
VERTEX
  8
PLAN_1
 62
     2
  6
CONTINUOUS
 10
-1.636110
 20
3.469118
  0
VERTEX
  8
PLAN_1
 62
     2
  6
CONTINUOUS
 10
-1.653134
 20
3.469118
  0
VERTEX
  8
PLAN_1
 62
     2
  6
CONTINUOUS
 10
-1.653134
 20
3.476539
  0
VERTEX
  8
PLAN_1
 62
     2
  6
CONTINUOUS
 10
-1.648768
 20
3.476976
  0
VERTEX
  8
PLAN_1
 62
     2
  6
CONTINUOUS
 10
-1.645276
 20
3.477409
  0
VERTEX
  8
PLAN_1
 62
     2
  6
CONTINUOUS
 10
-1.642220
 20
3.478283
  0
VERTEX
  8
PLAN_1
 62
     2
  6
CONTINUOUS
 10
-1.640039
 20
3.479157
  0
VERTEX
  8
PLAN_1
 62
     2
  6
CONTINUOUS
 10
-1.637854
 20
3.480906
  0
VERTEX
  8
PLAN_1
 62
     2
  6
CONTINUOUS
 10
-1.636110
 20
3.483524
  0
VERTEX
  8
PLAN_1
 62
     2
  6
CONTINUOUS
 10
-1.634362
 20
3.486579
  0
VERTEX
  8
PLAN_1
 62
     2
  6
CONTINUOUS
 10
-1.633488
 20
3.490508
  0
VERTEX
  8
PLAN_1
 62
     2
  6
CONTINUOUS
 10
-1.626067
 20
3.490508
  0
VERTEX
  8
PLAN_1
 62
     2
  6
CONTINUOUS
 10
-1.626067
 20
3.417169
  0
SEQEND
  8
0
  0
POLYLINE
  8
PLAN_1
 62
     2
  6
CONTINUOUS
 66
     1
 40
0.003000
 41
0.003000
  0
VERTEX
  8
PLAN_1
 62
     2
  6
CONTINUOUS
 10
-1.601185
 20
3.464315
  0
VERTEX
  8
PLAN_1
 62
     2
  6
CONTINUOUS
 10
-1.600748
 20
3.468244
  0
VERTEX
  8
PLAN_1
 62
     2
  6
CONTINUOUS
 10
-1.600311
 20
3.472173
  0
VERTEX
  8
PLAN_1
 62
     2
  6
CONTINUOUS
 10
-1.599441
 20
3.475665
  0
VERTEX
  8
PLAN_1
 62
     2
  6
CONTINUOUS
 10
-1.598130
 20
3.478283
  0
VERTEX
  8
PLAN_1
 62
     2
  6
CONTINUOUS
 10
-1.596819
 20
3.480906
  0
VERTEX
  8
PLAN_1
 62
     2
  6
CONTINUOUS
 10
-1.595075
 20
3.483087
  0
VERTEX
  8
PLAN_1
 62
     2
  6
CONTINUOUS
 10
-1.593327
 20
3.484831
  0
VERTEX
  8
PLAN_1
 62
     2
  6
CONTINUOUS
 10
-1.591583
 20
3.486142
  0
VERTEX
  8
PLAN_1
 62
     2
  6
CONTINUOUS
 10
-1.587217
 20
3.488327
  0
VERTEX
  8
PLAN_1
 62
     2
  6
CONTINUOUS
 10
-1.583287
 20
3.489634
  0
VERTEX
  8
PLAN_1
 62
     2
  6
CONTINUOUS
 10
-1.579358
 20
3.490508
  0
VERTEX
  8
PLAN_1
 62
     2
  6
CONTINUOUS
 10
-1.575866
 20
3.490508
  0
VERTEX
  8
PLAN_1
 62
     2
  6
CONTINUOUS
 10
-1.571063
 20
3.490071
  0
VERTEX
  8
PLAN_1
 62
     2
  6
CONTINUOUS
 10
-1.566697
 20
3.488760
  0
VERTEX
  8
PLAN_1
 62
     2
  6
CONTINUOUS
 10
-1.562772
 20
3.487016
  0
VERTEX
  8
PLAN_1
 62
     2
  6
CONTINUOUS
 10
-1.559713
 20
3.484831
  0
VERTEX
  8
PLAN_1
 62
     2
  6
CONTINUOUS
 10
-1.557969
 20
3.483087
  0
VERTEX
  8
PLAN_1
 62
     2
  6
CONTINUOUS
 10
-1.556657
 20
3.481339
  0
VERTEX
  8
PLAN_1
 62
     2
  6
CONTINUOUS
 10
-1.555783
 20
3.479594
  0
VERTEX
  8
PLAN_1
 62
     2
  6
CONTINUOUS
 10
-1.554476
 20
3.477846
  0
VERTEX
  8
PLAN_1
 62
     2
  6
CONTINUOUS
 10
-1.554039
 20
3.475665
  0
VERTEX
  8
PLAN_1
 62
     2
  6
CONTINUOUS
 10
-1.553165
 20
3.473484
  0
VERTEX
  8
PLAN_1
 62
     2
  6
CONTINUOUS
 10
-1.553165
 20
3.471299
  0
VERTEX
  8
PLAN_1
 62
     2
  6
CONTINUOUS
 10
-1.552728
 20
3.468681
  0
VERTEX
  8
PLAN_1
 62
     2
  6
CONTINUOUS
 10
-1.553165
 20
3.463878
  0
VERTEX
  8
PLAN_1
 62
     2
  6
CONTINUOUS
 10
-1.554476
 20
3.459949
  0
VERTEX
  8
PLAN_1
 62
     2
  6
CONTINUOUS
 10
-1.556220
 20
3.456457
  0
VERTEX
  8
PLAN_1
 62
     2
  6
CONTINUOUS
 10
-1.558406
 20
3.453839
  0
VERTEX
  8
PLAN_1
 62
     2
  6
CONTINUOUS
 10
-1.561461
 20
3.450783
  0
VERTEX
  8
PLAN_1
 62
     2
  6
CONTINUOUS
 10
-1.564953
 20
3.448598
  0
VERTEX
  8
PLAN_1
 62
     2
  6
CONTINUOUS
 10
-1.568445
 20
3.446417
  0
VERTEX
  8
PLAN_1
 62
     2
  6
CONTINUOUS
 10
-1.572374
 20
3.444232
  0
VERTEX
  8
PLAN_1
 62
     2
  6
CONTINUOUS
 10
-1.580232
 20
3.439870
  0
VERTEX
  8
PLAN_1
 62
     2
  6
CONTINUOUS
 10
-1.583287
 20
3.438122
  0
VERTEX
  8
PLAN_1
 62
     2
  6
CONTINUOUS
 10
-1.586343
 20
3.435941
  0
VERTEX
  8
PLAN_1
 62
     2
  6
CONTINUOUS
 10
-1.588528
 20
3.433756
  0
VERTEX
  8
PLAN_1
 62
     2
  6
CONTINUOUS
 10
-1.589835
 20
3.432012
  0
VERTEX
  8
PLAN_1
 62
     2
  6
CONTINUOUS
 10
-1.591146
 20
3.430264
  0
VERTEX
  8
PLAN_1
 62
     2
  6
CONTINUOUS
 10
-1.592020
 20
3.428520
  0
VERTEX
  8
PLAN_1
 62
     2
  6
CONTINUOUS
 10
-1.592457
 20
3.427209
  0
VERTEX
  8
PLAN_1
 62
     2
  6
CONTINUOUS
 10
-1.592457
 20
3.425898
  0
VERTEX
  8
PLAN_1
 62
     2
  6
CONTINUOUS
 10
-1.552728
 20
3.425898
  0
VERTEX
  8
PLAN_1
 62
     2
  6
CONTINUOUS
 10
-1.552728
 20
3.417169
  0
VERTEX
  8
PLAN_1
 62
     2
  6
CONTINUOUS
 10
-1.602933
 20
3.417169
  0
VERTEX
  8
PLAN_1
 62
     2
  6
CONTINUOUS
 10
-1.602496
 20
3.422843
  0
VERTEX
  8
PLAN_1
 62
     2
  6
CONTINUOUS
 10
-1.601622
 20
3.427646
  0
VERTEX
  8
PLAN_1
 62
     2
  6
CONTINUOUS
 10
-1.599878
 20
3.431575
  0
VERTEX
  8
PLAN_1
 62
     2
  6
CONTINUOUS
 10
-1.597693
 20
3.435504
  0
VERTEX
  8
PLAN_1
 62
     2
  6
CONTINUOUS
 10
-1.595512
 20
3.438559
  0
VERTEX
  8
PLAN_1
 62
     2
  6
CONTINUOUS
 10
-1.592457
 20
3.441614
  0
VERTEX
  8
PLAN_1
 62
     2
  6
CONTINUOUS
 10
-1.589398
 20
3.444232
  0
VERTEX
  8
PLAN_1
 62
     2
  6
CONTINUOUS
 10
-1.585906
 20
3.446417
  0
VERTEX
  8
PLAN_1
 62
     2
  6
CONTINUOUS
 10
-1.576303
 20
3.452091
  0
VERTEX
  8
PLAN_1
 62
     2
  6
CONTINUOUS
 10
-1.573248
 20
3.453402
  0
VERTEX
  8
PLAN_1
 62
     2
  6
CONTINUOUS
 10
-1.570626
 20
3.455146
  0
VERTEX
  8
PLAN_1
 62
     2
  6
CONTINUOUS
 10
-1.568445
 20
3.456894
  0
VERTEX
  8
PLAN_1
 62
     2
  6
CONTINUOUS
 10
-1.566264
 20
3.458642
  0
VERTEX
  8
PLAN_1
 62
     2
  6
CONTINUOUS
 10
-1.564953
 20
3.460386
  0
VERTEX
  8
PLAN_1
 62
     2
  6
CONTINUOUS
 10
-1.563642
 20
3.463004
  0
VERTEX
  8
PLAN_1
 62
     2
  6
CONTINUOUS
 10
-1.562772
 20
3.465626
  0
VERTEX
  8
PLAN_1
 62
     2
  6
CONTINUOUS
 10
-1.562772
 20
3.469118
  0
VERTEX
  8
PLAN_1
 62
     2
  6
CONTINUOUS
 10
-1.562772
 20
3.471299
  0
VERTEX
  8
PLAN_1
 62
     2
  6
CONTINUOUS
 10
-1.563642
 20
3.473484
  0
VERTEX
  8
PLAN_1
 62
     2
  6
CONTINUOUS
 10
-1.564516
 20
3.475665
  0
VERTEX
  8
PLAN_1
 62
     2
  6
CONTINUOUS
 10
-1.565827
 20
3.477846
  0
VERTEX
  8
PLAN_1
 62
     2
  6
CONTINUOUS
 10
-1.568008
 20
3.479594
  0
VERTEX
  8
PLAN_1
 62
     2
  6
CONTINUOUS
 10
-1.570193
 20
3.480906
  0
VERTEX
  8
PLAN_1
 62
     2
  6
CONTINUOUS
 10
-1.573248
 20
3.481776
  0
VERTEX
  8
PLAN_1
 62
     2
  6
CONTINUOUS
 10
-1.577177
 20
3.482213
  0
VERTEX
  8
PLAN_1
 62
     2
  6
CONTINUOUS
 10
-1.579795
 20
3.482213
  0
VERTEX
  8
PLAN_1
 62
     2
  6
CONTINUOUS
 10
-1.581539
 20
3.481776
  0
VERTEX
  8
PLAN_1
 62
     2
  6
CONTINUOUS
 10
-1.583724
 20
3.480906
  0
VERTEX
  8
PLAN_1
 62
     2
  6
CONTINUOUS
 10
-1.585035
 20
3.480031
  0
VERTEX
  8
PLAN_1
 62
     2
  6
CONTINUOUS
 10
-1.586780
 20
3.479157
  0
VERTEX
  8
PLAN_1
 62
     2
  6
CONTINUOUS
 10
-1.587654
 20
3.477846
  0
VERTEX
  8
PLAN_1
 62
     2
  6
CONTINUOUS
 10
-1.588961
 20
3.476539
  0
VERTEX
  8
PLAN_1
 62
     2
  6
CONTINUOUS
 10
-1.589398
 20
3.475228
  0
VERTEX
  8
PLAN_1
 62
     2
  6
CONTINUOUS
 10
-1.590709
 20
3.472173
  0
VERTEX
  8
PLAN_1
 62
     2
  6
CONTINUOUS
 10
-1.591583
 20
3.469118
  0
VERTEX
  8
PLAN_1
 62
     2
  6
CONTINUOUS
 10
-1.591583
 20
3.466496
  0
VERTEX
  8
PLAN_1
 62
     2
  6
CONTINUOUS
 10
-1.592020
 20
3.464315
  0
VERTEX
  8
PLAN_1
 62
     2
  6
CONTINUOUS
 10
-1.601185
 20
3.464315
  0
SEQEND
  8
0
  0
POLYLINE
  8
PLAN_1
 62
     2
  6
CONTINUOUS
 66
     1
 40
0.004362
 41
0.004362
  0
VERTEX
  8
PLAN_1
 62
     2
  6
CONTINUOUS
 10
0.223567
 20
1.360177
  0
VERTEX
  8
PLAN_1
 62
     2
  6
CONTINUOUS
 10
-0.102094
 20
1.360177
  0
SEQEND
  8
0
  0
POLYLINE
  8
PLAN_1
 62
     2
  6
CONTINUOUS
 66
     1
 40
0.004362
 41
0.004362
  0
VERTEX
  8
PLAN_1
 62
     2
  6
CONTINUOUS
 10
0.223567
 20
3.308906
  0
VERTEX
  8
PLAN_1
 62
     2
  6
CONTINUOUS
 10
-1.085193
 20
3.308906
  0
SEQEND
  8
0
  0
ENDSEC
  0
EOF
