  0
SECTION
  2
HEADER
  9
$ACADVER
  1
AC1006
  9
$EXTMIN
 10
-2.186000
 20
-3.443846
  9
$EXTMAX
 10
2.183000
 20
3.448000
  9
$LTSCALE
 40
0.000394
  9
$PDMODE
 70
    35
  9
$PDSIZE
 40
0.000315
  0
ENDSEC
  0
SECTION
  2
TABLES
  0
TABLE
  2
LTYPE
 70
     9
  0
LTYPE
  2
CONTINUOUS
 70
    64
  3
Solid line
 72
    65
 73
     0
 40
0.000000
  0
LTYPE
  2
DASHED
 70
    64
  3
__ __ __ __ __ __ __ __ __ __ __ __ __ __ __
 72
    65
 73
     2
 40
0.000003
 49
0.000002
 49
-0.000001
  0
LTYPE
  2
HIDDEN
 70
    64
  3
 _ _ _ _ _ _ _ _ _ _ _ _ _ _ _ _ _ _ _ _ _ _
 72
    65
 73
     2
 40
0.000001
 49
0.000001
 49
-0.000000
  0
LTYPE
  2
CENTER
 70
    64
  3
____ _ ____ _ ____ _ ____ _ ____ _ ____ _ ____
 72
    65
 73
     4
 40
0.000008
 49
0.000005
 49
-0.000001
 49
0.000001
 49
-0.000001
  0
LTYPE
  2
PHANTOM
 70
    64
  3
_____ _ _ _____ _ _ _____ _ _ _____ _ _ ____
 72
    65
 73
     6
 40
0.000010
 49
0.000005
 49
-0.000001
 49
0.000001
 49
-0.000001
 49
0.000001
 49
-0.000001
  0
LTYPE
  2
DOT
 70
    64
  3
...............................................
 72
    65
 73
     2
 40
0.000001
 49
0.000000
 49
-0.000001
  0
LTYPE
  2
DASHDOT
 70
    64
  3
__ . __ . __ . __ . __ . __ . __ . __ . __ . __
 72
    65
 73
     4
 40
0.000004
 49
0.000002
 49
-0.000001
 49
0.000000
 49
-0.000001
  0
LTYPE
  2
BORDER
 70
    64
  3
__ __ . __ __ . __ __ . __ __ . __ __ . __ __
 72
    65
 73
     6
 40
0.000007
 49
0.000002
 49
-0.000001
 49
0.000002
 49
-0.000001
 49
0.000000
 49
-0.000001
  0
LTYPE
  2
DIVIDE
 70
    64
  3
__ . . __ . . __ . . __ . . __ . . __ . . __
 72
    65
 73
     6
 40
0.000005
 49
0.000002
 49
-0.000001
 49
0.000000
 49
-0.000001
 49
0.000000
 49
-0.000001
  0
LTYPE
  2
DOTDOT
 70
    64
  3
 . .  . .  . .  . .  . .  . . 
 72
    65
 73
     5
 40
0.000002
 49
-0.000001
 49
0.000000
 49
-0.000001
 49
0.000000
 49
-0.000001
  0
ENDTAB
  0
TABLE
  2
STYLE
 70
     0
  0
ENDTAB
  0
TABLE
  2
LAYER
 70
     3
  0
LAYER
  2
FOREGROUND
 70
    64
 62
     7
  6
CONTINUOUS
  0
LAYER
  2
BACKGROUND
 70
    65
 62
    -7
  6
CONTINUOUS
  0
LAYER
  2
PLAN_1
 70
    64
 62
     7
  6
CONTINUOUS
  0
ENDTAB
  0
ENDSEC
  0
SECTION
  2
ENTITIES
  0
POLYLINE
  8
PLAN_1
  6
CONTINUOUS
 66
     1
 40
0.003000
 41
0.003000
  0
VERTEX
  8
PLAN_1
  6
CONTINUOUS
 10
0.379488
 20
-3.408957
  0
VERTEX
  8
PLAN_1
  6
CONTINUOUS
 10
0.222701
 20
-3.408957
  0
VERTEX
  8
PLAN_1
  6
CONTINUOUS
 10
0.222701
 20
-3.386559
  0
VERTEX
  8
PLAN_1
  6
CONTINUOUS
 10
0.344598
 20
-3.233646
  0
VERTEX
  8
PLAN_1
  6
CONTINUOUS
 10
0.231744
 20
-3.233646
  0
VERTEX
  8
PLAN_1
  6
CONTINUOUS
 10
0.231744
 20
-3.209953
  0
VERTEX
  8
PLAN_1
  6
CONTINUOUS
 10
0.379488
 20
-3.209953
  0
VERTEX
  8
PLAN_1
  6
CONTINUOUS
 10
0.379488
 20
-3.233213
  0
VERTEX
  8
PLAN_1
  6
CONTINUOUS
 10
0.256728
 20
-3.385268
  0
VERTEX
  8
PLAN_1
  6
CONTINUOUS
 10
0.379488
 20
-3.385268
  0
VERTEX
  8
PLAN_1
  6
CONTINUOUS
 10
0.379488
 20
-3.408957
  0
SEQEND
  8
0
  0
POLYLINE
  8
PLAN_1
  6
CONTINUOUS
 66
     1
 40
0.003000
 41
0.003000
  0
VERTEX
  8
PLAN_1
  6
CONTINUOUS
 10
0.547047
 20
-3.269827
  0
VERTEX
  8
PLAN_1
  6
CONTINUOUS
 10
0.545327
 20
-3.263795
  0
VERTEX
  8
PLAN_1
  6
CONTINUOUS
 10
0.543169
 20
-3.258197
  0
VERTEX
  8
PLAN_1
  6
CONTINUOUS
 10
0.540587
 20
-3.253028
  0
VERTEX
  8
PLAN_1
  6
CONTINUOUS
 10
0.537571
 20
-3.248720
  0
VERTEX
  8
PLAN_1
  6
CONTINUOUS
 10
0.534555
 20
-3.244846
  0
VERTEX
  8
PLAN_1
  6
CONTINUOUS
 10
0.531110
 20
-3.241398
  0
VERTEX
  8
PLAN_1
  6
CONTINUOUS
 10
0.527232
 20
-3.238382
  0
VERTEX
  8
PLAN_1
  6
CONTINUOUS
 10
0.523358
 20
-3.236228
  0
VERTEX
  8
PLAN_1
  6
CONTINUOUS
 10
0.519480
 20
-3.234075
  0
VERTEX
  8
PLAN_1
  6
CONTINUOUS
 10
0.515173
 20
-3.232354
  0
VERTEX
  8
PLAN_1
  6
CONTINUOUS
 10
0.510866
 20
-3.231059
  0
VERTEX
  8
PLAN_1
  6
CONTINUOUS
 10
0.506988
 20
-3.230201
  0
VERTEX
  8
PLAN_1
  6
CONTINUOUS
 10
0.498803
 20
-3.228906
  0
VERTEX
  8
PLAN_1
  6
CONTINUOUS
 10
0.491051
 20
-3.228476
  0
VERTEX
  8
PLAN_1
  6
CONTINUOUS
 10
0.484591
 20
-3.228906
  0
VERTEX
  8
PLAN_1
  6
CONTINUOUS
 10
0.478130
 20
-3.229768
  0
VERTEX
  8
PLAN_1
  6
CONTINUOUS
 10
0.471669
 20
-3.231059
  0
VERTEX
  8
PLAN_1
  6
CONTINUOUS
 10
0.465638
 20
-3.233646
  0
VERTEX
  8
PLAN_1
  6
CONTINUOUS
 10
0.460039
 20
-3.236228
  0
VERTEX
  8
PLAN_1
  6
CONTINUOUS
 10
0.454437
 20
-3.239677
  0
VERTEX
  8
PLAN_1
  6
CONTINUOUS
 10
0.449701
 20
-3.243551
  0
VERTEX
  8
PLAN_1
  6
CONTINUOUS
 10
0.444961
 20
-3.248291
  0
VERTEX
  8
PLAN_1
  6
CONTINUOUS
 10
0.440654
 20
-3.253461
  0
VERTEX
  8
PLAN_1
  6
CONTINUOUS
 10
0.436780
 20
-3.259488
  0
VERTEX
  8
PLAN_1
  6
CONTINUOUS
 10
0.433764
 20
-3.265953
  0
VERTEX
  8
PLAN_1
  6
CONTINUOUS
 10
0.431177
 20
-3.273272
  0
VERTEX
  8
PLAN_1
  6
CONTINUOUS
 10
0.428594
 20
-3.280594
  0
VERTEX
  8
PLAN_1
  6
CONTINUOUS
 10
0.427303
 20
-3.289213
  0
VERTEX
  8
PLAN_1
  6
CONTINUOUS
 10
0.426012
 20
-3.297827
  0
VERTEX
  8
PLAN_1
  6
CONTINUOUS
 10
0.426012
 20
-3.307732
  0
VERTEX
  8
PLAN_1
  6
CONTINUOUS
 10
0.426012
 20
-3.316346
  0
VERTEX
  8
PLAN_1
  6
CONTINUOUS
 10
0.426870
 20
-3.324531
  0
VERTEX
  8
PLAN_1
  6
CONTINUOUS
 10
0.427732
 20
-3.332717
  0
VERTEX
  8
PLAN_1
  6
CONTINUOUS
 10
0.429024
 20
-3.340469
  0
VERTEX
  8
PLAN_1
  6
CONTINUOUS
 10
0.431177
 20
-3.347791
  0
VERTEX
  8
PLAN_1
  6
CONTINUOUS
 10
0.433764
 20
-3.354252
  0
VERTEX
  8
PLAN_1
  6
CONTINUOUS
 10
0.436780
 20
-3.360713
  0
VERTEX
  8
PLAN_1
  6
CONTINUOUS
 10
0.440224
 20
-3.366744
  0
VERTEX
  8
PLAN_1
  6
CONTINUOUS
 10
0.444531
 20
-3.371913
  0
VERTEX
  8
PLAN_1
  6
CONTINUOUS
 10
0.449272
 20
-3.376650
  0
VERTEX
  8
PLAN_1
  6
CONTINUOUS
 10
0.451854
 20
-3.378803
  0
VERTEX
  8
PLAN_1
  6
CONTINUOUS
 10
0.454870
 20
-3.380957
  0
VERTEX
  8
PLAN_1
  6
CONTINUOUS
 10
0.457453
 20
-3.382681
  0
VERTEX
  8
PLAN_1
  6
CONTINUOUS
 10
0.460902
 20
-3.383972
  0
VERTEX
  8
PLAN_1
  6
CONTINUOUS
 10
0.463913
 20
-3.385697
  0
VERTEX
  8
PLAN_1
  6
CONTINUOUS
 10
0.467362
 20
-3.386988
  0
VERTEX
  8
PLAN_1
  6
CONTINUOUS
 10
0.471236
 20
-3.387850
  0
VERTEX
  8
PLAN_1
  6
CONTINUOUS
 10
0.475114
 20
-3.388713
  0
VERTEX
  8
PLAN_1
  6
CONTINUOUS
 10
0.478992
 20
-3.389575
  0
VERTEX
  8
PLAN_1
  6
CONTINUOUS
 10
0.482866
 20
-3.390004
  0
VERTEX
  8
PLAN_1
  6
CONTINUOUS
 10
0.487173
 20
-3.390433
  0
VERTEX
  8
PLAN_1
  6
CONTINUOUS
 10
0.491913
 20
-3.390433
  0
VERTEX
  8
PLAN_1
  6
CONTINUOUS
 10
0.495358
 20
-3.390433
  0
VERTEX
  8
PLAN_1
  6
CONTINUOUS
 10
0.498803
 20
-3.390004
  0
VERTEX
  8
PLAN_1
  6
CONTINUOUS
 10
0.502681
 20
-3.389575
  0
VERTEX
  8
PLAN_1
  6
CONTINUOUS
 10
0.506988
 20
-3.388713
  0
VERTEX
  8
PLAN_1
  6
CONTINUOUS
 10
0.510866
 20
-3.387421
  0
VERTEX
  8
PLAN_1
  6
CONTINUOUS
 10
0.515173
 20
-3.385268
  0
VERTEX
  8
PLAN_1
  6
CONTINUOUS
 10
0.519480
 20
-3.383110
  0
VERTEX
  8
PLAN_1
  6
CONTINUOUS
 10
0.523358
 20
-3.380528
  0
VERTEX
  8
PLAN_1
  6
CONTINUOUS
 10
0.527665
 20
-3.377512
  0
VERTEX
  8
PLAN_1
  6
CONTINUOUS
 10
0.531539
 20
-3.373638
  0
VERTEX
  8
PLAN_1
  6
CONTINUOUS
 10
0.534988
 20
-3.368898
  0
VERTEX
  8
PLAN_1
  6
CONTINUOUS
 10
0.538433
 20
-3.364161
  0
VERTEX
  8
PLAN_1
  6
CONTINUOUS
 10
0.541878
 20
-3.358130
  0
VERTEX
  8
PLAN_1
  6
CONTINUOUS
 10
0.544465
 20
-3.351669
  0
VERTEX
  8
PLAN_1
  6
CONTINUOUS
 10
0.547047
 20
-3.344346
  0
VERTEX
  8
PLAN_1
  6
CONTINUOUS
 10
0.548772
 20
-3.335732
  0
VERTEX
  8
PLAN_1
  6
CONTINUOUS
 10
0.575047
 20
-3.335732
  0
VERTEX
  8
PLAN_1
  6
CONTINUOUS
 10
0.573752
 20
-3.342622
  0
VERTEX
  8
PLAN_1
  6
CONTINUOUS
 10
0.572461
 20
-3.349083
  0
VERTEX
  8
PLAN_1
  6
CONTINUOUS
 10
0.570740
 20
-3.355114
  0
VERTEX
  8
PLAN_1
  6
CONTINUOUS
 10
0.568587
 20
-3.360713
  0
VERTEX
  8
PLAN_1
  6
CONTINUOUS
 10
0.566433
 20
-3.366315
  0
VERTEX
  8
PLAN_1
  6
CONTINUOUS
 10
0.563846
 20
-3.371051
  0
VERTEX
  8
PLAN_1
  6
CONTINUOUS
 10
0.561264
 20
-3.375791
  0
VERTEX
  8
PLAN_1
  6
CONTINUOUS
 10
0.558677
 20
-3.380098
  0
VERTEX
  8
PLAN_1
  6
CONTINUOUS
 10
0.555661
 20
-3.383972
  0
VERTEX
  8
PLAN_1
  6
CONTINUOUS
 10
0.552646
 20
-3.387421
  0
VERTEX
  8
PLAN_1
  6
CONTINUOUS
 10
0.549634
 20
-3.390866
  0
VERTEX
  8
PLAN_1
  6
CONTINUOUS
 10
0.546618
 20
-3.393882
  0
VERTEX
  8
PLAN_1
  6
CONTINUOUS
 10
0.543169
 20
-3.396465
  0
VERTEX
  8
PLAN_1
  6
CONTINUOUS
 10
0.539724
 20
-3.399051
  0
VERTEX
  8
PLAN_1
  6
CONTINUOUS
 10
0.536280
 20
-3.401205
  0
VERTEX
  8
PLAN_1
  6
CONTINUOUS
 10
0.532835
 20
-3.403358
  0
VERTEX
  8
PLAN_1
  6
CONTINUOUS
 10
0.525941
 20
-3.406803
  0
VERTEX
  8
PLAN_1
  6
CONTINUOUS
 10
0.519051
 20
-3.409386
  0
VERTEX
  8
PLAN_1
  6
CONTINUOUS
 10
0.512591
 20
-3.411539
  0
VERTEX
  8
PLAN_1
  6
CONTINUOUS
 10
0.506126
 20
-3.412835
  0
VERTEX
  8
PLAN_1
  6
CONTINUOUS
 10
0.495358
 20
-3.414126
  0
VERTEX
  8
PLAN_1
  6
CONTINUOUS
 10
0.487606
 20
-3.414555
  0
VERTEX
  8
PLAN_1
  6
CONTINUOUS
 10
0.479421
 20
-3.414126
  0
VERTEX
  8
PLAN_1
  6
CONTINUOUS
 10
0.470807
 20
-3.412835
  0
VERTEX
  8
PLAN_1
  6
CONTINUOUS
 10
0.462622
 20
-3.411110
  0
VERTEX
  8
PLAN_1
  6
CONTINUOUS
 10
0.454870
 20
-3.408528
  0
VERTEX
  8
PLAN_1
  6
CONTINUOUS
 10
0.450563
 20
-3.407232
  0
VERTEX
  8
PLAN_1
  6
CONTINUOUS
 10
0.447114
 20
-3.405079
  0
VERTEX
  8
PLAN_1
  6
CONTINUOUS
 10
0.443240
 20
-3.403358
  0
VERTEX
  8
PLAN_1
  6
CONTINUOUS
 10
0.439362
 20
-3.401205
  0
VERTEX
  8
PLAN_1
  6
CONTINUOUS
 10
0.435917
 20
-3.398618
  0
VERTEX
  8
PLAN_1
  6
CONTINUOUS
 10
0.432472
 20
-3.396035
  0
VERTEX
  8
PLAN_1
  6
CONTINUOUS
 10
0.429024
 20
-3.393020
  0
VERTEX
  8
PLAN_1
  6
CONTINUOUS
 10
0.426012
 20
-3.390004
  0
VERTEX
  8
PLAN_1
  6
CONTINUOUS
 10
0.422996
 20
-3.386988
  0
VERTEX
  8
PLAN_1
  6
CONTINUOUS
 10
0.419980
 20
-3.383543
  0
VERTEX
  8
PLAN_1
  6
CONTINUOUS
 10
0.416965
 20
-3.379665
  0
VERTEX
  8
PLAN_1
  6
CONTINUOUS
 10
0.414378
 20
-3.375791
  0
VERTEX
  8
PLAN_1
  6
CONTINUOUS
 10
0.412224
 20
-3.371480
  0
VERTEX
  8
PLAN_1
  6
CONTINUOUS
 10
0.409642
 20
-3.366744
  0
VERTEX
  8
PLAN_1
  6
CONTINUOUS
 10
0.407488
 20
-3.362437
  0
VERTEX
  8
PLAN_1
  6
CONTINUOUS
 10
0.405764
 20
-3.357268
  0
VERTEX
  8
PLAN_1
  6
CONTINUOUS
 10
0.404043
 20
-3.352098
  0
VERTEX
  8
PLAN_1
  6
CONTINUOUS
 10
0.402319
 20
-3.346500
  0
VERTEX
  8
PLAN_1
  6
CONTINUOUS
 10
0.401028
 20
-3.340902
  0
VERTEX
  8
PLAN_1
  6
CONTINUOUS
 10
0.400165
 20
-3.334870
  0
VERTEX
  8
PLAN_1
  6
CONTINUOUS
 10
0.399303
 20
-3.328839
  0
VERTEX
  8
PLAN_1
  6
CONTINUOUS
 10
0.398441
 20
-3.322378
  0
VERTEX
  8
PLAN_1
  6
CONTINUOUS
 10
0.398441
 20
-3.315484
  0
VERTEX
  8
PLAN_1
  6
CONTINUOUS
 10
0.398012
 20
-3.308594
  0
VERTEX
  8
PLAN_1
  6
CONTINUOUS
 10
0.398441
 20
-3.296965
  0
VERTEX
  8
PLAN_1
  6
CONTINUOUS
 10
0.399736
 20
-3.286197
  0
VERTEX
  8
PLAN_1
  6
CONTINUOUS
 10
0.400594
 20
-3.281028
  0
VERTEX
  8
PLAN_1
  6
CONTINUOUS
 10
0.401890
 20
-3.275858
  0
VERTEX
  8
PLAN_1
  6
CONTINUOUS
 10
0.403181
 20
-3.271118
  0
VERTEX
  8
PLAN_1
  6
CONTINUOUS
 10
0.404472
 20
-3.266382
  0
VERTEX
  8
PLAN_1
  6
CONTINUOUS
 10
0.406197
 20
-3.261642
  0
VERTEX
  8
PLAN_1
  6
CONTINUOUS
 10
0.407917
 20
-3.257335
  0
VERTEX
  8
PLAN_1
  6
CONTINUOUS
 10
0.410071
 20
-3.252598
  0
VERTEX
  8
PLAN_1
  6
CONTINUOUS
 10
0.412224
 20
-3.248720
  0
VERTEX
  8
PLAN_1
  6
CONTINUOUS
 10
0.414811
 20
-3.244413
  0
VERTEX
  8
PLAN_1
  6
CONTINUOUS
 10
0.417394
 20
-3.240535
  0
VERTEX
  8
PLAN_1
  6
CONTINUOUS
 10
0.419980
 20
-3.237091
  0
VERTEX
  8
PLAN_1
  6
CONTINUOUS
 10
0.422996
 20
-3.233646
  0
VERTEX
  8
PLAN_1
  6
CONTINUOUS
 10
0.426012
 20
-3.230201
  0
VERTEX
  8
PLAN_1
  6
CONTINUOUS
 10
0.429024
 20
-3.227185
  0
VERTEX
  8
PLAN_1
  6
CONTINUOUS
 10
0.432472
 20
-3.224169
  0
VERTEX
  8
PLAN_1
  6
CONTINUOUS
 10
0.436346
 20
-3.221154
  0
VERTEX
  8
PLAN_1
  6
CONTINUOUS
 10
0.439795
 20
-3.218571
  0
VERTEX
  8
PLAN_1
  6
CONTINUOUS
 10
0.443669
 20
-3.216417
  0
VERTEX
  8
PLAN_1
  6
CONTINUOUS
 10
0.447976
 20
-3.214264
  0
VERTEX
  8
PLAN_1
  6
CONTINUOUS
 10
0.452283
 20
-3.212106
  0
VERTEX
  8
PLAN_1
  6
CONTINUOUS
 10
0.456591
 20
-3.210386
  0
VERTEX
  8
PLAN_1
  6
CONTINUOUS
 10
0.460902
 20
-3.209094
  0
VERTEX
  8
PLAN_1
  6
CONTINUOUS
 10
0.465638
 20
-3.207799
  0
VERTEX
  8
PLAN_1
  6
CONTINUOUS
 10
0.470378
 20
-3.206508
  0
VERTEX
  8
PLAN_1
  6
CONTINUOUS
 10
0.475543
 20
-3.205646
  0
VERTEX
  8
PLAN_1
  6
CONTINUOUS
 10
0.480283
 20
-3.205217
  0
VERTEX
  8
PLAN_1
  6
CONTINUOUS
 10
0.485882
 20
-3.204787
  0
VERTEX
  8
PLAN_1
  6
CONTINUOUS
 10
0.491051
 20
-3.204787
  0
VERTEX
  8
PLAN_1
  6
CONTINUOUS
 10
0.500528
 20
-3.204787
  0
VERTEX
  8
PLAN_1
  6
CONTINUOUS
 10
0.509142
 20
-3.206079
  0
VERTEX
  8
PLAN_1
  6
CONTINUOUS
 10
0.517327
 20
-3.207799
  0
VERTEX
  8
PLAN_1
  6
CONTINUOUS
 10
0.525079
 20
-3.209953
  0
VERTEX
  8
PLAN_1
  6
CONTINUOUS
 10
0.531972
 20
-3.212969
  0
VERTEX
  8
PLAN_1
  6
CONTINUOUS
 10
0.538433
 20
-3.216417
  0
VERTEX
  8
PLAN_1
  6
CONTINUOUS
 10
0.544465
 20
-3.220291
  0
VERTEX
  8
PLAN_1
  6
CONTINUOUS
 10
0.549634
 20
-3.224598
  0
VERTEX
  8
PLAN_1
  6
CONTINUOUS
 10
0.554803
 20
-3.229339
  0
VERTEX
  8
PLAN_1
  6
CONTINUOUS
 10
0.559110
 20
-3.234508
  0
VERTEX
  8
PLAN_1
  6
CONTINUOUS
 10
0.562555
 20
-3.240106
  0
VERTEX
  8
PLAN_1
  6
CONTINUOUS
 10
0.565571
 20
-3.245705
  0
VERTEX
  8
PLAN_1
  6
CONTINUOUS
 10
0.568587
 20
-3.251307
  0
VERTEX
  8
PLAN_1
  6
CONTINUOUS
 10
0.570307
 20
-3.257335
  0
VERTEX
  8
PLAN_1
  6
CONTINUOUS
 10
0.572031
 20
-3.263795
  0
VERTEX
  8
PLAN_1
  6
CONTINUOUS
 10
0.572894
 20
-3.269827
  0
VERTEX
  8
PLAN_1
  6
CONTINUOUS
 10
0.547047
 20
-3.269827
  0
SEQEND
  8
0
  0
POLYLINE
  8
PLAN_1
  6
CONTINUOUS
 66
     1
 40
0.003000
 41
0.003000
  0
VERTEX
  8
PLAN_1
  6
CONTINUOUS
 10
0.634488
 20
-3.408957
  0
VERTEX
  8
PLAN_1
  6
CONTINUOUS
 10
0.607350
 20
-3.408957
  0
VERTEX
  8
PLAN_1
  6
CONTINUOUS
 10
0.607350
 20
-3.209953
  0
VERTEX
  8
PLAN_1
  6
CONTINUOUS
 10
0.634488
 20
-3.209953
  0
VERTEX
  8
PLAN_1
  6
CONTINUOUS
 10
0.634488
 20
-3.306441
  0
VERTEX
  8
PLAN_1
  6
CONTINUOUS
 10
0.730972
 20
-3.209953
  0
VERTEX
  8
PLAN_1
  6
CONTINUOUS
 10
0.768020
 20
-3.209953
  0
VERTEX
  8
PLAN_1
  6
CONTINUOUS
 10
0.685315
 20
-3.290504
  0
VERTEX
  8
PLAN_1
  6
CONTINUOUS
 10
0.770602
 20
-3.408957
  0
VERTEX
  8
PLAN_1
  6
CONTINUOUS
 10
0.735280
 20
-3.408957
  0
VERTEX
  8
PLAN_1
  6
CONTINUOUS
 10
0.665933
 20
-3.309024
  0
VERTEX
  8
PLAN_1
  6
CONTINUOUS
 10
0.634488
 20
-3.339177
  0
VERTEX
  8
PLAN_1
  6
CONTINUOUS
 10
0.634488
 20
-3.408957
  0
SEQEND
  8
0
  0
POLYLINE
  8
PLAN_1
  6
CONTINUOUS
 66
     1
 40
0.003000
 41
0.003000
  0
VERTEX
  8
PLAN_1
  6
CONTINUOUS
 10
0.794291
 20
-3.209953
  0
VERTEX
  8
PLAN_1
  6
CONTINUOUS
 10
0.874843
 20
-3.209953
  0
VERTEX
  8
PLAN_1
  6
CONTINUOUS
 10
0.879579
 20
-3.209953
  0
VERTEX
  8
PLAN_1
  6
CONTINUOUS
 10
0.884319
 20
-3.210386
  0
VERTEX
  8
PLAN_1
  6
CONTINUOUS
 10
0.889055
 20
-3.210815
  0
VERTEX
  8
PLAN_1
  6
CONTINUOUS
 10
0.893362
 20
-3.211677
  0
VERTEX
  8
PLAN_1
  6
CONTINUOUS
 10
0.897669
 20
-3.212539
  0
VERTEX
  8
PLAN_1
  6
CONTINUOUS
 10
0.901976
 20
-3.213831
  0
VERTEX
  8
PLAN_1
  6
CONTINUOUS
 10
0.905854
 20
-3.215122
  0
VERTEX
  8
PLAN_1
  6
CONTINUOUS
 10
0.909732
 20
-3.216846
  0
VERTEX
  8
PLAN_1
  6
CONTINUOUS
 10
0.913606
 20
-3.218571
  0
VERTEX
  8
PLAN_1
  6
CONTINUOUS
 10
0.917484
 20
-3.220724
  0
VERTEX
  8
PLAN_1
  6
CONTINUOUS
 10
0.920929
 20
-3.222878
  0
VERTEX
  8
PLAN_1
  6
CONTINUOUS
 10
0.924378
 20
-3.225461
  0
VERTEX
  8
PLAN_1
  6
CONTINUOUS
 10
0.927390
 20
-3.228047
  0
VERTEX
  8
PLAN_1
  6
CONTINUOUS
 10
0.930406
 20
-3.230630
  0
VERTEX
  8
PLAN_1
  6
CONTINUOUS
 10
0.933421
 20
-3.233646
  0
VERTEX
  8
PLAN_1
  6
CONTINUOUS
 10
0.936437
 20
-3.236661
  0
VERTEX
  8
PLAN_1
  6
CONTINUOUS
 10
0.939024
 20
-3.240106
  0
VERTEX
  8
PLAN_1
  6
CONTINUOUS
 10
0.941177
 20
-3.243551
  0
VERTEX
  8
PLAN_1
  6
CONTINUOUS
 10
0.943760
 20
-3.247000
  0
VERTEX
  8
PLAN_1
  6
CONTINUOUS
 10
0.945913
 20
-3.250874
  0
VERTEX
  8
PLAN_1
  6
CONTINUOUS
 10
0.949791
 20
-3.258630
  0
VERTEX
  8
PLAN_1
  6
CONTINUOUS
 10
0.952807
 20
-3.267244
  0
VERTEX
  8
PLAN_1
  6
CONTINUOUS
 10
0.955390
 20
-3.276287
  0
VERTEX
  8
PLAN_1
  6
CONTINUOUS
 10
0.957114
 20
-3.286197
  0
VERTEX
  8
PLAN_1
  6
CONTINUOUS
 10
0.958406
 20
-3.296102
  0
VERTEX
  8
PLAN_1
  6
CONTINUOUS
 10
0.958835
 20
-3.306870
  0
VERTEX
  8
PLAN_1
  6
CONTINUOUS
 10
0.958406
 20
-3.315055
  0
VERTEX
  8
PLAN_1
  6
CONTINUOUS
 10
0.957543
 20
-3.324102
  0
VERTEX
  8
PLAN_1
  6
CONTINUOUS
 10
0.956681
 20
-3.332717
  0
VERTEX
  8
PLAN_1
  6
CONTINUOUS
 10
0.954528
 20
-3.341760
  0
VERTEX
  8
PLAN_1
  6
CONTINUOUS
 10
0.952374
 20
-3.350374
  0
VERTEX
  8
PLAN_1
  6
CONTINUOUS
 10
0.948929
 20
-3.358992
  0
VERTEX
  8
PLAN_1
  6
CONTINUOUS
 10
0.945484
 20
-3.366744
  0
VERTEX
  8
PLAN_1
  6
CONTINUOUS
 10
0.940744
 20
-3.374496
  0
VERTEX
  8
PLAN_1
  6
CONTINUOUS
 10
0.938161
 20
-3.378374
  0
VERTEX
  8
PLAN_1
  6
CONTINUOUS
 10
0.935575
 20
-3.381819
  0
VERTEX
  8
PLAN_1
  6
CONTINUOUS
 10
0.932559
 20
-3.385268
  0
VERTEX
  8
PLAN_1
  6
CONTINUOUS
 10
0.929547
 20
-3.388713
  0
VERTEX
  8
PLAN_1
  6
CONTINUOUS
 10
0.926098
 20
-3.391728
  0
VERTEX
  8
PLAN_1
  6
CONTINUOUS
 10
0.922654
 20
-3.394311
  0
VERTEX
  8
PLAN_1
  6
CONTINUOUS
 10
0.918776
 20
-3.396898
  0
VERTEX
  8
PLAN_1
  6
CONTINUOUS
 10
0.914469
 20
-3.399480
  0
VERTEX
  8
PLAN_1
  6
CONTINUOUS
 10
0.910594
 20
-3.401634
  0
VERTEX
  8
PLAN_1
  6
CONTINUOUS
 10
0.905854
 20
-3.403358
  0
VERTEX
  8
PLAN_1
  6
CONTINUOUS
 10
0.901118
 20
-3.405079
  0
VERTEX
  8
PLAN_1
  6
CONTINUOUS
 10
0.896378
 20
-3.406374
  0
VERTEX
  8
PLAN_1
  6
CONTINUOUS
 10
0.891209
 20
-3.407665
  0
VERTEX
  8
PLAN_1
  6
CONTINUOUS
 10
0.885610
 20
-3.408528
  0
VERTEX
  8
PLAN_1
  6
CONTINUOUS
 10
0.879579
 20
-3.408957
  0
VERTEX
  8
PLAN_1
  6
CONTINUOUS
 10
0.873980
 20
-3.408957
  0
VERTEX
  8
PLAN_1
  6
CONTINUOUS
 10
0.794291
 20
-3.408957
  0
VERTEX
  8
PLAN_1
  6
CONTINUOUS
 10
0.794291
 20
-3.209953
  0
SEQEND
  8
0
  0
POLYLINE
  8
PLAN_1
  6
CONTINUOUS
 66
     1
 40
0.003000
 41
0.003000
  0
VERTEX
  8
PLAN_1
  6
CONTINUOUS
 10
0.821000
 20
-3.386126
  0
VERTEX
  8
PLAN_1
  6
CONTINUOUS
 10
0.873118
 20
-3.386126
  0
VERTEX
  8
PLAN_1
  6
CONTINUOUS
 10
0.879579
 20
-3.385697
  0
VERTEX
  8
PLAN_1
  6
CONTINUOUS
 10
0.885610
 20
-3.384835
  0
VERTEX
  8
PLAN_1
  6
CONTINUOUS
 10
0.891642
 20
-3.383110
  0
VERTEX
  8
PLAN_1
  6
CONTINUOUS
 10
0.896811
 20
-3.380957
  0
VERTEX
  8
PLAN_1
  6
CONTINUOUS
 10
0.901976
 20
-3.378374
  0
VERTEX
  8
PLAN_1
  6
CONTINUOUS
 10
0.906717
 20
-3.374929
  0
VERTEX
  8
PLAN_1
  6
CONTINUOUS
 10
0.911024
 20
-3.370622
  0
VERTEX
  8
PLAN_1
  6
CONTINUOUS
 10
0.915331
 20
-3.365882
  0
VERTEX
  8
PLAN_1
  6
CONTINUOUS
 10
0.918776
 20
-3.360713
  0
VERTEX
  8
PLAN_1
  6
CONTINUOUS
 10
0.921791
 20
-3.355114
  0
VERTEX
  8
PLAN_1
  6
CONTINUOUS
 10
0.924378
 20
-3.348654
  0
VERTEX
  8
PLAN_1
  6
CONTINUOUS
 10
0.926961
 20
-3.341760
  0
VERTEX
  8
PLAN_1
  6
CONTINUOUS
 10
0.928685
 20
-3.334437
  0
VERTEX
  8
PLAN_1
  6
CONTINUOUS
 10
0.929976
 20
-3.326256
  0
VERTEX
  8
PLAN_1
  6
CONTINUOUS
 10
0.930839
 20
-3.317638
  0
VERTEX
  8
PLAN_1
  6
CONTINUOUS
 10
0.930839
 20
-3.308594
  0
VERTEX
  8
PLAN_1
  6
CONTINUOUS
 10
0.930839
 20
-3.299118
  0
VERTEX
  8
PLAN_1
  6
CONTINUOUS
 10
0.929976
 20
-3.290933
  0
VERTEX
  8
PLAN_1
  6
CONTINUOUS
 10
0.928685
 20
-3.282748
  0
VERTEX
  8
PLAN_1
  6
CONTINUOUS
 10
0.926961
 20
-3.275425
  0
VERTEX
  8
PLAN_1
  6
CONTINUOUS
 10
0.924378
 20
-3.268535
  0
VERTEX
  8
PLAN_1
  6
CONTINUOUS
 10
0.921791
 20
-3.262504
  0
VERTEX
  8
PLAN_1
  6
CONTINUOUS
 10
0.918346
 20
-3.256906
  0
VERTEX
  8
PLAN_1
  6
CONTINUOUS
 10
0.914902
 20
-3.251736
  0
VERTEX
  8
PLAN_1
  6
CONTINUOUS
 10
0.910594
 20
-3.247429
  0
VERTEX
  8
PLAN_1
  6
CONTINUOUS
 10
0.906283
 20
-3.243551
  0
VERTEX
  8
PLAN_1
  6
CONTINUOUS
 10
0.901547
 20
-3.240106
  0
VERTEX
  8
PLAN_1
  6
CONTINUOUS
 10
0.895949
 20
-3.237524
  0
VERTEX
  8
PLAN_1
  6
CONTINUOUS
 10
0.890346
 20
-3.235370
  0
VERTEX
  8
PLAN_1
  6
CONTINUOUS
 10
0.884319
 20
-3.234075
  0
VERTEX
  8
PLAN_1
  6
CONTINUOUS
 10
0.877858
 20
-3.233213
  0
VERTEX
  8
PLAN_1
  6
CONTINUOUS
 10
0.871394
 20
-3.232783
  0
VERTEX
  8
PLAN_1
  6
CONTINUOUS
 10
0.821000
 20
-3.232783
  0
VERTEX
  8
PLAN_1
  6
CONTINUOUS
 10
0.821000
 20
-3.386126
  0
SEQEND
  8
0
  0
POLYLINE
  8
PLAN_1
  6
CONTINUOUS
 66
     1
 40
0.003000
 41
0.003000
  0
VERTEX
  8
PLAN_1
  6
CONTINUOUS
 10
1.049291
 20
-3.414555
  0
VERTEX
  8
PLAN_1
  6
CONTINUOUS
 10
1.044122
 20
-3.414126
  0
VERTEX
  8
PLAN_1
  6
CONTINUOUS
 10
1.039386
 20
-3.413693
  0
VERTEX
  8
PLAN_1
  6
CONTINUOUS
 10
1.034646
 20
-3.412835
  0
VERTEX
  8
PLAN_1
  6
CONTINUOUS
 10
1.030339
 20
-3.411972
  0
VERTEX
  8
PLAN_1
  6
CONTINUOUS
 10
1.026031
 20
-3.410248
  0
VERTEX
  8
PLAN_1
  6
CONTINUOUS
 10
1.022154
 20
-3.408528
  0
VERTEX
  8
PLAN_1
  6
CONTINUOUS
 10
1.018709
 20
-3.406803
  0
VERTEX
  8
PLAN_1
  6
CONTINUOUS
 10
1.015264
 20
-3.404650
  0
VERTEX
  8
PLAN_1
  6
CONTINUOUS
 10
1.011815
 20
-3.402063
  0
VERTEX
  8
PLAN_1
  6
CONTINUOUS
 10
1.008803
 20
-3.399480
  0
VERTEX
  8
PLAN_1
  6
CONTINUOUS
 10
1.006217
 20
-3.396465
  0
VERTEX
  8
PLAN_1
  6
CONTINUOUS
 10
1.003634
 20
-3.393449
  0
VERTEX
  8
PLAN_1
  6
CONTINUOUS
 10
1.001047
 20
-3.390004
  0
VERTEX
  8
PLAN_1
  6
CONTINUOUS
 10
0.998894
 20
-3.386559
  0
VERTEX
  8
PLAN_1
  6
CONTINUOUS
 10
0.996740
 20
-3.383110
  0
VERTEX
  8
PLAN_1
  6
CONTINUOUS
 10
0.995020
 20
-3.379665
  0
VERTEX
  8
PLAN_1
  6
CONTINUOUS
 10
0.991571
 20
-3.371913
  0
VERTEX
  8
PLAN_1
  6
CONTINUOUS
 10
0.988555
 20
-3.363728
  0
VERTEX
  8
PLAN_1
  6
CONTINUOUS
 10
0.986402
 20
-3.355543
  0
VERTEX
  8
PLAN_1
  6
CONTINUOUS
 10
0.985110
 20
-3.346929
  0
VERTEX
  8
PLAN_1
  6
CONTINUOUS
 10
0.983819
 20
-3.338315
  0
VERTEX
  8
PLAN_1
  6
CONTINUOUS
 10
0.982957
 20
-3.330130
  0
VERTEX
  8
PLAN_1
  6
CONTINUOUS
 10
0.982528
 20
-3.321949
  0
VERTEX
  8
PLAN_1
  6
CONTINUOUS
 10
0.982528
 20
-3.314193
  0
VERTEX
  8
PLAN_1
  6
CONTINUOUS
 10
0.982528
 20
-3.306441
  0
VERTEX
  8
PLAN_1
  6
CONTINUOUS
 10
0.982957
 20
-3.298256
  0
VERTEX
  8
PLAN_1
  6
CONTINUOUS
 10
0.983819
 20
-3.290071
  0
VERTEX
  8
PLAN_1
  6
CONTINUOUS
 10
0.985110
 20
-3.281457
  0
VERTEX
  8
PLAN_1
  6
CONTINUOUS
 10
0.986402
 20
-3.272843
  0
VERTEX
  8
PLAN_1
  6
CONTINUOUS
 10
0.988555
 20
-3.264657
  0
VERTEX
  8
PLAN_1
  6
CONTINUOUS
 10
0.991571
 20
-3.256476
  0
VERTEX
  8
PLAN_1
  6
CONTINUOUS
 10
0.995020
 20
-3.248720
  0
VERTEX
  8
PLAN_1
  6
CONTINUOUS
 10
0.996740
 20
-3.245276
  0
VERTEX
  8
PLAN_1
  6
CONTINUOUS
 10
0.998894
 20
-3.241831
  0
VERTEX
  8
PLAN_1
  6
CONTINUOUS
 10
1.001047
 20
-3.238382
  0
VERTEX
  8
PLAN_1
  6
CONTINUOUS
 10
1.003634
 20
-3.234937
  0
VERTEX
  8
PLAN_1
  6
CONTINUOUS
 10
1.006217
 20
-3.231921
  0
VERTEX
  8
PLAN_1
  6
CONTINUOUS
 10
1.008803
 20
-3.228906
  0
VERTEX
  8
PLAN_1
  6
CONTINUOUS
 10
1.011815
 20
-3.226323
  0
VERTEX
  8
PLAN_1
  6
CONTINUOUS
 10
1.015264
 20
-3.224169
  0
VERTEX
  8
PLAN_1
  6
CONTINUOUS
 10
1.018709
 20
-3.221583
  0
VERTEX
  8
PLAN_1
  6
CONTINUOUS
 10
1.022154
 20
-3.219862
  0
VERTEX
  8
PLAN_1
  6
CONTINUOUS
 10
1.026031
 20
-3.218138
  0
VERTEX
  8
PLAN_1
  6
CONTINUOUS
 10
1.030339
 20
-3.216846
  0
VERTEX
  8
PLAN_1
  6
CONTINUOUS
 10
1.034646
 20
-3.215555
  0
VERTEX
  8
PLAN_1
  6
CONTINUOUS
 10
1.039386
 20
-3.214693
  0
VERTEX
  8
PLAN_1
  6
CONTINUOUS
 10
1.044122
 20
-3.214264
  0
VERTEX
  8
PLAN_1
  6
CONTINUOUS
 10
1.049291
 20
-3.213831
  0
VERTEX
  8
PLAN_1
  6
CONTINUOUS
 10
1.054461
 20
-3.214264
  0
VERTEX
  8
PLAN_1
  6
CONTINUOUS
 10
1.059197
 20
-3.214693
  0
VERTEX
  8
PLAN_1
  6
CONTINUOUS
 10
1.063937
 20
-3.215555
  0
VERTEX
  8
PLAN_1
  6
CONTINUOUS
 10
1.068244
 20
-3.216846
  0
VERTEX
  8
PLAN_1
  6
CONTINUOUS
 10
1.072551
 20
-3.218138
  0
VERTEX
  8
PLAN_1
  6
CONTINUOUS
 10
1.076429
 20
-3.219862
  0
VERTEX
  8
PLAN_1
  6
CONTINUOUS
 10
1.079874
 20
-3.221583
  0
VERTEX
  8
PLAN_1
  6
CONTINUOUS
 10
1.083319
 20
-3.224169
  0
VERTEX
  8
PLAN_1
  6
CONTINUOUS
 10
1.086764
 20
-3.226323
  0
VERTEX
  8
PLAN_1
  6
CONTINUOUS
 10
1.089780
 20
-3.228906
  0
VERTEX
  8
PLAN_1
  6
CONTINUOUS
 10
1.092366
 20
-3.231921
  0
VERTEX
  8
PLAN_1
  6
CONTINUOUS
 10
1.094949
 20
-3.234937
  0
VERTEX
  8
PLAN_1
  6
CONTINUOUS
 10
1.097535
 20
-3.238382
  0
VERTEX
  8
PLAN_1
  6
CONTINUOUS
 10
1.099689
 20
-3.241831
  0
VERTEX
  8
PLAN_1
  6
CONTINUOUS
 10
1.101843
 20
-3.245276
  0
VERTEX
  8
PLAN_1
  6
CONTINUOUS
 10
1.103563
 20
-3.248720
  0
VERTEX
  8
PLAN_1
  6
CONTINUOUS
 10
1.107012
 20
-3.256476
  0
VERTEX
  8
PLAN_1
  6
CONTINUOUS
 10
1.109594
 20
-3.264657
  0
VERTEX
  8
PLAN_1
  6
CONTINUOUS
 10
1.111748
 20
-3.272843
  0
VERTEX
  8
PLAN_1
  6
CONTINUOUS
 10
1.113472
 20
-3.281457
  0
VERTEX
  8
PLAN_1
  6
CONTINUOUS
 10
1.114764
 20
-3.290071
  0
VERTEX
  8
PLAN_1
  6
CONTINUOUS
 10
1.115626
 20
-3.298256
  0
VERTEX
  8
PLAN_1
  6
CONTINUOUS
 10
1.116055
 20
-3.306441
  0
VERTEX
  8
PLAN_1
  6
CONTINUOUS
 10
1.116055
 20
-3.314193
  0
VERTEX
  8
PLAN_1
  6
CONTINUOUS
 10
1.116055
 20
-3.321949
  0
VERTEX
  8
PLAN_1
  6
CONTINUOUS
 10
1.115626
 20
-3.330130
  0
VERTEX
  8
PLAN_1
  6
CONTINUOUS
 10
1.114764
 20
-3.338315
  0
VERTEX
  8
PLAN_1
  6
CONTINUOUS
 10
1.113472
 20
-3.346929
  0
VERTEX
  8
PLAN_1
  6
CONTINUOUS
 10
1.111748
 20
-3.355543
  0
VERTEX
  8
PLAN_1
  6
CONTINUOUS
 10
1.109594
 20
-3.363728
  0
VERTEX
  8
PLAN_1
  6
CONTINUOUS
 10
1.107012
 20
-3.371913
  0
VERTEX
  8
PLAN_1
  6
CONTINUOUS
 10
1.103563
 20
-3.379665
  0
VERTEX
  8
PLAN_1
  6
CONTINUOUS
 10
1.101843
 20
-3.383110
  0
VERTEX
  8
PLAN_1
  6
CONTINUOUS
 10
1.099689
 20
-3.386559
  0
VERTEX
  8
PLAN_1
  6
CONTINUOUS
 10
1.097535
 20
-3.390004
  0
VERTEX
  8
PLAN_1
  6
CONTINUOUS
 10
1.094949
 20
-3.393449
  0
VERTEX
  8
PLAN_1
  6
CONTINUOUS
 10
1.092366
 20
-3.396465
  0
VERTEX
  8
PLAN_1
  6
CONTINUOUS
 10
1.089780
 20
-3.399480
  0
VERTEX
  8
PLAN_1
  6
CONTINUOUS
 10
1.086764
 20
-3.402063
  0
VERTEX
  8
PLAN_1
  6
CONTINUOUS
 10
1.083319
 20
-3.404650
  0
VERTEX
  8
PLAN_1
  6
CONTINUOUS
 10
1.079874
 20
-3.406803
  0
VERTEX
  8
PLAN_1
  6
CONTINUOUS
 10
1.076429
 20
-3.408528
  0
VERTEX
  8
PLAN_1
  6
CONTINUOUS
 10
1.072551
 20
-3.410248
  0
VERTEX
  8
PLAN_1
  6
CONTINUOUS
 10
1.068244
 20
-3.411972
  0
VERTEX
  8
PLAN_1
  6
CONTINUOUS
 10
1.063937
 20
-3.412835
  0
VERTEX
  8
PLAN_1
  6
CONTINUOUS
 10
1.059197
 20
-3.413693
  0
VERTEX
  8
PLAN_1
  6
CONTINUOUS
 10
1.054461
 20
-3.414126
  0
VERTEX
  8
PLAN_1
  6
CONTINUOUS
 10
1.049291
 20
-3.414555
  0
SEQEND
  8
0
  0
POLYLINE
  8
PLAN_1
  6
CONTINUOUS
 66
     1
 40
0.003000
 41
0.003000
  0
VERTEX
  8
PLAN_1
  6
CONTINUOUS
 10
1.049291
 20
-3.235799
  0
VERTEX
  8
PLAN_1
  6
CONTINUOUS
 10
1.044122
 20
-3.236228
  0
VERTEX
  8
PLAN_1
  6
CONTINUOUS
 10
1.039386
 20
-3.237524
  0
VERTEX
  8
PLAN_1
  6
CONTINUOUS
 10
1.035079
 20
-3.238815
  0
VERTEX
  8
PLAN_1
  6
CONTINUOUS
 10
1.031201
 20
-3.241398
  0
VERTEX
  8
PLAN_1
  6
CONTINUOUS
 10
1.027323
 20
-3.244413
  0
VERTEX
  8
PLAN_1
  6
CONTINUOUS
 10
1.023878
 20
-3.247858
  0
VERTEX
  8
PLAN_1
  6
CONTINUOUS
 10
1.020862
 20
-3.252165
  0
VERTEX
  8
PLAN_1
  6
CONTINUOUS
 10
1.018280
 20
-3.256906
  0
VERTEX
  8
PLAN_1
  6
CONTINUOUS
 10
1.016126
 20
-3.262075
  0
VERTEX
  8
PLAN_1
  6
CONTINUOUS
 10
1.013972
 20
-3.268106
  0
VERTEX
  8
PLAN_1
  6
CONTINUOUS
 10
1.012248
 20
-3.274567
  0
VERTEX
  8
PLAN_1
  6
CONTINUOUS
 10
1.010957
 20
-3.281457
  0
VERTEX
  8
PLAN_1
  6
CONTINUOUS
 10
1.009661
 20
-3.288780
  0
VERTEX
  8
PLAN_1
  6
CONTINUOUS
 10
1.009232
 20
-3.296965
  0
VERTEX
  8
PLAN_1
  6
CONTINUOUS
 10
1.008803
 20
-3.305150
  0
VERTEX
  8
PLAN_1
  6
CONTINUOUS
 10
1.008370
 20
-3.314193
  0
VERTEX
  8
PLAN_1
  6
CONTINUOUS
 10
1.008803
 20
-3.323240
  0
VERTEX
  8
PLAN_1
  6
CONTINUOUS
 10
1.009232
 20
-3.331425
  0
VERTEX
  8
PLAN_1
  6
CONTINUOUS
 10
1.009661
 20
-3.339606
  0
VERTEX
  8
PLAN_1
  6
CONTINUOUS
 10
1.010957
 20
-3.346929
  0
VERTEX
  8
PLAN_1
  6
CONTINUOUS
 10
1.012248
 20
-3.353823
  0
VERTEX
  8
PLAN_1
  6
CONTINUOUS
 10
1.013972
 20
-3.360283
  0
VERTEX
  8
PLAN_1
  6
CONTINUOUS
 10
1.016126
 20
-3.366315
  0
VERTEX
  8
PLAN_1
  6
CONTINUOUS
 10
1.018280
 20
-3.371480
  0
VERTEX
  8
PLAN_1
  6
CONTINUOUS
 10
1.020862
 20
-3.376650
  0
VERTEX
  8
PLAN_1
  6
CONTINUOUS
 10
1.023878
 20
-3.380528
  0
VERTEX
  8
PLAN_1
  6
CONTINUOUS
 10
1.027323
 20
-3.384406
  0
VERTEX
  8
PLAN_1
  6
CONTINUOUS
 10
1.031201
 20
-3.386988
  0
VERTEX
  8
PLAN_1
  6
CONTINUOUS
 10
1.035079
 20
-3.389575
  0
VERTEX
  8
PLAN_1
  6
CONTINUOUS
 10
1.039386
 20
-3.391295
  0
VERTEX
  8
PLAN_1
  6
CONTINUOUS
 10
1.044122
 20
-3.392157
  0
VERTEX
  8
PLAN_1
  6
CONTINUOUS
 10
1.049291
 20
-3.392587
  0
VERTEX
  8
PLAN_1
  6
CONTINUOUS
 10
1.054461
 20
-3.392157
  0
VERTEX
  8
PLAN_1
  6
CONTINUOUS
 10
1.059197
 20
-3.391295
  0
VERTEX
  8
PLAN_1
  6
CONTINUOUS
 10
1.063504
 20
-3.389575
  0
VERTEX
  8
PLAN_1
  6
CONTINUOUS
 10
1.067382
 20
-3.386988
  0
VERTEX
  8
PLAN_1
  6
CONTINUOUS
 10
1.071260
 20
-3.384406
  0
VERTEX
  8
PLAN_1
  6
CONTINUOUS
 10
1.074705
 20
-3.380528
  0
VERTEX
  8
PLAN_1
  6
CONTINUOUS
 10
1.077720
 20
-3.376650
  0
VERTEX
  8
PLAN_1
  6
CONTINUOUS
 10
1.080303
 20
-3.371480
  0
VERTEX
  8
PLAN_1
  6
CONTINUOUS
 10
1.082457
 20
-3.366315
  0
VERTEX
  8
PLAN_1
  6
CONTINUOUS
 10
1.084610
 20
-3.360283
  0
VERTEX
  8
PLAN_1
  6
CONTINUOUS
 10
1.086335
 20
-3.353823
  0
VERTEX
  8
PLAN_1
  6
CONTINUOUS
 10
1.087626
 20
-3.346929
  0
VERTEX
  8
PLAN_1
  6
CONTINUOUS
 10
1.088921
 20
-3.339606
  0
VERTEX
  8
PLAN_1
  6
CONTINUOUS
 10
1.089350
 20
-3.331425
  0
VERTEX
  8
PLAN_1
  6
CONTINUOUS
 10
1.089780
 20
-3.323240
  0
VERTEX
  8
PLAN_1
  6
CONTINUOUS
 10
1.090213
 20
-3.314193
  0
VERTEX
  8
PLAN_1
  6
CONTINUOUS
 10
1.089780
 20
-3.305150
  0
VERTEX
  8
PLAN_1
  6
CONTINUOUS
 10
1.089350
 20
-3.296965
  0
VERTEX
  8
PLAN_1
  6
CONTINUOUS
 10
1.088921
 20
-3.288780
  0
VERTEX
  8
PLAN_1
  6
CONTINUOUS
 10
1.087626
 20
-3.281457
  0
VERTEX
  8
PLAN_1
  6
CONTINUOUS
 10
1.086335
 20
-3.274567
  0
VERTEX
  8
PLAN_1
  6
CONTINUOUS
 10
1.084610
 20
-3.268106
  0
VERTEX
  8
PLAN_1
  6
CONTINUOUS
 10
1.082457
 20
-3.262075
  0
VERTEX
  8
PLAN_1
  6
CONTINUOUS
 10
1.080303
 20
-3.256906
  0
VERTEX
  8
PLAN_1
  6
CONTINUOUS
 10
1.077720
 20
-3.252165
  0
VERTEX
  8
PLAN_1
  6
CONTINUOUS
 10
1.074705
 20
-3.247858
  0
VERTEX
  8
PLAN_1
  6
CONTINUOUS
 10
1.071260
 20
-3.244413
  0
VERTEX
  8
PLAN_1
  6
CONTINUOUS
 10
1.067382
 20
-3.241398
  0
VERTEX
  8
PLAN_1
  6
CONTINUOUS
 10
1.063504
 20
-3.238815
  0
VERTEX
  8
PLAN_1
  6
CONTINUOUS
 10
1.059197
 20
-3.237524
  0
VERTEX
  8
PLAN_1
  6
CONTINUOUS
 10
1.054461
 20
-3.236228
  0
VERTEX
  8
PLAN_1
  6
CONTINUOUS
 10
1.049291
 20
-3.235799
  0
SEQEND
  8
0
  0
POLYLINE
  8
PLAN_1
  6
CONTINUOUS
 66
     1
 40
0.003000
 41
0.003000
  0
VERTEX
  8
PLAN_1
  6
CONTINUOUS
 10
1.138886
 20
-3.284043
  0
VERTEX
  8
PLAN_1
  6
CONTINUOUS
 10
1.138886
 20
-3.278012
  0
VERTEX
  8
PLAN_1
  6
CONTINUOUS
 10
1.139315
 20
-3.272843
  0
VERTEX
  8
PLAN_1
  6
CONTINUOUS
 10
1.139748
 20
-3.267673
  0
VERTEX
  8
PLAN_1
  6
CONTINUOUS
 10
1.140606
 20
-3.262504
  0
VERTEX
  8
PLAN_1
  6
CONTINUOUS
 10
1.141902
 20
-3.258197
  0
VERTEX
  8
PLAN_1
  6
CONTINUOUS
 10
1.143193
 20
-3.253890
  0
VERTEX
  8
PLAN_1
  6
CONTINUOUS
 10
1.144484
 20
-3.250012
  0
VERTEX
  8
PLAN_1
  6
CONTINUOUS
 10
1.146209
 20
-3.246138
  0
VERTEX
  8
PLAN_1
  6
CONTINUOUS
 10
1.147929
 20
-3.242689
  0
VERTEX
  8
PLAN_1
  6
CONTINUOUS
 10
1.150083
 20
-3.239677
  0
VERTEX
  8
PLAN_1
  6
CONTINUOUS
 10
1.152240
 20
-3.236661
  0
VERTEX
  8
PLAN_1
  6
CONTINUOUS
 10
1.154394
 20
-3.234075
  0
VERTEX
  8
PLAN_1
  6
CONTINUOUS
 10
1.159130
 20
-3.229339
  0
VERTEX
  8
PLAN_1
  6
CONTINUOUS
 10
1.164728
 20
-3.225031
  0
VERTEX
  8
PLAN_1
  6
CONTINUOUS
 10
1.169898
 20
-3.222016
  0
VERTEX
  8
PLAN_1
  6
CONTINUOUS
 10
1.175500
 20
-3.219429
  0
VERTEX
  8
PLAN_1
  6
CONTINUOUS
 10
1.181098
 20
-3.217276
  0
VERTEX
  8
PLAN_1
  6
CONTINUOUS
 10
1.186697
 20
-3.215984
  0
VERTEX
  8
PLAN_1
  6
CONTINUOUS
 10
1.192295
 20
-3.215122
  0
VERTEX
  8
PLAN_1
  6
CONTINUOUS
 10
1.197035
 20
-3.214264
  0
VERTEX
  8
PLAN_1
  6
CONTINUOUS
 10
1.201772
 20
-3.214264
  0
VERTEX
  8
PLAN_1
  6
CONTINUOUS
 10
1.206083
 20
-3.213831
  0
VERTEX
  8
PLAN_1
  6
CONTINUOUS
 10
1.212543
 20
-3.214264
  0
VERTEX
  8
PLAN_1
  6
CONTINUOUS
 10
1.218571
 20
-3.215122
  0
VERTEX
  8
PLAN_1
  6
CONTINUOUS
 10
1.224173
 20
-3.216417
  0
VERTEX
  8
PLAN_1
  6
CONTINUOUS
 10
1.230201
 20
-3.218138
  0
VERTEX
  8
PLAN_1
  6
CONTINUOUS
 10
1.235370
 20
-3.220291
  0
VERTEX
  8
PLAN_1
  6
CONTINUOUS
 10
1.240539
 20
-3.222878
  0
VERTEX
  8
PLAN_1
  6
CONTINUOUS
 10
1.244846
 20
-3.225894
  0
VERTEX
  8
PLAN_1
  6
CONTINUOUS
 10
1.249587
 20
-3.229339
  0
VERTEX
  8
PLAN_1
  6
CONTINUOUS
 10
1.253461
 20
-3.233646
  0
VERTEX
  8
PLAN_1
  6
CONTINUOUS
 10
1.256909
 20
-3.237953
  0
VERTEX
  8
PLAN_1
  6
CONTINUOUS
 10
1.259925
 20
-3.242689
  0
VERTEX
  8
PLAN_1
  6
CONTINUOUS
 10
1.262508
 20
-3.247858
  0
VERTEX
  8
PLAN_1
  6
CONTINUOUS
 10
1.264661
 20
-3.253461
  0
VERTEX
  8
PLAN_1
  6
CONTINUOUS
 10
1.265953
 20
-3.259488
  0
VERTEX
  8
PLAN_1
  6
CONTINUOUS
 10
1.266815
 20
-3.265520
  0
VERTEX
  8
PLAN_1
  6
CONTINUOUS
 10
1.267244
 20
-3.272413
  0
VERTEX
  8
PLAN_1
  6
CONTINUOUS
 10
1.266815
 20
-3.278441
  0
VERTEX
  8
PLAN_1
  6
CONTINUOUS
 10
1.266386
 20
-3.284472
  0
VERTEX
  8
PLAN_1
  6
CONTINUOUS
 10
1.265091
 20
-3.290071
  0
VERTEX
  8
PLAN_1
  6
CONTINUOUS
 10
1.263370
 20
-3.295240
  0
VERTEX
  8
PLAN_1
  6
CONTINUOUS
 10
1.260783
 20
-3.299980
  0
VERTEX
  8
PLAN_1
  6
CONTINUOUS
 10
1.258201
 20
-3.304287
  0
VERTEX
  8
PLAN_1
  6
CONTINUOUS
 10
1.255614
 20
-3.308161
  0
VERTEX
  8
PLAN_1
  6
CONTINUOUS
 10
1.252169
 20
-3.312039
  0
VERTEX
  8
PLAN_1
  6
CONTINUOUS
 10
1.248291
 20
-3.315917
  0
VERTEX
  8
PLAN_1
  6
CONTINUOUS
 10
1.244417
 20
-3.319362
  0
VERTEX
  8
PLAN_1
  6
CONTINUOUS
 10
1.240110
 20
-3.322378
  0
VERTEX
  8
PLAN_1
  6
CONTINUOUS
 10
1.235370
 20
-3.325823
  0
VERTEX
  8
PLAN_1
  6
CONTINUOUS
 10
1.225465
 20
-3.331854
  0
VERTEX
  8
PLAN_1
  6
CONTINUOUS
 10
1.215126
 20
-3.337453
  0
VERTEX
  8
PLAN_1
  6
CONTINUOUS
 10
1.194882
 20
-3.348654
  0
VERTEX
  8
PLAN_1
  6
CONTINUOUS
 10
1.190142
 20
-3.351236
  0
VERTEX
  8
PLAN_1
  6
CONTINUOUS
 10
1.185835
 20
-3.354252
  0
VERTEX
  8
PLAN_1
  6
CONTINUOUS
 10
1.181961
 20
-3.356839
  0
VERTEX
  8
PLAN_1
  6
CONTINUOUS
 10
1.178512
 20
-3.359850
  0
VERTEX
  8
PLAN_1
  6
CONTINUOUS
 10
1.172913
 20
-3.365020
  0
VERTEX
  8
PLAN_1
  6
CONTINUOUS
 10
1.168606
 20
-3.370189
  0
VERTEX
  8
PLAN_1
  6
CONTINUOUS
 10
1.165161
 20
-3.374929
  0
VERTEX
  8
PLAN_1
  6
CONTINUOUS
 10
1.163008
 20
-3.379236
  0
VERTEX
  8
PLAN_1
  6
CONTINUOUS
 10
1.161713
 20
-3.383110
  0
VERTEX
  8
PLAN_1
  6
CONTINUOUS
 10
1.161283
 20
-3.386126
  0
VERTEX
  8
PLAN_1
  6
CONTINUOUS
 10
1.267244
 20
-3.386126
  0
VERTEX
  8
PLAN_1
  6
CONTINUOUS
 10
1.267244
 20
-3.408957
  0
VERTEX
  8
PLAN_1
  6
CONTINUOUS
 10
1.133717
 20
-3.408957
  0
VERTEX
  8
PLAN_1
  6
CONTINUOUS
 10
1.134146
 20
-3.401634
  0
VERTEX
  8
PLAN_1
  6
CONTINUOUS
 10
1.135008
 20
-3.394744
  0
VERTEX
  8
PLAN_1
  6
CONTINUOUS
 10
1.136299
 20
-3.388280
  0
VERTEX
  8
PLAN_1
  6
CONTINUOUS
 10
1.137594
 20
-3.382252
  0
VERTEX
  8
PLAN_1
  6
CONTINUOUS
 10
1.139748
 20
-3.376220
  0
VERTEX
  8
PLAN_1
  6
CONTINUOUS
 10
1.141902
 20
-3.371051
  0
VERTEX
  8
PLAN_1
  6
CONTINUOUS
 10
1.144484
 20
-3.365882
  0
VERTEX
  8
PLAN_1
  6
CONTINUOUS
 10
1.147500
 20
-3.361146
  0
VERTEX
  8
PLAN_1
  6
CONTINUOUS
 10
1.150516
 20
-3.356406
  0
VERTEX
  8
PLAN_1
  6
CONTINUOUS
 10
1.153961
 20
-3.352098
  0
VERTEX
  8
PLAN_1
  6
CONTINUOUS
 10
1.157406
 20
-3.348220
  0
VERTEX
  8
PLAN_1
  6
CONTINUOUS
 10
1.161713
 20
-3.344346
  0
VERTEX
  8
PLAN_1
  6
CONTINUOUS
 10
1.165591
 20
-3.340902
  0
VERTEX
  8
PLAN_1
  6
CONTINUOUS
 10
1.169898
 20
-3.337886
  0
VERTEX
  8
PLAN_1
  6
CONTINUOUS
 10
1.174638
 20
-3.334870
  0
VERTEX
  8
PLAN_1
  6
CONTINUOUS
 10
1.179374
 20
-3.331854
  0
VERTEX
  8
PLAN_1
  6
CONTINUOUS
 10
1.205220
 20
-3.316780
  0
VERTEX
  8
PLAN_1
  6
CONTINUOUS
 10
1.212972
 20
-3.312472
  0
VERTEX
  8
PLAN_1
  6
CONTINUOUS
 10
1.219866
 20
-3.308161
  0
VERTEX
  8
PLAN_1
  6
CONTINUOUS
 10
1.225894
 20
-3.303854
  0
VERTEX
  8
PLAN_1
  6
CONTINUOUS
 10
1.231063
 20
-3.299118
  0
VERTEX
  8
PLAN_1
  6
CONTINUOUS
 10
1.233217
 20
-3.296531
  0
VERTEX
  8
PLAN_1
  6
CONTINUOUS
 10
1.235370
 20
-3.293520
  0
VERTEX
  8
PLAN_1
  6
CONTINUOUS
 10
1.237094
 20
-3.290504
  0
VERTEX
  8
PLAN_1
  6
CONTINUOUS
 10
1.238386
 20
-3.287488
  0
VERTEX
  8
PLAN_1
  6
CONTINUOUS
 10
1.239677
 20
-3.284043
  0
VERTEX
  8
PLAN_1
  6
CONTINUOUS
 10
1.240539
 20
-3.280165
  0
VERTEX
  8
PLAN_1
  6
CONTINUOUS
 10
1.240972
 20
-3.275858
  0
VERTEX
  8
PLAN_1
  6
CONTINUOUS
 10
1.240972
 20
-3.271118
  0
VERTEX
  8
PLAN_1
  6
CONTINUOUS
 10
1.240972
 20
-3.268106
  0
VERTEX
  8
PLAN_1
  6
CONTINUOUS
 10
1.240539
 20
-3.265091
  0
VERTEX
  8
PLAN_1
  6
CONTINUOUS
 10
1.240110
 20
-3.262075
  0
VERTEX
  8
PLAN_1
  6
CONTINUOUS
 10
1.239248
 20
-3.259059
  0
VERTEX
  8
PLAN_1
  6
CONTINUOUS
 10
1.237957
 20
-3.256043
  0
VERTEX
  8
PLAN_1
  6
CONTINUOUS
 10
1.236661
 20
-3.253028
  0
VERTEX
  8
PLAN_1
  6
CONTINUOUS
 10
1.234508
 20
-3.250445
  0
VERTEX
  8
PLAN_1
  6
CONTINUOUS
 10
1.232354
 20
-3.247858
  0
VERTEX
  8
PLAN_1
  6
CONTINUOUS
 10
1.230201
 20
-3.245276
  0
VERTEX
  8
PLAN_1
  6
CONTINUOUS
 10
1.227189
 20
-3.243122
  0
VERTEX
  8
PLAN_1
  6
CONTINUOUS
 10
1.224173
 20
-3.240969
  0
VERTEX
  8
PLAN_1
  6
CONTINUOUS
 10
1.220724
 20
-3.239244
  0
VERTEX
  8
PLAN_1
  6
CONTINUOUS
 10
1.216850
 20
-3.237953
  0
VERTEX
  8
PLAN_1
  6
CONTINUOUS
 10
1.212543
 20
-3.236661
  0
VERTEX
  8
PLAN_1
  6
CONTINUOUS
 10
1.207803
 20
-3.236228
  0
VERTEX
  8
PLAN_1
  6
CONTINUOUS
 10
1.202634
 20
-3.235799
  0
VERTEX
  8
PLAN_1
  6
CONTINUOUS
 10
1.196173
 20
-3.236228
  0
VERTEX
  8
PLAN_1
  6
CONTINUOUS
 10
1.190142
 20
-3.237524
  0
VERTEX
  8
PLAN_1
  6
CONTINUOUS
 10
1.185406
 20
-3.239244
  0
VERTEX
  8
PLAN_1
  6
CONTINUOUS
 10
1.181098
 20
-3.241398
  0
VERTEX
  8
PLAN_1
  6
CONTINUOUS
 10
1.177220
 20
-3.244413
  0
VERTEX
  8
PLAN_1
  6
CONTINUOUS
 10
1.174205
 20
-3.247429
  0
VERTEX
  8
PLAN_1
  6
CONTINUOUS
 10
1.171622
 20
-3.251307
  0
VERTEX
  8
PLAN_1
  6
CONTINUOUS
 10
1.169469
 20
-3.254752
  0
VERTEX
  8
PLAN_1
  6
CONTINUOUS
 10
1.167744
 20
-3.258630
  0
VERTEX
  8
PLAN_1
  6
CONTINUOUS
 10
1.166453
 20
-3.262937
  0
VERTEX
  8
PLAN_1
  6
CONTINUOUS
 10
1.165161
 20
-3.266811
  0
VERTEX
  8
PLAN_1
  6
CONTINUOUS
 10
1.164299
 20
-3.270689
  0
VERTEX
  8
PLAN_1
  6
CONTINUOUS
 10
1.163437
 20
-3.278012
  0
VERTEX
  8
PLAN_1
  6
CONTINUOUS
 10
1.163008
 20
-3.284043
  0
VERTEX
  8
PLAN_1
  6
CONTINUOUS
 10
1.138886
 20
-3.284043
  0
SEQEND
  8
0
  0
SOLID
  8
PLAN_1
 10
1.281031
 20
-3.443846
 11
1.281031
 21
-3.430063
 12
1.435236
 22
-3.443846
 13
1.435236
 23
-3.430063
  0
POLYLINE
  8
PLAN_1
  6
CONTINUOUS
 66
     1
 40
0.003000
 41
0.003000
  0
VERTEX
  8
PLAN_1
  6
CONTINUOUS
 10
1.281031
 20
-3.443846
  0
VERTEX
  8
PLAN_1
  6
CONTINUOUS
 10
1.281031
 20
-3.430063
  0
VERTEX
  8
PLAN_1
  6
CONTINUOUS
 10
1.435236
 20
-3.430063
  0
VERTEX
  8
PLAN_1
  6
CONTINUOUS
 10
1.435236
 20
-3.443846
  0
VERTEX
  8
PLAN_1
  6
CONTINUOUS
 10
1.281031
 20
-3.443846
  0
SEQEND
  8
0
  0
POLYLINE
  8
PLAN_1
  6
CONTINUOUS
 66
     1
 40
0.003000
 41
0.003000
  0
VERTEX
  8
PLAN_1
  6
CONTINUOUS
 10
1.486063
 20
-3.408957
  0
VERTEX
  8
PLAN_1
  6
CONTINUOUS
 10
1.459354
 20
-3.408957
  0
VERTEX
  8
PLAN_1
  6
CONTINUOUS
 10
1.459354
 20
-3.209953
  0
VERTEX
  8
PLAN_1
  6
CONTINUOUS
 10
1.597193
 20
-3.209953
  0
VERTEX
  8
PLAN_1
  6
CONTINUOUS
 10
1.597193
 20
-3.233646
  0
VERTEX
  8
PLAN_1
  6
CONTINUOUS
 10
1.486063
 20
-3.233646
  0
VERTEX
  8
PLAN_1
  6
CONTINUOUS
 10
1.486063
 20
-3.294811
  0
VERTEX
  8
PLAN_1
  6
CONTINUOUS
 10
1.583839
 20
-3.294811
  0
VERTEX
  8
PLAN_1
  6
CONTINUOUS
 10
1.583839
 20
-3.318500
  0
VERTEX
  8
PLAN_1
  6
CONTINUOUS
 10
1.486063
 20
-3.318500
  0
VERTEX
  8
PLAN_1
  6
CONTINUOUS
 10
1.486063
 20
-3.408957
  0
SEQEND
  8
0
  0
SOLID
  8
PLAN_1
 10
1.616146
 20
-3.408957
 11
1.587287
 21
-3.408957
 12
1.616146
 22
-3.379665
 13
1.587287
 23
-3.379665
  0
POLYLINE
  8
PLAN_1
  6
CONTINUOUS
 66
     1
 40
0.003000
 41
0.003000
  0
VERTEX
  8
PLAN_1
  6
CONTINUOUS
 10
1.616146
 20
-3.408957
  0
VERTEX
  8
PLAN_1
  6
CONTINUOUS
 10
1.587287
 20
-3.408957
  0
VERTEX
  8
PLAN_1
  6
CONTINUOUS
 10
1.587287
 20
-3.379665
  0
VERTEX
  8
PLAN_1
  6
CONTINUOUS
 10
1.616146
 20
-3.379665
  0
VERTEX
  8
PLAN_1
  6
CONTINUOUS
 10
1.616146
 20
-3.408957
  0
SEQEND
  8
0
  0
POLYLINE
  8
PLAN_1
  6
CONTINUOUS
 66
     1
 40
0.003000
 41
0.003000
  0
VERTEX
  8
PLAN_1
  6
CONTINUOUS
 10
1.811272
 20
-3.408957
  0
VERTEX
  8
PLAN_1
  6
CONTINUOUS
 10
1.664390
 20
-3.408957
  0
VERTEX
  8
PLAN_1
  6
CONTINUOUS
 10
1.664390
 20
-3.209953
  0
VERTEX
  8
PLAN_1
  6
CONTINUOUS
 10
1.809547
 20
-3.209953
  0
VERTEX
  8
PLAN_1
  6
CONTINUOUS
 10
1.809547
 20
-3.233646
  0
VERTEX
  8
PLAN_1
  6
CONTINUOUS
 10
1.691094
 20
-3.233646
  0
VERTEX
  8
PLAN_1
  6
CONTINUOUS
 10
1.691094
 20
-3.294811
  0
VERTEX
  8
PLAN_1
  6
CONTINUOUS
 10
1.800504
 20
-3.294811
  0
VERTEX
  8
PLAN_1
  6
CONTINUOUS
 10
1.800504
 20
-3.318500
  0
VERTEX
  8
PLAN_1
  6
CONTINUOUS
 10
1.691094
 20
-3.318500
  0
VERTEX
  8
PLAN_1
  6
CONTINUOUS
 10
1.691094
 20
-3.385268
  0
VERTEX
  8
PLAN_1
  6
CONTINUOUS
 10
1.811272
 20
-3.385268
  0
VERTEX
  8
PLAN_1
  6
CONTINUOUS
 10
1.811272
 20
-3.408957
  0
SEQEND
  8
0
  0
POLYLINE
  8
PLAN_1
  6
CONTINUOUS
 66
     1
 40
0.003000
 41
0.003000
  0
VERTEX
  8
PLAN_1
  6
CONTINUOUS
 10
1.876311
 20
-3.408957
  0
VERTEX
  8
PLAN_1
  6
CONTINUOUS
 10
1.849606
 20
-3.408957
  0
VERTEX
  8
PLAN_1
  6
CONTINUOUS
 10
1.849606
 20
-3.209953
  0
VERTEX
  8
PLAN_1
  6
CONTINUOUS
 10
1.939201
 20
-3.209953
  0
VERTEX
  8
PLAN_1
  6
CONTINUOUS
 10
1.946094
 20
-3.209953
  0
VERTEX
  8
PLAN_1
  6
CONTINUOUS
 10
1.952122
 20
-3.210815
  0
VERTEX
  8
PLAN_1
  6
CONTINUOUS
 10
1.958154
 20
-3.212106
  0
VERTEX
  8
PLAN_1
  6
CONTINUOUS
 10
1.964185
 20
-3.214264
  0
VERTEX
  8
PLAN_1
  6
CONTINUOUS
 10
1.969354
 20
-3.216417
  0
VERTEX
  8
PLAN_1
  6
CONTINUOUS
 10
1.974091
 20
-3.219000
  0
VERTEX
  8
PLAN_1
  6
CONTINUOUS
 10
1.978398
 20
-3.222445
  0
VERTEX
  8
PLAN_1
  6
CONTINUOUS
 10
1.982705
 20
-3.225894
  0
VERTEX
  8
PLAN_1
  6
CONTINUOUS
 10
1.986154
 20
-3.229768
  0
VERTEX
  8
PLAN_1
  6
CONTINUOUS
 10
1.989165
 20
-3.234075
  0
VERTEX
  8
PLAN_1
  6
CONTINUOUS
 10
1.992181
 20
-3.238815
  0
VERTEX
  8
PLAN_1
  6
CONTINUOUS
 10
1.994335
 20
-3.243551
  0
VERTEX
  8
PLAN_1
  6
CONTINUOUS
 10
1.996059
 20
-3.248720
  0
VERTEX
  8
PLAN_1
  6
CONTINUOUS
 10
1.997350
 20
-3.254319
  0
VERTEX
  8
PLAN_1
  6
CONTINUOUS
 10
1.998213
 20
-3.259921
  0
VERTEX
  8
PLAN_1
  6
CONTINUOUS
 10
1.998213
 20
-3.265953
  0
VERTEX
  8
PLAN_1
  6
CONTINUOUS
 10
1.998213
 20
-3.271118
  0
VERTEX
  8
PLAN_1
  6
CONTINUOUS
 10
1.997350
 20
-3.276287
  0
VERTEX
  8
PLAN_1
  6
CONTINUOUS
 10
1.996488
 20
-3.281890
  0
VERTEX
  8
PLAN_1
  6
CONTINUOUS
 10
1.995197
 20
-3.287055
  0
VERTEX
  8
PLAN_1
  6
CONTINUOUS
 10
1.993472
 20
-3.291795
  0
VERTEX
  8
PLAN_1
  6
CONTINUOUS
 10
1.990890
 20
-3.296965
  0
VERTEX
  8
PLAN_1
  6
CONTINUOUS
 10
1.988307
 20
-3.301701
  0
VERTEX
  8
PLAN_1
  6
CONTINUOUS
 10
1.984858
 20
-3.306008
  0
VERTEX
  8
PLAN_1
  6
CONTINUOUS
 10
1.981413
 20
-3.309886
  0
VERTEX
  8
PLAN_1
  6
CONTINUOUS
 10
1.977106
 20
-3.313764
  0
VERTEX
  8
PLAN_1
  6
CONTINUOUS
 10
1.971937
 20
-3.316780
  0
VERTEX
  8
PLAN_1
  6
CONTINUOUS
 10
1.966768
 20
-3.319795
  0
VERTEX
  8
PLAN_1
  6
CONTINUOUS
 10
1.960736
 20
-3.321949
  0
VERTEX
  8
PLAN_1
  6
CONTINUOUS
 10
1.954276
 20
-3.323669
  0
VERTEX
  8
PLAN_1
  6
CONTINUOUS
 10
1.946953
 20
-3.324531
  0
VERTEX
  8
PLAN_1
  6
CONTINUOUS
 10
1.939201
 20
-3.324961
  0
VERTEX
  8
PLAN_1
  6
CONTINUOUS
 10
1.876311
 20
-3.324961
  0
VERTEX
  8
PLAN_1
  6
CONTINUOUS
 10
1.876311
 20
-3.408957
  0
SEQEND
  8
0
  0
POLYLINE
  8
PLAN_1
  6
CONTINUOUS
 66
     1
 40
0.003000
 41
0.003000
  0
VERTEX
  8
PLAN_1
  6
CONTINUOUS
 10
1.876311
 20
-3.302134
  0
VERTEX
  8
PLAN_1
  6
CONTINUOUS
 10
1.930154
 20
-3.302134
  0
VERTEX
  8
PLAN_1
  6
CONTINUOUS
 10
1.934465
 20
-3.301701
  0
VERTEX
  8
PLAN_1
  6
CONTINUOUS
 10
1.938772
 20
-3.301701
  0
VERTEX
  8
PLAN_1
  6
CONTINUOUS
 10
1.942646
 20
-3.300843
  0
VERTEX
  8
PLAN_1
  6
CONTINUOUS
 10
1.946524
 20
-3.300409
  0
VERTEX
  8
PLAN_1
  6
CONTINUOUS
 10
1.949969
 20
-3.299118
  0
VERTEX
  8
PLAN_1
  6
CONTINUOUS
 10
1.953417
 20
-3.297827
  0
VERTEX
  8
PLAN_1
  6
CONTINUOUS
 10
1.956429
 20
-3.296102
  0
VERTEX
  8
PLAN_1
  6
CONTINUOUS
 10
1.959445
 20
-3.294378
  0
VERTEX
  8
PLAN_1
  6
CONTINUOUS
 10
1.962031
 20
-3.291795
  0
VERTEX
  8
PLAN_1
  6
CONTINUOUS
 10
1.964185
 20
-3.289213
  0
VERTEX
  8
PLAN_1
  6
CONTINUOUS
 10
1.965906
 20
-3.286626
  0
VERTEX
  8
PLAN_1
  6
CONTINUOUS
 10
1.967630
 20
-3.283181
  0
VERTEX
  8
PLAN_1
  6
CONTINUOUS
 10
1.968921
 20
-3.279303
  0
VERTEX
  8
PLAN_1
  6
CONTINUOUS
 10
1.969783
 20
-3.275425
  0
VERTEX
  8
PLAN_1
  6
CONTINUOUS
 10
1.970213
 20
-3.271118
  0
VERTEX
  8
PLAN_1
  6
CONTINUOUS
 10
1.970646
 20
-3.266382
  0
VERTEX
  8
PLAN_1
  6
CONTINUOUS
 10
1.970213
 20
-3.261642
  0
VERTEX
  8
PLAN_1
  6
CONTINUOUS
 10
1.969783
 20
-3.257335
  0
VERTEX
  8
PLAN_1
  6
CONTINUOUS
 10
1.968921
 20
-3.253890
  0
VERTEX
  8
PLAN_1
  6
CONTINUOUS
 10
1.967630
 20
-3.250445
  0
VERTEX
  8
PLAN_1
  6
CONTINUOUS
 10
1.965906
 20
-3.247429
  0
VERTEX
  8
PLAN_1
  6
CONTINUOUS
 10
1.963752
 20
-3.244413
  0
VERTEX
  8
PLAN_1
  6
CONTINUOUS
 10
1.961598
 20
-3.242260
  0
VERTEX
  8
PLAN_1
  6
CONTINUOUS
 10
1.959016
 20
-3.240106
  0
VERTEX
  8
PLAN_1
  6
CONTINUOUS
 10
1.956429
 20
-3.238382
  0
VERTEX
  8
PLAN_1
  6
CONTINUOUS
 10
1.953417
 20
-3.236661
  0
VERTEX
  8
PLAN_1
  6
CONTINUOUS
 10
1.949969
 20
-3.235370
  0
VERTEX
  8
PLAN_1
  6
CONTINUOUS
 10
1.946524
 20
-3.234508
  0
VERTEX
  8
PLAN_1
  6
CONTINUOUS
 10
1.943079
 20
-3.233646
  0
VERTEX
  8
PLAN_1
  6
CONTINUOUS
 10
1.939201
 20
-3.233213
  0
VERTEX
  8
PLAN_1
  6
CONTINUOUS
 10
1.935323
 20
-3.232783
  0
VERTEX
  8
PLAN_1
  6
CONTINUOUS
 10
1.931016
 20
-3.232783
  0
VERTEX
  8
PLAN_1
  6
CONTINUOUS
 10
1.876311
 20
-3.232783
  0
VERTEX
  8
PLAN_1
  6
CONTINUOUS
 10
1.876311
 20
-3.302134
  0
SEQEND
  8
0
  0
POLYLINE
  8
PLAN_1
  6
CONTINUOUS
 66
     1
 40
0.003000
 41
0.003000
  0
VERTEX
  8
PLAN_1
  6
CONTINUOUS
 10
2.151988
 20
-3.268106
  0
VERTEX
  8
PLAN_1
  6
CONTINUOUS
 10
2.151555
 20
-3.262504
  0
VERTEX
  8
PLAN_1
  6
CONTINUOUS
 10
2.150693
 20
-3.257768
  0
VERTEX
  8
PLAN_1
  6
CONTINUOUS
 10
2.148972
 20
-3.253028
  0
VERTEX
  8
PLAN_1
  6
CONTINUOUS
 10
2.147248
 20
-3.248720
  0
VERTEX
  8
PLAN_1
  6
CONTINUOUS
 10
2.144665
 20
-3.245276
  0
VERTEX
  8
PLAN_1
  6
CONTINUOUS
 10
2.142079
 20
-3.241831
  0
VERTEX
  8
PLAN_1
  6
CONTINUOUS
 10
2.138634
 20
-3.238815
  0
VERTEX
  8
PLAN_1
  6
CONTINUOUS
 10
2.135189
 20
-3.236228
  0
VERTEX
  8
PLAN_1
  6
CONTINUOUS
 10
2.131740
 20
-3.234075
  0
VERTEX
  8
PLAN_1
  6
CONTINUOUS
 10
2.127866
 20
-3.232354
  0
VERTEX
  8
PLAN_1
  6
CONTINUOUS
 10
2.123988
 20
-3.230630
  0
VERTEX
  8
PLAN_1
  6
CONTINUOUS
 10
2.119681
 20
-3.229768
  0
VERTEX
  8
PLAN_1
  6
CONTINUOUS
 10
2.115374
 20
-3.228906
  0
VERTEX
  8
PLAN_1
  6
CONTINUOUS
 10
2.111496
 20
-3.228047
  0
VERTEX
  8
PLAN_1
  6
CONTINUOUS
 10
2.107189
 20
-3.227614
  0
VERTEX
  8
PLAN_1
  6
CONTINUOUS
 10
2.102882
 20
-3.227614
  0
VERTEX
  8
PLAN_1
  6
CONTINUOUS
 10
2.095992
 20
-3.228047
  0
VERTEX
  8
PLAN_1
  6
CONTINUOUS
 10
2.088669
 20
-3.228906
  0
VERTEX
  8
PLAN_1
  6
CONTINUOUS
 10
2.084791
 20
-3.229768
  0
VERTEX
  8
PLAN_1
  6
CONTINUOUS
 10
2.080913
 20
-3.230630
  0
VERTEX
  8
PLAN_1
  6
CONTINUOUS
 10
2.077039
 20
-3.231921
  0
VERTEX
  8
PLAN_1
  6
CONTINUOUS
 10
2.073591
 20
-3.233646
  0
VERTEX
  8
PLAN_1
  6
CONTINUOUS
 10
2.070146
 20
-3.235799
  0
VERTEX
  8
PLAN_1
  6
CONTINUOUS
 10
2.067130
 20
-3.238382
  0
VERTEX
  8
PLAN_1
  6
CONTINUOUS
 10
2.064547
 20
-3.240969
  0
VERTEX
  8
PLAN_1
  6
CONTINUOUS
 10
2.061961
 20
-3.244413
  0
VERTEX
  8
PLAN_1
  6
CONTINUOUS
 10
2.059807
 20
-3.248291
  0
VERTEX
  8
PLAN_1
  6
CONTINUOUS
 10
2.058516
 20
-3.252598
  0
VERTEX
  8
PLAN_1
  6
CONTINUOUS
 10
2.057654
 20
-3.257335
  0
VERTEX
  8
PLAN_1
  6
CONTINUOUS
 10
2.057224
 20
-3.262504
  0
VERTEX
  8
PLAN_1
  6
CONTINUOUS
 10
2.057224
 20
-3.265520
  0
VERTEX
  8
PLAN_1
  6
CONTINUOUS
 10
2.057654
 20
-3.268535
  0
VERTEX
  8
PLAN_1
  6
CONTINUOUS
 10
2.058516
 20
-3.271118
  0
VERTEX
  8
PLAN_1
  6
CONTINUOUS
 10
2.059378
 20
-3.273272
  0
VERTEX
  8
PLAN_1
  6
CONTINUOUS
 10
2.060240
 20
-3.275425
  0
VERTEX
  8
PLAN_1
  6
CONTINUOUS
 10
2.061531
 20
-3.277150
  0
VERTEX
  8
PLAN_1
  6
CONTINUOUS
 10
2.063256
 20
-3.278874
  0
VERTEX
  8
PLAN_1
  6
CONTINUOUS
 10
2.064547
 20
-3.280594
  0
VERTEX
  8
PLAN_1
  6
CONTINUOUS
 10
2.068421
 20
-3.283181
  0
VERTEX
  8
PLAN_1
  6
CONTINUOUS
 10
2.072299
 20
-3.284902
  0
VERTEX
  8
PLAN_1
  6
CONTINUOUS
 10
2.076606
 20
-3.286626
  0
VERTEX
  8
PLAN_1
  6
CONTINUOUS
 10
2.080913
 20
-3.287917
  0
VERTEX
  8
PLAN_1
  6
CONTINUOUS
 10
2.137772
 20
-3.300843
  0
VERTEX
  8
PLAN_1
  6
CONTINUOUS
 10
2.142512
 20
-3.302134
  0
VERTEX
  8
PLAN_1
  6
CONTINUOUS
 10
2.147248
 20
-3.303854
  0
VERTEX
  8
PLAN_1
  6
CONTINUOUS
 10
2.151555
 20
-3.305579
  0
VERTEX
  8
PLAN_1
  6
CONTINUOUS
 10
2.155862
 20
-3.307303
  0
VERTEX
  8
PLAN_1
  6
CONTINUOUS
 10
2.159740
 20
-3.309457
  0
VERTEX
  8
PLAN_1
  6
CONTINUOUS
 10
2.163618
 20
-3.312039
  0
VERTEX
  8
PLAN_1
  6
CONTINUOUS
 10
2.167063
 20
-3.315055
  0
VERTEX
  8
PLAN_1
  6
CONTINUOUS
 10
2.170079
 20
-3.318071
  0
VERTEX
  8
PLAN_1
  6
CONTINUOUS
 10
2.173094
 20
-3.321516
  0
VERTEX
  8
PLAN_1
  6
CONTINUOUS
 10
2.175677
 20
-3.324961
  0
VERTEX
  8
PLAN_1
  6
CONTINUOUS
 10
2.177831
 20
-3.328839
  0
VERTEX
  8
PLAN_1
  6
CONTINUOUS
 10
2.179555
 20
-3.333579
  0
VERTEX
  8
PLAN_1
  6
CONTINUOUS
 10
2.180846
 20
-3.337886
  0
VERTEX
  8
PLAN_1
  6
CONTINUOUS
 10
2.182138
 20
-3.343055
  0
VERTEX
  8
PLAN_1
  6
CONTINUOUS
 10
2.182571
 20
-3.348654
  0
VERTEX
  8
PLAN_1
  6
CONTINUOUS
 10
2.183000
 20
-3.354252
  0
VERTEX
  8
PLAN_1
  6
CONTINUOUS
 10
2.183000
 20
-3.358559
  0
VERTEX
  8
PLAN_1
  6
CONTINUOUS
 10
2.182571
 20
-3.362437
  0
VERTEX
  8
PLAN_1
  6
CONTINUOUS
 10
2.181709
 20
-3.366744
  0
VERTEX
  8
PLAN_1
  6
CONTINUOUS
 10
2.180846
 20
-3.370189
  0
VERTEX
  8
PLAN_1
  6
CONTINUOUS
 10
2.179984
 20
-3.374067
  0
VERTEX
  8
PLAN_1
  6
CONTINUOUS
 10
2.178693
 20
-3.377083
  0
VERTEX
  8
PLAN_1
  6
CONTINUOUS
 10
2.177402
 20
-3.380528
  0
VERTEX
  8
PLAN_1
  6
CONTINUOUS
 10
2.175677
 20
-3.383543
  0
VERTEX
  8
PLAN_1
  6
CONTINUOUS
 10
2.173953
 20
-3.386559
  0
VERTEX
  8
PLAN_1
  6
CONTINUOUS
 10
2.171799
 20
-3.389142
  0
VERTEX
  8
PLAN_1
  6
CONTINUOUS
 10
2.169646
 20
-3.391728
  0
VERTEX
  8
PLAN_1
  6
CONTINUOUS
 10
2.167492
 20
-3.393882
  0
VERTEX
  8
PLAN_1
  6
CONTINUOUS
 10
2.162323
 20
-3.398189
  0
VERTEX
  8
PLAN_1
  6
CONTINUOUS
 10
2.156724
 20
-3.402063
  0
VERTEX
  8
PLAN_1
  6
CONTINUOUS
 10
2.150693
 20
-3.405079
  0
VERTEX
  8
PLAN_1
  6
CONTINUOUS
 10
2.144665
 20
-3.407665
  0
VERTEX
  8
PLAN_1
  6
CONTINUOUS
 10
2.138205
 20
-3.409819
  0
VERTEX
  8
PLAN_1
  6
CONTINUOUS
 10
2.131740
 20
-3.411539
  0
VERTEX
  8
PLAN_1
  6
CONTINUOUS
 10
2.124850
 20
-3.412835
  0
VERTEX
  8
PLAN_1
  6
CONTINUOUS
 10
2.117957
 20
-3.413693
  0
VERTEX
  8
PLAN_1
  6
CONTINUOUS
 10
2.111496
 20
-3.414126
  0
VERTEX
  8
PLAN_1
  6
CONTINUOUS
 10
2.105035
 20
-3.414555
  0
VERTEX
  8
PLAN_1
  6
CONTINUOUS
 10
2.098146
 20
-3.414126
  0
VERTEX
  8
PLAN_1
  6
CONTINUOUS
 10
2.092114
 20
-3.414126
  0
VERTEX
  8
PLAN_1
  6
CONTINUOUS
 10
2.086516
 20
-3.413264
  0
VERTEX
  8
PLAN_1
  6
CONTINUOUS
 10
2.081346
 20
-3.412402
  0
VERTEX
  8
PLAN_1
  6
CONTINUOUS
 10
2.076606
 20
-3.411539
  0
VERTEX
  8
PLAN_1
  6
CONTINUOUS
 10
2.071870
 20
-3.410681
  0
VERTEX
  8
PLAN_1
  6
CONTINUOUS
 10
2.067992
 20
-3.409386
  0
VERTEX
  8
PLAN_1
  6
CONTINUOUS
 10
2.064547
 20
-3.407665
  0
VERTEX
  8
PLAN_1
  6
CONTINUOUS
 10
2.058087
 20
-3.405079
  0
VERTEX
  8
PLAN_1
  6
CONTINUOUS
 10
2.052917
 20
-3.401634
  0
VERTEX
  8
PLAN_1
  6
CONTINUOUS
 10
2.048177
 20
-3.398618
  0
VERTEX
  8
PLAN_1
  6
CONTINUOUS
 10
2.044732
 20
-3.395173
  0
VERTEX
  8
PLAN_1
  6
CONTINUOUS
 10
2.041717
 20
-3.392587
  0
VERTEX
  8
PLAN_1
  6
CONTINUOUS
 10
2.039134
 20
-3.389575
  0
VERTEX
  8
PLAN_1
  6
CONTINUOUS
 10
2.036547
 20
-3.386559
  0
VERTEX
  8
PLAN_1
  6
CONTINUOUS
 10
2.034394
 20
-3.383543
  0
VERTEX
  8
PLAN_1
  6
CONTINUOUS
 10
2.032673
 20
-3.380528
  0
VERTEX
  8
PLAN_1
  6
CONTINUOUS
 10
2.030949
 20
-3.377512
  0
VERTEX
  8
PLAN_1
  6
CONTINUOUS
 10
2.029657
 20
-3.374496
  0
VERTEX
  8
PLAN_1
  6
CONTINUOUS
 10
2.028366
 20
-3.371480
  0
VERTEX
  8
PLAN_1
  6
CONTINUOUS
 10
2.026642
 20
-3.365020
  0
VERTEX
  8
PLAN_1
  6
CONTINUOUS
 10
2.025350
 20
-3.358559
  0
VERTEX
  8
PLAN_1
  6
CONTINUOUS
 10
2.024488
 20
-3.351669
  0
VERTEX
  8
PLAN_1
  6
CONTINUOUS
 10
2.024488
 20
-3.344776
  0
VERTEX
  8
PLAN_1
  6
CONTINUOUS
 10
2.049902
 20
-3.344776
  0
VERTEX
  8
PLAN_1
  6
CONTINUOUS
 10
2.049902
 20
-3.351236
  0
VERTEX
  8
PLAN_1
  6
CONTINUOUS
 10
2.051193
 20
-3.357268
  0
VERTEX
  8
PLAN_1
  6
CONTINUOUS
 10
2.052484
 20
-3.362437
  0
VERTEX
  8
PLAN_1
  6
CONTINUOUS
 10
2.054638
 20
-3.367173
  0
VERTEX
  8
PLAN_1
  6
CONTINUOUS
 10
2.057224
 20
-3.371480
  0
VERTEX
  8
PLAN_1
  6
CONTINUOUS
 10
2.060240
 20
-3.375358
  0
VERTEX
  8
PLAN_1
  6
CONTINUOUS
 10
2.063685
 20
-3.378803
  0
VERTEX
  8
PLAN_1
  6
CONTINUOUS
 10
2.067563
 20
-3.381819
  0
VERTEX
  8
PLAN_1
  6
CONTINUOUS
 10
2.071870
 20
-3.383972
  0
VERTEX
  8
PLAN_1
  6
CONTINUOUS
 10
2.076177
 20
-3.386126
  0
VERTEX
  8
PLAN_1
  6
CONTINUOUS
 10
2.080484
 20
-3.387850
  0
VERTEX
  8
PLAN_1
  6
CONTINUOUS
 10
2.085220
 20
-3.389142
  0
VERTEX
  8
PLAN_1
  6
CONTINUOUS
 10
2.089961
 20
-3.390004
  0
VERTEX
  8
PLAN_1
  6
CONTINUOUS
 10
2.095130
 20
-3.390866
  0
VERTEX
  8
PLAN_1
  6
CONTINUOUS
 10
2.099866
 20
-3.391295
  0
VERTEX
  8
PLAN_1
  6
CONTINUOUS
 10
2.104606
 20
-3.391295
  0
VERTEX
  8
PLAN_1
  6
CONTINUOUS
 10
2.112358
 20
-3.391295
  0
VERTEX
  8
PLAN_1
  6
CONTINUOUS
 10
2.120972
 20
-3.390004
  0
VERTEX
  8
PLAN_1
  6
CONTINUOUS
 10
2.125280
 20
-3.389575
  0
VERTEX
  8
PLAN_1
  6
CONTINUOUS
 10
2.129587
 20
-3.388280
  0
VERTEX
  8
PLAN_1
  6
CONTINUOUS
 10
2.133894
 20
-3.386988
  0
VERTEX
  8
PLAN_1
  6
CONTINUOUS
 10
2.138205
 20
-3.385268
  0
VERTEX
  8
PLAN_1
  6
CONTINUOUS
 10
2.142079
 20
-3.383543
  0
VERTEX
  8
PLAN_1
  6
CONTINUOUS
 10
2.145524
 20
-3.380957
  0
VERTEX
  8
PLAN_1
  6
CONTINUOUS
 10
2.148539
 20
-3.378374
  0
VERTEX
  8
PLAN_1
  6
CONTINUOUS
 10
2.151555
 20
-3.374929
  0
VERTEX
  8
PLAN_1
  6
CONTINUOUS
 10
2.153709
 20
-3.371480
  0
VERTEX
  8
PLAN_1
  6
CONTINUOUS
 10
2.155433
 20
-3.367606
  0
VERTEX
  8
PLAN_1
  6
CONTINUOUS
 10
2.156724
 20
-3.362866
  0
VERTEX
  8
PLAN_1
  6
CONTINUOUS
 10
2.156724
 20
-3.357697
  0
VERTEX
  8
PLAN_1
  6
CONTINUOUS
 10
2.156724
 20
-3.354252
  0
VERTEX
  8
PLAN_1
  6
CONTINUOUS
 10
2.156295
 20
-3.350807
  0
VERTEX
  8
PLAN_1
  6
CONTINUOUS
 10
2.155862
 20
-3.347362
  0
VERTEX
  8
PLAN_1
  6
CONTINUOUS
 10
2.155000
 20
-3.344776
  0
VERTEX
  8
PLAN_1
  6
CONTINUOUS
 10
2.153709
 20
-3.341760
  0
VERTEX
  8
PLAN_1
  6
CONTINUOUS
 10
2.151988
 20
-3.339606
  0
VERTEX
  8
PLAN_1
  6
CONTINUOUS
 10
2.150264
 20
-3.337453
  0
VERTEX
  8
PLAN_1
  6
CONTINUOUS
 10
2.148110
 20
-3.335299
  0
VERTEX
  8
PLAN_1
  6
CONTINUOUS
 10
2.145094
 20
-3.333579
  0
VERTEX
  8
PLAN_1
  6
CONTINUOUS
 10
2.142079
 20
-3.331425
  0
VERTEX
  8
PLAN_1
  6
CONTINUOUS
 10
2.138634
 20
-3.330130
  0
VERTEX
  8
PLAN_1
  6
CONTINUOUS
 10
2.134756
 20
-3.328409
  0
VERTEX
  8
PLAN_1
  6
CONTINUOUS
 10
2.125713
 20
-3.325394
  0
VERTEX
  8
PLAN_1
  6
CONTINUOUS
 10
2.114512
 20
-3.322378
  0
VERTEX
  8
PLAN_1
  6
CONTINUOUS
 10
2.073591
 20
-3.312902
  0
VERTEX
  8
PLAN_1
  6
CONTINUOUS
 10
2.067992
 20
-3.311610
  0
VERTEX
  8
PLAN_1
  6
CONTINUOUS
 10
2.061531
 20
-3.309457
  0
VERTEX
  8
PLAN_1
  6
CONTINUOUS
 10
2.058087
 20
-3.307732
  0
VERTEX
  8
PLAN_1
  6
CONTINUOUS
 10
2.054638
 20
-3.306008
  0
VERTEX
  8
PLAN_1
  6
CONTINUOUS
 10
2.050764
 20
-3.303854
  0
VERTEX
  8
PLAN_1
  6
CONTINUOUS
 10
2.047315
 20
-3.301701
  0
VERTEX
  8
PLAN_1
  6
CONTINUOUS
 10
2.044303
 20
-3.298689
  0
VERTEX
  8
PLAN_1
  6
CONTINUOUS
 10
2.041287
 20
-3.295673
  0
VERTEX
  8
PLAN_1
  6
CONTINUOUS
 10
2.038272
 20
-3.291795
  0
VERTEX
  8
PLAN_1
  6
CONTINUOUS
 10
2.036118
 20
-3.287917
  0
VERTEX
  8
PLAN_1
  6
CONTINUOUS
 10
2.033965
 20
-3.283181
  0
VERTEX
  8
PLAN_1
  6
CONTINUOUS
 10
2.032673
 20
-3.278012
  0
VERTEX
  8
PLAN_1
  6
CONTINUOUS
 10
2.031378
 20
-3.272413
  0
VERTEX
  8
PLAN_1
  6
CONTINUOUS
 10
2.031378
 20
-3.266382
  0
VERTEX
  8
PLAN_1
  6
CONTINUOUS
 10
2.031378
 20
-3.260350
  0
VERTEX
  8
PLAN_1
  6
CONTINUOUS
 10
2.032240
 20
-3.254752
  0
VERTEX
  8
PLAN_1
  6
CONTINUOUS
 10
2.033531
 20
-3.249154
  0
VERTEX
  8
PLAN_1
  6
CONTINUOUS
 10
2.035256
 20
-3.243551
  0
VERTEX
  8
PLAN_1
  6
CONTINUOUS
 10
2.037409
 20
-3.237953
  0
VERTEX
  8
PLAN_1
  6
CONTINUOUS
 10
2.039996
 20
-3.233213
  0
VERTEX
  8
PLAN_1
  6
CONTINUOUS
 10
2.043441
 20
-3.228047
  0
VERTEX
  8
PLAN_1
  6
CONTINUOUS
 10
2.047315
 20
-3.223740
  0
VERTEX
  8
PLAN_1
  6
CONTINUOUS
 10
2.051626
 20
-3.219429
  0
VERTEX
  8
PLAN_1
  6
CONTINUOUS
 10
2.056791
 20
-3.215984
  0
VERTEX
  8
PLAN_1
  6
CONTINUOUS
 10
2.062394
 20
-3.212539
  0
VERTEX
  8
PLAN_1
  6
CONTINUOUS
 10
2.068854
 20
-3.209953
  0
VERTEX
  8
PLAN_1
  6
CONTINUOUS
 10
2.075315
 20
-3.207799
  0
VERTEX
  8
PLAN_1
  6
CONTINUOUS
 10
2.083067
 20
-3.206079
  0
VERTEX
  8
PLAN_1
  6
CONTINUOUS
 10
2.090823
 20
-3.204787
  0
VERTEX
  8
PLAN_1
  6
CONTINUOUS
 10
2.099866
 20
-3.204787
  0
VERTEX
  8
PLAN_1
  6
CONTINUOUS
 10
2.105898
 20
-3.204787
  0
VERTEX
  8
PLAN_1
  6
CONTINUOUS
 10
2.111929
 20
-3.205217
  0
VERTEX
  8
PLAN_1
  6
CONTINUOUS
 10
2.117528
 20
-3.205646
  0
VERTEX
  8
PLAN_1
  6
CONTINUOUS
 10
2.123126
 20
-3.206508
  0
VERTEX
  8
PLAN_1
  6
CONTINUOUS
 10
2.127866
 20
-3.207370
  0
VERTEX
  8
PLAN_1
  6
CONTINUOUS
 10
2.132602
 20
-3.208661
  0
VERTEX
  8
PLAN_1
  6
CONTINUOUS
 10
2.136909
 20
-3.209953
  0
VERTEX
  8
PLAN_1
  6
CONTINUOUS
 10
2.141217
 20
-3.211248
  0
VERTEX
  8
PLAN_1
  6
CONTINUOUS
 10
2.145094
 20
-3.212969
  0
VERTEX
  8
PLAN_1
  6
CONTINUOUS
 10
2.148539
 20
-3.215122
  0
VERTEX
  8
PLAN_1
  6
CONTINUOUS
 10
2.151555
 20
-3.216846
  0
VERTEX
  8
PLAN_1
  6
CONTINUOUS
 10
2.154571
 20
-3.219000
  0
VERTEX
  8
PLAN_1
  6
CONTINUOUS
 10
2.159740
 20
-3.223307
  0
VERTEX
  8
PLAN_1
  6
CONTINUOUS
 10
2.164476
 20
-3.228047
  0
VERTEX
  8
PLAN_1
  6
CONTINUOUS
 10
2.167925
 20
-3.233213
  0
VERTEX
  8
PLAN_1
  6
CONTINUOUS
 10
2.170941
 20
-3.238382
  0
VERTEX
  8
PLAN_1
  6
CONTINUOUS
 10
2.173094
 20
-3.243551
  0
VERTEX
  8
PLAN_1
  6
CONTINUOUS
 10
2.174815
 20
-3.249154
  0
VERTEX
  8
PLAN_1
  6
CONTINUOUS
 10
2.175677
 20
-3.254319
  0
VERTEX
  8
PLAN_1
  6
CONTINUOUS
 10
2.176539
 20
-3.259059
  0
VERTEX
  8
PLAN_1
  6
CONTINUOUS
 10
2.176969
 20
-3.263795
  0
VERTEX
  8
PLAN_1
  6
CONTINUOUS
 10
2.177402
 20
-3.268106
  0
VERTEX
  8
PLAN_1
  6
CONTINUOUS
 10
2.151988
 20
-3.268106
  0
SEQEND
  8
0
  0
POLYLINE
  8
PLAN_1
  6
CONTINUOUS
 66
     1
 40
0.008181
 41
0.008181
  0
VERTEX
  8
PLAN_1
  6
CONTINUOUS
 10
-1.457189
 20
1.930500
  0
VERTEX
  8
PLAN_1
  6
CONTINUOUS
 10
-1.457189
 20
2.126917
  0
SEQEND
  8
0
  0
POLYLINE
  8
PLAN_1
  6
CONTINUOUS
 66
     1
 40
0.008181
 41
0.008181
  0
VERTEX
  8
PLAN_1
  6
CONTINUOUS
 10
-1.457189
 20
2.126917
  0
VERTEX
  8
PLAN_1
  6
CONTINUOUS
 10
-1.455035
 20
2.140705
  0
VERTEX
  8
PLAN_1
  6
CONTINUOUS
 10
-1.448142
 20
2.176453
  0
VERTEX
  8
PLAN_1
  6
CONTINUOUS
 10
-1.442972
 20
2.200575
  0
VERTEX
  8
PLAN_1
  6
CONTINUOUS
 10
-1.436941
 20
2.227283
  0
VERTEX
  8
PLAN_1
  6
CONTINUOUS
 10
-1.433496
 20
2.241496
  0
VERTEX
  8
PLAN_1
  6
CONTINUOUS
 10
-1.429618
 20
2.256142
  0
VERTEX
  8
PLAN_1
  6
CONTINUOUS
 10
-1.425311
 20
2.270787
  0
VERTEX
  8
PLAN_1
  6
CONTINUOUS
 10
-1.421004
 20
2.285862
  0
VERTEX
  8
PLAN_1
  6
CONTINUOUS
 10
-1.416268
 20
2.300508
  0
VERTEX
  8
PLAN_1
  6
CONTINUOUS
 10
-1.411528
 20
2.315154
  0
VERTEX
  8
PLAN_1
  6
CONTINUOUS
 10
-1.405929
 20
2.329799
  0
VERTEX
  8
PLAN_1
  6
CONTINUOUS
 10
-1.400331
 20
2.344012
  0
VERTEX
  8
PLAN_1
  6
CONTINUOUS
 10
-1.394728
 20
2.357795
  0
VERTEX
  8
PLAN_1
  6
CONTINUOUS
 10
-1.388268
 20
2.370717
  0
VERTEX
  8
PLAN_1
  6
CONTINUOUS
 10
-1.381807
 20
2.383209
  0
VERTEX
  8
PLAN_1
  6
CONTINUOUS
 10
-1.374917
 20
2.394839
  0
VERTEX
  8
PLAN_1
  6
CONTINUOUS
 10
-1.368024
 20
2.405606
  0
VERTEX
  8
PLAN_1
  6
CONTINUOUS
 10
-1.360701
 20
2.415083
  0
VERTEX
  8
PLAN_1
  6
CONTINUOUS
 10
-1.352949
 20
2.423701
  0
VERTEX
  8
PLAN_1
  6
CONTINUOUS
 10
-1.344764
 20
2.431024
  0
VERTEX
  8
PLAN_1
  6
CONTINUOUS
 10
-1.336579
 20
2.436622
  0
VERTEX
  8
PLAN_1
  6
CONTINUOUS
 10
-1.327965
 20
2.440929
  0
VERTEX
  8
PLAN_1
  6
CONTINUOUS
 10
-1.318921
 20
2.443512
  0
VERTEX
  8
PLAN_1
  6
CONTINUOUS
 10
-1.309445
 20
2.444374
  0
SEQEND
  8
0
  0
POLYLINE
  8
PLAN_1
  6
CONTINUOUS
 66
     1
 40
0.008181
 41
0.008181
  0
VERTEX
  8
PLAN_1
  6
CONTINUOUS
 10
-1.309445
 20
2.444374
  0
VERTEX
  8
PLAN_1
  6
CONTINUOUS
 10
-0.681425
 20
2.444374
  0
SEQEND
  8
0
  0
POLYLINE
  8
PLAN_1
  6
CONTINUOUS
 66
     1
 40
0.008181
 41
0.008181
  0
VERTEX
  8
PLAN_1
  6
CONTINUOUS
 10
-0.681425
 20
2.444374
  0
VERTEX
  8
PLAN_1
  6
CONTINUOUS
 10
-0.680130
 20
2.444807
  0
VERTEX
  8
PLAN_1
  6
CONTINUOUS
 10
-0.677547
 20
2.445236
  0
VERTEX
  8
PLAN_1
  6
CONTINUOUS
 10
-0.675394
 20
2.445236
  0
VERTEX
  8
PLAN_1
  6
CONTINUOUS
 10
-0.672807
 20
2.445236
  0
VERTEX
  8
PLAN_1
  6
CONTINUOUS
 10
-0.669795
 20
2.444807
  0
VERTEX
  8
PLAN_1
  6
CONTINUOUS
 10
-0.666780
 20
2.443945
  0
VERTEX
  8
PLAN_1
  6
CONTINUOUS
 10
-0.663331
 20
2.442654
  0
VERTEX
  8
PLAN_1
  6
CONTINUOUS
 10
-0.659024
 20
2.440929
  0
VERTEX
  8
PLAN_1
  6
CONTINUOUS
 10
-0.655150
 20
2.438776
  0
VERTEX
  8
PLAN_1
  6
CONTINUOUS
 10
-0.650409
 20
2.436189
  0
VERTEX
  8
PLAN_1
  6
CONTINUOUS
 10
-0.645673
 20
2.432315
  0
VERTEX
  8
PLAN_1
  6
CONTINUOUS
 10
-0.640933
 20
2.428008
  0
VERTEX
  8
PLAN_1
  6
CONTINUOUS
 10
-0.635764
 20
2.422839
  0
VERTEX
  8
PLAN_1
  6
CONTINUOUS
 10
-0.630165
 20
2.416807
  0
VERTEX
  8
PLAN_1
  6
CONTINUOUS
 10
-0.624567
 20
2.409484
  0
VERTEX
  8
PLAN_1
  6
CONTINUOUS
 10
-0.618965
 20
2.401299
  0
VERTEX
  8
PLAN_1
  6
CONTINUOUS
 10
-0.612937
 20
2.391823
  0
VERTEX
  8
PLAN_1
  6
CONTINUOUS
 10
-0.606906
 20
2.381055
  0
VERTEX
  8
PLAN_1
  6
CONTINUOUS
 10
-0.600874
 20
2.368996
  0
VERTEX
  8
PLAN_1
  6
CONTINUOUS
 10
-0.594846
 20
2.355642
  0
VERTEX
  8
PLAN_1
  6
CONTINUOUS
 10
-0.588815
 20
2.340996
  0
VERTEX
  8
PLAN_1
  6
CONTINUOUS
 10
-0.582354
 20
2.324197
  0
VERTEX
  8
PLAN_1
  6
CONTINUOUS
 10
-0.576323
 20
2.306539
  0
VERTEX
  8
PLAN_1
  6
CONTINUOUS
 10
-0.569862
 20
2.286724
  0
VERTEX
  8
PLAN_1
  6
CONTINUOUS
 10
-0.563831
 20
2.265185
  0
VERTEX
  8
PLAN_1
  6
CONTINUOUS
 10
-0.557370
 20
2.241925
  0
VERTEX
  8
PLAN_1
  6
CONTINUOUS
 10
-0.551339
 20
2.216512
  0
VERTEX
  8
PLAN_1
  6
CONTINUOUS
 10
-0.545311
 20
2.189378
  0
VERTEX
  8
PLAN_1
  6
CONTINUOUS
 10
-0.539280
 20
2.160087
  0
VERTEX
  8
PLAN_1
  6
CONTINUOUS
 10
-0.533681
 20
2.128642
  0
SEQEND
  8
0
  0
POLYLINE
  8
PLAN_1
  6
CONTINUOUS
 66
     1
 40
0.008181
 41
0.008181
  0
VERTEX
  8
PLAN_1
  6
CONTINUOUS
 10
-0.533681
 20
2.128642
  0
VERTEX
  8
PLAN_1
  6
CONTINUOUS
 10
-0.533681
 20
1.930500
  0
SEQEND
  8
0
  0
POLYLINE
  8
PLAN_1
  6
CONTINUOUS
 66
     1
 40
0.008181
 41
0.008181
  0
VERTEX
  8
PLAN_1
  6
CONTINUOUS
 10
-0.458732
 20
1.516992
  0
VERTEX
  8
PLAN_1
  6
CONTINUOUS
 10
-0.458732
 20
1.792665
  0
VERTEX
  8
PLAN_1
  6
CONTINUOUS
 10
-1.521366
 20
1.792665
  0
VERTEX
  8
PLAN_1
  6
CONTINUOUS
 10
-1.521366
 20
1.516992
  0
VERTEX
  8
PLAN_1
  6
CONTINUOUS
 10
-0.458732
 20
1.516992
  0
SEQEND
  8
0
  0
POLYLINE
  8
PLAN_1
  6
CONTINUOUS
 66
     1
 40
0.008181
 41
0.008181
  0
VERTEX
  8
PLAN_1
  6
CONTINUOUS
 10
-0.460024
 20
1.929642
  0
VERTEX
  8
PLAN_1
  6
CONTINUOUS
 10
-0.460024
 20
1.873646
  0
VERTEX
  8
PLAN_1
  6
CONTINUOUS
 10
-0.727083
 20
1.873646
  0
VERTEX
  8
PLAN_1
  6
CONTINUOUS
 10
-0.727083
 20
1.929642
  0
VERTEX
  8
PLAN_1
  6
CONTINUOUS
 10
-0.460024
 20
1.929642
  0
SEQEND
  8
0
  0
POLYLINE
  8
PLAN_1
  6
CONTINUOUS
 66
     1
 40
0.005598
 41
0.005598
  0
VERTEX
  8
PLAN_1
  6
CONTINUOUS
 10
-0.571154
 20
1.907240
  0
VERTEX
  8
PLAN_1
  6
CONTINUOUS
 10
-0.571154
 20
1.929642
  0
VERTEX
  8
PLAN_1
  6
CONTINUOUS
 10
-0.617673
 20
1.929642
  0
VERTEX
  8
PLAN_1
  6
CONTINUOUS
 10
-0.617673
 20
1.907240
  0
VERTEX
  8
PLAN_1
  6
CONTINUOUS
 10
-0.571154
 20
1.907240
  0
SEQEND
  8
0
  0
POLYLINE
  8
PLAN_1
  6
CONTINUOUS
 66
     1
 40
0.008181
 41
0.008181
  0
VERTEX
  8
PLAN_1
  6
CONTINUOUS
 10
-0.752496
 20
1.930500
  0
VERTEX
  8
PLAN_1
  6
CONTINUOUS
 10
-1.224587
 20
1.930500
  0
SEQEND
  8
0
  0
POLYLINE
  8
PLAN_1
  6
CONTINUOUS
 66
     1
 40
0.008181
 41
0.008181
  0
VERTEX
  8
PLAN_1
  6
CONTINUOUS
 10
-1.224157
 20
1.930500
  0
VERTEX
  8
PLAN_1
  6
CONTINUOUS
 10
-1.224157
 20
2.127350
  0
SEQEND
  8
0
  0
POLYLINE
  8
PLAN_1
  6
CONTINUOUS
 66
     1
 40
0.008181
 41
0.008181
  0
VERTEX
  8
PLAN_1
  6
CONTINUOUS
 10
-1.361992
 20
2.127350
  0
VERTEX
  8
PLAN_1
  6
CONTINUOUS
 10
-1.361992
 20
1.930500
  0
SEQEND
  8
0
  0
POLYLINE
  8
PLAN_1
  6
CONTINUOUS
 66
     1
 40
0.008181
 41
0.008181
  0
VERTEX
  8
PLAN_1
  6
CONTINUOUS
 10
-1.224587
 20
2.126917
  0
VERTEX
  8
PLAN_1
  6
CONTINUOUS
 10
-1.225449
 20
2.295339
  0
SEQEND
  8
0
  0
POLYLINE
  8
PLAN_1
  6
CONTINUOUS
 66
     1
 40
0.008181
 41
0.008181
  0
VERTEX
  8
PLAN_1
  6
CONTINUOUS
 10
-1.225449
 20
2.295339
  0
VERTEX
  8
PLAN_1
  6
CONTINUOUS
 10
-1.225878
 20
2.300079
  0
VERTEX
  8
PLAN_1
  6
CONTINUOUS
 10
-1.227602
 20
2.312567
  0
VERTEX
  8
PLAN_1
  6
CONTINUOUS
 10
-1.229327
 20
2.320752
  0
VERTEX
  8
PLAN_1
  6
CONTINUOUS
 10
-1.231047
 20
2.330228
  0
VERTEX
  8
PLAN_1
  6
CONTINUOUS
 10
-1.233634
 20
2.340134
  0
VERTEX
  8
PLAN_1
  6
CONTINUOUS
 10
-1.236650
 20
2.350472
  0
VERTEX
  8
PLAN_1
  6
CONTINUOUS
 10
-1.240094
 20
2.360382
  0
VERTEX
  8
PLAN_1
  6
CONTINUOUS
 10
-1.244402
 20
2.369858
  0
VERTEX
  8
PLAN_1
  6
CONTINUOUS
 10
-1.246984
 20
2.374594
  0
VERTEX
  8
PLAN_1
  6
CONTINUOUS
 10
-1.249571
 20
2.378902
  0
VERTEX
  8
PLAN_1
  6
CONTINUOUS
 10
-1.252587
 20
2.383209
  0
VERTEX
  8
PLAN_1
  6
CONTINUOUS
 10
-1.255169
 20
2.386657
  0
VERTEX
  8
PLAN_1
  6
CONTINUOUS
 10
-1.258614
 20
2.390102
  0
VERTEX
  8
PLAN_1
  6
CONTINUOUS
 10
-1.262063
 20
2.393118
  0
VERTEX
  8
PLAN_1
  6
CONTINUOUS
 10
-1.265508
 20
2.395701
  0
VERTEX
  8
PLAN_1
  6
CONTINUOUS
 10
-1.269386
 20
2.397854
  0
VERTEX
  8
PLAN_1
  6
CONTINUOUS
 10
-1.273260
 20
2.399146
  0
VERTEX
  8
PLAN_1
  6
CONTINUOUS
 10
-1.277567
 20
2.400008
  0
VERTEX
  8
PLAN_1
  6
CONTINUOUS
 10
-1.282307
 20
2.400441
  0
VERTEX
  8
PLAN_1
  6
CONTINUOUS
 10
-1.287043
 20
2.400441
  0
VERTEX
  8
PLAN_1
  6
CONTINUOUS
 10
-1.291783
 20
2.398717
  0
VERTEX
  8
PLAN_1
  6
CONTINUOUS
 10
-1.296520
 20
2.396134
  0
VERTEX
  8
PLAN_1
  6
CONTINUOUS
 10
-1.300827
 20
2.392256
  0
VERTEX
  8
PLAN_1
  6
CONTINUOUS
 10
-1.305138
 20
2.387087
  0
VERTEX
  8
PLAN_1
  6
CONTINUOUS
 10
-1.309445
 20
2.380626
  0
VERTEX
  8
PLAN_1
  6
CONTINUOUS
 10
-1.313319
 20
2.373303
  0
VERTEX
  8
PLAN_1
  6
CONTINUOUS
 10
-1.317197
 20
2.365118
  0
VERTEX
  8
PLAN_1
  6
CONTINUOUS
 10
-1.320642
 20
2.356075
  0
VERTEX
  8
PLAN_1
  6
CONTINUOUS
 10
-1.324520
 20
2.346165
  0
VERTEX
  8
PLAN_1
  6
CONTINUOUS
 10
-1.327535
 20
2.335827
  0
VERTEX
  8
PLAN_1
  6
CONTINUOUS
 10
-1.330980
 20
2.324630
  0
VERTEX
  8
PLAN_1
  6
CONTINUOUS
 10
-1.333996
 20
2.313000
  0
VERTEX
  8
PLAN_1
  6
CONTINUOUS
 10
-1.339594
 20
2.289307
  0
VERTEX
  8
PLAN_1
  6
CONTINUOUS
 10
-1.344335
 20
2.264327
  0
VERTEX
  8
PLAN_1
  6
CONTINUOUS
 10
-1.348642
 20
2.239772
  0
VERTEX
  8
PLAN_1
  6
CONTINUOUS
 10
-1.352516
 20
2.215654
  0
VERTEX
  8
PLAN_1
  6
CONTINUOUS
 10
-1.355531
 20
2.193252
  0
VERTEX
  8
PLAN_1
  6
CONTINUOUS
 10
-1.358118
 20
2.172579
  0
VERTEX
  8
PLAN_1
  6
CONTINUOUS
 10
-1.359839
 20
2.154917
  0
VERTEX
  8
PLAN_1
  6
CONTINUOUS
 10
-1.361134
 20
2.141134
  0
VERTEX
  8
PLAN_1
  6
CONTINUOUS
 10
-1.361563
 20
2.131228
  0
VERTEX
  8
PLAN_1
  6
CONTINUOUS
 10
-1.361563
 20
2.126917
  0
SEQEND
  8
0
  0
POLYLINE
  8
PLAN_1
  6
CONTINUOUS
 66
     1
 40
0.008181
 41
0.008181
  0
VERTEX
  8
PLAN_1
  6
CONTINUOUS
 10
-1.361563
 20
2.126917
  0
VERTEX
  8
PLAN_1
  6
CONTINUOUS
 10
-1.457189
 20
2.128642
  0
SEQEND
  8
0
  0
POLYLINE
  8
PLAN_1
  6
CONTINUOUS
 66
     1
 40
0.008181
 41
0.008181
  0
VERTEX
  8
PLAN_1
  6
CONTINUOUS
 10
-0.752496
 20
1.930500
  0
VERTEX
  8
PLAN_1
  6
CONTINUOUS
 10
-0.752496
 20
2.127350
  0
SEQEND
  8
0
  0
POLYLINE
  8
PLAN_1
  6
CONTINUOUS
 66
     1
 40
0.008181
 41
0.008181
  0
VERTEX
  8
PLAN_1
  6
CONTINUOUS
 10
-0.615091
 20
2.127350
  0
VERTEX
  8
PLAN_1
  6
CONTINUOUS
 10
-0.615091
 20
1.930500
  0
SEQEND
  8
0
  0
POLYLINE
  8
PLAN_1
  6
CONTINUOUS
 66
     1
 40
0.008181
 41
0.008181
  0
VERTEX
  8
PLAN_1
  6
CONTINUOUS
 10
-0.752496
 20
2.126917
  0
VERTEX
  8
PLAN_1
  6
CONTINUOUS
 10
-0.751634
 20
2.295339
  0
SEQEND
  8
0
  0
POLYLINE
  8
PLAN_1
  6
CONTINUOUS
 66
     1
 40
0.008181
 41
0.008181
  0
VERTEX
  8
PLAN_1
  6
CONTINUOUS
 10
-0.751634
 20
2.295339
  0
VERTEX
  8
PLAN_1
  6
CONTINUOUS
 10
-0.751205
 20
2.300079
  0
VERTEX
  8
PLAN_1
  6
CONTINUOUS
 10
-0.749051
 20
2.312567
  0
VERTEX
  8
PLAN_1
  6
CONTINUOUS
 10
-0.747756
 20
2.320752
  0
VERTEX
  8
PLAN_1
  6
CONTINUOUS
 10
-0.745602
 20
2.330228
  0
VERTEX
  8
PLAN_1
  6
CONTINUOUS
 10
-0.743449
 20
2.340134
  0
VERTEX
  8
PLAN_1
  6
CONTINUOUS
 10
-0.740437
 20
2.350472
  0
VERTEX
  8
PLAN_1
  6
CONTINUOUS
 10
-0.736559
 20
2.360382
  0
VERTEX
  8
PLAN_1
  6
CONTINUOUS
 10
-0.732252
 20
2.369858
  0
VERTEX
  8
PLAN_1
  6
CONTINUOUS
 10
-0.729665
 20
2.374594
  0
VERTEX
  8
PLAN_1
  6
CONTINUOUS
 10
-0.727083
 20
2.378902
  0
VERTEX
  8
PLAN_1
  6
CONTINUOUS
 10
-0.724496
 20
2.383209
  0
VERTEX
  8
PLAN_1
  6
CONTINUOUS
 10
-0.721484
 20
2.386657
  0
VERTEX
  8
PLAN_1
  6
CONTINUOUS
 10
-0.718469
 20
2.390102
  0
VERTEX
  8
PLAN_1
  6
CONTINUOUS
 10
-0.715020
 20
2.393118
  0
VERTEX
  8
PLAN_1
  6
CONTINUOUS
 10
-0.711146
 20
2.395701
  0
VERTEX
  8
PLAN_1
  6
CONTINUOUS
 10
-0.707701
 20
2.397854
  0
VERTEX
  8
PLAN_1
  6
CONTINUOUS
 10
-0.703390
 20
2.399146
  0
VERTEX
  8
PLAN_1
  6
CONTINUOUS
 10
-0.699083
 20
2.400008
  0
VERTEX
  8
PLAN_1
  6
CONTINUOUS
 10
-0.694776
 20
2.400441
  0
VERTEX
  8
PLAN_1
  6
CONTINUOUS
 10
-0.690039
 20
2.400441
  0
VERTEX
  8
PLAN_1
  6
CONTINUOUS
 10
-0.685299
 20
2.398717
  0
VERTEX
  8
PLAN_1
  6
CONTINUOUS
 10
-0.680563
 20
2.396134
  0
VERTEX
  8
PLAN_1
  6
CONTINUOUS
 10
-0.675823
 20
2.392256
  0
VERTEX
  8
PLAN_1
  6
CONTINUOUS
 10
-0.671516
 20
2.387087
  0
VERTEX
  8
PLAN_1
  6
CONTINUOUS
 10
-0.667642
 20
2.380626
  0
VERTEX
  8
PLAN_1
  6
CONTINUOUS
 10
-0.663331
 20
2.373303
  0
VERTEX
  8
PLAN_1
  6
CONTINUOUS
 10
-0.659886
 20
2.365118
  0
VERTEX
  8
PLAN_1
  6
CONTINUOUS
 10
-0.656012
 20
2.356075
  0
VERTEX
  8
PLAN_1
  6
CONTINUOUS
 10
-0.652563
 20
2.346165
  0
VERTEX
  8
PLAN_1
  6
CONTINUOUS
 10
-0.649118
 20
2.335827
  0
VERTEX
  8
PLAN_1
  6
CONTINUOUS
 10
-0.646102
 20
2.324630
  0
VERTEX
  8
PLAN_1
  6
CONTINUOUS
 10
-0.643087
 20
2.313000
  0
VERTEX
  8
PLAN_1
  6
CONTINUOUS
 10
-0.637488
 20
2.289307
  0
VERTEX
  8
PLAN_1
  6
CONTINUOUS
 10
-0.632319
 20
2.264327
  0
VERTEX
  8
PLAN_1
  6
CONTINUOUS
 10
-0.628012
 20
2.239772
  0
VERTEX
  8
PLAN_1
  6
CONTINUOUS
 10
-0.624567
 20
2.215654
  0
VERTEX
  8
PLAN_1
  6
CONTINUOUS
 10
-0.621122
 20
2.193252
  0
VERTEX
  8
PLAN_1
  6
CONTINUOUS
 10
-0.618965
 20
2.172579
  0
VERTEX
  8
PLAN_1
  6
CONTINUOUS
 10
-0.617244
 20
2.154917
  0
VERTEX
  8
PLAN_1
  6
CONTINUOUS
 10
-0.615953
 20
2.141134
  0
VERTEX
  8
PLAN_1
  6
CONTINUOUS
 10
-0.615091
 20
2.131228
  0
VERTEX
  8
PLAN_1
  6
CONTINUOUS
 10
-0.615091
 20
2.126917
  0
SEQEND
  8
0
  0
POLYLINE
  8
PLAN_1
  6
CONTINUOUS
 66
     1
 40
0.008181
 41
0.008181
  0
VERTEX
  8
PLAN_1
  6
CONTINUOUS
 10
-0.615091
 20
2.126917
  0
VERTEX
  8
PLAN_1
  6
CONTINUOUS
 10
-0.533681
 20
2.126917
  0
SEQEND
  8
0
  0
POLYLINE
  8
PLAN_1
  6
CONTINUOUS
 66
     1
 40
0.008181
 41
0.008181
  0
VERTEX
  8
PLAN_1
  6
CONTINUOUS
 10
-1.223724
 20
2.126917
  0
VERTEX
  8
PLAN_1
  6
CONTINUOUS
 10
-0.752496
 20
2.126917
  0
SEQEND
  8
0
  0
POLYLINE
  8
PLAN_1
  6
CONTINUOUS
 66
     1
 40
0.008181
 41
0.008181
  0
VERTEX
  8
PLAN_1
  6
CONTINUOUS
 10
-1.224587
 20
1.871059
  0
VERTEX
  8
PLAN_1
  6
CONTINUOUS
 10
-1.521366
 20
1.871059
  0
VERTEX
  8
PLAN_1
  6
CONTINUOUS
 10
-1.521366
 20
1.792665
  0
VERTEX
  8
PLAN_1
  6
CONTINUOUS
 10
-0.458732
 20
1.792665
  0
VERTEX
  8
PLAN_1
  6
CONTINUOUS
 10
-0.458732
 20
1.871059
  0
VERTEX
  8
PLAN_1
  6
CONTINUOUS
 10
-0.755079
 20
1.871059
  0
VERTEX
  8
PLAN_1
  6
CONTINUOUS
 10
-0.755079
 20
1.930500
  0
VERTEX
  8
PLAN_1
  6
CONTINUOUS
 10
-1.224587
 20
1.930500
  0
VERTEX
  8
PLAN_1
  6
CONTINUOUS
 10
-1.224587
 20
1.871059
  0
SEQEND
  8
0
  0
POLYLINE
  8
PLAN_1
  6
CONTINUOUS
 66
     1
 40
0.006890
 41
0.006890
  0
VERTEX
  8
PLAN_1
  6
CONTINUOUS
 10
-0.993709
 20
2.927236
  0
VERTEX
  8
PLAN_1
  6
CONTINUOUS
 10
-0.990264
 20
2.927236
  0
VERTEX
  8
PLAN_1
  6
CONTINUOUS
 10
-0.987248
 20
2.927665
  0
VERTEX
  8
PLAN_1
  6
CONTINUOUS
 10
-0.983803
 20
2.928094
  0
VERTEX
  8
PLAN_1
  6
CONTINUOUS
 10
-0.980787
 20
2.928957
  0
VERTEX
  8
PLAN_1
  6
CONTINUOUS
 10
-0.974760
 20
2.931110
  0
VERTEX
  8
PLAN_1
  6
CONTINUOUS
 10
-0.968728
 20
2.934126
  0
VERTEX
  8
PLAN_1
  6
CONTINUOUS
 10
-0.963130
 20
2.938004
  0
VERTEX
  8
PLAN_1
  6
CONTINUOUS
 10
-0.957961
 20
2.942311
  0
VERTEX
  8
PLAN_1
  6
CONTINUOUS
 10
-0.953220
 20
2.947480
  0
VERTEX
  8
PLAN_1
  6
CONTINUOUS
 10
-0.948484
 20
2.953079
  0
VERTEX
  8
PLAN_1
  6
CONTINUOUS
 10
-0.944606
 20
2.959539
  0
VERTEX
  8
PLAN_1
  6
CONTINUOUS
 10
-0.940728
 20
2.966000
  0
VERTEX
  8
PLAN_1
  6
CONTINUOUS
 10
-0.937713
 20
2.973323
  0
VERTEX
  8
PLAN_1
  6
CONTINUOUS
 10
-0.934701
 20
2.981079
  0
VERTEX
  8
PLAN_1
  6
CONTINUOUS
 10
-0.932547
 20
2.989260
  0
VERTEX
  8
PLAN_1
  6
CONTINUOUS
 10
-0.931252
 20
2.997878
  0
VERTEX
  8
PLAN_1
  6
CONTINUOUS
 10
-0.929961
 20
3.006492
  0
VERTEX
  8
PLAN_1
  6
CONTINUOUS
 10
-0.929961
 20
3.015535
  0
VERTEX
  8
PLAN_1
  6
CONTINUOUS
 10
-0.929961
 20
3.024583
  0
VERTEX
  8
PLAN_1
  6
CONTINUOUS
 10
-0.931252
 20
3.033197
  0
VERTEX
  8
PLAN_1
  6
CONTINUOUS
 10
-0.932547
 20
3.041811
  0
VERTEX
  8
PLAN_1
  6
CONTINUOUS
 10
-0.934701
 20
3.049996
  0
VERTEX
  8
PLAN_1
  6
CONTINUOUS
 10
-0.937713
 20
3.057748
  0
VERTEX
  8
PLAN_1
  6
CONTINUOUS
 10
-0.940728
 20
3.065071
  0
VERTEX
  8
PLAN_1
  6
CONTINUOUS
 10
-0.944606
 20
3.071965
  0
VERTEX
  8
PLAN_1
  6
CONTINUOUS
 10
-0.948484
 20
3.077992
  0
VERTEX
  8
PLAN_1
  6
CONTINUOUS
 10
-0.953220
 20
3.083594
  0
VERTEX
  8
PLAN_1
  6
CONTINUOUS
 10
-0.957961
 20
3.088764
  0
VERTEX
  8
PLAN_1
  6
CONTINUOUS
 10
-0.963130
 20
3.093071
  0
VERTEX
  8
PLAN_1
  6
CONTINUOUS
 10
-0.968728
 20
3.096945
  0
VERTEX
  8
PLAN_1
  6
CONTINUOUS
 10
-0.974760
 20
3.099961
  0
VERTEX
  8
PLAN_1
  6
CONTINUOUS
 10
-0.980787
 20
3.102114
  0
VERTEX
  8
PLAN_1
  6
CONTINUOUS
 10
-0.983803
 20
3.102976
  0
VERTEX
  8
PLAN_1
  6
CONTINUOUS
 10
-0.987248
 20
3.103409
  0
VERTEX
  8
PLAN_1
  6
CONTINUOUS
 10
-0.990264
 20
3.103839
  0
VERTEX
  8
PLAN_1
  6
CONTINUOUS
 10
-0.993709
 20
3.103839
  0
VERTEX
  8
PLAN_1
  6
CONTINUOUS
 10
-0.996724
 20
3.103839
  0
VERTEX
  8
PLAN_1
  6
CONTINUOUS
 10
-1.000173
 20
3.103409
  0
VERTEX
  8
PLAN_1
  6
CONTINUOUS
 10
-1.003185
 20
3.102976
  0
VERTEX
  8
PLAN_1
  6
CONTINUOUS
 10
-1.006634
 20
3.102114
  0
VERTEX
  8
PLAN_1
  6
CONTINUOUS
 10
-1.012661
 20
3.099961
  0
VERTEX
  8
PLAN_1
  6
CONTINUOUS
 10
-1.018264
 20
3.096945
  0
VERTEX
  8
PLAN_1
  6
CONTINUOUS
 10
-1.023862
 20
3.093071
  0
VERTEX
  8
PLAN_1
  6
CONTINUOUS
 10
-1.029461
 20
3.088764
  0
VERTEX
  8
PLAN_1
  6
CONTINUOUS
 10
-1.034201
 20
3.083594
  0
VERTEX
  8
PLAN_1
  6
CONTINUOUS
 10
-1.038937
 20
3.077992
  0
VERTEX
  8
PLAN_1
  6
CONTINUOUS
 10
-1.042815
 20
3.071965
  0
VERTEX
  8
PLAN_1
  6
CONTINUOUS
 10
-1.046693
 20
3.065071
  0
VERTEX
  8
PLAN_1
  6
CONTINUOUS
 10
-1.049709
 20
3.057748
  0
VERTEX
  8
PLAN_1
  6
CONTINUOUS
 10
-1.052291
 20
3.049996
  0
VERTEX
  8
PLAN_1
  6
CONTINUOUS
 10
-1.054445
 20
3.041811
  0
VERTEX
  8
PLAN_1
  6
CONTINUOUS
 10
-1.056169
 20
3.033197
  0
VERTEX
  8
PLAN_1
  6
CONTINUOUS
 10
-1.057028
 20
3.024583
  0
VERTEX
  8
PLAN_1
  6
CONTINUOUS
 10
-1.057461
 20
3.015535
  0
VERTEX
  8
PLAN_1
  6
CONTINUOUS
 10
-1.057028
 20
3.006492
  0
VERTEX
  8
PLAN_1
  6
CONTINUOUS
 10
-1.056169
 20
2.997878
  0
VERTEX
  8
PLAN_1
  6
CONTINUOUS
 10
-1.054445
 20
2.989260
  0
VERTEX
  8
PLAN_1
  6
CONTINUOUS
 10
-1.052291
 20
2.981079
  0
VERTEX
  8
PLAN_1
  6
CONTINUOUS
 10
-1.049709
 20
2.973323
  0
VERTEX
  8
PLAN_1
  6
CONTINUOUS
 10
-1.046693
 20
2.966000
  0
VERTEX
  8
PLAN_1
  6
CONTINUOUS
 10
-1.042815
 20
2.959539
  0
VERTEX
  8
PLAN_1
  6
CONTINUOUS
 10
-1.038937
 20
2.953079
  0
VERTEX
  8
PLAN_1
  6
CONTINUOUS
 10
-1.034201
 20
2.947480
  0
VERTEX
  8
PLAN_1
  6
CONTINUOUS
 10
-1.029461
 20
2.942311
  0
VERTEX
  8
PLAN_1
  6
CONTINUOUS
 10
-1.023862
 20
2.938004
  0
VERTEX
  8
PLAN_1
  6
CONTINUOUS
 10
-1.018264
 20
2.934126
  0
VERTEX
  8
PLAN_1
  6
CONTINUOUS
 10
-1.012661
 20
2.931110
  0
VERTEX
  8
PLAN_1
  6
CONTINUOUS
 10
-1.006634
 20
2.928957
  0
VERTEX
  8
PLAN_1
  6
CONTINUOUS
 10
-1.003185
 20
2.928094
  0
VERTEX
  8
PLAN_1
  6
CONTINUOUS
 10
-1.000173
 20
2.927665
  0
VERTEX
  8
PLAN_1
  6
CONTINUOUS
 10
-0.996724
 20
2.927236
  0
VERTEX
  8
PLAN_1
  6
CONTINUOUS
 10
-0.993709
 20
2.927236
  0
SEQEND
  8
0
  0
POLYLINE
  8
PLAN_1
  6
CONTINUOUS
 66
     1
 40
0.006890
 41
0.006890
  0
VERTEX
  8
PLAN_1
  6
CONTINUOUS
 10
-0.993709
 20
2.961693
  0
VERTEX
  8
PLAN_1
  6
CONTINUOUS
 10
-0.988110
 20
2.961693
  0
VERTEX
  8
PLAN_1
  6
CONTINUOUS
 10
-0.982941
 20
2.962555
  0
VERTEX
  8
PLAN_1
  6
CONTINUOUS
 10
-0.977772
 20
2.963846
  0
VERTEX
  8
PLAN_1
  6
CONTINUOUS
 10
-0.972602
 20
2.966000
  0
VERTEX
  8
PLAN_1
  6
CONTINUOUS
 10
-0.967866
 20
2.968154
  0
VERTEX
  8
PLAN_1
  6
CONTINUOUS
 10
-0.963559
 20
2.970740
  0
VERTEX
  8
PLAN_1
  6
CONTINUOUS
 10
-0.959252
 20
2.973756
  0
VERTEX
  8
PLAN_1
  6
CONTINUOUS
 10
-0.955374
 20
2.977201
  0
VERTEX
  8
PLAN_1
  6
CONTINUOUS
 10
-0.951929
 20
2.981079
  0
VERTEX
  8
PLAN_1
  6
CONTINUOUS
 10
-0.948913
 20
2.985386
  0
VERTEX
  8
PLAN_1
  6
CONTINUOUS
 10
-0.946331
 20
2.989693
  0
VERTEX
  8
PLAN_1
  6
CONTINUOUS
 10
-0.943744
 20
2.994429
  0
VERTEX
  8
PLAN_1
  6
CONTINUOUS
 10
-0.942024
 20
2.999598
  0
VERTEX
  8
PLAN_1
  6
CONTINUOUS
 10
-0.940728
 20
3.004768
  0
VERTEX
  8
PLAN_1
  6
CONTINUOUS
 10
-0.939866
 20
3.009937
  0
VERTEX
  8
PLAN_1
  6
CONTINUOUS
 10
-0.939437
 20
3.015535
  0
VERTEX
  8
PLAN_1
  6
CONTINUOUS
 10
-0.939866
 20
3.021138
  0
VERTEX
  8
PLAN_1
  6
CONTINUOUS
 10
-0.940728
 20
3.026307
  0
VERTEX
  8
PLAN_1
  6
CONTINUOUS
 10
-0.942024
 20
3.031472
  0
VERTEX
  8
PLAN_1
  6
CONTINUOUS
 10
-0.943744
 20
3.036642
  0
VERTEX
  8
PLAN_1
  6
CONTINUOUS
 10
-0.946331
 20
3.041382
  0
VERTEX
  8
PLAN_1
  6
CONTINUOUS
 10
-0.948913
 20
3.045689
  0
VERTEX
  8
PLAN_1
  6
CONTINUOUS
 10
-0.951929
 20
3.049996
  0
VERTEX
  8
PLAN_1
  6
CONTINUOUS
 10
-0.955374
 20
3.053874
  0
VERTEX
  8
PLAN_1
  6
CONTINUOUS
 10
-0.959252
 20
3.057319
  0
VERTEX
  8
PLAN_1
  6
CONTINUOUS
 10
-0.963559
 20
3.060335
  0
VERTEX
  8
PLAN_1
  6
CONTINUOUS
 10
-0.967866
 20
3.062917
  0
VERTEX
  8
PLAN_1
  6
CONTINUOUS
 10
-0.972602
 20
3.065504
  0
VERTEX
  8
PLAN_1
  6
CONTINUOUS
 10
-0.977772
 20
3.067224
  0
VERTEX
  8
PLAN_1
  6
CONTINUOUS
 10
-0.982941
 20
3.068516
  0
VERTEX
  8
PLAN_1
  6
CONTINUOUS
 10
-0.988110
 20
3.069378
  0
VERTEX
  8
PLAN_1
  6
CONTINUOUS
 10
-0.993709
 20
3.069378
  0
VERTEX
  8
PLAN_1
  6
CONTINUOUS
 10
-0.999311
 20
3.069378
  0
VERTEX
  8
PLAN_1
  6
CONTINUOUS
 10
-1.004480
 20
3.068516
  0
VERTEX
  8
PLAN_1
  6
CONTINUOUS
 10
-1.009650
 20
3.067224
  0
VERTEX
  8
PLAN_1
  6
CONTINUOUS
 10
-1.014815
 20
3.065504
  0
VERTEX
  8
PLAN_1
  6
CONTINUOUS
 10
-1.019555
 20
3.062917
  0
VERTEX
  8
PLAN_1
  6
CONTINUOUS
 10
-1.023862
 20
3.060335
  0
VERTEX
  8
PLAN_1
  6
CONTINUOUS
 10
-1.028169
 20
3.057319
  0
VERTEX
  8
PLAN_1
  6
CONTINUOUS
 10
-1.031614
 20
3.053874
  0
VERTEX
  8
PLAN_1
  6
CONTINUOUS
 10
-1.035492
 20
3.049996
  0
VERTEX
  8
PLAN_1
  6
CONTINUOUS
 10
-1.038508
 20
3.045689
  0
VERTEX
  8
PLAN_1
  6
CONTINUOUS
 10
-1.041091
 20
3.041382
  0
VERTEX
  8
PLAN_1
  6
CONTINUOUS
 10
-1.043244
 20
3.036642
  0
VERTEX
  8
PLAN_1
  6
CONTINUOUS
 10
-1.045398
 20
3.031472
  0
VERTEX
  8
PLAN_1
  6
CONTINUOUS
 10
-1.046693
 20
3.026307
  0
VERTEX
  8
PLAN_1
  6
CONTINUOUS
 10
-1.047551
 20
3.021138
  0
VERTEX
  8
PLAN_1
  6
CONTINUOUS
 10
-1.047551
 20
3.015535
  0
VERTEX
  8
PLAN_1
  6
CONTINUOUS
 10
-1.047551
 20
3.009937
  0
VERTEX
  8
PLAN_1
  6
CONTINUOUS
 10
-1.046693
 20
3.004768
  0
VERTEX
  8
PLAN_1
  6
CONTINUOUS
 10
-1.045398
 20
2.999598
  0
VERTEX
  8
PLAN_1
  6
CONTINUOUS
 10
-1.043244
 20
2.994429
  0
VERTEX
  8
PLAN_1
  6
CONTINUOUS
 10
-1.041091
 20
2.989693
  0
VERTEX
  8
PLAN_1
  6
CONTINUOUS
 10
-1.038508
 20
2.985386
  0
VERTEX
  8
PLAN_1
  6
CONTINUOUS
 10
-1.035492
 20
2.981079
  0
VERTEX
  8
PLAN_1
  6
CONTINUOUS
 10
-1.031614
 20
2.977201
  0
VERTEX
  8
PLAN_1
  6
CONTINUOUS
 10
-1.028169
 20
2.973756
  0
VERTEX
  8
PLAN_1
  6
CONTINUOUS
 10
-1.023862
 20
2.970740
  0
VERTEX
  8
PLAN_1
  6
CONTINUOUS
 10
-1.019555
 20
2.968154
  0
VERTEX
  8
PLAN_1
  6
CONTINUOUS
 10
-1.014815
 20
2.966000
  0
VERTEX
  8
PLAN_1
  6
CONTINUOUS
 10
-1.009650
 20
2.963846
  0
VERTEX
  8
PLAN_1
  6
CONTINUOUS
 10
-1.004480
 20
2.962555
  0
VERTEX
  8
PLAN_1
  6
CONTINUOUS
 10
-0.999311
 20
2.961693
  0
VERTEX
  8
PLAN_1
  6
CONTINUOUS
 10
-0.993709
 20
2.961693
  0
SEQEND
  8
0
  0
POLYLINE
  8
PLAN_1
  6
CONTINUOUS
 66
     1
 40
0.004307
 41
0.004307
  0
VERTEX
  8
PLAN_1
  6
CONTINUOUS
 10
-0.983374
 20
2.978063
  0
VERTEX
  8
PLAN_1
  6
CONTINUOUS
 10
-0.954945
 20
3.021996
  0
VERTEX
  8
PLAN_1
  6
CONTINUOUS
 10
-1.004909
 20
3.053874
  0
VERTEX
  8
PLAN_1
  6
CONTINUOUS
 10
-1.032909
 20
3.010366
  0
VERTEX
  8
PLAN_1
  6
CONTINUOUS
 10
-0.983374
 20
2.978063
  0
SEQEND
  8
0
  0
POLYLINE
  8
PLAN_1
  6
CONTINUOUS
 66
     1
 40
0.004307
 41
0.004307
  0
VERTEX
  8
PLAN_1
  6
CONTINUOUS
 10
-2.183846
 20
0.864850
  0
VERTEX
  8
PLAN_1
  6
CONTINUOUS
 10
-2.183846
 20
1.371831
  0
SEQEND
  8
0
  0
POLYLINE
  8
PLAN_1
  6
CONTINUOUS
 66
     1
 40
0.004307
 41
0.004307
  0
VERTEX
  8
PLAN_1
  6
CONTINUOUS
 10
-2.183846
 20
1.371831
  0
VERTEX
  8
PLAN_1
  6
CONTINUOUS
 10
-2.183417
 20
1.377862
  0
VERTEX
  8
PLAN_1
  6
CONTINUOUS
 10
-2.180831
 20
1.394661
  0
VERTEX
  8
PLAN_1
  6
CONTINUOUS
 10
-2.179539
 20
1.399831
  0
VERTEX
  8
PLAN_1
  6
CONTINUOUS
 10
-2.177815
 20
1.405429
  0
VERTEX
  8
PLAN_1
  6
CONTINUOUS
 10
-2.176094
 20
1.411461
  0
VERTEX
  8
PLAN_1
  6
CONTINUOUS
 10
-2.173941
 20
1.417921
  0
VERTEX
  8
PLAN_1
  6
CONTINUOUS
 10
-2.171354
 20
1.424382
  0
VERTEX
  8
PLAN_1
  6
CONTINUOUS
 10
-2.168339
 20
1.431272
  0
VERTEX
  8
PLAN_1
  6
CONTINUOUS
 10
-2.164894
 20
1.437736
  0
VERTEX
  8
PLAN_1
  6
CONTINUOUS
 10
-2.161016
 20
1.444626
  0
VERTEX
  8
PLAN_1
  6
CONTINUOUS
 10
-2.156709
 20
1.451520
  0
VERTEX
  8
PLAN_1
  6
CONTINUOUS
 10
-2.151539
 20
1.458409
  0
VERTEX
  8
PLAN_1
  6
CONTINUOUS
 10
-2.145941
 20
1.464870
  0
VERTEX
  8
PLAN_1
  6
CONTINUOUS
 10
-2.139909
 20
1.471331
  0
VERTEX
  8
PLAN_1
  6
CONTINUOUS
 10
-2.133449
 20
1.477795
  0
VERTEX
  8
PLAN_1
  6
CONTINUOUS
 10
-2.126126
 20
1.483823
  0
VERTEX
  8
PLAN_1
  6
CONTINUOUS
 10
-2.117945
 20
1.489425
  0
VERTEX
  8
PLAN_1
  6
CONTINUOUS
 10
-2.109327
 20
1.495024
  0
VERTEX
  8
PLAN_1
  6
CONTINUOUS
 10
-2.099850
 20
1.499760
  0
VERTEX
  8
PLAN_1
  6
CONTINUOUS
 10
-2.089516
 20
1.504067
  0
VERTEX
  8
PLAN_1
  6
CONTINUOUS
 10
-2.078315
 20
1.507945
  0
VERTEX
  8
PLAN_1
  6
CONTINUOUS
 10
-2.066685
 20
1.511390
  0
VERTEX
  8
PLAN_1
  6
CONTINUOUS
 10
-2.053764
 20
1.513976
  0
VERTEX
  8
PLAN_1
  6
CONTINUOUS
 10
-2.040409
 20
1.516130
  0
VERTEX
  8
PLAN_1
  6
CONTINUOUS
 10
-2.025764
 20
1.516992
  0
VERTEX
  8
PLAN_1
  6
CONTINUOUS
 10
-2.010260
 20
1.517421
  0
VERTEX
  8
PLAN_1
  6
CONTINUOUS
 10
-1.873283
 20
1.517421
  0
VERTEX
  8
PLAN_1
  6
CONTINUOUS
 10
-1.617421
 20
1.517421
  0
VERTEX
  8
PLAN_1
  6
CONTINUOUS
 10
-1.284890
 20
1.517421
  0
VERTEX
  8
PLAN_1
  6
CONTINUOUS
 10
-0.918331
 20
1.517421
  0
VERTEX
  8
PLAN_1
  6
CONTINUOUS
 10
-0.559957
 20
1.517421
  0
VERTEX
  8
PLAN_1
  6
CONTINUOUS
 10
-0.251543
 20
1.517421
  0
VERTEX
  8
PLAN_1
  6
CONTINUOUS
 10
-0.035315
 20
1.517421
  0
VERTEX
  8
PLAN_1
  6
CONTINUOUS
 10
0.046098
 20
1.517421
  0
VERTEX
  8
PLAN_1
  6
CONTINUOUS
 10
0.047819
 20
1.517850
  0
VERTEX
  8
PLAN_1
  6
CONTINUOUS
 10
0.052559
 20
1.517850
  0
VERTEX
  8
PLAN_1
  6
CONTINUOUS
 10
0.059882
 20
1.517421
  0
VERTEX
  8
PLAN_1
  6
CONTINUOUS
 10
0.069787
 20
1.516130
  0
VERTEX
  8
PLAN_1
  6
CONTINUOUS
 10
0.075386
 20
1.515268
  0
VERTEX
  8
PLAN_1
  6
CONTINUOUS
 10
0.081417
 20
1.513976
  0
VERTEX
  8
PLAN_1
  6
CONTINUOUS
 10
0.087878
 20
1.512252
  0
VERTEX
  8
PLAN_1
  6
CONTINUOUS
 10
0.094339
 20
1.510098
  0
VERTEX
  8
PLAN_1
  6
CONTINUOUS
 10
0.101232
 20
1.507945
  0
VERTEX
  8
PLAN_1
  6
CONTINUOUS
 10
0.108122
 20
1.504929
  0
VERTEX
  8
PLAN_1
  6
CONTINUOUS
 10
0.115016
 20
1.501484
  0
VERTEX
  8
PLAN_1
  6
CONTINUOUS
 10
0.122339
 20
1.497606
  0
VERTEX
  8
PLAN_1
  6
CONTINUOUS
 10
0.129661
 20
1.493299
  0
VERTEX
  8
PLAN_1
  6
CONTINUOUS
 10
0.136551
 20
1.488130
  0
VERTEX
  8
PLAN_1
  6
CONTINUOUS
 10
0.143445
 20
1.482102
  0
VERTEX
  8
PLAN_1
  6
CONTINUOUS
 10
0.150335
 20
1.475638
  0
VERTEX
  8
PLAN_1
  6
CONTINUOUS
 10
0.156795
 20
1.468319
  0
VERTEX
  8
PLAN_1
  6
CONTINUOUS
 10
0.163260
 20
1.460134
  0
VERTEX
  8
PLAN_1
  6
CONTINUOUS
 10
0.169287
 20
1.451087
  0
VERTEX
  8
PLAN_1
  6
CONTINUOUS
 10
0.174890
 20
1.441610
  0
VERTEX
  8
PLAN_1
  6
CONTINUOUS
 10
0.180055
 20
1.430843
  0
VERTEX
  8
PLAN_1
  6
CONTINUOUS
 10
0.184795
 20
1.419213
  0
VERTEX
  8
PLAN_1
  6
CONTINUOUS
 10
0.188673
 20
1.406291
  0
VERTEX
  8
PLAN_1
  6
CONTINUOUS
 10
0.192118
 20
1.392508
  0
VERTEX
  8
PLAN_1
  6
CONTINUOUS
 10
0.194701
 20
1.377862
  0
VERTEX
  8
PLAN_1
  6
CONTINUOUS
 10
0.196854
 20
1.361925
  0
VERTEX
  8
PLAN_1
  6
CONTINUOUS
 10
0.198150
 20
1.345126
  0
VERTEX
  8
PLAN_1
  6
CONTINUOUS
 10
0.198579
 20
1.326602
  0
SEQEND
  8
0
  0
POLYLINE
  8
PLAN_1
  6
CONTINUOUS
 66
     1
 40
0.004307
 41
0.004307
  0
VERTEX
  8
PLAN_1
  6
CONTINUOUS
 10
0.198579
 20
1.326602
  0
VERTEX
  8
PLAN_1
  6
CONTINUOUS
 10
0.198579
 20
0.872602
  0
SEQEND
  8
0
  0
POLYLINE
  8
PLAN_1
  6
CONTINUOUS
 66
     1
 40
0.008181
 41
0.008181
  0
VERTEX
  8
PLAN_1
  6
CONTINUOUS
 10
-0.530232
 20
1.472626
  0
VERTEX
  8
PLAN_1
  6
CONTINUOUS
 10
-0.530232
 20
1.517421
  0
VERTEX
  8
PLAN_1
  6
CONTINUOUS
 10
-1.457189
 20
1.517421
  0
VERTEX
  8
PLAN_1
  6
CONTINUOUS
 10
-1.457189
 20
1.472626
  0
VERTEX
  8
PLAN_1
  6
CONTINUOUS
 10
-0.530232
 20
1.472626
  0
SEQEND
  8
0
  0
POLYLINE
  8
PLAN_1
  6
CONTINUOUS
 66
     1
 40
0.008181
 41
0.008181
  0
VERTEX
  8
PLAN_1
  6
CONTINUOUS
 10
-0.582354
 20
1.215472
  0
VERTEX
  8
PLAN_1
  6
CONTINUOUS
 10
-0.619827
 20
1.178429
  0
VERTEX
  8
PLAN_1
  6
CONTINUOUS
 10
-1.364579
 20
1.178429
  0
VERTEX
  8
PLAN_1
  6
CONTINUOUS
 10
-1.401622
 20
1.215472
  0
VERTEX
  8
PLAN_1
  6
CONTINUOUS
 10
-1.401622
 20
1.472626
  0
VERTEX
  8
PLAN_1
  6
CONTINUOUS
 10
-0.582354
 20
1.472626
  0
VERTEX
  8
PLAN_1
  6
CONTINUOUS
 10
-0.582354
 20
1.215472
  0
SEQEND
  8
0
  0
POLYLINE
  8
PLAN_1
  6
CONTINUOUS
 66
     1
 40
0.008181
 41
0.008181
  0
VERTEX
  8
PLAN_1
  6
CONTINUOUS
 10
-1.315043
 20
1.178429
  0
VERTEX
  8
PLAN_1
  6
CONTINUOUS
 10
-1.266370
 20
0.993209
  0
VERTEX
  8
PLAN_1
  6
CONTINUOUS
 10
-0.724929
 20
0.993209
  0
VERTEX
  8
PLAN_1
  6
CONTINUOUS
 10
-0.664193
 20
1.178429
  0
VERTEX
  8
PLAN_1
  6
CONTINUOUS
 10
-1.315043
 20
1.178429
  0
SEQEND
  8
0
  0
POLYLINE
  8
PLAN_1
  6
CONTINUOUS
 66
     1
 40
0.006890
 41
0.006890
  0
VERTEX
  8
PLAN_1
  6
CONTINUOUS
 10
-1.271539
 20
1.175843
  0
VERTEX
  8
PLAN_1
  6
CONTINUOUS
 10
-1.224587
 20
0.993209
  0
SEQEND
  8
0
  0
POLYLINE
  8
PLAN_1
  6
CONTINUOUS
 66
     1
 40
0.006890
 41
0.006890
  0
VERTEX
  8
PLAN_1
  6
CONTINUOUS
 10
-1.240524
 20
1.175843
  0
VERTEX
  8
PLAN_1
  6
CONTINUOUS
 10
-1.193575
 20
0.993209
  0
SEQEND
  8
0
  0
POLYLINE
  8
PLAN_1
  6
CONTINUOUS
 66
     1
 40
0.006890
 41
0.006890
  0
VERTEX
  8
PLAN_1
  6
CONTINUOUS
 10
-0.724929
 20
1.177567
  0
VERTEX
  8
PLAN_1
  6
CONTINUOUS
 10
-0.771878
 20
0.994933
  0
SEQEND
  8
0
  0
POLYLINE
  8
PLAN_1
  6
CONTINUOUS
 66
     1
 40
0.006890
 41
0.006890
  0
VERTEX
  8
PLAN_1
  6
CONTINUOUS
 10
-0.755941
 20
1.177567
  0
VERTEX
  8
PLAN_1
  6
CONTINUOUS
 10
-0.802894
 20
0.994933
  0
SEQEND
  8
0
  0
POLYLINE
  8
PLAN_1
  6
CONTINUOUS
 66
     1
 40
0.008181
 41
0.008181
  0
VERTEX
  8
PLAN_1
  6
CONTINUOUS
 10
-0.675394
 20
2.444374
  0
VERTEX
  8
PLAN_1
  6
CONTINUOUS
 10
-0.675394
 20
2.916898
  0
VERTEX
  8
PLAN_1
  6
CONTINUOUS
 10
-1.305138
 20
2.916898
  0
VERTEX
  8
PLAN_1
  6
CONTINUOUS
 10
-1.305138
 20
2.444374
  0
VERTEX
  8
PLAN_1
  6
CONTINUOUS
 10
-0.675394
 20
2.444374
  0
SEQEND
  8
0
  0
POLYLINE
  8
PLAN_1
  6
CONTINUOUS
 66
     1
 40
0.008181
 41
0.008181
  0
VERTEX
  8
PLAN_1
  6
CONTINUOUS
 10
-1.401622
 20
1.215472
  0
VERTEX
  8
PLAN_1
  6
CONTINUOUS
 10
-0.582354
 20
1.215472
  0
SEQEND
  8
0
  0
POLYLINE
  8
PLAN_1
  6
CONTINUOUS
 66
     1
 40
0.008181
 41
0.008181
  0
VERTEX
  8
PLAN_1
  6
CONTINUOUS
 10
-1.252154
 20
1.929642
  0
VERTEX
  8
PLAN_1
  6
CONTINUOUS
 10
-1.252154
 20
1.873646
  0
VERTEX
  8
PLAN_1
  6
CONTINUOUS
 10
-1.519646
 20
1.873646
  0
VERTEX
  8
PLAN_1
  6
CONTINUOUS
 10
-1.519646
 20
1.929642
  0
VERTEX
  8
PLAN_1
  6
CONTINUOUS
 10
-1.252154
 20
1.929642
  0
SEQEND
  8
0
  0
POLYLINE
  8
PLAN_1
  6
CONTINUOUS
 66
     1
 40
0.005598
 41
0.005598
  0
VERTEX
  8
PLAN_1
  6
CONTINUOUS
 10
-1.363287
 20
1.907240
  0
VERTEX
  8
PLAN_1
  6
CONTINUOUS
 10
-1.363287
 20
1.929642
  0
VERTEX
  8
PLAN_1
  6
CONTINUOUS
 10
-1.410236
 20
1.929642
  0
VERTEX
  8
PLAN_1
  6
CONTINUOUS
 10
-1.410236
 20
1.907240
  0
VERTEX
  8
PLAN_1
  6
CONTINUOUS
 10
-1.363287
 20
1.907240
  0
SEQEND
  8
0
  0
POLYLINE
  8
PLAN_1
  6
CONTINUOUS
 66
     1
 40
0.008181
 41
0.008181
  0
VERTEX
  8
PLAN_1
  6
CONTINUOUS
 10
-0.789110
 20
2.916898
  0
VERTEX
  8
PLAN_1
  6
CONTINUOUS
 10
-0.785232
 20
2.923358
  0
VERTEX
  8
PLAN_1
  6
CONTINUOUS
 10
-0.781787
 20
2.930252
  0
VERTEX
  8
PLAN_1
  6
CONTINUOUS
 10
-0.778772
 20
2.936713
  0
VERTEX
  8
PLAN_1
  6
CONTINUOUS
 10
-0.775756
 20
2.943602
  0
VERTEX
  8
PLAN_1
  6
CONTINUOUS
 10
-0.772740
 20
2.950925
  0
VERTEX
  8
PLAN_1
  6
CONTINUOUS
 10
-0.770157
 20
2.957819
  0
VERTEX
  8
PLAN_1
  6
CONTINUOUS
 10
-0.768004
 20
2.965142
  0
VERTEX
  8
PLAN_1
  6
CONTINUOUS
 10
-0.765850
 20
2.972461
  0
VERTEX
  8
PLAN_1
  6
CONTINUOUS
 10
-0.763697
 20
2.980217
  0
VERTEX
  8
PLAN_1
  6
CONTINUOUS
 10
-0.761972
 20
2.987539
  0
VERTEX
  8
PLAN_1
  6
CONTINUOUS
 10
-0.760681
 20
2.995291
  0
VERTEX
  8
PLAN_1
  6
CONTINUOUS
 10
-0.759386
 20
3.003043
  0
VERTEX
  8
PLAN_1
  6
CONTINUOUS
 10
-0.758528
 20
3.010799
  0
VERTEX
  8
PLAN_1
  6
CONTINUOUS
 10
-0.758094
 20
3.018551
  0
VERTEX
  8
PLAN_1
  6
CONTINUOUS
 10
-0.757665
 20
3.026736
  0
VERTEX
  8
PLAN_1
  6
CONTINUOUS
 10
-0.757665
 20
3.034488
  0
VERTEX
  8
PLAN_1
  6
CONTINUOUS
 10
-0.757665
 20
3.046980
  0
VERTEX
  8
PLAN_1
  6
CONTINUOUS
 10
-0.758528
 20
3.058610
  0
VERTEX
  8
PLAN_1
  6
CONTINUOUS
 10
-0.760248
 20
3.070673
  0
VERTEX
  8
PLAN_1
  6
CONTINUOUS
 10
-0.762402
 20
3.082303
  0
VERTEX
  8
PLAN_1
  6
CONTINUOUS
 10
-0.764988
 20
3.093500
  0
VERTEX
  8
PLAN_1
  6
CONTINUOUS
 10
-0.768004
 20
3.104701
  0
VERTEX
  8
PLAN_1
  6
CONTINUOUS
 10
-0.771878
 20
3.115898
  0
VERTEX
  8
PLAN_1
  6
CONTINUOUS
 10
-0.776185
 20
3.126669
  0
VERTEX
  8
PLAN_1
  6
CONTINUOUS
 10
-0.780925
 20
3.137004
  0
VERTEX
  8
PLAN_1
  6
CONTINUOUS
 10
-0.786094
 20
3.147343
  0
VERTEX
  8
PLAN_1
  6
CONTINUOUS
 10
-0.791693
 20
3.157252
  0
VERTEX
  8
PLAN_1
  6
CONTINUOUS
 10
-0.797724
 20
3.166728
  0
VERTEX
  8
PLAN_1
  6
CONTINUOUS
 10
-0.804185
 20
3.175772
  0
VERTEX
  8
PLAN_1
  6
CONTINUOUS
 10
-0.811508
 20
3.184819
  0
VERTEX
  8
PLAN_1
  6
CONTINUOUS
 10
-0.818831
 20
3.193433
  0
VERTEX
  8
PLAN_1
  6
CONTINUOUS
 10
-0.826583
 20
3.201618
  0
VERTEX
  8
PLAN_1
  6
CONTINUOUS
 10
-0.834768
 20
3.209370
  0
VERTEX
  8
PLAN_1
  6
CONTINUOUS
 10
-0.843382
 20
3.216693
  0
VERTEX
  8
PLAN_1
  6
CONTINUOUS
 10
-0.852429
 20
3.224016
  0
VERTEX
  8
PLAN_1
  6
CONTINUOUS
 10
-0.861472
 20
3.230476
  0
VERTEX
  8
PLAN_1
  6
CONTINUOUS
 10
-0.871382
 20
3.236508
  0
VERTEX
  8
PLAN_1
  6
CONTINUOUS
 10
-0.880858
 20
3.242106
  0
VERTEX
  8
PLAN_1
  6
CONTINUOUS
 10
-0.891193
 20
3.247705
  0
VERTEX
  8
PLAN_1
  6
CONTINUOUS
 10
-0.901531
 20
3.252445
  0
VERTEX
  8
PLAN_1
  6
CONTINUOUS
 10
-0.912299
 20
3.256319
  0
VERTEX
  8
PLAN_1
  6
CONTINUOUS
 10
-0.923500
 20
3.260197
  0
VERTEX
  8
PLAN_1
  6
CONTINUOUS
 10
-0.934701
 20
3.263213
  0
VERTEX
  8
PLAN_1
  6
CONTINUOUS
 10
-0.945898
 20
3.266228
  0
VERTEX
  8
PLAN_1
  6
CONTINUOUS
 10
-0.957528
 20
3.267949
  0
VERTEX
  8
PLAN_1
  6
CONTINUOUS
 10
-0.969591
 20
3.269673
  0
VERTEX
  8
PLAN_1
  6
CONTINUOUS
 10
-0.981650
 20
3.270535
  0
VERTEX
  8
PLAN_1
  6
CONTINUOUS
 10
-0.993709
 20
3.270965
  0
VERTEX
  8
PLAN_1
  6
CONTINUOUS
 10
-1.005772
 20
3.270535
  0
VERTEX
  8
PLAN_1
  6
CONTINUOUS
 10
-1.017831
 20
3.269673
  0
VERTEX
  8
PLAN_1
  6
CONTINUOUS
 10
-1.029461
 20
3.267949
  0
VERTEX
  8
PLAN_1
  6
CONTINUOUS
 10
-1.041091
 20
3.266228
  0
VERTEX
  8
PLAN_1
  6
CONTINUOUS
 10
-1.052720
 20
3.263213
  0
VERTEX
  8
PLAN_1
  6
CONTINUOUS
 10
-1.063921
 20
3.260197
  0
VERTEX
  8
PLAN_1
  6
CONTINUOUS
 10
-1.074689
 20
3.256319
  0
VERTEX
  8
PLAN_1
  6
CONTINUOUS
 10
-1.085457
 20
3.252445
  0
VERTEX
  8
PLAN_1
  6
CONTINUOUS
 10
-1.096228
 20
3.247705
  0
VERTEX
  8
PLAN_1
  6
CONTINUOUS
 10
-1.106134
 20
3.242106
  0
VERTEX
  8
PLAN_1
  6
CONTINUOUS
 10
-1.116039
 20
3.236508
  0
VERTEX
  8
PLAN_1
  6
CONTINUOUS
 10
-1.125516
 20
3.230476
  0
VERTEX
  8
PLAN_1
  6
CONTINUOUS
 10
-1.134992
 20
3.224016
  0
VERTEX
  8
PLAN_1
  6
CONTINUOUS
 10
-1.144039
 20
3.216693
  0
VERTEX
  8
PLAN_1
  6
CONTINUOUS
 10
-1.152224
 20
3.209370
  0
VERTEX
  8
PLAN_1
  6
CONTINUOUS
 10
-1.160839
 20
3.201618
  0
VERTEX
  8
PLAN_1
  6
CONTINUOUS
 10
-1.168591
 20
3.193433
  0
VERTEX
  8
PLAN_1
  6
CONTINUOUS
 10
-1.175913
 20
3.184819
  0
VERTEX
  8
PLAN_1
  6
CONTINUOUS
 10
-1.182807
 20
3.175772
  0
VERTEX
  8
PLAN_1
  6
CONTINUOUS
 10
-1.189268
 20
3.166728
  0
VERTEX
  8
PLAN_1
  6
CONTINUOUS
 10
-1.195728
 20
3.157252
  0
VERTEX
  8
PLAN_1
  6
CONTINUOUS
 10
-1.201327
 20
3.147343
  0
VERTEX
  8
PLAN_1
  6
CONTINUOUS
 10
-1.206496
 20
3.137004
  0
VERTEX
  8
PLAN_1
  6
CONTINUOUS
 10
-1.211236
 20
3.126669
  0
VERTEX
  8
PLAN_1
  6
CONTINUOUS
 10
-1.215543
 20
3.115898
  0
VERTEX
  8
PLAN_1
  6
CONTINUOUS
 10
-1.218988
 20
3.104701
  0
VERTEX
  8
PLAN_1
  6
CONTINUOUS
 10
-1.222433
 20
3.093500
  0
VERTEX
  8
PLAN_1
  6
CONTINUOUS
 10
-1.225020
 20
3.082303
  0
VERTEX
  8
PLAN_1
  6
CONTINUOUS
 10
-1.227173
 20
3.070673
  0
VERTEX
  8
PLAN_1
  6
CONTINUOUS
 10
-1.228465
 20
3.058610
  0
VERTEX
  8
PLAN_1
  6
CONTINUOUS
 10
-1.229327
 20
3.046980
  0
VERTEX
  8
PLAN_1
  6
CONTINUOUS
 10
-1.229756
 20
3.034488
  0
VERTEX
  8
PLAN_1
  6
CONTINUOUS
 10
-1.229756
 20
3.026736
  0
VERTEX
  8
PLAN_1
  6
CONTINUOUS
 10
-1.229327
 20
3.018551
  0
VERTEX
  8
PLAN_1
  6
CONTINUOUS
 10
-1.228465
 20
3.010799
  0
VERTEX
  8
PLAN_1
  6
CONTINUOUS
 10
-1.227602
 20
3.003043
  0
VERTEX
  8
PLAN_1
  6
CONTINUOUS
 10
-1.226740
 20
2.995291
  0
VERTEX
  8
PLAN_1
  6
CONTINUOUS
 10
-1.225020
 20
2.987969
  0
VERTEX
  8
PLAN_1
  6
CONTINUOUS
 10
-1.223724
 20
2.980217
  0
VERTEX
  8
PLAN_1
  6
CONTINUOUS
 10
-1.221571
 20
2.972894
  0
VERTEX
  8
PLAN_1
  6
CONTINUOUS
 10
-1.219417
 20
2.965571
  0
VERTEX
  8
PLAN_1
  6
CONTINUOUS
 10
-1.217264
 20
2.958248
  0
VERTEX
  8
PLAN_1
  6
CONTINUOUS
 10
-1.214681
 20
2.950925
  0
VERTEX
  8
PLAN_1
  6
CONTINUOUS
 10
-1.211665
 20
2.944035
  0
VERTEX
  8
PLAN_1
  6
CONTINUOUS
 10
-1.208650
 20
2.937142
  0
VERTEX
  8
PLAN_1
  6
CONTINUOUS
 10
-1.205634
 20
2.930252
  0
VERTEX
  8
PLAN_1
  6
CONTINUOUS
 10
-1.202189
 20
2.923787
  0
VERTEX
  8
PLAN_1
  6
CONTINUOUS
 10
-1.198744
 20
2.917327
  0
SEQEND
  8
0
  0
POLYLINE
  8
PLAN_1
  6
CONTINUOUS
 66
     1
 40
0.008181
 41
0.008181
  0
VERTEX
  8
PLAN_1
  6
CONTINUOUS
 10
-0.828736
 20
2.918189
  0
VERTEX
  8
PLAN_1
  6
CONTINUOUS
 10
-0.827016
 20
3.114606
  0
SEQEND
  8
0
  0
POLYLINE
  8
PLAN_1
  6
CONTINUOUS
 66
     1
 40
0.008181
 41
0.008181
  0
VERTEX
  8
PLAN_1
  6
CONTINUOUS
 10
-0.827016
 20
3.114606
  0
VERTEX
  8
PLAN_1
  6
CONTINUOUS
 10
-0.842091
 20
3.129681
  0
VERTEX
  8
PLAN_1
  6
CONTINUOUS
 10
-0.857165
 20
3.142606
  0
VERTEX
  8
PLAN_1
  6
CONTINUOUS
 10
-0.872240
 20
3.154236
  0
VERTEX
  8
PLAN_1
  6
CONTINUOUS
 10
-0.887319
 20
3.163713
  0
VERTEX
  8
PLAN_1
  6
CONTINUOUS
 10
-0.901965
 20
3.171894
  0
VERTEX
  8
PLAN_1
  6
CONTINUOUS
 10
-0.917039
 20
3.178358
  0
VERTEX
  8
PLAN_1
  6
CONTINUOUS
 10
-0.931685
 20
3.183524
  0
VERTEX
  8
PLAN_1
  6
CONTINUOUS
 10
-0.946331
 20
3.186972
  0
VERTEX
  8
PLAN_1
  6
CONTINUOUS
 10
-0.960972
 20
3.189555
  0
VERTEX
  8
PLAN_1
  6
CONTINUOUS
 10
-0.975189
 20
3.190846
  0
VERTEX
  8
PLAN_1
  6
CONTINUOUS
 10
-0.988972
 20
3.190846
  0
VERTEX
  8
PLAN_1
  6
CONTINUOUS
 10
-1.002756
 20
3.189988
  0
VERTEX
  8
PLAN_1
  6
CONTINUOUS
 10
-1.016110
 20
3.188264
  0
VERTEX
  8
PLAN_1
  6
CONTINUOUS
 10
-1.029031
 20
3.185677
  0
VERTEX
  8
PLAN_1
  6
CONTINUOUS
 10
-1.041524
 20
3.182665
  0
VERTEX
  8
PLAN_1
  6
CONTINUOUS
 10
-1.053583
 20
3.178787
  0
VERTEX
  8
PLAN_1
  6
CONTINUOUS
 10
-1.065213
 20
3.174480
  0
VERTEX
  8
PLAN_1
  6
CONTINUOUS
 10
-1.076413
 20
3.170173
  0
VERTEX
  8
PLAN_1
  6
CONTINUOUS
 10
-1.086752
 20
3.165004
  0
VERTEX
  8
PLAN_1
  6
CONTINUOUS
 10
-1.097087
 20
3.159835
  0
VERTEX
  8
PLAN_1
  6
CONTINUOUS
 10
-1.106563
 20
3.154665
  0
VERTEX
  8
PLAN_1
  6
CONTINUOUS
 10
-1.115181
 20
3.149067
  0
VERTEX
  8
PLAN_1
  6
CONTINUOUS
 10
-1.123362
 20
3.143898
  0
VERTEX
  8
PLAN_1
  6
CONTINUOUS
 10
-1.130685
 20
3.138728
  0
VERTEX
  8
PLAN_1
  6
CONTINUOUS
 10
-1.143177
 20
3.129252
  0
VERTEX
  8
PLAN_1
  6
CONTINUOUS
 10
-1.152654
 20
3.121500
  0
VERTEX
  8
PLAN_1
  6
CONTINUOUS
 10
-1.158252
 20
3.116331
  0
VERTEX
  8
PLAN_1
  6
CONTINUOUS
 10
-1.160406
 20
3.114606
  0
SEQEND
  8
0
  0
POLYLINE
  8
PLAN_1
  6
CONTINUOUS
 66
     1
 40
0.008181
 41
0.008181
  0
VERTEX
  8
PLAN_1
  6
CONTINUOUS
 10
-1.160406
 20
3.114606
  0
VERTEX
  8
PLAN_1
  6
CONTINUOUS
 10
-1.160839
 20
2.918189
  0
SEQEND
  8
0
  0
POLYLINE
  8
PLAN_1
  6
CONTINUOUS
 66
     1
 40
0.004307
 41
0.004307
  0
VERTEX
  8
PLAN_1
  6
CONTINUOUS
 10
-1.997335
 20
1.326173
  0
VERTEX
  8
PLAN_1
  6
CONTINUOUS
 10
-1.725969
 20
1.326173
  0
SEQEND
  8
0
  0
POLYLINE
  8
PLAN_1
  6
CONTINUOUS
 66
     1
 40
0.004307
 41
0.004307
  0
VERTEX
  8
PLAN_1
  6
CONTINUOUS
 10
-1.860791
 20
1.201689
  0
VERTEX
  8
PLAN_1
  6
CONTINUOUS
 10
-1.861220
 20
1.451087
  0
SEQEND
  8
0
  0
POLYLINE
  8
PLAN_1
  6
CONTINUOUS
 66
     1
 40
0.003000
 41
0.003000
  0
VERTEX
  8
PLAN_1
  6
CONTINUOUS
 10
-1.859929
 20
1.357618
  0
VERTEX
  8
PLAN_1
  6
CONTINUOUS
 10
-1.862945
 20
1.357618
  0
VERTEX
  8
PLAN_1
  6
CONTINUOUS
 10
-1.866390
 20
1.357185
  0
VERTEX
  8
PLAN_1
  6
CONTINUOUS
 10
-1.869406
 20
1.356323
  0
VERTEX
  8
PLAN_1
  6
CONTINUOUS
 10
-1.872421
 20
1.355465
  0
VERTEX
  8
PLAN_1
  6
CONTINUOUS
 10
-1.875004
 20
1.354169
  0
VERTEX
  8
PLAN_1
  6
CONTINUOUS
 10
-1.877591
 20
1.352449
  0
VERTEX
  8
PLAN_1
  6
CONTINUOUS
 10
-1.880173
 20
1.350724
  0
VERTEX
  8
PLAN_1
  6
CONTINUOUS
 10
-1.882327
 20
1.348571
  0
VERTEX
  8
PLAN_1
  6
CONTINUOUS
 10
-1.884480
 20
1.346417
  0
VERTEX
  8
PLAN_1
  6
CONTINUOUS
 10
-1.886205
 20
1.343835
  0
VERTEX
  8
PLAN_1
  6
CONTINUOUS
 10
-1.887929
 20
1.341248
  0
VERTEX
  8
PLAN_1
  6
CONTINUOUS
 10
-1.889220
 20
1.338232
  0
VERTEX
  8
PLAN_1
  6
CONTINUOUS
 10
-1.890512
 20
1.335217
  0
VERTEX
  8
PLAN_1
  6
CONTINUOUS
 10
-1.890941
 20
1.332205
  0
VERTEX
  8
PLAN_1
  6
CONTINUOUS
 10
-1.891374
 20
1.329189
  0
VERTEX
  8
PLAN_1
  6
CONTINUOUS
 10
-1.891803
 20
1.325740
  0
VERTEX
  8
PLAN_1
  6
CONTINUOUS
 10
-1.891374
 20
1.322728
  0
VERTEX
  8
PLAN_1
  6
CONTINUOUS
 10
-1.890941
 20
1.319713
  0
VERTEX
  8
PLAN_1
  6
CONTINUOUS
 10
-1.890512
 20
1.316264
  0
VERTEX
  8
PLAN_1
  6
CONTINUOUS
 10
-1.889220
 20
1.313681
  0
VERTEX
  8
PLAN_1
  6
CONTINUOUS
 10
-1.887929
 20
1.310665
  0
VERTEX
  8
PLAN_1
  6
CONTINUOUS
 10
-1.886205
 20
1.308083
  0
VERTEX
  8
PLAN_1
  6
CONTINUOUS
 10
-1.884480
 20
1.305496
  0
VERTEX
  8
PLAN_1
  6
CONTINUOUS
 10
-1.882327
 20
1.303343
  0
VERTEX
  8
PLAN_1
  6
CONTINUOUS
 10
-1.880173
 20
1.301189
  0
VERTEX
  8
PLAN_1
  6
CONTINUOUS
 10
-1.877591
 20
1.299469
  0
VERTEX
  8
PLAN_1
  6
CONTINUOUS
 10
-1.875004
 20
1.297744
  0
VERTEX
  8
PLAN_1
  6
CONTINUOUS
 10
-1.872421
 20
1.296453
  0
VERTEX
  8
PLAN_1
  6
CONTINUOUS
 10
-1.869406
 20
1.295591
  0
VERTEX
  8
PLAN_1
  6
CONTINUOUS
 10
-1.866390
 20
1.294728
  0
VERTEX
  8
PLAN_1
  6
CONTINUOUS
 10
-1.862945
 20
1.294299
  0
VERTEX
  8
PLAN_1
  6
CONTINUOUS
 10
-1.859929
 20
1.293866
  0
VERTEX
  8
PLAN_1
  6
CONTINUOUS
 10
-1.856484
 20
1.294299
  0
VERTEX
  8
PLAN_1
  6
CONTINUOUS
 10
-1.853469
 20
1.294728
  0
VERTEX
  8
PLAN_1
  6
CONTINUOUS
 10
-1.850453
 20
1.295591
  0
VERTEX
  8
PLAN_1
  6
CONTINUOUS
 10
-1.847437
 20
1.296453
  0
VERTEX
  8
PLAN_1
  6
CONTINUOUS
 10
-1.844421
 20
1.297744
  0
VERTEX
  8
PLAN_1
  6
CONTINUOUS
 10
-1.841839
 20
1.299469
  0
VERTEX
  8
PLAN_1
  6
CONTINUOUS
 10
-1.839685
 20
1.301189
  0
VERTEX
  8
PLAN_1
  6
CONTINUOUS
 10
-1.837098
 20
1.303343
  0
VERTEX
  8
PLAN_1
  6
CONTINUOUS
 10
-1.835378
 20
1.305496
  0
VERTEX
  8
PLAN_1
  6
CONTINUOUS
 10
-1.833224
 20
1.308083
  0
VERTEX
  8
PLAN_1
  6
CONTINUOUS
 10
-1.831933
 20
1.310665
  0
VERTEX
  8
PLAN_1
  6
CONTINUOUS
 10
-1.830638
 20
1.313681
  0
VERTEX
  8
PLAN_1
  6
CONTINUOUS
 10
-1.829346
 20
1.316264
  0
VERTEX
  8
PLAN_1
  6
CONTINUOUS
 10
-1.828484
 20
1.319713
  0
VERTEX
  8
PLAN_1
  6
CONTINUOUS
 10
-1.828055
 20
1.322728
  0
VERTEX
  8
PLAN_1
  6
CONTINUOUS
 10
-1.828055
 20
1.325740
  0
VERTEX
  8
PLAN_1
  6
CONTINUOUS
 10
-1.828055
 20
1.329189
  0
VERTEX
  8
PLAN_1
  6
CONTINUOUS
 10
-1.828484
 20
1.332205
  0
VERTEX
  8
PLAN_1
  6
CONTINUOUS
 10
-1.829346
 20
1.335217
  0
VERTEX
  8
PLAN_1
  6
CONTINUOUS
 10
-1.830638
 20
1.338232
  0
VERTEX
  8
PLAN_1
  6
CONTINUOUS
 10
-1.831933
 20
1.341248
  0
VERTEX
  8
PLAN_1
  6
CONTINUOUS
 10
-1.833224
 20
1.343835
  0
VERTEX
  8
PLAN_1
  6
CONTINUOUS
 10
-1.835378
 20
1.346417
  0
VERTEX
  8
PLAN_1
  6
CONTINUOUS
 10
-1.837098
 20
1.348571
  0
VERTEX
  8
PLAN_1
  6
CONTINUOUS
 10
-1.839685
 20
1.350724
  0
VERTEX
  8
PLAN_1
  6
CONTINUOUS
 10
-1.841839
 20
1.352449
  0
VERTEX
  8
PLAN_1
  6
CONTINUOUS
 10
-1.844421
 20
1.354169
  0
VERTEX
  8
PLAN_1
  6
CONTINUOUS
 10
-1.847437
 20
1.355465
  0
VERTEX
  8
PLAN_1
  6
CONTINUOUS
 10
-1.850453
 20
1.356323
  0
VERTEX
  8
PLAN_1
  6
CONTINUOUS
 10
-1.853469
 20
1.357185
  0
VERTEX
  8
PLAN_1
  6
CONTINUOUS
 10
-1.856484
 20
1.357618
  0
VERTEX
  8
PLAN_1
  6
CONTINUOUS
 10
-1.859929
 20
1.357618
  0
SEQEND
  8
0
  0
POLYLINE
  8
PLAN_1
  6
CONTINUOUS
 66
     1
 40
0.004307
 41
0.004307
  0
VERTEX
  8
PLAN_1
  6
CONTINUOUS
 10
-0.248098
 20
1.326173
  0
VERTEX
  8
PLAN_1
  6
CONTINUOUS
 10
0.023697
 20
1.326173
  0
SEQEND
  8
0
  0
POLYLINE
  8
PLAN_1
  6
CONTINUOUS
 66
     1
 40
0.004307
 41
0.004307
  0
VERTEX
  8
PLAN_1
  6
CONTINUOUS
 10
-0.111122
 20
1.201689
  0
VERTEX
  8
PLAN_1
  6
CONTINUOUS
 10
-0.111555
 20
1.451087
  0
SEQEND
  8
0
  0
POLYLINE
  8
PLAN_1
  6
CONTINUOUS
 66
     1
 40
0.003000
 41
0.003000
  0
VERTEX
  8
PLAN_1
  6
CONTINUOUS
 10
-0.110264
 20
1.357618
  0
VERTEX
  8
PLAN_1
  6
CONTINUOUS
 10
-0.113709
 20
1.357618
  0
VERTEX
  8
PLAN_1
  6
CONTINUOUS
 10
-0.116724
 20
1.357185
  0
VERTEX
  8
PLAN_1
  6
CONTINUOUS
 10
-0.119740
 20
1.356323
  0
VERTEX
  8
PLAN_1
  6
CONTINUOUS
 10
-0.122752
 20
1.355465
  0
VERTEX
  8
PLAN_1
  6
CONTINUOUS
 10
-0.125339
 20
1.354169
  0
VERTEX
  8
PLAN_1
  6
CONTINUOUS
 10
-0.128354
 20
1.352449
  0
VERTEX
  8
PLAN_1
  6
CONTINUOUS
 10
-0.130508
 20
1.350724
  0
VERTEX
  8
PLAN_1
  6
CONTINUOUS
 10
-0.133091
 20
1.348571
  0
VERTEX
  8
PLAN_1
  6
CONTINUOUS
 10
-0.134815
 20
1.346417
  0
VERTEX
  8
PLAN_1
  6
CONTINUOUS
 10
-0.136969
 20
1.343835
  0
VERTEX
  8
PLAN_1
  6
CONTINUOUS
 10
-0.138260
 20
1.341248
  0
VERTEX
  8
PLAN_1
  6
CONTINUOUS
 10
-0.139551
 20
1.338232
  0
VERTEX
  8
PLAN_1
  6
CONTINUOUS
 10
-0.140846
 20
1.335217
  0
VERTEX
  8
PLAN_1
  6
CONTINUOUS
 10
-0.141705
 20
1.332205
  0
VERTEX
  8
PLAN_1
  6
CONTINUOUS
 10
-0.142138
 20
1.329189
  0
VERTEX
  8
PLAN_1
  6
CONTINUOUS
 10
-0.142138
 20
1.325740
  0
VERTEX
  8
PLAN_1
  6
CONTINUOUS
 10
-0.142138
 20
1.322728
  0
VERTEX
  8
PLAN_1
  6
CONTINUOUS
 10
-0.141705
 20
1.319713
  0
VERTEX
  8
PLAN_1
  6
CONTINUOUS
 10
-0.140846
 20
1.316264
  0
VERTEX
  8
PLAN_1
  6
CONTINUOUS
 10
-0.139551
 20
1.313681
  0
VERTEX
  8
PLAN_1
  6
CONTINUOUS
 10
-0.138260
 20
1.310665
  0
VERTEX
  8
PLAN_1
  6
CONTINUOUS
 10
-0.136969
 20
1.308083
  0
VERTEX
  8
PLAN_1
  6
CONTINUOUS
 10
-0.134815
 20
1.305496
  0
VERTEX
  8
PLAN_1
  6
CONTINUOUS
 10
-0.133091
 20
1.303343
  0
VERTEX
  8
PLAN_1
  6
CONTINUOUS
 10
-0.130508
 20
1.301189
  0
VERTEX
  8
PLAN_1
  6
CONTINUOUS
 10
-0.128354
 20
1.299469
  0
VERTEX
  8
PLAN_1
  6
CONTINUOUS
 10
-0.125339
 20
1.297744
  0
VERTEX
  8
PLAN_1
  6
CONTINUOUS
 10
-0.122752
 20
1.296453
  0
VERTEX
  8
PLAN_1
  6
CONTINUOUS
 10
-0.119740
 20
1.295591
  0
VERTEX
  8
PLAN_1
  6
CONTINUOUS
 10
-0.116724
 20
1.294728
  0
VERTEX
  8
PLAN_1
  6
CONTINUOUS
 10
-0.113709
 20
1.294299
  0
VERTEX
  8
PLAN_1
  6
CONTINUOUS
 10
-0.110264
 20
1.293866
  0
VERTEX
  8
PLAN_1
  6
CONTINUOUS
 10
-0.107248
 20
1.294299
  0
VERTEX
  8
PLAN_1
  6
CONTINUOUS
 10
-0.103799
 20
1.294728
  0
VERTEX
  8
PLAN_1
  6
CONTINUOUS
 10
-0.100787
 20
1.295591
  0
VERTEX
  8
PLAN_1
  6
CONTINUOUS
 10
-0.097772
 20
1.296453
  0
VERTEX
  8
PLAN_1
  6
CONTINUOUS
 10
-0.095185
 20
1.297744
  0
VERTEX
  8
PLAN_1
  6
CONTINUOUS
 10
-0.092602
 20
1.299469
  0
VERTEX
  8
PLAN_1
  6
CONTINUOUS
 10
-0.090016
 20
1.301189
  0
VERTEX
  8
PLAN_1
  6
CONTINUOUS
 10
-0.087862
 20
1.303343
  0
VERTEX
  8
PLAN_1
  6
CONTINUOUS
 10
-0.085709
 20
1.305496
  0
VERTEX
  8
PLAN_1
  6
CONTINUOUS
 10
-0.083988
 20
1.308083
  0
VERTEX
  8
PLAN_1
  6
CONTINUOUS
 10
-0.082264
 20
1.310665
  0
VERTEX
  8
PLAN_1
  6
CONTINUOUS
 10
-0.080972
 20
1.313681
  0
VERTEX
  8
PLAN_1
  6
CONTINUOUS
 10
-0.079681
 20
1.316264
  0
VERTEX
  8
PLAN_1
  6
CONTINUOUS
 10
-0.079248
 20
1.319713
  0
VERTEX
  8
PLAN_1
  6
CONTINUOUS
 10
-0.078386
 20
1.322728
  0
VERTEX
  8
PLAN_1
  6
CONTINUOUS
 10
-0.078386
 20
1.325740
  0
VERTEX
  8
PLAN_1
  6
CONTINUOUS
 10
-0.078386
 20
1.329189
  0
VERTEX
  8
PLAN_1
  6
CONTINUOUS
 10
-0.079248
 20
1.332205
  0
VERTEX
  8
PLAN_1
  6
CONTINUOUS
 10
-0.079681
 20
1.335217
  0
VERTEX
  8
PLAN_1
  6
CONTINUOUS
 10
-0.080972
 20
1.338232
  0
VERTEX
  8
PLAN_1
  6
CONTINUOUS
 10
-0.082264
 20
1.341248
  0
VERTEX
  8
PLAN_1
  6
CONTINUOUS
 10
-0.083988
 20
1.343835
  0
VERTEX
  8
PLAN_1
  6
CONTINUOUS
 10
-0.085709
 20
1.346417
  0
VERTEX
  8
PLAN_1
  6
CONTINUOUS
 10
-0.087862
 20
1.348571
  0
VERTEX
  8
PLAN_1
  6
CONTINUOUS
 10
-0.090016
 20
1.350724
  0
VERTEX
  8
PLAN_1
  6
CONTINUOUS
 10
-0.092602
 20
1.352449
  0
VERTEX
  8
PLAN_1
  6
CONTINUOUS
 10
-0.095185
 20
1.354169
  0
VERTEX
  8
PLAN_1
  6
CONTINUOUS
 10
-0.097772
 20
1.355465
  0
VERTEX
  8
PLAN_1
  6
CONTINUOUS
 10
-0.100787
 20
1.356323
  0
VERTEX
  8
PLAN_1
  6
CONTINUOUS
 10
-0.103799
 20
1.357185
  0
VERTEX
  8
PLAN_1
  6
CONTINUOUS
 10
-0.107248
 20
1.357618
  0
VERTEX
  8
PLAN_1
  6
CONTINUOUS
 10
-0.110264
 20
1.357618
  0
SEQEND
  8
0
  0
POLYLINE
  8
PLAN_1
  6
CONTINUOUS
 66
     1
 40
0.008181
 41
0.008181
  0
VERTEX
  8
PLAN_1
  6
CONTINUOUS
 10
-0.826154
 20
3.114177
  0
VERTEX
  8
PLAN_1
  6
CONTINUOUS
 10
-1.160839
 20
3.114177
  0
SEQEND
  8
0
  0
POLYLINE
  8
PLAN_1
 62
     2
  6
CONTINUOUS
 66
     1
 40
0.004307
 41
0.004307
  0
VERTEX
  8
PLAN_1
 62
     2
  6
CONTINUOUS
 10
0.356228
 20
1.355894
  0
VERTEX
  8
PLAN_1
 62
     2
  6
CONTINUOUS
 10
0.356228
 20
3.245122
  0
SEQEND
  8
0
  0
SOLID
  8
PLAN_1
 62
     2
 10
0.356228
 20
3.274843
 11
0.340724
 21
3.215402
 12
0.356228
 22
3.274843
 13
0.372165
 23
3.215402
  0
POLYLINE
  8
PLAN_1
 62
     2
  6
CONTINUOUS
 66
     1
 40
0.003000
 41
0.003000
  0
VERTEX
  8
PLAN_1
 62
     2
  6
CONTINUOUS
 10
0.356228
 20
3.274843
  0
VERTEX
  8
PLAN_1
 62
     2
  6
CONTINUOUS
 10
0.340724
 20
3.215402
  0
VERTEX
  8
PLAN_1
 62
     2
  6
CONTINUOUS
 10
0.372165
 20
3.215402
  0
VERTEX
  8
PLAN_1
 62
     2
  6
CONTINUOUS
 10
0.356228
 20
3.274843
  0
SEQEND
  8
0
  0
SOLID
  8
PLAN_1
 62
     2
 10
0.356228
 20
1.326173
 11
0.340724
 21
1.385185
 12
0.356228
 22
1.326173
 13
0.372165
 23
1.385185
  0
POLYLINE
  8
PLAN_1
 62
     2
  6
CONTINUOUS
 66
     1
 40
0.003000
 41
0.003000
  0
VERTEX
  8
PLAN_1
 62
     2
  6
CONTINUOUS
 10
0.356228
 20
1.326173
  0
VERTEX
  8
PLAN_1
 62
     2
  6
CONTINUOUS
 10
0.340724
 20
1.385185
  0
VERTEX
  8
PLAN_1
 62
     2
  6
CONTINUOUS
 10
0.372165
 20
1.385185
  0
VERTEX
  8
PLAN_1
 62
     2
  6
CONTINUOUS
 10
0.356228
 20
1.326173
  0
SEQEND
  8
0
  0
SOLID
  8
PLAN_1
 62
     2
 10
-1.164713
 20
3.196878
 11
-1.195295
 21
3.249429
 12
-1.164713
 22
3.196878
 13
-1.217264
 23
3.227461
  0
POLYLINE
  8
PLAN_1
 62
     2
  6
CONTINUOUS
 66
     1
 40
0.003000
 41
0.003000
  0
VERTEX
  8
PLAN_1
 62
     2
  6
CONTINUOUS
 10
-1.164713
 20
3.196878
  0
VERTEX
  8
PLAN_1
 62
     2
  6
CONTINUOUS
 10
-1.195295
 20
3.249429
  0
VERTEX
  8
PLAN_1
 62
     2
  6
CONTINUOUS
 10
-1.217264
 20
3.227461
  0
VERTEX
  8
PLAN_1
 62
     2
  6
CONTINUOUS
 10
-1.164713
 20
3.196878
  0
SEQEND
  8
0
  0
POLYLINE
  8
PLAN_1
 62
     2
  6
CONTINUOUS
 66
     1
 40
0.004307
 41
0.004307
  0
VERTEX
  8
PLAN_1
 62
     2
  6
CONTINUOUS
 10
-1.190988
 20
3.223154
  0
VERTEX
  8
PLAN_1
 62
     2
  6
CONTINUOUS
 10
-1.320642
 20
3.347638
  0
VERTEX
  8
PLAN_1
 62
     2
  6
CONTINUOUS
 10
-1.608807
 20
3.347638
  0
SEQEND
  8
0
  0
POLYLINE
  8
PLAN_1
 62
     2
  6
CONTINUOUS
 66
     1
 40
0.003000
 41
0.003000
  0
VERTEX
  8
PLAN_1
 62
     2
  6
CONTINUOUS
 10
-1.514043
 20
3.435508
  0
VERTEX
  8
PLAN_1
 62
     2
  6
CONTINUOUS
 10
-1.511890
 20
3.432492
  0
VERTEX
  8
PLAN_1
 62
     2
  6
CONTINUOUS
 10
-1.510169
 20
3.429047
  0
VERTEX
  8
PLAN_1
 62
     2
  6
CONTINUOUS
 10
-1.508445
 20
3.425602
  0
VERTEX
  8
PLAN_1
 62
     2
  6
CONTINUOUS
 10
-1.507154
 20
3.422157
  0
VERTEX
  8
PLAN_1
 62
     2
  6
CONTINUOUS
 10
-1.506291
 20
3.418709
  0
VERTEX
  8
PLAN_1
 62
     2
  6
CONTINUOUS
 10
-1.505862
 20
3.415264
  0
VERTEX
  8
PLAN_1
 62
     2
  6
CONTINUOUS
 10
-1.505429
 20
3.411819
  0
VERTEX
  8
PLAN_1
 62
     2
  6
CONTINUOUS
 10
-1.505429
 20
3.408803
  0
VERTEX
  8
PLAN_1
 62
     2
  6
CONTINUOUS
 10
-1.505429
 20
3.405358
  0
VERTEX
  8
PLAN_1
 62
     2
  6
CONTINUOUS
 10
-1.505862
 20
3.402343
  0
VERTEX
  8
PLAN_1
 62
     2
  6
CONTINUOUS
 10
-1.506291
 20
3.398894
  0
VERTEX
  8
PLAN_1
 62
     2
  6
CONTINUOUS
 10
-1.507154
 20
3.395882
  0
VERTEX
  8
PLAN_1
 62
     2
  6
CONTINUOUS
 10
-1.508445
 20
3.392433
  0
VERTEX
  8
PLAN_1
 62
     2
  6
CONTINUOUS
 10
-1.509736
 20
3.388988
  0
VERTEX
  8
PLAN_1
 62
     2
  6
CONTINUOUS
 10
-1.511461
 20
3.385972
  0
VERTEX
  8
PLAN_1
 62
     2
  6
CONTINUOUS
 10
-1.513185
 20
3.382957
  0
VERTEX
  8
PLAN_1
 62
     2
  6
CONTINUOUS
 10
-1.515339
 20
3.379945
  0
VERTEX
  8
PLAN_1
 62
     2
  6
CONTINUOUS
 10
-1.517921
 20
3.377358
  0
VERTEX
  8
PLAN_1
 62
     2
  6
CONTINUOUS
 10
-1.520937
 20
3.375205
  0
VERTEX
  8
PLAN_1
 62
     2
  6
CONTINUOUS
 10
-1.524382
 20
3.373051
  0
VERTEX
  8
PLAN_1
 62
     2
  6
CONTINUOUS
 10
-1.528260
 20
3.371760
  0
VERTEX
  8
PLAN_1
 62
     2
  6
CONTINUOUS
 10
-1.532138
 20
3.370469
  0
VERTEX
  8
PLAN_1
 62
     2
  6
CONTINUOUS
 10
-1.536874
 20
3.369606
  0
VERTEX
  8
PLAN_1
 62
     2
  6
CONTINUOUS
 10
-1.542043
 20
3.369173
  0
VERTEX
  8
PLAN_1
 62
     2
  6
CONTINUOUS
 10
-1.545921
 20
3.369606
  0
VERTEX
  8
PLAN_1
 62
     2
  6
CONTINUOUS
 10
-1.549366
 20
3.370035
  0
VERTEX
  8
PLAN_1
 62
     2
  6
CONTINUOUS
 10
-1.552811
 20
3.370898
  0
VERTEX
  8
PLAN_1
 62
     2
  6
CONTINUOUS
 10
-1.556256
 20
3.371760
  0
VERTEX
  8
PLAN_1
 62
     2
  6
CONTINUOUS
 10
-1.558843
 20
3.373051
  0
VERTEX
  8
PLAN_1
 62
     2
  6
CONTINUOUS
 10
-1.561858
 20
3.374776
  0
VERTEX
  8
PLAN_1
 62
     2
  6
CONTINUOUS
 10
-1.564012
 20
3.376496
  0
VERTEX
  8
PLAN_1
 62
     2
  6
CONTINUOUS
 10
-1.566594
 20
3.378220
  0
VERTEX
  8
PLAN_1
 62
     2
  6
CONTINUOUS
 10
-1.574780
 20
3.369173
  0
VERTEX
  8
PLAN_1
 62
     2
  6
CONTINUOUS
 10
-1.578224
 20
3.372189
  0
VERTEX
  8
PLAN_1
 62
     2
  6
CONTINUOUS
 10
-1.569610
 20
3.381665
  0
VERTEX
  8
PLAN_1
 62
     2
  6
CONTINUOUS
 10
-1.571764
 20
3.384681
  0
VERTEX
  8
PLAN_1
 62
     2
  6
CONTINUOUS
 10
-1.573488
 20
3.388126
  0
VERTEX
  8
PLAN_1
 62
     2
  6
CONTINUOUS
 10
-1.575209
 20
3.391575
  0
VERTEX
  8
PLAN_1
 62
     2
  6
CONTINUOUS
 10
-1.576071
 20
3.395020
  0
VERTEX
  8
PLAN_1
 62
     2
  6
CONTINUOUS
 10
-1.577362
 20
3.398465
  0
VERTEX
  8
PLAN_1
 62
     2
  6
CONTINUOUS
 10
-1.577795
 20
3.401909
  0
VERTEX
  8
PLAN_1
 62
     2
  6
CONTINUOUS
 10
-1.578224
 20
3.405358
  0
VERTEX
  8
PLAN_1
 62
     2
  6
CONTINUOUS
 10
-1.578224
 20
3.408803
  0
VERTEX
  8
PLAN_1
 62
     2
  6
CONTINUOUS
 10
-1.578224
 20
3.411819
  0
VERTEX
  8
PLAN_1
 62
     2
  6
CONTINUOUS
 10
-1.577795
 20
3.414835
  0
VERTEX
  8
PLAN_1
 62
     2
  6
CONTINUOUS
 10
-1.577362
 20
3.418280
  0
VERTEX
  8
PLAN_1
 62
     2
  6
CONTINUOUS
 10
-1.576504
 20
3.421724
  0
VERTEX
  8
PLAN_1
 62
     2
  6
CONTINUOUS
 10
-1.575642
 20
3.424740
  0
VERTEX
  8
PLAN_1
 62
     2
  6
CONTINUOUS
 10
-1.573917
 20
3.428185
  0
VERTEX
  8
PLAN_1
 62
     2
  6
CONTINUOUS
 10
-1.572626
 20
3.431201
  0
VERTEX
  8
PLAN_1
 62
     2
  6
CONTINUOUS
 10
-1.570472
 20
3.434217
  0
VERTEX
  8
PLAN_1
 62
     2
  6
CONTINUOUS
 10
-1.568319
 20
3.437232
  0
VERTEX
  8
PLAN_1
 62
     2
  6
CONTINUOUS
 10
-1.565732
 20
3.439815
  0
VERTEX
  8
PLAN_1
 62
     2
  6
CONTINUOUS
 10
-1.562720
 20
3.441969
  0
VERTEX
  8
PLAN_1
 62
     2
  6
CONTINUOUS
 10
-1.559272
 20
3.444122
  0
VERTEX
  8
PLAN_1
 62
     2
  6
CONTINUOUS
 10
-1.555398
 20
3.445846
  0
VERTEX
  8
PLAN_1
 62
     2
  6
CONTINUOUS
 10
-1.551520
 20
3.447138
  0
VERTEX
  8
PLAN_1
 62
     2
  6
CONTINUOUS
 10
-1.546780
 20
3.447571
  0
VERTEX
  8
PLAN_1
 62
     2
  6
CONTINUOUS
 10
-1.542043
 20
3.448000
  0
VERTEX
  8
PLAN_1
 62
     2
  6
CONTINUOUS
 10
-1.537736
 20
3.448000
  0
VERTEX
  8
PLAN_1
 62
     2
  6
CONTINUOUS
 10
-1.533858
 20
3.447138
  0
VERTEX
  8
PLAN_1
 62
     2
  6
CONTINUOUS
 10
-1.530413
 20
3.446709
  0
VERTEX
  8
PLAN_1
 62
     2
  6
CONTINUOUS
 10
-1.527398
 20
3.445417
  0
VERTEX
  8
PLAN_1
 62
     2
  6
CONTINUOUS
 10
-1.524382
 20
3.444122
  0
VERTEX
  8
PLAN_1
 62
     2
  6
CONTINUOUS
 10
-1.521799
 20
3.442402
  0
VERTEX
  8
PLAN_1
 62
     2
  6
CONTINUOUS
 10
-1.519213
 20
3.440677
  0
VERTEX
  8
PLAN_1
 62
     2
  6
CONTINUOUS
 10
-1.517059
 20
3.438953
  0
VERTEX
  8
PLAN_1
 62
     2
  6
CONTINUOUS
 10
-1.508445
 20
3.448000
  0
VERTEX
  8
PLAN_1
 62
     2
  6
CONTINUOUS
 10
-1.505429
 20
3.444984
  0
VERTEX
  8
PLAN_1
 62
     2
  6
CONTINUOUS
 10
-1.514043
 20
3.435508
  0
SEQEND
  8
0
  0
POLYLINE
  8
PLAN_1
 62
     2
  6
CONTINUOUS
 66
     1
 40
0.003000
 41
0.003000
  0
VERTEX
  8
PLAN_1
 62
     2
  6
CONTINUOUS
 10
-1.559705
 20
3.385543
  0
VERTEX
  8
PLAN_1
 62
     2
  6
CONTINUOUS
 10
-1.557980
 20
3.383819
  0
VERTEX
  8
PLAN_1
 62
     2
  6
CONTINUOUS
 10
-1.556256
 20
3.382528
  0
VERTEX
  8
PLAN_1
 62
     2
  6
CONTINUOUS
 10
-1.554102
 20
3.381236
  0
VERTEX
  8
PLAN_1
 62
     2
  6
CONTINUOUS
 10
-1.551949
 20
3.380374
  0
VERTEX
  8
PLAN_1
 62
     2
  6
CONTINUOUS
 10
-1.549795
 20
3.379512
  0
VERTEX
  8
PLAN_1
 62
     2
  6
CONTINUOUS
 10
-1.547213
 20
3.378650
  0
VERTEX
  8
PLAN_1
 62
     2
  6
CONTINUOUS
 10
-1.544626
 20
3.378220
  0
VERTEX
  8
PLAN_1
 62
     2
  6
CONTINUOUS
 10
-1.542043
 20
3.378220
  0
VERTEX
  8
PLAN_1
 62
     2
  6
CONTINUOUS
 10
-1.539028
 20
3.378650
  0
VERTEX
  8
PLAN_1
 62
     2
  6
CONTINUOUS
 10
-1.536012
 20
3.379083
  0
VERTEX
  8
PLAN_1
 62
     2
  6
CONTINUOUS
 10
-1.533429
 20
3.379512
  0
VERTEX
  8
PLAN_1
 62
     2
  6
CONTINUOUS
 10
-1.530843
 20
3.380374
  0
VERTEX
  8
PLAN_1
 62
     2
  6
CONTINUOUS
 10
-1.528689
 20
3.381665
  0
VERTEX
  8
PLAN_1
 62
     2
  6
CONTINUOUS
 10
-1.526535
 20
3.383390
  0
VERTEX
  8
PLAN_1
 62
     2
  6
CONTINUOUS
 10
-1.524382
 20
3.385110
  0
VERTEX
  8
PLAN_1
 62
     2
  6
CONTINUOUS
 10
-1.522661
 20
3.386835
  0
VERTEX
  8
PLAN_1
 62
     2
  6
CONTINUOUS
 10
-1.521366
 20
3.388988
  0
VERTEX
  8
PLAN_1
 62
     2
  6
CONTINUOUS
 10
-1.519646
 20
3.391142
  0
VERTEX
  8
PLAN_1
 62
     2
  6
CONTINUOUS
 10
-1.518783
 20
3.393728
  0
VERTEX
  8
PLAN_1
 62
     2
  6
CONTINUOUS
 10
-1.517492
 20
3.396311
  0
VERTEX
  8
PLAN_1
 62
     2
  6
CONTINUOUS
 10
-1.517059
 20
3.399327
  0
VERTEX
  8
PLAN_1
 62
     2
  6
CONTINUOUS
 10
-1.516197
 20
3.402343
  0
VERTEX
  8
PLAN_1
 62
     2
  6
CONTINUOUS
 10
-1.515768
 20
3.405358
  0
VERTEX
  8
PLAN_1
 62
     2
  6
CONTINUOUS
 10
-1.515768
 20
3.408803
  0
VERTEX
  8
PLAN_1
 62
     2
  6
CONTINUOUS
 10
-1.515768
 20
3.411386
  0
VERTEX
  8
PLAN_1
 62
     2
  6
CONTINUOUS
 10
-1.516197
 20
3.413972
  0
VERTEX
  8
PLAN_1
 62
     2
  6
CONTINUOUS
 10
-1.516630
 20
3.416555
  0
VERTEX
  8
PLAN_1
 62
     2
  6
CONTINUOUS
 10
-1.517059
 20
3.419142
  0
VERTEX
  8
PLAN_1
 62
     2
  6
CONTINUOUS
 10
-1.517921
 20
3.421724
  0
VERTEX
  8
PLAN_1
 62
     2
  6
CONTINUOUS
 10
-1.518783
 20
3.423878
  0
VERTEX
  8
PLAN_1
 62
     2
  6
CONTINUOUS
 10
-1.519646
 20
3.426031
  0
VERTEX
  8
PLAN_1
 62
     2
  6
CONTINUOUS
 10
-1.520937
 20
3.427756
  0
VERTEX
  8
PLAN_1
 62
     2
  6
CONTINUOUS
 10
-1.559705
 20
3.385543
  0
SEQEND
  8
0
  0
POLYLINE
  8
PLAN_1
 62
     2
  6
CONTINUOUS
 66
     1
 40
0.003000
 41
0.003000
  0
VERTEX
  8
PLAN_1
 62
     2
  6
CONTINUOUS
 10
-1.523520
 20
3.431630
  0
VERTEX
  8
PLAN_1
 62
     2
  6
CONTINUOUS
 10
-1.525244
 20
3.433354
  0
VERTEX
  8
PLAN_1
 62
     2
  6
CONTINUOUS
 10
-1.527398
 20
3.434646
  0
VERTEX
  8
PLAN_1
 62
     2
  6
CONTINUOUS
 10
-1.529122
 20
3.435941
  0
VERTEX
  8
PLAN_1
 62
     2
  6
CONTINUOUS
 10
-1.531705
 20
3.437232
  0
VERTEX
  8
PLAN_1
 62
     2
  6
CONTINUOUS
 10
-1.533858
 20
3.438094
  0
VERTEX
  8
PLAN_1
 62
     2
  6
CONTINUOUS
 10
-1.536445
 20
3.438524
  0
VERTEX
  8
PLAN_1
 62
     2
  6
CONTINUOUS
 10
-1.539028
 20
3.438953
  0
VERTEX
  8
PLAN_1
 62
     2
  6
CONTINUOUS
 10
-1.542043
 20
3.438953
  0
VERTEX
  8
PLAN_1
 62
     2
  6
CONTINUOUS
 10
-1.544626
 20
3.438953
  0
VERTEX
  8
PLAN_1
 62
     2
  6
CONTINUOUS
 10
-1.547642
 20
3.438524
  0
VERTEX
  8
PLAN_1
 62
     2
  6
CONTINUOUS
 10
-1.550228
 20
3.437661
  0
VERTEX
  8
PLAN_1
 62
     2
  6
CONTINUOUS
 10
-1.552811
 20
3.436799
  0
VERTEX
  8
PLAN_1
 62
     2
  6
CONTINUOUS
 10
-1.554965
 20
3.435508
  0
VERTEX
  8
PLAN_1
 62
     2
  6
CONTINUOUS
 10
-1.557118
 20
3.434217
  0
VERTEX
  8
PLAN_1
 62
     2
  6
CONTINUOUS
 10
-1.559272
 20
3.432492
  0
VERTEX
  8
PLAN_1
 62
     2
  6
CONTINUOUS
 10
-1.560996
 20
3.430339
  0
VERTEX
  8
PLAN_1
 62
     2
  6
CONTINUOUS
 10
-1.562720
 20
3.428185
  0
VERTEX
  8
PLAN_1
 62
     2
  6
CONTINUOUS
 10
-1.564012
 20
3.426031
  0
VERTEX
  8
PLAN_1
 62
     2
  6
CONTINUOUS
 10
-1.565303
 20
3.423449
  0
VERTEX
  8
PLAN_1
 62
     2
  6
CONTINUOUS
 10
-1.566165
 20
3.420862
  0
VERTEX
  8
PLAN_1
 62
     2
  6
CONTINUOUS
 10
-1.567028
 20
3.417846
  0
VERTEX
  8
PLAN_1
 62
     2
  6
CONTINUOUS
 10
-1.567457
 20
3.414835
  0
VERTEX
  8
PLAN_1
 62
     2
  6
CONTINUOUS
 10
-1.567886
 20
3.411819
  0
VERTEX
  8
PLAN_1
 62
     2
  6
CONTINUOUS
 10
-1.567886
 20
3.408803
  0
VERTEX
  8
PLAN_1
 62
     2
  6
CONTINUOUS
 10
-1.567886
 20
3.405787
  0
VERTEX
  8
PLAN_1
 62
     2
  6
CONTINUOUS
 10
-1.567457
 20
3.403205
  0
VERTEX
  8
PLAN_1
 62
     2
  6
CONTINUOUS
 10
-1.567028
 20
3.400618
  0
VERTEX
  8
PLAN_1
 62
     2
  6
CONTINUOUS
 10
-1.566594
 20
3.398035
  0
VERTEX
  8
PLAN_1
 62
     2
  6
CONTINUOUS
 10
-1.565732
 20
3.395449
  0
VERTEX
  8
PLAN_1
 62
     2
  6
CONTINUOUS
 10
-1.564874
 20
3.393295
  0
VERTEX
  8
PLAN_1
 62
     2
  6
CONTINUOUS
 10
-1.563579
 20
3.391142
  0
VERTEX
  8
PLAN_1
 62
     2
  6
CONTINUOUS
 10
-1.562720
 20
3.388988
  0
VERTEX
  8
PLAN_1
 62
     2
  6
CONTINUOUS
 10
-1.523520
 20
3.431630
  0
SEQEND
  8
0
  0
POLYLINE
  8
PLAN_1
 62
     2
  6
CONTINUOUS
 66
     1
 40
0.003000
 41
0.003000
  0
VERTEX
  8
PLAN_1
 62
     2
  6
CONTINUOUS
 10
-1.464079
 20
3.371327
  0
VERTEX
  8
PLAN_1
 62
     2
  6
CONTINUOUS
 10
-1.473555
 20
3.371327
  0
VERTEX
  8
PLAN_1
 62
     2
  6
CONTINUOUS
 10
-1.473555
 20
3.423449
  0
VERTEX
  8
PLAN_1
 62
     2
  6
CONTINUOUS
 10
-1.490783
 20
3.423449
  0
VERTEX
  8
PLAN_1
 62
     2
  6
CONTINUOUS
 10
-1.490783
 20
3.430339
  0
VERTEX
  8
PLAN_1
 62
     2
  6
CONTINUOUS
 10
-1.486476
 20
3.430772
  0
VERTEX
  8
PLAN_1
 62
     2
  6
CONTINUOUS
 10
-1.483031
 20
3.431201
  0
VERTEX
  8
PLAN_1
 62
     2
  6
CONTINUOUS
 10
-1.480016
 20
3.432063
  0
VERTEX
  8
PLAN_1
 62
     2
  6
CONTINUOUS
 10
-1.477433
 20
3.433354
  0
VERTEX
  8
PLAN_1
 62
     2
  6
CONTINUOUS
 10
-1.475709
 20
3.435079
  0
VERTEX
  8
PLAN_1
 62
     2
  6
CONTINUOUS
 10
-1.473984
 20
3.437232
  0
VERTEX
  8
PLAN_1
 62
     2
  6
CONTINUOUS
 10
-1.472264
 20
3.440248
  0
VERTEX
  8
PLAN_1
 62
     2
  6
CONTINUOUS
 10
-1.470972
 20
3.444555
  0
VERTEX
  8
PLAN_1
 62
     2
  6
CONTINUOUS
 10
-1.464079
 20
3.444555
  0
VERTEX
  8
PLAN_1
 62
     2
  6
CONTINUOUS
 10
-1.464079
 20
3.371327
  0
SEQEND
  8
0
  0
POLYLINE
  8
PLAN_1
 62
     2
  6
CONTINUOUS
 66
     1
 40
0.003000
 41
0.003000
  0
VERTEX
  8
PLAN_1
 62
     2
  6
CONTINUOUS
 10
-1.438665
 20
3.418280
  0
VERTEX
  8
PLAN_1
 62
     2
  6
CONTINUOUS
 10
-1.438665
 20
3.422587
  0
VERTEX
  8
PLAN_1
 62
     2
  6
CONTINUOUS
 10
-1.438236
 20
3.426031
  0
VERTEX
  8
PLAN_1
 62
     2
  6
CONTINUOUS
 10
-1.437374
 20
3.429476
  0
VERTEX
  8
PLAN_1
 62
     2
  6
CONTINUOUS
 10
-1.436083
 20
3.432492
  0
VERTEX
  8
PLAN_1
 62
     2
  6
CONTINUOUS
 10
-1.434787
 20
3.435079
  0
VERTEX
  8
PLAN_1
 62
     2
  6
CONTINUOUS
 10
-1.433067
 20
3.436799
  0
VERTEX
  8
PLAN_1
 62
     2
  6
CONTINUOUS
 10
-1.430913
 20
3.438953
  0
VERTEX
  8
PLAN_1
 62
     2
  6
CONTINUOUS
 10
-1.429189
 20
3.440248
  0
VERTEX
  8
PLAN_1
 62
     2
  6
CONTINUOUS
 10
-1.424882
 20
3.442402
  0
VERTEX
  8
PLAN_1
 62
     2
  6
CONTINUOUS
 10
-1.421004
 20
3.443693
  0
VERTEX
  8
PLAN_1
 62
     2
  6
CONTINUOUS
 10
-1.417130
 20
3.444122
  0
VERTEX
  8
PLAN_1
 62
     2
  6
CONTINUOUS
 10
-1.413681
 20
3.444555
  0
VERTEX
  8
PLAN_1
 62
     2
  6
CONTINUOUS
 10
-1.408945
 20
3.444122
  0
VERTEX
  8
PLAN_1
 62
     2
  6
CONTINUOUS
 10
-1.404638
 20
3.442831
  0
VERTEX
  8
PLAN_1
 62
     2
  6
CONTINUOUS
 10
-1.400760
 20
3.441106
  0
VERTEX
  8
PLAN_1
 62
     2
  6
CONTINUOUS
 10
-1.397315
 20
3.438524
  0
VERTEX
  8
PLAN_1
 62
     2
  6
CONTINUOUS
 10
-1.396024
 20
3.437232
  0
VERTEX
  8
PLAN_1
 62
     2
  6
CONTINUOUS
 10
-1.394728
 20
3.435508
  0
VERTEX
  8
PLAN_1
 62
     2
  6
CONTINUOUS
 10
-1.393437
 20
3.433787
  0
VERTEX
  8
PLAN_1
 62
     2
  6
CONTINUOUS
 10
-1.392575
 20
3.431630
  0
VERTEX
  8
PLAN_1
 62
     2
  6
CONTINUOUS
 10
-1.391717
 20
3.429476
  0
VERTEX
  8
PLAN_1
 62
     2
  6
CONTINUOUS
 10
-1.391283
 20
3.427323
  0
VERTEX
  8
PLAN_1
 62
     2
  6
CONTINUOUS
 10
-1.390854
 20
3.425169
  0
VERTEX
  8
PLAN_1
 62
     2
  6
CONTINUOUS
 10
-1.390854
 20
3.422587
  0
VERTEX
  8
PLAN_1
 62
     2
  6
CONTINUOUS
 10
-1.391283
 20
3.417846
  0
VERTEX
  8
PLAN_1
 62
     2
  6
CONTINUOUS
 10
-1.392146
 20
3.413972
  0
VERTEX
  8
PLAN_1
 62
     2
  6
CONTINUOUS
 10
-1.393870
 20
3.410524
  0
VERTEX
  8
PLAN_1
 62
     2
  6
CONTINUOUS
 10
-1.396453
 20
3.407512
  0
VERTEX
  8
PLAN_1
 62
     2
  6
CONTINUOUS
 10
-1.399035
 20
3.404925
  0
VERTEX
  8
PLAN_1
 62
     2
  6
CONTINUOUS
 10
-1.402484
 20
3.402772
  0
VERTEX
  8
PLAN_1
 62
     2
  6
CONTINUOUS
 10
-1.406358
 20
3.400189
  0
VERTEX
  8
PLAN_1
 62
     2
  6
CONTINUOUS
 10
-1.410236
 20
3.398035
  0
VERTEX
  8
PLAN_1
 62
     2
  6
CONTINUOUS
 10
-1.417988
 20
3.394157
  0
VERTEX
  8
PLAN_1
 62
     2
  6
CONTINUOUS
 10
-1.421437
 20
3.392004
  0
VERTEX
  8
PLAN_1
 62
     2
  6
CONTINUOUS
 10
-1.424020
 20
3.389850
  0
VERTEX
  8
PLAN_1
 62
     2
  6
CONTINUOUS
 10
-1.426173
 20
3.387697
  0
VERTEX
  8
PLAN_1
 62
     2
  6
CONTINUOUS
 10
-1.427898
 20
3.385972
  0
VERTEX
  8
PLAN_1
 62
     2
  6
CONTINUOUS
 10
-1.428760
 20
3.384252
  0
VERTEX
  8
PLAN_1
 62
     2
  6
CONTINUOUS
 10
-1.429618
 20
3.382528
  0
VERTEX
  8
PLAN_1
 62
     2
  6
CONTINUOUS
 10
-1.430051
 20
3.381236
  0
VERTEX
  8
PLAN_1
 62
     2
  6
CONTINUOUS
 10
-1.430480
 20
3.379945
  0
VERTEX
  8
PLAN_1
 62
     2
  6
CONTINUOUS
 10
-1.390854
 20
3.379945
  0
VERTEX
  8
PLAN_1
 62
     2
  6
CONTINUOUS
 10
-1.390854
 20
3.371327
  0
VERTEX
  8
PLAN_1
 62
     2
  6
CONTINUOUS
 10
-1.440819
 20
3.371327
  0
VERTEX
  8
PLAN_1
 62
     2
  6
CONTINUOUS
 10
-1.440390
 20
3.376496
  0
VERTEX
  8
PLAN_1
 62
     2
  6
CONTINUOUS
 10
-1.439094
 20
3.381665
  0
VERTEX
  8
PLAN_1
 62
     2
  6
CONTINUOUS
 10
-1.437803
 20
3.385543
  0
VERTEX
  8
PLAN_1
 62
     2
  6
CONTINUOUS
 10
-1.435650
 20
3.389421
  0
VERTEX
  8
PLAN_1
 62
     2
  6
CONTINUOUS
 10
-1.433067
 20
3.392866
  0
VERTEX
  8
PLAN_1
 62
     2
  6
CONTINUOUS
 10
-1.430480
 20
3.395449
  0
VERTEX
  8
PLAN_1
 62
     2
  6
CONTINUOUS
 10
-1.427035
 20
3.398035
  0
VERTEX
  8
PLAN_1
 62
     2
  6
CONTINUOUS
 10
-1.423591
 20
3.400189
  0
VERTEX
  8
PLAN_1
 62
     2
  6
CONTINUOUS
 10
-1.413681
 20
3.405787
  0
VERTEX
  8
PLAN_1
 62
     2
  6
CONTINUOUS
 10
-1.411098
 20
3.407512
  0
VERTEX
  8
PLAN_1
 62
     2
  6
CONTINUOUS
 10
-1.408512
 20
3.409232
  0
VERTEX
  8
PLAN_1
 62
     2
  6
CONTINUOUS
 10
-1.406358
 20
3.410957
  0
VERTEX
  8
PLAN_1
 62
     2
  6
CONTINUOUS
 10
-1.404205
 20
3.412681
  0
VERTEX
  8
PLAN_1
 62
     2
  6
CONTINUOUS
 10
-1.402484
 20
3.414402
  0
VERTEX
  8
PLAN_1
 62
     2
  6
CONTINUOUS
 10
-1.401622
 20
3.416988
  0
VERTEX
  8
PLAN_1
 62
     2
  6
CONTINUOUS
 10
-1.400760
 20
3.419571
  0
VERTEX
  8
PLAN_1
 62
     2
  6
CONTINUOUS
 10
-1.400331
 20
3.423016
  0
VERTEX
  8
PLAN_1
 62
     2
  6
CONTINUOUS
 10
-1.400760
 20
3.425169
  0
VERTEX
  8
PLAN_1
 62
     2
  6
CONTINUOUS
 10
-1.401193
 20
3.427756
  0
VERTEX
  8
PLAN_1
 62
     2
  6
CONTINUOUS
 10
-1.402051
 20
3.429909
  0
VERTEX
  8
PLAN_1
 62
     2
  6
CONTINUOUS
 10
-1.403776
 20
3.431630
  0
VERTEX
  8
PLAN_1
 62
     2
  6
CONTINUOUS
 10
-1.405500
 20
3.433787
  0
VERTEX
  8
PLAN_1
 62
     2
  6
CONTINUOUS
 10
-1.408083
 20
3.435079
  0
VERTEX
  8
PLAN_1
 62
     2
  6
CONTINUOUS
 10
-1.411098
 20
3.435941
  0
VERTEX
  8
PLAN_1
 62
     2
  6
CONTINUOUS
 10
-1.414976
 20
3.436370
  0
VERTEX
  8
PLAN_1
 62
     2
  6
CONTINUOUS
 10
-1.417559
 20
3.435941
  0
VERTEX
  8
PLAN_1
 62
     2
  6
CONTINUOUS
 10
-1.419713
 20
3.435508
  0
VERTEX
  8
PLAN_1
 62
     2
  6
CONTINUOUS
 10
-1.421437
 20
3.435079
  0
VERTEX
  8
PLAN_1
 62
     2
  6
CONTINUOUS
 10
-1.423157
 20
3.434217
  0
VERTEX
  8
PLAN_1
 62
     2
  6
CONTINUOUS
 10
-1.424453
 20
3.432925
  0
VERTEX
  8
PLAN_1
 62
     2
  6
CONTINUOUS
 10
-1.425744
 20
3.432063
  0
VERTEX
  8
PLAN_1
 62
     2
  6
CONTINUOUS
 10
-1.426606
 20
3.430772
  0
VERTEX
  8
PLAN_1
 62
     2
  6
CONTINUOUS
 10
-1.427465
 20
3.429047
  0
VERTEX
  8
PLAN_1
 62
     2
  6
CONTINUOUS
 10
-1.428327
 20
3.426031
  0
VERTEX
  8
PLAN_1
 62
     2
  6
CONTINUOUS
 10
-1.429189
 20
3.423016
  0
VERTEX
  8
PLAN_1
 62
     2
  6
CONTINUOUS
 10
-1.429618
 20
3.420433
  0
VERTEX
  8
PLAN_1
 62
     2
  6
CONTINUOUS
 10
-1.429618
 20
3.418280
  0
VERTEX
  8
PLAN_1
 62
     2
  6
CONTINUOUS
 10
-1.438665
 20
3.418280
  0
SEQEND
  8
0
  0
POLYLINE
  8
PLAN_1
 62
     2
  6
CONTINUOUS
 66
     1
 40
0.004307
 41
0.004307
  0
VERTEX
  8
PLAN_1
 62
     2
  6
CONTINUOUS
 10
0.379921
 20
1.326173
  0
VERTEX
  8
PLAN_1
 62
     2
  6
CONTINUOUS
 10
0.047390
 20
1.326173
  0
SEQEND
  8
0
  0
POLYLINE
  8
PLAN_1
 62
     2
  6
CONTINUOUS
 66
     1
 40
0.004307
 41
0.004307
  0
VERTEX
  8
PLAN_1
 62
     2
  6
CONTINUOUS
 10
0.379921
 20
3.274843
  0
VERTEX
  8
PLAN_1
 62
     2
  6
CONTINUOUS
 10
-0.935992
 20
3.274843
  0
SEQEND
  8
0
  0
POLYLINE
  8
PLAN_1
 62
     2
  6
CONTINUOUS
 66
     1
 40
0.003000
 41
0.003000
  0
VERTEX
  8
PLAN_1
 62
     2
  6
CONTINUOUS
 10
0.314878
 20
2.242787
  0
VERTEX
  8
PLAN_1
 62
     2
  6
CONTINUOUS
 10
0.332969
 20
2.242787
  0
VERTEX
  8
PLAN_1
 62
     2
  6
CONTINUOUS
 10
0.332969
 20
2.233744
  0
VERTEX
  8
PLAN_1
 62
     2
  6
CONTINUOUS
 10
0.314878
 20
2.233744
  0
VERTEX
  8
PLAN_1
 62
     2
  6
CONTINUOUS
 10
0.314878
 20
2.201866
  0
VERTEX
  8
PLAN_1
 62
     2
  6
CONTINUOUS
 10
0.305835
 20
2.201866
  0
VERTEX
  8
PLAN_1
 62
     2
  6
CONTINUOUS
 10
0.259744
 20
2.235035
  0
VERTEX
  8
PLAN_1
 62
     2
  6
CONTINUOUS
 10
0.259744
 20
2.242787
  0
VERTEX
  8
PLAN_1
 62
     2
  6
CONTINUOUS
 10
0.307126
 20
2.242787
  0
VERTEX
  8
PLAN_1
 62
     2
  6
CONTINUOUS
 10
0.307126
 20
2.253555
  0
VERTEX
  8
PLAN_1
 62
     2
  6
CONTINUOUS
 10
0.314878
 20
2.253555
  0
VERTEX
  8
PLAN_1
 62
     2
  6
CONTINUOUS
 10
0.314878
 20
2.242787
  0
SEQEND
  8
0
  0
SOLID
  8
PLAN_1
 62
     2
 10
0.307126
 20
2.210051
 11
0.307126
 21
2.233744
 12
0.273957
 22
2.233311
 13
0.273957
 23
2.233744
  0
POLYLINE
  8
PLAN_1
 62
     2
  6
CONTINUOUS
 66
     1
 40
0.003000
 41
0.003000
  0
VERTEX
  8
PLAN_1
 62
     2
  6
CONTINUOUS
 10
0.307126
 20
2.210051
  0
VERTEX
  8
PLAN_1
 62
     2
  6
CONTINUOUS
 10
0.307126
 20
2.233744
  0
VERTEX
  8
PLAN_1
 62
     2
  6
CONTINUOUS
 10
0.273957
 20
2.233744
  0
VERTEX
  8
PLAN_1
 62
     2
  6
CONTINUOUS
 10
0.273957
 20
2.233311
  0
VERTEX
  8
PLAN_1
 62
     2
  6
CONTINUOUS
 10
0.307126
 20
2.210051
  0
SEQEND
  8
0
  0
POLYLINE
  8
PLAN_1
 62
     2
  6
CONTINUOUS
 66
     1
 40
0.003000
 41
0.003000
  0
VERTEX
  8
PLAN_1
 62
     2
  6
CONTINUOUS
 10
0.293772
 20
2.298783
  0
VERTEX
  8
PLAN_1
 62
     2
  6
CONTINUOUS
 10
0.295496
 20
2.302232
  0
VERTEX
  8
PLAN_1
 62
     2
  6
CONTINUOUS
 10
0.297650
 20
2.304815
  0
VERTEX
  8
PLAN_1
 62
     2
  6
CONTINUOUS
 10
0.299803
 20
2.306969
  0
VERTEX
  8
PLAN_1
 62
     2
  6
CONTINUOUS
 10
0.302386
 20
2.308693
  0
VERTEX
  8
PLAN_1
 62
     2
  6
CONTINUOUS
 10
0.304539
 20
2.309551
  0
VERTEX
  8
PLAN_1
 62
     2
  6
CONTINUOUS
 10
0.307126
 20
2.310413
  0
VERTEX
  8
PLAN_1
 62
     2
  6
CONTINUOUS
 10
0.309280
 20
2.310846
  0
VERTEX
  8
PLAN_1
 62
     2
  6
CONTINUOUS
 10
0.311433
 20
2.310846
  0
VERTEX
  8
PLAN_1
 62
     2
  6
CONTINUOUS
 10
0.316169
 20
2.310413
  0
VERTEX
  8
PLAN_1
 62
     2
  6
CONTINUOUS
 10
0.320047
 20
2.309122
  0
VERTEX
  8
PLAN_1
 62
     2
  6
CONTINUOUS
 10
0.322201
 20
2.308693
  0
VERTEX
  8
PLAN_1
 62
     2
  6
CONTINUOUS
 10
0.323925
 20
2.307398
  0
VERTEX
  8
PLAN_1
 62
     2
  6
CONTINUOUS
 10
0.326079
 20
2.306106
  0
VERTEX
  8
PLAN_1
 62
     2
  6
CONTINUOUS
 10
0.327799
 20
2.304815
  0
VERTEX
  8
PLAN_1
 62
     2
  6
CONTINUOUS
 10
0.329094
 20
2.303091
  0
VERTEX
  8
PLAN_1
 62
     2
  6
CONTINUOUS
 10
0.330386
 20
2.301370
  0
VERTEX
  8
PLAN_1
 62
     2
  6
CONTINUOUS
 10
0.331677
 20
2.299217
  0
VERTEX
  8
PLAN_1
 62
     2
  6
CONTINUOUS
 10
0.332969
 20
2.297063
  0
VERTEX
  8
PLAN_1
 62
     2
  6
CONTINUOUS
 10
0.333402
 20
2.294909
  0
VERTEX
  8
PLAN_1
 62
     2
  6
CONTINUOUS
 10
0.334264
 20
2.291894
  0
VERTEX
  8
PLAN_1
 62
     2
  6
CONTINUOUS
 10
0.334693
 20
2.289307
  0
VERTEX
  8
PLAN_1
 62
     2
  6
CONTINUOUS
 10
0.334693
 20
2.285862
  0
VERTEX
  8
PLAN_1
 62
     2
  6
CONTINUOUS
 10
0.334693
 20
2.284138
  0
VERTEX
  8
PLAN_1
 62
     2
  6
CONTINUOUS
 10
0.334693
 20
2.282417
  0
VERTEX
  8
PLAN_1
 62
     2
  6
CONTINUOUS
 10
0.334264
 20
2.280264
  0
VERTEX
  8
PLAN_1
 62
     2
  6
CONTINUOUS
 10
0.333831
 20
2.277677
  0
VERTEX
  8
PLAN_1
 62
     2
  6
CONTINUOUS
 10
0.332969
 20
2.275524
  0
VERTEX
  8
PLAN_1
 62
     2
  6
CONTINUOUS
 10
0.332110
 20
2.272941
  0
VERTEX
  8
PLAN_1
 62
     2
  6
CONTINUOUS
 10
0.330815
 20
2.270787
  0
VERTEX
  8
PLAN_1
 62
     2
  6
CONTINUOUS
 10
0.329094
 20
2.268634
  0
VERTEX
  8
PLAN_1
 62
     2
  6
CONTINUOUS
 10
0.326941
 20
2.266047
  0
VERTEX
  8
PLAN_1
 62
     2
  6
CONTINUOUS
 10
0.324354
 20
2.263894
  0
VERTEX
  8
PLAN_1
 62
     2
  6
CONTINUOUS
 10
0.321772
 20
2.262602
  0
VERTEX
  8
PLAN_1
 62
     2
  6
CONTINUOUS
 10
0.319618
 20
2.261740
  0
VERTEX
  8
PLAN_1
 62
     2
  6
CONTINUOUS
 10
0.317031
 20
2.261311
  0
VERTEX
  8
PLAN_1
 62
     2
  6
CONTINUOUS
 10
0.315311
 20
2.260878
  0
VERTEX
  8
PLAN_1
 62
     2
  6
CONTINUOUS
 10
0.313157
 20
2.260878
  0
VERTEX
  8
PLAN_1
 62
     2
  6
CONTINUOUS
 10
0.311862
 20
2.260878
  0
VERTEX
  8
PLAN_1
 62
     2
  6
CONTINUOUS
 10
0.308417
 20
2.261311
  0
VERTEX
  8
PLAN_1
 62
     2
  6
CONTINUOUS
 10
0.305835
 20
2.261740
  0
VERTEX
  8
PLAN_1
 62
     2
  6
CONTINUOUS
 10
0.302819
 20
2.263031
  0
VERTEX
  8
PLAN_1
 62
     2
  6
CONTINUOUS
 10
0.300665
 20
2.264327
  0
VERTEX
  8
PLAN_1
 62
     2
  6
CONTINUOUS
 10
0.298512
 20
2.266047
  0
VERTEX
  8
PLAN_1
 62
     2
  6
CONTINUOUS
 10
0.296787
 20
2.268201
  0
VERTEX
  8
PLAN_1
 62
     2
  6
CONTINUOUS
 10
0.295063
 20
2.270787
  0
VERTEX
  8
PLAN_1
 62
     2
  6
CONTINUOUS
 10
0.293772
 20
2.273370
  0
VERTEX
  8
PLAN_1
 62
     2
  6
CONTINUOUS
 10
0.292909
 20
2.271217
  0
VERTEX
  8
PLAN_1
 62
     2
  6
CONTINUOUS
 10
0.291618
 20
2.269063
  0
VERTEX
  8
PLAN_1
 62
     2
  6
CONTINUOUS
 10
0.290327
 20
2.267339
  0
VERTEX
  8
PLAN_1
 62
     2
  6
CONTINUOUS
 10
0.288602
 20
2.266047
  0
VERTEX
  8
PLAN_1
 62
     2
  6
CONTINUOUS
 10
0.286449
 20
2.264756
  0
VERTEX
  8
PLAN_1
 62
     2
  6
CONTINUOUS
 10
0.284295
 20
2.263894
  0
VERTEX
  8
PLAN_1
 62
     2
  6
CONTINUOUS
 10
0.282142
 20
2.263465
  0
VERTEX
  8
PLAN_1
 62
     2
  6
CONTINUOUS
 10
0.279559
 20
2.263465
  0
VERTEX
  8
PLAN_1
 62
     2
  6
CONTINUOUS
 10
0.276543
 20
2.263894
  0
VERTEX
  8
PLAN_1
 62
     2
  6
CONTINUOUS
 10
0.273528
 20
2.264327
  0
VERTEX
  8
PLAN_1
 62
     2
  6
CONTINUOUS
 10
0.270083
 20
2.266047
  0
VERTEX
  8
PLAN_1
 62
     2
  6
CONTINUOUS
 10
0.266638
 20
2.267772
  0
VERTEX
  8
PLAN_1
 62
     2
  6
CONTINUOUS
 10
0.265343
 20
2.269496
  0
VERTEX
  8
PLAN_1
 62
     2
  6
CONTINUOUS
 10
0.264051
 20
2.270787
  0
VERTEX
  8
PLAN_1
 62
     2
  6
CONTINUOUS
 10
0.262760
 20
2.272508
  0
VERTEX
  8
PLAN_1
 62
     2
  6
CONTINUOUS
 10
0.261898
 20
2.274661
  0
VERTEX
  8
PLAN_1
 62
     2
  6
CONTINUOUS
 10
0.260606
 20
2.277248
  0
VERTEX
  8
PLAN_1
 62
     2
  6
CONTINUOUS
 10
0.260173
 20
2.279831
  0
VERTEX
  8
PLAN_1
 62
     2
  6
CONTINUOUS
 10
0.259744
 20
2.282417
  0
VERTEX
  8
PLAN_1
 62
     2
  6
CONTINUOUS
 10
0.259744
 20
2.285433
  0
VERTEX
  8
PLAN_1
 62
     2
  6
CONTINUOUS
 10
0.259744
 20
2.288445
  0
VERTEX
  8
PLAN_1
 62
     2
  6
CONTINUOUS
 10
0.260173
 20
2.291031
  0
VERTEX
  8
PLAN_1
 62
     2
  6
CONTINUOUS
 10
0.260606
 20
2.293614
  0
VERTEX
  8
PLAN_1
 62
     2
  6
CONTINUOUS
 10
0.261469
 20
2.295768
  0
VERTEX
  8
PLAN_1
 62
     2
  6
CONTINUOUS
 10
0.262327
 20
2.297921
  0
VERTEX
  8
PLAN_1
 62
     2
  6
CONTINUOUS
 10
0.263189
 20
2.300079
  0
VERTEX
  8
PLAN_1
 62
     2
  6
CONTINUOUS
 10
0.264480
 20
2.301370
  0
VERTEX
  8
PLAN_1
 62
     2
  6
CONTINUOUS
 10
0.265776
 20
2.303091
  0
VERTEX
  8
PLAN_1
 62
     2
  6
CONTINUOUS
 10
0.268791
 20
2.305244
  0
VERTEX
  8
PLAN_1
 62
     2
  6
CONTINUOUS
 10
0.271803
 20
2.306969
  0
VERTEX
  8
PLAN_1
 62
     2
  6
CONTINUOUS
 10
0.275252
 20
2.307831
  0
VERTEX
  8
PLAN_1
 62
     2
  6
CONTINUOUS
 10
0.278268
 20
2.308260
  0
VERTEX
  8
PLAN_1
 62
     2
  6
CONTINUOUS
 10
0.282142
 20
2.307831
  0
VERTEX
  8
PLAN_1
 62
     2
  6
CONTINUOUS
 10
0.285157
 20
2.306969
  0
VERTEX
  8
PLAN_1
 62
     2
  6
CONTINUOUS
 10
0.287311
 20
2.306106
  0
VERTEX
  8
PLAN_1
 62
     2
  6
CONTINUOUS
 10
0.289465
 20
2.304815
  0
VERTEX
  8
PLAN_1
 62
     2
  6
CONTINUOUS
 10
0.291189
 20
2.303091
  0
VERTEX
  8
PLAN_1
 62
     2
  6
CONTINUOUS
 10
0.292051
 20
2.301799
  0
VERTEX
  8
PLAN_1
 62
     2
  6
CONTINUOUS
 10
0.293343
 20
2.300079
  0
VERTEX
  8
PLAN_1
 62
     2
  6
CONTINUOUS
 10
0.293772
 20
2.298783
  0
SEQEND
  8
0
  0
POLYLINE
  8
PLAN_1
 62
     2
  6
CONTINUOUS
 66
     1
 40
0.003000
 41
0.003000
  0
VERTEX
  8
PLAN_1
 62
     2
  6
CONTINUOUS
 10
0.311862
 20
2.270787
  0
VERTEX
  8
PLAN_1
 62
     2
  6
CONTINUOUS
 10
0.314449
 20
2.270787
  0
VERTEX
  8
PLAN_1
 62
     2
  6
CONTINUOUS
 10
0.316602
 20
2.271217
  0
VERTEX
  8
PLAN_1
 62
     2
  6
CONTINUOUS
 10
0.319185
 20
2.272508
  0
VERTEX
  8
PLAN_1
 62
     2
  6
CONTINUOUS
 10
0.321339
 20
2.273803
  0
VERTEX
  8
PLAN_1
 62
     2
  6
CONTINUOUS
 10
0.323492
 20
2.275957
  0
VERTEX
  8
PLAN_1
 62
     2
  6
CONTINUOUS
 10
0.325217
 20
2.278539
  0
VERTEX
  8
PLAN_1
 62
     2
  6
CONTINUOUS
 10
0.326079
 20
2.281984
  0
VERTEX
  8
PLAN_1
 62
     2
  6
CONTINUOUS
 10
0.326508
 20
2.286291
  0
VERTEX
  8
PLAN_1
 62
     2
  6
CONTINUOUS
 10
0.326508
 20
2.288878
  0
VERTEX
  8
PLAN_1
 62
     2
  6
CONTINUOUS
 10
0.326079
 20
2.291461
  0
VERTEX
  8
PLAN_1
 62
     2
  6
CONTINUOUS
 10
0.325217
 20
2.294047
  0
VERTEX
  8
PLAN_1
 62
     2
  6
CONTINUOUS
 10
0.323925
 20
2.296201
  0
VERTEX
  8
PLAN_1
 62
     2
  6
CONTINUOUS
 10
0.322201
 20
2.297921
  0
VERTEX
  8
PLAN_1
 62
     2
  6
CONTINUOUS
 10
0.319618
 20
2.299646
  0
VERTEX
  8
PLAN_1
 62
     2
  6
CONTINUOUS
 10
0.316602
 20
2.300508
  0
VERTEX
  8
PLAN_1
 62
     2
  6
CONTINUOUS
 10
0.312724
 20
2.300937
  0
VERTEX
  8
PLAN_1
 62
     2
  6
CONTINUOUS
 10
0.309280
 20
2.300508
  0
VERTEX
  8
PLAN_1
 62
     2
  6
CONTINUOUS
 10
0.306264
 20
2.299646
  0
VERTEX
  8
PLAN_1
 62
     2
  6
CONTINUOUS
 10
0.303681
 20
2.298354
  0
VERTEX
  8
PLAN_1
 62
     2
  6
CONTINUOUS
 10
0.301957
 20
2.296630
  0
VERTEX
  8
PLAN_1
 62
     2
  6
CONTINUOUS
 10
0.300232
 20
2.294476
  0
VERTEX
  8
PLAN_1
 62
     2
  6
CONTINUOUS
 10
0.299374
 20
2.291894
  0
VERTEX
  8
PLAN_1
 62
     2
  6
CONTINUOUS
 10
0.298512
 20
2.288878
  0
VERTEX
  8
PLAN_1
 62
     2
  6
CONTINUOUS
 10
0.298512
 20
2.285862
  0
VERTEX
  8
PLAN_1
 62
     2
  6
CONTINUOUS
 10
0.298512
 20
2.281984
  0
VERTEX
  8
PLAN_1
 62
     2
  6
CONTINUOUS
 10
0.299374
 20
2.278972
  0
VERTEX
  8
PLAN_1
 62
     2
  6
CONTINUOUS
 10
0.301094
 20
2.276386
  0
VERTEX
  8
PLAN_1
 62
     2
  6
CONTINUOUS
 10
0.302819
 20
2.274232
  0
VERTEX
  8
PLAN_1
 62
     2
  6
CONTINUOUS
 10
0.304539
 20
2.272941
  0
VERTEX
  8
PLAN_1
 62
     2
  6
CONTINUOUS
 10
0.307126
 20
2.271650
  0
VERTEX
  8
PLAN_1
 62
     2
  6
CONTINUOUS
 10
0.309280
 20
2.270787
  0
VERTEX
  8
PLAN_1
 62
     2
  6
CONTINUOUS
 10
0.311862
 20
2.270787
  0
SEQEND
  8
0
  0
POLYLINE
  8
PLAN_1
 62
     2
  6
CONTINUOUS
 66
     1
 40
0.003000
 41
0.003000
  0
VERTEX
  8
PLAN_1
 62
     2
  6
CONTINUOUS
 10
0.278697
 20
2.298783
  0
VERTEX
  8
PLAN_1
 62
     2
  6
CONTINUOUS
 10
0.276972
 20
2.298354
  0
VERTEX
  8
PLAN_1
 62
     2
  6
CONTINUOUS
 10
0.275252
 20
2.297921
  0
VERTEX
  8
PLAN_1
 62
     2
  6
CONTINUOUS
 10
0.273528
 20
2.297063
  0
VERTEX
  8
PLAN_1
 62
     2
  6
CONTINUOUS
 10
0.271803
 20
2.295768
  0
VERTEX
  8
PLAN_1
 62
     2
  6
CONTINUOUS
 10
0.270083
 20
2.294047
  0
VERTEX
  8
PLAN_1
 62
     2
  6
CONTINUOUS
 10
0.268791
 20
2.291894
  0
VERTEX
  8
PLAN_1
 62
     2
  6
CONTINUOUS
 10
0.267929
 20
2.288878
  0
VERTEX
  8
PLAN_1
 62
     2
  6
CONTINUOUS
 10
0.267929
 20
2.285000
  0
VERTEX
  8
PLAN_1
 62
     2
  6
CONTINUOUS
 10
0.267929
 20
2.281555
  0
VERTEX
  8
PLAN_1
 62
     2
  6
CONTINUOUS
 10
0.268791
 20
2.278972
  0
VERTEX
  8
PLAN_1
 62
     2
  6
CONTINUOUS
 10
0.270083
 20
2.276815
  0
VERTEX
  8
PLAN_1
 62
     2
  6
CONTINUOUS
 10
0.271803
 20
2.275524
  0
VERTEX
  8
PLAN_1
 62
     2
  6
CONTINUOUS
 10
0.273528
 20
2.274232
  0
VERTEX
  8
PLAN_1
 62
     2
  6
CONTINUOUS
 10
0.275681
 20
2.273370
  0
VERTEX
  8
PLAN_1
 62
     2
  6
CONTINUOUS
 10
0.277406
 20
2.272941
  0
VERTEX
  8
PLAN_1
 62
     2
  6
CONTINUOUS
 10
0.279126
 20
2.272941
  0
VERTEX
  8
PLAN_1
 62
     2
  6
CONTINUOUS
 10
0.281713
 20
2.273370
  0
VERTEX
  8
PLAN_1
 62
     2
  6
CONTINUOUS
 10
0.283866
 20
2.273803
  0
VERTEX
  8
PLAN_1
 62
     2
  6
CONTINUOUS
 10
0.286020
 20
2.275094
  0
VERTEX
  8
PLAN_1
 62
     2
  6
CONTINUOUS
 10
0.287311
 20
2.276815
  0
VERTEX
  8
PLAN_1
 62
     2
  6
CONTINUOUS
 10
0.288602
 20
2.278539
  0
VERTEX
  8
PLAN_1
 62
     2
  6
CONTINUOUS
 10
0.289898
 20
2.280693
  0
VERTEX
  8
PLAN_1
 62
     2
  6
CONTINUOUS
 10
0.290327
 20
2.283280
  0
VERTEX
  8
PLAN_1
 62
     2
  6
CONTINUOUS
 10
0.290327
 20
2.285862
  0
VERTEX
  8
PLAN_1
 62
     2
  6
CONTINUOUS
 10
0.290327
 20
2.288445
  0
VERTEX
  8
PLAN_1
 62
     2
  6
CONTINUOUS
 10
0.289465
 20
2.291031
  0
VERTEX
  8
PLAN_1
 62
     2
  6
CONTINUOUS
 10
0.288602
 20
2.293185
  0
VERTEX
  8
PLAN_1
 62
     2
  6
CONTINUOUS
 10
0.287311
 20
2.295339
  0
VERTEX
  8
PLAN_1
 62
     2
  6
CONTINUOUS
 10
0.285587
 20
2.296630
  0
VERTEX
  8
PLAN_1
 62
     2
  6
CONTINUOUS
 10
0.283433
 20
2.297921
  0
VERTEX
  8
PLAN_1
 62
     2
  6
CONTINUOUS
 10
0.281280
 20
2.298354
  0
VERTEX
  8
PLAN_1
 62
     2
  6
CONTINUOUS
 10
0.278697
 20
2.298783
  0
SEQEND
  8
0
  0
POLYLINE
  8
PLAN_1
 62
     2
  6
CONTINUOUS
 66
     1
 40
0.003000
 41
0.003000
  0
VERTEX
  8
PLAN_1
 62
     2
  6
CONTINUOUS
 10
0.332969
 20
2.323768
  0
VERTEX
  8
PLAN_1
 62
     2
  6
CONTINUOUS
 10
0.332969
 20
2.329366
  0
VERTEX
  8
PLAN_1
 62
     2
  6
CONTINUOUS
 10
0.334693
 20
2.329366
  0
VERTEX
  8
PLAN_1
 62
     2
  6
CONTINUOUS
 10
0.336417
 20
2.329366
  0
VERTEX
  8
PLAN_1
 62
     2
  6
CONTINUOUS
 10
0.338138
 20
2.328937
  0
VERTEX
  8
PLAN_1
 62
     2
  6
CONTINUOUS
 10
0.339862
 20
2.328504
  0
VERTEX
  8
PLAN_1
 62
     2
  6
CONTINUOUS
 10
0.341154
 20
2.327646
  0
VERTEX
  8
PLAN_1
 62
     2
  6
CONTINUOUS
 10
0.342016
 20
2.326783
  0
VERTEX
  8
PLAN_1
 62
     2
  6
CONTINUOUS
 10
0.342878
 20
2.325492
  0
VERTEX
  8
PLAN_1
 62
     2
  6
CONTINUOUS
 10
0.343307
 20
2.323768
  0
VERTEX
  8
PLAN_1
 62
     2
  6
CONTINUOUS
 10
0.348047
 20
2.323768
  0
VERTEX
  8
PLAN_1
 62
     2
  6
CONTINUOUS
 10
0.348047
 20
2.325059
  0
VERTEX
  8
PLAN_1
 62
     2
  6
CONTINUOUS
 10
0.347185
 20
2.326350
  0
VERTEX
  8
PLAN_1
 62
     2
  6
CONTINUOUS
 10
0.346323
 20
2.328075
  0
VERTEX
  8
PLAN_1
 62
     2
  6
CONTINUOUS
 10
0.345031
 20
2.330228
  0
VERTEX
  8
PLAN_1
 62
     2
  6
CONTINUOUS
 10
0.343307
 20
2.331953
  0
VERTEX
  8
PLAN_1
 62
     2
  6
CONTINUOUS
 10
0.340291
 20
2.333244
  0
VERTEX
  8
PLAN_1
 62
     2
  6
CONTINUOUS
 10
0.336846
 20
2.334535
  0
VERTEX
  8
PLAN_1
 62
     2
  6
CONTINUOUS
 10
0.332110
 20
2.334969
  0
VERTEX
  8
PLAN_1
 62
     2
  6
CONTINUOUS
 10
0.321772
 20
2.334969
  0
VERTEX
  8
PLAN_1
 62
     2
  6
CONTINUOUS
 10
0.321772
 20
2.323768
  0
VERTEX
  8
PLAN_1
 62
     2
  6
CONTINUOUS
 10
0.332969
 20
2.323768
  0
SEQEND
  8
0
  0
POLYLINE
  8
PLAN_1
 62
     2
  6
CONTINUOUS
 66
     1
 40
0.003000
 41
0.003000
  0
VERTEX
  8
PLAN_1
 62
     2
  6
CONTINUOUS
 10
0.290327
 20
2.359087
  0
VERTEX
  8
PLAN_1
 62
     2
  6
CONTINUOUS
 10
0.289465
 20
2.360382
  0
VERTEX
  8
PLAN_1
 62
     2
  6
CONTINUOUS
 10
0.288602
 20
2.361673
  0
VERTEX
  8
PLAN_1
 62
     2
  6
CONTINUOUS
 10
0.287744
 20
2.363394
  0
VERTEX
  8
PLAN_1
 62
     2
  6
CONTINUOUS
 10
0.286882
 20
2.364689
  0
VERTEX
  8
PLAN_1
 62
     2
  6
CONTINUOUS
 10
0.286449
 20
2.366843
  0
VERTEX
  8
PLAN_1
 62
     2
  6
CONTINUOUS
 10
0.286020
 20
2.368563
  0
VERTEX
  8
PLAN_1
 62
     2
  6
CONTINUOUS
 10
0.285587
 20
2.370717
  0
VERTEX
  8
PLAN_1
 62
     2
  6
CONTINUOUS
 10
0.285587
 20
2.373303
  0
VERTEX
  8
PLAN_1
 62
     2
  6
CONTINUOUS
 10
0.286020
 20
2.377610
  0
VERTEX
  8
PLAN_1
 62
     2
  6
CONTINUOUS
 10
0.287311
 20
2.381917
  0
VERTEX
  8
PLAN_1
 62
     2
  6
CONTINUOUS
 10
0.289035
 20
2.386224
  0
VERTEX
  8
PLAN_1
 62
     2
  6
CONTINUOUS
 10
0.291618
 20
2.389669
  0
VERTEX
  8
PLAN_1
 62
     2
  6
CONTINUOUS
 10
0.293343
 20
2.391394
  0
VERTEX
  8
PLAN_1
 62
     2
  6
CONTINUOUS
 10
0.295063
 20
2.392685
  0
VERTEX
  8
PLAN_1
 62
     2
  6
CONTINUOUS
 10
0.296787
 20
2.393976
  0
VERTEX
  8
PLAN_1
 62
     2
  6
CONTINUOUS
 10
0.298941
 20
2.395272
  0
VERTEX
  8
PLAN_1
 62
     2
  6
CONTINUOUS
 10
0.301094
 20
2.396134
  0
VERTEX
  8
PLAN_1
 62
     2
  6
CONTINUOUS
 10
0.303681
 20
2.396563
  0
VERTEX
  8
PLAN_1
 62
     2
  6
CONTINUOUS
 10
0.306264
 20
2.396992
  0
VERTEX
  8
PLAN_1
 62
     2
  6
CONTINUOUS
 10
0.308850
 20
2.397425
  0
VERTEX
  8
PLAN_1
 62
     2
  6
CONTINUOUS
 10
0.312295
 20
2.396992
  0
VERTEX
  8
PLAN_1
 62
     2
  6
CONTINUOUS
 10
0.316602
 20
2.396563
  0
VERTEX
  8
PLAN_1
 62
     2
  6
CONTINUOUS
 10
0.320909
 20
2.394839
  0
VERTEX
  8
PLAN_1
 62
     2
  6
CONTINUOUS
 10
0.324787
 20
2.392685
  0
VERTEX
  8
PLAN_1
 62
     2
  6
CONTINUOUS
 10
0.326941
 20
2.390965
  0
VERTEX
  8
PLAN_1
 62
     2
  6
CONTINUOUS
 10
0.328661
 20
2.389240
  0
VERTEX
  8
PLAN_1
 62
     2
  6
CONTINUOUS
 10
0.330386
 20
2.387087
  0
VERTEX
  8
PLAN_1
 62
     2
  6
CONTINUOUS
 10
0.331677
 20
2.384500
  0
VERTEX
  8
PLAN_1
 62
     2
  6
CONTINUOUS
 10
0.332969
 20
2.381917
  0
VERTEX
  8
PLAN_1
 62
     2
  6
CONTINUOUS
 10
0.333831
 20
2.378472
  0
VERTEX
  8
PLAN_1
 62
     2
  6
CONTINUOUS
 10
0.334693
 20
2.375028
  0
VERTEX
  8
PLAN_1
 62
     2
  6
CONTINUOUS
 10
0.334693
 20
2.370717
  0
VERTEX
  8
PLAN_1
 62
     2
  6
CONTINUOUS
 10
0.334693
 20
2.367272
  0
VERTEX
  8
PLAN_1
 62
     2
  6
CONTINUOUS
 10
0.333831
 20
2.363394
  0
VERTEX
  8
PLAN_1
 62
     2
  6
CONTINUOUS
 10
0.332539
 20
2.359520
  0
VERTEX
  8
PLAN_1
 62
     2
  6
CONTINUOUS
 10
0.330815
 20
2.356075
  0
VERTEX
  8
PLAN_1
 62
     2
  6
CONTINUOUS
 10
0.329524
 20
2.354350
  0
VERTEX
  8
PLAN_1
 62
     2
  6
CONTINUOUS
 10
0.328232
 20
2.353059
  0
VERTEX
  8
PLAN_1
 62
     2
  6
CONTINUOUS
 10
0.326508
 20
2.351335
  0
VERTEX
  8
PLAN_1
 62
     2
  6
CONTINUOUS
 10
0.324787
 20
2.350043
  0
VERTEX
  8
PLAN_1
 62
     2
  6
CONTINUOUS
 10
0.322634
 20
2.349181
  0
VERTEX
  8
PLAN_1
 62
     2
  6
CONTINUOUS
 10
0.320047
 20
2.348319
  0
VERTEX
  8
PLAN_1
 62
     2
  6
CONTINUOUS
 10
0.317465
 20
2.347457
  0
VERTEX
  8
PLAN_1
 62
     2
  6
CONTINUOUS
 10
0.314449
 20
2.347028
  0
VERTEX
  8
PLAN_1
 62
     2
  6
CONTINUOUS
 10
0.314449
 20
2.356504
  0
VERTEX
  8
PLAN_1
 62
     2
  6
CONTINUOUS
 10
0.317465
 20
2.357366
  0
VERTEX
  8
PLAN_1
 62
     2
  6
CONTINUOUS
 10
0.320047
 20
2.358228
  0
VERTEX
  8
PLAN_1
 62
     2
  6
CONTINUOUS
 10
0.322201
 20
2.359949
  0
VERTEX
  8
PLAN_1
 62
     2
  6
CONTINUOUS
 10
0.323925
 20
2.361673
  0
VERTEX
  8
PLAN_1
 62
     2
  6
CONTINUOUS
 10
0.325217
 20
2.363827
  0
VERTEX
  8
PLAN_1
 62
     2
  6
CONTINUOUS
 10
0.326079
 20
2.366409
  0
VERTEX
  8
PLAN_1
 62
     2
  6
CONTINUOUS
 10
0.326508
 20
2.368996
  0
VERTEX
  8
PLAN_1
 62
     2
  6
CONTINUOUS
 10
0.326941
 20
2.372012
  0
VERTEX
  8
PLAN_1
 62
     2
  6
CONTINUOUS
 10
0.326508
 20
2.375457
  0
VERTEX
  8
PLAN_1
 62
     2
  6
CONTINUOUS
 10
0.325646
 20
2.378472
  0
VERTEX
  8
PLAN_1
 62
     2
  6
CONTINUOUS
 10
0.323925
 20
2.381055
  0
VERTEX
  8
PLAN_1
 62
     2
  6
CONTINUOUS
 10
0.321772
 20
2.383209
  0
VERTEX
  8
PLAN_1
 62
     2
  6
CONTINUOUS
 10
0.319185
 20
2.384933
  0
VERTEX
  8
PLAN_1
 62
     2
  6
CONTINUOUS
 10
0.316602
 20
2.386657
  0
VERTEX
  8
PLAN_1
 62
     2
  6
CONTINUOUS
 10
0.313587
 20
2.387087
  0
VERTEX
  8
PLAN_1
 62
     2
  6
CONTINUOUS
 10
0.310142
 20
2.387516
  0
VERTEX
  8
PLAN_1
 62
     2
  6
CONTINUOUS
 10
0.306264
 20
2.387087
  0
VERTEX
  8
PLAN_1
 62
     2
  6
CONTINUOUS
 10
0.303248
 20
2.386224
  0
VERTEX
  8
PLAN_1
 62
     2
  6
CONTINUOUS
 10
0.300232
 20
2.384933
  0
VERTEX
  8
PLAN_1
 62
     2
  6
CONTINUOUS
 10
0.298079
 20
2.382780
  0
VERTEX
  8
PLAN_1
 62
     2
  6
CONTINUOUS
 10
0.296358
 20
2.380193
  0
VERTEX
  8
PLAN_1
 62
     2
  6
CONTINUOUS
 10
0.295063
 20
2.377610
  0
VERTEX
  8
PLAN_1
 62
     2
  6
CONTINUOUS
 10
0.294205
 20
2.374594
  0
VERTEX
  8
PLAN_1
 62
     2
  6
CONTINUOUS
 10
0.293772
 20
2.371150
  0
VERTEX
  8
PLAN_1
 62
     2
  6
CONTINUOUS
 10
0.293772
 20
2.369425
  0
VERTEX
  8
PLAN_1
 62
     2
  6
CONTINUOUS
 10
0.294205
 20
2.367272
  0
VERTEX
  8
PLAN_1
 62
     2
  6
CONTINUOUS
 10
0.295063
 20
2.365551
  0
VERTEX
  8
PLAN_1
 62
     2
  6
CONTINUOUS
 10
0.295496
 20
2.363827
  0
VERTEX
  8
PLAN_1
 62
     2
  6
CONTINUOUS
 10
0.296787
 20
2.362102
  0
VERTEX
  8
PLAN_1
 62
     2
  6
CONTINUOUS
 10
0.297650
 20
2.360382
  0
VERTEX
  8
PLAN_1
 62
     2
  6
CONTINUOUS
 10
0.299374
 20
2.359087
  0
VERTEX
  8
PLAN_1
 62
     2
  6
CONTINUOUS
 10
0.300665
 20
2.357795
  0
VERTEX
  8
PLAN_1
 62
     2
  6
CONTINUOUS
 10
0.300232
 20
2.350043
  0
VERTEX
  8
PLAN_1
 62
     2
  6
CONTINUOUS
 10
0.261035
 20
2.355213
  0
VERTEX
  8
PLAN_1
 62
     2
  6
CONTINUOUS
 10
0.261035
 20
2.393118
  0
VERTEX
  8
PLAN_1
 62
     2
  6
CONTINUOUS
 10
0.270083
 20
2.393118
  0
VERTEX
  8
PLAN_1
 62
     2
  6
CONTINUOUS
 10
0.270083
 20
2.362102
  0
VERTEX
  8
PLAN_1
 62
     2
  6
CONTINUOUS
 10
0.290327
 20
2.359087
  0
SEQEND
  8
0
  0
ENDSEC
  0
EOF
