  0
SECTION
  2
HEADER
  9
$ACADVER
  1
AC1006
  9
$EXTMIN
 10
-2.339776
 20
-3.596307
  9
$EXTMAX
 10
2.336000
 20
3.601000
  9
$LTSCALE
 40
0.000394
  9
$PDMODE
 70
    35
  9
$PDSIZE
 40
0.000315
  0
ENDSEC
  0
SECTION
  2
TABLES
  0
TABLE
  2
LTYPE
 70
     9
  0
LTYPE
  2
CONTINUOUS
 70
    64
  3
Solid line
 72
    65
 73
     0
 40
0.000000
  0
LTYPE
  2
DASHED
 70
    64
  3
__ __ __ __ __ __ __ __ __ __ __ __ __ __ __
 72
    65
 73
     2
 40
0.000003
 49
0.000002
 49
-0.000001
  0
LTYPE
  2
HIDDEN
 70
    64
  3
 _ _ _ _ _ _ _ _ _ _ _ _ _ _ _ _ _ _ _ _ _ _
 72
    65
 73
     2
 40
0.000001
 49
0.000001
 49
-0.000000
  0
LTYPE
  2
CENTER
 70
    64
  3
____ _ ____ _ ____ _ ____ _ ____ _ ____ _ ____
 72
    65
 73
     4
 40
0.000008
 49
0.000005
 49
-0.000001
 49
0.000001
 49
-0.000001
  0
LTYPE
  2
PHANTOM
 70
    64
  3
_____ _ _ _____ _ _ _____ _ _ _____ _ _ ____
 72
    65
 73
     6
 40
0.000010
 49
0.000005
 49
-0.000001
 49
0.000001
 49
-0.000001
 49
0.000001
 49
-0.000001
  0
LTYPE
  2
DOT
 70
    64
  3
...............................................
 72
    65
 73
     2
 40
0.000001
 49
0.000000
 49
-0.000001
  0
LTYPE
  2
DASHDOT
 70
    64
  3
__ . __ . __ . __ . __ . __ . __ . __ . __ . __
 72
    65
 73
     4
 40
0.000004
 49
0.000002
 49
-0.000001
 49
0.000000
 49
-0.000001
  0
LTYPE
  2
BORDER
 70
    64
  3
__ __ . __ __ . __ __ . __ __ . __ __ . __ __
 72
    65
 73
     6
 40
0.000007
 49
0.000002
 49
-0.000001
 49
0.000002
 49
-0.000001
 49
0.000000
 49
-0.000001
  0
LTYPE
  2
DIVIDE
 70
    64
  3
__ . . __ . . __ . . __ . . __ . . __ . . __
 72
    65
 73
     6
 40
0.000005
 49
0.000002
 49
-0.000001
 49
0.000000
 49
-0.000001
 49
0.000000
 49
-0.000001
  0
LTYPE
  2
DOTDOT
 70
    64
  3
 . .  . .  . .  . .  . .  . . 
 72
    65
 73
     5
 40
0.000002
 49
-0.000001
 49
0.000000
 49
-0.000001
 49
0.000000
 49
-0.000001
  0
ENDTAB
  0
TABLE
  2
STYLE
 70
     0
  0
ENDTAB
  0
TABLE
  2
LAYER
 70
     3
  0
LAYER
  2
FOREGROUND
 70
    64
 62
     7
  6
CONTINUOUS
  0
LAYER
  2
BACKGROUND
 70
    65
 62
    -7
  6
CONTINUOUS
  0
LAYER
  2
PLAN_1
 70
    64
 62
     7
  6
CONTINUOUS
  0
ENDTAB
  0
ENDSEC
  0
SECTION
  2
ENTITIES
  0
POLYLINE
  8
PLAN_1
  6
CONTINUOUS
 66
     1
 40
0.003000
 41
0.003000
  0
VERTEX
  8
PLAN_1
  6
CONTINUOUS
 10
0.532626
 20
-3.561669
  0
VERTEX
  8
PLAN_1
  6
CONTINUOUS
 10
0.375634
 20
-3.561669
  0
VERTEX
  8
PLAN_1
  6
CONTINUOUS
 10
0.375634
 20
-3.539177
  0
VERTEX
  8
PLAN_1
  6
CONTINUOUS
 10
0.497988
 20
-3.386236
  0
VERTEX
  8
PLAN_1
  6
CONTINUOUS
 10
0.384630
 20
-3.386236
  0
VERTEX
  8
PLAN_1
  6
CONTINUOUS
 10
0.384630
 20
-3.362394
  0
VERTEX
  8
PLAN_1
  6
CONTINUOUS
 10
0.532626
 20
-3.362394
  0
VERTEX
  8
PLAN_1
  6
CONTINUOUS
 10
0.532626
 20
-3.385783
  0
VERTEX
  8
PLAN_1
  6
CONTINUOUS
 10
0.409823
 20
-3.537827
  0
VERTEX
  8
PLAN_1
  6
CONTINUOUS
 10
0.532626
 20
-3.537827
  0
VERTEX
  8
PLAN_1
  6
CONTINUOUS
 10
0.532626
 20
-3.561669
  0
SEQEND
  8
0
  0
POLYLINE
  8
PLAN_1
  6
CONTINUOUS
 66
     1
 40
0.003000
 41
0.003000
  0
VERTEX
  8
PLAN_1
  6
CONTINUOUS
 10
0.699961
 20
-3.422220
  0
VERTEX
  8
PLAN_1
  6
CONTINUOUS
 10
0.698161
 20
-3.415925
  0
VERTEX
  8
PLAN_1
  6
CONTINUOUS
 10
0.695913
 20
-3.410528
  0
VERTEX
  8
PLAN_1
  6
CONTINUOUS
 10
0.693665
 20
-3.405579
  0
VERTEX
  8
PLAN_1
  6
CONTINUOUS
 10
0.690516
 20
-3.401079
  0
VERTEX
  8
PLAN_1
  6
CONTINUOUS
 10
0.687366
 20
-3.397031
  0
VERTEX
  8
PLAN_1
  6
CONTINUOUS
 10
0.683768
 20
-3.393882
  0
VERTEX
  8
PLAN_1
  6
CONTINUOUS
 10
0.680169
 20
-3.390732
  0
VERTEX
  8
PLAN_1
  6
CONTINUOUS
 10
0.676571
 20
-3.388484
  0
VERTEX
  8
PLAN_1
  6
CONTINUOUS
 10
0.672524
 20
-3.386236
  0
VERTEX
  8
PLAN_1
  6
CONTINUOUS
 10
0.668024
 20
-3.384886
  0
VERTEX
  8
PLAN_1
  6
CONTINUOUS
 10
0.663976
 20
-3.383535
  0
VERTEX
  8
PLAN_1
  6
CONTINUOUS
 10
0.659929
 20
-3.382638
  0
VERTEX
  8
PLAN_1
  6
CONTINUOUS
 10
0.651831
 20
-3.381287
  0
VERTEX
  8
PLAN_1
  6
CONTINUOUS
 10
0.644185
 20
-3.380839
  0
VERTEX
  8
PLAN_1
  6
CONTINUOUS
 10
0.637437
 20
-3.381287
  0
VERTEX
  8
PLAN_1
  6
CONTINUOUS
 10
0.631138
 20
-3.382185
  0
VERTEX
  8
PLAN_1
  6
CONTINUOUS
 10
0.624839
 20
-3.383535
  0
VERTEX
  8
PLAN_1
  6
CONTINUOUS
 10
0.618543
 20
-3.385783
  0
VERTEX
  8
PLAN_1
  6
CONTINUOUS
 10
0.613146
 20
-3.388484
  0
VERTEX
  8
PLAN_1
  6
CONTINUOUS
 10
0.607748
 20
-3.392083
  0
VERTEX
  8
PLAN_1
  6
CONTINUOUS
 10
0.602799
 20
-3.396130
  0
VERTEX
  8
PLAN_1
  6
CONTINUOUS
 10
0.597850
 20
-3.400630
  0
VERTEX
  8
PLAN_1
  6
CONTINUOUS
 10
0.593803
 20
-3.406028
  0
VERTEX
  8
PLAN_1
  6
CONTINUOUS
 10
0.590205
 20
-3.411874
  0
VERTEX
  8
PLAN_1
  6
CONTINUOUS
 10
0.586606
 20
-3.418622
  0
VERTEX
  8
PLAN_1
  6
CONTINUOUS
 10
0.583906
 20
-3.425370
  0
VERTEX
  8
PLAN_1
  6
CONTINUOUS
 10
0.581657
 20
-3.433469
  0
VERTEX
  8
PLAN_1
  6
CONTINUOUS
 10
0.580307
 20
-3.441563
  0
VERTEX
  8
PLAN_1
  6
CONTINUOUS
 10
0.579406
 20
-3.450559
  0
VERTEX
  8
PLAN_1
  6
CONTINUOUS
 10
0.578957
 20
-3.460008
  0
VERTEX
  8
PLAN_1
  6
CONTINUOUS
 10
0.578957
 20
-3.468555
  0
VERTEX
  8
PLAN_1
  6
CONTINUOUS
 10
0.579858
 20
-3.477102
  0
VERTEX
  8
PLAN_1
  6
CONTINUOUS
 10
0.580756
 20
-3.485197
  0
VERTEX
  8
PLAN_1
  6
CONTINUOUS
 10
0.582106
 20
-3.492846
  0
VERTEX
  8
PLAN_1
  6
CONTINUOUS
 10
0.584354
 20
-3.500043
  0
VERTEX
  8
PLAN_1
  6
CONTINUOUS
 10
0.586606
 20
-3.506791
  0
VERTEX
  8
PLAN_1
  6
CONTINUOUS
 10
0.589752
 20
-3.513087
  0
VERTEX
  8
PLAN_1
  6
CONTINUOUS
 10
0.593350
 20
-3.518937
  0
VERTEX
  8
PLAN_1
  6
CONTINUOUS
 10
0.597402
 20
-3.524335
  0
VERTEX
  8
PLAN_1
  6
CONTINUOUS
 10
0.602350
 20
-3.529280
  0
VERTEX
  8
PLAN_1
  6
CONTINUOUS
 10
0.605047
 20
-3.531083
  0
VERTEX
  8
PLAN_1
  6
CONTINUOUS
 10
0.607748
 20
-3.533331
  0
VERTEX
  8
PLAN_1
  6
CONTINUOUS
 10
0.610445
 20
-3.535130
  0
VERTEX
  8
PLAN_1
  6
CONTINUOUS
 10
0.613594
 20
-3.536480
  0
VERTEX
  8
PLAN_1
  6
CONTINUOUS
 10
0.617193
 20
-3.538280
  0
VERTEX
  8
PLAN_1
  6
CONTINUOUS
 10
0.620343
 20
-3.539177
  0
VERTEX
  8
PLAN_1
  6
CONTINUOUS
 10
0.623941
 20
-3.540528
  0
VERTEX
  8
PLAN_1
  6
CONTINUOUS
 10
0.627988
 20
-3.541425
  0
VERTEX
  8
PLAN_1
  6
CONTINUOUS
 10
0.636087
 20
-3.542776
  0
VERTEX
  8
PLAN_1
  6
CONTINUOUS
 10
0.645083
 20
-3.543224
  0
VERTEX
  8
PLAN_1
  6
CONTINUOUS
 10
0.648232
 20
-3.542776
  0
VERTEX
  8
PLAN_1
  6
CONTINUOUS
 10
0.651831
 20
-3.542776
  0
VERTEX
  8
PLAN_1
  6
CONTINUOUS
 10
0.655878
 20
-3.541878
  0
VERTEX
  8
PLAN_1
  6
CONTINUOUS
 10
0.659929
 20
-3.540976
  0
VERTEX
  8
PLAN_1
  6
CONTINUOUS
 10
0.663976
 20
-3.539626
  0
VERTEX
  8
PLAN_1
  6
CONTINUOUS
 10
0.668024
 20
-3.537827
  0
VERTEX
  8
PLAN_1
  6
CONTINUOUS
 10
0.672524
 20
-3.535579
  0
VERTEX
  8
PLAN_1
  6
CONTINUOUS
 10
0.676571
 20
-3.532882
  0
VERTEX
  8
PLAN_1
  6
CONTINUOUS
 10
0.680618
 20
-3.529732
  0
VERTEX
  8
PLAN_1
  6
CONTINUOUS
 10
0.684217
 20
-3.526134
  0
VERTEX
  8
PLAN_1
  6
CONTINUOUS
 10
0.688268
 20
-3.521634
  0
VERTEX
  8
PLAN_1
  6
CONTINUOUS
 10
0.691417
 20
-3.516236
  0
VERTEX
  8
PLAN_1
  6
CONTINUOUS
 10
0.694563
 20
-3.510390
  0
VERTEX
  8
PLAN_1
  6
CONTINUOUS
 10
0.697264
 20
-3.504091
  0
VERTEX
  8
PLAN_1
  6
CONTINUOUS
 10
0.699961
 20
-3.496445
  0
VERTEX
  8
PLAN_1
  6
CONTINUOUS
 10
0.701760
 20
-3.488346
  0
VERTEX
  8
PLAN_1
  6
CONTINUOUS
 10
0.727850
 20
-3.488346
  0
VERTEX
  8
PLAN_1
  6
CONTINUOUS
 10
0.726953
 20
-3.495094
  0
VERTEX
  8
PLAN_1
  6
CONTINUOUS
 10
0.725154
 20
-3.501394
  0
VERTEX
  8
PLAN_1
  6
CONTINUOUS
 10
0.723354
 20
-3.507689
  0
VERTEX
  8
PLAN_1
  6
CONTINUOUS
 10
0.721555
 20
-3.513087
  0
VERTEX
  8
PLAN_1
  6
CONTINUOUS
 10
0.719303
 20
-3.518484
  0
VERTEX
  8
PLAN_1
  6
CONTINUOUS
 10
0.717055
 20
-3.523433
  0
VERTEX
  8
PLAN_1
  6
CONTINUOUS
 10
0.714358
 20
-3.527933
  0
VERTEX
  8
PLAN_1
  6
CONTINUOUS
 10
0.711657
 20
-3.532429
  0
VERTEX
  8
PLAN_1
  6
CONTINUOUS
 10
0.708961
 20
-3.536480
  0
VERTEX
  8
PLAN_1
  6
CONTINUOUS
 10
0.705811
 20
-3.540079
  0
VERTEX
  8
PLAN_1
  6
CONTINUOUS
 10
0.702661
 20
-3.543224
  0
VERTEX
  8
PLAN_1
  6
CONTINUOUS
 10
0.699512
 20
-3.546374
  0
VERTEX
  8
PLAN_1
  6
CONTINUOUS
 10
0.695913
 20
-3.549075
  0
VERTEX
  8
PLAN_1
  6
CONTINUOUS
 10
0.692764
 20
-3.551323
  0
VERTEX
  8
PLAN_1
  6
CONTINUOUS
 10
0.689165
 20
-3.553571
  0
VERTEX
  8
PLAN_1
  6
CONTINUOUS
 10
0.686016
 20
-3.555823
  0
VERTEX
  8
PLAN_1
  6
CONTINUOUS
 10
0.678819
 20
-3.559421
  0
VERTEX
  8
PLAN_1
  6
CONTINUOUS
 10
0.672071
 20
-3.561669
  0
VERTEX
  8
PLAN_1
  6
CONTINUOUS
 10
0.665327
 20
-3.563917
  0
VERTEX
  8
PLAN_1
  6
CONTINUOUS
 10
0.659028
 20
-3.565268
  0
VERTEX
  8
PLAN_1
  6
CONTINUOUS
 10
0.648232
 20
-3.566618
  0
VERTEX
  8
PLAN_1
  6
CONTINUOUS
 10
0.640583
 20
-3.567067
  0
VERTEX
  8
PLAN_1
  6
CONTINUOUS
 10
0.632488
 20
-3.566618
  0
VERTEX
  8
PLAN_1
  6
CONTINUOUS
 10
0.623941
 20
-3.565268
  0
VERTEX
  8
PLAN_1
  6
CONTINUOUS
 10
0.615843
 20
-3.563469
  0
VERTEX
  8
PLAN_1
  6
CONTINUOUS
 10
0.607748
 20
-3.561220
  0
VERTEX
  8
PLAN_1
  6
CONTINUOUS
 10
0.600098
 20
-3.557622
  0
VERTEX
  8
PLAN_1
  6
CONTINUOUS
 10
0.592453
 20
-3.553571
  0
VERTEX
  8
PLAN_1
  6
CONTINUOUS
 10
0.588854
 20
-3.551323
  0
VERTEX
  8
PLAN_1
  6
CONTINUOUS
 10
0.585705
 20
-3.548626
  0
VERTEX
  8
PLAN_1
  6
CONTINUOUS
 10
0.582106
 20
-3.545476
  0
VERTEX
  8
PLAN_1
  6
CONTINUOUS
 10
0.578957
 20
-3.542776
  0
VERTEX
  8
PLAN_1
  6
CONTINUOUS
 10
0.575807
 20
-3.539177
  0
VERTEX
  8
PLAN_1
  6
CONTINUOUS
 10
0.573110
 20
-3.536028
  0
VERTEX
  8
PLAN_1
  6
CONTINUOUS
 10
0.569961
 20
-3.531980
  0
VERTEX
  8
PLAN_1
  6
CONTINUOUS
 10
0.567713
 20
-3.527933
  0
VERTEX
  8
PLAN_1
  6
CONTINUOUS
 10
0.565012
 20
-3.523882
  0
VERTEX
  8
PLAN_1
  6
CONTINUOUS
 10
0.562764
 20
-3.519386
  0
VERTEX
  8
PLAN_1
  6
CONTINUOUS
 10
0.560516
 20
-3.514886
  0
VERTEX
  8
PLAN_1
  6
CONTINUOUS
 10
0.558717
 20
-3.509937
  0
VERTEX
  8
PLAN_1
  6
CONTINUOUS
 10
0.556917
 20
-3.504539
  0
VERTEX
  8
PLAN_1
  6
CONTINUOUS
 10
0.555567
 20
-3.499142
  0
VERTEX
  8
PLAN_1
  6
CONTINUOUS
 10
0.554217
 20
-3.493295
  0
VERTEX
  8
PLAN_1
  6
CONTINUOUS
 10
0.553319
 20
-3.487449
  0
VERTEX
  8
PLAN_1
  6
CONTINUOUS
 10
0.552417
 20
-3.481150
  0
VERTEX
  8
PLAN_1
  6
CONTINUOUS
 10
0.551520
 20
-3.474850
  0
VERTEX
  8
PLAN_1
  6
CONTINUOUS
 10
0.551067
 20
-3.468106
  0
VERTEX
  8
PLAN_1
  6
CONTINUOUS
 10
0.551067
 20
-3.460906
  0
VERTEX
  8
PLAN_1
  6
CONTINUOUS
 10
0.551520
 20
-3.449661
  0
VERTEX
  8
PLAN_1
  6
CONTINUOUS
 10
0.552866
 20
-3.438866
  0
VERTEX
  8
PLAN_1
  6
CONTINUOUS
 10
0.554665
 20
-3.428520
  0
VERTEX
  8
PLAN_1
  6
CONTINUOUS
 10
0.557366
 20
-3.418622
  0
VERTEX
  8
PLAN_1
  6
CONTINUOUS
 10
0.559165
 20
-3.414126
  0
VERTEX
  8
PLAN_1
  6
CONTINUOUS
 10
0.560965
 20
-3.409626
  0
VERTEX
  8
PLAN_1
  6
CONTINUOUS
 10
0.563213
 20
-3.405126
  0
VERTEX
  8
PLAN_1
  6
CONTINUOUS
 10
0.565012
 20
-3.401079
  0
VERTEX
  8
PLAN_1
  6
CONTINUOUS
 10
0.567713
 20
-3.397031
  0
VERTEX
  8
PLAN_1
  6
CONTINUOUS
 10
0.570409
 20
-3.392984
  0
VERTEX
  8
PLAN_1
  6
CONTINUOUS
 10
0.573110
 20
-3.389382
  0
VERTEX
  8
PLAN_1
  6
CONTINUOUS
 10
0.575807
 20
-3.385783
  0
VERTEX
  8
PLAN_1
  6
CONTINUOUS
 10
0.578957
 20
-3.382638
  0
VERTEX
  8
PLAN_1
  6
CONTINUOUS
 10
0.582106
 20
-3.379488
  0
VERTEX
  8
PLAN_1
  6
CONTINUOUS
 10
0.585705
 20
-3.376339
  0
VERTEX
  8
PLAN_1
  6
CONTINUOUS
 10
0.589303
 20
-3.373638
  0
VERTEX
  8
PLAN_1
  6
CONTINUOUS
 10
0.592902
 20
-3.370941
  0
VERTEX
  8
PLAN_1
  6
CONTINUOUS
 10
0.596953
 20
-3.368693
  0
VERTEX
  8
PLAN_1
  6
CONTINUOUS
 10
0.601000
 20
-3.366441
  0
VERTEX
  8
PLAN_1
  6
CONTINUOUS
 10
0.605047
 20
-3.364642
  0
VERTEX
  8
PLAN_1
  6
CONTINUOUS
 10
0.609547
 20
-3.362843
  0
VERTEX
  8
PLAN_1
  6
CONTINUOUS
 10
0.614043
 20
-3.361496
  0
VERTEX
  8
PLAN_1
  6
CONTINUOUS
 10
0.618543
 20
-3.360146
  0
VERTEX
  8
PLAN_1
  6
CONTINUOUS
 10
0.623492
 20
-3.358795
  0
VERTEX
  8
PLAN_1
  6
CONTINUOUS
 10
0.628441
 20
-3.358346
  0
VERTEX
  8
PLAN_1
  6
CONTINUOUS
 10
0.633386
 20
-3.357445
  0
VERTEX
  8
PLAN_1
  6
CONTINUOUS
 10
0.638783
 20
-3.356996
  0
VERTEX
  8
PLAN_1
  6
CONTINUOUS
 10
0.644185
 20
-3.356996
  0
VERTEX
  8
PLAN_1
  6
CONTINUOUS
 10
0.653630
 20
-3.357445
  0
VERTEX
  8
PLAN_1
  6
CONTINUOUS
 10
0.662177
 20
-3.358346
  0
VERTEX
  8
PLAN_1
  6
CONTINUOUS
 10
0.670272
 20
-3.360146
  0
VERTEX
  8
PLAN_1
  6
CONTINUOUS
 10
0.677921
 20
-3.362394
  0
VERTEX
  8
PLAN_1
  6
CONTINUOUS
 10
0.685118
 20
-3.365543
  0
VERTEX
  8
PLAN_1
  6
CONTINUOUS
 10
0.691417
 20
-3.368693
  0
VERTEX
  8
PLAN_1
  6
CONTINUOUS
 10
0.697264
 20
-3.372740
  0
VERTEX
  8
PLAN_1
  6
CONTINUOUS
 10
0.702661
 20
-3.377240
  0
VERTEX
  8
PLAN_1
  6
CONTINUOUS
 10
0.707610
 20
-3.381736
  0
VERTEX
  8
PLAN_1
  6
CONTINUOUS
 10
0.712106
 20
-3.387134
  0
VERTEX
  8
PLAN_1
  6
CONTINUOUS
 10
0.715705
 20
-3.392531
  0
VERTEX
  8
PLAN_1
  6
CONTINUOUS
 10
0.718854
 20
-3.397929
  0
VERTEX
  8
PLAN_1
  6
CONTINUOUS
 10
0.721555
 20
-3.403780
  0
VERTEX
  8
PLAN_1
  6
CONTINUOUS
 10
0.723354
 20
-3.410075
  0
VERTEX
  8
PLAN_1
  6
CONTINUOUS
 10
0.725154
 20
-3.415925
  0
VERTEX
  8
PLAN_1
  6
CONTINUOUS
 10
0.726051
 20
-3.422220
  0
VERTEX
  8
PLAN_1
  6
CONTINUOUS
 10
0.699961
 20
-3.422220
  0
SEQEND
  8
0
  0
POLYLINE
  8
PLAN_1
  6
CONTINUOUS
 66
     1
 40
0.003000
 41
0.003000
  0
VERTEX
  8
PLAN_1
  6
CONTINUOUS
 10
0.787228
 20
-3.561669
  0
VERTEX
  8
PLAN_1
  6
CONTINUOUS
 10
0.760689
 20
-3.561669
  0
VERTEX
  8
PLAN_1
  6
CONTINUOUS
 10
0.760689
 20
-3.362394
  0
VERTEX
  8
PLAN_1
  6
CONTINUOUS
 10
0.787228
 20
-3.362394
  0
VERTEX
  8
PLAN_1
  6
CONTINUOUS
 10
0.787228
 20
-3.459106
  0
VERTEX
  8
PLAN_1
  6
CONTINUOUS
 10
0.883945
 20
-3.362394
  0
VERTEX
  8
PLAN_1
  6
CONTINUOUS
 10
0.921280
 20
-3.362394
  0
VERTEX
  8
PLAN_1
  6
CONTINUOUS
 10
0.838059
 20
-3.442913
  0
VERTEX
  8
PLAN_1
  6
CONTINUOUS
 10
0.923528
 20
-3.561669
  0
VERTEX
  8
PLAN_1
  6
CONTINUOUS
 10
0.888441
 20
-3.561669
  0
VERTEX
  8
PLAN_1
  6
CONTINUOUS
 10
0.818717
 20
-3.461807
  0
VERTEX
  8
PLAN_1
  6
CONTINUOUS
 10
0.787228
 20
-3.491496
  0
VERTEX
  8
PLAN_1
  6
CONTINUOUS
 10
0.787228
 20
-3.561669
  0
SEQEND
  8
0
  0
POLYLINE
  8
PLAN_1
  6
CONTINUOUS
 66
     1
 40
0.003000
 41
0.003000
  0
VERTEX
  8
PLAN_1
  6
CONTINUOUS
 10
0.946921
 20
-3.362394
  0
VERTEX
  8
PLAN_1
  6
CONTINUOUS
 10
1.027890
 20
-3.362394
  0
VERTEX
  8
PLAN_1
  6
CONTINUOUS
 10
1.032839
 20
-3.362394
  0
VERTEX
  8
PLAN_1
  6
CONTINUOUS
 10
1.037335
 20
-3.362843
  0
VERTEX
  8
PLAN_1
  6
CONTINUOUS
 10
1.041835
 20
-3.363295
  0
VERTEX
  8
PLAN_1
  6
CONTINUOUS
 10
1.046331
 20
-3.364193
  0
VERTEX
  8
PLAN_1
  6
CONTINUOUS
 10
1.050831
 20
-3.365094
  0
VERTEX
  8
PLAN_1
  6
CONTINUOUS
 10
1.054878
 20
-3.366441
  0
VERTEX
  8
PLAN_1
  6
CONTINUOUS
 10
1.058929
 20
-3.367791
  0
VERTEX
  8
PLAN_1
  6
CONTINUOUS
 10
1.062976
 20
-3.369591
  0
VERTEX
  8
PLAN_1
  6
CONTINUOUS
 10
1.066575
 20
-3.371390
  0
VERTEX
  8
PLAN_1
  6
CONTINUOUS
 10
1.070173
 20
-3.373189
  0
VERTEX
  8
PLAN_1
  6
CONTINUOUS
 10
1.073772
 20
-3.375441
  0
VERTEX
  8
PLAN_1
  6
CONTINUOUS
 10
1.077370
 20
-3.377689
  0
VERTEX
  8
PLAN_1
  6
CONTINUOUS
 10
1.080520
 20
-3.380386
  0
VERTEX
  8
PLAN_1
  6
CONTINUOUS
 10
1.083669
 20
-3.383087
  0
VERTEX
  8
PLAN_1
  6
CONTINUOUS
 10
1.086366
 20
-3.386236
  0
VERTEX
  8
PLAN_1
  6
CONTINUOUS
 10
1.089067
 20
-3.389382
  0
VERTEX
  8
PLAN_1
  6
CONTINUOUS
 10
1.094465
 20
-3.396130
  0
VERTEX
  8
PLAN_1
  6
CONTINUOUS
 10
1.098965
 20
-3.403327
  0
VERTEX
  8
PLAN_1
  6
CONTINUOUS
 10
1.102563
 20
-3.411425
  0
VERTEX
  8
PLAN_1
  6
CONTINUOUS
 10
1.105709
 20
-3.419972
  0
VERTEX
  8
PLAN_1
  6
CONTINUOUS
 10
1.108409
 20
-3.428969
  0
VERTEX
  8
PLAN_1
  6
CONTINUOUS
 10
1.110209
 20
-3.438417
  0
VERTEX
  8
PLAN_1
  6
CONTINUOUS
 10
1.111559
 20
-3.448760
  0
VERTEX
  8
PLAN_1
  6
CONTINUOUS
 10
1.111559
 20
-3.459106
  0
VERTEX
  8
PLAN_1
  6
CONTINUOUS
 10
1.111559
 20
-3.467654
  0
VERTEX
  8
PLAN_1
  6
CONTINUOUS
 10
1.110657
 20
-3.476201
  0
VERTEX
  8
PLAN_1
  6
CONTINUOUS
 10
1.109311
 20
-3.485197
  0
VERTEX
  8
PLAN_1
  6
CONTINUOUS
 10
1.107508
 20
-3.494193
  0
VERTEX
  8
PLAN_1
  6
CONTINUOUS
 10
1.105260
 20
-3.502740
  0
VERTEX
  8
PLAN_1
  6
CONTINUOUS
 10
1.102110
 20
-3.511287
  0
VERTEX
  8
PLAN_1
  6
CONTINUOUS
 10
1.098512
 20
-3.519386
  0
VERTEX
  8
PLAN_1
  6
CONTINUOUS
 10
1.094016
 20
-3.527031
  0
VERTEX
  8
PLAN_1
  6
CONTINUOUS
 10
1.091315
 20
-3.530630
  0
VERTEX
  8
PLAN_1
  6
CONTINUOUS
 10
1.088618
 20
-3.534228
  0
VERTEX
  8
PLAN_1
  6
CONTINUOUS
 10
1.085469
 20
-3.537827
  0
VERTEX
  8
PLAN_1
  6
CONTINUOUS
 10
1.082319
 20
-3.540976
  0
VERTEX
  8
PLAN_1
  6
CONTINUOUS
 10
1.079169
 20
-3.544126
  0
VERTEX
  8
PLAN_1
  6
CONTINUOUS
 10
1.075571
 20
-3.546827
  0
VERTEX
  8
PLAN_1
  6
CONTINUOUS
 10
1.071524
 20
-3.549524
  0
VERTEX
  8
PLAN_1
  6
CONTINUOUS
 10
1.067476
 20
-3.551772
  0
VERTEX
  8
PLAN_1
  6
CONTINUOUS
 10
1.063425
 20
-3.554024
  0
VERTEX
  8
PLAN_1
  6
CONTINUOUS
 10
1.058929
 20
-3.555823
  0
VERTEX
  8
PLAN_1
  6
CONTINUOUS
 10
1.053980
 20
-3.557622
  0
VERTEX
  8
PLAN_1
  6
CONTINUOUS
 10
1.049031
 20
-3.558969
  0
VERTEX
  8
PLAN_1
  6
CONTINUOUS
 10
1.044083
 20
-3.560319
  0
VERTEX
  8
PLAN_1
  6
CONTINUOUS
 10
1.038685
 20
-3.560772
  0
VERTEX
  8
PLAN_1
  6
CONTINUOUS
 10
1.032839
 20
-3.561220
  0
VERTEX
  8
PLAN_1
  6
CONTINUOUS
 10
1.026988
 20
-3.561669
  0
VERTEX
  8
PLAN_1
  6
CONTINUOUS
 10
0.946921
 20
-3.561669
  0
VERTEX
  8
PLAN_1
  6
CONTINUOUS
 10
0.946921
 20
-3.362394
  0
SEQEND
  8
0
  0
POLYLINE
  8
PLAN_1
  6
CONTINUOUS
 66
     1
 40
0.003000
 41
0.003000
  0
VERTEX
  8
PLAN_1
  6
CONTINUOUS
 10
0.973909
 20
-3.538728
  0
VERTEX
  8
PLAN_1
  6
CONTINUOUS
 10
1.026091
 20
-3.538728
  0
VERTEX
  8
PLAN_1
  6
CONTINUOUS
 10
1.032839
 20
-3.538280
  0
VERTEX
  8
PLAN_1
  6
CONTINUOUS
 10
1.038685
 20
-3.537378
  0
VERTEX
  8
PLAN_1
  6
CONTINUOUS
 10
1.044531
 20
-3.535579
  0
VERTEX
  8
PLAN_1
  6
CONTINUOUS
 10
1.049933
 20
-3.533331
  0
VERTEX
  8
PLAN_1
  6
CONTINUOUS
 10
1.054878
 20
-3.530630
  0
VERTEX
  8
PLAN_1
  6
CONTINUOUS
 10
1.059827
 20
-3.527031
  0
VERTEX
  8
PLAN_1
  6
CONTINUOUS
 10
1.064327
 20
-3.522984
  0
VERTEX
  8
PLAN_1
  6
CONTINUOUS
 10
1.068374
 20
-3.518484
  0
VERTEX
  8
PLAN_1
  6
CONTINUOUS
 10
1.071972
 20
-3.513535
  0
VERTEX
  8
PLAN_1
  6
CONTINUOUS
 10
1.075122
 20
-3.507689
  0
VERTEX
  8
PLAN_1
  6
CONTINUOUS
 10
1.077370
 20
-3.500941
  0
VERTEX
  8
PLAN_1
  6
CONTINUOUS
 10
1.079622
 20
-3.494193
  0
VERTEX
  8
PLAN_1
  6
CONTINUOUS
 10
1.081421
 20
-3.486547
  0
VERTEX
  8
PLAN_1
  6
CONTINUOUS
 10
1.082768
 20
-3.478449
  0
VERTEX
  8
PLAN_1
  6
CONTINUOUS
 10
1.083669
 20
-3.469906
  0
VERTEX
  8
PLAN_1
  6
CONTINUOUS
 10
1.084118
 20
-3.460906
  0
VERTEX
  8
PLAN_1
  6
CONTINUOUS
 10
1.083669
 20
-3.451909
  0
VERTEX
  8
PLAN_1
  6
CONTINUOUS
 10
1.082768
 20
-3.443362
  0
VERTEX
  8
PLAN_1
  6
CONTINUOUS
 10
1.081421
 20
-3.435268
  0
VERTEX
  8
PLAN_1
  6
CONTINUOUS
 10
1.079622
 20
-3.428071
  0
VERTEX
  8
PLAN_1
  6
CONTINUOUS
 10
1.077370
 20
-3.420874
  0
VERTEX
  8
PLAN_1
  6
CONTINUOUS
 10
1.074673
 20
-3.415024
  0
VERTEX
  8
PLAN_1
  6
CONTINUOUS
 10
1.071524
 20
-3.409177
  0
VERTEX
  8
PLAN_1
  6
CONTINUOUS
 10
1.067925
 20
-3.404228
  0
VERTEX
  8
PLAN_1
  6
CONTINUOUS
 10
1.063878
 20
-3.399728
  0
VERTEX
  8
PLAN_1
  6
CONTINUOUS
 10
1.059378
 20
-3.396130
  0
VERTEX
  8
PLAN_1
  6
CONTINUOUS
 10
1.054429
 20
-3.392531
  0
VERTEX
  8
PLAN_1
  6
CONTINUOUS
 10
1.049031
 20
-3.390283
  0
VERTEX
  8
PLAN_1
  6
CONTINUOUS
 10
1.043185
 20
-3.388035
  0
VERTEX
  8
PLAN_1
  6
CONTINUOUS
 10
1.037335
 20
-3.386685
  0
VERTEX
  8
PLAN_1
  6
CONTINUOUS
 10
1.031039
 20
-3.385783
  0
VERTEX
  8
PLAN_1
  6
CONTINUOUS
 10
1.024291
 20
-3.385335
  0
VERTEX
  8
PLAN_1
  6
CONTINUOUS
 10
0.973909
 20
-3.385335
  0
VERTEX
  8
PLAN_1
  6
CONTINUOUS
 10
0.973909
 20
-3.538728
  0
SEQEND
  8
0
  0
POLYLINE
  8
PLAN_1
  6
CONTINUOUS
 66
     1
 40
0.003000
 41
0.003000
  0
VERTEX
  8
PLAN_1
  6
CONTINUOUS
 10
1.224917
 20
-3.561669
  0
VERTEX
  8
PLAN_1
  6
CONTINUOUS
 10
1.198827
 20
-3.561669
  0
VERTEX
  8
PLAN_1
  6
CONTINUOUS
 10
1.198827
 20
-3.423122
  0
VERTEX
  8
PLAN_1
  6
CONTINUOUS
 10
1.152941
 20
-3.423122
  0
VERTEX
  8
PLAN_1
  6
CONTINUOUS
 10
1.152941
 20
-3.403780
  0
VERTEX
  8
PLAN_1
  6
CONTINUOUS
 10
1.164189
 20
-3.402878
  0
VERTEX
  8
PLAN_1
  6
CONTINUOUS
 10
1.173634
 20
-3.401528
  0
VERTEX
  8
PLAN_1
  6
CONTINUOUS
 10
1.177685
 20
-3.400630
  0
VERTEX
  8
PLAN_1
  6
CONTINUOUS
 10
1.181732
 20
-3.399280
  0
VERTEX
  8
PLAN_1
  6
CONTINUOUS
 10
1.185331
 20
-3.397929
  0
VERTEX
  8
PLAN_1
  6
CONTINUOUS
 10
1.188480
 20
-3.396130
  0
VERTEX
  8
PLAN_1
  6
CONTINUOUS
 10
1.191177
 20
-3.394331
  0
VERTEX
  8
PLAN_1
  6
CONTINUOUS
 10
1.193878
 20
-3.391634
  0
VERTEX
  8
PLAN_1
  6
CONTINUOUS
 10
1.196575
 20
-3.388933
  0
VERTEX
  8
PLAN_1
  6
CONTINUOUS
 10
1.198374
 20
-3.385335
  0
VERTEX
  8
PLAN_1
  6
CONTINUOUS
 10
1.200626
 20
-3.381736
  0
VERTEX
  8
PLAN_1
  6
CONTINUOUS
 10
1.202425
 20
-3.377240
  0
VERTEX
  8
PLAN_1
  6
CONTINUOUS
 10
1.204224
 20
-3.372291
  0
VERTEX
  8
PLAN_1
  6
CONTINUOUS
 10
1.205575
 20
-3.366441
  0
VERTEX
  8
PLAN_1
  6
CONTINUOUS
 10
1.224917
 20
-3.366441
  0
VERTEX
  8
PLAN_1
  6
CONTINUOUS
 10
1.224917
 20
-3.561669
  0
SEQEND
  8
0
  0
SOLID
  8
PLAN_1
 10
1.279346
 20
-3.596307
 11
1.279346
 21
-3.582362
 12
1.433638
 22
-3.596307
 13
1.433638
 23
-3.582362
  0
POLYLINE
  8
PLAN_1
  6
CONTINUOUS
 66
     1
 40
0.003000
 41
0.003000
  0
VERTEX
  8
PLAN_1
  6
CONTINUOUS
 10
1.279346
 20
-3.596307
  0
VERTEX
  8
PLAN_1
  6
CONTINUOUS
 10
1.279346
 20
-3.582362
  0
VERTEX
  8
PLAN_1
  6
CONTINUOUS
 10
1.433638
 20
-3.582362
  0
VERTEX
  8
PLAN_1
  6
CONTINUOUS
 10
1.433638
 20
-3.596307
  0
VERTEX
  8
PLAN_1
  6
CONTINUOUS
 10
1.279346
 20
-3.596307
  0
SEQEND
  8
0
  0
SOLID
  8
PLAN_1
 10
1.434087
 20
-3.596307
 11
1.434087
 21
-3.582362
 12
1.588378
 22
-3.596307
 13
1.588378
 23
-3.582362
  0
POLYLINE
  8
PLAN_1
  6
CONTINUOUS
 66
     1
 40
0.003000
 41
0.003000
  0
VERTEX
  8
PLAN_1
  6
CONTINUOUS
 10
1.434087
 20
-3.596307
  0
VERTEX
  8
PLAN_1
  6
CONTINUOUS
 10
1.434087
 20
-3.582362
  0
VERTEX
  8
PLAN_1
  6
CONTINUOUS
 10
1.588378
 20
-3.582362
  0
VERTEX
  8
PLAN_1
  6
CONTINUOUS
 10
1.588378
 20
-3.596307
  0
VERTEX
  8
PLAN_1
  6
CONTINUOUS
 10
1.434087
 20
-3.596307
  0
SEQEND
  8
0
  0
POLYLINE
  8
PLAN_1
  6
CONTINUOUS
 66
     1
 40
0.003000
 41
0.003000
  0
VERTEX
  8
PLAN_1
  6
CONTINUOUS
 10
1.639213
 20
-3.561669
  0
VERTEX
  8
PLAN_1
  6
CONTINUOUS
 10
1.612220
 20
-3.561669
  0
VERTEX
  8
PLAN_1
  6
CONTINUOUS
 10
1.612220
 20
-3.362394
  0
VERTEX
  8
PLAN_1
  6
CONTINUOUS
 10
1.750319
 20
-3.362394
  0
VERTEX
  8
PLAN_1
  6
CONTINUOUS
 10
1.750319
 20
-3.386236
  0
VERTEX
  8
PLAN_1
  6
CONTINUOUS
 10
1.639213
 20
-3.386236
  0
VERTEX
  8
PLAN_1
  6
CONTINUOUS
 10
1.639213
 20
-3.447413
  0
VERTEX
  8
PLAN_1
  6
CONTINUOUS
 10
1.736823
 20
-3.447413
  0
VERTEX
  8
PLAN_1
  6
CONTINUOUS
 10
1.736823
 20
-3.471252
  0
VERTEX
  8
PLAN_1
  6
CONTINUOUS
 10
1.639213
 20
-3.471252
  0
VERTEX
  8
PLAN_1
  6
CONTINUOUS
 10
1.639213
 20
-3.561669
  0
SEQEND
  8
0
  0
SOLID
  8
PLAN_1
 10
1.769213
 20
-3.561669
 11
1.740421
 21
-3.561669
 12
1.769213
 22
-3.531980
 13
1.740421
 23
-3.531980
  0
POLYLINE
  8
PLAN_1
  6
CONTINUOUS
 66
     1
 40
0.003000
 41
0.003000
  0
VERTEX
  8
PLAN_1
  6
CONTINUOUS
 10
1.769213
 20
-3.561669
  0
VERTEX
  8
PLAN_1
  6
CONTINUOUS
 10
1.740421
 20
-3.561669
  0
VERTEX
  8
PLAN_1
  6
CONTINUOUS
 10
1.740421
 20
-3.531980
  0
VERTEX
  8
PLAN_1
  6
CONTINUOUS
 10
1.769213
 20
-3.531980
  0
VERTEX
  8
PLAN_1
  6
CONTINUOUS
 10
1.769213
 20
-3.561669
  0
SEQEND
  8
0
  0
POLYLINE
  8
PLAN_1
  6
CONTINUOUS
 66
     1
 40
0.003000
 41
0.003000
  0
VERTEX
  8
PLAN_1
  6
CONTINUOUS
 10
1.964441
 20
-3.561669
  0
VERTEX
  8
PLAN_1
  6
CONTINUOUS
 10
1.817343
 20
-3.561669
  0
VERTEX
  8
PLAN_1
  6
CONTINUOUS
 10
1.817343
 20
-3.362394
  0
VERTEX
  8
PLAN_1
  6
CONTINUOUS
 10
1.962638
 20
-3.362394
  0
VERTEX
  8
PLAN_1
  6
CONTINUOUS
 10
1.962638
 20
-3.386236
  0
VERTEX
  8
PLAN_1
  6
CONTINUOUS
 10
1.844335
 20
-3.386236
  0
VERTEX
  8
PLAN_1
  6
CONTINUOUS
 10
1.844335
 20
-3.447413
  0
VERTEX
  8
PLAN_1
  6
CONTINUOUS
 10
1.953193
 20
-3.447413
  0
VERTEX
  8
PLAN_1
  6
CONTINUOUS
 10
1.953193
 20
-3.471252
  0
VERTEX
  8
PLAN_1
  6
CONTINUOUS
 10
1.844335
 20
-3.471252
  0
VERTEX
  8
PLAN_1
  6
CONTINUOUS
 10
1.844335
 20
-3.537827
  0
VERTEX
  8
PLAN_1
  6
CONTINUOUS
 10
1.964441
 20
-3.537827
  0
VERTEX
  8
PLAN_1
  6
CONTINUOUS
 10
1.964441
 20
-3.561669
  0
SEQEND
  8
0
  0
POLYLINE
  8
PLAN_1
  6
CONTINUOUS
 66
     1
 40
0.003000
 41
0.003000
  0
VERTEX
  8
PLAN_1
  6
CONTINUOUS
 10
2.029665
 20
-3.561669
  0
VERTEX
  8
PLAN_1
  6
CONTINUOUS
 10
2.002673
 20
-3.561669
  0
VERTEX
  8
PLAN_1
  6
CONTINUOUS
 10
2.002673
 20
-3.362394
  0
VERTEX
  8
PLAN_1
  6
CONTINUOUS
 10
2.092193
 20
-3.362394
  0
VERTEX
  8
PLAN_1
  6
CONTINUOUS
 10
2.098937
 20
-3.362394
  0
VERTEX
  8
PLAN_1
  6
CONTINUOUS
 10
2.105236
 20
-3.363295
  0
VERTEX
  8
PLAN_1
  6
CONTINUOUS
 10
2.111535
 20
-3.364642
  0
VERTEX
  8
PLAN_1
  6
CONTINUOUS
 10
2.116933
 20
-3.366441
  0
VERTEX
  8
PLAN_1
  6
CONTINUOUS
 10
2.122331
 20
-3.368693
  0
VERTEX
  8
PLAN_1
  6
CONTINUOUS
 10
2.127280
 20
-3.371390
  0
VERTEX
  8
PLAN_1
  6
CONTINUOUS
 10
2.131776
 20
-3.374539
  0
VERTEX
  8
PLAN_1
  6
CONTINUOUS
 10
2.135374
 20
-3.378138
  0
VERTEX
  8
PLAN_1
  6
CONTINUOUS
 10
2.138972
 20
-3.382185
  0
VERTEX
  8
PLAN_1
  6
CONTINUOUS
 10
2.142122
 20
-3.386685
  0
VERTEX
  8
PLAN_1
  6
CONTINUOUS
 10
2.144823
 20
-3.391185
  0
VERTEX
  8
PLAN_1
  6
CONTINUOUS
 10
2.147071
 20
-3.396130
  0
VERTEX
  8
PLAN_1
  6
CONTINUOUS
 10
2.148870
 20
-3.401079
  0
VERTEX
  8
PLAN_1
  6
CONTINUOUS
 10
2.150220
 20
-3.406929
  0
VERTEX
  8
PLAN_1
  6
CONTINUOUS
 10
2.151118
 20
-3.412327
  0
VERTEX
  8
PLAN_1
  6
CONTINUOUS
 10
2.151118
 20
-3.418173
  0
VERTEX
  8
PLAN_1
  6
CONTINUOUS
 10
2.151118
 20
-3.423571
  0
VERTEX
  8
PLAN_1
  6
CONTINUOUS
 10
2.150669
 20
-3.428969
  0
VERTEX
  8
PLAN_1
  6
CONTINUOUS
 10
2.149772
 20
-3.434366
  0
VERTEX
  8
PLAN_1
  6
CONTINUOUS
 10
2.147969
 20
-3.439315
  0
VERTEX
  8
PLAN_1
  6
CONTINUOUS
 10
2.146169
 20
-3.444264
  0
VERTEX
  8
PLAN_1
  6
CONTINUOUS
 10
2.143921
 20
-3.449213
  0
VERTEX
  8
PLAN_1
  6
CONTINUOUS
 10
2.141224
 20
-3.454161
  0
VERTEX
  8
PLAN_1
  6
CONTINUOUS
 10
2.138075
 20
-3.458209
  0
VERTEX
  8
PLAN_1
  6
CONTINUOUS
 10
2.134024
 20
-3.462256
  0
VERTEX
  8
PLAN_1
  6
CONTINUOUS
 10
2.129976
 20
-3.466303
  0
VERTEX
  8
PLAN_1
  6
CONTINUOUS
 10
2.125028
 20
-3.469453
  0
VERTEX
  8
PLAN_1
  6
CONTINUOUS
 10
2.119630
 20
-3.472154
  0
VERTEX
  8
PLAN_1
  6
CONTINUOUS
 10
2.113783
 20
-3.474402
  0
VERTEX
  8
PLAN_1
  6
CONTINUOUS
 10
2.107035
 20
-3.476201
  0
VERTEX
  8
PLAN_1
  6
CONTINUOUS
 10
2.099839
 20
-3.477102
  0
VERTEX
  8
PLAN_1
  6
CONTINUOUS
 10
2.092193
 20
-3.477551
  0
VERTEX
  8
PLAN_1
  6
CONTINUOUS
 10
2.029665
 20
-3.477551
  0
VERTEX
  8
PLAN_1
  6
CONTINUOUS
 10
2.029665
 20
-3.561669
  0
SEQEND
  8
0
  0
POLYLINE
  8
PLAN_1
  6
CONTINUOUS
 66
     1
 40
0.003000
 41
0.003000
  0
VERTEX
  8
PLAN_1
  6
CONTINUOUS
 10
2.029665
 20
-3.454610
  0
VERTEX
  8
PLAN_1
  6
CONTINUOUS
 10
2.083193
 20
-3.454610
  0
VERTEX
  8
PLAN_1
  6
CONTINUOUS
 10
2.087244
 20
-3.454161
  0
VERTEX
  8
PLAN_1
  6
CONTINUOUS
 10
2.091740
 20
-3.454161
  0
VERTEX
  8
PLAN_1
  6
CONTINUOUS
 10
2.095791
 20
-3.453260
  0
VERTEX
  8
PLAN_1
  6
CONTINUOUS
 10
2.099390
 20
-3.452811
  0
VERTEX
  8
PLAN_1
  6
CONTINUOUS
 10
2.102988
 20
-3.451461
  0
VERTEX
  8
PLAN_1
  6
CONTINUOUS
 10
2.106587
 20
-3.450110
  0
VERTEX
  8
PLAN_1
  6
CONTINUOUS
 10
2.109736
 20
-3.448760
  0
VERTEX
  8
PLAN_1
  6
CONTINUOUS
 10
2.112433
 20
-3.446512
  0
VERTEX
  8
PLAN_1
  6
CONTINUOUS
 10
2.114681
 20
-3.444264
  0
VERTEX
  8
PLAN_1
  6
CONTINUOUS
 10
2.116933
 20
-3.442016
  0
VERTEX
  8
PLAN_1
  6
CONTINUOUS
 10
2.119181
 20
-3.438866
  0
VERTEX
  8
PLAN_1
  6
CONTINUOUS
 10
2.120531
 20
-3.435717
  0
VERTEX
  8
PLAN_1
  6
CONTINUOUS
 10
2.121882
 20
-3.432118
  0
VERTEX
  8
PLAN_1
  6
CONTINUOUS
 10
2.122780
 20
-3.428071
  0
VERTEX
  8
PLAN_1
  6
CONTINUOUS
 10
2.123228
 20
-3.423571
  0
VERTEX
  8
PLAN_1
  6
CONTINUOUS
 10
2.123681
 20
-3.418622
  0
VERTEX
  8
PLAN_1
  6
CONTINUOUS
 10
2.123228
 20
-3.414126
  0
VERTEX
  8
PLAN_1
  6
CONTINUOUS
 10
2.122780
 20
-3.410075
  0
VERTEX
  8
PLAN_1
  6
CONTINUOUS
 10
2.121882
 20
-3.406028
  0
VERTEX
  8
PLAN_1
  6
CONTINUOUS
 10
2.120531
 20
-3.402878
  0
VERTEX
  8
PLAN_1
  6
CONTINUOUS
 10
2.118732
 20
-3.399728
  0
VERTEX
  8
PLAN_1
  6
CONTINUOUS
 10
2.116933
 20
-3.397031
  0
VERTEX
  8
PLAN_1
  6
CONTINUOUS
 10
2.114681
 20
-3.394783
  0
VERTEX
  8
PLAN_1
  6
CONTINUOUS
 10
2.111984
 20
-3.392531
  0
VERTEX
  8
PLAN_1
  6
CONTINUOUS
 10
2.109283
 20
-3.390732
  0
VERTEX
  8
PLAN_1
  6
CONTINUOUS
 10
2.106587
 20
-3.389382
  0
VERTEX
  8
PLAN_1
  6
CONTINUOUS
 10
2.102988
 20
-3.388035
  0
VERTEX
  8
PLAN_1
  6
CONTINUOUS
 10
2.099839
 20
-3.387134
  0
VERTEX
  8
PLAN_1
  6
CONTINUOUS
 10
2.096240
 20
-3.386236
  0
VERTEX
  8
PLAN_1
  6
CONTINUOUS
 10
2.092193
 20
-3.385783
  0
VERTEX
  8
PLAN_1
  6
CONTINUOUS
 10
2.088142
 20
-3.385335
  0
VERTEX
  8
PLAN_1
  6
CONTINUOUS
 10
2.084094
 20
-3.385335
  0
VERTEX
  8
PLAN_1
  6
CONTINUOUS
 10
2.029665
 20
-3.385335
  0
VERTEX
  8
PLAN_1
  6
CONTINUOUS
 10
2.029665
 20
-3.454610
  0
SEQEND
  8
0
  0
POLYLINE
  8
PLAN_1
  6
CONTINUOUS
 66
     1
 40
0.003000
 41
0.003000
  0
VERTEX
  8
PLAN_1
  6
CONTINUOUS
 10
2.305413
 20
-3.420421
  0
VERTEX
  8
PLAN_1
  6
CONTINUOUS
 10
2.304512
 20
-3.415024
  0
VERTEX
  8
PLAN_1
  6
CONTINUOUS
 10
2.303610
 20
-3.410075
  0
VERTEX
  8
PLAN_1
  6
CONTINUOUS
 10
2.301811
 20
-3.405579
  0
VERTEX
  8
PLAN_1
  6
CONTINUOUS
 10
2.300012
 20
-3.401079
  0
VERTEX
  8
PLAN_1
  6
CONTINUOUS
 10
2.297764
 20
-3.397480
  0
VERTEX
  8
PLAN_1
  6
CONTINUOUS
 10
2.295067
 20
-3.394331
  0
VERTEX
  8
PLAN_1
  6
CONTINUOUS
 10
2.291917
 20
-3.391185
  0
VERTEX
  8
PLAN_1
  6
CONTINUOUS
 10
2.288319
 20
-3.388933
  0
VERTEX
  8
PLAN_1
  6
CONTINUOUS
 10
2.284720
 20
-3.386685
  0
VERTEX
  8
PLAN_1
  6
CONTINUOUS
 10
2.281122
 20
-3.384886
  0
VERTEX
  8
PLAN_1
  6
CONTINUOUS
 10
2.277071
 20
-3.383087
  0
VERTEX
  8
PLAN_1
  6
CONTINUOUS
 10
2.272575
 20
-3.382185
  0
VERTEX
  8
PLAN_1
  6
CONTINUOUS
 10
2.268524
 20
-3.381287
  0
VERTEX
  8
PLAN_1
  6
CONTINUOUS
 10
2.264476
 20
-3.380386
  0
VERTEX
  8
PLAN_1
  6
CONTINUOUS
 10
2.259980
 20
-3.380386
  0
VERTEX
  8
PLAN_1
  6
CONTINUOUS
 10
2.255929
 20
-3.379937
  0
VERTEX
  8
PLAN_1
  6
CONTINUOUS
 10
2.249181
 20
-3.380386
  0
VERTEX
  8
PLAN_1
  6
CONTINUOUS
 10
2.241535
 20
-3.381287
  0
VERTEX
  8
PLAN_1
  6
CONTINUOUS
 10
2.237937
 20
-3.382185
  0
VERTEX
  8
PLAN_1
  6
CONTINUOUS
 10
2.233890
 20
-3.383087
  0
VERTEX
  8
PLAN_1
  6
CONTINUOUS
 10
2.230291
 20
-3.384437
  0
VERTEX
  8
PLAN_1
  6
CONTINUOUS
 10
2.226689
 20
-3.386236
  0
VERTEX
  8
PLAN_1
  6
CONTINUOUS
 10
2.223091
 20
-3.388484
  0
VERTEX
  8
PLAN_1
  6
CONTINUOUS
 10
2.220394
 20
-3.390732
  0
VERTEX
  8
PLAN_1
  6
CONTINUOUS
 10
2.217244
 20
-3.393433
  0
VERTEX
  8
PLAN_1
  6
CONTINUOUS
 10
2.214996
 20
-3.397031
  0
VERTEX
  8
PLAN_1
  6
CONTINUOUS
 10
2.213197
 20
-3.400630
  0
VERTEX
  8
PLAN_1
  6
CONTINUOUS
 10
2.211398
 20
-3.404677
  0
VERTEX
  8
PLAN_1
  6
CONTINUOUS
 10
2.210496
 20
-3.409626
  0
VERTEX
  8
PLAN_1
  6
CONTINUOUS
 10
2.210047
 20
-3.415024
  0
VERTEX
  8
PLAN_1
  6
CONTINUOUS
 10
2.210496
 20
-3.418173
  0
VERTEX
  8
PLAN_1
  6
CONTINUOUS
 10
2.210945
 20
-3.420874
  0
VERTEX
  8
PLAN_1
  6
CONTINUOUS
 10
2.211398
 20
-3.423571
  0
VERTEX
  8
PLAN_1
  6
CONTINUOUS
 10
2.212295
 20
-3.425819
  0
VERTEX
  8
PLAN_1
  6
CONTINUOUS
 10
2.213197
 20
-3.428071
  0
VERTEX
  8
PLAN_1
  6
CONTINUOUS
 10
2.214547
 20
-3.429870
  0
VERTEX
  8
PLAN_1
  6
CONTINUOUS
 10
2.215894
 20
-3.431669
  0
VERTEX
  8
PLAN_1
  6
CONTINUOUS
 10
2.217693
 20
-3.433016
  0
VERTEX
  8
PLAN_1
  6
CONTINUOUS
 10
2.221291
 20
-3.435717
  0
VERTEX
  8
PLAN_1
  6
CONTINUOUS
 10
2.225343
 20
-3.437516
  0
VERTEX
  8
PLAN_1
  6
CONTINUOUS
 10
2.229390
 20
-3.439315
  0
VERTEX
  8
PLAN_1
  6
CONTINUOUS
 10
2.233890
 20
-3.440217
  0
VERTEX
  8
PLAN_1
  6
CONTINUOUS
 10
2.290567
 20
-3.453260
  0
VERTEX
  8
PLAN_1
  6
CONTINUOUS
 10
2.295516
 20
-3.454610
  0
VERTEX
  8
PLAN_1
  6
CONTINUOUS
 10
2.300012
 20
-3.455961
  0
VERTEX
  8
PLAN_1
  6
CONTINUOUS
 10
2.304512
 20
-3.457760
  0
VERTEX
  8
PLAN_1
  6
CONTINUOUS
 10
2.308559
 20
-3.460008
  0
VERTEX
  8
PLAN_1
  6
CONTINUOUS
 10
2.312610
 20
-3.462256
  0
VERTEX
  8
PLAN_1
  6
CONTINUOUS
 10
2.316209
 20
-3.464504
  0
VERTEX
  8
PLAN_1
  6
CONTINUOUS
 10
2.319807
 20
-3.467205
  0
VERTEX
  8
PLAN_1
  6
CONTINUOUS
 10
2.322957
 20
-3.470354
  0
VERTEX
  8
PLAN_1
  6
CONTINUOUS
 10
2.326102
 20
-3.473953
  0
VERTEX
  8
PLAN_1
  6
CONTINUOUS
 10
2.328354
 20
-3.477551
  0
VERTEX
  8
PLAN_1
  6
CONTINUOUS
 10
2.330602
 20
-3.481598
  0
VERTEX
  8
PLAN_1
  6
CONTINUOUS
 10
2.332402
 20
-3.485650
  0
VERTEX
  8
PLAN_1
  6
CONTINUOUS
 10
2.334201
 20
-3.490594
  0
VERTEX
  8
PLAN_1
  6
CONTINUOUS
 10
2.335098
 20
-3.495543
  0
VERTEX
  8
PLAN_1
  6
CONTINUOUS
 10
2.335551
 20
-3.500941
  0
VERTEX
  8
PLAN_1
  6
CONTINUOUS
 10
2.336000
 20
-3.506791
  0
VERTEX
  8
PLAN_1
  6
CONTINUOUS
 10
2.336000
 20
-3.510839
  0
VERTEX
  8
PLAN_1
  6
CONTINUOUS
 10
2.335551
 20
-3.514886
  0
VERTEX
  8
PLAN_1
  6
CONTINUOUS
 10
2.335098
 20
-3.518937
  0
VERTEX
  8
PLAN_1
  6
CONTINUOUS
 10
2.334201
 20
-3.522984
  0
VERTEX
  8
PLAN_1
  6
CONTINUOUS
 10
2.332850
 20
-3.526134
  0
VERTEX
  8
PLAN_1
  6
CONTINUOUS
 10
2.331500
 20
-3.529732
  0
VERTEX
  8
PLAN_1
  6
CONTINUOUS
 10
2.330154
 20
-3.532882
  0
VERTEX
  8
PLAN_1
  6
CONTINUOUS
 10
2.328803
 20
-3.536028
  0
VERTEX
  8
PLAN_1
  6
CONTINUOUS
 10
2.326555
 20
-3.538728
  0
VERTEX
  8
PLAN_1
  6
CONTINUOUS
 10
2.324756
 20
-3.541425
  0
VERTEX
  8
PLAN_1
  6
CONTINUOUS
 10
2.322504
 20
-3.544126
  0
VERTEX
  8
PLAN_1
  6
CONTINUOUS
 10
2.320256
 20
-3.546374
  0
VERTEX
  8
PLAN_1
  6
CONTINUOUS
 10
2.315307
 20
-3.550874
  0
VERTEX
  8
PLAN_1
  6
CONTINUOUS
 10
2.309909
 20
-3.554472
  0
VERTEX
  8
PLAN_1
  6
CONTINUOUS
 10
2.304063
 20
-3.557622
  0
VERTEX
  8
PLAN_1
  6
CONTINUOUS
 10
2.297764
 20
-3.560319
  0
VERTEX
  8
PLAN_1
  6
CONTINUOUS
 10
2.291016
 20
-3.562571
  0
VERTEX
  8
PLAN_1
  6
CONTINUOUS
 10
2.284720
 20
-3.563917
  0
VERTEX
  8
PLAN_1
  6
CONTINUOUS
 10
2.277972
 20
-3.565268
  0
VERTEX
  8
PLAN_1
  6
CONTINUOUS
 10
2.271224
 20
-3.566169
  0
VERTEX
  8
PLAN_1
  6
CONTINUOUS
 10
2.264476
 20
-3.566618
  0
VERTEX
  8
PLAN_1
  6
CONTINUOUS
 10
2.258177
 20
-3.567067
  0
VERTEX
  8
PLAN_1
  6
CONTINUOUS
 10
2.251433
 20
-3.566618
  0
VERTEX
  8
PLAN_1
  6
CONTINUOUS
 10
2.245134
 20
-3.566618
  0
VERTEX
  8
PLAN_1
  6
CONTINUOUS
 10
2.239287
 20
-3.565717
  0
VERTEX
  8
PLAN_1
  6
CONTINUOUS
 10
2.234339
 20
-3.564819
  0
VERTEX
  8
PLAN_1
  6
CONTINUOUS
 10
2.229390
 20
-3.563917
  0
VERTEX
  8
PLAN_1
  6
CONTINUOUS
 10
2.224890
 20
-3.563020
  0
VERTEX
  8
PLAN_1
  6
CONTINUOUS
 10
2.220843
 20
-3.561669
  0
VERTEX
  8
PLAN_1
  6
CONTINUOUS
 10
2.217244
 20
-3.560319
  0
VERTEX
  8
PLAN_1
  6
CONTINUOUS
 10
2.210945
 20
-3.557169
  0
VERTEX
  8
PLAN_1
  6
CONTINUOUS
 10
2.205547
 20
-3.554024
  0
VERTEX
  8
PLAN_1
  6
CONTINUOUS
 10
2.201500
 20
-3.550874
  0
VERTEX
  8
PLAN_1
  6
CONTINUOUS
 10
2.197902
 20
-3.547724
  0
VERTEX
  8
PLAN_1
  6
CONTINUOUS
 10
2.194752
 20
-3.545024
  0
VERTEX
  8
PLAN_1
  6
CONTINUOUS
 10
2.192055
 20
-3.541878
  0
VERTEX
  8
PLAN_1
  6
CONTINUOUS
 10
2.189803
 20
-3.539177
  0
VERTEX
  8
PLAN_1
  6
CONTINUOUS
 10
2.187555
 20
-3.536028
  0
VERTEX
  8
PLAN_1
  6
CONTINUOUS
 10
2.183957
 20
-3.529732
  0
VERTEX
  8
PLAN_1
  6
CONTINUOUS
 10
2.181260
 20
-3.523882
  0
VERTEX
  8
PLAN_1
  6
CONTINUOUS
 10
2.179457
 20
-3.517138
  0
VERTEX
  8
PLAN_1
  6
CONTINUOUS
 10
2.178110
 20
-3.510839
  0
VERTEX
  8
PLAN_1
  6
CONTINUOUS
 10
2.177657
 20
-3.504091
  0
VERTEX
  8
PLAN_1
  6
CONTINUOUS
 10
2.177657
 20
-3.497343
  0
VERTEX
  8
PLAN_1
  6
CONTINUOUS
 10
2.202850
 20
-3.497343
  0
VERTEX
  8
PLAN_1
  6
CONTINUOUS
 10
2.203299
 20
-3.503642
  0
VERTEX
  8
PLAN_1
  6
CONTINUOUS
 10
2.204201
 20
-3.509488
  0
VERTEX
  8
PLAN_1
  6
CONTINUOUS
 10
2.205547
 20
-3.514886
  0
VERTEX
  8
PLAN_1
  6
CONTINUOUS
 10
2.207799
 20
-3.519835
  0
VERTEX
  8
PLAN_1
  6
CONTINUOUS
 10
2.210496
 20
-3.523882
  0
VERTEX
  8
PLAN_1
  6
CONTINUOUS
 10
2.213197
 20
-3.527933
  0
VERTEX
  8
PLAN_1
  6
CONTINUOUS
 10
2.216795
 20
-3.531083
  0
VERTEX
  8
PLAN_1
  6
CONTINUOUS
 10
2.220843
 20
-3.534228
  0
VERTEX
  8
PLAN_1
  6
CONTINUOUS
 10
2.224890
 20
-3.536480
  0
VERTEX
  8
PLAN_1
  6
CONTINUOUS
 10
2.228941
 20
-3.538728
  0
VERTEX
  8
PLAN_1
  6
CONTINUOUS
 10
2.233437
 20
-3.540528
  0
VERTEX
  8
PLAN_1
  6
CONTINUOUS
 10
2.238386
 20
-3.541425
  0
VERTEX
  8
PLAN_1
  6
CONTINUOUS
 10
2.243335
 20
-3.542776
  0
VERTEX
  8
PLAN_1
  6
CONTINUOUS
 10
2.247835
 20
-3.543224
  0
VERTEX
  8
PLAN_1
  6
CONTINUOUS
 10
2.252780
 20
-3.543677
  0
VERTEX
  8
PLAN_1
  6
CONTINUOUS
 10
2.257728
 20
-3.543677
  0
VERTEX
  8
PLAN_1
  6
CONTINUOUS
 10
2.265378
 20
-3.543677
  0
VERTEX
  8
PLAN_1
  6
CONTINUOUS
 10
2.273925
 20
-3.542776
  0
VERTEX
  8
PLAN_1
  6
CONTINUOUS
 10
2.278421
 20
-3.541878
  0
VERTEX
  8
PLAN_1
  6
CONTINUOUS
 10
2.282921
 20
-3.540976
  0
VERTEX
  8
PLAN_1
  6
CONTINUOUS
 10
2.286969
 20
-3.539626
  0
VERTEX
  8
PLAN_1
  6
CONTINUOUS
 10
2.291016
 20
-3.537827
  0
VERTEX
  8
PLAN_1
  6
CONTINUOUS
 10
2.295067
 20
-3.535579
  0
VERTEX
  8
PLAN_1
  6
CONTINUOUS
 10
2.298665
 20
-3.533331
  0
VERTEX
  8
PLAN_1
  6
CONTINUOUS
 10
2.301811
 20
-3.530630
  0
VERTEX
  8
PLAN_1
  6
CONTINUOUS
 10
2.304512
 20
-3.527480
  0
VERTEX
  8
PLAN_1
  6
CONTINUOUS
 10
2.306760
 20
-3.523882
  0
VERTEX
  8
PLAN_1
  6
CONTINUOUS
 10
2.308559
 20
-3.519835
  0
VERTEX
  8
PLAN_1
  6
CONTINUOUS
 10
2.309461
 20
-3.515339
  0
VERTEX
  8
PLAN_1
  6
CONTINUOUS
 10
2.309909
 20
-3.510390
  0
VERTEX
  8
PLAN_1
  6
CONTINUOUS
 10
2.309909
 20
-3.506339
  0
VERTEX
  8
PLAN_1
  6
CONTINUOUS
 10
2.309461
 20
-3.503193
  0
VERTEX
  8
PLAN_1
  6
CONTINUOUS
 10
2.309012
 20
-3.500043
  0
VERTEX
  8
PLAN_1
  6
CONTINUOUS
 10
2.307661
 20
-3.496894
  0
VERTEX
  8
PLAN_1
  6
CONTINUOUS
 10
2.306760
 20
-3.494646
  0
VERTEX
  8
PLAN_1
  6
CONTINUOUS
 10
2.304961
 20
-3.491945
  0
VERTEX
  8
PLAN_1
  6
CONTINUOUS
 10
2.303161
 20
-3.489697
  0
VERTEX
  8
PLAN_1
  6
CONTINUOUS
 10
2.300913
 20
-3.487898
  0
VERTEX
  8
PLAN_1
  6
CONTINUOUS
 10
2.298213
 20
-3.485650
  0
VERTEX
  8
PLAN_1
  6
CONTINUOUS
 10
2.295067
 20
-3.484299
  0
VERTEX
  8
PLAN_1
  6
CONTINUOUS
 10
2.291917
 20
-3.482500
  0
VERTEX
  8
PLAN_1
  6
CONTINUOUS
 10
2.287866
 20
-3.480701
  0
VERTEX
  8
PLAN_1
  6
CONTINUOUS
 10
2.278870
 20
-3.478000
  0
VERTEX
  8
PLAN_1
  6
CONTINUOUS
 10
2.267626
 20
-3.474850
  0
VERTEX
  8
PLAN_1
  6
CONTINUOUS
 10
2.226689
 20
-3.465406
  0
VERTEX
  8
PLAN_1
  6
CONTINUOUS
 10
2.220843
 20
-3.464055
  0
VERTEX
  8
PLAN_1
  6
CONTINUOUS
 10
2.214547
 20
-3.461807
  0
VERTEX
  8
PLAN_1
  6
CONTINUOUS
 10
2.210945
 20
-3.460457
  0
VERTEX
  8
PLAN_1
  6
CONTINUOUS
 10
2.207346
 20
-3.458657
  0
VERTEX
  8
PLAN_1
  6
CONTINUOUS
 10
2.203748
 20
-3.456409
  0
VERTEX
  8
PLAN_1
  6
CONTINUOUS
 10
2.200602
 20
-3.454161
  0
VERTEX
  8
PLAN_1
  6
CONTINUOUS
 10
2.197453
 20
-3.451012
  0
VERTEX
  8
PLAN_1
  6
CONTINUOUS
 10
2.194303
 20
-3.447862
  0
VERTEX
  8
PLAN_1
  6
CONTINUOUS
 10
2.191602
 20
-3.444264
  0
VERTEX
  8
PLAN_1
  6
CONTINUOUS
 10
2.188906
 20
-3.440217
  0
VERTEX
  8
PLAN_1
  6
CONTINUOUS
 10
2.187106
 20
-3.435717
  0
VERTEX
  8
PLAN_1
  6
CONTINUOUS
 10
2.185307
 20
-3.430319
  0
VERTEX
  8
PLAN_1
  6
CONTINUOUS
 10
2.184406
 20
-3.424921
  0
VERTEX
  8
PLAN_1
  6
CONTINUOUS
 10
2.183957
 20
-3.418622
  0
VERTEX
  8
PLAN_1
  6
CONTINUOUS
 10
2.184406
 20
-3.412776
  0
VERTEX
  8
PLAN_1
  6
CONTINUOUS
 10
2.185307
 20
-3.406929
  0
VERTEX
  8
PLAN_1
  6
CONTINUOUS
 10
2.186205
 20
-3.401528
  0
VERTEX
  8
PLAN_1
  6
CONTINUOUS
 10
2.188004
 20
-3.396130
  0
VERTEX
  8
PLAN_1
  6
CONTINUOUS
 10
2.190256
 20
-3.390732
  0
VERTEX
  8
PLAN_1
  6
CONTINUOUS
 10
2.192953
 20
-3.385335
  0
VERTEX
  8
PLAN_1
  6
CONTINUOUS
 10
2.196551
 20
-3.380839
  0
VERTEX
  8
PLAN_1
  6
CONTINUOUS
 10
2.200150
 20
-3.376339
  0
VERTEX
  8
PLAN_1
  6
CONTINUOUS
 10
2.204650
 20
-3.372291
  0
VERTEX
  8
PLAN_1
  6
CONTINUOUS
 10
2.209598
 20
-3.368240
  0
VERTEX
  8
PLAN_1
  6
CONTINUOUS
 10
2.215445
 20
-3.365094
  0
VERTEX
  8
PLAN_1
  6
CONTINUOUS
 10
2.221744
 20
-3.362394
  0
VERTEX
  8
PLAN_1
  6
CONTINUOUS
 10
2.228492
 20
-3.360146
  0
VERTEX
  8
PLAN_1
  6
CONTINUOUS
 10
2.235689
 20
-3.358346
  0
VERTEX
  8
PLAN_1
  6
CONTINUOUS
 10
2.243783
 20
-3.357445
  0
VERTEX
  8
PLAN_1
  6
CONTINUOUS
 10
2.252780
 20
-3.356996
  0
VERTEX
  8
PLAN_1
  6
CONTINUOUS
 10
2.259079
 20
-3.356996
  0
VERTEX
  8
PLAN_1
  6
CONTINUOUS
 10
2.264925
 20
-3.357445
  0
VERTEX
  8
PLAN_1
  6
CONTINUOUS
 10
2.270776
 20
-3.357894
  0
VERTEX
  8
PLAN_1
  6
CONTINUOUS
 10
2.276173
 20
-3.358795
  0
VERTEX
  8
PLAN_1
  6
CONTINUOUS
 10
2.281122
 20
-3.359697
  0
VERTEX
  8
PLAN_1
  6
CONTINUOUS
 10
2.285618
 20
-3.361043
  0
VERTEX
  8
PLAN_1
  6
CONTINUOUS
 10
2.290118
 20
-3.362394
  0
VERTEX
  8
PLAN_1
  6
CONTINUOUS
 10
2.294165
 20
-3.363744
  0
VERTEX
  8
PLAN_1
  6
CONTINUOUS
 10
2.297764
 20
-3.365543
  0
VERTEX
  8
PLAN_1
  6
CONTINUOUS
 10
2.301362
 20
-3.367343
  0
VERTEX
  8
PLAN_1
  6
CONTINUOUS
 10
2.304512
 20
-3.369142
  0
VERTEX
  8
PLAN_1
  6
CONTINUOUS
 10
2.307661
 20
-3.371390
  0
VERTEX
  8
PLAN_1
  6
CONTINUOUS
 10
2.313059
 20
-3.375890
  0
VERTEX
  8
PLAN_1
  6
CONTINUOUS
 10
2.317106
 20
-3.380386
  0
VERTEX
  8
PLAN_1
  6
CONTINUOUS
 10
2.320705
 20
-3.385783
  0
VERTEX
  8
PLAN_1
  6
CONTINUOUS
 10
2.323854
 20
-3.390732
  0
VERTEX
  8
PLAN_1
  6
CONTINUOUS
 10
2.326102
 20
-3.396130
  0
VERTEX
  8
PLAN_1
  6
CONTINUOUS
 10
2.327453
 20
-3.401528
  0
VERTEX
  8
PLAN_1
  6
CONTINUOUS
 10
2.328803
 20
-3.406476
  0
VERTEX
  8
PLAN_1
  6
CONTINUOUS
 10
2.329701
 20
-3.411425
  0
VERTEX
  8
PLAN_1
  6
CONTINUOUS
 10
2.330154
 20
-3.416374
  0
VERTEX
  8
PLAN_1
  6
CONTINUOUS
 10
2.330602
 20
-3.420421
  0
VERTEX
  8
PLAN_1
  6
CONTINUOUS
 10
2.305413
 20
-3.420421
  0
SEQEND
  8
0
  0
POLYLINE
  8
PLAN_1
  6
CONTINUOUS
 66
     1
 40
0.008543
 41
0.008543
  0
VERTEX
  8
PLAN_1
  6
CONTINUOUS
 10
-0.674272
 20
1.250630
  0
VERTEX
  8
PLAN_1
  6
CONTINUOUS
 10
-0.674272
 20
1.290217
  0
VERTEX
  8
PLAN_1
  6
CONTINUOUS
 10
-1.600028
 20
1.290217
  0
VERTEX
  8
PLAN_1
  6
CONTINUOUS
 10
-1.600028
 20
1.250630
  0
VERTEX
  8
PLAN_1
  6
CONTINUOUS
 10
-0.674272
 20
1.250630
  0
SEQEND
  8
0
  0
POLYLINE
  8
PLAN_1
  6
CONTINUOUS
 66
     1
 40
0.008543
 41
0.008543
  0
VERTEX
  8
PLAN_1
  6
CONTINUOUS
 10
-0.726453
 20
0.991075
  0
VERTEX
  8
PLAN_1
  6
CONTINUOUS
 10
-0.763339
 20
0.954189
  0
VERTEX
  8
PLAN_1
  6
CONTINUOUS
 10
-1.506913
 20
0.954189
  0
VERTEX
  8
PLAN_1
  6
CONTINUOUS
 10
-1.544248
 20
0.991075
  0
VERTEX
  8
PLAN_1
  6
CONTINUOUS
 10
-1.544248
 20
1.250630
  0
VERTEX
  8
PLAN_1
  6
CONTINUOUS
 10
-0.726453
 20
1.250630
  0
VERTEX
  8
PLAN_1
  6
CONTINUOUS
 10
-0.726453
 20
0.991075
  0
SEQEND
  8
0
  0
POLYLINE
  8
PLAN_1
  6
CONTINUOUS
 66
     1
 40
0.008543
 41
0.008543
  0
VERTEX
  8
PLAN_1
  6
CONTINUOUS
 10
-1.460579
 20
0.954189
  0
VERTEX
  8
PLAN_1
  6
CONTINUOUS
 10
-1.409299
 20
0.772457
  0
VERTEX
  8
PLAN_1
  6
CONTINUOUS
 10
-0.868150
 20
0.772457
  0
VERTEX
  8
PLAN_1
  6
CONTINUOUS
 10
-0.810571
 20
0.954189
  0
VERTEX
  8
PLAN_1
  6
CONTINUOUS
 10
-1.460579
 20
0.954189
  0
SEQEND
  8
0
  0
POLYLINE
  8
PLAN_1
  6
CONTINUOUS
 66
     1
 40
0.006744
 41
0.006744
  0
VERTEX
  8
PLAN_1
  6
CONTINUOUS
 10
-1.414248
 20
0.954189
  0
VERTEX
  8
PLAN_1
  6
CONTINUOUS
 10
-1.367465
 20
0.772457
  0
SEQEND
  8
0
  0
POLYLINE
  8
PLAN_1
  6
CONTINUOUS
 66
     1
 40
0.006744
 41
0.006744
  0
VERTEX
  8
PLAN_1
  6
CONTINUOUS
 10
-1.383209
 20
0.954189
  0
VERTEX
  8
PLAN_1
  6
CONTINUOUS
 10
-1.336425
 20
0.772457
  0
SEQEND
  8
0
  0
POLYLINE
  8
PLAN_1
  6
CONTINUOUS
 66
     1
 40
0.006744
 41
0.006744
  0
VERTEX
  8
PLAN_1
  6
CONTINUOUS
 10
-0.868150
 20
0.955988
  0
VERTEX
  8
PLAN_1
  6
CONTINUOUS
 10
-0.914933
 20
0.773807
  0
SEQEND
  8
0
  0
POLYLINE
  8
PLAN_1
  6
CONTINUOUS
 66
     1
 40
0.006744
 41
0.006744
  0
VERTEX
  8
PLAN_1
  6
CONTINUOUS
 10
-0.899638
 20
0.955988
  0
VERTEX
  8
PLAN_1
  6
CONTINUOUS
 10
-0.946421
 20
0.773807
  0
SEQEND
  8
0
  0
POLYLINE
  8
PLAN_1
  6
CONTINUOUS
 66
     1
 40
0.008543
 41
0.008543
  0
VERTEX
  8
PLAN_1
  6
CONTINUOUS
 10
-1.335528
 20
2.393654
  0
VERTEX
  8
PLAN_1
  6
CONTINUOUS
 10
-1.668402
 20
2.393654
  0
VERTEX
  8
PLAN_1
  6
CONTINUOUS
 10
-1.668402
 20
1.527724
  0
VERTEX
  8
PLAN_1
  6
CONTINUOUS
 10
-0.605898
 20
1.527724
  0
VERTEX
  8
PLAN_1
  6
CONTINUOUS
 10
-0.605898
 20
2.393654
  0
VERTEX
  8
PLAN_1
  6
CONTINUOUS
 10
-0.941472
 20
2.393654
  0
SEQEND
  8
0
  0
POLYLINE
  8
PLAN_1
  6
CONTINUOUS
 66
     1
 40
0.008543
 41
0.008543
  0
VERTEX
  8
PLAN_1
  6
CONTINUOUS
 10
-0.605898
 20
1.292465
  0
VERTEX
  8
PLAN_1
  6
CONTINUOUS
 10
-0.605898
 20
1.527724
  0
VERTEX
  8
PLAN_1
  6
CONTINUOUS
 10
-1.668402
 20
1.527724
  0
VERTEX
  8
PLAN_1
  6
CONTINUOUS
 10
-1.668402
 20
1.292465
  0
VERTEX
  8
PLAN_1
  6
CONTINUOUS
 10
-0.605898
 20
1.292465
  0
SEQEND
  8
0
  0
POLYLINE
  8
PLAN_1
  6
CONTINUOUS
 66
     1
 40
0.008543
 41
0.008543
  0
VERTEX
  8
PLAN_1
  6
CONTINUOUS
 10
-1.629268
 20
1.292016
  0
VERTEX
  8
PLAN_1
  6
CONTINUOUS
 10
-1.628815
 20
1.371185
  0
VERTEX
  8
PLAN_1
  6
CONTINUOUS
 10
-1.668402
 20
1.371185
  0
SEQEND
  8
0
  0
POLYLINE
  8
PLAN_1
  6
CONTINUOUS
 66
     1
 40
0.006744
 41
0.006744
  0
VERTEX
  8
PLAN_1
  6
CONTINUOUS
 10
-1.451583
 20
1.665374
  0
VERTEX
  8
PLAN_1
  6
CONTINUOUS
 10
-1.451583
 20
1.605996
  0
VERTEX
  8
PLAN_1
  6
CONTINUOUS
 10
-1.667953
 20
1.605996
  0
VERTEX
  8
PLAN_1
  6
CONTINUOUS
 10
-1.667953
 20
1.665374
  0
VERTEX
  8
PLAN_1
  6
CONTINUOUS
 10
-1.580236
 20
1.664925
  0
VERTEX
  8
PLAN_1
  6
CONTINUOUS
 10
-1.580236
 20
1.634787
  0
VERTEX
  8
PLAN_1
  6
CONTINUOUS
 10
-1.539299
 20
1.634787
  0
VERTEX
  8
PLAN_1
  6
CONTINUOUS
 10
-1.539299
 20
1.664925
  0
VERTEX
  8
PLAN_1
  6
CONTINUOUS
 10
-1.451583
 20
1.665374
  0
SEQEND
  8
0
  0
POLYLINE
  8
PLAN_1
  6
CONTINUOUS
 66
     1
 40
0.006744
 41
0.006744
  0
VERTEX
  8
PLAN_1
  6
CONTINUOUS
 10
-0.606350
 20
1.665374
  0
VERTEX
  8
PLAN_1
  6
CONTINUOUS
 10
-0.606350
 20
1.605996
  0
VERTEX
  8
PLAN_1
  6
CONTINUOUS
 10
-0.822717
 20
1.605996
  0
VERTEX
  8
PLAN_1
  6
CONTINUOUS
 10
-0.822717
 20
1.665374
  0
VERTEX
  8
PLAN_1
  6
CONTINUOUS
 10
-0.735000
 20
1.664925
  0
VERTEX
  8
PLAN_1
  6
CONTINUOUS
 10
-0.735000
 20
1.634787
  0
VERTEX
  8
PLAN_1
  6
CONTINUOUS
 10
-0.693618
 20
1.634787
  0
VERTEX
  8
PLAN_1
  6
CONTINUOUS
 10
-0.693618
 20
1.664925
  0
VERTEX
  8
PLAN_1
  6
CONTINUOUS
 10
-0.606350
 20
1.665374
  0
SEQEND
  8
0
  0
POLYLINE
  8
PLAN_1
  6
CONTINUOUS
 66
     1
 40
0.008543
 41
0.008543
  0
VERTEX
  8
PLAN_1
  6
CONTINUOUS
 10
-0.605898
 20
1.605996
  0
VERTEX
  8
PLAN_1
  6
CONTINUOUS
 10
-1.668402
 20
1.605996
  0
SEQEND
  8
0
  0
POLYLINE
  8
PLAN_1
  6
CONTINUOUS
 66
     1
 40
0.008543
 41
0.008543
  0
VERTEX
  8
PLAN_1
  6
CONTINUOUS
 10
-1.452480
 20
2.393654
  0
VERTEX
  8
PLAN_1
  6
CONTINUOUS
 10
-1.452480
 20
1.665823
  0
SEQEND
  8
0
  0
POLYLINE
  8
PLAN_1
  6
CONTINUOUS
 66
     1
 40
0.008543
 41
0.008543
  0
VERTEX
  8
PLAN_1
  6
CONTINUOUS
 10
-0.822268
 20
2.393654
  0
VERTEX
  8
PLAN_1
  6
CONTINUOUS
 10
-0.822268
 20
1.665823
  0
SEQEND
  8
0
  0
POLYLINE
  8
PLAN_1
  6
CONTINUOUS
 66
     1
 40
0.008543
 41
0.008543
  0
VERTEX
  8
PLAN_1
  6
CONTINUOUS
 10
-1.186181
 20
1.910984
  0
VERTEX
  8
PLAN_1
  6
CONTINUOUS
 10
-1.186630
 20
1.789528
  0
SEQEND
  8
0
  0
POLYLINE
  8
PLAN_1
  6
CONTINUOUS
 66
     1
 40
0.008543
 41
0.008543
  0
VERTEX
  8
PLAN_1
  6
CONTINUOUS
 10
-1.186630
 20
1.789528
  0
VERTEX
  8
PLAN_1
  6
CONTINUOUS
 10
-1.199228
 20
1.791776
  0
VERTEX
  8
PLAN_1
  6
CONTINUOUS
 10
-1.211374
 20
1.794476
  0
VERTEX
  8
PLAN_1
  6
CONTINUOUS
 10
-1.223520
 20
1.797626
  0
VERTEX
  8
PLAN_1
  6
CONTINUOUS
 10
-1.235213
 20
1.801224
  0
VERTEX
  8
PLAN_1
  6
CONTINUOUS
 10
-1.246909
 20
1.805720
  0
VERTEX
  8
PLAN_1
  6
CONTINUOUS
 10
-1.258606
 20
1.810220
  0
VERTEX
  8
PLAN_1
  6
CONTINUOUS
 10
-1.269850
 20
1.815169
  0
VERTEX
  8
PLAN_1
  6
CONTINUOUS
 10
-1.281094
 20
1.820567
  0
VERTEX
  8
PLAN_1
  6
CONTINUOUS
 10
-1.291894
 20
1.826413
  0
VERTEX
  8
PLAN_1
  6
CONTINUOUS
 10
-1.302240
 20
1.833161
  0
VERTEX
  8
PLAN_1
  6
CONTINUOUS
 10
-1.312583
 20
1.839461
  0
VERTEX
  8
PLAN_1
  6
CONTINUOUS
 10
-1.322480
 20
1.846657
  0
VERTEX
  8
PLAN_1
  6
CONTINUOUS
 10
-1.332378
 20
1.854303
  0
VERTEX
  8
PLAN_1
  6
CONTINUOUS
 10
-1.341374
 20
1.861953
  0
VERTEX
  8
PLAN_1
  6
CONTINUOUS
 10
-1.350819
 20
1.870496
  0
VERTEX
  8
PLAN_1
  6
CONTINUOUS
 10
-1.359366
 20
1.879043
  0
VERTEX
  8
PLAN_1
  6
CONTINUOUS
 10
-1.367913
 20
1.887591
  0
VERTEX
  8
PLAN_1
  6
CONTINUOUS
 10
-1.376012
 20
1.897039
  0
VERTEX
  8
PLAN_1
  6
CONTINUOUS
 10
-1.383657
 20
1.906484
  0
VERTEX
  8
PLAN_1
  6
CONTINUOUS
 10
-1.391303
 20
1.916382
  0
VERTEX
  8
PLAN_1
  6
CONTINUOUS
 10
-1.398051
 20
1.926276
  0
VERTEX
  8
PLAN_1
  6
CONTINUOUS
 10
-1.404799
 20
1.936622
  0
VERTEX
  8
PLAN_1
  6
CONTINUOUS
 10
-1.411098
 20
1.947417
  0
VERTEX
  8
PLAN_1
  6
CONTINUOUS
 10
-1.416945
 20
1.958217
  0
VERTEX
  8
PLAN_1
  6
CONTINUOUS
 10
-1.422343
 20
1.969461
  0
VERTEX
  8
PLAN_1
  6
CONTINUOUS
 10
-1.427291
 20
1.980705
  0
VERTEX
  8
PLAN_1
  6
CONTINUOUS
 10
-1.431791
 20
1.992402
  0
VERTEX
  8
PLAN_1
  6
CONTINUOUS
 10
-1.435839
 20
2.004098
  0
VERTEX
  8
PLAN_1
  6
CONTINUOUS
 10
-1.439886
 20
2.015791
  0
VERTEX
  8
PLAN_1
  6
CONTINUOUS
 10
-1.443035
 20
2.027937
  0
VERTEX
  8
PLAN_1
  6
CONTINUOUS
 10
-1.445736
 20
2.040535
  0
VERTEX
  8
PLAN_1
  6
CONTINUOUS
 10
-1.447984
 20
2.052681
  0
SEQEND
  8
0
  0
POLYLINE
  8
PLAN_1
  6
CONTINUOUS
 66
     1
 40
0.008543
 41
0.008543
  0
VERTEX
  8
PLAN_1
  6
CONTINUOUS
 10
-1.447984
 20
2.052681
  0
VERTEX
  8
PLAN_1
  6
CONTINUOUS
 10
-1.327429
 20
2.051331
  0
SEQEND
  8
0
  0
POLYLINE
  8
PLAN_1
  6
CONTINUOUS
 66
     1
 40
0.008543
 41
0.008543
  0
VERTEX
  8
PLAN_1
  6
CONTINUOUS
 10
-0.946870
 20
2.051331
  0
VERTEX
  8
PLAN_1
  6
CONTINUOUS
 10
-0.825866
 20
2.050882
  0
SEQEND
  8
0
  0
POLYLINE
  8
PLAN_1
  6
CONTINUOUS
 66
     1
 40
0.008543
 41
0.008543
  0
VERTEX
  8
PLAN_1
  6
CONTINUOUS
 10
-0.825866
 20
2.050882
  0
VERTEX
  8
PLAN_1
  6
CONTINUOUS
 10
-0.828114
 20
2.038283
  0
VERTEX
  8
PLAN_1
  6
CONTINUOUS
 10
-0.831264
 20
2.026138
  0
VERTEX
  8
PLAN_1
  6
CONTINUOUS
 10
-0.834413
 20
2.013992
  0
VERTEX
  8
PLAN_1
  6
CONTINUOUS
 10
-0.838012
 20
2.001850
  0
VERTEX
  8
PLAN_1
  6
CONTINUOUS
 10
-0.842059
 20
1.990154
  0
VERTEX
  8
PLAN_1
  6
CONTINUOUS
 10
-0.847008
 20
1.978906
  0
VERTEX
  8
PLAN_1
  6
CONTINUOUS
 10
-0.851957
 20
1.967661
  0
VERTEX
  8
PLAN_1
  6
CONTINUOUS
 10
-0.857354
 20
1.956417
  0
VERTEX
  8
PLAN_1
  6
CONTINUOUS
 10
-0.863201
 20
1.945618
  0
VERTEX
  8
PLAN_1
  6
CONTINUOUS
 10
-0.869500
 20
1.935272
  0
VERTEX
  8
PLAN_1
  6
CONTINUOUS
 10
-0.876248
 20
1.924929
  0
VERTEX
  8
PLAN_1
  6
CONTINUOUS
 10
-0.883445
 20
1.915031
  0
VERTEX
  8
PLAN_1
  6
CONTINUOUS
 10
-0.891091
 20
1.905134
  0
VERTEX
  8
PLAN_1
  6
CONTINUOUS
 10
-0.899189
 20
1.895689
  0
VERTEX
  8
PLAN_1
  6
CONTINUOUS
 10
-0.907287
 20
1.886693
  0
VERTEX
  8
PLAN_1
  6
CONTINUOUS
 10
-0.915835
 20
1.877697
  0
VERTEX
  8
PLAN_1
  6
CONTINUOUS
 10
-0.924831
 20
1.869598
  0
VERTEX
  8
PLAN_1
  6
CONTINUOUS
 10
-0.933827
 20
1.861500
  0
VERTEX
  8
PLAN_1
  6
CONTINUOUS
 10
-0.943272
 20
1.853406
  0
VERTEX
  8
PLAN_1
  6
CONTINUOUS
 10
-0.953169
 20
1.846209
  0
VERTEX
  8
PLAN_1
  6
CONTINUOUS
 10
-0.963516
 20
1.839008
  0
VERTEX
  8
PLAN_1
  6
CONTINUOUS
 10
-0.973862
 20
1.832713
  0
VERTEX
  8
PLAN_1
  6
CONTINUOUS
 10
-0.984657
 20
1.826413
  0
VERTEX
  8
PLAN_1
  6
CONTINUOUS
 10
-0.995453
 20
1.820567
  0
VERTEX
  8
PLAN_1
  6
CONTINUOUS
 10
-1.006701
 20
1.815169
  0
VERTEX
  8
PLAN_1
  6
CONTINUOUS
 10
-1.017945
 20
1.809772
  0
VERTEX
  8
PLAN_1
  6
CONTINUOUS
 10
-1.029642
 20
1.805272
  0
VERTEX
  8
PLAN_1
  6
CONTINUOUS
 10
-1.041335
 20
1.801224
  0
VERTEX
  8
PLAN_1
  6
CONTINUOUS
 10
-1.053480
 20
1.797626
  0
VERTEX
  8
PLAN_1
  6
CONTINUOUS
 10
-1.065626
 20
1.794476
  0
VERTEX
  8
PLAN_1
  6
CONTINUOUS
 10
-1.077772
 20
1.791776
  0
VERTEX
  8
PLAN_1
  6
CONTINUOUS
 10
-1.090366
 20
1.789528
  0
SEQEND
  8
0
  0
POLYLINE
  8
PLAN_1
  6
CONTINUOUS
 66
     1
 40
0.008543
 41
0.008543
  0
VERTEX
  8
PLAN_1
  6
CONTINUOUS
 10
-1.090366
 20
1.789528
  0
VERTEX
  8
PLAN_1
  6
CONTINUOUS
 10
-1.087669
 20
1.910083
  0
SEQEND
  8
0
  0
POLYLINE
  8
PLAN_1
  6
CONTINUOUS
 66
     1
 40
0.008543
 41
0.008543
  0
VERTEX
  8
PLAN_1
  6
CONTINUOUS
 10
-1.328780
 20
2.149843
  0
VERTEX
  8
PLAN_1
  6
CONTINUOUS
 10
-1.447984
 20
2.149843
  0
SEQEND
  8
0
  0
POLYLINE
  8
PLAN_1
  6
CONTINUOUS
 66
     1
 40
0.008543
 41
0.008543
  0
VERTEX
  8
PLAN_1
  6
CONTINUOUS
 10
-1.447984
 20
2.149843
  0
VERTEX
  8
PLAN_1
  6
CONTINUOUS
 10
-1.445283
 20
2.164689
  0
VERTEX
  8
PLAN_1
  6
CONTINUOUS
 10
-1.442138
 20
2.179083
  0
VERTEX
  8
PLAN_1
  6
CONTINUOUS
 10
-1.438087
 20
2.193476
  0
VERTEX
  8
PLAN_1
  6
CONTINUOUS
 10
-1.433591
 20
2.207421
  0
VERTEX
  8
PLAN_1
  6
CONTINUOUS
 10
-1.428193
 20
2.220917
  0
VERTEX
  8
PLAN_1
  6
CONTINUOUS
 10
-1.422343
 20
2.233961
  0
VERTEX
  8
PLAN_1
  6
CONTINUOUS
 10
-1.416047
 20
2.247008
  0
VERTEX
  8
PLAN_1
  6
CONTINUOUS
 10
-1.408850
 20
2.259602
  0
VERTEX
  8
PLAN_1
  6
CONTINUOUS
 10
-1.401201
 20
2.271748
  0
VERTEX
  8
PLAN_1
  6
CONTINUOUS
 10
-1.393106
 20
2.283894
  0
VERTEX
  8
PLAN_1
  6
CONTINUOUS
 10
-1.384559
 20
2.295138
  0
VERTEX
  8
PLAN_1
  6
CONTINUOUS
 10
-1.375559
 20
2.306386
  0
VERTEX
  8
PLAN_1
  6
CONTINUOUS
 10
-1.365665
 20
2.317181
  0
VERTEX
  8
PLAN_1
  6
CONTINUOUS
 10
-1.355768
 20
2.327075
  0
VERTEX
  8
PLAN_1
  6
CONTINUOUS
 10
-1.344972
 20
2.336972
  0
VERTEX
  8
PLAN_1
  6
CONTINUOUS
 10
-1.334177
 20
2.345969
  0
SEQEND
  8
0
  0
POLYLINE
  8
PLAN_1
  6
CONTINUOUS
 66
     1
 40
0.008543
 41
0.008543
  0
VERTEX
  8
PLAN_1
  6
CONTINUOUS
 10
-1.334177
 20
2.345969
  0
VERTEX
  8
PLAN_1
  6
CONTINUOUS
 10
-1.333728
 20
3.084594
  0
SEQEND
  8
0
  0
POLYLINE
  8
PLAN_1
  6
CONTINUOUS
 66
     1
 40
0.008543
 41
0.008543
  0
VERTEX
  8
PLAN_1
  6
CONTINUOUS
 10
-1.333728
 20
3.084594
  0
VERTEX
  8
PLAN_1
  6
CONTINUOUS
 10
-1.333728
 20
3.094941
  0
VERTEX
  8
PLAN_1
  6
CONTINUOUS
 10
-1.332827
 20
3.104835
  0
VERTEX
  8
PLAN_1
  6
CONTINUOUS
 10
-1.331476
 20
3.114732
  0
VERTEX
  8
PLAN_1
  6
CONTINUOUS
 10
-1.330126
 20
3.124177
  0
VERTEX
  8
PLAN_1
  6
CONTINUOUS
 10
-1.327878
 20
3.133626
  0
VERTEX
  8
PLAN_1
  6
CONTINUOUS
 10
-1.325181
 20
3.143071
  0
VERTEX
  8
PLAN_1
  6
CONTINUOUS
 10
-1.322031
 20
3.152520
  0
VERTEX
  8
PLAN_1
  6
CONTINUOUS
 10
-1.318433
 20
3.161063
  0
VERTEX
  8
PLAN_1
  6
CONTINUOUS
 10
-1.314382
 20
3.170063
  0
VERTEX
  8
PLAN_1
  6
CONTINUOUS
 10
-1.310335
 20
3.178606
  0
VERTEX
  8
PLAN_1
  6
CONTINUOUS
 10
-1.305386
 20
3.186705
  0
VERTEX
  8
PLAN_1
  6
CONTINUOUS
 10
-1.300441
 20
3.194803
  0
VERTEX
  8
PLAN_1
  6
CONTINUOUS
 10
-1.294591
 20
3.202449
  0
VERTEX
  8
PLAN_1
  6
CONTINUOUS
 10
-1.288744
 20
3.209646
  0
VERTEX
  8
PLAN_1
  6
CONTINUOUS
 10
-1.282894
 20
3.216843
  0
VERTEX
  8
PLAN_1
  6
CONTINUOUS
 10
-1.276150
 20
3.224039
  0
VERTEX
  8
PLAN_1
  6
CONTINUOUS
 10
-1.269402
 20
3.230339
  0
VERTEX
  8
PLAN_1
  6
CONTINUOUS
 10
-1.262205
 20
3.236638
  0
VERTEX
  8
PLAN_1
  6
CONTINUOUS
 10
-1.255008
 20
3.242484
  0
VERTEX
  8
PLAN_1
  6
CONTINUOUS
 10
-1.247358
 20
3.247882
  0
VERTEX
  8
PLAN_1
  6
CONTINUOUS
 10
-1.239264
 20
3.252831
  0
VERTEX
  8
PLAN_1
  6
CONTINUOUS
 10
-1.230717
 20
3.257780
  0
VERTEX
  8
PLAN_1
  6
CONTINUOUS
 10
-1.222618
 20
3.261827
  0
VERTEX
  8
PLAN_1
  6
CONTINUOUS
 10
-1.213622
 20
3.265874
  0
VERTEX
  8
PLAN_1
  6
CONTINUOUS
 10
-1.204626
 20
3.269472
  0
VERTEX
  8
PLAN_1
  6
CONTINUOUS
 10
-1.195630
 20
3.272622
  0
VERTEX
  8
PLAN_1
  6
CONTINUOUS
 10
-1.186181
 20
3.275323
  0
VERTEX
  8
PLAN_1
  6
CONTINUOUS
 10
-1.176736
 20
3.277571
  0
VERTEX
  8
PLAN_1
  6
CONTINUOUS
 10
-1.167287
 20
3.279370
  0
VERTEX
  8
PLAN_1
  6
CONTINUOUS
 10
-1.157394
 20
3.280272
  0
VERTEX
  8
PLAN_1
  6
CONTINUOUS
 10
-1.147047
 20
3.281169
  0
VERTEX
  8
PLAN_1
  6
CONTINUOUS
 10
-1.137150
 20
3.281618
  0
VERTEX
  8
PLAN_1
  6
CONTINUOUS
 10
-1.126803
 20
3.281169
  0
VERTEX
  8
PLAN_1
  6
CONTINUOUS
 10
-1.116909
 20
3.280272
  0
VERTEX
  8
PLAN_1
  6
CONTINUOUS
 10
-1.107012
 20
3.279370
  0
VERTEX
  8
PLAN_1
  6
CONTINUOUS
 10
-1.097567
 20
3.277571
  0
VERTEX
  8
PLAN_1
  6
CONTINUOUS
 10
-1.088118
 20
3.275323
  0
VERTEX
  8
PLAN_1
  6
CONTINUOUS
 10
-1.078673
 20
3.272622
  0
VERTEX
  8
PLAN_1
  6
CONTINUOUS
 10
-1.069224
 20
3.269472
  0
VERTEX
  8
PLAN_1
  6
CONTINUOUS
 10
-1.060677
 20
3.265874
  0
VERTEX
  8
PLAN_1
  6
CONTINUOUS
 10
-1.051681
 20
3.261827
  0
VERTEX
  8
PLAN_1
  6
CONTINUOUS
 10
-1.043134
 20
3.257780
  0
VERTEX
  8
PLAN_1
  6
CONTINUOUS
 10
-1.035039
 20
3.252831
  0
VERTEX
  8
PLAN_1
  6
CONTINUOUS
 10
-1.026941
 20
3.247882
  0
VERTEX
  8
PLAN_1
  6
CONTINUOUS
 10
-1.019295
 20
3.242484
  0
VERTEX
  8
PLAN_1
  6
CONTINUOUS
 10
-1.012098
 20
3.236638
  0
VERTEX
  8
PLAN_1
  6
CONTINUOUS
 10
-1.004902
 20
3.230339
  0
VERTEX
  8
PLAN_1
  6
CONTINUOUS
 10
-0.997701
 20
3.224039
  0
VERTEX
  8
PLAN_1
  6
CONTINUOUS
 10
-0.991406
 20
3.216843
  0
VERTEX
  8
PLAN_1
  6
CONTINUOUS
 10
-0.985106
 20
3.209646
  0
VERTEX
  8
PLAN_1
  6
CONTINUOUS
 10
-0.979260
 20
3.202449
  0
VERTEX
  8
PLAN_1
  6
CONTINUOUS
 10
-0.973862
 20
3.194803
  0
VERTEX
  8
PLAN_1
  6
CONTINUOUS
 10
-0.968913
 20
3.186705
  0
VERTEX
  8
PLAN_1
  6
CONTINUOUS
 10
-0.963965
 20
3.178606
  0
VERTEX
  8
PLAN_1
  6
CONTINUOUS
 10
-0.959917
 20
3.170063
  0
VERTEX
  8
PLAN_1
  6
CONTINUOUS
 10
-0.955866
 20
3.161063
  0
VERTEX
  8
PLAN_1
  6
CONTINUOUS
 10
-0.952268
 20
3.152520
  0
VERTEX
  8
PLAN_1
  6
CONTINUOUS
 10
-0.949122
 20
3.143071
  0
VERTEX
  8
PLAN_1
  6
CONTINUOUS
 10
-0.946421
 20
3.133626
  0
VERTEX
  8
PLAN_1
  6
CONTINUOUS
 10
-0.944173
 20
3.124177
  0
VERTEX
  8
PLAN_1
  6
CONTINUOUS
 10
-0.942374
 20
3.114732
  0
VERTEX
  8
PLAN_1
  6
CONTINUOUS
 10
-0.941472
 20
3.104835
  0
VERTEX
  8
PLAN_1
  6
CONTINUOUS
 10
-0.940575
 20
3.094941
  0
VERTEX
  8
PLAN_1
  6
CONTINUOUS
 10
-0.940122
 20
3.084594
  0
SEQEND
  8
0
  0
POLYLINE
  8
PLAN_1
  6
CONTINUOUS
 66
     1
 40
0.008543
 41
0.008543
  0
VERTEX
  8
PLAN_1
  6
CONTINUOUS
 10
-0.940122
 20
3.084594
  0
VERTEX
  8
PLAN_1
  6
CONTINUOUS
 10
-0.942823
 20
2.345969
  0
SEQEND
  8
0
  0
POLYLINE
  8
PLAN_1
  6
CONTINUOUS
 66
     1
 40
0.008543
 41
0.008543
  0
VERTEX
  8
PLAN_1
  6
CONTINUOUS
 10
-0.942823
 20
2.345969
  0
VERTEX
  8
PLAN_1
  6
CONTINUOUS
 10
-0.932028
 20
2.336972
  0
VERTEX
  8
PLAN_1
  6
CONTINUOUS
 10
-0.921232
 20
2.327075
  0
VERTEX
  8
PLAN_1
  6
CONTINUOUS
 10
-0.910886
 20
2.317181
  0
VERTEX
  8
PLAN_1
  6
CONTINUOUS
 10
-0.900988
 20
2.306386
  0
VERTEX
  8
PLAN_1
  6
CONTINUOUS
 10
-0.891992
 20
2.295138
  0
VERTEX
  8
PLAN_1
  6
CONTINUOUS
 10
-0.882996
 20
2.283894
  0
VERTEX
  8
PLAN_1
  6
CONTINUOUS
 10
-0.874449
 20
2.271748
  0
VERTEX
  8
PLAN_1
  6
CONTINUOUS
 10
-0.866803
 20
2.259602
  0
VERTEX
  8
PLAN_1
  6
CONTINUOUS
 10
-0.859602
 20
2.247008
  0
VERTEX
  8
PLAN_1
  6
CONTINUOUS
 10
-0.852858
 20
2.233961
  0
VERTEX
  8
PLAN_1
  6
CONTINUOUS
 10
-0.846559
 20
2.220917
  0
VERTEX
  8
PLAN_1
  6
CONTINUOUS
 10
-0.841161
 20
2.207421
  0
VERTEX
  8
PLAN_1
  6
CONTINUOUS
 10
-0.836213
 20
2.193476
  0
VERTEX
  8
PLAN_1
  6
CONTINUOUS
 10
-0.832165
 20
2.179083
  0
VERTEX
  8
PLAN_1
  6
CONTINUOUS
 10
-0.828567
 20
2.164689
  0
VERTEX
  8
PLAN_1
  6
CONTINUOUS
 10
-0.825866
 20
2.149843
  0
SEQEND
  8
0
  0
POLYLINE
  8
PLAN_1
  6
CONTINUOUS
 66
     1
 40
0.008543
 41
0.008543
  0
VERTEX
  8
PLAN_1
  6
CONTINUOUS
 10
-0.825866
 20
2.149843
  0
VERTEX
  8
PLAN_1
  6
CONTINUOUS
 10
-0.827217
 20
2.149843
  0
VERTEX
  8
PLAN_1
  6
CONTINUOUS
 10
-0.945972
 20
2.149843
  0
SEQEND
  8
0
  0
POLYLINE
  8
PLAN_1
  6
CONTINUOUS
 66
     1
 40
0.008543
 41
0.008543
  0
VERTEX
  8
PLAN_1
  6
CONTINUOUS
 10
-1.087669
 20
2.292441
  0
VERTEX
  8
PLAN_1
  6
CONTINUOUS
 10
-1.087669
 20
2.410295
  0
VERTEX
  8
PLAN_1
  6
CONTINUOUS
 10
-1.186181
 20
2.410295
  0
VERTEX
  8
PLAN_1
  6
CONTINUOUS
 10
-1.186181
 20
2.292441
  0
SEQEND
  8
0
  0
POLYLINE
  8
PLAN_1
  6
CONTINUOUS
 66
     1
 40
0.008543
 41
0.008543
  0
VERTEX
  8
PLAN_1
  6
CONTINUOUS
 10
-0.940122
 20
2.888917
  0
VERTEX
  8
PLAN_1
  6
CONTINUOUS
 10
-1.333276
 20
2.888917
  0
SEQEND
  8
0
  0
POLYLINE
  8
PLAN_1
  6
CONTINUOUS
 66
     1
 40
0.008543
 41
0.008543
  0
VERTEX
  8
PLAN_1
  6
CONTINUOUS
 10
-0.940122
 20
2.534449
  0
VERTEX
  8
PLAN_1
  6
CONTINUOUS
 10
-1.333276
 20
2.534449
  0
SEQEND
  8
0
  0
POLYLINE
  8
PLAN_1
  6
CONTINUOUS
 66
     1
 40
0.006744
 41
0.006744
  0
VERTEX
  8
PLAN_1
  6
CONTINUOUS
 10
-1.137150
 20
3.025665
  0
VERTEX
  8
PLAN_1
  6
CONTINUOUS
 10
-1.130854
 20
3.026114
  0
VERTEX
  8
PLAN_1
  6
CONTINUOUS
 10
-1.125004
 20
3.027016
  0
VERTEX
  8
PLAN_1
  6
CONTINUOUS
 10
-1.119606
 20
3.028366
  0
VERTEX
  8
PLAN_1
  6
CONTINUOUS
 10
-1.114209
 20
3.030165
  0
VERTEX
  8
PLAN_1
  6
CONTINUOUS
 10
-1.108811
 20
3.032862
  0
VERTEX
  8
PLAN_1
  6
CONTINUOUS
 10
-1.103862
 20
3.035563
  0
VERTEX
  8
PLAN_1
  6
CONTINUOUS
 10
-1.099366
 20
3.039161
  0
VERTEX
  8
PLAN_1
  6
CONTINUOUS
 10
-1.095315
 20
3.042760
  0
VERTEX
  8
PLAN_1
  6
CONTINUOUS
 10
-1.091717
 20
3.047256
  0
VERTEX
  8
PLAN_1
  6
CONTINUOUS
 10
-1.088118
 20
3.051756
  0
VERTEX
  8
PLAN_1
  6
CONTINUOUS
 10
-1.084969
 20
3.056705
  0
VERTEX
  8
PLAN_1
  6
CONTINUOUS
 10
-1.082720
 20
3.061654
  0
VERTEX
  8
PLAN_1
  6
CONTINUOUS
 10
-1.080921
 20
3.067051
  0
VERTEX
  8
PLAN_1
  6
CONTINUOUS
 10
-1.079122
 20
3.072898
  0
VERTEX
  8
PLAN_1
  6
CONTINUOUS
 10
-1.078220
 20
3.078744
  0
VERTEX
  8
PLAN_1
  6
CONTINUOUS
 10
-1.078220
 20
3.084594
  0
VERTEX
  8
PLAN_1
  6
CONTINUOUS
 10
-1.078220
 20
3.090890
  0
VERTEX
  8
PLAN_1
  6
CONTINUOUS
 10
-1.079122
 20
3.096740
  0
VERTEX
  8
PLAN_1
  6
CONTINUOUS
 10
-1.080921
 20
3.102138
  0
VERTEX
  8
PLAN_1
  6
CONTINUOUS
 10
-1.082720
 20
3.107535
  0
VERTEX
  8
PLAN_1
  6
CONTINUOUS
 10
-1.084969
 20
3.112933
  0
VERTEX
  8
PLAN_1
  6
CONTINUOUS
 10
-1.088118
 20
3.117882
  0
VERTEX
  8
PLAN_1
  6
CONTINUOUS
 10
-1.091717
 20
3.122378
  0
VERTEX
  8
PLAN_1
  6
CONTINUOUS
 10
-1.095315
 20
3.126429
  0
VERTEX
  8
PLAN_1
  6
CONTINUOUS
 10
-1.099366
 20
3.130028
  0
VERTEX
  8
PLAN_1
  6
CONTINUOUS
 10
-1.103862
 20
3.133626
  0
VERTEX
  8
PLAN_1
  6
CONTINUOUS
 10
-1.108811
 20
3.136776
  0
VERTEX
  8
PLAN_1
  6
CONTINUOUS
 10
-1.114209
 20
3.139024
  0
VERTEX
  8
PLAN_1
  6
CONTINUOUS
 10
-1.119606
 20
3.140823
  0
VERTEX
  8
PLAN_1
  6
CONTINUOUS
 10
-1.125004
 20
3.142622
  0
VERTEX
  8
PLAN_1
  6
CONTINUOUS
 10
-1.130854
 20
3.143520
  0
VERTEX
  8
PLAN_1
  6
CONTINUOUS
 10
-1.137150
 20
3.143520
  0
VERTEX
  8
PLAN_1
  6
CONTINUOUS
 10
-1.142996
 20
3.143520
  0
VERTEX
  8
PLAN_1
  6
CONTINUOUS
 10
-1.148846
 20
3.142622
  0
VERTEX
  8
PLAN_1
  6
CONTINUOUS
 10
-1.154693
 20
3.140823
  0
VERTEX
  8
PLAN_1
  6
CONTINUOUS
 10
-1.160091
 20
3.139024
  0
VERTEX
  8
PLAN_1
  6
CONTINUOUS
 10
-1.165039
 20
3.136776
  0
VERTEX
  8
PLAN_1
  6
CONTINUOUS
 10
-1.169988
 20
3.133626
  0
VERTEX
  8
PLAN_1
  6
CONTINUOUS
 10
-1.174484
 20
3.130028
  0
VERTEX
  8
PLAN_1
  6
CONTINUOUS
 10
-1.178984
 20
3.126429
  0
VERTEX
  8
PLAN_1
  6
CONTINUOUS
 10
-1.182583
 20
3.122378
  0
VERTEX
  8
PLAN_1
  6
CONTINUOUS
 10
-1.186181
 20
3.117882
  0
VERTEX
  8
PLAN_1
  6
CONTINUOUS
 10
-1.188882
 20
3.112933
  0
VERTEX
  8
PLAN_1
  6
CONTINUOUS
 10
-1.191579
 20
3.107535
  0
VERTEX
  8
PLAN_1
  6
CONTINUOUS
 10
-1.193378
 20
3.102138
  0
VERTEX
  8
PLAN_1
  6
CONTINUOUS
 10
-1.194728
 20
3.096740
  0
VERTEX
  8
PLAN_1
  6
CONTINUOUS
 10
-1.195630
 20
3.090890
  0
VERTEX
  8
PLAN_1
  6
CONTINUOUS
 10
-1.196079
 20
3.084594
  0
VERTEX
  8
PLAN_1
  6
CONTINUOUS
 10
-1.195630
 20
3.078744
  0
VERTEX
  8
PLAN_1
  6
CONTINUOUS
 10
-1.194728
 20
3.072898
  0
VERTEX
  8
PLAN_1
  6
CONTINUOUS
 10
-1.193378
 20
3.067051
  0
VERTEX
  8
PLAN_1
  6
CONTINUOUS
 10
-1.191579
 20
3.061654
  0
VERTEX
  8
PLAN_1
  6
CONTINUOUS
 10
-1.188882
 20
3.056705
  0
VERTEX
  8
PLAN_1
  6
CONTINUOUS
 10
-1.186181
 20
3.051756
  0
VERTEX
  8
PLAN_1
  6
CONTINUOUS
 10
-1.182583
 20
3.047256
  0
VERTEX
  8
PLAN_1
  6
CONTINUOUS
 10
-1.178984
 20
3.042760
  0
VERTEX
  8
PLAN_1
  6
CONTINUOUS
 10
-1.174484
 20
3.039161
  0
VERTEX
  8
PLAN_1
  6
CONTINUOUS
 10
-1.169988
 20
3.035563
  0
VERTEX
  8
PLAN_1
  6
CONTINUOUS
 10
-1.165039
 20
3.032862
  0
VERTEX
  8
PLAN_1
  6
CONTINUOUS
 10
-1.160091
 20
3.030165
  0
VERTEX
  8
PLAN_1
  6
CONTINUOUS
 10
-1.154693
 20
3.028366
  0
VERTEX
  8
PLAN_1
  6
CONTINUOUS
 10
-1.148846
 20
3.027016
  0
VERTEX
  8
PLAN_1
  6
CONTINUOUS
 10
-1.142996
 20
3.026114
  0
VERTEX
  8
PLAN_1
  6
CONTINUOUS
 10
-1.137150
 20
3.025665
  0
SEQEND
  8
0
  0
POLYLINE
  8
PLAN_1
  6
CONTINUOUS
 66
     1
 40
0.006744
 41
0.006744
  0
VERTEX
  8
PLAN_1
  6
CONTINUOUS
 10
-1.415594
 20
2.149843
  0
VERTEX
  8
PLAN_1
  6
CONTINUOUS
 10
-1.415594
 20
2.050882
  0
SEQEND
  8
0
  0
POLYLINE
  8
PLAN_1
  6
CONTINUOUS
 66
     1
 40
0.006744
 41
0.006744
  0
VERTEX
  8
PLAN_1
  6
CONTINUOUS
 10
-0.858705
 20
2.149843
  0
VERTEX
  8
PLAN_1
  6
CONTINUOUS
 10
-0.858705
 20
2.050882
  0
SEQEND
  8
0
  0
POLYLINE
  8
PLAN_1
  6
CONTINUOUS
 66
     1
 40
0.008543
 41
0.008543
  0
VERTEX
  8
PLAN_1
  6
CONTINUOUS
 10
-1.186630
 20
1.821016
  0
VERTEX
  8
PLAN_1
  6
CONTINUOUS
 10
-1.093067
 20
1.821016
  0
SEQEND
  8
0
  0
POLYLINE
  8
PLAN_1
  6
CONTINUOUS
 66
     1
 40
0.008543
 41
0.008543
  0
VERTEX
  8
PLAN_1
  6
CONTINUOUS
 10
-1.137150
 20
1.903783
  0
VERTEX
  8
PLAN_1
  6
CONTINUOUS
 10
-1.126803
 20
1.903783
  0
VERTEX
  8
PLAN_1
  6
CONTINUOUS
 10
-1.116909
 20
1.904685
  0
VERTEX
  8
PLAN_1
  6
CONTINUOUS
 10
-1.107012
 20
1.906035
  0
VERTEX
  8
PLAN_1
  6
CONTINUOUS
 10
-1.097567
 20
1.907835
  0
VERTEX
  8
PLAN_1
  6
CONTINUOUS
 10
-1.088118
 20
1.909634
  0
VERTEX
  8
PLAN_1
  6
CONTINUOUS
 10
-1.078673
 20
1.912331
  0
VERTEX
  8
PLAN_1
  6
CONTINUOUS
 10
-1.069224
 20
1.915480
  0
VERTEX
  8
PLAN_1
  6
CONTINUOUS
 10
-1.060677
 20
1.919079
  0
VERTEX
  8
PLAN_1
  6
CONTINUOUS
 10
-1.051681
 20
1.923126
  0
VERTEX
  8
PLAN_1
  6
CONTINUOUS
 10
-1.043134
 20
1.927626
  0
VERTEX
  8
PLAN_1
  6
CONTINUOUS
 10
-1.035039
 20
1.932126
  0
VERTEX
  8
PLAN_1
  6
CONTINUOUS
 10
-1.026941
 20
1.937071
  0
VERTEX
  8
PLAN_1
  6
CONTINUOUS
 10
-1.019295
 20
1.942921
  0
VERTEX
  8
PLAN_1
  6
CONTINUOUS
 10
-1.012098
 20
1.948768
  0
VERTEX
  8
PLAN_1
  6
CONTINUOUS
 10
-1.004902
 20
1.954618
  0
VERTEX
  8
PLAN_1
  6
CONTINUOUS
 10
-0.997701
 20
1.961362
  0
VERTEX
  8
PLAN_1
  6
CONTINUOUS
 10
-0.991406
 20
1.968110
  0
VERTEX
  8
PLAN_1
  6
CONTINUOUS
 10
-0.985106
 20
1.975307
  0
VERTEX
  8
PLAN_1
  6
CONTINUOUS
 10
-0.979260
 20
1.982504
  0
VERTEX
  8
PLAN_1
  6
CONTINUOUS
 10
-0.973862
 20
1.990602
  0
VERTEX
  8
PLAN_1
  6
CONTINUOUS
 10
-0.968913
 20
1.998248
  0
VERTEX
  8
PLAN_1
  6
CONTINUOUS
 10
-0.963965
 20
2.006795
  0
VERTEX
  8
PLAN_1
  6
CONTINUOUS
 10
-0.959917
 20
2.015343
  0
VERTEX
  8
PLAN_1
  6
CONTINUOUS
 10
-0.955866
 20
2.023890
  0
VERTEX
  8
PLAN_1
  6
CONTINUOUS
 10
-0.952268
 20
2.032886
  0
VERTEX
  8
PLAN_1
  6
CONTINUOUS
 10
-0.949122
 20
2.041882
  0
VERTEX
  8
PLAN_1
  6
CONTINUOUS
 10
-0.946421
 20
2.051331
  0
VERTEX
  8
PLAN_1
  6
CONTINUOUS
 10
-0.944173
 20
2.060776
  0
VERTEX
  8
PLAN_1
  6
CONTINUOUS
 10
-0.942374
 20
2.070673
  0
VERTEX
  8
PLAN_1
  6
CONTINUOUS
 10
-0.941472
 20
2.080571
  0
VERTEX
  8
PLAN_1
  6
CONTINUOUS
 10
-0.940575
 20
2.090465
  0
VERTEX
  8
PLAN_1
  6
CONTINUOUS
 10
-0.940122
 20
2.100362
  0
VERTEX
  8
PLAN_1
  6
CONTINUOUS
 10
-0.940575
 20
2.110709
  0
VERTEX
  8
PLAN_1
  6
CONTINUOUS
 10
-0.941472
 20
2.120602
  0
VERTEX
  8
PLAN_1
  6
CONTINUOUS
 10
-0.942374
 20
2.130500
  0
VERTEX
  8
PLAN_1
  6
CONTINUOUS
 10
-0.944173
 20
2.139945
  0
VERTEX
  8
PLAN_1
  6
CONTINUOUS
 10
-0.946421
 20
2.149843
  0
VERTEX
  8
PLAN_1
  6
CONTINUOUS
 10
-0.949122
 20
2.158839
  0
VERTEX
  8
PLAN_1
  6
CONTINUOUS
 10
-0.952268
 20
2.168287
  0
VERTEX
  8
PLAN_1
  6
CONTINUOUS
 10
-0.955866
 20
2.177283
  0
VERTEX
  8
PLAN_1
  6
CONTINUOUS
 10
-0.959917
 20
2.185831
  0
VERTEX
  8
PLAN_1
  6
CONTINUOUS
 10
-0.963965
 20
2.194378
  0
VERTEX
  8
PLAN_1
  6
CONTINUOUS
 10
-0.968913
 20
2.202472
  0
VERTEX
  8
PLAN_1
  6
CONTINUOUS
 10
-0.973862
 20
2.210571
  0
VERTEX
  8
PLAN_1
  6
CONTINUOUS
 10
-0.979260
 20
2.218217
  0
VERTEX
  8
PLAN_1
  6
CONTINUOUS
 10
-0.985106
 20
2.225866
  0
VERTEX
  8
PLAN_1
  6
CONTINUOUS
 10
-0.991406
 20
2.232610
  0
VERTEX
  8
PLAN_1
  6
CONTINUOUS
 10
-0.997701
 20
2.239811
  0
VERTEX
  8
PLAN_1
  6
CONTINUOUS
 10
-1.004902
 20
2.246106
  0
VERTEX
  8
PLAN_1
  6
CONTINUOUS
 10
-1.012098
 20
2.252406
  0
VERTEX
  8
PLAN_1
  6
CONTINUOUS
 10
-1.019295
 20
2.258252
  0
VERTEX
  8
PLAN_1
  6
CONTINUOUS
 10
-1.026941
 20
2.263650
  0
VERTEX
  8
PLAN_1
  6
CONTINUOUS
 10
-1.035039
 20
2.268598
  0
VERTEX
  8
PLAN_1
  6
CONTINUOUS
 10
-1.043134
 20
2.273547
  0
VERTEX
  8
PLAN_1
  6
CONTINUOUS
 10
-1.051681
 20
2.278043
  0
VERTEX
  8
PLAN_1
  6
CONTINUOUS
 10
-1.060677
 20
2.281646
  0
VERTEX
  8
PLAN_1
  6
CONTINUOUS
 10
-1.069224
 20
2.285244
  0
VERTEX
  8
PLAN_1
  6
CONTINUOUS
 10
-1.078673
 20
2.288390
  0
VERTEX
  8
PLAN_1
  6
CONTINUOUS
 10
-1.088118
 20
2.291091
  0
VERTEX
  8
PLAN_1
  6
CONTINUOUS
 10
-1.097567
 20
2.293339
  0
VERTEX
  8
PLAN_1
  6
CONTINUOUS
 10
-1.107012
 20
2.295138
  0
VERTEX
  8
PLAN_1
  6
CONTINUOUS
 10
-1.116909
 20
2.296488
  0
VERTEX
  8
PLAN_1
  6
CONTINUOUS
 10
-1.126803
 20
2.296937
  0
VERTEX
  8
PLAN_1
  6
CONTINUOUS
 10
-1.137150
 20
2.297390
  0
VERTEX
  8
PLAN_1
  6
CONTINUOUS
 10
-1.147047
 20
2.296937
  0
VERTEX
  8
PLAN_1
  6
CONTINUOUS
 10
-1.157394
 20
2.296488
  0
VERTEX
  8
PLAN_1
  6
CONTINUOUS
 10
-1.167287
 20
2.295138
  0
VERTEX
  8
PLAN_1
  6
CONTINUOUS
 10
-1.176736
 20
2.293339
  0
VERTEX
  8
PLAN_1
  6
CONTINUOUS
 10
-1.186181
 20
2.291091
  0
VERTEX
  8
PLAN_1
  6
CONTINUOUS
 10
-1.195630
 20
2.288390
  0
VERTEX
  8
PLAN_1
  6
CONTINUOUS
 10
-1.204626
 20
2.285244
  0
VERTEX
  8
PLAN_1
  6
CONTINUOUS
 10
-1.213622
 20
2.281646
  0
VERTEX
  8
PLAN_1
  6
CONTINUOUS
 10
-1.222618
 20
2.278043
  0
VERTEX
  8
PLAN_1
  6
CONTINUOUS
 10
-1.230717
 20
2.273547
  0
VERTEX
  8
PLAN_1
  6
CONTINUOUS
 10
-1.239264
 20
2.268598
  0
VERTEX
  8
PLAN_1
  6
CONTINUOUS
 10
-1.247358
 20
2.263650
  0
VERTEX
  8
PLAN_1
  6
CONTINUOUS
 10
-1.255008
 20
2.258252
  0
VERTEX
  8
PLAN_1
  6
CONTINUOUS
 10
-1.262205
 20
2.252406
  0
VERTEX
  8
PLAN_1
  6
CONTINUOUS
 10
-1.269402
 20
2.246106
  0
VERTEX
  8
PLAN_1
  6
CONTINUOUS
 10
-1.276150
 20
2.239811
  0
VERTEX
  8
PLAN_1
  6
CONTINUOUS
 10
-1.282894
 20
2.232610
  0
VERTEX
  8
PLAN_1
  6
CONTINUOUS
 10
-1.288744
 20
2.225866
  0
VERTEX
  8
PLAN_1
  6
CONTINUOUS
 10
-1.294591
 20
2.218217
  0
VERTEX
  8
PLAN_1
  6
CONTINUOUS
 10
-1.300441
 20
2.210571
  0
VERTEX
  8
PLAN_1
  6
CONTINUOUS
 10
-1.305386
 20
2.202472
  0
VERTEX
  8
PLAN_1
  6
CONTINUOUS
 10
-1.310335
 20
2.194378
  0
VERTEX
  8
PLAN_1
  6
CONTINUOUS
 10
-1.314382
 20
2.185831
  0
VERTEX
  8
PLAN_1
  6
CONTINUOUS
 10
-1.318433
 20
2.177283
  0
VERTEX
  8
PLAN_1
  6
CONTINUOUS
 10
-1.322031
 20
2.168287
  0
VERTEX
  8
PLAN_1
  6
CONTINUOUS
 10
-1.325181
 20
2.158839
  0
VERTEX
  8
PLAN_1
  6
CONTINUOUS
 10
-1.327878
 20
2.149843
  0
VERTEX
  8
PLAN_1
  6
CONTINUOUS
 10
-1.330126
 20
2.139945
  0
VERTEX
  8
PLAN_1
  6
CONTINUOUS
 10
-1.331476
 20
2.130500
  0
VERTEX
  8
PLAN_1
  6
CONTINUOUS
 10
-1.332827
 20
2.120602
  0
VERTEX
  8
PLAN_1
  6
CONTINUOUS
 10
-1.333728
 20
2.110709
  0
VERTEX
  8
PLAN_1
  6
CONTINUOUS
 10
-1.333728
 20
2.100362
  0
VERTEX
  8
PLAN_1
  6
CONTINUOUS
 10
-1.333728
 20
2.090465
  0
VERTEX
  8
PLAN_1
  6
CONTINUOUS
 10
-1.332827
 20
2.080571
  0
VERTEX
  8
PLAN_1
  6
CONTINUOUS
 10
-1.331476
 20
2.070673
  0
VERTEX
  8
PLAN_1
  6
CONTINUOUS
 10
-1.330126
 20
2.060776
  0
VERTEX
  8
PLAN_1
  6
CONTINUOUS
 10
-1.327878
 20
2.051331
  0
VERTEX
  8
PLAN_1
  6
CONTINUOUS
 10
-1.325181
 20
2.041882
  0
VERTEX
  8
PLAN_1
  6
CONTINUOUS
 10
-1.322031
 20
2.032886
  0
VERTEX
  8
PLAN_1
  6
CONTINUOUS
 10
-1.318433
 20
2.023890
  0
VERTEX
  8
PLAN_1
  6
CONTINUOUS
 10
-1.314382
 20
2.015343
  0
VERTEX
  8
PLAN_1
  6
CONTINUOUS
 10
-1.310335
 20
2.006795
  0
VERTEX
  8
PLAN_1
  6
CONTINUOUS
 10
-1.305386
 20
1.998248
  0
VERTEX
  8
PLAN_1
  6
CONTINUOUS
 10
-1.300441
 20
1.990602
  0
VERTEX
  8
PLAN_1
  6
CONTINUOUS
 10
-1.294591
 20
1.982504
  0
VERTEX
  8
PLAN_1
  6
CONTINUOUS
 10
-1.288744
 20
1.975307
  0
VERTEX
  8
PLAN_1
  6
CONTINUOUS
 10
-1.282894
 20
1.968110
  0
VERTEX
  8
PLAN_1
  6
CONTINUOUS
 10
-1.276150
 20
1.961362
  0
VERTEX
  8
PLAN_1
  6
CONTINUOUS
 10
-1.269402
 20
1.954618
  0
VERTEX
  8
PLAN_1
  6
CONTINUOUS
 10
-1.262205
 20
1.948768
  0
VERTEX
  8
PLAN_1
  6
CONTINUOUS
 10
-1.255008
 20
1.942921
  0
VERTEX
  8
PLAN_1
  6
CONTINUOUS
 10
-1.247358
 20
1.937071
  0
VERTEX
  8
PLAN_1
  6
CONTINUOUS
 10
-1.239264
 20
1.932126
  0
VERTEX
  8
PLAN_1
  6
CONTINUOUS
 10
-1.230717
 20
1.927626
  0
VERTEX
  8
PLAN_1
  6
CONTINUOUS
 10
-1.222618
 20
1.923126
  0
VERTEX
  8
PLAN_1
  6
CONTINUOUS
 10
-1.213622
 20
1.919079
  0
VERTEX
  8
PLAN_1
  6
CONTINUOUS
 10
-1.204626
 20
1.915480
  0
VERTEX
  8
PLAN_1
  6
CONTINUOUS
 10
-1.195630
 20
1.912331
  0
VERTEX
  8
PLAN_1
  6
CONTINUOUS
 10
-1.186181
 20
1.909634
  0
VERTEX
  8
PLAN_1
  6
CONTINUOUS
 10
-1.176736
 20
1.907835
  0
VERTEX
  8
PLAN_1
  6
CONTINUOUS
 10
-1.167287
 20
1.906035
  0
VERTEX
  8
PLAN_1
  6
CONTINUOUS
 10
-1.157394
 20
1.904685
  0
VERTEX
  8
PLAN_1
  6
CONTINUOUS
 10
-1.147047
 20
1.903783
  0
VERTEX
  8
PLAN_1
  6
CONTINUOUS
 10
-1.137150
 20
1.903783
  0
SEQEND
  8
0
  0
POLYLINE
  8
PLAN_1
  6
CONTINUOUS
 66
     1
 40
0.006744
 41
0.006744
  0
VERTEX
  8
PLAN_1
  6
CONTINUOUS
 10
-1.049433
 20
2.257354
  0
VERTEX
  8
PLAN_1
  6
CONTINUOUS
 10
-0.940122
 20
2.100362
  0
VERTEX
  8
PLAN_1
  6
CONTINUOUS
 10
-1.049433
 20
1.943370
  0
VERTEX
  8
PLAN_1
  6
CONTINUOUS
 10
-1.226665
 20
1.943370
  0
VERTEX
  8
PLAN_1
  6
CONTINUOUS
 10
-1.333728
 20
2.100362
  0
VERTEX
  8
PLAN_1
  6
CONTINUOUS
 10
-1.226665
 20
2.257354
  0
VERTEX
  8
PLAN_1
  6
CONTINUOUS
 10
-1.049433
 20
2.257354
  0
SEQEND
  8
0
  0
POLYLINE
  8
PLAN_1
  6
CONTINUOUS
 66
     1
 40
0.008543
 41
0.008543
  0
VERTEX
  8
PLAN_1
  6
CONTINUOUS
 10
-1.137150
 20
2.001850
  0
VERTEX
  8
PLAN_1
  6
CONTINUOUS
 10
-1.132201
 20
2.002299
  0
VERTEX
  8
PLAN_1
  6
CONTINUOUS
 10
-1.127252
 20
2.002748
  0
VERTEX
  8
PLAN_1
  6
CONTINUOUS
 10
-1.122307
 20
2.003197
  0
VERTEX
  8
PLAN_1
  6
CONTINUOUS
 10
-1.117358
 20
2.004098
  0
VERTEX
  8
PLAN_1
  6
CONTINUOUS
 10
-1.112409
 20
2.004996
  0
VERTEX
  8
PLAN_1
  6
CONTINUOUS
 10
-1.107909
 20
2.006346
  0
VERTEX
  8
PLAN_1
  6
CONTINUOUS
 10
-1.103413
 20
2.008146
  0
VERTEX
  8
PLAN_1
  6
CONTINUOUS
 10
-1.098913
 20
2.009945
  0
VERTEX
  8
PLAN_1
  6
CONTINUOUS
 10
-1.094417
 20
2.011744
  0
VERTEX
  8
PLAN_1
  6
CONTINUOUS
 10
-1.090366
 20
2.013992
  0
VERTEX
  8
PLAN_1
  6
CONTINUOUS
 10
-1.085870
 20
2.016244
  0
VERTEX
  8
PLAN_1
  6
CONTINUOUS
 10
-1.082272
 20
2.018941
  0
VERTEX
  8
PLAN_1
  6
CONTINUOUS
 10
-1.078220
 20
2.021642
  0
VERTEX
  8
PLAN_1
  6
CONTINUOUS
 10
-1.074622
 20
2.024339
  0
VERTEX
  8
PLAN_1
  6
CONTINUOUS
 10
-1.071024
 20
2.027488
  0
VERTEX
  8
PLAN_1
  6
CONTINUOUS
 10
-1.067425
 20
2.031087
  0
VERTEX
  8
PLAN_1
  6
CONTINUOUS
 10
-1.064276
 20
2.034236
  0
VERTEX
  8
PLAN_1
  6
CONTINUOUS
 10
-1.061130
 20
2.037835
  0
VERTEX
  8
PLAN_1
  6
CONTINUOUS
 10
-1.058429
 20
2.041433
  0
VERTEX
  8
PLAN_1
  6
CONTINUOUS
 10
-1.055280
 20
2.045480
  0
VERTEX
  8
PLAN_1
  6
CONTINUOUS
 10
-1.053031
 20
2.049531
  0
VERTEX
  8
PLAN_1
  6
CONTINUOUS
 10
-1.050783
 20
2.053579
  0
VERTEX
  8
PLAN_1
  6
CONTINUOUS
 10
-1.048531
 20
2.057626
  0
VERTEX
  8
PLAN_1
  6
CONTINUOUS
 10
-1.046283
 20
2.062126
  0
VERTEX
  8
PLAN_1
  6
CONTINUOUS
 10
-1.044484
 20
2.066626
  0
VERTEX
  8
PLAN_1
  6
CONTINUOUS
 10
-1.043134
 20
2.071122
  0
VERTEX
  8
PLAN_1
  6
CONTINUOUS
 10
-1.041787
 20
2.076071
  0
VERTEX
  8
PLAN_1
  6
CONTINUOUS
 10
-1.040886
 20
2.080571
  0
VERTEX
  8
PLAN_1
  6
CONTINUOUS
 10
-1.039988
 20
2.085516
  0
VERTEX
  8
PLAN_1
  6
CONTINUOUS
 10
-1.039087
 20
2.090465
  0
VERTEX
  8
PLAN_1
  6
CONTINUOUS
 10
-1.038638
 20
2.095413
  0
VERTEX
  8
PLAN_1
  6
CONTINUOUS
 10
-1.038638
 20
2.100362
  0
VERTEX
  8
PLAN_1
  6
CONTINUOUS
 10
-1.038638
 20
2.105760
  0
VERTEX
  8
PLAN_1
  6
CONTINUOUS
 10
-1.039087
 20
2.110709
  0
VERTEX
  8
PLAN_1
  6
CONTINUOUS
 10
-1.039988
 20
2.115657
  0
VERTEX
  8
PLAN_1
  6
CONTINUOUS
 10
-1.040886
 20
2.120154
  0
VERTEX
  8
PLAN_1
  6
CONTINUOUS
 10
-1.041787
 20
2.125102
  0
VERTEX
  8
PLAN_1
  6
CONTINUOUS
 10
-1.043134
 20
2.129602
  0
VERTEX
  8
PLAN_1
  6
CONTINUOUS
 10
-1.044484
 20
2.134098
  0
VERTEX
  8
PLAN_1
  6
CONTINUOUS
 10
-1.046283
 20
2.138598
  0
VERTEX
  8
PLAN_1
  6
CONTINUOUS
 10
-1.048531
 20
2.143094
  0
VERTEX
  8
PLAN_1
  6
CONTINUOUS
 10
-1.050783
 20
2.147594
  0
VERTEX
  8
PLAN_1
  6
CONTINUOUS
 10
-1.053031
 20
2.151642
  0
VERTEX
  8
PLAN_1
  6
CONTINUOUS
 10
-1.055280
 20
2.155689
  0
VERTEX
  8
PLAN_1
  6
CONTINUOUS
 10
-1.061130
 20
2.162890
  0
VERTEX
  8
PLAN_1
  6
CONTINUOUS
 10
-1.067425
 20
2.170087
  0
VERTEX
  8
PLAN_1
  6
CONTINUOUS
 10
-1.074622
 20
2.176382
  0
VERTEX
  8
PLAN_1
  6
CONTINUOUS
 10
-1.082272
 20
2.182232
  0
VERTEX
  8
PLAN_1
  6
CONTINUOUS
 10
-1.085870
 20
2.184480
  0
VERTEX
  8
PLAN_1
  6
CONTINUOUS
 10
-1.090366
 20
2.187177
  0
VERTEX
  8
PLAN_1
  6
CONTINUOUS
 10
-1.094417
 20
2.188980
  0
VERTEX
  8
PLAN_1
  6
CONTINUOUS
 10
-1.098913
 20
2.191228
  0
VERTEX
  8
PLAN_1
  6
CONTINUOUS
 10
-1.103413
 20
2.193028
  0
VERTEX
  8
PLAN_1
  6
CONTINUOUS
 10
-1.107909
 20
2.194378
  0
VERTEX
  8
PLAN_1
  6
CONTINUOUS
 10
-1.112409
 20
2.195724
  0
VERTEX
  8
PLAN_1
  6
CONTINUOUS
 10
-1.117358
 20
2.197075
  0
VERTEX
  8
PLAN_1
  6
CONTINUOUS
 10
-1.122307
 20
2.197524
  0
VERTEX
  8
PLAN_1
  6
CONTINUOUS
 10
-1.127252
 20
2.198425
  0
VERTEX
  8
PLAN_1
  6
CONTINUOUS
 10
-1.132201
 20
2.198874
  0
VERTEX
  8
PLAN_1
  6
CONTINUOUS
 10
-1.137150
 20
2.198874
  0
VERTEX
  8
PLAN_1
  6
CONTINUOUS
 10
-1.142098
 20
2.198874
  0
VERTEX
  8
PLAN_1
  6
CONTINUOUS
 10
-1.147047
 20
2.198425
  0
VERTEX
  8
PLAN_1
  6
CONTINUOUS
 10
-1.151996
 20
2.197524
  0
VERTEX
  8
PLAN_1
  6
CONTINUOUS
 10
-1.156941
 20
2.197075
  0
VERTEX
  8
PLAN_1
  6
CONTINUOUS
 10
-1.161890
 20
2.195724
  0
VERTEX
  8
PLAN_1
  6
CONTINUOUS
 10
-1.166390
 20
2.194378
  0
VERTEX
  8
PLAN_1
  6
CONTINUOUS
 10
-1.170886
 20
2.193028
  0
VERTEX
  8
PLAN_1
  6
CONTINUOUS
 10
-1.175386
 20
2.191228
  0
VERTEX
  8
PLAN_1
  6
CONTINUOUS
 10
-1.179886
 20
2.188980
  0
VERTEX
  8
PLAN_1
  6
CONTINUOUS
 10
-1.183933
 20
2.187177
  0
VERTEX
  8
PLAN_1
  6
CONTINUOUS
 10
-1.187980
 20
2.184480
  0
VERTEX
  8
PLAN_1
  6
CONTINUOUS
 10
-1.192031
 20
2.182232
  0
VERTEX
  8
PLAN_1
  6
CONTINUOUS
 10
-1.196079
 20
2.179531
  0
VERTEX
  8
PLAN_1
  6
CONTINUOUS
 10
-1.199677
 20
2.176382
  0
VERTEX
  8
PLAN_1
  6
CONTINUOUS
 10
-1.203276
 20
2.173236
  0
VERTEX
  8
PLAN_1
  6
CONTINUOUS
 10
-1.206874
 20
2.170087
  0
VERTEX
  8
PLAN_1
  6
CONTINUOUS
 10
-1.210024
 20
2.166488
  0
VERTEX
  8
PLAN_1
  6
CONTINUOUS
 10
-1.213173
 20
2.162890
  0
VERTEX
  8
PLAN_1
  6
CONTINUOUS
 10
-1.215870
 20
2.159291
  0
VERTEX
  8
PLAN_1
  6
CONTINUOUS
 10
-1.218571
 20
2.155689
  0
VERTEX
  8
PLAN_1
  6
CONTINUOUS
 10
-1.221268
 20
2.151642
  0
VERTEX
  8
PLAN_1
  6
CONTINUOUS
 10
-1.223520
 20
2.147594
  0
VERTEX
  8
PLAN_1
  6
CONTINUOUS
 10
-1.225768
 20
2.143094
  0
VERTEX
  8
PLAN_1
  6
CONTINUOUS
 10
-1.227567
 20
2.138598
  0
VERTEX
  8
PLAN_1
  6
CONTINUOUS
 10
-1.229366
 20
2.134098
  0
VERTEX
  8
PLAN_1
  6
CONTINUOUS
 10
-1.231165
 20
2.129602
  0
VERTEX
  8
PLAN_1
  6
CONTINUOUS
 10
-1.232516
 20
2.125102
  0
VERTEX
  8
PLAN_1
  6
CONTINUOUS
 10
-1.233413
 20
2.120154
  0
VERTEX
  8
PLAN_1
  6
CONTINUOUS
 10
-1.234315
 20
2.115657
  0
VERTEX
  8
PLAN_1
  6
CONTINUOUS
 10
-1.234764
 20
2.110709
  0
VERTEX
  8
PLAN_1
  6
CONTINUOUS
 10
-1.235213
 20
2.105760
  0
VERTEX
  8
PLAN_1
  6
CONTINUOUS
 10
-1.235661
 20
2.100362
  0
VERTEX
  8
PLAN_1
  6
CONTINUOUS
 10
-1.235213
 20
2.095413
  0
VERTEX
  8
PLAN_1
  6
CONTINUOUS
 10
-1.234764
 20
2.090465
  0
VERTEX
  8
PLAN_1
  6
CONTINUOUS
 10
-1.234315
 20
2.085516
  0
VERTEX
  8
PLAN_1
  6
CONTINUOUS
 10
-1.233413
 20
2.080571
  0
VERTEX
  8
PLAN_1
  6
CONTINUOUS
 10
-1.232516
 20
2.076071
  0
VERTEX
  8
PLAN_1
  6
CONTINUOUS
 10
-1.231165
 20
2.071122
  0
VERTEX
  8
PLAN_1
  6
CONTINUOUS
 10
-1.229366
 20
2.066626
  0
VERTEX
  8
PLAN_1
  6
CONTINUOUS
 10
-1.227567
 20
2.062126
  0
VERTEX
  8
PLAN_1
  6
CONTINUOUS
 10
-1.225768
 20
2.057626
  0
VERTEX
  8
PLAN_1
  6
CONTINUOUS
 10
-1.223520
 20
2.053579
  0
VERTEX
  8
PLAN_1
  6
CONTINUOUS
 10
-1.221268
 20
2.049531
  0
VERTEX
  8
PLAN_1
  6
CONTINUOUS
 10
-1.218571
 20
2.045480
  0
VERTEX
  8
PLAN_1
  6
CONTINUOUS
 10
-1.215870
 20
2.041433
  0
VERTEX
  8
PLAN_1
  6
CONTINUOUS
 10
-1.213173
 20
2.037835
  0
VERTEX
  8
PLAN_1
  6
CONTINUOUS
 10
-1.210024
 20
2.034236
  0
VERTEX
  8
PLAN_1
  6
CONTINUOUS
 10
-1.206874
 20
2.031087
  0
VERTEX
  8
PLAN_1
  6
CONTINUOUS
 10
-1.203276
 20
2.027488
  0
VERTEX
  8
PLAN_1
  6
CONTINUOUS
 10
-1.199677
 20
2.024339
  0
VERTEX
  8
PLAN_1
  6
CONTINUOUS
 10
-1.196079
 20
2.021642
  0
VERTEX
  8
PLAN_1
  6
CONTINUOUS
 10
-1.192031
 20
2.018941
  0
VERTEX
  8
PLAN_1
  6
CONTINUOUS
 10
-1.187980
 20
2.016244
  0
VERTEX
  8
PLAN_1
  6
CONTINUOUS
 10
-1.183933
 20
2.013992
  0
VERTEX
  8
PLAN_1
  6
CONTINUOUS
 10
-1.179886
 20
2.011744
  0
VERTEX
  8
PLAN_1
  6
CONTINUOUS
 10
-1.175386
 20
2.009945
  0
VERTEX
  8
PLAN_1
  6
CONTINUOUS
 10
-1.170886
 20
2.008146
  0
VERTEX
  8
PLAN_1
  6
CONTINUOUS
 10
-1.166390
 20
2.006346
  0
VERTEX
  8
PLAN_1
  6
CONTINUOUS
 10
-1.161890
 20
2.004996
  0
VERTEX
  8
PLAN_1
  6
CONTINUOUS
 10
-1.156941
 20
2.004098
  0
VERTEX
  8
PLAN_1
  6
CONTINUOUS
 10
-1.151996
 20
2.003197
  0
VERTEX
  8
PLAN_1
  6
CONTINUOUS
 10
-1.147047
 20
2.002748
  0
VERTEX
  8
PLAN_1
  6
CONTINUOUS
 10
-1.142098
 20
2.002299
  0
VERTEX
  8
PLAN_1
  6
CONTINUOUS
 10
-1.137150
 20
2.001850
  0
SEQEND
  8
0
  0
POLYLINE
  8
PLAN_1
  6
CONTINUOUS
 66
     1
 40
0.013941
 41
0.013941
  0
VERTEX
  8
PLAN_1
  6
CONTINUOUS
 10
-1.135799
 20
3.114283
  0
VERTEX
  8
PLAN_1
  6
CONTINUOUS
 10
-1.138949
 20
3.114283
  0
VERTEX
  8
PLAN_1
  6
CONTINUOUS
 10
-1.142098
 20
3.113831
  0
VERTEX
  8
PLAN_1
  6
CONTINUOUS
 10
-1.145248
 20
3.112933
  0
VERTEX
  8
PLAN_1
  6
CONTINUOUS
 10
-1.148398
 20
3.112031
  0
VERTEX
  8
PLAN_1
  6
CONTINUOUS
 10
-1.151094
 20
3.110685
  0
VERTEX
  8
PLAN_1
  6
CONTINUOUS
 10
-1.153795
 20
3.108886
  0
VERTEX
  8
PLAN_1
  6
CONTINUOUS
 10
-1.156043
 20
3.107087
  0
VERTEX
  8
PLAN_1
  6
CONTINUOUS
 10
-1.158291
 20
3.104835
  0
VERTEX
  8
PLAN_1
  6
CONTINUOUS
 10
-1.160543
 20
3.102587
  0
VERTEX
  8
PLAN_1
  6
CONTINUOUS
 10
-1.162343
 20
3.100339
  0
VERTEX
  8
PLAN_1
  6
CONTINUOUS
 10
-1.164142
 20
3.097638
  0
VERTEX
  8
PLAN_1
  6
CONTINUOUS
 10
-1.165039
 20
3.094941
  0
VERTEX
  8
PLAN_1
  6
CONTINUOUS
 10
-1.166390
 20
3.091791
  0
VERTEX
  8
PLAN_1
  6
CONTINUOUS
 10
-1.167287
 20
3.089091
  0
VERTEX
  8
PLAN_1
  6
CONTINUOUS
 10
-1.167740
 20
3.085941
  0
VERTEX
  8
PLAN_1
  6
CONTINUOUS
 10
-1.167740
 20
3.082343
  0
VERTEX
  8
PLAN_1
  6
CONTINUOUS
 10
-1.167740
 20
3.079197
  0
VERTEX
  8
PLAN_1
  6
CONTINUOUS
 10
-1.167287
 20
3.076047
  0
VERTEX
  8
PLAN_1
  6
CONTINUOUS
 10
-1.166390
 20
3.072898
  0
VERTEX
  8
PLAN_1
  6
CONTINUOUS
 10
-1.165039
 20
3.070197
  0
VERTEX
  8
PLAN_1
  6
CONTINUOUS
 10
-1.164142
 20
3.067500
  0
VERTEX
  8
PLAN_1
  6
CONTINUOUS
 10
-1.162343
 20
3.064799
  0
VERTEX
  8
PLAN_1
  6
CONTINUOUS
 10
-1.160543
 20
3.062102
  0
VERTEX
  8
PLAN_1
  6
CONTINUOUS
 10
-1.158291
 20
3.059854
  0
VERTEX
  8
PLAN_1
  6
CONTINUOUS
 10
-1.156043
 20
3.058055
  0
VERTEX
  8
PLAN_1
  6
CONTINUOUS
 10
-1.153795
 20
3.056252
  0
VERTEX
  8
PLAN_1
  6
CONTINUOUS
 10
-1.151094
 20
3.054453
  0
VERTEX
  8
PLAN_1
  6
CONTINUOUS
 10
-1.148398
 20
3.053106
  0
VERTEX
  8
PLAN_1
  6
CONTINUOUS
 10
-1.145248
 20
3.052205
  0
VERTEX
  8
PLAN_1
  6
CONTINUOUS
 10
-1.142098
 20
3.051307
  0
VERTEX
  8
PLAN_1
  6
CONTINUOUS
 10
-1.138949
 20
3.050854
  0
VERTEX
  8
PLAN_1
  6
CONTINUOUS
 10
-1.135799
 20
3.050406
  0
VERTEX
  8
PLAN_1
  6
CONTINUOUS
 10
-1.132654
 20
3.050854
  0
VERTEX
  8
PLAN_1
  6
CONTINUOUS
 10
-1.129504
 20
3.051307
  0
VERTEX
  8
PLAN_1
  6
CONTINUOUS
 10
-1.126354
 20
3.052205
  0
VERTEX
  8
PLAN_1
  6
CONTINUOUS
 10
-1.123654
 20
3.053106
  0
VERTEX
  8
PLAN_1
  6
CONTINUOUS
 10
-1.120508
 20
3.054453
  0
VERTEX
  8
PLAN_1
  6
CONTINUOUS
 10
-1.118256
 20
3.056252
  0
VERTEX
  8
PLAN_1
  6
CONTINUOUS
 10
-1.115559
 20
3.058055
  0
VERTEX
  8
PLAN_1
  6
CONTINUOUS
 10
-1.113311
 20
3.059854
  0
VERTEX
  8
PLAN_1
  6
CONTINUOUS
 10
-1.111508
 20
3.062102
  0
VERTEX
  8
PLAN_1
  6
CONTINUOUS
 10
-1.109260
 20
3.064799
  0
VERTEX
  8
PLAN_1
  6
CONTINUOUS
 10
-1.107909
 20
3.067500
  0
VERTEX
  8
PLAN_1
  6
CONTINUOUS
 10
-1.106563
 20
3.070197
  0
VERTEX
  8
PLAN_1
  6
CONTINUOUS
 10
-1.105661
 20
3.072898
  0
VERTEX
  8
PLAN_1
  6
CONTINUOUS
 10
-1.104764
 20
3.076047
  0
VERTEX
  8
PLAN_1
  6
CONTINUOUS
 10
-1.104311
 20
3.079197
  0
VERTEX
  8
PLAN_1
  6
CONTINUOUS
 10
-1.103862
 20
3.082343
  0
VERTEX
  8
PLAN_1
  6
CONTINUOUS
 10
-1.104311
 20
3.085941
  0
VERTEX
  8
PLAN_1
  6
CONTINUOUS
 10
-1.104764
 20
3.089091
  0
VERTEX
  8
PLAN_1
  6
CONTINUOUS
 10
-1.105661
 20
3.091791
  0
VERTEX
  8
PLAN_1
  6
CONTINUOUS
 10
-1.106563
 20
3.094941
  0
VERTEX
  8
PLAN_1
  6
CONTINUOUS
 10
-1.107909
 20
3.097638
  0
VERTEX
  8
PLAN_1
  6
CONTINUOUS
 10
-1.109260
 20
3.100339
  0
VERTEX
  8
PLAN_1
  6
CONTINUOUS
 10
-1.111508
 20
3.102587
  0
VERTEX
  8
PLAN_1
  6
CONTINUOUS
 10
-1.113311
 20
3.104835
  0
VERTEX
  8
PLAN_1
  6
CONTINUOUS
 10
-1.115559
 20
3.107087
  0
VERTEX
  8
PLAN_1
  6
CONTINUOUS
 10
-1.118256
 20
3.108886
  0
VERTEX
  8
PLAN_1
  6
CONTINUOUS
 10
-1.120508
 20
3.110685
  0
VERTEX
  8
PLAN_1
  6
CONTINUOUS
 10
-1.123654
 20
3.112031
  0
VERTEX
  8
PLAN_1
  6
CONTINUOUS
 10
-1.126354
 20
3.112933
  0
VERTEX
  8
PLAN_1
  6
CONTINUOUS
 10
-1.129504
 20
3.113831
  0
VERTEX
  8
PLAN_1
  6
CONTINUOUS
 10
-1.132654
 20
3.114283
  0
VERTEX
  8
PLAN_1
  6
CONTINUOUS
 10
-1.135799
 20
3.114283
  0
SEQEND
  8
0
  0
POLYLINE
  8
PLAN_1
  6
CONTINUOUS
 66
     1
 40
0.004047
 41
0.004047
  0
VERTEX
  8
PLAN_1
  6
CONTINUOUS
 10
-2.337752
 20
0.639760
  0
VERTEX
  8
PLAN_1
  6
CONTINUOUS
 10
-2.337752
 20
1.145819
  0
SEQEND
  8
0
  0
POLYLINE
  8
PLAN_1
  6
CONTINUOUS
 66
     1
 40
0.004047
 41
0.004047
  0
VERTEX
  8
PLAN_1
  6
CONTINUOUS
 10
-2.337752
 20
1.145819
  0
VERTEX
  8
PLAN_1
  6
CONTINUOUS
 10
-2.337299
 20
1.152118
  0
VERTEX
  8
PLAN_1
  6
CONTINUOUS
 10
-2.334602
 20
1.168760
  0
VERTEX
  8
PLAN_1
  6
CONTINUOUS
 10
-2.331902
 20
1.180008
  0
VERTEX
  8
PLAN_1
  6
CONTINUOUS
 10
-2.327854
 20
1.192150
  0
VERTEX
  8
PLAN_1
  6
CONTINUOUS
 10
-2.325157
 20
1.198449
  0
VERTEX
  8
PLAN_1
  6
CONTINUOUS
 10
-2.322457
 20
1.205197
  0
VERTEX
  8
PLAN_1
  6
CONTINUOUS
 10
-2.318858
 20
1.211945
  0
VERTEX
  8
PLAN_1
  6
CONTINUOUS
 10
-2.314811
 20
1.218693
  0
VERTEX
  8
PLAN_1
  6
CONTINUOUS
 10
-2.310760
 20
1.225441
  0
VERTEX
  8
PLAN_1
  6
CONTINUOUS
 10
-2.305811
 20
1.232185
  0
VERTEX
  8
PLAN_1
  6
CONTINUOUS
 10
-2.299965
 20
1.238933
  0
VERTEX
  8
PLAN_1
  6
CONTINUOUS
 10
-2.294118
 20
1.245681
  0
VERTEX
  8
PLAN_1
  6
CONTINUOUS
 10
-2.287370
 20
1.251980
  0
VERTEX
  8
PLAN_1
  6
CONTINUOUS
 10
-2.280173
 20
1.257827
  0
VERTEX
  8
PLAN_1
  6
CONTINUOUS
 10
-2.272075
 20
1.263673
  0
VERTEX
  8
PLAN_1
  6
CONTINUOUS
 10
-2.263528
 20
1.269071
  0
VERTEX
  8
PLAN_1
  6
CONTINUOUS
 10
-2.254083
 20
1.273571
  0
VERTEX
  8
PLAN_1
  6
CONTINUOUS
 10
-2.243736
 20
1.278071
  0
VERTEX
  8
PLAN_1
  6
CONTINUOUS
 10
-2.232492
 20
1.282118
  0
VERTEX
  8
PLAN_1
  6
CONTINUOUS
 10
-2.220795
 20
1.285268
  0
VERTEX
  8
PLAN_1
  6
CONTINUOUS
 10
-2.208201
 20
1.287965
  0
VERTEX
  8
PLAN_1
  6
CONTINUOUS
 10
-2.194705
 20
1.290217
  0
VERTEX
  8
PLAN_1
  6
CONTINUOUS
 10
-2.179858
 20
1.291114
  0
VERTEX
  8
PLAN_1
  6
CONTINUOUS
 10
-2.164567
 20
1.291563
  0
VERTEX
  8
PLAN_1
  6
CONTINUOUS
 10
-2.027366
 20
1.291563
  0
VERTEX
  8
PLAN_1
  6
CONTINUOUS
 10
-1.771862
 20
1.291563
  0
VERTEX
  8
PLAN_1
  6
CONTINUOUS
 10
-1.440339
 20
1.291563
  0
VERTEX
  8
PLAN_1
  6
CONTINUOUS
 10
-1.074173
 20
1.291563
  0
VERTEX
  8
PLAN_1
  6
CONTINUOUS
 10
-0.716106
 20
1.291563
  0
VERTEX
  8
PLAN_1
  6
CONTINUOUS
 10
-0.407972
 20
1.291563
  0
VERTEX
  8
PLAN_1
  6
CONTINUOUS
 10
-0.192504
 20
1.291563
  0
VERTEX
  8
PLAN_1
  6
CONTINUOUS
 10
-0.111083
 20
1.291563
  0
VERTEX
  8
PLAN_1
  6
CONTINUOUS
 10
-0.109283
 20
1.291563
  0
VERTEX
  8
PLAN_1
  6
CONTINUOUS
 10
-0.104339
 20
1.291563
  0
VERTEX
  8
PLAN_1
  6
CONTINUOUS
 10
-0.097138
 20
1.291114
  0
VERTEX
  8
PLAN_1
  6
CONTINUOUS
 10
-0.087244
 20
1.290217
  0
VERTEX
  8
PLAN_1
  6
CONTINUOUS
 10
-0.081846
 20
1.289315
  0
VERTEX
  8
PLAN_1
  6
CONTINUOUS
 10
-0.075547
 20
1.287965
  0
VERTEX
  8
PLAN_1
  6
CONTINUOUS
 10
-0.069248
 20
1.286165
  0
VERTEX
  8
PLAN_1
  6
CONTINUOUS
 10
-0.062953
 20
1.284366
  0
VERTEX
  8
PLAN_1
  6
CONTINUOUS
 10
-0.056205
 20
1.282118
  0
VERTEX
  8
PLAN_1
  6
CONTINUOUS
 10
-0.049008
 20
1.278969
  0
VERTEX
  8
PLAN_1
  6
CONTINUOUS
 10
-0.041811
 20
1.275819
  0
VERTEX
  8
PLAN_1
  6
CONTINUOUS
 10
-0.034614
 20
1.271772
  0
VERTEX
  8
PLAN_1
  6
CONTINUOUS
 10
-0.027866
 20
1.267272
  0
VERTEX
  8
PLAN_1
  6
CONTINUOUS
 10
-0.020669
 20
1.261874
  0
VERTEX
  8
PLAN_1
  6
CONTINUOUS
 10
-0.013472
 20
1.256028
  0
VERTEX
  8
PLAN_1
  6
CONTINUOUS
 10
-0.006724
 20
1.249728
  0
VERTEX
  8
PLAN_1
  6
CONTINUOUS
 10
-0.000425
 20
1.242531
  0
VERTEX
  8
PLAN_1
  6
CONTINUOUS
 10
0.005874
 20
1.234437
  0
VERTEX
  8
PLAN_1
  6
CONTINUOUS
 10
0.012169
 20
1.225441
  0
VERTEX
  8
PLAN_1
  6
CONTINUOUS
 10
0.017567
 20
1.215543
  0
VERTEX
  8
PLAN_1
  6
CONTINUOUS
 10
0.022965
 20
1.204748
  0
VERTEX
  8
PLAN_1
  6
CONTINUOUS
 10
0.027465
 20
1.193051
  0
VERTEX
  8
PLAN_1
  6
CONTINUOUS
 10
0.031512
 20
1.180457
  0
VERTEX
  8
PLAN_1
  6
CONTINUOUS
 10
0.035110
 20
1.166961
  0
VERTEX
  8
PLAN_1
  6
CONTINUOUS
 10
0.037811
 20
1.152118
  0
VERTEX
  8
PLAN_1
  6
CONTINUOUS
 10
0.039610
 20
1.136374
  0
VERTEX
  8
PLAN_1
  6
CONTINUOUS
 10
0.040961
 20
1.119280
  0
VERTEX
  8
PLAN_1
  6
CONTINUOUS
 10
0.041409
 20
1.100835
  0
SEQEND
  8
0
  0
POLYLINE
  8
PLAN_1
  6
CONTINUOUS
 66
     1
 40
0.004047
 41
0.004047
  0
VERTEX
  8
PLAN_1
  6
CONTINUOUS
 10
0.041409
 20
1.100835
  0
VERTEX
  8
PLAN_1
  6
CONTINUOUS
 10
0.041409
 20
0.647406
  0
SEQEND
  8
0
  0
POLYLINE
  8
PLAN_1
  6
CONTINUOUS
 66
     1
 40
0.004047
 41
0.004047
  0
VERTEX
  8
PLAN_1
  6
CONTINUOUS
 10
-2.151969
 20
1.100386
  0
VERTEX
  8
PLAN_1
  6
CONTINUOUS
 10
-1.880720
 20
1.100386
  0
SEQEND
  8
0
  0
POLYLINE
  8
PLAN_1
  6
CONTINUOUS
 66
     1
 40
0.004047
 41
0.004047
  0
VERTEX
  8
PLAN_1
  6
CONTINUOUS
 10
-2.015220
 20
0.975783
  0
VERTEX
  8
PLAN_1
  6
CONTINUOUS
 10
-2.015673
 20
1.225441
  0
SEQEND
  8
0
  0
POLYLINE
  8
PLAN_1
  6
CONTINUOUS
 66
     1
 40
0.003000
 41
0.003000
  0
VERTEX
  8
PLAN_1
  6
CONTINUOUS
 10
-2.014323
 20
1.131874
  0
VERTEX
  8
PLAN_1
  6
CONTINUOUS
 10
-2.017472
 20
1.131874
  0
VERTEX
  8
PLAN_1
  6
CONTINUOUS
 10
-2.020618
 20
1.131425
  0
VERTEX
  8
PLAN_1
  6
CONTINUOUS
 10
-2.023768
 20
1.130524
  0
VERTEX
  8
PLAN_1
  6
CONTINUOUS
 10
-2.026469
 20
1.129626
  0
VERTEX
  8
PLAN_1
  6
CONTINUOUS
 10
-2.029618
 20
1.128276
  0
VERTEX
  8
PLAN_1
  6
CONTINUOUS
 10
-2.032315
 20
1.126476
  0
VERTEX
  8
PLAN_1
  6
CONTINUOUS
 10
-2.034563
 20
1.124677
  0
VERTEX
  8
PLAN_1
  6
CONTINUOUS
 10
-2.036815
 20
1.122878
  0
VERTEX
  8
PLAN_1
  6
CONTINUOUS
 10
-2.039063
 20
1.120630
  0
VERTEX
  8
PLAN_1
  6
CONTINUOUS
 10
-2.040862
 20
1.117929
  0
VERTEX
  8
PLAN_1
  6
CONTINUOUS
 10
-2.042213
 20
1.115228
  0
VERTEX
  8
PLAN_1
  6
CONTINUOUS
 10
-2.043559
 20
1.112531
  0
VERTEX
  8
PLAN_1
  6
CONTINUOUS
 10
-2.044909
 20
1.109831
  0
VERTEX
  8
PLAN_1
  6
CONTINUOUS
 10
-2.045362
 20
1.106685
  0
VERTEX
  8
PLAN_1
  6
CONTINUOUS
 10
-2.045811
 20
1.103535
  0
VERTEX
  8
PLAN_1
  6
CONTINUOUS
 10
-2.046260
 20
1.100386
  0
VERTEX
  8
PLAN_1
  6
CONTINUOUS
 10
-2.045811
 20
1.096787
  0
VERTEX
  8
PLAN_1
  6
CONTINUOUS
 10
-2.045362
 20
1.093638
  0
VERTEX
  8
PLAN_1
  6
CONTINUOUS
 10
-2.044909
 20
1.090941
  0
VERTEX
  8
PLAN_1
  6
CONTINUOUS
 10
-2.043559
 20
1.087791
  0
VERTEX
  8
PLAN_1
  6
CONTINUOUS
 10
-2.042213
 20
1.085091
  0
VERTEX
  8
PLAN_1
  6
CONTINUOUS
 10
-2.040862
 20
1.082394
  0
VERTEX
  8
PLAN_1
  6
CONTINUOUS
 10
-2.039063
 20
1.080142
  0
VERTEX
  8
PLAN_1
  6
CONTINUOUS
 10
-2.036815
 20
1.077894
  0
VERTEX
  8
PLAN_1
  6
CONTINUOUS
 10
-2.034563
 20
1.075646
  0
VERTEX
  8
PLAN_1
  6
CONTINUOUS
 10
-2.032315
 20
1.073846
  0
VERTEX
  8
PLAN_1
  6
CONTINUOUS
 10
-2.029618
 20
1.072047
  0
VERTEX
  8
PLAN_1
  6
CONTINUOUS
 10
-2.026469
 20
1.070697
  0
VERTEX
  8
PLAN_1
  6
CONTINUOUS
 10
-2.023768
 20
1.069799
  0
VERTEX
  8
PLAN_1
  6
CONTINUOUS
 10
-2.020618
 20
1.068898
  0
VERTEX
  8
PLAN_1
  6
CONTINUOUS
 10
-2.017472
 20
1.068449
  0
VERTEX
  8
PLAN_1
  6
CONTINUOUS
 10
-2.014323
 20
1.068449
  0
VERTEX
  8
PLAN_1
  6
CONTINUOUS
 10
-2.011173
 20
1.068449
  0
VERTEX
  8
PLAN_1
  6
CONTINUOUS
 10
-2.008024
 20
1.068898
  0
VERTEX
  8
PLAN_1
  6
CONTINUOUS
 10
-2.004874
 20
1.069799
  0
VERTEX
  8
PLAN_1
  6
CONTINUOUS
 10
-2.001728
 20
1.070697
  0
VERTEX
  8
PLAN_1
  6
CONTINUOUS
 10
-1.999028
 20
1.072047
  0
VERTEX
  8
PLAN_1
  6
CONTINUOUS
 10
-1.996327
 20
1.073846
  0
VERTEX
  8
PLAN_1
  6
CONTINUOUS
 10
-1.994079
 20
1.075646
  0
VERTEX
  8
PLAN_1
  6
CONTINUOUS
 10
-1.991831
 20
1.077894
  0
VERTEX
  8
PLAN_1
  6
CONTINUOUS
 10
-1.989583
 20
1.080142
  0
VERTEX
  8
PLAN_1
  6
CONTINUOUS
 10
-1.987783
 20
1.082394
  0
VERTEX
  8
PLAN_1
  6
CONTINUOUS
 10
-1.986433
 20
1.085091
  0
VERTEX
  8
PLAN_1
  6
CONTINUOUS
 10
-1.985083
 20
1.087791
  0
VERTEX
  8
PLAN_1
  6
CONTINUOUS
 10
-1.983732
 20
1.090941
  0
VERTEX
  8
PLAN_1
  6
CONTINUOUS
 10
-1.982835
 20
1.093638
  0
VERTEX
  8
PLAN_1
  6
CONTINUOUS
 10
-1.982382
 20
1.096787
  0
VERTEX
  8
PLAN_1
  6
CONTINUOUS
 10
-1.982382
 20
1.100386
  0
VERTEX
  8
PLAN_1
  6
CONTINUOUS
 10
-1.982382
 20
1.103535
  0
VERTEX
  8
PLAN_1
  6
CONTINUOUS
 10
-1.982835
 20
1.106685
  0
VERTEX
  8
PLAN_1
  6
CONTINUOUS
 10
-1.983732
 20
1.109831
  0
VERTEX
  8
PLAN_1
  6
CONTINUOUS
 10
-1.985083
 20
1.112531
  0
VERTEX
  8
PLAN_1
  6
CONTINUOUS
 10
-1.986433
 20
1.115228
  0
VERTEX
  8
PLAN_1
  6
CONTINUOUS
 10
-1.987783
 20
1.117929
  0
VERTEX
  8
PLAN_1
  6
CONTINUOUS
 10
-1.989583
 20
1.120630
  0
VERTEX
  8
PLAN_1
  6
CONTINUOUS
 10
-1.991831
 20
1.122878
  0
VERTEX
  8
PLAN_1
  6
CONTINUOUS
 10
-1.994079
 20
1.124677
  0
VERTEX
  8
PLAN_1
  6
CONTINUOUS
 10
-1.996327
 20
1.126476
  0
VERTEX
  8
PLAN_1
  6
CONTINUOUS
 10
-1.999028
 20
1.128276
  0
VERTEX
  8
PLAN_1
  6
CONTINUOUS
 10
-2.001728
 20
1.129626
  0
VERTEX
  8
PLAN_1
  6
CONTINUOUS
 10
-2.004874
 20
1.130524
  0
VERTEX
  8
PLAN_1
  6
CONTINUOUS
 10
-2.008024
 20
1.131425
  0
VERTEX
  8
PLAN_1
  6
CONTINUOUS
 10
-2.011173
 20
1.131874
  0
VERTEX
  8
PLAN_1
  6
CONTINUOUS
 10
-2.014323
 20
1.131874
  0
SEQEND
  8
0
  0
POLYLINE
  8
PLAN_1
  6
CONTINUOUS
 66
     1
 40
0.004047
 41
0.004047
  0
VERTEX
  8
PLAN_1
  6
CONTINUOUS
 10
-0.404823
 20
1.100386
  0
VERTEX
  8
PLAN_1
  6
CONTINUOUS
 10
-0.133575
 20
1.100386
  0
SEQEND
  8
0
  0
POLYLINE
  8
PLAN_1
  6
CONTINUOUS
 66
     1
 40
0.004047
 41
0.004047
  0
VERTEX
  8
PLAN_1
  6
CONTINUOUS
 10
-0.268075
 20
0.975783
  0
VERTEX
  8
PLAN_1
  6
CONTINUOUS
 10
-0.268524
 20
1.225441
  0
SEQEND
  8
0
  0
POLYLINE
  8
PLAN_1
  6
CONTINUOUS
 66
     1
 40
0.003000
 41
0.003000
  0
VERTEX
  8
PLAN_1
  6
CONTINUOUS
 10
-0.267177
 20
1.131874
  0
VERTEX
  8
PLAN_1
  6
CONTINUOUS
 10
-0.270323
 20
1.131874
  0
VERTEX
  8
PLAN_1
  6
CONTINUOUS
 10
-0.273472
 20
1.131425
  0
VERTEX
  8
PLAN_1
  6
CONTINUOUS
 10
-0.276622
 20
1.130524
  0
VERTEX
  8
PLAN_1
  6
CONTINUOUS
 10
-0.279772
 20
1.129626
  0
VERTEX
  8
PLAN_1
  6
CONTINUOUS
 10
-0.282469
 20
1.128276
  0
VERTEX
  8
PLAN_1
  6
CONTINUOUS
 10
-0.285169
 20
1.126476
  0
VERTEX
  8
PLAN_1
  6
CONTINUOUS
 10
-0.287417
 20
1.124677
  0
VERTEX
  8
PLAN_1
  6
CONTINUOUS
 10
-0.289669
 20
1.122878
  0
VERTEX
  8
PLAN_1
  6
CONTINUOUS
 10
-0.291917
 20
1.120630
  0
VERTEX
  8
PLAN_1
  6
CONTINUOUS
 10
-0.293717
 20
1.117929
  0
VERTEX
  8
PLAN_1
  6
CONTINUOUS
 10
-0.295067
 20
1.115228
  0
VERTEX
  8
PLAN_1
  6
CONTINUOUS
 10
-0.296413
 20
1.112531
  0
VERTEX
  8
PLAN_1
  6
CONTINUOUS
 10
-0.297764
 20
1.109831
  0
VERTEX
  8
PLAN_1
  6
CONTINUOUS
 10
-0.298213
 20
1.106685
  0
VERTEX
  8
PLAN_1
  6
CONTINUOUS
 10
-0.298665
 20
1.103535
  0
VERTEX
  8
PLAN_1
  6
CONTINUOUS
 10
-0.299114
 20
1.100386
  0
VERTEX
  8
PLAN_1
  6
CONTINUOUS
 10
-0.298665
 20
1.096787
  0
VERTEX
  8
PLAN_1
  6
CONTINUOUS
 10
-0.298213
 20
1.093638
  0
VERTEX
  8
PLAN_1
  6
CONTINUOUS
 10
-0.297764
 20
1.090941
  0
VERTEX
  8
PLAN_1
  6
CONTINUOUS
 10
-0.296413
 20
1.087791
  0
VERTEX
  8
PLAN_1
  6
CONTINUOUS
 10
-0.295067
 20
1.085091
  0
VERTEX
  8
PLAN_1
  6
CONTINUOUS
 10
-0.293717
 20
1.082394
  0
VERTEX
  8
PLAN_1
  6
CONTINUOUS
 10
-0.291917
 20
1.080142
  0
VERTEX
  8
PLAN_1
  6
CONTINUOUS
 10
-0.289669
 20
1.077894
  0
VERTEX
  8
PLAN_1
  6
CONTINUOUS
 10
-0.287417
 20
1.075646
  0
VERTEX
  8
PLAN_1
  6
CONTINUOUS
 10
-0.285169
 20
1.073846
  0
VERTEX
  8
PLAN_1
  6
CONTINUOUS
 10
-0.282469
 20
1.072047
  0
VERTEX
  8
PLAN_1
  6
CONTINUOUS
 10
-0.279772
 20
1.070697
  0
VERTEX
  8
PLAN_1
  6
CONTINUOUS
 10
-0.276622
 20
1.069799
  0
VERTEX
  8
PLAN_1
  6
CONTINUOUS
 10
-0.273472
 20
1.068898
  0
VERTEX
  8
PLAN_1
  6
CONTINUOUS
 10
-0.270323
 20
1.068449
  0
VERTEX
  8
PLAN_1
  6
CONTINUOUS
 10
-0.267177
 20
1.068449
  0
VERTEX
  8
PLAN_1
  6
CONTINUOUS
 10
-0.264028
 20
1.068449
  0
VERTEX
  8
PLAN_1
  6
CONTINUOUS
 10
-0.260878
 20
1.068898
  0
VERTEX
  8
PLAN_1
  6
CONTINUOUS
 10
-0.257728
 20
1.069799
  0
VERTEX
  8
PLAN_1
  6
CONTINUOUS
 10
-0.254579
 20
1.070697
  0
VERTEX
  8
PLAN_1
  6
CONTINUOUS
 10
-0.251882
 20
1.072047
  0
VERTEX
  8
PLAN_1
  6
CONTINUOUS
 10
-0.249181
 20
1.073846
  0
VERTEX
  8
PLAN_1
  6
CONTINUOUS
 10
-0.246933
 20
1.075646
  0
VERTEX
  8
PLAN_1
  6
CONTINUOUS
 10
-0.244685
 20
1.077894
  0
VERTEX
  8
PLAN_1
  6
CONTINUOUS
 10
-0.242433
 20
1.080142
  0
VERTEX
  8
PLAN_1
  6
CONTINUOUS
 10
-0.240634
 20
1.082394
  0
VERTEX
  8
PLAN_1
  6
CONTINUOUS
 10
-0.239287
 20
1.085091
  0
VERTEX
  8
PLAN_1
  6
CONTINUOUS
 10
-0.237937
 20
1.087791
  0
VERTEX
  8
PLAN_1
  6
CONTINUOUS
 10
-0.236587
 20
1.090941
  0
VERTEX
  8
PLAN_1
  6
CONTINUOUS
 10
-0.236138
 20
1.093638
  0
VERTEX
  8
PLAN_1
  6
CONTINUOUS
 10
-0.235236
 20
1.096787
  0
VERTEX
  8
PLAN_1
  6
CONTINUOUS
 10
-0.235236
 20
1.100386
  0
VERTEX
  8
PLAN_1
  6
CONTINUOUS
 10
-0.235236
 20
1.103535
  0
VERTEX
  8
PLAN_1
  6
CONTINUOUS
 10
-0.236138
 20
1.106685
  0
VERTEX
  8
PLAN_1
  6
CONTINUOUS
 10
-0.236587
 20
1.109831
  0
VERTEX
  8
PLAN_1
  6
CONTINUOUS
 10
-0.237937
 20
1.112531
  0
VERTEX
  8
PLAN_1
  6
CONTINUOUS
 10
-0.239287
 20
1.115228
  0
VERTEX
  8
PLAN_1
  6
CONTINUOUS
 10
-0.240634
 20
1.117929
  0
VERTEX
  8
PLAN_1
  6
CONTINUOUS
 10
-0.242433
 20
1.120630
  0
VERTEX
  8
PLAN_1
  6
CONTINUOUS
 10
-0.244685
 20
1.122878
  0
VERTEX
  8
PLAN_1
  6
CONTINUOUS
 10
-0.246933
 20
1.124677
  0
VERTEX
  8
PLAN_1
  6
CONTINUOUS
 10
-0.249181
 20
1.126476
  0
VERTEX
  8
PLAN_1
  6
CONTINUOUS
 10
-0.251882
 20
1.128276
  0
VERTEX
  8
PLAN_1
  6
CONTINUOUS
 10
-0.254579
 20
1.129626
  0
VERTEX
  8
PLAN_1
  6
CONTINUOUS
 10
-0.257728
 20
1.130524
  0
VERTEX
  8
PLAN_1
  6
CONTINUOUS
 10
-0.260878
 20
1.131425
  0
VERTEX
  8
PLAN_1
  6
CONTINUOUS
 10
-0.264028
 20
1.131874
  0
VERTEX
  8
PLAN_1
  6
CONTINUOUS
 10
-0.267177
 20
1.131874
  0
SEQEND
  8
0
  0
POLYLINE
  8
PLAN_1
  6
CONTINUOUS
 66
     1
 40
0.006744
 41
0.006744
  0
VERTEX
  8
PLAN_1
  6
CONTINUOUS
 10
-0.646382
 20
1.292016
  0
VERTEX
  8
PLAN_1
  6
CONTINUOUS
 10
-0.646382
 20
1.371185
  0
VERTEX
  8
PLAN_1
  6
CONTINUOUS
 10
-0.607248
 20
1.371185
  0
SEQEND
  8
0
  0
POLYLINE
  8
PLAN_1
  6
CONTINUOUS
 66
     1
 40
0.006744
 41
0.006744
  0
VERTEX
  8
PLAN_1
  6
CONTINUOUS
 10
-1.186630
 20
2.377008
  0
VERTEX
  8
PLAN_1
  6
CONTINUOUS
 10
-1.087669
 20
2.377008
  0
SEQEND
  8
0
  0
POLYLINE
  8
PLAN_1
  6
CONTINUOUS
 66
     1
 40
0.008543
 41
0.008543
  0
VERTEX
  8
PLAN_1
  6
CONTINUOUS
 10
-1.544248
 20
0.994224
  0
VERTEX
  8
PLAN_1
  6
CONTINUOUS
 10
-0.726453
 20
0.994224
  0
SEQEND
  8
0
  0
POLYLINE
  8
PLAN_1
  6
CONTINUOUS
 66
     1
 40
0.008543
 41
0.008543
  0
VERTEX
  8
PLAN_1
  6
CONTINUOUS
 10
-0.941925
 20
2.765661
  0
VERTEX
  8
PLAN_1
  6
CONTINUOUS
 10
-0.932028
 20
2.771961
  0
VERTEX
  8
PLAN_1
  6
CONTINUOUS
 10
-0.922579
 20
2.778260
  0
VERTEX
  8
PLAN_1
  6
CONTINUOUS
 10
-0.912685
 20
2.785457
  0
VERTEX
  8
PLAN_1
  6
CONTINUOUS
 10
-0.903689
 20
2.792654
  0
VERTEX
  8
PLAN_1
  6
CONTINUOUS
 10
-0.894689
 20
2.799850
  0
VERTEX
  8
PLAN_1
  6
CONTINUOUS
 10
-0.885693
 20
2.807945
  0
VERTEX
  8
PLAN_1
  6
CONTINUOUS
 10
-0.877146
 20
2.815594
  0
VERTEX
  8
PLAN_1
  6
CONTINUOUS
 10
-0.869051
 20
2.824142
  0
VERTEX
  8
PLAN_1
  6
CONTINUOUS
 10
-0.860953
 20
2.832689
  0
VERTEX
  8
PLAN_1
  6
CONTINUOUS
 10
-0.852858
 20
2.841236
  0
VERTEX
  8
PLAN_1
  6
CONTINUOUS
 10
-0.845657
 20
2.850681
  0
VERTEX
  8
PLAN_1
  6
CONTINUOUS
 10
-0.838461
 20
2.859677
  0
VERTEX
  8
PLAN_1
  6
CONTINUOUS
 10
-0.831264
 20
2.869122
  0
VERTEX
  8
PLAN_1
  6
CONTINUOUS
 10
-0.824969
 20
2.879020
  0
VERTEX
  8
PLAN_1
  6
CONTINUOUS
 10
-0.818220
 20
2.888917
  0
VERTEX
  8
PLAN_1
  6
CONTINUOUS
 10
-0.812370
 20
2.899264
  0
VERTEX
  8
PLAN_1
  6
CONTINUOUS
 10
-0.806524
 20
2.909610
  0
VERTEX
  8
PLAN_1
  6
CONTINUOUS
 10
-0.801126
 20
2.919957
  0
VERTEX
  8
PLAN_1
  6
CONTINUOUS
 10
-0.796177
 20
2.930752
  0
VERTEX
  8
PLAN_1
  6
CONTINUOUS
 10
-0.791681
 20
2.941547
  0
VERTEX
  8
PLAN_1
  6
CONTINUOUS
 10
-0.787181
 20
2.952791
  0
VERTEX
  8
PLAN_1
  6
CONTINUOUS
 10
-0.783134
 20
2.964039
  0
VERTEX
  8
PLAN_1
  6
CONTINUOUS
 10
-0.779535
 20
2.975283
  0
VERTEX
  8
PLAN_1
  6
CONTINUOUS
 10
-0.775937
 20
2.986980
  0
VERTEX
  8
PLAN_1
  6
CONTINUOUS
 10
-0.773236
 20
2.998677
  0
VERTEX
  8
PLAN_1
  6
CONTINUOUS
 10
-0.770535
 20
3.010823
  0
VERTEX
  8
PLAN_1
  6
CONTINUOUS
 10
-0.768287
 20
3.022516
  0
VERTEX
  8
PLAN_1
  6
CONTINUOUS
 10
-0.766488
 20
3.034661
  0
VERTEX
  8
PLAN_1
  6
CONTINUOUS
 10
-0.765138
 20
3.047256
  0
VERTEX
  8
PLAN_1
  6
CONTINUOUS
 10
-0.763791
 20
3.059402
  0
VERTEX
  8
PLAN_1
  6
CONTINUOUS
 10
-0.763339
 20
3.071996
  0
VERTEX
  8
PLAN_1
  6
CONTINUOUS
 10
-0.763339
 20
3.084594
  0
VERTEX
  8
PLAN_1
  6
CONTINUOUS
 10
-0.763791
 20
3.103937
  0
VERTEX
  8
PLAN_1
  6
CONTINUOUS
 10
-0.765138
 20
3.122831
  0
VERTEX
  8
PLAN_1
  6
CONTINUOUS
 10
-0.767390
 20
3.141720
  0
VERTEX
  8
PLAN_1
  6
CONTINUOUS
 10
-0.770535
 20
3.160165
  0
VERTEX
  8
PLAN_1
  6
CONTINUOUS
 10
-0.775035
 20
3.178157
  0
VERTEX
  8
PLAN_1
  6
CONTINUOUS
 10
-0.779984
 20
3.195701
  0
VERTEX
  8
PLAN_1
  6
CONTINUOUS
 10
-0.785831
 20
3.213244
  0
VERTEX
  8
PLAN_1
  6
CONTINUOUS
 10
-0.792579
 20
3.230339
  0
VERTEX
  8
PLAN_1
  6
CONTINUOUS
 10
-0.800224
 20
3.246984
  0
VERTEX
  8
PLAN_1
  6
CONTINUOUS
 10
-0.808323
 20
3.262728
  0
VERTEX
  8
PLAN_1
  6
CONTINUOUS
 10
-0.817319
 20
3.278472
  0
VERTEX
  8
PLAN_1
  6
CONTINUOUS
 10
-0.827217
 20
3.293764
  0
VERTEX
  8
PLAN_1
  6
CONTINUOUS
 10
-0.837563
 20
3.308161
  0
VERTEX
  8
PLAN_1
  6
CONTINUOUS
 10
-0.848358
 20
3.322555
  0
VERTEX
  8
PLAN_1
  6
CONTINUOUS
 10
-0.860504
 20
3.336047
  0
VERTEX
  8
PLAN_1
  6
CONTINUOUS
 10
-0.872650
 20
3.349094
  0
VERTEX
  8
PLAN_1
  6
CONTINUOUS
 10
-0.885693
 20
3.361240
  0
VERTEX
  8
PLAN_1
  6
CONTINUOUS
 10
-0.899189
 20
3.373386
  0
VERTEX
  8
PLAN_1
  6
CONTINUOUS
 10
-0.913134
 20
3.384181
  0
VERTEX
  8
PLAN_1
  6
CONTINUOUS
 10
-0.927980
 20
3.394528
  0
VERTEX
  8
PLAN_1
  6
CONTINUOUS
 10
-0.943272
 20
3.404425
  0
VERTEX
  8
PLAN_1
  6
CONTINUOUS
 10
-0.959016
 20
3.413421
  0
VERTEX
  8
PLAN_1
  6
CONTINUOUS
 10
-0.974760
 20
3.421516
  0
VERTEX
  8
PLAN_1
  6
CONTINUOUS
 10
-0.991406
 20
3.429165
  0
VERTEX
  8
PLAN_1
  6
CONTINUOUS
 10
-1.008500
 20
3.435913
  0
VERTEX
  8
PLAN_1
  6
CONTINUOUS
 10
-1.026043
 20
3.441760
  0
VERTEX
  8
PLAN_1
  6
CONTINUOUS
 10
-1.043587
 20
3.446709
  0
VERTEX
  8
PLAN_1
  6
CONTINUOUS
 10
-1.061579
 20
3.451205
  0
VERTEX
  8
PLAN_1
  6
CONTINUOUS
 10
-1.080020
 20
3.454354
  0
VERTEX
  8
PLAN_1
  6
CONTINUOUS
 10
-1.098913
 20
3.456602
  0
VERTEX
  8
PLAN_1
  6
CONTINUOUS
 10
-1.117807
 20
3.457953
  0
VERTEX
  8
PLAN_1
  6
CONTINUOUS
 10
-1.137150
 20
3.458402
  0
VERTEX
  8
PLAN_1
  6
CONTINUOUS
 10
-1.156492
 20
3.457953
  0
VERTEX
  8
PLAN_1
  6
CONTINUOUS
 10
-1.175386
 20
3.456602
  0
VERTEX
  8
PLAN_1
  6
CONTINUOUS
 10
-1.193831
 20
3.454354
  0
VERTEX
  8
PLAN_1
  6
CONTINUOUS
 10
-1.212272
 20
3.451205
  0
VERTEX
  8
PLAN_1
  6
CONTINUOUS
 10
-1.230717
 20
3.446709
  0
VERTEX
  8
PLAN_1
  6
CONTINUOUS
 10
-1.248260
 20
3.441760
  0
VERTEX
  8
PLAN_1
  6
CONTINUOUS
 10
-1.265803
 20
3.435913
  0
VERTEX
  8
PLAN_1
  6
CONTINUOUS
 10
-1.282445
 20
3.429165
  0
VERTEX
  8
PLAN_1
  6
CONTINUOUS
 10
-1.299091
 20
3.421516
  0
VERTEX
  8
PLAN_1
  6
CONTINUOUS
 10
-1.315283
 20
3.413421
  0
VERTEX
  8
PLAN_1
  6
CONTINUOUS
 10
-1.331028
 20
3.404425
  0
VERTEX
  8
PLAN_1
  6
CONTINUOUS
 10
-1.346323
 20
3.394528
  0
VERTEX
  8
PLAN_1
  6
CONTINUOUS
 10
-1.360717
 20
3.384181
  0
VERTEX
  8
PLAN_1
  6
CONTINUOUS
 10
-1.375110
 20
3.373386
  0
VERTEX
  8
PLAN_1
  6
CONTINUOUS
 10
-1.388606
 20
3.361240
  0
VERTEX
  8
PLAN_1
  6
CONTINUOUS
 10
-1.401650
 20
3.349094
  0
VERTEX
  8
PLAN_1
  6
CONTINUOUS
 10
-1.413795
 20
3.336047
  0
VERTEX
  8
PLAN_1
  6
CONTINUOUS
 10
-1.425492
 20
3.322555
  0
VERTEX
  8
PLAN_1
  6
CONTINUOUS
 10
-1.436736
 20
3.308161
  0
VERTEX
  8
PLAN_1
  6
CONTINUOUS
 10
-1.447083
 20
3.293764
  0
VERTEX
  8
PLAN_1
  6
CONTINUOUS
 10
-1.456980
 20
3.278472
  0
VERTEX
  8
PLAN_1
  6
CONTINUOUS
 10
-1.465976
 20
3.262728
  0
VERTEX
  8
PLAN_1
  6
CONTINUOUS
 10
-1.474075
 20
3.246984
  0
VERTEX
  8
PLAN_1
  6
CONTINUOUS
 10
-1.481720
 20
3.230339
  0
VERTEX
  8
PLAN_1
  6
CONTINUOUS
 10
-1.488469
 20
3.213244
  0
VERTEX
  8
PLAN_1
  6
CONTINUOUS
 10
-1.494315
 20
3.195701
  0
VERTEX
  8
PLAN_1
  6
CONTINUOUS
 10
-1.499264
 20
3.178157
  0
VERTEX
  8
PLAN_1
  6
CONTINUOUS
 10
-1.503315
 20
3.160165
  0
VERTEX
  8
PLAN_1
  6
CONTINUOUS
 10
-1.506913
 20
3.141720
  0
VERTEX
  8
PLAN_1
  6
CONTINUOUS
 10
-1.509161
 20
3.122831
  0
VERTEX
  8
PLAN_1
  6
CONTINUOUS
 10
-1.510512
 20
3.103937
  0
VERTEX
  8
PLAN_1
  6
CONTINUOUS
 10
-1.510961
 20
3.084594
  0
VERTEX
  8
PLAN_1
  6
CONTINUOUS
 10
-1.510961
 20
3.071996
  0
VERTEX
  8
PLAN_1
  6
CONTINUOUS
 10
-1.510059
 20
3.059402
  0
VERTEX
  8
PLAN_1
  6
CONTINUOUS
 10
-1.509161
 20
3.047256
  0
VERTEX
  8
PLAN_1
  6
CONTINUOUS
 10
-1.507811
 20
3.035110
  0
VERTEX
  8
PLAN_1
  6
CONTINUOUS
 10
-1.506012
 20
3.022965
  0
VERTEX
  8
PLAN_1
  6
CONTINUOUS
 10
-1.503764
 20
3.010823
  0
VERTEX
  8
PLAN_1
  6
CONTINUOUS
 10
-1.501063
 20
2.999126
  0
VERTEX
  8
PLAN_1
  6
CONTINUOUS
 10
-1.498366
 20
2.987429
  0
VERTEX
  8
PLAN_1
  6
CONTINUOUS
 10
-1.494768
 20
2.975732
  0
VERTEX
  8
PLAN_1
  6
CONTINUOUS
 10
-1.491169
 20
2.964488
  0
VERTEX
  8
PLAN_1
  6
CONTINUOUS
 10
-1.487118
 20
2.953244
  0
VERTEX
  8
PLAN_1
  6
CONTINUOUS
 10
-1.483071
 20
2.941996
  0
VERTEX
  8
PLAN_1
  6
CONTINUOUS
 10
-1.478122
 20
2.931201
  0
VERTEX
  8
PLAN_1
  6
CONTINUOUS
 10
-1.473173
 20
2.920406
  0
VERTEX
  8
PLAN_1
  6
CONTINUOUS
 10
-1.467776
 20
2.910059
  0
VERTEX
  8
PLAN_1
  6
CONTINUOUS
 10
-1.462378
 20
2.899713
  0
VERTEX
  8
PLAN_1
  6
CONTINUOUS
 10
-1.456083
 20
2.889815
  0
VERTEX
  8
PLAN_1
  6
CONTINUOUS
 10
-1.449783
 20
2.879469
  0
VERTEX
  8
PLAN_1
  6
CONTINUOUS
 10
-1.443484
 20
2.870024
  0
VERTEX
  8
PLAN_1
  6
CONTINUOUS
 10
-1.436287
 20
2.860579
  0
VERTEX
  8
PLAN_1
  6
CONTINUOUS
 10
-1.429091
 20
2.851130
  0
VERTEX
  8
PLAN_1
  6
CONTINUOUS
 10
-1.421894
 20
2.842134
  0
VERTEX
  8
PLAN_1
  6
CONTINUOUS
 10
-1.414248
 20
2.833587
  0
VERTEX
  8
PLAN_1
  6
CONTINUOUS
 10
-1.406150
 20
2.825039
  0
VERTEX
  8
PLAN_1
  6
CONTINUOUS
 10
-1.398051
 20
2.816492
  0
VERTEX
  8
PLAN_1
  6
CONTINUOUS
 10
-1.389504
 20
2.808846
  0
VERTEX
  8
PLAN_1
  6
CONTINUOUS
 10
-1.380508
 20
2.800748
  0
VERTEX
  8
PLAN_1
  6
CONTINUOUS
 10
-1.371512
 20
2.793551
  0
VERTEX
  8
PLAN_1
  6
CONTINUOUS
 10
-1.362516
 20
2.786354
  0
VERTEX
  8
PLAN_1
  6
CONTINUOUS
 10
-1.353071
 20
2.779157
  0
VERTEX
  8
PLAN_1
  6
CONTINUOUS
 10
-1.343173
 20
2.772858
  0
VERTEX
  8
PLAN_1
  6
CONTINUOUS
 10
-1.333276
 20
2.766114
  0
SEQEND
  8
0
  0
POLYLINE
  8
PLAN_1
 62
     2
  6
CONTINUOUS
 66
     1
 40
0.004047
 41
0.004047
  0
VERTEX
  8
PLAN_1
 62
     2
  6
CONTINUOUS
 10
0.198402
 20
1.128276
  0
VERTEX
  8
PLAN_1
 62
     2
  6
CONTINUOUS
 10
0.198402
 20
3.429165
  0
SEQEND
  8
0
  0
SOLID
  8
PLAN_1
 62
     2
 10
0.198402
 20
3.458854
 11
0.182657
 21
3.399925
 12
0.198402
 22
3.458854
 13
0.214146
 23
3.399925
  0
POLYLINE
  8
PLAN_1
 62
     2
  6
CONTINUOUS
 66
     1
 40
0.003000
 41
0.003000
  0
VERTEX
  8
PLAN_1
 62
     2
  6
CONTINUOUS
 10
0.198402
 20
3.458854
  0
VERTEX
  8
PLAN_1
 62
     2
  6
CONTINUOUS
 10
0.182657
 20
3.399925
  0
VERTEX
  8
PLAN_1
 62
     2
  6
CONTINUOUS
 10
0.214146
 20
3.399925
  0
VERTEX
  8
PLAN_1
 62
     2
  6
CONTINUOUS
 10
0.198402
 20
3.458854
  0
SEQEND
  8
0
  0
SOLID
  8
PLAN_1
 62
     2
 10
0.198402
 20
1.098587
 11
0.182657
 21
1.157965
 12
0.198402
 22
1.098587
 13
0.214146
 23
1.157965
  0
POLYLINE
  8
PLAN_1
 62
     2
  6
CONTINUOUS
 66
     1
 40
0.003000
 41
0.003000
  0
VERTEX
  8
PLAN_1
 62
     2
  6
CONTINUOUS
 10
0.198402
 20
1.098587
  0
VERTEX
  8
PLAN_1
 62
     2
  6
CONTINUOUS
 10
0.182657
 20
1.157965
  0
VERTEX
  8
PLAN_1
 62
     2
  6
CONTINUOUS
 10
0.214146
 20
1.157965
  0
VERTEX
  8
PLAN_1
 62
     2
  6
CONTINUOUS
 10
0.198402
 20
1.098587
  0
SEQEND
  8
0
  0
POLYLINE
  8
PLAN_1
 62
     2
  6
CONTINUOUS
 66
     1
 40
0.003000
 41
0.003000
  0
VERTEX
  8
PLAN_1
 62
     2
  6
CONTINUOUS
 10
0.121028
 20
2.220917
  0
VERTEX
  8
PLAN_1
 62
     2
  6
CONTINUOUS
 10
0.118780
 20
2.220469
  0
VERTEX
  8
PLAN_1
 62
     2
  6
CONTINUOUS
 10
0.116531
 20
2.219567
  0
VERTEX
  8
PLAN_1
 62
     2
  6
CONTINUOUS
 10
0.114732
 20
2.218217
  0
VERTEX
  8
PLAN_1
 62
     2
  6
CONTINUOUS
 10
0.112933
 20
2.216866
  0
VERTEX
  8
PLAN_1
 62
     2
  6
CONTINUOUS
 10
0.111583
 20
2.215520
  0
VERTEX
  8
PLAN_1
 62
     2
  6
CONTINUOUS
 10
0.110681
 20
2.213268
  0
VERTEX
  8
PLAN_1
 62
     2
  6
CONTINUOUS
 10
0.110232
 20
2.211020
  0
VERTEX
  8
PLAN_1
 62
     2
  6
CONTINUOUS
 10
0.109783
 20
2.208323
  0
VERTEX
  8
PLAN_1
 62
     2
  6
CONTINUOUS
 10
0.110232
 20
2.205622
  0
VERTEX
  8
PLAN_1
 62
     2
  6
CONTINUOUS
 10
0.110681
 20
2.203374
  0
VERTEX
  8
PLAN_1
 62
     2
  6
CONTINUOUS
 10
0.111583
 20
2.201122
  0
VERTEX
  8
PLAN_1
 62
     2
  6
CONTINUOUS
 10
0.112933
 20
2.199323
  0
VERTEX
  8
PLAN_1
 62
     2
  6
CONTINUOUS
 10
0.114732
 20
2.197976
  0
VERTEX
  8
PLAN_1
 62
     2
  6
CONTINUOUS
 10
0.116531
 20
2.196626
  0
VERTEX
  8
PLAN_1
 62
     2
  6
CONTINUOUS
 10
0.118331
 20
2.195276
  0
VERTEX
  8
PLAN_1
 62
     2
  6
CONTINUOUS
 10
0.120579
 20
2.194378
  0
VERTEX
  8
PLAN_1
 62
     2
  6
CONTINUOUS
 10
0.125079
 20
2.192579
  0
VERTEX
  8
PLAN_1
 62
     2
  6
CONTINUOUS
 10
0.129575
 20
2.191677
  0
VERTEX
  8
PLAN_1
 62
     2
  6
CONTINUOUS
 10
0.133626
 20
2.191228
  0
VERTEX
  8
PLAN_1
 62
     2
  6
CONTINUOUS
 10
0.136772
 20
2.190780
  0
VERTEX
  8
PLAN_1
 62
     2
  6
CONTINUOUS
 10
0.137224
 20
2.191228
  0
VERTEX
  8
PLAN_1
 62
     2
  6
CONTINUOUS
 10
0.135425
 20
2.192126
  0
VERTEX
  8
PLAN_1
 62
     2
  6
CONTINUOUS
 10
0.134075
 20
2.193476
  0
VERTEX
  8
PLAN_1
 62
     2
  6
CONTINUOUS
 10
0.132724
 20
2.194827
  0
VERTEX
  8
PLAN_1
 62
     2
  6
CONTINUOUS
 10
0.131374
 20
2.197075
  0
VERTEX
  8
PLAN_1
 62
     2
  6
CONTINUOUS
 10
0.130024
 20
2.199323
  0
VERTEX
  8
PLAN_1
 62
     2
  6
CONTINUOUS
 10
0.129126
 20
2.202024
  0
VERTEX
  8
PLAN_1
 62
     2
  6
CONTINUOUS
 10
0.128224
 20
2.204724
  0
VERTEX
  8
PLAN_1
 62
     2
  6
CONTINUOUS
 10
0.128224
 20
2.208323
  0
VERTEX
  8
PLAN_1
 62
     2
  6
CONTINUOUS
 10
0.128677
 20
2.211921
  0
VERTEX
  8
PLAN_1
 62
     2
  6
CONTINUOUS
 10
0.129575
 20
2.215969
  0
VERTEX
  8
PLAN_1
 62
     2
  6
CONTINUOUS
 10
0.130925
 20
2.219567
  0
VERTEX
  8
PLAN_1
 62
     2
  6
CONTINUOUS
 10
0.133173
 20
2.223165
  0
VERTEX
  8
PLAN_1
 62
     2
  6
CONTINUOUS
 10
0.134524
 20
2.224965
  0
VERTEX
  8
PLAN_1
 62
     2
  6
CONTINUOUS
 10
0.136323
 20
2.226315
  0
VERTEX
  8
PLAN_1
 62
     2
  6
CONTINUOUS
 10
0.138122
 20
2.227665
  0
VERTEX
  8
PLAN_1
 62
     2
  6
CONTINUOUS
 10
0.140370
 20
2.229012
  0
VERTEX
  8
PLAN_1
 62
     2
  6
CONTINUOUS
 10
0.142622
 20
2.229913
  0
VERTEX
  8
PLAN_1
 62
     2
  6
CONTINUOUS
 10
0.145319
 20
2.230811
  0
VERTEX
  8
PLAN_1
 62
     2
  6
CONTINUOUS
 10
0.148469
 20
2.231264
  0
VERTEX
  8
PLAN_1
 62
     2
  6
CONTINUOUS
 10
0.151618
 20
2.231264
  0
VERTEX
  8
PLAN_1
 62
     2
  6
CONTINUOUS
 10
0.154315
 20
2.231264
  0
VERTEX
  8
PLAN_1
 62
     2
  6
CONTINUOUS
 10
0.156567
 20
2.230811
  0
VERTEX
  8
PLAN_1
 62
     2
  6
CONTINUOUS
 10
0.159264
 20
2.230362
  0
VERTEX
  8
PLAN_1
 62
     2
  6
CONTINUOUS
 10
0.161516
 20
2.229913
  0
VERTEX
  8
PLAN_1
 62
     2
  6
CONTINUOUS
 10
0.163315
 20
2.228563
  0
VERTEX
  8
PLAN_1
 62
     2
  6
CONTINUOUS
 10
0.165563
 20
2.227665
  0
VERTEX
  8
PLAN_1
 62
     2
  6
CONTINUOUS
 10
0.167811
 20
2.226315
  0
VERTEX
  8
PLAN_1
 62
     2
  6
CONTINUOUS
 10
0.169610
 20
2.224516
  0
VERTEX
  8
PLAN_1
 62
     2
  6
CONTINUOUS
 10
0.171409
 20
2.222717
  0
VERTEX
  8
PLAN_1
 62
     2
  6
CONTINUOUS
 10
0.172760
 20
2.221366
  0
VERTEX
  8
PLAN_1
 62
     2
  6
CONTINUOUS
 10
0.173657
 20
2.219567
  0
VERTEX
  8
PLAN_1
 62
     2
  6
CONTINUOUS
 10
0.175008
 20
2.217319
  0
VERTEX
  8
PLAN_1
 62
     2
  6
CONTINUOUS
 10
0.175909
 20
2.215067
  0
VERTEX
  8
PLAN_1
 62
     2
  6
CONTINUOUS
 10
0.176358
 20
2.212370
  0
VERTEX
  8
PLAN_1
 62
     2
  6
CONTINUOUS
 10
0.176807
 20
2.209220
  0
VERTEX
  8
PLAN_1
 62
     2
  6
CONTINUOUS
 10
0.176807
 20
2.206071
  0
VERTEX
  8
PLAN_1
 62
     2
  6
CONTINUOUS
 10
0.176807
 20
2.203823
  0
VERTEX
  8
PLAN_1
 62
     2
  6
CONTINUOUS
 10
0.176358
 20
2.201122
  0
VERTEX
  8
PLAN_1
 62
     2
  6
CONTINUOUS
 10
0.175457
 20
2.198874
  0
VERTEX
  8
PLAN_1
 62
     2
  6
CONTINUOUS
 10
0.174559
 20
2.196177
  0
VERTEX
  8
PLAN_1
 62
     2
  6
CONTINUOUS
 10
0.173209
 20
2.193925
  0
VERTEX
  8
PLAN_1
 62
     2
  6
CONTINUOUS
 10
0.171409
 20
2.191228
  0
VERTEX
  8
PLAN_1
 62
     2
  6
CONTINUOUS
 10
0.169161
 20
2.188980
  0
VERTEX
  8
PLAN_1
 62
     2
  6
CONTINUOUS
 10
0.166012
 20
2.187177
  0
VERTEX
  8
PLAN_1
 62
     2
  6
CONTINUOUS
 10
0.163315
 20
2.185378
  0
VERTEX
  8
PLAN_1
 62
     2
  6
CONTINUOUS
 10
0.160614
 20
2.184480
  0
VERTEX
  8
PLAN_1
 62
     2
  6
CONTINUOUS
 10
0.157465
 20
2.183130
  0
VERTEX
  8
PLAN_1
 62
     2
  6
CONTINUOUS
 10
0.154315
 20
2.182681
  0
VERTEX
  8
PLAN_1
 62
     2
  6
CONTINUOUS
 10
0.151169
 20
2.182232
  0
VERTEX
  8
PLAN_1
 62
     2
  6
CONTINUOUS
 10
0.148020
 20
2.181780
  0
VERTEX
  8
PLAN_1
 62
     2
  6
CONTINUOUS
 10
0.144421
 20
2.181331
  0
VERTEX
  8
PLAN_1
 62
     2
  6
CONTINUOUS
 10
0.140823
 20
2.181331
  0
VERTEX
  8
PLAN_1
 62
     2
  6
CONTINUOUS
 10
0.134524
 20
2.181780
  0
VERTEX
  8
PLAN_1
 62
     2
  6
CONTINUOUS
 10
0.127776
 20
2.182681
  0
VERTEX
  8
PLAN_1
 62
     2
  6
CONTINUOUS
 10
0.124626
 20
2.183130
  0
VERTEX
  8
PLAN_1
 62
     2
  6
CONTINUOUS
 10
0.121480
 20
2.184031
  0
VERTEX
  8
PLAN_1
 62
     2
  6
CONTINUOUS
 10
0.118331
 20
2.185378
  0
VERTEX
  8
PLAN_1
 62
     2
  6
CONTINUOUS
 10
0.115181
 20
2.186728
  0
VERTEX
  8
PLAN_1
 62
     2
  6
CONTINUOUS
 10
0.112480
 20
2.188528
  0
VERTEX
  8
PLAN_1
 62
     2
  6
CONTINUOUS
 10
0.109783
 20
2.190327
  0
VERTEX
  8
PLAN_1
 62
     2
  6
CONTINUOUS
 10
0.107535
 20
2.192579
  0
VERTEX
  8
PLAN_1
 62
     2
  6
CONTINUOUS
 10
0.105736
 20
2.194827
  0
VERTEX
  8
PLAN_1
 62
     2
  6
CONTINUOUS
 10
0.103937
 20
2.197976
  0
VERTEX
  8
PLAN_1
 62
     2
  6
CONTINUOUS
 10
0.102587
 20
2.201122
  0
VERTEX
  8
PLAN_1
 62
     2
  6
CONTINUOUS
 10
0.102138
 20
2.204724
  0
VERTEX
  8
PLAN_1
 62
     2
  6
CONTINUOUS
 10
0.101685
 20
2.208323
  0
VERTEX
  8
PLAN_1
 62
     2
  6
CONTINUOUS
 10
0.102138
 20
2.211921
  0
VERTEX
  8
PLAN_1
 62
     2
  6
CONTINUOUS
 10
0.102587
 20
2.215067
  0
VERTEX
  8
PLAN_1
 62
     2
  6
CONTINUOUS
 10
0.103937
 20
2.218669
  0
VERTEX
  8
PLAN_1
 62
     2
  6
CONTINUOUS
 10
0.105736
 20
2.221815
  0
VERTEX
  8
PLAN_1
 62
     2
  6
CONTINUOUS
 10
0.108433
 20
2.224965
  0
VERTEX
  8
PLAN_1
 62
     2
  6
CONTINUOUS
 10
0.112031
 20
2.227213
  0
VERTEX
  8
PLAN_1
 62
     2
  6
CONTINUOUS
 10
0.113831
 20
2.228114
  0
VERTEX
  8
PLAN_1
 62
     2
  6
CONTINUOUS
 10
0.116083
 20
2.229012
  0
VERTEX
  8
PLAN_1
 62
     2
  6
CONTINUOUS
 10
0.118331
 20
2.229465
  0
VERTEX
  8
PLAN_1
 62
     2
  6
CONTINUOUS
 10
0.121028
 20
2.229913
  0
VERTEX
  8
PLAN_1
 62
     2
  6
CONTINUOUS
 10
0.121028
 20
2.220917
  0
SEQEND
  8
0
  0
POLYLINE
  8
PLAN_1
 62
     2
  6
CONTINUOUS
 66
     1
 40
0.003000
 41
0.003000
  0
VERTEX
  8
PLAN_1
 62
     2
  6
CONTINUOUS
 10
0.168713
 20
2.207421
  0
VERTEX
  8
PLAN_1
 62
     2
  6
CONTINUOUS
 10
0.168260
 20
2.210571
  0
VERTEX
  8
PLAN_1
 62
     2
  6
CONTINUOUS
 10
0.167362
 20
2.213268
  0
VERTEX
  8
PLAN_1
 62
     2
  6
CONTINUOUS
 10
0.166012
 20
2.215969
  0
VERTEX
  8
PLAN_1
 62
     2
  6
CONTINUOUS
 10
0.163764
 20
2.217768
  0
VERTEX
  8
PLAN_1
 62
     2
  6
CONTINUOUS
 10
0.161516
 20
2.219567
  0
VERTEX
  8
PLAN_1
 62
     2
  6
CONTINUOUS
 10
0.158815
 20
2.220917
  0
VERTEX
  8
PLAN_1
 62
     2
  6
CONTINUOUS
 10
0.155217
 20
2.221815
  0
VERTEX
  8
PLAN_1
 62
     2
  6
CONTINUOUS
 10
0.151618
 20
2.221815
  0
VERTEX
  8
PLAN_1
 62
     2
  6
CONTINUOUS
 10
0.149370
 20
2.221815
  0
VERTEX
  8
PLAN_1
 62
     2
  6
CONTINUOUS
 10
0.146669
 20
2.221366
  0
VERTEX
  8
PLAN_1
 62
     2
  6
CONTINUOUS
 10
0.143969
 20
2.220016
  0
VERTEX
  8
PLAN_1
 62
     2
  6
CONTINUOUS
 10
0.141720
 20
2.218669
  0
VERTEX
  8
PLAN_1
 62
     2
  6
CONTINUOUS
 10
0.139472
 20
2.216866
  0
VERTEX
  8
PLAN_1
 62
     2
  6
CONTINUOUS
 10
0.138122
 20
2.214169
  0
VERTEX
  8
PLAN_1
 62
     2
  6
CONTINUOUS
 10
0.136772
 20
2.211020
  0
VERTEX
  8
PLAN_1
 62
     2
  6
CONTINUOUS
 10
0.136323
 20
2.206972
  0
VERTEX
  8
PLAN_1
 62
     2
  6
CONTINUOUS
 10
0.136772
 20
2.203374
  0
VERTEX
  8
PLAN_1
 62
     2
  6
CONTINUOUS
 10
0.137673
 20
2.200673
  0
VERTEX
  8
PLAN_1
 62
     2
  6
CONTINUOUS
 10
0.139024
 20
2.197976
  0
VERTEX
  8
PLAN_1
 62
     2
  6
CONTINUOUS
 10
0.141272
 20
2.195724
  0
VERTEX
  8
PLAN_1
 62
     2
  6
CONTINUOUS
 10
0.143520
 20
2.194378
  0
VERTEX
  8
PLAN_1
 62
     2
  6
CONTINUOUS
 10
0.146220
 20
2.193028
  0
VERTEX
  8
PLAN_1
 62
     2
  6
CONTINUOUS
 10
0.149370
 20
2.192126
  0
VERTEX
  8
PLAN_1
 62
     2
  6
CONTINUOUS
 10
0.152516
 20
2.192126
  0
VERTEX
  8
PLAN_1
 62
     2
  6
CONTINUOUS
 10
0.155217
 20
2.192126
  0
VERTEX
  8
PLAN_1
 62
     2
  6
CONTINUOUS
 10
0.158366
 20
2.193028
  0
VERTEX
  8
PLAN_1
 62
     2
  6
CONTINUOUS
 10
0.161063
 20
2.194378
  0
VERTEX
  8
PLAN_1
 62
     2
  6
CONTINUOUS
 10
0.163315
 20
2.195724
  0
VERTEX
  8
PLAN_1
 62
     2
  6
CONTINUOUS
 10
0.165563
 20
2.197976
  0
VERTEX
  8
PLAN_1
 62
     2
  6
CONTINUOUS
 10
0.167362
 20
2.200673
  0
VERTEX
  8
PLAN_1
 62
     2
  6
CONTINUOUS
 10
0.168260
 20
2.203823
  0
VERTEX
  8
PLAN_1
 62
     2
  6
CONTINUOUS
 10
0.168713
 20
2.207421
  0
SEQEND
  8
0
  0
POLYLINE
  8
PLAN_1
 62
     2
  6
CONTINUOUS
 66
     1
 40
0.003000
 41
0.003000
  0
VERTEX
  8
PLAN_1
 62
     2
  6
CONTINUOUS
 10
0.176807
 20
2.264098
  0
VERTEX
  8
PLAN_1
 62
     2
  6
CONTINUOUS
 10
0.176358
 20
2.260500
  0
VERTEX
  8
PLAN_1
 62
     2
  6
CONTINUOUS
 10
0.175909
 20
2.257354
  0
VERTEX
  8
PLAN_1
 62
     2
  6
CONTINUOUS
 10
0.174559
 20
2.254205
  0
VERTEX
  8
PLAN_1
 62
     2
  6
CONTINUOUS
 10
0.173209
 20
2.251504
  0
VERTEX
  8
PLAN_1
 62
     2
  6
CONTINUOUS
 10
0.170961
 20
2.249256
  0
VERTEX
  8
PLAN_1
 62
     2
  6
CONTINUOUS
 10
0.168713
 20
2.247008
  0
VERTEX
  8
PLAN_1
 62
     2
  6
CONTINUOUS
 10
0.166461
 20
2.245209
  0
VERTEX
  8
PLAN_1
 62
     2
  6
CONTINUOUS
 10
0.163764
 20
2.243858
  0
VERTEX
  8
PLAN_1
 62
     2
  6
CONTINUOUS
 10
0.160614
 20
2.242508
  0
VERTEX
  8
PLAN_1
 62
     2
  6
CONTINUOUS
 10
0.157913
 20
2.241610
  0
VERTEX
  8
PLAN_1
 62
     2
  6
CONTINUOUS
 10
0.154768
 20
2.240709
  0
VERTEX
  8
PLAN_1
 62
     2
  6
CONTINUOUS
 10
0.151618
 20
2.240260
  0
VERTEX
  8
PLAN_1
 62
     2
  6
CONTINUOUS
 10
0.145319
 20
2.239358
  0
VERTEX
  8
PLAN_1
 62
     2
  6
CONTINUOUS
 10
0.139024
 20
2.239358
  0
VERTEX
  8
PLAN_1
 62
     2
  6
CONTINUOUS
 10
0.133173
 20
2.239358
  0
VERTEX
  8
PLAN_1
 62
     2
  6
CONTINUOUS
 10
0.126878
 20
2.240260
  0
VERTEX
  8
PLAN_1
 62
     2
  6
CONTINUOUS
 10
0.123728
 20
2.240709
  0
VERTEX
  8
PLAN_1
 62
     2
  6
CONTINUOUS
 10
0.120579
 20
2.241610
  0
VERTEX
  8
PLAN_1
 62
     2
  6
CONTINUOUS
 10
0.117882
 20
2.242508
  0
VERTEX
  8
PLAN_1
 62
     2
  6
CONTINUOUS
 10
0.114732
 20
2.243858
  0
VERTEX
  8
PLAN_1
 62
     2
  6
CONTINUOUS
 10
0.112031
 20
2.245209
  0
VERTEX
  8
PLAN_1
 62
     2
  6
CONTINUOUS
 10
0.109783
 20
2.247008
  0
VERTEX
  8
PLAN_1
 62
     2
  6
CONTINUOUS
 10
0.107535
 20
2.249256
  0
VERTEX
  8
PLAN_1
 62
     2
  6
CONTINUOUS
 10
0.105283
 20
2.251504
  0
VERTEX
  8
PLAN_1
 62
     2
  6
CONTINUOUS
 10
0.103937
 20
2.254205
  0
VERTEX
  8
PLAN_1
 62
     2
  6
CONTINUOUS
 10
0.102587
 20
2.257354
  0
VERTEX
  8
PLAN_1
 62
     2
  6
CONTINUOUS
 10
0.102138
 20
2.260500
  0
VERTEX
  8
PLAN_1
 62
     2
  6
CONTINUOUS
 10
0.101685
 20
2.264098
  0
VERTEX
  8
PLAN_1
 62
     2
  6
CONTINUOUS
 10
0.102138
 20
2.268150
  0
VERTEX
  8
PLAN_1
 62
     2
  6
CONTINUOUS
 10
0.102587
 20
2.271299
  0
VERTEX
  8
PLAN_1
 62
     2
  6
CONTINUOUS
 10
0.103937
 20
2.274445
  0
VERTEX
  8
PLAN_1
 62
     2
  6
CONTINUOUS
 10
0.105283
 20
2.277146
  0
VERTEX
  8
PLAN_1
 62
     2
  6
CONTINUOUS
 10
0.107535
 20
2.279394
  0
VERTEX
  8
PLAN_1
 62
     2
  6
CONTINUOUS
 10
0.109783
 20
2.281646
  0
VERTEX
  8
PLAN_1
 62
     2
  6
CONTINUOUS
 10
0.112031
 20
2.282992
  0
VERTEX
  8
PLAN_1
 62
     2
  6
CONTINUOUS
 10
0.114732
 20
2.284791
  0
VERTEX
  8
PLAN_1
 62
     2
  6
CONTINUOUS
 10
0.117882
 20
2.286142
  0
VERTEX
  8
PLAN_1
 62
     2
  6
CONTINUOUS
 10
0.120579
 20
2.287043
  0
VERTEX
  8
PLAN_1
 62
     2
  6
CONTINUOUS
 10
0.123728
 20
2.287941
  0
VERTEX
  8
PLAN_1
 62
     2
  6
CONTINUOUS
 10
0.126878
 20
2.288390
  0
VERTEX
  8
PLAN_1
 62
     2
  6
CONTINUOUS
 10
0.133173
 20
2.289291
  0
VERTEX
  8
PLAN_1
 62
     2
  6
CONTINUOUS
 10
0.139024
 20
2.289291
  0
VERTEX
  8
PLAN_1
 62
     2
  6
CONTINUOUS
 10
0.145319
 20
2.289291
  0
VERTEX
  8
PLAN_1
 62
     2
  6
CONTINUOUS
 10
0.151618
 20
2.288390
  0
VERTEX
  8
PLAN_1
 62
     2
  6
CONTINUOUS
 10
0.157913
 20
2.287043
  0
VERTEX
  8
PLAN_1
 62
     2
  6
CONTINUOUS
 10
0.163764
 20
2.284791
  0
VERTEX
  8
PLAN_1
 62
     2
  6
CONTINUOUS
 10
0.166461
 20
2.282992
  0
VERTEX
  8
PLAN_1
 62
     2
  6
CONTINUOUS
 10
0.168713
 20
2.281646
  0
VERTEX
  8
PLAN_1
 62
     2
  6
CONTINUOUS
 10
0.170961
 20
2.279394
  0
VERTEX
  8
PLAN_1
 62
     2
  6
CONTINUOUS
 10
0.173209
 20
2.277146
  0
VERTEX
  8
PLAN_1
 62
     2
  6
CONTINUOUS
 10
0.174559
 20
2.274445
  0
VERTEX
  8
PLAN_1
 62
     2
  6
CONTINUOUS
 10
0.175909
 20
2.271299
  0
VERTEX
  8
PLAN_1
 62
     2
  6
CONTINUOUS
 10
0.176358
 20
2.268150
  0
VERTEX
  8
PLAN_1
 62
     2
  6
CONTINUOUS
 10
0.176807
 20
2.264098
  0
SEQEND
  8
0
  0
POLYLINE
  8
PLAN_1
 62
     2
  6
CONTINUOUS
 66
     1
 40
0.003000
 41
0.003000
  0
VERTEX
  8
PLAN_1
 62
     2
  6
CONTINUOUS
 10
0.109783
 20
2.264098
  0
VERTEX
  8
PLAN_1
 62
     2
  6
CONTINUOUS
 10
0.110232
 20
2.262299
  0
VERTEX
  8
PLAN_1
 62
     2
  6
CONTINUOUS
 10
0.110232
 20
2.260500
  0
VERTEX
  8
PLAN_1
 62
     2
  6
CONTINUOUS
 10
0.111134
 20
2.259154
  0
VERTEX
  8
PLAN_1
 62
     2
  6
CONTINUOUS
 10
0.112031
 20
2.257354
  0
VERTEX
  8
PLAN_1
 62
     2
  6
CONTINUOUS
 10
0.112933
 20
2.256004
  0
VERTEX
  8
PLAN_1
 62
     2
  6
CONTINUOUS
 10
0.114280
 20
2.254654
  0
VERTEX
  8
PLAN_1
 62
     2
  6
CONTINUOUS
 10
0.116083
 20
2.253756
  0
VERTEX
  8
PLAN_1
 62
     2
  6
CONTINUOUS
 10
0.117882
 20
2.252854
  0
VERTEX
  8
PLAN_1
 62
     2
  6
CONTINUOUS
 10
0.121929
 20
2.251055
  0
VERTEX
  8
PLAN_1
 62
     2
  6
CONTINUOUS
 10
0.126878
 20
2.249705
  0
VERTEX
  8
PLAN_1
 62
     2
  6
CONTINUOUS
 10
0.132724
 20
2.249256
  0
VERTEX
  8
PLAN_1
 62
     2
  6
CONTINUOUS
 10
0.139024
 20
2.248807
  0
VERTEX
  8
PLAN_1
 62
     2
  6
CONTINUOUS
 10
0.145772
 20
2.249256
  0
VERTEX
  8
PLAN_1
 62
     2
  6
CONTINUOUS
 10
0.151618
 20
2.249705
  0
VERTEX
  8
PLAN_1
 62
     2
  6
CONTINUOUS
 10
0.156567
 20
2.251055
  0
VERTEX
  8
PLAN_1
 62
     2
  6
CONTINUOUS
 10
0.160614
 20
2.252854
  0
VERTEX
  8
PLAN_1
 62
     2
  6
CONTINUOUS
 10
0.162413
 20
2.253756
  0
VERTEX
  8
PLAN_1
 62
     2
  6
CONTINUOUS
 10
0.164213
 20
2.254654
  0
VERTEX
  8
PLAN_1
 62
     2
  6
CONTINUOUS
 10
0.165563
 20
2.256004
  0
VERTEX
  8
PLAN_1
 62
     2
  6
CONTINUOUS
 10
0.166461
 20
2.257354
  0
VERTEX
  8
PLAN_1
 62
     2
  6
CONTINUOUS
 10
0.167362
 20
2.259154
  0
VERTEX
  8
PLAN_1
 62
     2
  6
CONTINUOUS
 10
0.168260
 20
2.260500
  0
VERTEX
  8
PLAN_1
 62
     2
  6
CONTINUOUS
 10
0.168260
 20
2.262299
  0
VERTEX
  8
PLAN_1
 62
     2
  6
CONTINUOUS
 10
0.168713
 20
2.264098
  0
VERTEX
  8
PLAN_1
 62
     2
  6
CONTINUOUS
 10
0.168260
 20
2.266350
  0
VERTEX
  8
PLAN_1
 62
     2
  6
CONTINUOUS
 10
0.168260
 20
2.268150
  0
VERTEX
  8
PLAN_1
 62
     2
  6
CONTINUOUS
 10
0.167362
 20
2.269500
  0
VERTEX
  8
PLAN_1
 62
     2
  6
CONTINUOUS
 10
0.166461
 20
2.271299
  0
VERTEX
  8
PLAN_1
 62
     2
  6
CONTINUOUS
 10
0.165563
 20
2.272646
  0
VERTEX
  8
PLAN_1
 62
     2
  6
CONTINUOUS
 10
0.164213
 20
2.273547
  0
VERTEX
  8
PLAN_1
 62
     2
  6
CONTINUOUS
 10
0.162413
 20
2.274898
  0
VERTEX
  8
PLAN_1
 62
     2
  6
CONTINUOUS
 10
0.160614
 20
2.275795
  0
VERTEX
  8
PLAN_1
 62
     2
  6
CONTINUOUS
 10
0.156567
 20
2.277594
  0
VERTEX
  8
PLAN_1
 62
     2
  6
CONTINUOUS
 10
0.151618
 20
2.278496
  0
VERTEX
  8
PLAN_1
 62
     2
  6
CONTINUOUS
 10
0.145772
 20
2.279394
  0
VERTEX
  8
PLAN_1
 62
     2
  6
CONTINUOUS
 10
0.139024
 20
2.279394
  0
VERTEX
  8
PLAN_1
 62
     2
  6
CONTINUOUS
 10
0.132724
 20
2.279394
  0
VERTEX
  8
PLAN_1
 62
     2
  6
CONTINUOUS
 10
0.126878
 20
2.278496
  0
VERTEX
  8
PLAN_1
 62
     2
  6
CONTINUOUS
 10
0.121929
 20
2.277594
  0
VERTEX
  8
PLAN_1
 62
     2
  6
CONTINUOUS
 10
0.117882
 20
2.275795
  0
VERTEX
  8
PLAN_1
 62
     2
  6
CONTINUOUS
 10
0.116083
 20
2.274898
  0
VERTEX
  8
PLAN_1
 62
     2
  6
CONTINUOUS
 10
0.114280
 20
2.273547
  0
VERTEX
  8
PLAN_1
 62
     2
  6
CONTINUOUS
 10
0.112933
 20
2.272646
  0
VERTEX
  8
PLAN_1
 62
     2
  6
CONTINUOUS
 10
0.112031
 20
2.271299
  0
VERTEX
  8
PLAN_1
 62
     2
  6
CONTINUOUS
 10
0.111134
 20
2.269500
  0
VERTEX
  8
PLAN_1
 62
     2
  6
CONTINUOUS
 10
0.110232
 20
2.268150
  0
VERTEX
  8
PLAN_1
 62
     2
  6
CONTINUOUS
 10
0.110232
 20
2.266350
  0
VERTEX
  8
PLAN_1
 62
     2
  6
CONTINUOUS
 10
0.109783
 20
2.264098
  0
SEQEND
  8
0
  0
POLYLINE
  8
PLAN_1
 62
     2
  6
CONTINUOUS
 66
     1
 40
0.003000
 41
0.003000
  0
VERTEX
  8
PLAN_1
 62
     2
  6
CONTINUOUS
 10
0.163764
 20
2.302335
  0
VERTEX
  8
PLAN_1
 62
     2
  6
CONTINUOUS
 10
0.163764
 20
2.313134
  0
VERTEX
  8
PLAN_1
 62
     2
  6
CONTINUOUS
 10
0.174110
 20
2.313134
  0
VERTEX
  8
PLAN_1
 62
     2
  6
CONTINUOUS
 10
0.178606
 20
2.312681
  0
VERTEX
  8
PLAN_1
 62
     2
  6
CONTINUOUS
 10
0.182657
 20
2.311783
  0
VERTEX
  8
PLAN_1
 62
     2
  6
CONTINUOUS
 10
0.185354
 20
2.310433
  0
VERTEX
  8
PLAN_1
 62
     2
  6
CONTINUOUS
 10
0.187154
 20
2.308634
  0
VERTEX
  8
PLAN_1
 62
     2
  6
CONTINUOUS
 10
0.188504
 20
2.306835
  0
VERTEX
  8
PLAN_1
 62
     2
  6
CONTINUOUS
 10
0.189402
 20
2.305035
  0
VERTEX
  8
PLAN_1
 62
     2
  6
CONTINUOUS
 10
0.189854
 20
2.303236
  0
VERTEX
  8
PLAN_1
 62
     2
  6
CONTINUOUS
 10
0.190303
 20
2.302335
  0
VERTEX
  8
PLAN_1
 62
     2
  6
CONTINUOUS
 10
0.185354
 20
2.302335
  0
VERTEX
  8
PLAN_1
 62
     2
  6
CONTINUOUS
 10
0.184906
 20
2.303685
  0
VERTEX
  8
PLAN_1
 62
     2
  6
CONTINUOUS
 10
0.184004
 20
2.305035
  0
VERTEX
  8
PLAN_1
 62
     2
  6
CONTINUOUS
 10
0.183106
 20
2.305933
  0
VERTEX
  8
PLAN_1
 62
     2
  6
CONTINUOUS
 10
0.181756
 20
2.306835
  0
VERTEX
  8
PLAN_1
 62
     2
  6
CONTINUOUS
 10
0.180406
 20
2.307283
  0
VERTEX
  8
PLAN_1
 62
     2
  6
CONTINUOUS
 10
0.178606
 20
2.307732
  0
VERTEX
  8
PLAN_1
 62
     2
  6
CONTINUOUS
 10
0.176807
 20
2.307732
  0
VERTEX
  8
PLAN_1
 62
     2
  6
CONTINUOUS
 10
0.175008
 20
2.307732
  0
VERTEX
  8
PLAN_1
 62
     2
  6
CONTINUOUS
 10
0.175008
 20
2.302335
  0
VERTEX
  8
PLAN_1
 62
     2
  6
CONTINUOUS
 10
0.163764
 20
2.302335
  0
SEQEND
  8
0
  0
POLYLINE
  8
PLAN_1
 62
     2
  6
CONTINUOUS
 66
     1
 40
0.003000
 41
0.003000
  0
VERTEX
  8
PLAN_1
 62
     2
  6
CONTINUOUS
 10
0.132276
 20
2.337421
  0
VERTEX
  8
PLAN_1
 62
     2
  6
CONTINUOUS
 10
0.131374
 20
2.338772
  0
VERTEX
  8
PLAN_1
 62
     2
  6
CONTINUOUS
 10
0.130476
 20
2.340122
  0
VERTEX
  8
PLAN_1
 62
     2
  6
CONTINUOUS
 10
0.129575
 20
2.341472
  0
VERTEX
  8
PLAN_1
 62
     2
  6
CONTINUOUS
 10
0.129126
 20
2.343272
  0
VERTEX
  8
PLAN_1
 62
     2
  6
CONTINUOUS
 10
0.128677
 20
2.345071
  0
VERTEX
  8
PLAN_1
 62
     2
  6
CONTINUOUS
 10
0.128224
 20
2.346870
  0
VERTEX
  8
PLAN_1
 62
     2
  6
CONTINUOUS
 10
0.127776
 20
2.349118
  0
VERTEX
  8
PLAN_1
 62
     2
  6
CONTINUOUS
 10
0.127776
 20
2.351819
  0
VERTEX
  8
PLAN_1
 62
     2
  6
CONTINUOUS
 10
0.128224
 20
2.355866
  0
VERTEX
  8
PLAN_1
 62
     2
  6
CONTINUOUS
 10
0.129126
 20
2.360366
  0
VERTEX
  8
PLAN_1
 62
     2
  6
CONTINUOUS
 10
0.130925
 20
2.364413
  0
VERTEX
  8
PLAN_1
 62
     2
  6
CONTINUOUS
 10
0.133626
 20
2.368012
  0
VERTEX
  8
PLAN_1
 62
     2
  6
CONTINUOUS
 10
0.135425
 20
2.369811
  0
VERTEX
  8
PLAN_1
 62
     2
  6
CONTINUOUS
 10
0.137224
 20
2.371161
  0
VERTEX
  8
PLAN_1
 62
     2
  6
CONTINUOUS
 10
0.139024
 20
2.372508
  0
VERTEX
  8
PLAN_1
 62
     2
  6
CONTINUOUS
 10
0.141272
 20
2.373409
  0
VERTEX
  8
PLAN_1
 62
     2
  6
CONTINUOUS
 10
0.143520
 20
2.374311
  0
VERTEX
  8
PLAN_1
 62
     2
  6
CONTINUOUS
 10
0.145772
 20
2.375209
  0
VERTEX
  8
PLAN_1
 62
     2
  6
CONTINUOUS
 10
0.148469
 20
2.375657
  0
VERTEX
  8
PLAN_1
 62
     2
  6
CONTINUOUS
 10
0.151169
 20
2.375657
  0
VERTEX
  8
PLAN_1
 62
     2
  6
CONTINUOUS
 10
0.154768
 20
2.375657
  0
VERTEX
  8
PLAN_1
 62
     2
  6
CONTINUOUS
 10
0.158366
 20
2.374760
  0
VERTEX
  8
PLAN_1
 62
     2
  6
CONTINUOUS
 10
0.162862
 20
2.373409
  0
VERTEX
  8
PLAN_1
 62
     2
  6
CONTINUOUS
 10
0.166913
 20
2.371161
  0
VERTEX
  8
PLAN_1
 62
     2
  6
CONTINUOUS
 10
0.169161
 20
2.369362
  0
VERTEX
  8
PLAN_1
 62
     2
  6
CONTINUOUS
 10
0.170961
 20
2.367563
  0
VERTEX
  8
PLAN_1
 62
     2
  6
CONTINUOUS
 10
0.172311
 20
2.365311
  0
VERTEX
  8
PLAN_1
 62
     2
  6
CONTINUOUS
 10
0.174110
 20
2.363063
  0
VERTEX
  8
PLAN_1
 62
     2
  6
CONTINUOUS
 10
0.175008
 20
2.359913
  0
VERTEX
  8
PLAN_1
 62
     2
  6
CONTINUOUS
 10
0.175909
 20
2.356764
  0
VERTEX
  8
PLAN_1
 62
     2
  6
CONTINUOUS
 10
0.176807
 20
2.353165
  0
VERTEX
  8
PLAN_1
 62
     2
  6
CONTINUOUS
 10
0.176807
 20
2.349118
  0
VERTEX
  8
PLAN_1
 62
     2
  6
CONTINUOUS
 10
0.176807
 20
2.345520
  0
VERTEX
  8
PLAN_1
 62
     2
  6
CONTINUOUS
 10
0.175909
 20
2.341472
  0
VERTEX
  8
PLAN_1
 62
     2
  6
CONTINUOUS
 10
0.174559
 20
2.337874
  0
VERTEX
  8
PLAN_1
 62
     2
  6
CONTINUOUS
 10
0.172760
 20
2.334276
  0
VERTEX
  8
PLAN_1
 62
     2
  6
CONTINUOUS
 10
0.171409
 20
2.332925
  0
VERTEX
  8
PLAN_1
 62
     2
  6
CONTINUOUS
 10
0.170059
 20
2.331126
  0
VERTEX
  8
PLAN_1
 62
     2
  6
CONTINUOUS
 10
0.168713
 20
2.329776
  0
VERTEX
  8
PLAN_1
 62
     2
  6
CONTINUOUS
 10
0.166461
 20
2.328425
  0
VERTEX
  8
PLAN_1
 62
     2
  6
CONTINUOUS
 10
0.164661
 20
2.327528
  0
VERTEX
  8
PLAN_1
 62
     2
  6
CONTINUOUS
 10
0.161965
 20
2.326626
  0
VERTEX
  8
PLAN_1
 62
     2
  6
CONTINUOUS
 10
0.159713
 20
2.325728
  0
VERTEX
  8
PLAN_1
 62
     2
  6
CONTINUOUS
 10
0.156567
 20
2.325728
  0
VERTEX
  8
PLAN_1
 62
     2
  6
CONTINUOUS
 10
0.156567
 20
2.335173
  0
VERTEX
  8
PLAN_1
 62
     2
  6
CONTINUOUS
 10
0.159713
 20
2.335622
  0
VERTEX
  8
PLAN_1
 62
     2
  6
CONTINUOUS
 10
0.161965
 20
2.336524
  0
VERTEX
  8
PLAN_1
 62
     2
  6
CONTINUOUS
 10
0.164213
 20
2.338323
  0
VERTEX
  8
PLAN_1
 62
     2
  6
CONTINUOUS
 10
0.166012
 20
2.340122
  0
VERTEX
  8
PLAN_1
 62
     2
  6
CONTINUOUS
 10
0.167362
 20
2.342370
  0
VERTEX
  8
PLAN_1
 62
     2
  6
CONTINUOUS
 10
0.168260
 20
2.344622
  0
VERTEX
  8
PLAN_1
 62
     2
  6
CONTINUOUS
 10
0.168713
 20
2.347319
  0
VERTEX
  8
PLAN_1
 62
     2
  6
CONTINUOUS
 10
0.168713
 20
2.350469
  0
VERTEX
  8
PLAN_1
 62
     2
  6
CONTINUOUS
 10
0.168713
 20
2.354067
  0
VERTEX
  8
PLAN_1
 62
     2
  6
CONTINUOUS
 10
0.167362
 20
2.356764
  0
VERTEX
  8
PLAN_1
 62
     2
  6
CONTINUOUS
 10
0.166012
 20
2.359465
  0
VERTEX
  8
PLAN_1
 62
     2
  6
CONTINUOUS
 10
0.163764
 20
2.361713
  0
VERTEX
  8
PLAN_1
 62
     2
  6
CONTINUOUS
 10
0.161516
 20
2.363512
  0
VERTEX
  8
PLAN_1
 62
     2
  6
CONTINUOUS
 10
0.158815
 20
2.364862
  0
VERTEX
  8
PLAN_1
 62
     2
  6
CONTINUOUS
 10
0.155665
 20
2.365764
  0
VERTEX
  8
PLAN_1
 62
     2
  6
CONTINUOUS
 10
0.152067
 20
2.365764
  0
VERTEX
  8
PLAN_1
 62
     2
  6
CONTINUOUS
 10
0.148469
 20
2.365764
  0
VERTEX
  8
PLAN_1
 62
     2
  6
CONTINUOUS
 10
0.145319
 20
2.364413
  0
VERTEX
  8
PLAN_1
 62
     2
  6
CONTINUOUS
 10
0.142169
 20
2.363063
  0
VERTEX
  8
PLAN_1
 62
     2
  6
CONTINUOUS
 10
0.139921
 20
2.361264
  0
VERTEX
  8
PLAN_1
 62
     2
  6
CONTINUOUS
 10
0.138122
 20
2.358567
  0
VERTEX
  8
PLAN_1
 62
     2
  6
CONTINUOUS
 10
0.136772
 20
2.355866
  0
VERTEX
  8
PLAN_1
 62
     2
  6
CONTINUOUS
 10
0.136323
 20
2.352717
  0
VERTEX
  8
PLAN_1
 62
     2
  6
CONTINUOUS
 10
0.135874
 20
2.349567
  0
VERTEX
  8
PLAN_1
 62
     2
  6
CONTINUOUS
 10
0.135874
 20
2.347768
  0
VERTEX
  8
PLAN_1
 62
     2
  6
CONTINUOUS
 10
0.136323
 20
2.345969
  0
VERTEX
  8
PLAN_1
 62
     2
  6
CONTINUOUS
 10
0.136772
 20
2.343720
  0
VERTEX
  8
PLAN_1
 62
     2
  6
CONTINUOUS
 10
0.137673
 20
2.342370
  0
VERTEX
  8
PLAN_1
 62
     2
  6
CONTINUOUS
 10
0.138571
 20
2.340571
  0
VERTEX
  8
PLAN_1
 62
     2
  6
CONTINUOUS
 10
0.139921
 20
2.338772
  0
VERTEX
  8
PLAN_1
 62
     2
  6
CONTINUOUS
 10
0.141272
 20
2.337421
  0
VERTEX
  8
PLAN_1
 62
     2
  6
CONTINUOUS
 10
0.143071
 20
2.336075
  0
VERTEX
  8
PLAN_1
 62
     2
  6
CONTINUOUS
 10
0.142622
 20
2.328425
  0
VERTEX
  8
PLAN_1
 62
     2
  6
CONTINUOUS
 10
0.103035
 20
2.333823
  0
VERTEX
  8
PLAN_1
 62
     2
  6
CONTINUOUS
 10
0.103035
 20
2.371610
  0
VERTEX
  8
PLAN_1
 62
     2
  6
CONTINUOUS
 10
0.112031
 20
2.371610
  0
VERTEX
  8
PLAN_1
 62
     2
  6
CONTINUOUS
 10
0.112031
 20
2.340571
  0
VERTEX
  8
PLAN_1
 62
     2
  6
CONTINUOUS
 10
0.132276
 20
2.337421
  0
SEQEND
  8
0
  0
SOLID
  8
PLAN_1
 62
     2
 10
-1.402102
 20
3.349543
 11
-1.432689
 21
3.402626
 12
-1.402102
 22
3.349543
 13
-1.455181
 23
3.380134
  0
POLYLINE
  8
PLAN_1
 62
     2
  6
CONTINUOUS
 66
     1
 40
0.003000
 41
0.003000
  0
VERTEX
  8
PLAN_1
 62
     2
  6
CONTINUOUS
 10
-1.402102
 20
3.349543
  0
VERTEX
  8
PLAN_1
 62
     2
  6
CONTINUOUS
 10
-1.432689
 20
3.402626
  0
VERTEX
  8
PLAN_1
 62
     2
  6
CONTINUOUS
 10
-1.455181
 20
3.380134
  0
VERTEX
  8
PLAN_1
 62
     2
  6
CONTINUOUS
 10
-1.402102
 20
3.349543
  0
SEQEND
  8
0
  0
POLYLINE
  8
PLAN_1
 62
     2
  6
CONTINUOUS
 66
     1
 40
0.004047
 41
0.004047
  0
VERTEX
  8
PLAN_1
 62
     2
  6
CONTINUOUS
 10
-1.428642
 20
3.376083
  0
VERTEX
  8
PLAN_1
 62
     2
  6
CONTINUOUS
 10
-1.558193
 20
3.500689
  0
VERTEX
  8
PLAN_1
 62
     2
  6
CONTINUOUS
 10
-1.846535
 20
3.500689
  0
SEQEND
  8
0
  0
POLYLINE
  8
PLAN_1
 62
     2
  6
CONTINUOUS
 66
     1
 40
0.003000
 41
0.003000
  0
VERTEX
  8
PLAN_1
 62
     2
  6
CONTINUOUS
 10
-1.751622
 20
3.588406
  0
VERTEX
  8
PLAN_1
 62
     2
  6
CONTINUOUS
 10
-1.749370
 20
3.585256
  0
VERTEX
  8
PLAN_1
 62
     2
  6
CONTINUOUS
 10
-1.747571
 20
3.582106
  0
VERTEX
  8
PLAN_1
 62
     2
  6
CONTINUOUS
 10
-1.746220
 20
3.578508
  0
VERTEX
  8
PLAN_1
 62
     2
  6
CONTINUOUS
 10
-1.744874
 20
3.575358
  0
VERTEX
  8
PLAN_1
 62
     2
  6
CONTINUOUS
 10
-1.743972
 20
3.571760
  0
VERTEX
  8
PLAN_1
 62
     2
  6
CONTINUOUS
 10
-1.743524
 20
3.568161
  0
VERTEX
  8
PLAN_1
 62
     2
  6
CONTINUOUS
 10
-1.743075
 20
3.565012
  0
VERTEX
  8
PLAN_1
 62
     2
  6
CONTINUOUS
 10
-1.743075
 20
3.561866
  0
VERTEX
  8
PLAN_1
 62
     2
  6
CONTINUOUS
 10
-1.743524
 20
3.555567
  0
VERTEX
  8
PLAN_1
 62
     2
  6
CONTINUOUS
 10
-1.744874
 20
3.548819
  0
VERTEX
  8
PLAN_1
 62
     2
  6
CONTINUOUS
 10
-1.745772
 20
3.545220
  0
VERTEX
  8
PLAN_1
 62
     2
  6
CONTINUOUS
 10
-1.747122
 20
3.542071
  0
VERTEX
  8
PLAN_1
 62
     2
  6
CONTINUOUS
 10
-1.748921
 20
3.538925
  0
VERTEX
  8
PLAN_1
 62
     2
  6
CONTINUOUS
 10
-1.750720
 20
3.535776
  0
VERTEX
  8
PLAN_1
 62
     2
  6
CONTINUOUS
 10
-1.752969
 20
3.533075
  0
VERTEX
  8
PLAN_1
 62
     2
  6
CONTINUOUS
 10
-1.755669
 20
3.530378
  0
VERTEX
  8
PLAN_1
 62
     2
  6
CONTINUOUS
 10
-1.758819
 20
3.528126
  0
VERTEX
  8
PLAN_1
 62
     2
  6
CONTINUOUS
 10
-1.761965
 20
3.526327
  0
VERTEX
  8
PLAN_1
 62
     2
  6
CONTINUOUS
 10
-1.765567
 20
3.524528
  0
VERTEX
  8
PLAN_1
 62
     2
  6
CONTINUOUS
 10
-1.770063
 20
3.523177
  0
VERTEX
  8
PLAN_1
 62
     2
  6
CONTINUOUS
 10
-1.774563
 20
3.522728
  0
VERTEX
  8
PLAN_1
 62
     2
  6
CONTINUOUS
 10
-1.779508
 20
3.522280
  0
VERTEX
  8
PLAN_1
 62
     2
  6
CONTINUOUS
 10
-1.783559
 20
3.522728
  0
VERTEX
  8
PLAN_1
 62
     2
  6
CONTINUOUS
 10
-1.787157
 20
3.523177
  0
VERTEX
  8
PLAN_1
 62
     2
  6
CONTINUOUS
 10
-1.790307
 20
3.523630
  0
VERTEX
  8
PLAN_1
 62
     2
  6
CONTINUOUS
 10
-1.793453
 20
3.524980
  0
VERTEX
  8
PLAN_1
 62
     2
  6
CONTINUOUS
 10
-1.796602
 20
3.526327
  0
VERTEX
  8
PLAN_1
 62
     2
  6
CONTINUOUS
 10
-1.799303
 20
3.527677
  0
VERTEX
  8
PLAN_1
 62
     2
  6
CONTINUOUS
 10
-1.801551
 20
3.529476
  0
VERTEX
  8
PLAN_1
 62
     2
  6
CONTINUOUS
 10
-1.803799
 20
3.531276
  0
VERTEX
  8
PLAN_1
 62
     2
  6
CONTINUOUS
 10
-1.812346
 20
3.522280
  0
VERTEX
  8
PLAN_1
 62
     2
  6
CONTINUOUS
 10
-1.815496
 20
3.525429
  0
VERTEX
  8
PLAN_1
 62
     2
  6
CONTINUOUS
 10
-1.806949
 20
3.534425
  0
VERTEX
  8
PLAN_1
 62
     2
  6
CONTINUOUS
 10
-1.809197
 20
3.537575
  0
VERTEX
  8
PLAN_1
 62
     2
  6
CONTINUOUS
 10
-1.810996
 20
3.541173
  0
VERTEX
  8
PLAN_1
 62
     2
  6
CONTINUOUS
 10
-1.812799
 20
3.544323
  0
VERTEX
  8
PLAN_1
 62
     2
  6
CONTINUOUS
 10
-1.813697
 20
3.547921
  0
VERTEX
  8
PLAN_1
 62
     2
  6
CONTINUOUS
 10
-1.814598
 20
3.551520
  0
VERTEX
  8
PLAN_1
 62
     2
  6
CONTINUOUS
 10
-1.815496
 20
3.555118
  0
VERTEX
  8
PLAN_1
 62
     2
  6
CONTINUOUS
 10
-1.815496
 20
3.558268
  0
VERTEX
  8
PLAN_1
 62
     2
  6
CONTINUOUS
 10
-1.815945
 20
3.561866
  0
VERTEX
  8
PLAN_1
 62
     2
  6
CONTINUOUS
 10
-1.815496
 20
3.568161
  0
VERTEX
  8
PLAN_1
 62
     2
  6
CONTINUOUS
 10
-1.814146
 20
3.574461
  0
VERTEX
  8
PLAN_1
 62
     2
  6
CONTINUOUS
 10
-1.812799
 20
3.578059
  0
VERTEX
  8
PLAN_1
 62
     2
  6
CONTINUOUS
 10
-1.811449
 20
3.581209
  0
VERTEX
  8
PLAN_1
 62
     2
  6
CONTINUOUS
 10
-1.810098
 20
3.584354
  0
VERTEX
  8
PLAN_1
 62
     2
  6
CONTINUOUS
 10
-1.807850
 20
3.587504
  0
VERTEX
  8
PLAN_1
 62
     2
  6
CONTINUOUS
 10
-1.805598
 20
3.590205
  0
VERTEX
  8
PLAN_1
 62
     2
  6
CONTINUOUS
 10
-1.803350
 20
3.592902
  0
VERTEX
  8
PLAN_1
 62
     2
  6
CONTINUOUS
 10
-1.800201
 20
3.595154
  0
VERTEX
  8
PLAN_1
 62
     2
  6
CONTINUOUS
 10
-1.797055
 20
3.596953
  0
VERTEX
  8
PLAN_1
 62
     2
  6
CONTINUOUS
 10
-1.793004
 20
3.598752
  0
VERTEX
  8
PLAN_1
 62
     2
  6
CONTINUOUS
 10
-1.788957
 20
3.600098
  0
VERTEX
  8
PLAN_1
 62
     2
  6
CONTINUOUS
 10
-1.784457
 20
3.600551
  0
VERTEX
  8
PLAN_1
 62
     2
  6
CONTINUOUS
 10
-1.779508
 20
3.601000
  0
VERTEX
  8
PLAN_1
 62
     2
  6
CONTINUOUS
 10
-1.775461
 20
3.601000
  0
VERTEX
  8
PLAN_1
 62
     2
  6
CONTINUOUS
 10
-1.771413
 20
3.600551
  0
VERTEX
  8
PLAN_1
 62
     2
  6
CONTINUOUS
 10
-1.768264
 20
3.599650
  0
VERTEX
  8
PLAN_1
 62
     2
  6
CONTINUOUS
 10
-1.764665
 20
3.598299
  0
VERTEX
  8
PLAN_1
 62
     2
  6
CONTINUOUS
 10
-1.761965
 20
3.596953
  0
VERTEX
  8
PLAN_1
 62
     2
  6
CONTINUOUS
 10
-1.759268
 20
3.595602
  0
VERTEX
  8
PLAN_1
 62
     2
  6
CONTINUOUS
 10
-1.756567
 20
3.593803
  0
VERTEX
  8
PLAN_1
 62
     2
  6
CONTINUOUS
 10
-1.754768
 20
3.591555
  0
VERTEX
  8
PLAN_1
 62
     2
  6
CONTINUOUS
 10
-1.746220
 20
3.601000
  0
VERTEX
  8
PLAN_1
 62
     2
  6
CONTINUOUS
 10
-1.743075
 20
3.597850
  0
VERTEX
  8
PLAN_1
 62
     2
  6
CONTINUOUS
 10
-1.751622
 20
3.588406
  0
SEQEND
  8
0
  0
POLYLINE
  8
PLAN_1
 62
     2
  6
CONTINUOUS
 66
     1
 40
0.003000
 41
0.003000
  0
VERTEX
  8
PLAN_1
 62
     2
  6
CONTINUOUS
 10
-1.797504
 20
3.538472
  0
VERTEX
  8
PLAN_1
 62
     2
  6
CONTINUOUS
 10
-1.795705
 20
3.537122
  0
VERTEX
  8
PLAN_1
 62
     2
  6
CONTINUOUS
 10
-1.793906
 20
3.535776
  0
VERTEX
  8
PLAN_1
 62
     2
  6
CONTINUOUS
 10
-1.791654
 20
3.534425
  0
VERTEX
  8
PLAN_1
 62
     2
  6
CONTINUOUS
 10
-1.789406
 20
3.533075
  0
VERTEX
  8
PLAN_1
 62
     2
  6
CONTINUOUS
 10
-1.787157
 20
3.532177
  0
VERTEX
  8
PLAN_1
 62
     2
  6
CONTINUOUS
 10
-1.784909
 20
3.531724
  0
VERTEX
  8
PLAN_1
 62
     2
  6
CONTINUOUS
 10
-1.782209
 20
3.531276
  0
VERTEX
  8
PLAN_1
 62
     2
  6
CONTINUOUS
 10
-1.779508
 20
3.531276
  0
VERTEX
  8
PLAN_1
 62
     2
  6
CONTINUOUS
 10
-1.776362
 20
3.531276
  0
VERTEX
  8
PLAN_1
 62
     2
  6
CONTINUOUS
 10
-1.773661
 20
3.531724
  0
VERTEX
  8
PLAN_1
 62
     2
  6
CONTINUOUS
 10
-1.770965
 20
3.532626
  0
VERTEX
  8
PLAN_1
 62
     2
  6
CONTINUOUS
 10
-1.768713
 20
3.533524
  0
VERTEX
  8
PLAN_1
 62
     2
  6
CONTINUOUS
 10
-1.766016
 20
3.534874
  0
VERTEX
  8
PLAN_1
 62
     2
  6
CONTINUOUS
 10
-1.764217
 20
3.536224
  0
VERTEX
  8
PLAN_1
 62
     2
  6
CONTINUOUS
 10
-1.761965
 20
3.538024
  0
VERTEX
  8
PLAN_1
 62
     2
  6
CONTINUOUS
 10
-1.760165
 20
3.539823
  0
VERTEX
  8
PLAN_1
 62
     2
  6
CONTINUOUS
 10
-1.758819
 20
3.542071
  0
VERTEX
  8
PLAN_1
 62
     2
  6
CONTINUOUS
 10
-1.757469
 20
3.544323
  0
VERTEX
  8
PLAN_1
 62
     2
  6
CONTINUOUS
 10
-1.756118
 20
3.547020
  0
VERTEX
  8
PLAN_1
 62
     2
  6
CONTINUOUS
 10
-1.755220
 20
3.549720
  0
VERTEX
  8
PLAN_1
 62
     2
  6
CONTINUOUS
 10
-1.754319
 20
3.552417
  0
VERTEX
  8
PLAN_1
 62
     2
  6
CONTINUOUS
 10
-1.753870
 20
3.555118
  0
VERTEX
  8
PLAN_1
 62
     2
  6
CONTINUOUS
 10
-1.753421
 20
3.558268
  0
VERTEX
  8
PLAN_1
 62
     2
  6
CONTINUOUS
 10
-1.753421
 20
3.561866
  0
VERTEX
  8
PLAN_1
 62
     2
  6
CONTINUOUS
 10
-1.753421
 20
3.564563
  0
VERTEX
  8
PLAN_1
 62
     2
  6
CONTINUOUS
 10
-1.753870
 20
3.567264
  0
VERTEX
  8
PLAN_1
 62
     2
  6
CONTINUOUS
 10
-1.754319
 20
3.569512
  0
VERTEX
  8
PLAN_1
 62
     2
  6
CONTINUOUS
 10
-1.754768
 20
3.572213
  0
VERTEX
  8
PLAN_1
 62
     2
  6
CONTINUOUS
 10
-1.755220
 20
3.574461
  0
VERTEX
  8
PLAN_1
 62
     2
  6
CONTINUOUS
 10
-1.756118
 20
3.576709
  0
VERTEX
  8
PLAN_1
 62
     2
  6
CONTINUOUS
 10
-1.757469
 20
3.578957
  0
VERTEX
  8
PLAN_1
 62
     2
  6
CONTINUOUS
 10
-1.758366
 20
3.580756
  0
VERTEX
  8
PLAN_1
 62
     2
  6
CONTINUOUS
 10
-1.797504
 20
3.538472
  0
SEQEND
  8
0
  0
POLYLINE
  8
PLAN_1
 62
     2
  6
CONTINUOUS
 66
     1
 40
0.003000
 41
0.003000
  0
VERTEX
  8
PLAN_1
 62
     2
  6
CONTINUOUS
 10
-1.761067
 20
3.584354
  0
VERTEX
  8
PLAN_1
 62
     2
  6
CONTINUOUS
 10
-1.762866
 20
3.586157
  0
VERTEX
  8
PLAN_1
 62
     2
  6
CONTINUOUS
 10
-1.764665
 20
3.587504
  0
VERTEX
  8
PLAN_1
 62
     2
  6
CONTINUOUS
 10
-1.766913
 20
3.588854
  0
VERTEX
  8
PLAN_1
 62
     2
  6
CONTINUOUS
 10
-1.769165
 20
3.590205
  0
VERTEX
  8
PLAN_1
 62
     2
  6
CONTINUOUS
 10
-1.771413
 20
3.591102
  0
VERTEX
  8
PLAN_1
 62
     2
  6
CONTINUOUS
 10
-1.774110
 20
3.591555
  0
VERTEX
  8
PLAN_1
 62
     2
  6
CONTINUOUS
 10
-1.776811
 20
3.592004
  0
VERTEX
  8
PLAN_1
 62
     2
  6
CONTINUOUS
 10
-1.779508
 20
3.592004
  0
VERTEX
  8
PLAN_1
 62
     2
  6
CONTINUOUS
 10
-1.782209
 20
3.592004
  0
VERTEX
  8
PLAN_1
 62
     2
  6
CONTINUOUS
 10
-1.785358
 20
3.591555
  0
VERTEX
  8
PLAN_1
 62
     2
  6
CONTINUOUS
 10
-1.788055
 20
3.590654
  0
VERTEX
  8
PLAN_1
 62
     2
  6
CONTINUOUS
 10
-1.790307
 20
3.589756
  0
VERTEX
  8
PLAN_1
 62
     2
  6
CONTINUOUS
 10
-1.792555
 20
3.588406
  0
VERTEX
  8
PLAN_1
 62
     2
  6
CONTINUOUS
 10
-1.794803
 20
3.587055
  0
VERTEX
  8
PLAN_1
 62
     2
  6
CONTINUOUS
 10
-1.796602
 20
3.585256
  0
VERTEX
  8
PLAN_1
 62
     2
  6
CONTINUOUS
 10
-1.798402
 20
3.583457
  0
VERTEX
  8
PLAN_1
 62
     2
  6
CONTINUOUS
 10
-1.800201
 20
3.581209
  0
VERTEX
  8
PLAN_1
 62
     2
  6
CONTINUOUS
 10
-1.801551
 20
3.578957
  0
VERTEX
  8
PLAN_1
 62
     2
  6
CONTINUOUS
 10
-1.802453
 20
3.576709
  0
VERTEX
  8
PLAN_1
 62
     2
  6
CONTINUOUS
 10
-1.803799
 20
3.574012
  0
VERTEX
  8
PLAN_1
 62
     2
  6
CONTINUOUS
 10
-1.804252
 20
3.570862
  0
VERTEX
  8
PLAN_1
 62
     2
  6
CONTINUOUS
 10
-1.805150
 20
3.568161
  0
VERTEX
  8
PLAN_1
 62
     2
  6
CONTINUOUS
 10
-1.805150
 20
3.565012
  0
VERTEX
  8
PLAN_1
 62
     2
  6
CONTINUOUS
 10
-1.805598
 20
3.561866
  0
VERTEX
  8
PLAN_1
 62
     2
  6
CONTINUOUS
 10
-1.805150
 20
3.558717
  0
VERTEX
  8
PLAN_1
 62
     2
  6
CONTINUOUS
 10
-1.805150
 20
3.556016
  0
VERTEX
  8
PLAN_1
 62
     2
  6
CONTINUOUS
 10
-1.804701
 20
3.553319
  0
VERTEX
  8
PLAN_1
 62
     2
  6
CONTINUOUS
 10
-1.804252
 20
3.551067
  0
VERTEX
  8
PLAN_1
 62
     2
  6
CONTINUOUS
 10
-1.803350
 20
3.548819
  0
VERTEX
  8
PLAN_1
 62
     2
  6
CONTINUOUS
 10
-1.802453
 20
3.546122
  0
VERTEX
  8
PLAN_1
 62
     2
  6
CONTINUOUS
 10
-1.801551
 20
3.544323
  0
VERTEX
  8
PLAN_1
 62
     2
  6
CONTINUOUS
 10
-1.800201
 20
3.542071
  0
VERTEX
  8
PLAN_1
 62
     2
  6
CONTINUOUS
 10
-1.761067
 20
3.584354
  0
SEQEND
  8
0
  0
POLYLINE
  8
PLAN_1
 62
     2
  6
CONTINUOUS
 66
     1
 40
0.003000
 41
0.003000
  0
VERTEX
  8
PLAN_1
 62
     2
  6
CONTINUOUS
 10
-1.701689
 20
3.524528
  0
VERTEX
  8
PLAN_1
 62
     2
  6
CONTINUOUS
 10
-1.711134
 20
3.524528
  0
VERTEX
  8
PLAN_1
 62
     2
  6
CONTINUOUS
 10
-1.711134
 20
3.576260
  0
VERTEX
  8
PLAN_1
 62
     2
  6
CONTINUOUS
 10
-1.728228
 20
3.576260
  0
VERTEX
  8
PLAN_1
 62
     2
  6
CONTINUOUS
 10
-1.728228
 20
3.583457
  0
VERTEX
  8
PLAN_1
 62
     2
  6
CONTINUOUS
 10
-1.724181
 20
3.583906
  0
VERTEX
  8
PLAN_1
 62
     2
  6
CONTINUOUS
 10
-1.720583
 20
3.584354
  0
VERTEX
  8
PLAN_1
 62
     2
  6
CONTINUOUS
 10
-1.717882
 20
3.585256
  0
VERTEX
  8
PLAN_1
 62
     2
  6
CONTINUOUS
 10
-1.715185
 20
3.586157
  0
VERTEX
  8
PLAN_1
 62
     2
  6
CONTINUOUS
 10
-1.712933
 20
3.587957
  0
VERTEX
  8
PLAN_1
 62
     2
  6
CONTINUOUS
 10
-1.711134
 20
3.590205
  0
VERTEX
  8
PLAN_1
 62
     2
  6
CONTINUOUS
 10
-1.709787
 20
3.593354
  0
VERTEX
  8
PLAN_1
 62
     2
  6
CONTINUOUS
 10
-1.708886
 20
3.597402
  0
VERTEX
  8
PLAN_1
 62
     2
  6
CONTINUOUS
 10
-1.701689
 20
3.597402
  0
VERTEX
  8
PLAN_1
 62
     2
  6
CONTINUOUS
 10
-1.701689
 20
3.524528
  0
SEQEND
  8
0
  0
POLYLINE
  8
PLAN_1
 62
     2
  6
CONTINUOUS
 66
     1
 40
0.003000
 41
0.003000
  0
VERTEX
  8
PLAN_1
 62
     2
  6
CONTINUOUS
 10
-1.676500
 20
3.571311
  0
VERTEX
  8
PLAN_1
 62
     2
  6
CONTINUOUS
 10
-1.676047
 20
3.575358
  0
VERTEX
  8
PLAN_1
 62
     2
  6
CONTINUOUS
 10
-1.675598
 20
3.579409
  0
VERTEX
  8
PLAN_1
 62
     2
  6
CONTINUOUS
 10
-1.674701
 20
3.582555
  0
VERTEX
  8
PLAN_1
 62
     2
  6
CONTINUOUS
 10
-1.673350
 20
3.585256
  0
VERTEX
  8
PLAN_1
 62
     2
  6
CONTINUOUS
 10
-1.672000
 20
3.587957
  0
VERTEX
  8
PLAN_1
 62
     2
  6
CONTINUOUS
 10
-1.670650
 20
3.590205
  0
VERTEX
  8
PLAN_1
 62
     2
  6
CONTINUOUS
 10
-1.668850
 20
3.592004
  0
VERTEX
  8
PLAN_1
 62
     2
  6
CONTINUOUS
 10
-1.666602
 20
3.593354
  0
VERTEX
  8
PLAN_1
 62
     2
  6
CONTINUOUS
 10
-1.662555
 20
3.595602
  0
VERTEX
  8
PLAN_1
 62
     2
  6
CONTINUOUS
 10
-1.658504
 20
3.596500
  0
VERTEX
  8
PLAN_1
 62
     2
  6
CONTINUOUS
 10
-1.654457
 20
3.597402
  0
VERTEX
  8
PLAN_1
 62
     2
  6
CONTINUOUS
 10
-1.651307
 20
3.597402
  0
VERTEX
  8
PLAN_1
 62
     2
  6
CONTINUOUS
 10
-1.646358
 20
3.596953
  0
VERTEX
  8
PLAN_1
 62
     2
  6
CONTINUOUS
 10
-1.642311
 20
3.596051
  0
VERTEX
  8
PLAN_1
 62
     2
  6
CONTINUOUS
 10
-1.638264
 20
3.594252
  0
VERTEX
  8
PLAN_1
 62
     2
  6
CONTINUOUS
 10
-1.635114
 20
3.591555
  0
VERTEX
  8
PLAN_1
 62
     2
  6
CONTINUOUS
 10
-1.631965
 20
3.588406
  0
VERTEX
  8
PLAN_1
 62
     2
  6
CONTINUOUS
 10
-1.630165
 20
3.584807
  0
VERTEX
  8
PLAN_1
 62
     2
  6
CONTINUOUS
 10
-1.629268
 20
3.582555
  0
VERTEX
  8
PLAN_1
 62
     2
  6
CONTINUOUS
 10
-1.628815
 20
3.580307
  0
VERTEX
  8
PLAN_1
 62
     2
  6
CONTINUOUS
 10
-1.628366
 20
3.578059
  0
VERTEX
  8
PLAN_1
 62
     2
  6
CONTINUOUS
 10
-1.628366
 20
3.575811
  0
VERTEX
  8
PLAN_1
 62
     2
  6
CONTINUOUS
 10
-1.628815
 20
3.570862
  0
VERTEX
  8
PLAN_1
 62
     2
  6
CONTINUOUS
 10
-1.629717
 20
3.567264
  0
VERTEX
  8
PLAN_1
 62
     2
  6
CONTINUOUS
 10
-1.631516
 20
3.563665
  0
VERTEX
  8
PLAN_1
 62
     2
  6
CONTINUOUS
 10
-1.633764
 20
3.560516
  0
VERTEX
  8
PLAN_1
 62
     2
  6
CONTINUOUS
 10
-1.636913
 20
3.557815
  0
VERTEX
  8
PLAN_1
 62
     2
  6
CONTINUOUS
 10
-1.640063
 20
3.555567
  0
VERTEX
  8
PLAN_1
 62
     2
  6
CONTINUOUS
 10
-1.643661
 20
3.553319
  0
VERTEX
  8
PLAN_1
 62
     2
  6
CONTINUOUS
 10
-1.647709
 20
3.551067
  0
VERTEX
  8
PLAN_1
 62
     2
  6
CONTINUOUS
 10
-1.655354
 20
3.547020
  0
VERTEX
  8
PLAN_1
 62
     2
  6
CONTINUOUS
 10
-1.658957
 20
3.544772
  0
VERTEX
  8
PLAN_1
 62
     2
  6
CONTINUOUS
 10
-1.661654
 20
3.542972
  0
VERTEX
  8
PLAN_1
 62
     2
  6
CONTINUOUS
 10
-1.663453
 20
3.540724
  0
VERTEX
  8
PLAN_1
 62
     2
  6
CONTINUOUS
 10
-1.665252
 20
3.538925
  0
VERTEX
  8
PLAN_1
 62
     2
  6
CONTINUOUS
 10
-1.666602
 20
3.537122
  0
VERTEX
  8
PLAN_1
 62
     2
  6
CONTINUOUS
 10
-1.667051
 20
3.535776
  0
VERTEX
  8
PLAN_1
 62
     2
  6
CONTINUOUS
 10
-1.667953
 20
3.533976
  0
VERTEX
  8
PLAN_1
 62
     2
  6
CONTINUOUS
 10
-1.667953
 20
3.533075
  0
VERTEX
  8
PLAN_1
 62
     2
  6
CONTINUOUS
 10
-1.628366
 20
3.533075
  0
VERTEX
  8
PLAN_1
 62
     2
  6
CONTINUOUS
 10
-1.628366
 20
3.524528
  0
VERTEX
  8
PLAN_1
 62
     2
  6
CONTINUOUS
 10
-1.678299
 20
3.524528
  0
VERTEX
  8
PLAN_1
 62
     2
  6
CONTINUOUS
 10
-1.677846
 20
3.529476
  0
VERTEX
  8
PLAN_1
 62
     2
  6
CONTINUOUS
 10
-1.676949
 20
3.534425
  0
VERTEX
  8
PLAN_1
 62
     2
  6
CONTINUOUS
 10
-1.675150
 20
3.538472
  0
VERTEX
  8
PLAN_1
 62
     2
  6
CONTINUOUS
 10
-1.673350
 20
3.542524
  0
VERTEX
  8
PLAN_1
 62
     2
  6
CONTINUOUS
 10
-1.670650
 20
3.545669
  0
VERTEX
  8
PLAN_1
 62
     2
  6
CONTINUOUS
 10
-1.667953
 20
3.548370
  0
VERTEX
  8
PLAN_1
 62
     2
  6
CONTINUOUS
 10
-1.664803
 20
3.551067
  0
VERTEX
  8
PLAN_1
 62
     2
  6
CONTINUOUS
 10
-1.661205
 20
3.553319
  0
VERTEX
  8
PLAN_1
 62
     2
  6
CONTINUOUS
 10
-1.651307
 20
3.559165
  0
VERTEX
  8
PLAN_1
 62
     2
  6
CONTINUOUS
 10
-1.648610
 20
3.560516
  0
VERTEX
  8
PLAN_1
 62
     2
  6
CONTINUOUS
 10
-1.645909
 20
3.562315
  0
VERTEX
  8
PLAN_1
 62
     2
  6
CONTINUOUS
 10
-1.643661
 20
3.563665
  0
VERTEX
  8
PLAN_1
 62
     2
  6
CONTINUOUS
 10
-1.641862
 20
3.565465
  0
VERTEX
  8
PLAN_1
 62
     2
  6
CONTINUOUS
 10
-1.640063
 20
3.567713
  0
VERTEX
  8
PLAN_1
 62
     2
  6
CONTINUOUS
 10
-1.639161
 20
3.569961
  0
VERTEX
  8
PLAN_1
 62
     2
  6
CONTINUOUS
 10
-1.638264
 20
3.572661
  0
VERTEX
  8
PLAN_1
 62
     2
  6
CONTINUOUS
 10
-1.637811
 20
3.576260
  0
VERTEX
  8
PLAN_1
 62
     2
  6
CONTINUOUS
 10
-1.638264
 20
3.578059
  0
VERTEX
  8
PLAN_1
 62
     2
  6
CONTINUOUS
 10
-1.638713
 20
3.580756
  0
VERTEX
  8
PLAN_1
 62
     2
  6
CONTINUOUS
 10
-1.639610
 20
3.582555
  0
VERTEX
  8
PLAN_1
 62
     2
  6
CONTINUOUS
 10
-1.641413
 20
3.584807
  0
VERTEX
  8
PLAN_1
 62
     2
  6
CONTINUOUS
 10
-1.643213
 20
3.586606
  0
VERTEX
  8
PLAN_1
 62
     2
  6
CONTINUOUS
 10
-1.645909
 20
3.587957
  0
VERTEX
  8
PLAN_1
 62
     2
  6
CONTINUOUS
 10
-1.648610
 20
3.588854
  0
VERTEX
  8
PLAN_1
 62
     2
  6
CONTINUOUS
 10
-1.652657
 20
3.589303
  0
VERTEX
  8
PLAN_1
 62
     2
  6
CONTINUOUS
 10
-1.654906
 20
3.589303
  0
VERTEX
  8
PLAN_1
 62
     2
  6
CONTINUOUS
 10
-1.657157
 20
3.588854
  0
VERTEX
  8
PLAN_1
 62
     2
  6
CONTINUOUS
 10
-1.658957
 20
3.587957
  0
VERTEX
  8
PLAN_1
 62
     2
  6
CONTINUOUS
 10
-1.660756
 20
3.587055
  0
VERTEX
  8
PLAN_1
 62
     2
  6
CONTINUOUS
 10
-1.662102
 20
3.586157
  0
VERTEX
  8
PLAN_1
 62
     2
  6
CONTINUOUS
 10
-1.663004
 20
3.584807
  0
VERTEX
  8
PLAN_1
 62
     2
  6
CONTINUOUS
 10
-1.664354
 20
3.583457
  0
VERTEX
  8
PLAN_1
 62
     2
  6
CONTINUOUS
 10
-1.664803
 20
3.582106
  0
VERTEX
  8
PLAN_1
 62
     2
  6
CONTINUOUS
 10
-1.666154
 20
3.578957
  0
VERTEX
  8
PLAN_1
 62
     2
  6
CONTINUOUS
 10
-1.666602
 20
3.576260
  0
VERTEX
  8
PLAN_1
 62
     2
  6
CONTINUOUS
 10
-1.667051
 20
3.573559
  0
VERTEX
  8
PLAN_1
 62
     2
  6
CONTINUOUS
 10
-1.667051
 20
3.571311
  0
VERTEX
  8
PLAN_1
 62
     2
  6
CONTINUOUS
 10
-1.676500
 20
3.571311
  0
SEQEND
  8
0
  0
POLYLINE
  8
PLAN_1
 62
     2
  6
CONTINUOUS
 66
     1
 40
0.004047
 41
0.004047
  0
VERTEX
  8
PLAN_1
 62
     2
  6
CONTINUOUS
 10
-0.448909
 20
2.130051
  0
VERTEX
  8
PLAN_1
 62
     2
  6
CONTINUOUS
 10
-0.448909
 20
3.430965
  0
SEQEND
  8
0
  0
SOLID
  8
PLAN_1
 62
     2
 10
-0.448909
 20
3.460654
 11
-0.464654
 21
3.401276
 12
-0.448909
 22
3.460654
 13
-0.433165
 23
3.401276
  0
POLYLINE
  8
PLAN_1
 62
     2
  6
CONTINUOUS
 66
     1
 40
0.003000
 41
0.003000
  0
VERTEX
  8
PLAN_1
 62
     2
  6
CONTINUOUS
 10
-0.448909
 20
3.460654
  0
VERTEX
  8
PLAN_1
 62
     2
  6
CONTINUOUS
 10
-0.464654
 20
3.401276
  0
VERTEX
  8
PLAN_1
 62
     2
  6
CONTINUOUS
 10
-0.433165
 20
3.401276
  0
VERTEX
  8
PLAN_1
 62
     2
  6
CONTINUOUS
 10
-0.448909
 20
3.460654
  0
SEQEND
  8
0
  0
SOLID
  8
PLAN_1
 62
     2
 10
-0.448909
 20
2.100362
 11
-0.464654
 21
2.159740
 12
-0.448909
 22
2.100362
 13
-0.433165
 23
2.159740
  0
POLYLINE
  8
PLAN_1
 62
     2
  6
CONTINUOUS
 66
     1
 40
0.003000
 41
0.003000
  0
VERTEX
  8
PLAN_1
 62
     2
  6
CONTINUOUS
 10
-0.448909
 20
2.100362
  0
VERTEX
  8
PLAN_1
 62
     2
  6
CONTINUOUS
 10
-0.464654
 20
2.159740
  0
VERTEX
  8
PLAN_1
 62
     2
  6
CONTINUOUS
 10
-0.433165
 20
2.159740
  0
VERTEX
  8
PLAN_1
 62
     2
  6
CONTINUOUS
 10
-0.448909
 20
2.100362
  0
SEQEND
  8
0
  0
POLYLINE
  8
PLAN_1
 62
     2
  6
CONTINUOUS
 66
     1
 40
0.003000
 41
0.003000
  0
VERTEX
  8
PLAN_1
 62
     2
  6
CONTINUOUS
 10
-0.514134
 20
2.741823
  0
VERTEX
  8
PLAN_1
 62
     2
  6
CONTINUOUS
 10
-0.514134
 20
2.742272
  0
VERTEX
  8
PLAN_1
 62
     2
  6
CONTINUOUS
 10
-0.514134
 20
2.742720
  0
VERTEX
  8
PLAN_1
 62
     2
  6
CONTINUOUS
 10
-0.514134
 20
2.743622
  0
VERTEX
  8
PLAN_1
 62
     2
  6
CONTINUOUS
 10
-0.514134
 20
2.744071
  0
VERTEX
  8
PLAN_1
 62
     2
  6
CONTINUOUS
 10
-0.514134
 20
2.744520
  0
VERTEX
  8
PLAN_1
 62
     2
  6
CONTINUOUS
 10
-0.514134
 20
2.745421
  0
VERTEX
  8
PLAN_1
 62
     2
  6
CONTINUOUS
 10
-0.514134
 20
2.745870
  0
VERTEX
  8
PLAN_1
 62
     2
  6
CONTINUOUS
 10
-0.514134
 20
2.746319
  0
VERTEX
  8
PLAN_1
 62
     2
  6
CONTINUOUS
 10
-0.514134
 20
2.749020
  0
VERTEX
  8
PLAN_1
 62
     2
  6
CONTINUOUS
 10
-0.514583
 20
2.751717
  0
VERTEX
  8
PLAN_1
 62
     2
  6
CONTINUOUS
 10
-0.515484
 20
2.753969
  0
VERTEX
  8
PLAN_1
 62
     2
  6
CONTINUOUS
 10
-0.516382
 20
2.756217
  0
VERTEX
  8
PLAN_1
 62
     2
  6
CONTINUOUS
 10
-0.518181
 20
2.758016
  0
VERTEX
  8
PLAN_1
 62
     2
  6
CONTINUOUS
 10
-0.520429
 20
2.759366
  0
VERTEX
  8
PLAN_1
 62
     2
  6
CONTINUOUS
 10
-0.522681
 20
2.760264
  0
VERTEX
  8
PLAN_1
 62
     2
  6
CONTINUOUS
 10
-0.525831
 20
2.760264
  0
VERTEX
  8
PLAN_1
 62
     2
  6
CONTINUOUS
 10
-0.527630
 20
2.760264
  0
VERTEX
  8
PLAN_1
 62
     2
  6
CONTINUOUS
 10
-0.529429
 20
2.759815
  0
VERTEX
  8
PLAN_1
 62
     2
  6
CONTINUOUS
 10
-0.531677
 20
2.758913
  0
VERTEX
  8
PLAN_1
 62
     2
  6
CONTINUOUS
 10
-0.533476
 20
2.757567
  0
VERTEX
  8
PLAN_1
 62
     2
  6
CONTINUOUS
 10
-0.534827
 20
2.756217
  0
VERTEX
  8
PLAN_1
 62
     2
  6
CONTINUOUS
 10
-0.536173
 20
2.753516
  0
VERTEX
  8
PLAN_1
 62
     2
  6
CONTINUOUS
 10
-0.537075
 20
2.750819
  0
VERTEX
  8
PLAN_1
 62
     2
  6
CONTINUOUS
 10
-0.537524
 20
2.746772
  0
VERTEX
  8
PLAN_1
 62
     2
  6
CONTINUOUS
 10
-0.537524
 20
2.744520
  0
VERTEX
  8
PLAN_1
 62
     2
  6
CONTINUOUS
 10
-0.537075
 20
2.742720
  0
VERTEX
  8
PLAN_1
 62
     2
  6
CONTINUOUS
 10
-0.536626
 20
2.740921
  0
VERTEX
  8
PLAN_1
 62
     2
  6
CONTINUOUS
 10
-0.535724
 20
2.739122
  0
VERTEX
  8
PLAN_1
 62
     2
  6
CONTINUOUS
 10
-0.533925
 20
2.736874
  0
VERTEX
  8
PLAN_1
 62
     2
  6
CONTINUOUS
 10
-0.531677
 20
2.735075
  0
VERTEX
  8
PLAN_1
 62
     2
  6
CONTINUOUS
 10
-0.528976
 20
2.733724
  0
VERTEX
  8
PLAN_1
 62
     2
  6
CONTINUOUS
 10
-0.526280
 20
2.733276
  0
VERTEX
  8
PLAN_1
 62
     2
  6
CONTINUOUS
 10
-0.524031
 20
2.732827
  0
VERTEX
  8
PLAN_1
 62
     2
  6
CONTINUOUS
 10
-0.521780
 20
2.732827
  0
VERTEX
  8
PLAN_1
 62
     2
  6
CONTINUOUS
 10
-0.521780
 20
2.723827
  0
VERTEX
  8
PLAN_1
 62
     2
  6
CONTINUOUS
 10
-0.525831
 20
2.723827
  0
VERTEX
  8
PLAN_1
 62
     2
  6
CONTINUOUS
 10
-0.529878
 20
2.724728
  0
VERTEX
  8
PLAN_1
 62
     2
  6
CONTINUOUS
 10
-0.533925
 20
2.726079
  0
VERTEX
  8
PLAN_1
 62
     2
  6
CONTINUOUS
 10
-0.537976
 20
2.728327
  0
VERTEX
  8
PLAN_1
 62
     2
  6
CONTINUOUS
 10
-0.539323
 20
2.729677
  0
VERTEX
  8
PLAN_1
 62
     2
  6
CONTINUOUS
 10
-0.541122
 20
2.731476
  0
VERTEX
  8
PLAN_1
 62
     2
  6
CONTINUOUS
 10
-0.542472
 20
2.733276
  0
VERTEX
  8
PLAN_1
 62
     2
  6
CONTINUOUS
 10
-0.543374
 20
2.735524
  0
VERTEX
  8
PLAN_1
 62
     2
  6
CONTINUOUS
 10
-0.544272
 20
2.738224
  0
VERTEX
  8
PLAN_1
 62
     2
  6
CONTINUOUS
 10
-0.545173
 20
2.740921
  0
VERTEX
  8
PLAN_1
 62
     2
  6
CONTINUOUS
 10
-0.545622
 20
2.744071
  0
VERTEX
  8
PLAN_1
 62
     2
  6
CONTINUOUS
 10
-0.545622
 20
2.747220
  0
VERTEX
  8
PLAN_1
 62
     2
  6
CONTINUOUS
 10
-0.545173
 20
2.752169
  0
VERTEX
  8
PLAN_1
 62
     2
  6
CONTINUOUS
 10
-0.544272
 20
2.756665
  0
VERTEX
  8
PLAN_1
 62
     2
  6
CONTINUOUS
 10
-0.542472
 20
2.760713
  0
VERTEX
  8
PLAN_1
 62
     2
  6
CONTINUOUS
 10
-0.540224
 20
2.763862
  0
VERTEX
  8
PLAN_1
 62
     2
  6
CONTINUOUS
 10
-0.537524
 20
2.766563
  0
VERTEX
  8
PLAN_1
 62
     2
  6
CONTINUOUS
 10
-0.534374
 20
2.768362
  0
VERTEX
  8
PLAN_1
 62
     2
  6
CONTINUOUS
 10
-0.530327
 20
2.769713
  0
VERTEX
  8
PLAN_1
 62
     2
  6
CONTINUOUS
 10
-0.526280
 20
2.769713
  0
VERTEX
  8
PLAN_1
 62
     2
  6
CONTINUOUS
 10
-0.523130
 20
2.769713
  0
VERTEX
  8
PLAN_1
 62
     2
  6
CONTINUOUS
 10
-0.520429
 20
2.768811
  0
VERTEX
  8
PLAN_1
 62
     2
  6
CONTINUOUS
 10
-0.517732
 20
2.767913
  0
VERTEX
  8
PLAN_1
 62
     2
  6
CONTINUOUS
 10
-0.515933
 20
2.766563
  0
VERTEX
  8
PLAN_1
 62
     2
  6
CONTINUOUS
 10
-0.514134
 20
2.765213
  0
VERTEX
  8
PLAN_1
 62
     2
  6
CONTINUOUS
 10
-0.512783
 20
2.763862
  0
VERTEX
  8
PLAN_1
 62
     2
  6
CONTINUOUS
 10
-0.511886
 20
2.762063
  0
VERTEX
  8
PLAN_1
 62
     2
  6
CONTINUOUS
 10
-0.511433
 20
2.760713
  0
VERTEX
  8
PLAN_1
 62
     2
  6
CONTINUOUS
 10
-0.510087
 20
2.762965
  0
VERTEX
  8
PLAN_1
 62
     2
  6
CONTINUOUS
 10
-0.509185
 20
2.765661
  0
VERTEX
  8
PLAN_1
 62
     2
  6
CONTINUOUS
 10
-0.507386
 20
2.767461
  0
VERTEX
  8
PLAN_1
 62
     2
  6
CONTINUOUS
 10
-0.505587
 20
2.769260
  0
VERTEX
  8
PLAN_1
 62
     2
  6
CONTINUOUS
 10
-0.503339
 20
2.770610
  0
VERTEX
  8
PLAN_1
 62
     2
  6
CONTINUOUS
 10
-0.500638
 20
2.771961
  0
VERTEX
  8
PLAN_1
 62
     2
  6
CONTINUOUS
 10
-0.497488
 20
2.772409
  0
VERTEX
  8
PLAN_1
 62
     2
  6
CONTINUOUS
 10
-0.494343
 20
2.772858
  0
VERTEX
  8
PLAN_1
 62
     2
  6
CONTINUOUS
 10
-0.489843
 20
2.772409
  0
VERTEX
  8
PLAN_1
 62
     2
  6
CONTINUOUS
 10
-0.485343
 20
2.771059
  0
VERTEX
  8
PLAN_1
 62
     2
  6
CONTINUOUS
 10
-0.483543
 20
2.770161
  0
VERTEX
  8
PLAN_1
 62
     2
  6
CONTINUOUS
 10
-0.481295
 20
2.769260
  0
VERTEX
  8
PLAN_1
 62
     2
  6
CONTINUOUS
 10
-0.479496
 20
2.767913
  0
VERTEX
  8
PLAN_1
 62
     2
  6
CONTINUOUS
 10
-0.477697
 20
2.766563
  0
VERTEX
  8
PLAN_1
 62
     2
  6
CONTINUOUS
 10
-0.476346
 20
2.764764
  0
VERTEX
  8
PLAN_1
 62
     2
  6
CONTINUOUS
 10
-0.474996
 20
2.762965
  0
VERTEX
  8
PLAN_1
 62
     2
  6
CONTINUOUS
 10
-0.473650
 20
2.760713
  0
VERTEX
  8
PLAN_1
 62
     2
  6
CONTINUOUS
 10
-0.472748
 20
2.758465
  0
VERTEX
  8
PLAN_1
 62
     2
  6
CONTINUOUS
 10
-0.471850
 20
2.755768
  0
VERTEX
  8
PLAN_1
 62
     2
  6
CONTINUOUS
 10
-0.470949
 20
2.753067
  0
VERTEX
  8
PLAN_1
 62
     2
  6
CONTINUOUS
 10
-0.470949
 20
2.749917
  0
VERTEX
  8
PLAN_1
 62
     2
  6
CONTINUOUS
 10
-0.470500
 20
2.746319
  0
VERTEX
  8
PLAN_1
 62
     2
  6
CONTINUOUS
 10
-0.470500
 20
2.744520
  0
VERTEX
  8
PLAN_1
 62
     2
  6
CONTINUOUS
 10
-0.470949
 20
2.742720
  0
VERTEX
  8
PLAN_1
 62
     2
  6
CONTINUOUS
 10
-0.470949
 20
2.740472
  0
VERTEX
  8
PLAN_1
 62
     2
  6
CONTINUOUS
 10
-0.471398
 20
2.739122
  0
VERTEX
  8
PLAN_1
 62
     2
  6
CONTINUOUS
 10
-0.471850
 20
2.737323
  0
VERTEX
  8
PLAN_1
 62
     2
  6
CONTINUOUS
 10
-0.472748
 20
2.735524
  0
VERTEX
  8
PLAN_1
 62
     2
  6
CONTINUOUS
 10
-0.473197
 20
2.734173
  0
VERTEX
  8
PLAN_1
 62
     2
  6
CONTINUOUS
 10
-0.473650
 20
2.732827
  0
VERTEX
  8
PLAN_1
 62
     2
  6
CONTINUOUS
 10
-0.475449
 20
2.730126
  0
VERTEX
  8
PLAN_1
 62
     2
  6
CONTINUOUS
 10
-0.477697
 20
2.727878
  0
VERTEX
  8
PLAN_1
 62
     2
  6
CONTINUOUS
 10
-0.480398
 20
2.726079
  0
VERTEX
  8
PLAN_1
 62
     2
  6
CONTINUOUS
 10
-0.482646
 20
2.724728
  0
VERTEX
  8
PLAN_1
 62
     2
  6
CONTINUOUS
 10
-0.485795
 20
2.723378
  0
VERTEX
  8
PLAN_1
 62
     2
  6
CONTINUOUS
 10
-0.488941
 20
2.722929
  0
VERTEX
  8
PLAN_1
 62
     2
  6
CONTINUOUS
 10
-0.491642
 20
2.722480
  0
VERTEX
  8
PLAN_1
 62
     2
  6
CONTINUOUS
 10
-0.494791
 20
2.722028
  0
VERTEX
  8
PLAN_1
 62
     2
  6
CONTINUOUS
 10
-0.494791
 20
2.731476
  0
VERTEX
  8
PLAN_1
 62
     2
  6
CONTINUOUS
 10
-0.492543
 20
2.731476
  0
VERTEX
  8
PLAN_1
 62
     2
  6
CONTINUOUS
 10
-0.489394
 20
2.731925
  0
VERTEX
  8
PLAN_1
 62
     2
  6
CONTINUOUS
 10
-0.486693
 20
2.732827
  0
VERTEX
  8
PLAN_1
 62
     2
  6
CONTINUOUS
 10
-0.484445
 20
2.734173
  0
VERTEX
  8
PLAN_1
 62
     2
  6
CONTINUOUS
 10
-0.482197
 20
2.735972
  0
VERTEX
  8
PLAN_1
 62
     2
  6
CONTINUOUS
 10
-0.480398
 20
2.738673
  0
VERTEX
  8
PLAN_1
 62
     2
  6
CONTINUOUS
 10
-0.479945
 20
2.740472
  0
VERTEX
  8
PLAN_1
 62
     2
  6
CONTINUOUS
 10
-0.479496
 20
2.742272
  0
VERTEX
  8
PLAN_1
 62
     2
  6
CONTINUOUS
 10
-0.479047
 20
2.744520
  0
VERTEX
  8
PLAN_1
 62
     2
  6
CONTINUOUS
 10
-0.479047
 20
2.747220
  0
VERTEX
  8
PLAN_1
 62
     2
  6
CONTINUOUS
 10
-0.479047
 20
2.750370
  0
VERTEX
  8
PLAN_1
 62
     2
  6
CONTINUOUS
 10
-0.479945
 20
2.753516
  0
VERTEX
  8
PLAN_1
 62
     2
  6
CONTINUOUS
 10
-0.481295
 20
2.756217
  0
VERTEX
  8
PLAN_1
 62
     2
  6
CONTINUOUS
 10
-0.482646
 20
2.758465
  0
VERTEX
  8
PLAN_1
 62
     2
  6
CONTINUOUS
 10
-0.484894
 20
2.760264
  0
VERTEX
  8
PLAN_1
 62
     2
  6
CONTINUOUS
 10
-0.487142
 20
2.761614
  0
VERTEX
  8
PLAN_1
 62
     2
  6
CONTINUOUS
 10
-0.489843
 20
2.762516
  0
VERTEX
  8
PLAN_1
 62
     2
  6
CONTINUOUS
 10
-0.492992
 20
2.762965
  0
VERTEX
  8
PLAN_1
 62
     2
  6
CONTINUOUS
 10
-0.495240
 20
2.762965
  0
VERTEX
  8
PLAN_1
 62
     2
  6
CONTINUOUS
 10
-0.497039
 20
2.762516
  0
VERTEX
  8
PLAN_1
 62
     2
  6
CONTINUOUS
 10
-0.498839
 20
2.762063
  0
VERTEX
  8
PLAN_1
 62
     2
  6
CONTINUOUS
 10
-0.500189
 20
2.761165
  0
VERTEX
  8
PLAN_1
 62
     2
  6
CONTINUOUS
 10
-0.502437
 20
2.759366
  0
VERTEX
  8
PLAN_1
 62
     2
  6
CONTINUOUS
 10
-0.504236
 20
2.756665
  0
VERTEX
  8
PLAN_1
 62
     2
  6
CONTINUOUS
 10
-0.505587
 20
2.753969
  0
VERTEX
  8
PLAN_1
 62
     2
  6
CONTINUOUS
 10
-0.506035
 20
2.751268
  0
VERTEX
  8
PLAN_1
 62
     2
  6
CONTINUOUS
 10
-0.506484
 20
2.748571
  0
VERTEX
  8
PLAN_1
 62
     2
  6
CONTINUOUS
 10
-0.506484
 20
2.745870
  0
VERTEX
  8
PLAN_1
 62
     2
  6
CONTINUOUS
 10
-0.506484
 20
2.745421
  0
VERTEX
  8
PLAN_1
 62
     2
  6
CONTINUOUS
 10
-0.506484
 20
2.744969
  0
VERTEX
  8
PLAN_1
 62
     2
  6
CONTINUOUS
 10
-0.506484
 20
2.744520
  0
VERTEX
  8
PLAN_1
 62
     2
  6
CONTINUOUS
 10
-0.506484
 20
2.743622
  0
VERTEX
  8
PLAN_1
 62
     2
  6
CONTINUOUS
 10
-0.506484
 20
2.743169
  0
VERTEX
  8
PLAN_1
 62
     2
  6
CONTINUOUS
 10
-0.506484
 20
2.742720
  0
VERTEX
  8
PLAN_1
 62
     2
  6
CONTINUOUS
 10
-0.506484
 20
2.742272
  0
VERTEX
  8
PLAN_1
 62
     2
  6
CONTINUOUS
 10
-0.506484
 20
2.741823
  0
VERTEX
  8
PLAN_1
 62
     2
  6
CONTINUOUS
 10
-0.514134
 20
2.741823
  0
SEQEND
  8
0
  0
POLYLINE
  8
PLAN_1
 62
     2
  6
CONTINUOUS
 66
     1
 40
0.003000
 41
0.003000
  0
VERTEX
  8
PLAN_1
 62
     2
  6
CONTINUOUS
 10
-0.490291
 20
2.820091
  0
VERTEX
  8
PLAN_1
 62
     2
  6
CONTINUOUS
 10
-0.472748
 20
2.820091
  0
VERTEX
  8
PLAN_1
 62
     2
  6
CONTINUOUS
 10
-0.472748
 20
2.810646
  0
VERTEX
  8
PLAN_1
 62
     2
  6
CONTINUOUS
 10
-0.490291
 20
2.810646
  0
VERTEX
  8
PLAN_1
 62
     2
  6
CONTINUOUS
 10
-0.490291
 20
2.778709
  0
VERTEX
  8
PLAN_1
 62
     2
  6
CONTINUOUS
 10
-0.499287
 20
2.778709
  0
VERTEX
  8
PLAN_1
 62
     2
  6
CONTINUOUS
 10
-0.545622
 20
2.812445
  0
VERTEX
  8
PLAN_1
 62
     2
  6
CONTINUOUS
 10
-0.545622
 20
2.820091
  0
VERTEX
  8
PLAN_1
 62
     2
  6
CONTINUOUS
 10
-0.498390
 20
2.820091
  0
VERTEX
  8
PLAN_1
 62
     2
  6
CONTINUOUS
 10
-0.498390
 20
2.830890
  0
VERTEX
  8
PLAN_1
 62
     2
  6
CONTINUOUS
 10
-0.490291
 20
2.830890
  0
VERTEX
  8
PLAN_1
 62
     2
  6
CONTINUOUS
 10
-0.490291
 20
2.820091
  0
SEQEND
  8
0
  0
SOLID
  8
PLAN_1
 62
     2
 10
-0.498390
 20
2.787256
 11
-0.498390
 21
2.810646
 12
-0.498390
 22
2.787256
 13
-0.531677
 23
2.810646
  0
POLYLINE
  8
PLAN_1
 62
     2
  6
CONTINUOUS
 66
     1
 40
0.003000
 41
0.003000
  0
VERTEX
  8
PLAN_1
 62
     2
  6
CONTINUOUS
 10
-0.498390
 20
2.787256
  0
VERTEX
  8
PLAN_1
 62
     2
  6
CONTINUOUS
 10
-0.498390
 20
2.810646
  0
VERTEX
  8
PLAN_1
 62
     2
  6
CONTINUOUS
 10
-0.531677
 20
2.810646
  0
VERTEX
  8
PLAN_1
 62
     2
  6
CONTINUOUS
 10
-0.498390
 20
2.787256
  0
SEQEND
  8
0
  0
POLYLINE
  8
PLAN_1
 62
     2
  6
CONTINUOUS
 66
     1
 40
0.003000
 41
0.003000
  0
VERTEX
  8
PLAN_1
 62
     2
  6
CONTINUOUS
 10
-0.472748
 20
2.843484
  0
VERTEX
  8
PLAN_1
 62
     2
  6
CONTINUOUS
 10
-0.472748
 20
2.848882
  0
VERTEX
  8
PLAN_1
 62
     2
  6
CONTINUOUS
 10
-0.470949
 20
2.848882
  0
VERTEX
  8
PLAN_1
 62
     2
  6
CONTINUOUS
 10
-0.469150
 20
2.848433
  0
VERTEX
  8
PLAN_1
 62
     2
  6
CONTINUOUS
 10
-0.467350
 20
2.847980
  0
VERTEX
  8
PLAN_1
 62
     2
  6
CONTINUOUS
 10
-0.465551
 20
2.847531
  0
VERTEX
  8
PLAN_1
 62
     2
  6
CONTINUOUS
 10
-0.464201
 20
2.847083
  0
VERTEX
  8
PLAN_1
 62
     2
  6
CONTINUOUS
 10
-0.463303
 20
2.846181
  0
VERTEX
  8
PLAN_1
 62
     2
  6
CONTINUOUS
 10
-0.462402
 20
2.844835
  0
VERTEX
  8
PLAN_1
 62
     2
  6
CONTINUOUS
 10
-0.461953
 20
2.843484
  0
VERTEX
  8
PLAN_1
 62
     2
  6
CONTINUOUS
 10
-0.457453
 20
2.843484
  0
VERTEX
  8
PLAN_1
 62
     2
  6
CONTINUOUS
 10
-0.457453
 20
2.844382
  0
VERTEX
  8
PLAN_1
 62
     2
  6
CONTINUOUS
 10
-0.457906
 20
2.845732
  0
VERTEX
  8
PLAN_1
 62
     2
  6
CONTINUOUS
 10
-0.458803
 20
2.847531
  0
VERTEX
  8
PLAN_1
 62
     2
  6
CONTINUOUS
 10
-0.460154
 20
2.849331
  0
VERTEX
  8
PLAN_1
 62
     2
  6
CONTINUOUS
 10
-0.462402
 20
2.851130
  0
VERTEX
  8
PLAN_1
 62
     2
  6
CONTINUOUS
 10
-0.465102
 20
2.852480
  0
VERTEX
  8
PLAN_1
 62
     2
  6
CONTINUOUS
 10
-0.468701
 20
2.853831
  0
VERTEX
  8
PLAN_1
 62
     2
  6
CONTINUOUS
 10
-0.473650
 20
2.854280
  0
VERTEX
  8
PLAN_1
 62
     2
  6
CONTINUOUS
 10
-0.483543
 20
2.854280
  0
VERTEX
  8
PLAN_1
 62
     2
  6
CONTINUOUS
 10
-0.483543
 20
2.843484
  0
VERTEX
  8
PLAN_1
 62
     2
  6
CONTINUOUS
 10
-0.472748
 20
2.843484
  0
SEQEND
  8
0
  0
POLYLINE
  8
PLAN_1
 62
     2
  6
CONTINUOUS
 66
     1
 40
0.003000
 41
0.003000
  0
VERTEX
  8
PLAN_1
 62
     2
  6
CONTINUOUS
 10
-0.515031
 20
2.878571
  0
VERTEX
  8
PLAN_1
 62
     2
  6
CONTINUOUS
 10
-0.515933
 20
2.879469
  0
VERTEX
  8
PLAN_1
 62
     2
  6
CONTINUOUS
 10
-0.516831
 20
2.881268
  0
VERTEX
  8
PLAN_1
 62
     2
  6
CONTINUOUS
 10
-0.517732
 20
2.882618
  0
VERTEX
  8
PLAN_1
 62
     2
  6
CONTINUOUS
 10
-0.518181
 20
2.884417
  0
VERTEX
  8
PLAN_1
 62
     2
  6
CONTINUOUS
 10
-0.519083
 20
2.886217
  0
VERTEX
  8
PLAN_1
 62
     2
  6
CONTINUOUS
 10
-0.519531
 20
2.888016
  0
VERTEX
  8
PLAN_1
 62
     2
  6
CONTINUOUS
 10
-0.519531
 20
2.890268
  0
VERTEX
  8
PLAN_1
 62
     2
  6
CONTINUOUS
 10
-0.519531
 20
2.892516
  0
VERTEX
  8
PLAN_1
 62
     2
  6
CONTINUOUS
 10
-0.519531
 20
2.897012
  0
VERTEX
  8
PLAN_1
 62
     2
  6
CONTINUOUS
 10
-0.518181
 20
2.901512
  0
VERTEX
  8
PLAN_1
 62
     2
  6
CONTINUOUS
 10
-0.516382
 20
2.905559
  0
VERTEX
  8
PLAN_1
 62
     2
  6
CONTINUOUS
 10
-0.513685
 20
2.909157
  0
VERTEX
  8
PLAN_1
 62
     2
  6
CONTINUOUS
 10
-0.512335
 20
2.910508
  0
VERTEX
  8
PLAN_1
 62
     2
  6
CONTINUOUS
 10
-0.510535
 20
2.912307
  0
VERTEX
  8
PLAN_1
 62
     2
  6
CONTINUOUS
 10
-0.508287
 20
2.913209
  0
VERTEX
  8
PLAN_1
 62
     2
  6
CONTINUOUS
 10
-0.506484
 20
2.914555
  0
VERTEX
  8
PLAN_1
 62
     2
  6
CONTINUOUS
 10
-0.504236
 20
2.915457
  0
VERTEX
  8
PLAN_1
 62
     2
  6
CONTINUOUS
 10
-0.501539
 20
2.915906
  0
VERTEX
  8
PLAN_1
 62
     2
  6
CONTINUOUS
 10
-0.499287
 20
2.916354
  0
VERTEX
  8
PLAN_1
 62
     2
  6
CONTINUOUS
 10
-0.496142
 20
2.916807
  0
VERTEX
  8
PLAN_1
 62
     2
  6
CONTINUOUS
 10
-0.492992
 20
2.916354
  0
VERTEX
  8
PLAN_1
 62
     2
  6
CONTINUOUS
 10
-0.488941
 20
2.915906
  0
VERTEX
  8
PLAN_1
 62
     2
  6
CONTINUOUS
 10
-0.484445
 20
2.914106
  0
VERTEX
  8
PLAN_1
 62
     2
  6
CONTINUOUS
 10
-0.480398
 20
2.911858
  0
VERTEX
  8
PLAN_1
 62
     2
  6
CONTINUOUS
 10
-0.478598
 20
2.910508
  0
VERTEX
  8
PLAN_1
 62
     2
  6
CONTINUOUS
 10
-0.476799
 20
2.908709
  0
VERTEX
  8
PLAN_1
 62
     2
  6
CONTINUOUS
 10
-0.474996
 20
2.906461
  0
VERTEX
  8
PLAN_1
 62
     2
  6
CONTINUOUS
 10
-0.473650
 20
2.903760
  0
VERTEX
  8
PLAN_1
 62
     2
  6
CONTINUOUS
 10
-0.472299
 20
2.901063
  0
VERTEX
  8
PLAN_1
 62
     2
  6
CONTINUOUS
 10
-0.471398
 20
2.897913
  0
VERTEX
  8
PLAN_1
 62
     2
  6
CONTINUOUS
 10
-0.470949
 20
2.894315
  0
VERTEX
  8
PLAN_1
 62
     2
  6
CONTINUOUS
 10
-0.470500
 20
2.890268
  0
VERTEX
  8
PLAN_1
 62
     2
  6
CONTINUOUS
 10
-0.470949
 20
2.886217
  0
VERTEX
  8
PLAN_1
 62
     2
  6
CONTINUOUS
 10
-0.471398
 20
2.882618
  0
VERTEX
  8
PLAN_1
 62
     2
  6
CONTINUOUS
 10
-0.472748
 20
2.879020
  0
VERTEX
  8
PLAN_1
 62
     2
  6
CONTINUOUS
 10
-0.474547
 20
2.875421
  0
VERTEX
  8
PLAN_1
 62
     2
  6
CONTINUOUS
 10
-0.475898
 20
2.873622
  0
VERTEX
  8
PLAN_1
 62
     2
  6
CONTINUOUS
 10
-0.477248
 20
2.872272
  0
VERTEX
  8
PLAN_1
 62
     2
  6
CONTINUOUS
 10
-0.479047
 20
2.870925
  0
VERTEX
  8
PLAN_1
 62
     2
  6
CONTINUOUS
 10
-0.480846
 20
2.869575
  0
VERTEX
  8
PLAN_1
 62
     2
  6
CONTINUOUS
 10
-0.483094
 20
2.868673
  0
VERTEX
  8
PLAN_1
 62
     2
  6
CONTINUOUS
 10
-0.485343
 20
2.867776
  0
VERTEX
  8
PLAN_1
 62
     2
  6
CONTINUOUS
 10
-0.488043
 20
2.866874
  0
VERTEX
  8
PLAN_1
 62
     2
  6
CONTINUOUS
 10
-0.490740
 20
2.866425
  0
VERTEX
  8
PLAN_1
 62
     2
  6
CONTINUOUS
 10
-0.490740
 20
2.875870
  0
VERTEX
  8
PLAN_1
 62
     2
  6
CONTINUOUS
 10
-0.488043
 20
2.876323
  0
VERTEX
  8
PLAN_1
 62
     2
  6
CONTINUOUS
 10
-0.485343
 20
2.877669
  0
VERTEX
  8
PLAN_1
 62
     2
  6
CONTINUOUS
 10
-0.483094
 20
2.879020
  0
VERTEX
  8
PLAN_1
 62
     2
  6
CONTINUOUS
 10
-0.481295
 20
2.880819
  0
VERTEX
  8
PLAN_1
 62
     2
  6
CONTINUOUS
 10
-0.480398
 20
2.883067
  0
VERTEX
  8
PLAN_1
 62
     2
  6
CONTINUOUS
 10
-0.479047
 20
2.885768
  0
VERTEX
  8
PLAN_1
 62
     2
  6
CONTINUOUS
 10
-0.478598
 20
2.888469
  0
VERTEX
  8
PLAN_1
 62
     2
  6
CONTINUOUS
 10
-0.478598
 20
2.891614
  0
VERTEX
  8
PLAN_1
 62
     2
  6
CONTINUOUS
 10
-0.479047
 20
2.894764
  0
VERTEX
  8
PLAN_1
 62
     2
  6
CONTINUOUS
 10
-0.479945
 20
2.897913
  0
VERTEX
  8
PLAN_1
 62
     2
  6
CONTINUOUS
 10
-0.481295
 20
2.900610
  0
VERTEX
  8
PLAN_1
 62
     2
  6
CONTINUOUS
 10
-0.483543
 20
2.902862
  0
VERTEX
  8
PLAN_1
 62
     2
  6
CONTINUOUS
 10
-0.485795
 20
2.904661
  0
VERTEX
  8
PLAN_1
 62
     2
  6
CONTINUOUS
 10
-0.488941
 20
2.905559
  0
VERTEX
  8
PLAN_1
 62
     2
  6
CONTINUOUS
 10
-0.492091
 20
2.906461
  0
VERTEX
  8
PLAN_1
 62
     2
  6
CONTINUOUS
 10
-0.495240
 20
2.906909
  0
VERTEX
  8
PLAN_1
 62
     2
  6
CONTINUOUS
 10
-0.498839
 20
2.906461
  0
VERTEX
  8
PLAN_1
 62
     2
  6
CONTINUOUS
 10
-0.502437
 20
2.905559
  0
VERTEX
  8
PLAN_1
 62
     2
  6
CONTINUOUS
 10
-0.505138
 20
2.904213
  0
VERTEX
  8
PLAN_1
 62
     2
  6
CONTINUOUS
 10
-0.507386
 20
2.901961
  0
VERTEX
  8
PLAN_1
 62
     2
  6
CONTINUOUS
 10
-0.509185
 20
2.899713
  0
VERTEX
  8
PLAN_1
 62
     2
  6
CONTINUOUS
 10
-0.510535
 20
2.897012
  0
VERTEX
  8
PLAN_1
 62
     2
  6
CONTINUOUS
 10
-0.511433
 20
2.893866
  0
VERTEX
  8
PLAN_1
 62
     2
  6
CONTINUOUS
 10
-0.511433
 20
2.890717
  0
VERTEX
  8
PLAN_1
 62
     2
  6
CONTINUOUS
 10
-0.511433
 20
2.888469
  0
VERTEX
  8
PLAN_1
 62
     2
  6
CONTINUOUS
 10
-0.510984
 20
2.886669
  0
VERTEX
  8
PLAN_1
 62
     2
  6
CONTINUOUS
 10
-0.510535
 20
2.884866
  0
VERTEX
  8
PLAN_1
 62
     2
  6
CONTINUOUS
 10
-0.509634
 20
2.883067
  0
VERTEX
  8
PLAN_1
 62
     2
  6
CONTINUOUS
 10
-0.508736
 20
2.881268
  0
VERTEX
  8
PLAN_1
 62
     2
  6
CONTINUOUS
 10
-0.507386
 20
2.879921
  0
VERTEX
  8
PLAN_1
 62
     2
  6
CONTINUOUS
 10
-0.506035
 20
2.878571
  0
VERTEX
  8
PLAN_1
 62
     2
  6
CONTINUOUS
 10
-0.504685
 20
2.877220
  0
VERTEX
  8
PLAN_1
 62
     2
  6
CONTINUOUS
 10
-0.505138
 20
2.869122
  0
VERTEX
  8
PLAN_1
 62
     2
  6
CONTINUOUS
 10
-0.544272
 20
2.874524
  0
VERTEX
  8
PLAN_1
 62
     2
  6
CONTINUOUS
 10
-0.544272
 20
2.912756
  0
VERTEX
  8
PLAN_1
 62
     2
  6
CONTINUOUS
 10
-0.535276
 20
2.912756
  0
VERTEX
  8
PLAN_1
 62
     2
  6
CONTINUOUS
 10
-0.535276
 20
2.881720
  0
VERTEX
  8
PLAN_1
 62
     2
  6
CONTINUOUS
 10
-0.515031
 20
2.878571
  0
SEQEND
  8
0
  0
POLYLINE
  8
PLAN_1
 62
     2
  6
CONTINUOUS
 66
     1
 40
0.004047
 41
0.004047
  0
VERTEX
  8
PLAN_1
 62
     2
  6
CONTINUOUS
 10
-1.066075
 20
3.458854
  0
VERTEX
  8
PLAN_1
 62
     2
  6
CONTINUOUS
 10
0.222240
 20
3.458854
  0
SEQEND
  8
0
  0
POLYLINE
  8
PLAN_1
 62
     2
  6
CONTINUOUS
 66
     1
 40
0.004047
 41
0.004047
  0
VERTEX
  8
PLAN_1
 62
     2
  6
CONTINUOUS
 10
-0.916732
 20
2.100362
  0
VERTEX
  8
PLAN_1
 62
     2
  6
CONTINUOUS
 10
-0.425516
 20
2.100362
  0
SEQEND
  8
0
  0
POLYLINE
  8
PLAN_1
 62
     2
  6
CONTINUOUS
 66
     1
 40
0.004047
 41
0.004047
  0
VERTEX
  8
PLAN_1
 62
     2
  6
CONTINUOUS
 10
0.222240
 20
1.098587
  0
VERTEX
  8
PLAN_1
 62
     2
  6
CONTINUOUS
 10
-0.109736
 20
1.098587
  0
SEQEND
  8
0
  0
ENDSEC
  0
EOF
