  0
SECTION
  2
HEADER
  9
$ACADVER
  1
AC1006
  9
$EXTMIN
 10
-2.213783
 20
-3.485394
  9
$EXTMAX
 10
2.204000
 20
3.481000
  9
$LTSCALE
 40
0.000394
  9
$PDMODE
 70
    35
  9
$PDSIZE
 40
0.000315
  0
ENDSEC
  0
SECTION
  2
TABLES
  0
TABLE
  2
LTYPE
 70
     9
  0
LTYPE
  2
CONTINUOUS
 70
    64
  3
Solid line
 72
    65
 73
     0
 40
0.000000
  0
LTYPE
  2
DASHED
 70
    64
  3
__ __ __ __ __ __ __ __ __ __ __ __ __ __ __
 72
    65
 73
     2
 40
0.000003
 49
0.000002
 49
-0.000001
  0
LTYPE
  2
HIDDEN
 70
    64
  3
 _ _ _ _ _ _ _ _ _ _ _ _ _ _ _ _ _ _ _ _ _ _
 72
    65
 73
     2
 40
0.000001
 49
0.000001
 49
-0.000000
  0
LTYPE
  2
CENTER
 70
    64
  3
____ _ ____ _ ____ _ ____ _ ____ _ ____ _ ____
 72
    65
 73
     4
 40
0.000008
 49
0.000005
 49
-0.000001
 49
0.000001
 49
-0.000001
  0
LTYPE
  2
PHANTOM
 70
    64
  3
_____ _ _ _____ _ _ _____ _ _ _____ _ _ ____
 72
    65
 73
     6
 40
0.000010
 49
0.000005
 49
-0.000001
 49
0.000001
 49
-0.000001
 49
0.000001
 49
-0.000001
  0
LTYPE
  2
DOT
 70
    64
  3
...............................................
 72
    65
 73
     2
 40
0.000001
 49
0.000000
 49
-0.000001
  0
LTYPE
  2
DASHDOT
 70
    64
  3
__ . __ . __ . __ . __ . __ . __ . __ . __ . __
 72
    65
 73
     4
 40
0.000004
 49
0.000002
 49
-0.000001
 49
0.000000
 49
-0.000001
  0
LTYPE
  2
BORDER
 70
    64
  3
__ __ . __ __ . __ __ . __ __ . __ __ . __ __
 72
    65
 73
     6
 40
0.000007
 49
0.000002
 49
-0.000001
 49
0.000002
 49
-0.000001
 49
0.000000
 49
-0.000001
  0
LTYPE
  2
DIVIDE
 70
    64
  3
__ . . __ . . __ . . __ . . __ . . __ . . __
 72
    65
 73
     6
 40
0.000005
 49
0.000002
 49
-0.000001
 49
0.000000
 49
-0.000001
 49
0.000000
 49
-0.000001
  0
LTYPE
  2
DOTDOT
 70
    64
  3
 . .  . .  . .  . .  . .  . . 
 72
    65
 73
     5
 40
0.000002
 49
-0.000001
 49
0.000000
 49
-0.000001
 49
0.000000
 49
-0.000001
  0
ENDTAB
  0
TABLE
  2
STYLE
 70
     0
  0
ENDTAB
  0
TABLE
  2
LAYER
 70
     3
  0
LAYER
  2
FOREGROUND
 70
    64
 62
     7
  6
CONTINUOUS
  0
LAYER
  2
BACKGROUND
 70
    65
 62
    -7
  6
CONTINUOUS
  0
LAYER
  2
PLAN_1
 70
    64
 62
     7
  6
CONTINUOUS
  0
ENDTAB
  0
ENDSEC
  0
SECTION
  2
ENTITIES
  0
POLYLINE
  8
PLAN_1
  6
CONTINUOUS
 66
     1
 40
0.003000
 41
0.003000
  0
VERTEX
  8
PLAN_1
  6
CONTINUOUS
 10
0.400575
 20
-3.450563
  0
VERTEX
  8
PLAN_1
  6
CONTINUOUS
 10
0.243831
 20
-3.450563
  0
VERTEX
  8
PLAN_1
  6
CONTINUOUS
 10
0.243831
 20
-3.428358
  0
VERTEX
  8
PLAN_1
  6
CONTINUOUS
 10
0.365744
 20
-3.275094
  0
VERTEX
  8
PLAN_1
  6
CONTINUOUS
 10
0.252972
 20
-3.275094
  0
VERTEX
  8
PLAN_1
  6
CONTINUOUS
 10
0.252972
 20
-3.251583
  0
VERTEX
  8
PLAN_1
  6
CONTINUOUS
 10
0.400575
 20
-3.251583
  0
VERTEX
  8
PLAN_1
  6
CONTINUOUS
 10
0.400575
 20
-3.274661
  0
VERTEX
  8
PLAN_1
  6
CONTINUOUS
 10
0.277791
 20
-3.426614
  0
VERTEX
  8
PLAN_1
  6
CONTINUOUS
 10
0.400575
 20
-3.426614
  0
VERTEX
  8
PLAN_1
  6
CONTINUOUS
 10
0.400575
 20
-3.450563
  0
SEQEND
  8
0
  0
POLYLINE
  8
PLAN_1
  6
CONTINUOUS
 66
     1
 40
0.003000
 41
0.003000
  0
VERTEX
  8
PLAN_1
  6
CONTINUOUS
 10
0.567768
 20
-3.311232
  0
VERTEX
  8
PLAN_1
  6
CONTINUOUS
 10
0.566028
 20
-3.305138
  0
VERTEX
  8
PLAN_1
  6
CONTINUOUS
 10
0.564283
 20
-3.299480
  0
VERTEX
  8
PLAN_1
  6
CONTINUOUS
 10
0.561673
 20
-3.294689
  0
VERTEX
  8
PLAN_1
  6
CONTINUOUS
 10
0.558626
 20
-3.290335
  0
VERTEX
  8
PLAN_1
  6
CONTINUOUS
 10
0.555579
 20
-3.286417
  0
VERTEX
  8
PLAN_1
  6
CONTINUOUS
 10
0.552094
 20
-3.282933
  0
VERTEX
  8
PLAN_1
  6
CONTINUOUS
 10
0.548177
 20
-3.279886
  0
VERTEX
  8
PLAN_1
  6
CONTINUOUS
 10
0.544256
 20
-3.277709
  0
VERTEX
  8
PLAN_1
  6
CONTINUOUS
 10
0.540339
 20
-3.275531
  0
VERTEX
  8
PLAN_1
  6
CONTINUOUS
 10
0.535984
 20
-3.273791
  0
VERTEX
  8
PLAN_1
  6
CONTINUOUS
 10
0.532067
 20
-3.272484
  0
VERTEX
  8
PLAN_1
  6
CONTINUOUS
 10
0.527713
 20
-3.271614
  0
VERTEX
  8
PLAN_1
  6
CONTINUOUS
 10
0.519874
 20
-3.270307
  0
VERTEX
  8
PLAN_1
  6
CONTINUOUS
 10
0.512035
 20
-3.269870
  0
VERTEX
  8
PLAN_1
  6
CONTINUOUS
 10
0.505508
 20
-3.270307
  0
VERTEX
  8
PLAN_1
  6
CONTINUOUS
 10
0.498976
 20
-3.271177
  0
VERTEX
  8
PLAN_1
  6
CONTINUOUS
 10
0.492878
 20
-3.272917
  0
VERTEX
  8
PLAN_1
  6
CONTINUOUS
 10
0.486783
 20
-3.275094
  0
VERTEX
  8
PLAN_1
  6
CONTINUOUS
 10
0.481122
 20
-3.277709
  0
VERTEX
  8
PLAN_1
  6
CONTINUOUS
 10
0.475465
 20
-3.281193
  0
VERTEX
  8
PLAN_1
  6
CONTINUOUS
 10
0.470673
 20
-3.285110
  0
VERTEX
  8
PLAN_1
  6
CONTINUOUS
 10
0.465886
 20
-3.289898
  0
VERTEX
  8
PLAN_1
  6
CONTINUOUS
 10
0.461965
 20
-3.295126
  0
VERTEX
  8
PLAN_1
  6
CONTINUOUS
 10
0.458047
 20
-3.301220
  0
VERTEX
  8
PLAN_1
  6
CONTINUOUS
 10
0.454563
 20
-3.307315
  0
VERTEX
  8
PLAN_1
  6
CONTINUOUS
 10
0.451953
 20
-3.314717
  0
VERTEX
  8
PLAN_1
  6
CONTINUOUS
 10
0.449776
 20
-3.322555
  0
VERTEX
  8
PLAN_1
  6
CONTINUOUS
 10
0.448031
 20
-3.330827
  0
VERTEX
  8
PLAN_1
  6
CONTINUOUS
 10
0.447161
 20
-3.339535
  0
VERTEX
  8
PLAN_1
  6
CONTINUOUS
 10
0.446728
 20
-3.349114
  0
VERTEX
  8
PLAN_1
  6
CONTINUOUS
 10
0.447161
 20
-3.357823
  0
VERTEX
  8
PLAN_1
  6
CONTINUOUS
 10
0.447598
 20
-3.366094
  0
VERTEX
  8
PLAN_1
  6
CONTINUOUS
 10
0.448906
 20
-3.374366
  0
VERTEX
  8
PLAN_1
  6
CONTINUOUS
 10
0.450209
 20
-3.381768
  0
VERTEX
  8
PLAN_1
  6
CONTINUOUS
 10
0.452386
 20
-3.389169
  0
VERTEX
  8
PLAN_1
  6
CONTINUOUS
 10
0.454563
 20
-3.396138
  0
VERTEX
  8
PLAN_1
  6
CONTINUOUS
 10
0.457610
 20
-3.402232
  0
VERTEX
  8
PLAN_1
  6
CONTINUOUS
 10
0.461531
 20
-3.408327
  0
VERTEX
  8
PLAN_1
  6
CONTINUOUS
 10
0.465449
 20
-3.413551
  0
VERTEX
  8
PLAN_1
  6
CONTINUOUS
 10
0.470240
 20
-3.418343
  0
VERTEX
  8
PLAN_1
  6
CONTINUOUS
 10
0.472850
 20
-3.420520
  0
VERTEX
  8
PLAN_1
  6
CONTINUOUS
 10
0.475898
 20
-3.422260
  0
VERTEX
  8
PLAN_1
  6
CONTINUOUS
 10
0.478512
 20
-3.424004
  0
VERTEX
  8
PLAN_1
  6
CONTINUOUS
 10
0.481559
 20
-3.425744
  0
VERTEX
  8
PLAN_1
  6
CONTINUOUS
 10
0.485043
 20
-3.427051
  0
VERTEX
  8
PLAN_1
  6
CONTINUOUS
 10
0.488524
 20
-3.428358
  0
VERTEX
  8
PLAN_1
  6
CONTINUOUS
 10
0.492008
 20
-3.429661
  0
VERTEX
  8
PLAN_1
  6
CONTINUOUS
 10
0.495929
 20
-3.430535
  0
VERTEX
  8
PLAN_1
  6
CONTINUOUS
 10
0.499846
 20
-3.430969
  0
VERTEX
  8
PLAN_1
  6
CONTINUOUS
 10
0.504201
 20
-3.431839
  0
VERTEX
  8
PLAN_1
  6
CONTINUOUS
 10
0.508555
 20
-3.431839
  0
VERTEX
  8
PLAN_1
  6
CONTINUOUS
 10
0.512909
 20
-3.432276
  0
VERTEX
  8
PLAN_1
  6
CONTINUOUS
 10
0.516390
 20
-3.431839
  0
VERTEX
  8
PLAN_1
  6
CONTINUOUS
 10
0.519874
 20
-3.431839
  0
VERTEX
  8
PLAN_1
  6
CONTINUOUS
 10
0.523791
 20
-3.430969
  0
VERTEX
  8
PLAN_1
  6
CONTINUOUS
 10
0.527713
 20
-3.430098
  0
VERTEX
  8
PLAN_1
  6
CONTINUOUS
 10
0.532067
 20
-3.428791
  0
VERTEX
  8
PLAN_1
  6
CONTINUOUS
 10
0.536421
 20
-3.427051
  0
VERTEX
  8
PLAN_1
  6
CONTINUOUS
 10
0.540339
 20
-3.424874
  0
VERTEX
  8
PLAN_1
  6
CONTINUOUS
 10
0.544693
 20
-3.422260
  0
VERTEX
  8
PLAN_1
  6
CONTINUOUS
 10
0.548610
 20
-3.418780
  0
VERTEX
  8
PLAN_1
  6
CONTINUOUS
 10
0.552528
 20
-3.415295
  0
VERTEX
  8
PLAN_1
  6
CONTINUOUS
 10
0.556012
 20
-3.410504
  0
VERTEX
  8
PLAN_1
  6
CONTINUOUS
 10
0.559496
 20
-3.405717
  0
VERTEX
  8
PLAN_1
  6
CONTINUOUS
 10
0.562543
 20
-3.399622
  0
VERTEX
  8
PLAN_1
  6
CONTINUOUS
 10
0.565591
 20
-3.393091
  0
VERTEX
  8
PLAN_1
  6
CONTINUOUS
 10
0.567768
 20
-3.385689
  0
VERTEX
  8
PLAN_1
  6
CONTINUOUS
 10
0.569945
 20
-3.377413
  0
VERTEX
  8
PLAN_1
  6
CONTINUOUS
 10
0.596071
 20
-3.377413
  0
VERTEX
  8
PLAN_1
  6
CONTINUOUS
 10
0.594764
 20
-3.384382
  0
VERTEX
  8
PLAN_1
  6
CONTINUOUS
 10
0.593457
 20
-3.390913
  0
VERTEX
  8
PLAN_1
  6
CONTINUOUS
 10
0.591717
 20
-3.396571
  0
VERTEX
  8
PLAN_1
  6
CONTINUOUS
 10
0.589539
 20
-3.402232
  0
VERTEX
  8
PLAN_1
  6
CONTINUOUS
 10
0.587362
 20
-3.407894
  0
VERTEX
  8
PLAN_1
  6
CONTINUOUS
 10
0.585185
 20
-3.412681
  0
VERTEX
  8
PLAN_1
  6
CONTINUOUS
 10
0.582571
 20
-3.417035
  0
VERTEX
  8
PLAN_1
  6
CONTINUOUS
 10
0.579524
 20
-3.421390
  0
VERTEX
  8
PLAN_1
  6
CONTINUOUS
 10
0.576913
 20
-3.425307
  0
VERTEX
  8
PLAN_1
  6
CONTINUOUS
 10
0.573862
 20
-3.428791
  0
VERTEX
  8
PLAN_1
  6
CONTINUOUS
 10
0.570815
 20
-3.432276
  0
VERTEX
  8
PLAN_1
  6
CONTINUOUS
 10
0.567335
 20
-3.435323
  0
VERTEX
  8
PLAN_1
  6
CONTINUOUS
 10
0.564283
 20
-3.437937
  0
VERTEX
  8
PLAN_1
  6
CONTINUOUS
 10
0.560803
 20
-3.440547
  0
VERTEX
  8
PLAN_1
  6
CONTINUOUS
 10
0.557319
 20
-3.442724
  0
VERTEX
  8
PLAN_1
  6
CONTINUOUS
 10
0.553835
 20
-3.444902
  0
VERTEX
  8
PLAN_1
  6
CONTINUOUS
 10
0.546870
 20
-3.448386
  0
VERTEX
  8
PLAN_1
  6
CONTINUOUS
 10
0.539902
 20
-3.450996
  0
VERTEX
  8
PLAN_1
  6
CONTINUOUS
 10
0.533370
 20
-3.452740
  0
VERTEX
  8
PLAN_1
  6
CONTINUOUS
 10
0.527276
 20
-3.454480
  0
VERTEX
  8
PLAN_1
  6
CONTINUOUS
 10
0.516390
 20
-3.455787
  0
VERTEX
  8
PLAN_1
  6
CONTINUOUS
 10
0.508988
 20
-3.455787
  0
VERTEX
  8
PLAN_1
  6
CONTINUOUS
 10
0.500280
 20
-3.455787
  0
VERTEX
  8
PLAN_1
  6
CONTINUOUS
 10
0.492008
 20
-3.454480
  0
VERTEX
  8
PLAN_1
  6
CONTINUOUS
 10
0.483736
 20
-3.452740
  0
VERTEX
  8
PLAN_1
  6
CONTINUOUS
 10
0.475465
 20
-3.450126
  0
VERTEX
  8
PLAN_1
  6
CONTINUOUS
 10
0.471980
 20
-3.448819
  0
VERTEX
  8
PLAN_1
  6
CONTINUOUS
 10
0.468063
 20
-3.446642
  0
VERTEX
  8
PLAN_1
  6
CONTINUOUS
 10
0.464142
 20
-3.444902
  0
VERTEX
  8
PLAN_1
  6
CONTINUOUS
 10
0.460661
 20
-3.442724
  0
VERTEX
  8
PLAN_1
  6
CONTINUOUS
 10
0.457177
 20
-3.440114
  0
VERTEX
  8
PLAN_1
  6
CONTINUOUS
 10
0.453693
 20
-3.437500
  0
VERTEX
  8
PLAN_1
  6
CONTINUOUS
 10
0.450209
 20
-3.434886
  0
VERTEX
  8
PLAN_1
  6
CONTINUOUS
 10
0.447161
 20
-3.431839
  0
VERTEX
  8
PLAN_1
  6
CONTINUOUS
 10
0.444114
 20
-3.428358
  0
VERTEX
  8
PLAN_1
  6
CONTINUOUS
 10
0.441067
 20
-3.424874
  0
VERTEX
  8
PLAN_1
  6
CONTINUOUS
 10
0.438020
 20
-3.420957
  0
VERTEX
  8
PLAN_1
  6
CONTINUOUS
 10
0.435406
 20
-3.417035
  0
VERTEX
  8
PLAN_1
  6
CONTINUOUS
 10
0.433228
 20
-3.413118
  0
VERTEX
  8
PLAN_1
  6
CONTINUOUS
 10
0.430618
 20
-3.408327
  0
VERTEX
  8
PLAN_1
  6
CONTINUOUS
 10
0.428874
 20
-3.403972
  0
VERTEX
  8
PLAN_1
  6
CONTINUOUS
 10
0.426697
 20
-3.398748
  0
VERTEX
  8
PLAN_1
  6
CONTINUOUS
 10
0.424957
 20
-3.393524
  0
VERTEX
  8
PLAN_1
  6
CONTINUOUS
 10
0.423650
 20
-3.388299
  0
VERTEX
  8
PLAN_1
  6
CONTINUOUS
 10
0.422346
 20
-3.382638
  0
VERTEX
  8
PLAN_1
  6
CONTINUOUS
 10
0.421039
 20
-3.376543
  0
VERTEX
  8
PLAN_1
  6
CONTINUOUS
 10
0.420169
 20
-3.370449
  0
VERTEX
  8
PLAN_1
  6
CONTINUOUS
 10
0.419732
 20
-3.363917
  0
VERTEX
  8
PLAN_1
  6
CONTINUOUS
 10
0.419295
 20
-3.356953
  0
VERTEX
  8
PLAN_1
  6
CONTINUOUS
 10
0.419295
 20
-3.349984
  0
VERTEX
  8
PLAN_1
  6
CONTINUOUS
 10
0.419732
 20
-3.338665
  0
VERTEX
  8
PLAN_1
  6
CONTINUOUS
 10
0.420602
 20
-3.327780
  0
VERTEX
  8
PLAN_1
  6
CONTINUOUS
 10
0.421472
 20
-3.322555
  0
VERTEX
  8
PLAN_1
  6
CONTINUOUS
 10
0.422780
 20
-3.317764
  0
VERTEX
  8
PLAN_1
  6
CONTINUOUS
 10
0.424087
 20
-3.312539
  0
VERTEX
  8
PLAN_1
  6
CONTINUOUS
 10
0.425394
 20
-3.307752
  0
VERTEX
  8
PLAN_1
  6
CONTINUOUS
 10
0.427134
 20
-3.303398
  0
VERTEX
  8
PLAN_1
  6
CONTINUOUS
 10
0.428874
 20
-3.298606
  0
VERTEX
  8
PLAN_1
  6
CONTINUOUS
 10
0.431051
 20
-3.294252
  0
VERTEX
  8
PLAN_1
  6
CONTINUOUS
 10
0.433228
 20
-3.290335
  0
VERTEX
  8
PLAN_1
  6
CONTINUOUS
 10
0.435843
 20
-3.285980
  0
VERTEX
  8
PLAN_1
  6
CONTINUOUS
 10
0.438020
 20
-3.282063
  0
VERTEX
  8
PLAN_1
  6
CONTINUOUS
 10
0.441067
 20
-3.278579
  0
VERTEX
  8
PLAN_1
  6
CONTINUOUS
 10
0.443681
 20
-3.275094
  0
VERTEX
  8
PLAN_1
  6
CONTINUOUS
 10
0.446728
 20
-3.271614
  0
VERTEX
  8
PLAN_1
  6
CONTINUOUS
 10
0.450209
 20
-3.268567
  0
VERTEX
  8
PLAN_1
  6
CONTINUOUS
 10
0.453693
 20
-3.265516
  0
VERTEX
  8
PLAN_1
  6
CONTINUOUS
 10
0.457177
 20
-3.262906
  0
VERTEX
  8
PLAN_1
  6
CONTINUOUS
 10
0.461094
 20
-3.260291
  0
VERTEX
  8
PLAN_1
  6
CONTINUOUS
 10
0.465016
 20
-3.257681
  0
VERTEX
  8
PLAN_1
  6
CONTINUOUS
 10
0.468933
 20
-3.255504
  0
VERTEX
  8
PLAN_1
  6
CONTINUOUS
 10
0.473287
 20
-3.253760
  0
VERTEX
  8
PLAN_1
  6
CONTINUOUS
 10
0.477642
 20
-3.252020
  0
VERTEX
  8
PLAN_1
  6
CONTINUOUS
 10
0.481996
 20
-3.250280
  0
VERTEX
  8
PLAN_1
  6
CONTINUOUS
 10
0.486783
 20
-3.248972
  0
VERTEX
  8
PLAN_1
  6
CONTINUOUS
 10
0.491575
 20
-3.248102
  0
VERTEX
  8
PLAN_1
  6
CONTINUOUS
 10
0.496362
 20
-3.247232
  0
VERTEX
  8
PLAN_1
  6
CONTINUOUS
 10
0.501587
 20
-3.246795
  0
VERTEX
  8
PLAN_1
  6
CONTINUOUS
 10
0.506811
 20
-3.246358
  0
VERTEX
  8
PLAN_1
  6
CONTINUOUS
 10
0.512035
 20
-3.245925
  0
VERTEX
  8
PLAN_1
  6
CONTINUOUS
 10
0.521614
 20
-3.246358
  0
VERTEX
  8
PLAN_1
  6
CONTINUOUS
 10
0.530323
 20
-3.247665
  0
VERTEX
  8
PLAN_1
  6
CONTINUOUS
 10
0.538594
 20
-3.249406
  0
VERTEX
  8
PLAN_1
  6
CONTINUOUS
 10
0.546000
 20
-3.251583
  0
VERTEX
  8
PLAN_1
  6
CONTINUOUS
 10
0.552965
 20
-3.254634
  0
VERTEX
  8
PLAN_1
  6
CONTINUOUS
 10
0.559496
 20
-3.258114
  0
VERTEX
  8
PLAN_1
  6
CONTINUOUS
 10
0.565591
 20
-3.262035
  0
VERTEX
  8
PLAN_1
  6
CONTINUOUS
 10
0.570815
 20
-3.266390
  0
VERTEX
  8
PLAN_1
  6
CONTINUOUS
 10
0.575606
 20
-3.271177
  0
VERTEX
  8
PLAN_1
  6
CONTINUOUS
 10
0.579961
 20
-3.275969
  0
VERTEX
  8
PLAN_1
  6
CONTINUOUS
 10
0.583441
 20
-3.281626
  0
VERTEX
  8
PLAN_1
  6
CONTINUOUS
 10
0.586925
 20
-3.287287
  0
VERTEX
  8
PLAN_1
  6
CONTINUOUS
 10
0.589539
 20
-3.292949
  0
VERTEX
  8
PLAN_1
  6
CONTINUOUS
 10
0.591280
 20
-3.299043
  0
VERTEX
  8
PLAN_1
  6
CONTINUOUS
 10
0.593020
 20
-3.305138
  0
VERTEX
  8
PLAN_1
  6
CONTINUOUS
 10
0.593894
 20
-3.311232
  0
VERTEX
  8
PLAN_1
  6
CONTINUOUS
 10
0.567768
 20
-3.311232
  0
SEQEND
  8
0
  0
POLYLINE
  8
PLAN_1
  6
CONTINUOUS
 66
     1
 40
0.003000
 41
0.003000
  0
VERTEX
  8
PLAN_1
  6
CONTINUOUS
 10
0.655283
 20
-3.450563
  0
VERTEX
  8
PLAN_1
  6
CONTINUOUS
 10
0.628287
 20
-3.450563
  0
VERTEX
  8
PLAN_1
  6
CONTINUOUS
 10
0.628287
 20
-3.251583
  0
VERTEX
  8
PLAN_1
  6
CONTINUOUS
 10
0.655283
 20
-3.251583
  0
VERTEX
  8
PLAN_1
  6
CONTINUOUS
 10
0.655283
 20
-3.347807
  0
VERTEX
  8
PLAN_1
  6
CONTINUOUS
 10
0.751941
 20
-3.251583
  0
VERTEX
  8
PLAN_1
  6
CONTINUOUS
 10
0.789386
 20
-3.251583
  0
VERTEX
  8
PLAN_1
  6
CONTINUOUS
 10
0.706224
 20
-3.331697
  0
VERTEX
  8
PLAN_1
  6
CONTINUOUS
 10
0.791563
 20
-3.450563
  0
VERTEX
  8
PLAN_1
  6
CONTINUOUS
 10
0.756295
 20
-3.450563
  0
VERTEX
  8
PLAN_1
  6
CONTINUOUS
 10
0.686634
 20
-3.350854
  0
VERTEX
  8
PLAN_1
  6
CONTINUOUS
 10
0.655283
 20
-3.380898
  0
VERTEX
  8
PLAN_1
  6
CONTINUOUS
 10
0.655283
 20
-3.450563
  0
SEQEND
  8
0
  0
POLYLINE
  8
PLAN_1
  6
CONTINUOUS
 66
     1
 40
0.003000
 41
0.003000
  0
VERTEX
  8
PLAN_1
  6
CONTINUOUS
 10
0.815075
 20
-3.251583
  0
VERTEX
  8
PLAN_1
  6
CONTINUOUS
 10
0.896059
 20
-3.251583
  0
VERTEX
  8
PLAN_1
  6
CONTINUOUS
 10
0.900850
 20
-3.251583
  0
VERTEX
  8
PLAN_1
  6
CONTINUOUS
 10
0.905205
 20
-3.252020
  0
VERTEX
  8
PLAN_1
  6
CONTINUOUS
 10
0.909992
 20
-3.252457
  0
VERTEX
  8
PLAN_1
  6
CONTINUOUS
 10
0.914346
 20
-3.253327
  0
VERTEX
  8
PLAN_1
  6
CONTINUOUS
 10
0.918701
 20
-3.254197
  0
VERTEX
  8
PLAN_1
  6
CONTINUOUS
 10
0.923055
 20
-3.255504
  0
VERTEX
  8
PLAN_1
  6
CONTINUOUS
 10
0.926972
 20
-3.256811
  0
VERTEX
  8
PLAN_1
  6
CONTINUOUS
 10
0.930890
 20
-3.258551
  0
VERTEX
  8
PLAN_1
  6
CONTINUOUS
 10
0.934811
 20
-3.260291
  0
VERTEX
  8
PLAN_1
  6
CONTINUOUS
 10
0.938291
 20
-3.262469
  0
VERTEX
  8
PLAN_1
  6
CONTINUOUS
 10
0.941776
 20
-3.264646
  0
VERTEX
  8
PLAN_1
  6
CONTINUOUS
 10
0.945260
 20
-3.266823
  0
VERTEX
  8
PLAN_1
  6
CONTINUOUS
 10
0.948307
 20
-3.269437
  0
VERTEX
  8
PLAN_1
  6
CONTINUOUS
 10
0.951354
 20
-3.272047
  0
VERTEX
  8
PLAN_1
  6
CONTINUOUS
 10
0.954402
 20
-3.275094
  0
VERTEX
  8
PLAN_1
  6
CONTINUOUS
 10
0.957453
 20
-3.278146
  0
VERTEX
  8
PLAN_1
  6
CONTINUOUS
 10
0.962240
 20
-3.285110
  0
VERTEX
  8
PLAN_1
  6
CONTINUOUS
 10
0.967031
 20
-3.292512
  0
VERTEX
  8
PLAN_1
  6
CONTINUOUS
 10
0.970512
 20
-3.300350
  0
VERTEX
  8
PLAN_1
  6
CONTINUOUS
 10
0.973996
 20
-3.309059
  0
VERTEX
  8
PLAN_1
  6
CONTINUOUS
 10
0.976610
 20
-3.318201
  0
VERTEX
  8
PLAN_1
  6
CONTINUOUS
 10
0.978350
 20
-3.327780
  0
VERTEX
  8
PLAN_1
  6
CONTINUOUS
 10
0.979220
 20
-3.337795
  0
VERTEX
  8
PLAN_1
  6
CONTINUOUS
 10
0.979657
 20
-3.348244
  0
VERTEX
  8
PLAN_1
  6
CONTINUOUS
 10
0.979657
 20
-3.356953
  0
VERTEX
  8
PLAN_1
  6
CONTINUOUS
 10
0.978787
 20
-3.365657
  0
VERTEX
  8
PLAN_1
  6
CONTINUOUS
 10
0.977480
 20
-3.374366
  0
VERTEX
  8
PLAN_1
  6
CONTINUOUS
 10
0.975736
 20
-3.383075
  0
VERTEX
  8
PLAN_1
  6
CONTINUOUS
 10
0.973126
 20
-3.391783
  0
VERTEX
  8
PLAN_1
  6
CONTINUOUS
 10
0.970079
 20
-3.400492
  0
VERTEX
  8
PLAN_1
  6
CONTINUOUS
 10
0.966157
 20
-3.408327
  0
VERTEX
  8
PLAN_1
  6
CONTINUOUS
 10
0.961803
 20
-3.416165
  0
VERTEX
  8
PLAN_1
  6
CONTINUOUS
 10
0.959193
 20
-3.420083
  0
VERTEX
  8
PLAN_1
  6
CONTINUOUS
 10
0.956579
 20
-3.423567
  0
VERTEX
  8
PLAN_1
  6
CONTINUOUS
 10
0.953531
 20
-3.427051
  0
VERTEX
  8
PLAN_1
  6
CONTINUOUS
 10
0.950484
 20
-3.430098
  0
VERTEX
  8
PLAN_1
  6
CONTINUOUS
 10
0.947000
 20
-3.433146
  0
VERTEX
  8
PLAN_1
  6
CONTINUOUS
 10
0.943520
 20
-3.435760
  0
VERTEX
  8
PLAN_1
  6
CONTINUOUS
 10
0.939598
 20
-3.438370
  0
VERTEX
  8
PLAN_1
  6
CONTINUOUS
 10
0.935681
 20
-3.440984
  0
VERTEX
  8
PLAN_1
  6
CONTINUOUS
 10
0.931327
 20
-3.443161
  0
VERTEX
  8
PLAN_1
  6
CONTINUOUS
 10
0.926972
 20
-3.444902
  0
VERTEX
  8
PLAN_1
  6
CONTINUOUS
 10
0.922185
 20
-3.446642
  0
VERTEX
  8
PLAN_1
  6
CONTINUOUS
 10
0.917394
 20
-3.447949
  0
VERTEX
  8
PLAN_1
  6
CONTINUOUS
 10
0.912169
 20
-3.449256
  0
VERTEX
  8
PLAN_1
  6
CONTINUOUS
 10
0.906508
 20
-3.450126
  0
VERTEX
  8
PLAN_1
  6
CONTINUOUS
 10
0.900850
 20
-3.450563
  0
VERTEX
  8
PLAN_1
  6
CONTINUOUS
 10
0.894752
 20
-3.450563
  0
VERTEX
  8
PLAN_1
  6
CONTINUOUS
 10
0.815075
 20
-3.450563
  0
VERTEX
  8
PLAN_1
  6
CONTINUOUS
 10
0.815075
 20
-3.251583
  0
SEQEND
  8
0
  0
POLYLINE
  8
PLAN_1
  6
CONTINUOUS
 66
     1
 40
0.003000
 41
0.003000
  0
VERTEX
  8
PLAN_1
  6
CONTINUOUS
 10
0.842071
 20
-3.427484
  0
VERTEX
  8
PLAN_1
  6
CONTINUOUS
 10
0.894319
 20
-3.427484
  0
VERTEX
  8
PLAN_1
  6
CONTINUOUS
 10
0.900850
 20
-3.427484
  0
VERTEX
  8
PLAN_1
  6
CONTINUOUS
 10
0.906945
 20
-3.426181
  0
VERTEX
  8
PLAN_1
  6
CONTINUOUS
 10
0.912606
 20
-3.424874
  0
VERTEX
  8
PLAN_1
  6
CONTINUOUS
 10
0.917831
 20
-3.422697
  0
VERTEX
  8
PLAN_1
  6
CONTINUOUS
 10
0.923055
 20
-3.419650
  0
VERTEX
  8
PLAN_1
  6
CONTINUOUS
 10
0.927843
 20
-3.416165
  0
VERTEX
  8
PLAN_1
  6
CONTINUOUS
 10
0.932197
 20
-3.412248
  0
VERTEX
  8
PLAN_1
  6
CONTINUOUS
 10
0.936118
 20
-3.407457
  0
VERTEX
  8
PLAN_1
  6
CONTINUOUS
 10
0.939598
 20
-3.402232
  0
VERTEX
  8
PLAN_1
  6
CONTINUOUS
 10
0.943083
 20
-3.396571
  0
VERTEX
  8
PLAN_1
  6
CONTINUOUS
 10
0.945697
 20
-3.390043
  0
VERTEX
  8
PLAN_1
  6
CONTINUOUS
 10
0.947874
 20
-3.383075
  0
VERTEX
  8
PLAN_1
  6
CONTINUOUS
 10
0.949614
 20
-3.375673
  0
VERTEX
  8
PLAN_1
  6
CONTINUOUS
 10
0.950921
 20
-3.367835
  0
VERTEX
  8
PLAN_1
  6
CONTINUOUS
 10
0.951791
 20
-3.359130
  0
VERTEX
  8
PLAN_1
  6
CONTINUOUS
 10
0.951791
 20
-3.349984
  0
VERTEX
  8
PLAN_1
  6
CONTINUOUS
 10
0.951791
 20
-3.340843
  0
VERTEX
  8
PLAN_1
  6
CONTINUOUS
 10
0.950921
 20
-3.332134
  0
VERTEX
  8
PLAN_1
  6
CONTINUOUS
 10
0.949614
 20
-3.324295
  0
VERTEX
  8
PLAN_1
  6
CONTINUOUS
 10
0.947874
 20
-3.316894
  0
VERTEX
  8
PLAN_1
  6
CONTINUOUS
 10
0.945697
 20
-3.310362
  0
VERTEX
  8
PLAN_1
  6
CONTINUOUS
 10
0.942646
 20
-3.303831
  0
VERTEX
  8
PLAN_1
  6
CONTINUOUS
 10
0.939598
 20
-3.298173
  0
VERTEX
  8
PLAN_1
  6
CONTINUOUS
 10
0.935681
 20
-3.293382
  0
VERTEX
  8
PLAN_1
  6
CONTINUOUS
 10
0.931764
 20
-3.289028
  0
VERTEX
  8
PLAN_1
  6
CONTINUOUS
 10
0.927409
 20
-3.285110
  0
VERTEX
  8
PLAN_1
  6
CONTINUOUS
 10
0.922185
 20
-3.282063
  0
VERTEX
  8
PLAN_1
  6
CONTINUOUS
 10
0.916961
 20
-3.279016
  0
VERTEX
  8
PLAN_1
  6
CONTINUOUS
 10
0.911299
 20
-3.277272
  0
VERTEX
  8
PLAN_1
  6
CONTINUOUS
 10
0.905205
 20
-3.275531
  0
VERTEX
  8
PLAN_1
  6
CONTINUOUS
 10
0.899106
 20
-3.274661
  0
VERTEX
  8
PLAN_1
  6
CONTINUOUS
 10
0.892142
 20
-3.274661
  0
VERTEX
  8
PLAN_1
  6
CONTINUOUS
 10
0.842071
 20
-3.274661
  0
VERTEX
  8
PLAN_1
  6
CONTINUOUS
 10
0.842071
 20
-3.427484
  0
SEQEND
  8
0
  0
POLYLINE
  8
PLAN_1
  6
CONTINUOUS
 66
     1
 40
0.003000
 41
0.003000
  0
VERTEX
  8
PLAN_1
  6
CONTINUOUS
 10
1.005346
 20
-3.325602
  0
VERTEX
  8
PLAN_1
  6
CONTINUOUS
 10
1.005346
 20
-3.319941
  0
VERTEX
  8
PLAN_1
  6
CONTINUOUS
 10
1.005780
 20
-3.314283
  0
VERTEX
  8
PLAN_1
  6
CONTINUOUS
 10
1.006650
 20
-3.309059
  0
VERTEX
  8
PLAN_1
  6
CONTINUOUS
 10
1.007524
 20
-3.304268
  0
VERTEX
  8
PLAN_1
  6
CONTINUOUS
 10
1.008394
 20
-3.299913
  0
VERTEX
  8
PLAN_1
  6
CONTINUOUS
 10
1.009701
 20
-3.295559
  0
VERTEX
  8
PLAN_1
  6
CONTINUOUS
 10
1.011441
 20
-3.291642
  0
VERTEX
  8
PLAN_1
  6
CONTINUOUS
 10
1.012748
 20
-3.287724
  0
VERTEX
  8
PLAN_1
  6
CONTINUOUS
 10
1.014925
 20
-3.284240
  0
VERTEX
  8
PLAN_1
  6
CONTINUOUS
 10
1.016665
 20
-3.281193
  0
VERTEX
  8
PLAN_1
  6
CONTINUOUS
 10
1.018843
 20
-3.278146
  0
VERTEX
  8
PLAN_1
  6
CONTINUOUS
 10
1.021020
 20
-3.275531
  0
VERTEX
  8
PLAN_1
  6
CONTINUOUS
 10
1.025807
 20
-3.270740
  0
VERTEX
  8
PLAN_1
  6
CONTINUOUS
 10
1.031031
 20
-3.266823
  0
VERTEX
  8
PLAN_1
  6
CONTINUOUS
 10
1.036693
 20
-3.263339
  0
VERTEX
  8
PLAN_1
  6
CONTINUOUS
 10
1.042354
 20
-3.261161
  0
VERTEX
  8
PLAN_1
  6
CONTINUOUS
 10
1.047579
 20
-3.258984
  0
VERTEX
  8
PLAN_1
  6
CONTINUOUS
 10
1.053240
 20
-3.257681
  0
VERTEX
  8
PLAN_1
  6
CONTINUOUS
 10
1.058898
 20
-3.256811
  0
VERTEX
  8
PLAN_1
  6
CONTINUOUS
 10
1.063689
 20
-3.255937
  0
VERTEX
  8
PLAN_1
  6
CONTINUOUS
 10
1.068476
 20
-3.255504
  0
VERTEX
  8
PLAN_1
  6
CONTINUOUS
 10
1.072831
 20
-3.255504
  0
VERTEX
  8
PLAN_1
  6
CONTINUOUS
 10
1.078929
 20
-3.255937
  0
VERTEX
  8
PLAN_1
  6
CONTINUOUS
 10
1.085024
 20
-3.256811
  0
VERTEX
  8
PLAN_1
  6
CONTINUOUS
 10
1.091118
 20
-3.257681
  0
VERTEX
  8
PLAN_1
  6
CONTINUOUS
 10
1.096780
 20
-3.259421
  0
VERTEX
  8
PLAN_1
  6
CONTINUOUS
 10
1.102004
 20
-3.261598
  0
VERTEX
  8
PLAN_1
  6
CONTINUOUS
 10
1.106791
 20
-3.264646
  0
VERTEX
  8
PLAN_1
  6
CONTINUOUS
 10
1.111583
 20
-3.267693
  0
VERTEX
  8
PLAN_1
  6
CONTINUOUS
 10
1.115937
 20
-3.271177
  0
VERTEX
  8
PLAN_1
  6
CONTINUOUS
 10
1.119854
 20
-3.275094
  0
VERTEX
  8
PLAN_1
  6
CONTINUOUS
 10
1.123339
 20
-3.279449
  0
VERTEX
  8
PLAN_1
  6
CONTINUOUS
 10
1.126386
 20
-3.284240
  0
VERTEX
  8
PLAN_1
  6
CONTINUOUS
 10
1.129000
 20
-3.289465
  0
VERTEX
  8
PLAN_1
  6
CONTINUOUS
 10
1.131177
 20
-3.295126
  0
VERTEX
  8
PLAN_1
  6
CONTINUOUS
 10
1.132480
 20
-3.300783
  0
VERTEX
  8
PLAN_1
  6
CONTINUOUS
 10
1.133350
 20
-3.307315
  0
VERTEX
  8
PLAN_1
  6
CONTINUOUS
 10
1.133787
 20
-3.313846
  0
VERTEX
  8
PLAN_1
  6
CONTINUOUS
 10
1.133787
 20
-3.320378
  0
VERTEX
  8
PLAN_1
  6
CONTINUOUS
 10
1.132917
 20
-3.326039
  0
VERTEX
  8
PLAN_1
  6
CONTINUOUS
 10
1.131610
 20
-3.331697
  0
VERTEX
  8
PLAN_1
  6
CONTINUOUS
 10
1.129870
 20
-3.336488
  0
VERTEX
  8
PLAN_1
  6
CONTINUOUS
 10
1.127693
 20
-3.341276
  0
VERTEX
  8
PLAN_1
  6
CONTINUOUS
 10
1.125079
 20
-3.345630
  0
VERTEX
  8
PLAN_1
  6
CONTINUOUS
 10
1.122031
 20
-3.349984
  0
VERTEX
  8
PLAN_1
  6
CONTINUOUS
 10
1.118547
 20
-3.353902
  0
VERTEX
  8
PLAN_1
  6
CONTINUOUS
 10
1.115067
 20
-3.357386
  0
VERTEX
  8
PLAN_1
  6
CONTINUOUS
 10
1.111146
 20
-3.360870
  0
VERTEX
  8
PLAN_1
  6
CONTINUOUS
 10
1.106791
 20
-3.363917
  0
VERTEX
  8
PLAN_1
  6
CONTINUOUS
 10
1.102004
 20
-3.367402
  0
VERTEX
  8
PLAN_1
  6
CONTINUOUS
 10
1.092425
 20
-3.373059
  0
VERTEX
  8
PLAN_1
  6
CONTINUOUS
 10
1.081539
 20
-3.379157
  0
VERTEX
  8
PLAN_1
  6
CONTINUOUS
 10
1.061512
 20
-3.390043
  0
VERTEX
  8
PLAN_1
  6
CONTINUOUS
 10
1.056720
 20
-3.393091
  0
VERTEX
  8
PLAN_1
  6
CONTINUOUS
 10
1.052366
 20
-3.395701
  0
VERTEX
  8
PLAN_1
  6
CONTINUOUS
 10
1.048449
 20
-3.398315
  0
VERTEX
  8
PLAN_1
  6
CONTINUOUS
 10
1.044965
 20
-3.401362
  0
VERTEX
  8
PLAN_1
  6
CONTINUOUS
 10
1.039307
 20
-3.406587
  0
VERTEX
  8
PLAN_1
  6
CONTINUOUS
 10
1.034953
 20
-3.411811
  0
VERTEX
  8
PLAN_1
  6
CONTINUOUS
 10
1.031906
 20
-3.416602
  0
VERTEX
  8
PLAN_1
  6
CONTINUOUS
 10
1.029728
 20
-3.420520
  0
VERTEX
  8
PLAN_1
  6
CONTINUOUS
 10
1.028421
 20
-3.424437
  0
VERTEX
  8
PLAN_1
  6
CONTINUOUS
 10
1.027984
 20
-3.427484
  0
VERTEX
  8
PLAN_1
  6
CONTINUOUS
 10
1.133787
 20
-3.427484
  0
VERTEX
  8
PLAN_1
  6
CONTINUOUS
 10
1.133787
 20
-3.450563
  0
VERTEX
  8
PLAN_1
  6
CONTINUOUS
 10
1.000555
 20
-3.450563
  0
VERTEX
  8
PLAN_1
  6
CONTINUOUS
 10
1.000992
 20
-3.443161
  0
VERTEX
  8
PLAN_1
  6
CONTINUOUS
 10
1.001425
 20
-3.436193
  0
VERTEX
  8
PLAN_1
  6
CONTINUOUS
 10
1.002732
 20
-3.429661
  0
VERTEX
  8
PLAN_1
  6
CONTINUOUS
 10
1.004472
 20
-3.423567
  0
VERTEX
  8
PLAN_1
  6
CONTINUOUS
 10
1.006217
 20
-3.417906
  0
VERTEX
  8
PLAN_1
  6
CONTINUOUS
 10
1.008394
 20
-3.412248
  0
VERTEX
  8
PLAN_1
  6
CONTINUOUS
 10
1.011004
 20
-3.407457
  0
VERTEX
  8
PLAN_1
  6
CONTINUOUS
 10
1.014051
 20
-3.402669
  0
VERTEX
  8
PLAN_1
  6
CONTINUOUS
 10
1.017102
 20
-3.397878
  0
VERTEX
  8
PLAN_1
  6
CONTINUOUS
 10
1.020583
 20
-3.393961
  0
VERTEX
  8
PLAN_1
  6
CONTINUOUS
 10
1.024067
 20
-3.390043
  0
VERTEX
  8
PLAN_1
  6
CONTINUOUS
 10
1.027984
 20
-3.386122
  0
VERTEX
  8
PLAN_1
  6
CONTINUOUS
 10
1.032339
 20
-3.382638
  0
VERTEX
  8
PLAN_1
  6
CONTINUOUS
 10
1.036693
 20
-3.379157
  0
VERTEX
  8
PLAN_1
  6
CONTINUOUS
 10
1.041484
 20
-3.376110
  0
VERTEX
  8
PLAN_1
  6
CONTINUOUS
 10
1.046272
 20
-3.373059
  0
VERTEX
  8
PLAN_1
  6
CONTINUOUS
 10
1.071961
 20
-3.358256
  0
VERTEX
  8
PLAN_1
  6
CONTINUOUS
 10
1.079362
 20
-3.353902
  0
VERTEX
  8
PLAN_1
  6
CONTINUOUS
 10
1.086331
 20
-3.349551
  0
VERTEX
  8
PLAN_1
  6
CONTINUOUS
 10
1.092425
 20
-3.345197
  0
VERTEX
  8
PLAN_1
  6
CONTINUOUS
 10
1.097650
 20
-3.340406
  0
VERTEX
  8
PLAN_1
  6
CONTINUOUS
 10
1.099827
 20
-3.338228
  0
VERTEX
  8
PLAN_1
  6
CONTINUOUS
 10
1.102004
 20
-3.335181
  0
VERTEX
  8
PLAN_1
  6
CONTINUOUS
 10
1.103744
 20
-3.332134
  0
VERTEX
  8
PLAN_1
  6
CONTINUOUS
 10
1.105051
 20
-3.329087
  0
VERTEX
  8
PLAN_1
  6
CONTINUOUS
 10
1.106358
 20
-3.325602
  0
VERTEX
  8
PLAN_1
  6
CONTINUOUS
 10
1.107228
 20
-3.321685
  0
VERTEX
  8
PLAN_1
  6
CONTINUOUS
 10
1.107665
 20
-3.317331
  0
VERTEX
  8
PLAN_1
  6
CONTINUOUS
 10
1.107665
 20
-3.312539
  0
VERTEX
  8
PLAN_1
  6
CONTINUOUS
 10
1.107665
 20
-3.309929
  0
VERTEX
  8
PLAN_1
  6
CONTINUOUS
 10
1.107228
 20
-3.306882
  0
VERTEX
  8
PLAN_1
  6
CONTINUOUS
 10
1.106791
 20
-3.303831
  0
VERTEX
  8
PLAN_1
  6
CONTINUOUS
 10
1.105921
 20
-3.300783
  0
VERTEX
  8
PLAN_1
  6
CONTINUOUS
 10
1.104614
 20
-3.297736
  0
VERTEX
  8
PLAN_1
  6
CONTINUOUS
 10
1.102874
 20
-3.294689
  0
VERTEX
  8
PLAN_1
  6
CONTINUOUS
 10
1.101134
 20
-3.292075
  0
VERTEX
  8
PLAN_1
  6
CONTINUOUS
 10
1.099390
 20
-3.289465
  0
VERTEX
  8
PLAN_1
  6
CONTINUOUS
 10
1.096780
 20
-3.286850
  0
VERTEX
  8
PLAN_1
  6
CONTINUOUS
 10
1.093732
 20
-3.284673
  0
VERTEX
  8
PLAN_1
  6
CONTINUOUS
 10
1.090685
 20
-3.282496
  0
VERTEX
  8
PLAN_1
  6
CONTINUOUS
 10
1.087201
 20
-3.280756
  0
VERTEX
  8
PLAN_1
  6
CONTINUOUS
 10
1.083280
 20
-3.279449
  0
VERTEX
  8
PLAN_1
  6
CONTINUOUS
 10
1.078929
 20
-3.278579
  0
VERTEX
  8
PLAN_1
  6
CONTINUOUS
 10
1.074138
 20
-3.277709
  0
VERTEX
  8
PLAN_1
  6
CONTINUOUS
 10
1.069350
 20
-3.277709
  0
VERTEX
  8
PLAN_1
  6
CONTINUOUS
 10
1.062819
 20
-3.277709
  0
VERTEX
  8
PLAN_1
  6
CONTINUOUS
 10
1.056720
 20
-3.279016
  0
VERTEX
  8
PLAN_1
  6
CONTINUOUS
 10
1.051933
 20
-3.280756
  0
VERTEX
  8
PLAN_1
  6
CONTINUOUS
 10
1.047579
 20
-3.282933
  0
VERTEX
  8
PLAN_1
  6
CONTINUOUS
 10
1.043661
 20
-3.285980
  0
VERTEX
  8
PLAN_1
  6
CONTINUOUS
 10
1.040610
 20
-3.289028
  0
VERTEX
  8
PLAN_1
  6
CONTINUOUS
 10
1.038000
 20
-3.292512
  0
VERTEX
  8
PLAN_1
  6
CONTINUOUS
 10
1.035823
 20
-3.296429
  0
VERTEX
  8
PLAN_1
  6
CONTINUOUS
 10
1.034083
 20
-3.300350
  0
VERTEX
  8
PLAN_1
  6
CONTINUOUS
 10
1.032776
 20
-3.304268
  0
VERTEX
  8
PLAN_1
  6
CONTINUOUS
 10
1.031906
 20
-3.308185
  0
VERTEX
  8
PLAN_1
  6
CONTINUOUS
 10
1.031031
 20
-3.312106
  0
VERTEX
  8
PLAN_1
  6
CONTINUOUS
 10
1.030161
 20
-3.319508
  0
VERTEX
  8
PLAN_1
  6
CONTINUOUS
 10
1.029728
 20
-3.325602
  0
VERTEX
  8
PLAN_1
  6
CONTINUOUS
 10
1.005346
 20
-3.325602
  0
SEQEND
  8
0
  0
SOLID
  8
PLAN_1
 10
1.147720
 20
-3.485394
 11
1.147720
 21
-3.471461
 12
1.301850
 22
-3.485394
 13
1.301850
 23
-3.471461
  0
POLYLINE
  8
PLAN_1
  6
CONTINUOUS
 66
     1
 40
0.003000
 41
0.003000
  0
VERTEX
  8
PLAN_1
  6
CONTINUOUS
 10
1.147720
 20
-3.485394
  0
VERTEX
  8
PLAN_1
  6
CONTINUOUS
 10
1.147720
 20
-3.471461
  0
VERTEX
  8
PLAN_1
  6
CONTINUOUS
 10
1.301850
 20
-3.471461
  0
VERTEX
  8
PLAN_1
  6
CONTINUOUS
 10
1.301850
 20
-3.485394
  0
VERTEX
  8
PLAN_1
  6
CONTINUOUS
 10
1.147720
 20
-3.485394
  0
SEQEND
  8
0
  0
POLYLINE
  8
PLAN_1
  6
CONTINUOUS
 66
     1
 40
0.003000
 41
0.003000
  0
VERTEX
  8
PLAN_1
  6
CONTINUOUS
 10
1.313606
 20
-3.322555
  0
VERTEX
  8
PLAN_1
  6
CONTINUOUS
 10
1.313606
 20
-3.316024
  0
VERTEX
  8
PLAN_1
  6
CONTINUOUS
 10
1.314480
 20
-3.309492
  0
VERTEX
  8
PLAN_1
  6
CONTINUOUS
 10
1.315783
 20
-3.302961
  0
VERTEX
  8
PLAN_1
  6
CONTINUOUS
 10
1.317528
 20
-3.296866
  0
VERTEX
  8
PLAN_1
  6
CONTINUOUS
 10
1.319705
 20
-3.291205
  0
VERTEX
  8
PLAN_1
  6
CONTINUOUS
 10
1.322752
 20
-3.285547
  0
VERTEX
  8
PLAN_1
  6
CONTINUOUS
 10
1.325799
 20
-3.280319
  0
VERTEX
  8
PLAN_1
  6
CONTINUOUS
 10
1.329717
 20
-3.275531
  0
VERTEX
  8
PLAN_1
  6
CONTINUOUS
 10
1.333638
 20
-3.271177
  0
VERTEX
  8
PLAN_1
  6
CONTINUOUS
 10
1.338425
 20
-3.267260
  0
VERTEX
  8
PLAN_1
  6
CONTINUOUS
 10
1.343650
 20
-3.263776
  0
VERTEX
  8
PLAN_1
  6
CONTINUOUS
 10
1.349311
 20
-3.261161
  0
VERTEX
  8
PLAN_1
  6
CONTINUOUS
 10
1.355406
 20
-3.258551
  0
VERTEX
  8
PLAN_1
  6
CONTINUOUS
 10
1.361937
 20
-3.256811
  0
VERTEX
  8
PLAN_1
  6
CONTINUOUS
 10
1.368902
 20
-3.255937
  0
VERTEX
  8
PLAN_1
  6
CONTINUOUS
 10
1.376307
 20
-3.255504
  0
VERTEX
  8
PLAN_1
  6
CONTINUOUS
 10
1.381965
 20
-3.255937
  0
VERTEX
  8
PLAN_1
  6
CONTINUOUS
 10
1.387189
 20
-3.256374
  0
VERTEX
  8
PLAN_1
  6
CONTINUOUS
 10
1.392413
 20
-3.257244
  0
VERTEX
  8
PLAN_1
  6
CONTINUOUS
 10
1.397205
 20
-3.258114
  0
VERTEX
  8
PLAN_1
  6
CONTINUOUS
 10
1.401559
 20
-3.259421
  0
VERTEX
  8
PLAN_1
  6
CONTINUOUS
 10
1.405476
 20
-3.261161
  0
VERTEX
  8
PLAN_1
  6
CONTINUOUS
 10
1.409398
 20
-3.263339
  0
VERTEX
  8
PLAN_1
  6
CONTINUOUS
 10
1.413315
 20
-3.265083
  0
VERTEX
  8
PLAN_1
  6
CONTINUOUS
 10
1.416362
 20
-3.267693
  0
VERTEX
  8
PLAN_1
  6
CONTINUOUS
 10
1.419846
 20
-3.270307
  0
VERTEX
  8
PLAN_1
  6
CONTINUOUS
 10
1.422457
 20
-3.272917
  0
VERTEX
  8
PLAN_1
  6
CONTINUOUS
 10
1.425071
 20
-3.275969
  0
VERTEX
  8
PLAN_1
  6
CONTINUOUS
 10
1.427681
 20
-3.279016
  0
VERTEX
  8
PLAN_1
  6
CONTINUOUS
 10
1.429858
 20
-3.282063
  0
VERTEX
  8
PLAN_1
  6
CONTINUOUS
 10
1.432035
 20
-3.285547
  0
VERTEX
  8
PLAN_1
  6
CONTINUOUS
 10
1.433780
 20
-3.289028
  0
VERTEX
  8
PLAN_1
  6
CONTINUOUS
 10
1.436827
 20
-3.295996
  0
VERTEX
  8
PLAN_1
  6
CONTINUOUS
 10
1.439437
 20
-3.303398
  0
VERTEX
  8
PLAN_1
  6
CONTINUOUS
 10
1.441181
 20
-3.311232
  0
VERTEX
  8
PLAN_1
  6
CONTINUOUS
 10
1.442484
 20
-3.318638
  0
VERTEX
  8
PLAN_1
  6
CONTINUOUS
 10
1.443791
 20
-3.326039
  0
VERTEX
  8
PLAN_1
  6
CONTINUOUS
 10
1.444228
 20
-3.333004
  0
VERTEX
  8
PLAN_1
  6
CONTINUOUS
 10
1.444661
 20
-3.339972
  0
VERTEX
  8
PLAN_1
  6
CONTINUOUS
 10
1.444661
 20
-3.346067
  0
VERTEX
  8
PLAN_1
  6
CONTINUOUS
 10
1.444228
 20
-3.356953
  0
VERTEX
  8
PLAN_1
  6
CONTINUOUS
 10
1.442921
 20
-3.372189
  0
VERTEX
  8
PLAN_1
  6
CONTINUOUS
 10
1.441614
 20
-3.380898
  0
VERTEX
  8
PLAN_1
  6
CONTINUOUS
 10
1.439874
 20
-3.390043
  0
VERTEX
  8
PLAN_1
  6
CONTINUOUS
 10
1.437260
 20
-3.399622
  0
VERTEX
  8
PLAN_1
  6
CONTINUOUS
 10
1.434213
 20
-3.408764
  0
VERTEX
  8
PLAN_1
  6
CONTINUOUS
 10
1.432472
 20
-3.413551
  0
VERTEX
  8
PLAN_1
  6
CONTINUOUS
 10
1.430295
 20
-3.417906
  0
VERTEX
  8
PLAN_1
  6
CONTINUOUS
 10
1.428118
 20
-3.422260
  0
VERTEX
  8
PLAN_1
  6
CONTINUOUS
 10
1.425504
 20
-3.426614
  0
VERTEX
  8
PLAN_1
  6
CONTINUOUS
 10
1.422894
 20
-3.430969
  0
VERTEX
  8
PLAN_1
  6
CONTINUOUS
 10
1.419846
 20
-3.434886
  0
VERTEX
  8
PLAN_1
  6
CONTINUOUS
 10
1.416799
 20
-3.438370
  0
VERTEX
  8
PLAN_1
  6
CONTINUOUS
 10
1.413315
 20
-3.441854
  0
VERTEX
  8
PLAN_1
  6
CONTINUOUS
 10
1.409398
 20
-3.444902
  0
VERTEX
  8
PLAN_1
  6
CONTINUOUS
 10
1.405043
 20
-3.447516
  0
VERTEX
  8
PLAN_1
  6
CONTINUOUS
 10
1.400689
 20
-3.450126
  0
VERTEX
  8
PLAN_1
  6
CONTINUOUS
 10
1.395898
 20
-3.452303
  0
VERTEX
  8
PLAN_1
  6
CONTINUOUS
 10
1.391110
 20
-3.453610
  0
VERTEX
  8
PLAN_1
  6
CONTINUOUS
 10
1.385449
 20
-3.454917
  0
VERTEX
  8
PLAN_1
  6
CONTINUOUS
 10
1.379787
 20
-3.455787
  0
VERTEX
  8
PLAN_1
  6
CONTINUOUS
 10
1.373693
 20
-3.455787
  0
VERTEX
  8
PLAN_1
  6
CONTINUOUS
 10
1.365421
 20
-3.455787
  0
VERTEX
  8
PLAN_1
  6
CONTINUOUS
 10
1.358020
 20
-3.454480
  0
VERTEX
  8
PLAN_1
  6
CONTINUOUS
 10
1.351488
 20
-3.452740
  0
VERTEX
  8
PLAN_1
  6
CONTINUOUS
 10
1.345394
 20
-3.450563
  0
VERTEX
  8
PLAN_1
  6
CONTINUOUS
 10
1.340165
 20
-3.447516
  0
VERTEX
  8
PLAN_1
  6
CONTINUOUS
 10
1.335378
 20
-3.444465
  0
VERTEX
  8
PLAN_1
  6
CONTINUOUS
 10
1.331024
 20
-3.440984
  0
VERTEX
  8
PLAN_1
  6
CONTINUOUS
 10
1.327539
 20
-3.437063
  0
VERTEX
  8
PLAN_1
  6
CONTINUOUS
 10
1.324492
 20
-3.432713
  0
VERTEX
  8
PLAN_1
  6
CONTINUOUS
 10
1.321882
 20
-3.428791
  0
VERTEX
  8
PLAN_1
  6
CONTINUOUS
 10
1.320138
 20
-3.424437
  0
VERTEX
  8
PLAN_1
  6
CONTINUOUS
 10
1.318398
 20
-3.420083
  0
VERTEX
  8
PLAN_1
  6
CONTINUOUS
 10
1.317091
 20
-3.415728
  0
VERTEX
  8
PLAN_1
  6
CONTINUOUS
 10
1.316220
 20
-3.411378
  0
VERTEX
  8
PLAN_1
  6
CONTINUOUS
 10
1.315783
 20
-3.407457
  0
VERTEX
  8
PLAN_1
  6
CONTINUOUS
 10
1.315783
 20
-3.403972
  0
VERTEX
  8
PLAN_1
  6
CONTINUOUS
 10
1.340165
 20
-3.403972
  0
VERTEX
  8
PLAN_1
  6
CONTINUOUS
 10
1.340602
 20
-3.407457
  0
VERTEX
  8
PLAN_1
  6
CONTINUOUS
 10
1.341039
 20
-3.410941
  0
VERTEX
  8
PLAN_1
  6
CONTINUOUS
 10
1.341909
 20
-3.413988
  0
VERTEX
  8
PLAN_1
  6
CONTINUOUS
 10
1.343217
 20
-3.417035
  0
VERTEX
  8
PLAN_1
  6
CONTINUOUS
 10
1.344520
 20
-3.420083
  0
VERTEX
  8
PLAN_1
  6
CONTINUOUS
 10
1.345827
 20
-3.422697
  0
VERTEX
  8
PLAN_1
  6
CONTINUOUS
 10
1.347571
 20
-3.424874
  0
VERTEX
  8
PLAN_1
  6
CONTINUOUS
 10
1.349744
 20
-3.427051
  0
VERTEX
  8
PLAN_1
  6
CONTINUOUS
 10
1.351921
 20
-3.429228
  0
VERTEX
  8
PLAN_1
  6
CONTINUOUS
 10
1.354535
 20
-3.430969
  0
VERTEX
  8
PLAN_1
  6
CONTINUOUS
 10
1.357150
 20
-3.432276
  0
VERTEX
  8
PLAN_1
  6
CONTINUOUS
 10
1.359760
 20
-3.433583
  0
VERTEX
  8
PLAN_1
  6
CONTINUOUS
 10
1.362807
 20
-3.434453
  0
VERTEX
  8
PLAN_1
  6
CONTINUOUS
 10
1.366291
 20
-3.435323
  0
VERTEX
  8
PLAN_1
  6
CONTINUOUS
 10
1.369776
 20
-3.435760
  0
VERTEX
  8
PLAN_1
  6
CONTINUOUS
 10
1.373256
 20
-3.435760
  0
VERTEX
  8
PLAN_1
  6
CONTINUOUS
 10
1.378047
 20
-3.435323
  0
VERTEX
  8
PLAN_1
  6
CONTINUOUS
 10
1.382835
 20
-3.434453
  0
VERTEX
  8
PLAN_1
  6
CONTINUOUS
 10
1.386756
 20
-3.433146
  0
VERTEX
  8
PLAN_1
  6
CONTINUOUS
 10
1.391110
 20
-3.431406
  0
VERTEX
  8
PLAN_1
  6
CONTINUOUS
 10
1.394591
 20
-3.428791
  0
VERTEX
  8
PLAN_1
  6
CONTINUOUS
 10
1.398075
 20
-3.425744
  0
VERTEX
  8
PLAN_1
  6
CONTINUOUS
 10
1.401559
 20
-3.422260
  0
VERTEX
  8
PLAN_1
  6
CONTINUOUS
 10
1.404169
 20
-3.418343
  0
VERTEX
  8
PLAN_1
  6
CONTINUOUS
 10
1.407220
 20
-3.413551
  0
VERTEX
  8
PLAN_1
  6
CONTINUOUS
 10
1.409831
 20
-3.407894
  0
VERTEX
  8
PLAN_1
  6
CONTINUOUS
 10
1.412008
 20
-3.402232
  0
VERTEX
  8
PLAN_1
  6
CONTINUOUS
 10
1.414185
 20
-3.395268
  0
VERTEX
  8
PLAN_1
  6
CONTINUOUS
 10
1.415925
 20
-3.388299
  0
VERTEX
  8
PLAN_1
  6
CONTINUOUS
 10
1.417669
 20
-3.380465
  0
VERTEX
  8
PLAN_1
  6
CONTINUOUS
 10
1.418976
 20
-3.371756
  0
VERTEX
  8
PLAN_1
  6
CONTINUOUS
 10
1.420280
 20
-3.362610
  0
VERTEX
  8
PLAN_1
  6
CONTINUOUS
 10
1.419409
 20
-3.362177
  0
VERTEX
  8
PLAN_1
  6
CONTINUOUS
 10
1.418102
 20
-3.364787
  0
VERTEX
  8
PLAN_1
  6
CONTINUOUS
 10
1.416362
 20
-3.367402
  0
VERTEX
  8
PLAN_1
  6
CONTINUOUS
 10
1.414185
 20
-3.370012
  0
VERTEX
  8
PLAN_1
  6
CONTINUOUS
 10
1.412008
 20
-3.372189
  0
VERTEX
  8
PLAN_1
  6
CONTINUOUS
 10
1.409831
 20
-3.374366
  0
VERTEX
  8
PLAN_1
  6
CONTINUOUS
 10
1.407220
 20
-3.376110
  0
VERTEX
  8
PLAN_1
  6
CONTINUOUS
 10
1.404169
 20
-3.377850
  0
VERTEX
  8
PLAN_1
  6
CONTINUOUS
 10
1.401122
 20
-3.379591
  0
VERTEX
  8
PLAN_1
  6
CONTINUOUS
 10
1.395028
 20
-3.382205
  0
VERTEX
  8
PLAN_1
  6
CONTINUOUS
 10
1.388496
 20
-3.383945
  0
VERTEX
  8
PLAN_1
  6
CONTINUOUS
 10
1.381531
 20
-3.385252
  0
VERTEX
  8
PLAN_1
  6
CONTINUOUS
 10
1.375000
 20
-3.385689
  0
VERTEX
  8
PLAN_1
  6
CONTINUOUS
 10
1.368469
 20
-3.385252
  0
VERTEX
  8
PLAN_1
  6
CONTINUOUS
 10
1.361937
 20
-3.384382
  0
VERTEX
  8
PLAN_1
  6
CONTINUOUS
 10
1.355843
 20
-3.383075
  0
VERTEX
  8
PLAN_1
  6
CONTINUOUS
 10
1.350181
 20
-3.380898
  0
VERTEX
  8
PLAN_1
  6
CONTINUOUS
 10
1.344520
 20
-3.378720
  0
VERTEX
  8
PLAN_1
  6
CONTINUOUS
 10
1.339732
 20
-3.375673
  0
VERTEX
  8
PLAN_1
  6
CONTINUOUS
 10
1.334941
 20
-3.372189
  0
VERTEX
  8
PLAN_1
  6
CONTINUOUS
 10
1.330587
 20
-3.368709
  0
VERTEX
  8
PLAN_1
  6
CONTINUOUS
 10
1.326669
 20
-3.364354
  0
VERTEX
  8
PLAN_1
  6
CONTINUOUS
 10
1.323622
 20
-3.359563
  0
VERTEX
  8
PLAN_1
  6
CONTINUOUS
 10
1.320575
 20
-3.354339
  0
VERTEX
  8
PLAN_1
  6
CONTINUOUS
 10
1.317961
 20
-3.348677
  0
VERTEX
  8
PLAN_1
  6
CONTINUOUS
 10
1.316220
 20
-3.342583
  0
VERTEX
  8
PLAN_1
  6
CONTINUOUS
 10
1.314913
 20
-3.336488
  0
VERTEX
  8
PLAN_1
  6
CONTINUOUS
 10
1.314043
 20
-3.329520
  0
VERTEX
  8
PLAN_1
  6
CONTINUOUS
 10
1.313606
 20
-3.322555
  0
SEQEND
  8
0
  0
POLYLINE
  8
PLAN_1
  6
CONTINUOUS
 66
     1
 40
0.003000
 41
0.003000
  0
VERTEX
  8
PLAN_1
  6
CONTINUOUS
 10
1.415925
 20
-3.319071
  0
VERTEX
  8
PLAN_1
  6
CONTINUOUS
 10
1.415925
 20
-3.315154
  0
VERTEX
  8
PLAN_1
  6
CONTINUOUS
 10
1.415492
 20
-3.310799
  0
VERTEX
  8
PLAN_1
  6
CONTINUOUS
 10
1.414622
 20
-3.306882
  0
VERTEX
  8
PLAN_1
  6
CONTINUOUS
 10
1.413748
 20
-3.303398
  0
VERTEX
  8
PLAN_1
  6
CONTINUOUS
 10
1.412445
 20
-3.299480
  0
VERTEX
  8
PLAN_1
  6
CONTINUOUS
 10
1.410701
 20
-3.296429
  0
VERTEX
  8
PLAN_1
  6
CONTINUOUS
 10
1.408961
 20
-3.292949
  0
VERTEX
  8
PLAN_1
  6
CONTINUOUS
 10
1.406783
 20
-3.289898
  0
VERTEX
  8
PLAN_1
  6
CONTINUOUS
 10
1.404169
 20
-3.287287
  0
VERTEX
  8
PLAN_1
  6
CONTINUOUS
 10
1.401122
 20
-3.284673
  0
VERTEX
  8
PLAN_1
  6
CONTINUOUS
 10
1.398075
 20
-3.282496
  0
VERTEX
  8
PLAN_1
  6
CONTINUOUS
 10
1.394591
 20
-3.280756
  0
VERTEX
  8
PLAN_1
  6
CONTINUOUS
 10
1.390673
 20
-3.279449
  0
VERTEX
  8
PLAN_1
  6
CONTINUOUS
 10
1.386319
 20
-3.278579
  0
VERTEX
  8
PLAN_1
  6
CONTINUOUS
 10
1.381531
 20
-3.277709
  0
VERTEX
  8
PLAN_1
  6
CONTINUOUS
 10
1.376740
 20
-3.277709
  0
VERTEX
  8
PLAN_1
  6
CONTINUOUS
 10
1.372386
 20
-3.277709
  0
VERTEX
  8
PLAN_1
  6
CONTINUOUS
 10
1.368469
 20
-3.278146
  0
VERTEX
  8
PLAN_1
  6
CONTINUOUS
 10
1.364551
 20
-3.279449
  0
VERTEX
  8
PLAN_1
  6
CONTINUOUS
 10
1.361067
 20
-3.280756
  0
VERTEX
  8
PLAN_1
  6
CONTINUOUS
 10
1.357583
 20
-3.282496
  0
VERTEX
  8
PLAN_1
  6
CONTINUOUS
 10
1.354535
 20
-3.284673
  0
VERTEX
  8
PLAN_1
  6
CONTINUOUS
 10
1.351921
 20
-3.286850
  0
VERTEX
  8
PLAN_1
  6
CONTINUOUS
 10
1.349311
 20
-3.289465
  0
VERTEX
  8
PLAN_1
  6
CONTINUOUS
 10
1.346697
 20
-3.292512
  0
VERTEX
  8
PLAN_1
  6
CONTINUOUS
 10
1.344957
 20
-3.295996
  0
VERTEX
  8
PLAN_1
  6
CONTINUOUS
 10
1.342780
 20
-3.299480
  0
VERTEX
  8
PLAN_1
  6
CONTINUOUS
 10
1.341472
 20
-3.303398
  0
VERTEX
  8
PLAN_1
  6
CONTINUOUS
 10
1.340165
 20
-3.307752
  0
VERTEX
  8
PLAN_1
  6
CONTINUOUS
 10
1.339295
 20
-3.312106
  0
VERTEX
  8
PLAN_1
  6
CONTINUOUS
 10
1.338862
 20
-3.316461
  0
VERTEX
  8
PLAN_1
  6
CONTINUOUS
 10
1.338862
 20
-3.321248
  0
VERTEX
  8
PLAN_1
  6
CONTINUOUS
 10
1.338862
 20
-3.328217
  0
VERTEX
  8
PLAN_1
  6
CONTINUOUS
 10
1.339732
 20
-3.333874
  0
VERTEX
  8
PLAN_1
  6
CONTINUOUS
 10
1.341039
 20
-3.339098
  0
VERTEX
  8
PLAN_1
  6
CONTINUOUS
 10
1.342780
 20
-3.343890
  0
VERTEX
  8
PLAN_1
  6
CONTINUOUS
 10
1.344520
 20
-3.347807
  0
VERTEX
  8
PLAN_1
  6
CONTINUOUS
 10
1.347134
 20
-3.351291
  0
VERTEX
  8
PLAN_1
  6
CONTINUOUS
 10
1.349744
 20
-3.353902
  0
VERTEX
  8
PLAN_1
  6
CONTINUOUS
 10
1.352358
 20
-3.356516
  0
VERTEX
  8
PLAN_1
  6
CONTINUOUS
 10
1.355406
 20
-3.358693
  0
VERTEX
  8
PLAN_1
  6
CONTINUOUS
 10
1.358890
 20
-3.360000
  0
VERTEX
  8
PLAN_1
  6
CONTINUOUS
 10
1.361937
 20
-3.361303
  0
VERTEX
  8
PLAN_1
  6
CONTINUOUS
 10
1.365421
 20
-3.362177
  0
VERTEX
  8
PLAN_1
  6
CONTINUOUS
 10
1.371953
 20
-3.363480
  0
VERTEX
  8
PLAN_1
  6
CONTINUOUS
 10
1.378484
 20
-3.363480
  0
VERTEX
  8
PLAN_1
  6
CONTINUOUS
 10
1.383709
 20
-3.363047
  0
VERTEX
  8
PLAN_1
  6
CONTINUOUS
 10
1.389803
 20
-3.362177
  0
VERTEX
  8
PLAN_1
  6
CONTINUOUS
 10
1.392850
 20
-3.360870
  0
VERTEX
  8
PLAN_1
  6
CONTINUOUS
 10
1.395898
 20
-3.359563
  0
VERTEX
  8
PLAN_1
  6
CONTINUOUS
 10
1.398945
 20
-3.357823
  0
VERTEX
  8
PLAN_1
  6
CONTINUOUS
 10
1.401992
 20
-3.355646
  0
VERTEX
  8
PLAN_1
  6
CONTINUOUS
 10
1.405043
 20
-3.353031
  0
VERTEX
  8
PLAN_1
  6
CONTINUOUS
 10
1.407654
 20
-3.349984
  0
VERTEX
  8
PLAN_1
  6
CONTINUOUS
 10
1.409831
 20
-3.346500
  0
VERTEX
  8
PLAN_1
  6
CONTINUOUS
 10
1.412008
 20
-3.342146
  0
VERTEX
  8
PLAN_1
  6
CONTINUOUS
 10
1.413748
 20
-3.337358
  0
VERTEX
  8
PLAN_1
  6
CONTINUOUS
 10
1.415055
 20
-3.332134
  0
VERTEX
  8
PLAN_1
  6
CONTINUOUS
 10
1.415492
 20
-3.326039
  0
VERTEX
  8
PLAN_1
  6
CONTINUOUS
 10
1.415925
 20
-3.319071
  0
SEQEND
  8
0
  0
POLYLINE
  8
PLAN_1
  6
CONTINUOUS
 66
     1
 40
0.003000
 41
0.003000
  0
VERTEX
  8
PLAN_1
  6
CONTINUOUS
 10
1.506925
 20
-3.450563
  0
VERTEX
  8
PLAN_1
  6
CONTINUOUS
 10
1.480366
 20
-3.450563
  0
VERTEX
  8
PLAN_1
  6
CONTINUOUS
 10
1.480366
 20
-3.251583
  0
VERTEX
  8
PLAN_1
  6
CONTINUOUS
 10
1.617953
 20
-3.251583
  0
VERTEX
  8
PLAN_1
  6
CONTINUOUS
 10
1.617953
 20
-3.275094
  0
VERTEX
  8
PLAN_1
  6
CONTINUOUS
 10
1.506925
 20
-3.275094
  0
VERTEX
  8
PLAN_1
  6
CONTINUOUS
 10
1.506925
 20
-3.336488
  0
VERTEX
  8
PLAN_1
  6
CONTINUOUS
 10
1.604890
 20
-3.336488
  0
VERTEX
  8
PLAN_1
  6
CONTINUOUS
 10
1.604890
 20
-3.360000
  0
VERTEX
  8
PLAN_1
  6
CONTINUOUS
 10
1.506925
 20
-3.360000
  0
VERTEX
  8
PLAN_1
  6
CONTINUOUS
 10
1.506925
 20
-3.450563
  0
SEQEND
  8
0
  0
SOLID
  8
PLAN_1
 10
1.637110
 20
-3.450563
 11
1.608374
 21
-3.450563
 12
1.637110
 22
-3.421390
 13
1.608374
 23
-3.421390
  0
POLYLINE
  8
PLAN_1
  6
CONTINUOUS
 66
     1
 40
0.003000
 41
0.003000
  0
VERTEX
  8
PLAN_1
  6
CONTINUOUS
 10
1.637110
 20
-3.450563
  0
VERTEX
  8
PLAN_1
  6
CONTINUOUS
 10
1.608374
 20
-3.450563
  0
VERTEX
  8
PLAN_1
  6
CONTINUOUS
 10
1.608374
 20
-3.421390
  0
VERTEX
  8
PLAN_1
  6
CONTINUOUS
 10
1.637110
 20
-3.421390
  0
VERTEX
  8
PLAN_1
  6
CONTINUOUS
 10
1.637110
 20
-3.450563
  0
SEQEND
  8
0
  0
POLYLINE
  8
PLAN_1
  6
CONTINUOUS
 66
     1
 40
0.003000
 41
0.003000
  0
VERTEX
  8
PLAN_1
  6
CONTINUOUS
 10
1.832602
 20
-3.450563
  0
VERTEX
  8
PLAN_1
  6
CONTINUOUS
 10
1.685441
 20
-3.450563
  0
VERTEX
  8
PLAN_1
  6
CONTINUOUS
 10
1.685441
 20
-3.251583
  0
VERTEX
  8
PLAN_1
  6
CONTINUOUS
 10
1.830425
 20
-3.251583
  0
VERTEX
  8
PLAN_1
  6
CONTINUOUS
 10
1.830425
 20
-3.275094
  0
VERTEX
  8
PLAN_1
  6
CONTINUOUS
 10
1.712433
 20
-3.275094
  0
VERTEX
  8
PLAN_1
  6
CONTINUOUS
 10
1.712433
 20
-3.336488
  0
VERTEX
  8
PLAN_1
  6
CONTINUOUS
 10
1.821283
 20
-3.336488
  0
VERTEX
  8
PLAN_1
  6
CONTINUOUS
 10
1.821283
 20
-3.360000
  0
VERTEX
  8
PLAN_1
  6
CONTINUOUS
 10
1.712433
 20
-3.360000
  0
VERTEX
  8
PLAN_1
  6
CONTINUOUS
 10
1.712433
 20
-3.426614
  0
VERTEX
  8
PLAN_1
  6
CONTINUOUS
 10
1.832602
 20
-3.426614
  0
VERTEX
  8
PLAN_1
  6
CONTINUOUS
 10
1.832602
 20
-3.450563
  0
SEQEND
  8
0
  0
POLYLINE
  8
PLAN_1
  6
CONTINUOUS
 66
     1
 40
0.003000
 41
0.003000
  0
VERTEX
  8
PLAN_1
  6
CONTINUOUS
 10
1.897480
 20
-3.450563
  0
VERTEX
  8
PLAN_1
  6
CONTINUOUS
 10
1.870484
 20
-3.450563
  0
VERTEX
  8
PLAN_1
  6
CONTINUOUS
 10
1.870484
 20
-3.251583
  0
VERTEX
  8
PLAN_1
  6
CONTINUOUS
 10
1.960177
 20
-3.251583
  0
VERTEX
  8
PLAN_1
  6
CONTINUOUS
 10
1.967142
 20
-3.251583
  0
VERTEX
  8
PLAN_1
  6
CONTINUOUS
 10
1.973240
 20
-3.252457
  0
VERTEX
  8
PLAN_1
  6
CONTINUOUS
 10
1.979335
 20
-3.253760
  0
VERTEX
  8
PLAN_1
  6
CONTINUOUS
 10
1.984992
 20
-3.255504
  0
VERTEX
  8
PLAN_1
  6
CONTINUOUS
 10
1.990220
 20
-3.258114
  0
VERTEX
  8
PLAN_1
  6
CONTINUOUS
 10
1.995008
 20
-3.260728
  0
VERTEX
  8
PLAN_1
  6
CONTINUOUS
 10
1.999362
 20
-3.263776
  0
VERTEX
  8
PLAN_1
  6
CONTINUOUS
 10
2.003717
 20
-3.267260
  0
VERTEX
  8
PLAN_1
  6
CONTINUOUS
 10
2.007201
 20
-3.271177
  0
VERTEX
  8
PLAN_1
  6
CONTINUOUS
 10
2.010248
 20
-3.275531
  0
VERTEX
  8
PLAN_1
  6
CONTINUOUS
 10
2.012858
 20
-3.280319
  0
VERTEX
  8
PLAN_1
  6
CONTINUOUS
 10
2.015472
 20
-3.285110
  0
VERTEX
  8
PLAN_1
  6
CONTINUOUS
 10
2.017213
 20
-3.290335
  0
VERTEX
  8
PLAN_1
  6
CONTINUOUS
 10
2.018083
 20
-3.295996
  0
VERTEX
  8
PLAN_1
  6
CONTINUOUS
 10
2.018957
 20
-3.301654
  0
VERTEX
  8
PLAN_1
  6
CONTINUOUS
 10
2.019390
 20
-3.307315
  0
VERTEX
  8
PLAN_1
  6
CONTINUOUS
 10
2.018957
 20
-3.312539
  0
VERTEX
  8
PLAN_1
  6
CONTINUOUS
 10
2.018520
 20
-3.318201
  0
VERTEX
  8
PLAN_1
  6
CONTINUOUS
 10
2.017650
 20
-3.323425
  0
VERTEX
  8
PLAN_1
  6
CONTINUOUS
 10
2.016343
 20
-3.328217
  0
VERTEX
  8
PLAN_1
  6
CONTINUOUS
 10
2.014165
 20
-3.333441
  0
VERTEX
  8
PLAN_1
  6
CONTINUOUS
 10
2.011988
 20
-3.338228
  0
VERTEX
  8
PLAN_1
  6
CONTINUOUS
 10
2.009378
 20
-3.343020
  0
VERTEX
  8
PLAN_1
  6
CONTINUOUS
 10
2.005894
 20
-3.347374
  0
VERTEX
  8
PLAN_1
  6
CONTINUOUS
 10
2.002409
 20
-3.351724
  0
VERTEX
  8
PLAN_1
  6
CONTINUOUS
 10
1.998055
 20
-3.355209
  0
VERTEX
  8
PLAN_1
  6
CONTINUOUS
 10
1.993268
 20
-3.358693
  0
VERTEX
  8
PLAN_1
  6
CONTINUOUS
 10
1.987606
 20
-3.361303
  0
VERTEX
  8
PLAN_1
  6
CONTINUOUS
 10
1.981945
 20
-3.363480
  0
VERTEX
  8
PLAN_1
  6
CONTINUOUS
 10
1.974980
 20
-3.365224
  0
VERTEX
  8
PLAN_1
  6
CONTINUOUS
 10
1.968012
 20
-3.366094
  0
VERTEX
  8
PLAN_1
  6
CONTINUOUS
 10
1.960177
 20
-3.366531
  0
VERTEX
  8
PLAN_1
  6
CONTINUOUS
 10
1.897480
 20
-3.366531
  0
VERTEX
  8
PLAN_1
  6
CONTINUOUS
 10
1.897480
 20
-3.450563
  0
SEQEND
  8
0
  0
POLYLINE
  8
PLAN_1
  6
CONTINUOUS
 66
     1
 40
0.003000
 41
0.003000
  0
VERTEX
  8
PLAN_1
  6
CONTINUOUS
 10
1.897480
 20
-3.343453
  0
VERTEX
  8
PLAN_1
  6
CONTINUOUS
 10
1.951031
 20
-3.343453
  0
VERTEX
  8
PLAN_1
  6
CONTINUOUS
 10
1.955386
 20
-3.343453
  0
VERTEX
  8
PLAN_1
  6
CONTINUOUS
 10
1.959740
 20
-3.343020
  0
VERTEX
  8
PLAN_1
  6
CONTINUOUS
 10
1.963657
 20
-3.342583
  0
VERTEX
  8
PLAN_1
  6
CONTINUOUS
 10
1.967579
 20
-3.341713
  0
VERTEX
  8
PLAN_1
  6
CONTINUOUS
 10
1.971063
 20
-3.340843
  0
VERTEX
  8
PLAN_1
  6
CONTINUOUS
 10
1.974543
 20
-3.339535
  0
VERTEX
  8
PLAN_1
  6
CONTINUOUS
 10
1.977591
 20
-3.337795
  0
VERTEX
  8
PLAN_1
  6
CONTINUOUS
 10
1.980205
 20
-3.335618
  0
VERTEX
  8
PLAN_1
  6
CONTINUOUS
 10
1.982819
 20
-3.333441
  0
VERTEX
  8
PLAN_1
  6
CONTINUOUS
 10
1.984992
 20
-3.330827
  0
VERTEX
  8
PLAN_1
  6
CONTINUOUS
 10
1.987169
 20
-3.328217
  0
VERTEX
  8
PLAN_1
  6
CONTINUOUS
 10
1.988476
 20
-3.324732
  0
VERTEX
  8
PLAN_1
  6
CONTINUOUS
 10
1.989783
 20
-3.321248
  0
VERTEX
  8
PLAN_1
  6
CONTINUOUS
 10
1.990654
 20
-3.316894
  0
VERTEX
  8
PLAN_1
  6
CONTINUOUS
 10
1.991524
 20
-3.312539
  0
VERTEX
  8
PLAN_1
  6
CONTINUOUS
 10
1.991524
 20
-3.307752
  0
VERTEX
  8
PLAN_1
  6
CONTINUOUS
 10
1.991524
 20
-3.303398
  0
VERTEX
  8
PLAN_1
  6
CONTINUOUS
 10
1.990654
 20
-3.299043
  0
VERTEX
  8
PLAN_1
  6
CONTINUOUS
 10
1.989783
 20
-3.295126
  0
VERTEX
  8
PLAN_1
  6
CONTINUOUS
 10
1.988476
 20
-3.292075
  0
VERTEX
  8
PLAN_1
  6
CONTINUOUS
 10
1.986736
 20
-3.289028
  0
VERTEX
  8
PLAN_1
  6
CONTINUOUS
 10
1.984992
 20
-3.285980
  0
VERTEX
  8
PLAN_1
  6
CONTINUOUS
 10
1.982819
 20
-3.283803
  0
VERTEX
  8
PLAN_1
  6
CONTINUOUS
 10
1.980205
 20
-3.281626
  0
VERTEX
  8
PLAN_1
  6
CONTINUOUS
 10
1.977591
 20
-3.279886
  0
VERTEX
  8
PLAN_1
  6
CONTINUOUS
 10
1.974543
 20
-3.278146
  0
VERTEX
  8
PLAN_1
  6
CONTINUOUS
 10
1.971063
 20
-3.277272
  0
VERTEX
  8
PLAN_1
  6
CONTINUOUS
 10
1.967579
 20
-3.275969
  0
VERTEX
  8
PLAN_1
  6
CONTINUOUS
 10
1.964094
 20
-3.275531
  0
VERTEX
  8
PLAN_1
  6
CONTINUOUS
 10
1.960177
 20
-3.274661
  0
VERTEX
  8
PLAN_1
  6
CONTINUOUS
 10
1.956256
 20
-3.274661
  0
VERTEX
  8
PLAN_1
  6
CONTINUOUS
 10
1.952339
 20
-3.274661
  0
VERTEX
  8
PLAN_1
  6
CONTINUOUS
 10
1.897480
 20
-3.274661
  0
VERTEX
  8
PLAN_1
  6
CONTINUOUS
 10
1.897480
 20
-3.343453
  0
SEQEND
  8
0
  0
POLYLINE
  8
PLAN_1
  6
CONTINUOUS
 66
     1
 40
0.003000
 41
0.003000
  0
VERTEX
  8
PLAN_1
  6
CONTINUOUS
 10
2.173087
 20
-3.309492
  0
VERTEX
  8
PLAN_1
  6
CONTINUOUS
 10
2.172650
 20
-3.304268
  0
VERTEX
  8
PLAN_1
  6
CONTINUOUS
 10
2.171780
 20
-3.299043
  0
VERTEX
  8
PLAN_1
  6
CONTINUOUS
 10
2.170039
 20
-3.294689
  0
VERTEX
  8
PLAN_1
  6
CONTINUOUS
 10
2.167862
 20
-3.290335
  0
VERTEX
  8
PLAN_1
  6
CONTINUOUS
 10
2.165685
 20
-3.286850
  0
VERTEX
  8
PLAN_1
  6
CONTINUOUS
 10
2.163071
 20
-3.283370
  0
VERTEX
  8
PLAN_1
  6
CONTINUOUS
 10
2.159591
 20
-3.280319
  0
VERTEX
  8
PLAN_1
  6
CONTINUOUS
 10
2.156543
 20
-3.277709
  0
VERTEX
  8
PLAN_1
  6
CONTINUOUS
 10
2.152622
 20
-3.275531
  0
VERTEX
  8
PLAN_1
  6
CONTINUOUS
 10
2.149138
 20
-3.273791
  0
VERTEX
  8
PLAN_1
  6
CONTINUOUS
 10
2.144787
 20
-3.272484
  0
VERTEX
  8
PLAN_1
  6
CONTINUOUS
 10
2.140866
 20
-3.271177
  0
VERTEX
  8
PLAN_1
  6
CONTINUOUS
 10
2.136512
 20
-3.270307
  0
VERTEX
  8
PLAN_1
  6
CONTINUOUS
 10
2.132157
 20
-3.269870
  0
VERTEX
  8
PLAN_1
  6
CONTINUOUS
 10
2.128240
 20
-3.269437
  0
VERTEX
  8
PLAN_1
  6
CONTINUOUS
 10
2.123886
 20
-3.269000
  0
VERTEX
  8
PLAN_1
  6
CONTINUOUS
 10
2.116921
 20
-3.269437
  0
VERTEX
  8
PLAN_1
  6
CONTINUOUS
 10
2.109520
 20
-3.270307
  0
VERTEX
  8
PLAN_1
  6
CONTINUOUS
 10
2.105598
 20
-3.271177
  0
VERTEX
  8
PLAN_1
  6
CONTINUOUS
 10
2.102118
 20
-3.272484
  0
VERTEX
  8
PLAN_1
  6
CONTINUOUS
 10
2.098197
 20
-3.273791
  0
VERTEX
  8
PLAN_1
  6
CONTINUOUS
 10
2.094717
 20
-3.275531
  0
VERTEX
  8
PLAN_1
  6
CONTINUOUS
 10
2.091232
 20
-3.277272
  0
VERTEX
  8
PLAN_1
  6
CONTINUOUS
 10
2.088185
 20
-3.279886
  0
VERTEX
  8
PLAN_1
  6
CONTINUOUS
 10
2.085571
 20
-3.282496
  0
VERTEX
  8
PLAN_1
  6
CONTINUOUS
 10
2.082961
 20
-3.285980
  0
VERTEX
  8
PLAN_1
  6
CONTINUOUS
 10
2.081217
 20
-3.289898
  0
VERTEX
  8
PLAN_1
  6
CONTINUOUS
 10
2.079476
 20
-3.293819
  0
VERTEX
  8
PLAN_1
  6
CONTINUOUS
 10
2.078606
 20
-3.298606
  0
VERTEX
  8
PLAN_1
  6
CONTINUOUS
 10
2.078169
 20
-3.304268
  0
VERTEX
  8
PLAN_1
  6
CONTINUOUS
 10
2.078606
 20
-3.307315
  0
VERTEX
  8
PLAN_1
  6
CONTINUOUS
 10
2.078606
 20
-3.309929
  0
VERTEX
  8
PLAN_1
  6
CONTINUOUS
 10
2.079476
 20
-3.312539
  0
VERTEX
  8
PLAN_1
  6
CONTINUOUS
 10
2.080346
 20
-3.314717
  0
VERTEX
  8
PLAN_1
  6
CONTINUOUS
 10
2.081217
 20
-3.316894
  0
VERTEX
  8
PLAN_1
  6
CONTINUOUS
 10
2.082524
 20
-3.318638
  0
VERTEX
  8
PLAN_1
  6
CONTINUOUS
 10
2.084264
 20
-3.320378
  0
VERTEX
  8
PLAN_1
  6
CONTINUOUS
 10
2.085571
 20
-3.322118
  0
VERTEX
  8
PLAN_1
  6
CONTINUOUS
 10
2.089055
 20
-3.324732
  0
VERTEX
  8
PLAN_1
  6
CONTINUOUS
 10
2.093409
 20
-3.326472
  0
VERTEX
  8
PLAN_1
  6
CONTINUOUS
 10
2.097327
 20
-3.328217
  0
VERTEX
  8
PLAN_1
  6
CONTINUOUS
 10
2.101681
 20
-3.329520
  0
VERTEX
  8
PLAN_1
  6
CONTINUOUS
 10
2.158717
 20
-3.342583
  0
VERTEX
  8
PLAN_1
  6
CONTINUOUS
 10
2.163508
 20
-3.343890
  0
VERTEX
  8
PLAN_1
  6
CONTINUOUS
 10
2.168295
 20
-3.345197
  0
VERTEX
  8
PLAN_1
  6
CONTINUOUS
 10
2.172650
 20
-3.346937
  0
VERTEX
  8
PLAN_1
  6
CONTINUOUS
 10
2.176571
 20
-3.349114
  0
VERTEX
  8
PLAN_1
  6
CONTINUOUS
 10
2.180488
 20
-3.351291
  0
VERTEX
  8
PLAN_1
  6
CONTINUOUS
 10
2.184406
 20
-3.353469
  0
VERTEX
  8
PLAN_1
  6
CONTINUOUS
 10
2.187890
 20
-3.356516
  0
VERTEX
  8
PLAN_1
  6
CONTINUOUS
 10
2.190937
 20
-3.359563
  0
VERTEX
  8
PLAN_1
  6
CONTINUOUS
 10
2.193984
 20
-3.363047
  0
VERTEX
  8
PLAN_1
  6
CONTINUOUS
 10
2.196598
 20
-3.366531
  0
VERTEX
  8
PLAN_1
  6
CONTINUOUS
 10
2.198776
 20
-3.370449
  0
VERTEX
  8
PLAN_1
  6
CONTINUOUS
 10
2.200516
 20
-3.374803
  0
VERTEX
  8
PLAN_1
  6
CONTINUOUS
 10
2.201823
 20
-3.379591
  0
VERTEX
  8
PLAN_1
  6
CONTINUOUS
 10
2.203130
 20
-3.384815
  0
VERTEX
  8
PLAN_1
  6
CONTINUOUS
 10
2.203563
 20
-3.390043
  0
VERTEX
  8
PLAN_1
  6
CONTINUOUS
 10
2.204000
 20
-3.395701
  0
VERTEX
  8
PLAN_1
  6
CONTINUOUS
 10
2.204000
 20
-3.400055
  0
VERTEX
  8
PLAN_1
  6
CONTINUOUS
 10
2.203563
 20
-3.404409
  0
VERTEX
  8
PLAN_1
  6
CONTINUOUS
 10
2.202693
 20
-3.408327
  0
VERTEX
  8
PLAN_1
  6
CONTINUOUS
 10
2.202260
 20
-3.411811
  0
VERTEX
  8
PLAN_1
  6
CONTINUOUS
 10
2.200953
 20
-3.415295
  0
VERTEX
  8
PLAN_1
  6
CONTINUOUS
 10
2.199646
 20
-3.418780
  0
VERTEX
  8
PLAN_1
  6
CONTINUOUS
 10
2.198339
 20
-3.421827
  0
VERTEX
  8
PLAN_1
  6
CONTINUOUS
 10
2.196598
 20
-3.424874
  0
VERTEX
  8
PLAN_1
  6
CONTINUOUS
 10
2.194858
 20
-3.427921
  0
VERTEX
  8
PLAN_1
  6
CONTINUOUS
 10
2.192681
 20
-3.430535
  0
VERTEX
  8
PLAN_1
  6
CONTINUOUS
 10
2.190504
 20
-3.433146
  0
VERTEX
  8
PLAN_1
  6
CONTINUOUS
 10
2.188327
 20
-3.435760
  0
VERTEX
  8
PLAN_1
  6
CONTINUOUS
 10
2.183102
 20
-3.439677
  0
VERTEX
  8
PLAN_1
  6
CONTINUOUS
 10
2.177878
 20
-3.443594
  0
VERTEX
  8
PLAN_1
  6
CONTINUOUS
 10
2.171780
 20
-3.446642
  0
VERTEX
  8
PLAN_1
  6
CONTINUOUS
 10
2.165685
 20
-3.449256
  0
VERTEX
  8
PLAN_1
  6
CONTINUOUS
 10
2.159154
 20
-3.451433
  0
VERTEX
  8
PLAN_1
  6
CONTINUOUS
 10
2.152622
 20
-3.453173
  0
VERTEX
  8
PLAN_1
  6
CONTINUOUS
 10
2.146091
 20
-3.454480
  0
VERTEX
  8
PLAN_1
  6
CONTINUOUS
 10
2.139126
 20
-3.455350
  0
VERTEX
  8
PLAN_1
  6
CONTINUOUS
 10
2.132594
 20
-3.455787
  0
VERTEX
  8
PLAN_1
  6
CONTINUOUS
 10
2.126063
 20
-3.455787
  0
VERTEX
  8
PLAN_1
  6
CONTINUOUS
 10
2.119531
 20
-3.455787
  0
VERTEX
  8
PLAN_1
  6
CONTINUOUS
 10
2.113000
 20
-3.455350
  0
VERTEX
  8
PLAN_1
  6
CONTINUOUS
 10
2.107343
 20
-3.454917
  0
VERTEX
  8
PLAN_1
  6
CONTINUOUS
 10
2.102118
 20
-3.454043
  0
VERTEX
  8
PLAN_1
  6
CONTINUOUS
 10
2.097327
 20
-3.453173
  0
VERTEX
  8
PLAN_1
  6
CONTINUOUS
 10
2.092972
 20
-3.451870
  0
VERTEX
  8
PLAN_1
  6
CONTINUOUS
 10
2.089055
 20
-3.450996
  0
VERTEX
  8
PLAN_1
  6
CONTINUOUS
 10
2.085571
 20
-3.449256
  0
VERTEX
  8
PLAN_1
  6
CONTINUOUS
 10
2.079039
 20
-3.446642
  0
VERTEX
  8
PLAN_1
  6
CONTINUOUS
 10
2.073815
 20
-3.443161
  0
VERTEX
  8
PLAN_1
  6
CONTINUOUS
 10
2.069461
 20
-3.440114
  0
VERTEX
  8
PLAN_1
  6
CONTINUOUS
 10
2.065976
 20
-3.436630
  0
VERTEX
  8
PLAN_1
  6
CONTINUOUS
 10
2.062929
 20
-3.434016
  0
VERTEX
  8
PLAN_1
  6
CONTINUOUS
 10
2.059882
 20
-3.430969
  0
VERTEX
  8
PLAN_1
  6
CONTINUOUS
 10
2.057705
 20
-3.427921
  0
VERTEX
  8
PLAN_1
  6
CONTINUOUS
 10
2.055528
 20
-3.425307
  0
VERTEX
  8
PLAN_1
  6
CONTINUOUS
 10
2.053350
 20
-3.422260
  0
VERTEX
  8
PLAN_1
  6
CONTINUOUS
 10
2.052047
 20
-3.419213
  0
VERTEX
  8
PLAN_1
  6
CONTINUOUS
 10
2.050303
 20
-3.416165
  0
VERTEX
  8
PLAN_1
  6
CONTINUOUS
 10
2.049433
 20
-3.412681
  0
VERTEX
  8
PLAN_1
  6
CONTINUOUS
 10
2.047256
 20
-3.406587
  0
VERTEX
  8
PLAN_1
  6
CONTINUOUS
 10
2.046386
 20
-3.400055
  0
VERTEX
  8
PLAN_1
  6
CONTINUOUS
 10
2.045516
 20
-3.393091
  0
VERTEX
  8
PLAN_1
  6
CONTINUOUS
 10
2.045516
 20
-3.386122
  0
VERTEX
  8
PLAN_1
  6
CONTINUOUS
 10
2.070768
 20
-3.386122
  0
VERTEX
  8
PLAN_1
  6
CONTINUOUS
 10
2.071205
 20
-3.392654
  0
VERTEX
  8
PLAN_1
  6
CONTINUOUS
 10
2.072075
 20
-3.398748
  0
VERTEX
  8
PLAN_1
  6
CONTINUOUS
 10
2.073815
 20
-3.403972
  0
VERTEX
  8
PLAN_1
  6
CONTINUOUS
 10
2.075559
 20
-3.408764
  0
VERTEX
  8
PLAN_1
  6
CONTINUOUS
 10
2.078169
 20
-3.413118
  0
VERTEX
  8
PLAN_1
  6
CONTINUOUS
 10
2.081217
 20
-3.417035
  0
VERTEX
  8
PLAN_1
  6
CONTINUOUS
 10
2.084701
 20
-3.420083
  0
VERTEX
  8
PLAN_1
  6
CONTINUOUS
 10
2.088618
 20
-3.423130
  0
VERTEX
  8
PLAN_1
  6
CONTINUOUS
 10
2.092972
 20
-3.425744
  0
VERTEX
  8
PLAN_1
  6
CONTINUOUS
 10
2.097327
 20
-3.427484
  0
VERTEX
  8
PLAN_1
  6
CONTINUOUS
 10
2.101681
 20
-3.429228
  0
VERTEX
  8
PLAN_1
  6
CONTINUOUS
 10
2.106472
 20
-3.430535
  0
VERTEX
  8
PLAN_1
  6
CONTINUOUS
 10
2.111260
 20
-3.431839
  0
VERTEX
  8
PLAN_1
  6
CONTINUOUS
 10
2.116051
 20
-3.432276
  0
VERTEX
  8
PLAN_1
  6
CONTINUOUS
 10
2.120839
 20
-3.432713
  0
VERTEX
  8
PLAN_1
  6
CONTINUOUS
 10
2.125630
 20
-3.433146
  0
VERTEX
  8
PLAN_1
  6
CONTINUOUS
 10
2.133465
 20
-3.432713
  0
VERTEX
  8
PLAN_1
  6
CONTINUOUS
 10
2.142173
 20
-3.431839
  0
VERTEX
  8
PLAN_1
  6
CONTINUOUS
 10
2.146528
 20
-3.430969
  0
VERTEX
  8
PLAN_1
  6
CONTINUOUS
 10
2.150882
 20
-3.429661
  0
VERTEX
  8
PLAN_1
  6
CONTINUOUS
 10
2.154799
 20
-3.428358
  0
VERTEX
  8
PLAN_1
  6
CONTINUOUS
 10
2.159154
 20
-3.427051
  0
VERTEX
  8
PLAN_1
  6
CONTINUOUS
 10
2.163071
 20
-3.424874
  0
VERTEX
  8
PLAN_1
  6
CONTINUOUS
 10
2.166555
 20
-3.422697
  0
VERTEX
  8
PLAN_1
  6
CONTINUOUS
 10
2.169602
 20
-3.419650
  0
VERTEX
  8
PLAN_1
  6
CONTINUOUS
 10
2.172650
 20
-3.416602
  0
VERTEX
  8
PLAN_1
  6
CONTINUOUS
 10
2.174827
 20
-3.413118
  0
VERTEX
  8
PLAN_1
  6
CONTINUOUS
 10
2.176571
 20
-3.409201
  0
VERTEX
  8
PLAN_1
  6
CONTINUOUS
 10
2.177441
 20
-3.404409
  0
VERTEX
  8
PLAN_1
  6
CONTINUOUS
 10
2.177878
 20
-3.399185
  0
VERTEX
  8
PLAN_1
  6
CONTINUOUS
 10
2.177878
 20
-3.395701
  0
VERTEX
  8
PLAN_1
  6
CONTINUOUS
 10
2.177441
 20
-3.392217
  0
VERTEX
  8
PLAN_1
  6
CONTINUOUS
 10
2.177004
 20
-3.389169
  0
VERTEX
  8
PLAN_1
  6
CONTINUOUS
 10
2.175701
 20
-3.386122
  0
VERTEX
  8
PLAN_1
  6
CONTINUOUS
 10
2.174827
 20
-3.383512
  0
VERTEX
  8
PLAN_1
  6
CONTINUOUS
 10
2.173087
 20
-3.380898
  0
VERTEX
  8
PLAN_1
  6
CONTINUOUS
 10
2.171346
 20
-3.378720
  0
VERTEX
  8
PLAN_1
  6
CONTINUOUS
 10
2.169169
 20
-3.376980
  0
VERTEX
  8
PLAN_1
  6
CONTINUOUS
 10
2.166122
 20
-3.374803
  0
VERTEX
  8
PLAN_1
  6
CONTINUOUS
 10
2.163071
 20
-3.373059
  0
VERTEX
  8
PLAN_1
  6
CONTINUOUS
 10
2.159591
 20
-3.371319
  0
VERTEX
  8
PLAN_1
  6
CONTINUOUS
 10
2.156106
 20
-3.370012
  0
VERTEX
  8
PLAN_1
  6
CONTINUOUS
 10
2.146528
 20
-3.366965
  0
VERTEX
  8
PLAN_1
  6
CONTINUOUS
 10
2.135642
 20
-3.363917
  0
VERTEX
  8
PLAN_1
  6
CONTINUOUS
 10
2.094717
 20
-3.354776
  0
VERTEX
  8
PLAN_1
  6
CONTINUOUS
 10
2.089055
 20
-3.353031
  0
VERTEX
  8
PLAN_1
  6
CONTINUOUS
 10
2.082524
 20
-3.350854
  0
VERTEX
  8
PLAN_1
  6
CONTINUOUS
 10
2.079039
 20
-3.349551
  0
VERTEX
  8
PLAN_1
  6
CONTINUOUS
 10
2.075559
 20
-3.347807
  0
VERTEX
  8
PLAN_1
  6
CONTINUOUS
 10
2.072075
 20
-3.345630
  0
VERTEX
  8
PLAN_1
  6
CONTINUOUS
 10
2.068591
 20
-3.343020
  0
VERTEX
  8
PLAN_1
  6
CONTINUOUS
 10
2.065106
 20
-3.340406
  0
VERTEX
  8
PLAN_1
  6
CONTINUOUS
 10
2.062059
 20
-3.336921
  0
VERTEX
  8
PLAN_1
  6
CONTINUOUS
 10
2.059449
 20
-3.333441
  0
VERTEX
  8
PLAN_1
  6
CONTINUOUS
 10
2.056835
 20
-3.329087
  0
VERTEX
  8
PLAN_1
  6
CONTINUOUS
 10
2.055094
 20
-3.324732
  0
VERTEX
  8
PLAN_1
  6
CONTINUOUS
 10
2.053350
 20
-3.319508
  0
VERTEX
  8
PLAN_1
  6
CONTINUOUS
 10
2.052480
 20
-3.313846
  0
VERTEX
  8
PLAN_1
  6
CONTINUOUS
 10
2.052047
 20
-3.307752
  0
VERTEX
  8
PLAN_1
  6
CONTINUOUS
 10
2.052480
 20
-3.302091
  0
VERTEX
  8
PLAN_1
  6
CONTINUOUS
 10
2.052917
 20
-3.295996
  0
VERTEX
  8
PLAN_1
  6
CONTINUOUS
 10
2.054224
 20
-3.290335
  0
VERTEX
  8
PLAN_1
  6
CONTINUOUS
 10
2.055965
 20
-3.285110
  0
VERTEX
  8
PLAN_1
  6
CONTINUOUS
 10
2.058142
 20
-3.279886
  0
VERTEX
  8
PLAN_1
  6
CONTINUOUS
 10
2.061189
 20
-3.274661
  0
VERTEX
  8
PLAN_1
  6
CONTINUOUS
 10
2.064236
 20
-3.269870
  0
VERTEX
  8
PLAN_1
  6
CONTINUOUS
 10
2.068154
 20
-3.265083
  0
VERTEX
  8
PLAN_1
  6
CONTINUOUS
 10
2.072945
 20
-3.261161
  0
VERTEX
  8
PLAN_1
  6
CONTINUOUS
 10
2.077732
 20
-3.257244
  0
VERTEX
  8
PLAN_1
  6
CONTINUOUS
 10
2.083394
 20
-3.254197
  0
VERTEX
  8
PLAN_1
  6
CONTINUOUS
 10
2.089488
 20
-3.251583
  0
VERTEX
  8
PLAN_1
  6
CONTINUOUS
 10
2.096457
 20
-3.248972
  0
VERTEX
  8
PLAN_1
  6
CONTINUOUS
 10
2.103858
 20
-3.247665
  0
VERTEX
  8
PLAN_1
  6
CONTINUOUS
 10
2.112130
 20
-3.246358
  0
VERTEX
  8
PLAN_1
  6
CONTINUOUS
 10
2.120839
 20
-3.245925
  0
VERTEX
  8
PLAN_1
  6
CONTINUOUS
 10
2.126933
 20
-3.246358
  0
VERTEX
  8
PLAN_1
  6
CONTINUOUS
 10
2.133031
 20
-3.246795
  0
VERTEX
  8
PLAN_1
  6
CONTINUOUS
 10
2.138689
 20
-3.247232
  0
VERTEX
  8
PLAN_1
  6
CONTINUOUS
 10
2.143913
 20
-3.248102
  0
VERTEX
  8
PLAN_1
  6
CONTINUOUS
 10
2.149138
 20
-3.248972
  0
VERTEX
  8
PLAN_1
  6
CONTINUOUS
 10
2.153492
 20
-3.250280
  0
VERTEX
  8
PLAN_1
  6
CONTINUOUS
 10
2.157846
 20
-3.251583
  0
VERTEX
  8
PLAN_1
  6
CONTINUOUS
 10
2.162201
 20
-3.252890
  0
VERTEX
  8
PLAN_1
  6
CONTINUOUS
 10
2.165685
 20
-3.254634
  0
VERTEX
  8
PLAN_1
  6
CONTINUOUS
 10
2.169602
 20
-3.256374
  0
VERTEX
  8
PLAN_1
  6
CONTINUOUS
 10
2.172650
 20
-3.258551
  0
VERTEX
  8
PLAN_1
  6
CONTINUOUS
 10
2.175701
 20
-3.260291
  0
VERTEX
  8
PLAN_1
  6
CONTINUOUS
 10
2.180925
 20
-3.265083
  0
VERTEX
  8
PLAN_1
  6
CONTINUOUS
 10
2.185280
 20
-3.269870
  0
VERTEX
  8
PLAN_1
  6
CONTINUOUS
 10
2.188760
 20
-3.274661
  0
VERTEX
  8
PLAN_1
  6
CONTINUOUS
 10
2.191807
 20
-3.279886
  0
VERTEX
  8
PLAN_1
  6
CONTINUOUS
 10
2.193984
 20
-3.285110
  0
VERTEX
  8
PLAN_1
  6
CONTINUOUS
 10
2.195728
 20
-3.290335
  0
VERTEX
  8
PLAN_1
  6
CONTINUOUS
 10
2.197035
 20
-3.295559
  0
VERTEX
  8
PLAN_1
  6
CONTINUOUS
 10
2.197469
 20
-3.300783
  0
VERTEX
  8
PLAN_1
  6
CONTINUOUS
 10
2.198339
 20
-3.305575
  0
VERTEX
  8
PLAN_1
  6
CONTINUOUS
 10
2.198339
 20
-3.309492
  0
VERTEX
  8
PLAN_1
  6
CONTINUOUS
 10
2.173087
 20
-3.309492
  0
SEQEND
  8
0
  0
POLYLINE
  8
PLAN_1
  6
CONTINUOUS
 66
     1
 40
0.008272
 41
0.008272
  0
VERTEX
  8
PLAN_1
  6
CONTINUOUS
 10
-0.451067
 20
1.294421
  0
VERTEX
  8
PLAN_1
  6
CONTINUOUS
 10
-0.451067
 20
1.339268
  0
VERTEX
  8
PLAN_1
  6
CONTINUOUS
 10
-1.376291
 20
1.339268
  0
VERTEX
  8
PLAN_1
  6
CONTINUOUS
 10
-1.376291
 20
1.294421
  0
VERTEX
  8
PLAN_1
  6
CONTINUOUS
 10
-0.451067
 20
1.294421
  0
SEQEND
  8
0
  0
POLYLINE
  8
PLAN_1
  6
CONTINUOUS
 66
     1
 40
0.008272
 41
0.008272
  0
VERTEX
  8
PLAN_1
  6
CONTINUOUS
 10
-0.502878
 20
1.037535
  0
VERTEX
  8
PLAN_1
  6
CONTINUOUS
 10
-0.540323
 20
1.000528
  0
VERTEX
  8
PLAN_1
  6
CONTINUOUS
 10
-1.283551
 20
1.000528
  0
VERTEX
  8
PLAN_1
  6
CONTINUOUS
 10
-1.320996
 20
1.037535
  0
VERTEX
  8
PLAN_1
  6
CONTINUOUS
 10
-1.320996
 20
1.294421
  0
VERTEX
  8
PLAN_1
  6
CONTINUOUS
 10
-0.502878
 20
1.294421
  0
VERTEX
  8
PLAN_1
  6
CONTINUOUS
 10
-0.502878
 20
1.037535
  0
SEQEND
  8
0
  0
POLYLINE
  8
PLAN_1
  6
CONTINUOUS
 66
     1
 40
0.008272
 41
0.008272
  0
VERTEX
  8
PLAN_1
  6
CONTINUOUS
 10
-1.234350
 20
1.000528
  0
VERTEX
  8
PLAN_1
  6
CONTINUOUS
 10
-1.185587
 20
0.815917
  0
VERTEX
  8
PLAN_1
  6
CONTINUOUS
 10
-0.644819
 20
0.815917
  0
VERTEX
  8
PLAN_1
  6
CONTINUOUS
 10
-0.584299
 20
1.000528
  0
VERTEX
  8
PLAN_1
  6
CONTINUOUS
 10
-1.234350
 20
1.000528
  0
SEQEND
  8
0
  0
POLYLINE
  8
PLAN_1
  6
CONTINUOUS
 66
     1
 40
0.006965
 41
0.006965
  0
VERTEX
  8
PLAN_1
  6
CONTINUOUS
 10
-1.190811
 20
0.997917
  0
VERTEX
  8
PLAN_1
  6
CONTINUOUS
 10
-1.144224
 20
0.815917
  0
SEQEND
  8
0
  0
POLYLINE
  8
PLAN_1
  6
CONTINUOUS
 66
     1
 40
0.006965
 41
0.006965
  0
VERTEX
  8
PLAN_1
  6
CONTINUOUS
 10
-1.159898
 20
0.997917
  0
VERTEX
  8
PLAN_1
  6
CONTINUOUS
 10
-1.112874
 20
0.815917
  0
SEQEND
  8
0
  0
POLYLINE
  8
PLAN_1
  6
CONTINUOUS
 66
     1
 40
0.006965
 41
0.006965
  0
VERTEX
  8
PLAN_1
  6
CONTINUOUS
 10
-0.644819
 20
0.999657
  0
VERTEX
  8
PLAN_1
  6
CONTINUOUS
 10
-0.691843
 20
0.817661
  0
SEQEND
  8
0
  0
POLYLINE
  8
PLAN_1
  6
CONTINUOUS
 66
     1
 40
0.006965
 41
0.006965
  0
VERTEX
  8
PLAN_1
  6
CONTINUOUS
 10
-0.676169
 20
0.999657
  0
VERTEX
  8
PLAN_1
  6
CONTINUOUS
 10
-0.723193
 20
0.817661
  0
SEQEND
  8
0
  0
POLYLINE
  8
PLAN_1
  6
CONTINUOUS
 66
     1
 40
0.004350
 41
0.004350
  0
VERTEX
  8
PLAN_1
  6
CONTINUOUS
 10
-2.102972
 20
0.690087
  0
VERTEX
  8
PLAN_1
  6
CONTINUOUS
 10
-2.102972
 20
1.196024
  0
SEQEND
  8
0
  0
POLYLINE
  8
PLAN_1
  6
CONTINUOUS
 66
     1
 40
0.004350
 41
0.004350
  0
VERTEX
  8
PLAN_1
  6
CONTINUOUS
 10
-2.102972
 20
1.196024
  0
VERTEX
  8
PLAN_1
  6
CONTINUOUS
 10
-2.102539
 20
1.202118
  0
VERTEX
  8
PLAN_1
  6
CONTINUOUS
 10
-2.099925
 20
1.218665
  0
VERTEX
  8
PLAN_1
  6
CONTINUOUS
 10
-2.096878
 20
1.229984
  0
VERTEX
  8
PLAN_1
  6
CONTINUOUS
 10
-2.092961
 20
1.242173
  0
VERTEX
  8
PLAN_1
  6
CONTINUOUS
 10
-2.090346
 20
1.248705
  0
VERTEX
  8
PLAN_1
  6
CONTINUOUS
 10
-2.087299
 20
1.255236
  0
VERTEX
  8
PLAN_1
  6
CONTINUOUS
 10
-2.083815
 20
1.262205
  0
VERTEX
  8
PLAN_1
  6
CONTINUOUS
 10
-2.079898
 20
1.268736
  0
VERTEX
  8
PLAN_1
  6
CONTINUOUS
 10
-2.075543
 20
1.275701
  0
VERTEX
  8
PLAN_1
  6
CONTINUOUS
 10
-2.070752
 20
1.282232
  0
VERTEX
  8
PLAN_1
  6
CONTINUOUS
 10
-2.065094
 20
1.289197
  0
VERTEX
  8
PLAN_1
  6
CONTINUOUS
 10
-2.058996
 20
1.295728
  0
VERTEX
  8
PLAN_1
  6
CONTINUOUS
 10
-2.052469
 20
1.301827
  0
VERTEX
  8
PLAN_1
  6
CONTINUOUS
 10
-2.045063
 20
1.307921
  0
VERTEX
  8
PLAN_1
  6
CONTINUOUS
 10
-2.037228
 20
1.313579
  0
VERTEX
  8
PLAN_1
  6
CONTINUOUS
 10
-2.028520
 20
1.318807
  0
VERTEX
  8
PLAN_1
  6
CONTINUOUS
 10
-2.018941
 20
1.323594
  0
VERTEX
  8
PLAN_1
  6
CONTINUOUS
 10
-2.008925
 20
1.328386
  0
VERTEX
  8
PLAN_1
  6
CONTINUOUS
 10
-1.997606
 20
1.331866
  0
VERTEX
  8
PLAN_1
  6
CONTINUOUS
 10
-1.985850
 20
1.335350
  0
VERTEX
  8
PLAN_1
  6
CONTINUOUS
 10
-1.973224
 20
1.337965
  0
VERTEX
  8
PLAN_1
  6
CONTINUOUS
 10
-1.959728
 20
1.340142
  0
VERTEX
  8
PLAN_1
  6
CONTINUOUS
 10
-1.945358
 20
1.341012
  0
VERTEX
  8
PLAN_1
  6
CONTINUOUS
 10
-1.929685
 20
1.341445
  0
VERTEX
  8
PLAN_1
  6
CONTINUOUS
 10
-1.792531
 20
1.341445
  0
VERTEX
  8
PLAN_1
  6
CONTINUOUS
 10
-1.537390
 20
1.341445
  0
VERTEX
  8
PLAN_1
  6
CONTINUOUS
 10
-1.205177
 20
1.341445
  0
VERTEX
  8
PLAN_1
  6
CONTINUOUS
 10
-0.839445
 20
1.341445
  0
VERTEX
  8
PLAN_1
  6
CONTINUOUS
 10
-0.481110
 20
1.341445
  0
VERTEX
  8
PLAN_1
  6
CONTINUOUS
 10
-0.173283
 20
1.341445
  0
VERTEX
  8
PLAN_1
  6
CONTINUOUS
 10
0.042240
 20
1.341445
  0
VERTEX
  8
PLAN_1
  6
CONTINUOUS
 10
0.123661
 20
1.341445
  0
VERTEX
  8
PLAN_1
  6
CONTINUOUS
 10
0.125402
 20
1.341882
  0
VERTEX
  8
PLAN_1
  6
CONTINUOUS
 10
0.130193
 20
1.341882
  0
VERTEX
  8
PLAN_1
  6
CONTINUOUS
 10
0.137594
 20
1.341445
  0
VERTEX
  8
PLAN_1
  6
CONTINUOUS
 10
0.147606
 20
1.340142
  0
VERTEX
  8
PLAN_1
  6
CONTINUOUS
 10
0.153268
 20
1.339268
  0
VERTEX
  8
PLAN_1
  6
CONTINUOUS
 10
0.158929
 20
1.337965
  0
VERTEX
  8
PLAN_1
  6
CONTINUOUS
 10
0.165461
 20
1.336220
  0
VERTEX
  8
PLAN_1
  6
CONTINUOUS
 10
0.171988
 20
1.334480
  0
VERTEX
  8
PLAN_1
  6
CONTINUOUS
 10
0.178957
 20
1.331866
  0
VERTEX
  8
PLAN_1
  6
CONTINUOUS
 10
0.185921
 20
1.328819
  0
VERTEX
  8
PLAN_1
  6
CONTINUOUS
 10
0.192890
 20
1.325772
  0
VERTEX
  8
PLAN_1
  6
CONTINUOUS
 10
0.199854
 20
1.321854
  0
VERTEX
  8
PLAN_1
  6
CONTINUOUS
 10
0.207256
 20
1.317063
  0
VERTEX
  8
PLAN_1
  6
CONTINUOUS
 10
0.214224
 20
1.311839
  0
VERTEX
  8
PLAN_1
  6
CONTINUOUS
 10
0.221189
 20
1.306177
  0
VERTEX
  8
PLAN_1
  6
CONTINUOUS
 10
0.228157
 20
1.299650
  0
VERTEX
  8
PLAN_1
  6
CONTINUOUS
 10
0.234689
 20
1.292248
  0
VERTEX
  8
PLAN_1
  6
CONTINUOUS
 10
0.240783
 20
1.284409
  0
VERTEX
  8
PLAN_1
  6
CONTINUOUS
 10
0.246878
 20
1.275264
  0
VERTEX
  8
PLAN_1
  6
CONTINUOUS
 10
0.252539
 20
1.265685
  0
VERTEX
  8
PLAN_1
  6
CONTINUOUS
 10
0.257764
 20
1.254803
  0
VERTEX
  8
PLAN_1
  6
CONTINUOUS
 10
0.262118
 20
1.243047
  0
VERTEX
  8
PLAN_1
  6
CONTINUOUS
 10
0.266035
 20
1.230421
  0
VERTEX
  8
PLAN_1
  6
CONTINUOUS
 10
0.269520
 20
1.216921
  0
VERTEX
  8
PLAN_1
  6
CONTINUOUS
 10
0.272567
 20
1.202118
  0
VERTEX
  8
PLAN_1
  6
CONTINUOUS
 10
0.274744
 20
1.186445
  0
VERTEX
  8
PLAN_1
  6
CONTINUOUS
 10
0.275614
 20
1.169028
  0
VERTEX
  8
PLAN_1
  6
CONTINUOUS
 10
0.276051
 20
1.151177
  0
SEQEND
  8
0
  0
POLYLINE
  8
PLAN_1
  6
CONTINUOUS
 66
     1
 40
0.004350
 41
0.004350
  0
VERTEX
  8
PLAN_1
  6
CONTINUOUS
 10
0.276051
 20
1.151177
  0
VERTEX
  8
PLAN_1
  6
CONTINUOUS
 10
0.276051
 20
0.697492
  0
SEQEND
  8
0
  0
POLYLINE
  8
PLAN_1
  6
CONTINUOUS
 66
     1
 40
0.004350
 41
0.004350
  0
VERTEX
  8
PLAN_1
  6
CONTINUOUS
 10
-1.917059
 20
1.150307
  0
VERTEX
  8
PLAN_1
  6
CONTINUOUS
 10
-1.645803
 20
1.150307
  0
SEQEND
  8
0
  0
POLYLINE
  8
PLAN_1
  6
CONTINUOUS
 66
     1
 40
0.004350
 41
0.004350
  0
VERTEX
  8
PLAN_1
  6
CONTINUOUS
 10
-1.780343
 20
1.025783
  0
VERTEX
  8
PLAN_1
  6
CONTINUOUS
 10
-1.780343
 20
1.275264
  0
SEQEND
  8
0
  0
POLYLINE
  8
PLAN_1
  6
CONTINUOUS
 66
     1
 40
0.003000
 41
0.003000
  0
VERTEX
  8
PLAN_1
  6
CONTINUOUS
 10
-1.779472
 20
1.182091
  0
VERTEX
  8
PLAN_1
  6
CONTINUOUS
 10
-1.782520
 20
1.182091
  0
VERTEX
  8
PLAN_1
  6
CONTINUOUS
 10
-1.786004
 20
1.181220
  0
VERTEX
  8
PLAN_1
  6
CONTINUOUS
 10
-1.789051
 20
1.180783
  0
VERTEX
  8
PLAN_1
  6
CONTINUOUS
 10
-1.791661
 20
1.179476
  0
VERTEX
  8
PLAN_1
  6
CONTINUOUS
 10
-1.794709
 20
1.178173
  0
VERTEX
  8
PLAN_1
  6
CONTINUOUS
 10
-1.797323
 20
1.176429
  0
VERTEX
  8
PLAN_1
  6
CONTINUOUS
 10
-1.799500
 20
1.174689
  0
VERTEX
  8
PLAN_1
  6
CONTINUOUS
 10
-1.802110
 20
1.172945
  0
VERTEX
  8
PLAN_1
  6
CONTINUOUS
 10
-1.803854
 20
1.170335
  0
VERTEX
  8
PLAN_1
  6
CONTINUOUS
 10
-1.806031
 20
1.168157
  0
VERTEX
  8
PLAN_1
  6
CONTINUOUS
 10
-1.807339
 20
1.165543
  0
VERTEX
  8
PLAN_1
  6
CONTINUOUS
 10
-1.808642
 20
1.162496
  0
VERTEX
  8
PLAN_1
  6
CONTINUOUS
 10
-1.809949
 20
1.159886
  0
VERTEX
  8
PLAN_1
  6
CONTINUOUS
 10
-1.810819
 20
1.156839
  0
VERTEX
  8
PLAN_1
  6
CONTINUOUS
 10
-1.811256
 20
1.153354
  0
VERTEX
  8
PLAN_1
  6
CONTINUOUS
 10
-1.811256
 20
1.150307
  0
VERTEX
  8
PLAN_1
  6
CONTINUOUS
 10
-1.811256
 20
1.146823
  0
VERTEX
  8
PLAN_1
  6
CONTINUOUS
 10
-1.810819
 20
1.143776
  0
VERTEX
  8
PLAN_1
  6
CONTINUOUS
 10
-1.809949
 20
1.140728
  0
VERTEX
  8
PLAN_1
  6
CONTINUOUS
 10
-1.808642
 20
1.137681
  0
VERTEX
  8
PLAN_1
  6
CONTINUOUS
 10
-1.807339
 20
1.135067
  0
VERTEX
  8
PLAN_1
  6
CONTINUOUS
 10
-1.806031
 20
1.132453
  0
VERTEX
  8
PLAN_1
  6
CONTINUOUS
 10
-1.803854
 20
1.129843
  0
VERTEX
  8
PLAN_1
  6
CONTINUOUS
 10
-1.802110
 20
1.127665
  0
VERTEX
  8
PLAN_1
  6
CONTINUOUS
 10
-1.799500
 20
1.125488
  0
VERTEX
  8
PLAN_1
  6
CONTINUOUS
 10
-1.797323
 20
1.123748
  0
VERTEX
  8
PLAN_1
  6
CONTINUOUS
 10
-1.794709
 20
1.122004
  0
VERTEX
  8
PLAN_1
  6
CONTINUOUS
 10
-1.791661
 20
1.120697
  0
VERTEX
  8
PLAN_1
  6
CONTINUOUS
 10
-1.789051
 20
1.119827
  0
VERTEX
  8
PLAN_1
  6
CONTINUOUS
 10
-1.786004
 20
1.118957
  0
VERTEX
  8
PLAN_1
  6
CONTINUOUS
 10
-1.782520
 20
1.118520
  0
VERTEX
  8
PLAN_1
  6
CONTINUOUS
 10
-1.779472
 20
1.118520
  0
VERTEX
  8
PLAN_1
  6
CONTINUOUS
 10
-1.775988
 20
1.118520
  0
VERTEX
  8
PLAN_1
  6
CONTINUOUS
 10
-1.772941
 20
1.118957
  0
VERTEX
  8
PLAN_1
  6
CONTINUOUS
 10
-1.769894
 20
1.119827
  0
VERTEX
  8
PLAN_1
  6
CONTINUOUS
 10
-1.766846
 20
1.120697
  0
VERTEX
  8
PLAN_1
  6
CONTINUOUS
 10
-1.764232
 20
1.122004
  0
VERTEX
  8
PLAN_1
  6
CONTINUOUS
 10
-1.761618
 20
1.123748
  0
VERTEX
  8
PLAN_1
  6
CONTINUOUS
 10
-1.759008
 20
1.125488
  0
VERTEX
  8
PLAN_1
  6
CONTINUOUS
 10
-1.756831
 20
1.127665
  0
VERTEX
  8
PLAN_1
  6
CONTINUOUS
 10
-1.754654
 20
1.129843
  0
VERTEX
  8
PLAN_1
  6
CONTINUOUS
 10
-1.752913
 20
1.132453
  0
VERTEX
  8
PLAN_1
  6
CONTINUOUS
 10
-1.751606
 20
1.135067
  0
VERTEX
  8
PLAN_1
  6
CONTINUOUS
 10
-1.749862
 20
1.137681
  0
VERTEX
  8
PLAN_1
  6
CONTINUOUS
 10
-1.748992
 20
1.140728
  0
VERTEX
  8
PLAN_1
  6
CONTINUOUS
 10
-1.748122
 20
1.143776
  0
VERTEX
  8
PLAN_1
  6
CONTINUOUS
 10
-1.747685
 20
1.146823
  0
VERTEX
  8
PLAN_1
  6
CONTINUOUS
 10
-1.747685
 20
1.150307
  0
VERTEX
  8
PLAN_1
  6
CONTINUOUS
 10
-1.747685
 20
1.153354
  0
VERTEX
  8
PLAN_1
  6
CONTINUOUS
 10
-1.748122
 20
1.156839
  0
VERTEX
  8
PLAN_1
  6
CONTINUOUS
 10
-1.748992
 20
1.159886
  0
VERTEX
  8
PLAN_1
  6
CONTINUOUS
 10
-1.749862
 20
1.162496
  0
VERTEX
  8
PLAN_1
  6
CONTINUOUS
 10
-1.751606
 20
1.165543
  0
VERTEX
  8
PLAN_1
  6
CONTINUOUS
 10
-1.752913
 20
1.168157
  0
VERTEX
  8
PLAN_1
  6
CONTINUOUS
 10
-1.754654
 20
1.170335
  0
VERTEX
  8
PLAN_1
  6
CONTINUOUS
 10
-1.756831
 20
1.172945
  0
VERTEX
  8
PLAN_1
  6
CONTINUOUS
 10
-1.759008
 20
1.174689
  0
VERTEX
  8
PLAN_1
  6
CONTINUOUS
 10
-1.761618
 20
1.176429
  0
VERTEX
  8
PLAN_1
  6
CONTINUOUS
 10
-1.764232
 20
1.178173
  0
VERTEX
  8
PLAN_1
  6
CONTINUOUS
 10
-1.766846
 20
1.179476
  0
VERTEX
  8
PLAN_1
  6
CONTINUOUS
 10
-1.769894
 20
1.180783
  0
VERTEX
  8
PLAN_1
  6
CONTINUOUS
 10
-1.772941
 20
1.181220
  0
VERTEX
  8
PLAN_1
  6
CONTINUOUS
 10
-1.775988
 20
1.182091
  0
VERTEX
  8
PLAN_1
  6
CONTINUOUS
 10
-1.779472
 20
1.182091
  0
SEQEND
  8
0
  0
POLYLINE
  8
PLAN_1
  6
CONTINUOUS
 66
     1
 40
0.004350
 41
0.004350
  0
VERTEX
  8
PLAN_1
  6
CONTINUOUS
 10
-0.169799
 20
1.150307
  0
VERTEX
  8
PLAN_1
  6
CONTINUOUS
 10
0.101457
 20
1.150307
  0
SEQEND
  8
0
  0
POLYLINE
  8
PLAN_1
  6
CONTINUOUS
 66
     1
 40
0.004350
 41
0.004350
  0
VERTEX
  8
PLAN_1
  6
CONTINUOUS
 10
-0.033083
 20
1.025783
  0
VERTEX
  8
PLAN_1
  6
CONTINUOUS
 10
-0.033520
 20
1.275264
  0
SEQEND
  8
0
  0
POLYLINE
  8
PLAN_1
  6
CONTINUOUS
 66
     1
 40
0.003000
 41
0.003000
  0
VERTEX
  8
PLAN_1
  6
CONTINUOUS
 10
-0.032213
 20
1.182091
  0
VERTEX
  8
PLAN_1
  6
CONTINUOUS
 10
-0.035697
 20
1.182091
  0
VERTEX
  8
PLAN_1
  6
CONTINUOUS
 10
-0.038744
 20
1.181220
  0
VERTEX
  8
PLAN_1
  6
CONTINUOUS
 10
-0.041791
 20
1.180783
  0
VERTEX
  8
PLAN_1
  6
CONTINUOUS
 10
-0.044839
 20
1.179476
  0
VERTEX
  8
PLAN_1
  6
CONTINUOUS
 10
-0.047453
 20
1.178173
  0
VERTEX
  8
PLAN_1
  6
CONTINUOUS
 10
-0.050063
 20
1.176429
  0
VERTEX
  8
PLAN_1
  6
CONTINUOUS
 10
-0.052677
 20
1.174689
  0
VERTEX
  8
PLAN_1
  6
CONTINUOUS
 10
-0.054854
 20
1.172945
  0
VERTEX
  8
PLAN_1
  6
CONTINUOUS
 10
-0.057031
 20
1.170335
  0
VERTEX
  8
PLAN_1
  6
CONTINUOUS
 10
-0.058772
 20
1.168157
  0
VERTEX
  8
PLAN_1
  6
CONTINUOUS
 10
-0.060512
 20
1.165543
  0
VERTEX
  8
PLAN_1
  6
CONTINUOUS
 10
-0.061819
 20
1.162496
  0
VERTEX
  8
PLAN_1
  6
CONTINUOUS
 10
-0.062689
 20
1.159886
  0
VERTEX
  8
PLAN_1
  6
CONTINUOUS
 10
-0.063563
 20
1.156839
  0
VERTEX
  8
PLAN_1
  6
CONTINUOUS
 10
-0.063996
 20
1.153354
  0
VERTEX
  8
PLAN_1
  6
CONTINUOUS
 10
-0.063996
 20
1.150307
  0
VERTEX
  8
PLAN_1
  6
CONTINUOUS
 10
-0.063996
 20
1.146823
  0
VERTEX
  8
PLAN_1
  6
CONTINUOUS
 10
-0.063563
 20
1.143776
  0
VERTEX
  8
PLAN_1
  6
CONTINUOUS
 10
-0.062689
 20
1.140728
  0
VERTEX
  8
PLAN_1
  6
CONTINUOUS
 10
-0.061819
 20
1.137681
  0
VERTEX
  8
PLAN_1
  6
CONTINUOUS
 10
-0.060512
 20
1.135067
  0
VERTEX
  8
PLAN_1
  6
CONTINUOUS
 10
-0.058772
 20
1.132453
  0
VERTEX
  8
PLAN_1
  6
CONTINUOUS
 10
-0.057031
 20
1.129843
  0
VERTEX
  8
PLAN_1
  6
CONTINUOUS
 10
-0.054854
 20
1.127665
  0
VERTEX
  8
PLAN_1
  6
CONTINUOUS
 10
-0.052677
 20
1.125488
  0
VERTEX
  8
PLAN_1
  6
CONTINUOUS
 10
-0.050063
 20
1.123748
  0
VERTEX
  8
PLAN_1
  6
CONTINUOUS
 10
-0.047453
 20
1.122004
  0
VERTEX
  8
PLAN_1
  6
CONTINUOUS
 10
-0.044839
 20
1.120697
  0
VERTEX
  8
PLAN_1
  6
CONTINUOUS
 10
-0.041791
 20
1.119827
  0
VERTEX
  8
PLAN_1
  6
CONTINUOUS
 10
-0.038744
 20
1.118957
  0
VERTEX
  8
PLAN_1
  6
CONTINUOUS
 10
-0.035697
 20
1.118520
  0
VERTEX
  8
PLAN_1
  6
CONTINUOUS
 10
-0.032213
 20
1.118520
  0
VERTEX
  8
PLAN_1
  6
CONTINUOUS
 10
-0.029165
 20
1.118520
  0
VERTEX
  8
PLAN_1
  6
CONTINUOUS
 10
-0.025681
 20
1.118957
  0
VERTEX
  8
PLAN_1
  6
CONTINUOUS
 10
-0.022634
 20
1.119827
  0
VERTEX
  8
PLAN_1
  6
CONTINUOUS
 10
-0.020020
 20
1.120697
  0
VERTEX
  8
PLAN_1
  6
CONTINUOUS
 10
-0.016972
 20
1.122004
  0
VERTEX
  8
PLAN_1
  6
CONTINUOUS
 10
-0.014362
 20
1.123748
  0
VERTEX
  8
PLAN_1
  6
CONTINUOUS
 10
-0.012185
 20
1.125488
  0
VERTEX
  8
PLAN_1
  6
CONTINUOUS
 10
-0.009571
 20
1.127665
  0
VERTEX
  8
PLAN_1
  6
CONTINUOUS
 10
-0.007831
 20
1.129843
  0
VERTEX
  8
PLAN_1
  6
CONTINUOUS
 10
-0.006087
 20
1.132453
  0
VERTEX
  8
PLAN_1
  6
CONTINUOUS
 10
-0.004346
 20
1.135067
  0
VERTEX
  8
PLAN_1
  6
CONTINUOUS
 10
-0.003039
 20
1.137681
  0
VERTEX
  8
PLAN_1
  6
CONTINUOUS
 10
-0.001736
 20
1.140728
  0
VERTEX
  8
PLAN_1
  6
CONTINUOUS
 10
-0.001299
 20
1.143776
  0
VERTEX
  8
PLAN_1
  6
CONTINUOUS
 10
-0.000429
 20
1.146823
  0
VERTEX
  8
PLAN_1
  6
CONTINUOUS
 10
-0.000429
 20
1.150307
  0
VERTEX
  8
PLAN_1
  6
CONTINUOUS
 10
-0.000429
 20
1.153354
  0
VERTEX
  8
PLAN_1
  6
CONTINUOUS
 10
-0.001299
 20
1.156839
  0
VERTEX
  8
PLAN_1
  6
CONTINUOUS
 10
-0.001736
 20
1.159886
  0
VERTEX
  8
PLAN_1
  6
CONTINUOUS
 10
-0.003039
 20
1.162496
  0
VERTEX
  8
PLAN_1
  6
CONTINUOUS
 10
-0.004346
 20
1.165543
  0
VERTEX
  8
PLAN_1
  6
CONTINUOUS
 10
-0.006087
 20
1.168157
  0
VERTEX
  8
PLAN_1
  6
CONTINUOUS
 10
-0.007831
 20
1.170335
  0
VERTEX
  8
PLAN_1
  6
CONTINUOUS
 10
-0.009571
 20
1.172945
  0
VERTEX
  8
PLAN_1
  6
CONTINUOUS
 10
-0.012185
 20
1.174689
  0
VERTEX
  8
PLAN_1
  6
CONTINUOUS
 10
-0.014362
 20
1.176429
  0
VERTEX
  8
PLAN_1
  6
CONTINUOUS
 10
-0.016972
 20
1.178173
  0
VERTEX
  8
PLAN_1
  6
CONTINUOUS
 10
-0.020020
 20
1.179476
  0
VERTEX
  8
PLAN_1
  6
CONTINUOUS
 10
-0.022634
 20
1.180783
  0
VERTEX
  8
PLAN_1
  6
CONTINUOUS
 10
-0.025681
 20
1.181220
  0
VERTEX
  8
PLAN_1
  6
CONTINUOUS
 10
-0.029165
 20
1.182091
  0
VERTEX
  8
PLAN_1
  6
CONTINUOUS
 10
-0.032213
 20
1.182091
  0
SEQEND
  8
0
  0
POLYLINE
  8
PLAN_1
  6
CONTINUOUS
 66
     1
 40
0.008272
 41
0.008272
  0
VERTEX
  8
PLAN_1
  6
CONTINUOUS
 10
-1.678894
 20
2.262315
  0
VERTEX
  8
PLAN_1
  6
CONTINUOUS
 10
-1.678457
 20
2.262315
  0
VERTEX
  8
PLAN_1
  6
CONTINUOUS
 10
-1.678457
 20
1.790780
  0
VERTEX
  8
PLAN_1
  6
CONTINUOUS
 10
-0.380098
 20
1.790780
  0
VERTEX
  8
PLAN_1
  6
CONTINUOUS
 10
-0.380098
 20
1.654933
  0
VERTEX
  8
PLAN_1
  6
CONTINUOUS
 10
-2.209646
 20
1.654933
  0
VERTEX
  8
PLAN_1
  6
CONTINUOUS
 10
-2.209646
 20
2.284524
  0
VERTEX
  8
PLAN_1
  6
CONTINUOUS
 10
-1.677587
 20
2.520945
  0
SEQEND
  8
0
  0
POLYLINE
  8
PLAN_1
  6
CONTINUOUS
 66
     1
 40
0.008272
 41
0.008272
  0
VERTEX
  8
PLAN_1
  6
CONTINUOUS
 10
-1.678457
 20
1.808630
  0
VERTEX
  8
PLAN_1
  6
CONTINUOUS
 10
-1.491673
 20
1.847382
  0
VERTEX
  8
PLAN_1
  6
CONTINUOUS
 10
-1.614890
 20
2.118201
  0
VERTEX
  8
PLAN_1
  6
CONTINUOUS
 10
-1.489059
 20
2.173059
  0
VERTEX
  8
PLAN_1
  6
CONTINUOUS
 10
-1.489496
 20
2.172626
  0
VERTEX
  8
PLAN_1
  6
CONTINUOUS
 10
-1.129854
 20
2.332850
  0
VERTEX
  8
PLAN_1
  6
CONTINUOUS
 10
-0.909543
 20
2.294535
  0
VERTEX
  8
PLAN_1
  6
CONTINUOUS
 10
-0.732335
 20
2.336335
  0
VERTEX
  8
PLAN_1
  6
CONTINUOUS
 10
-0.600409
 20
2.769992
  0
VERTEX
  8
PLAN_1
  6
CONTINUOUS
 10
-0.601280
 20
2.772606
  0
SEQEND
  8
0
  0
POLYLINE
  8
PLAN_1
  6
CONTINUOUS
 66
     1
 40
0.008272
 41
0.008272
  0
VERTEX
  8
PLAN_1
  6
CONTINUOUS
 10
-0.601280
 20
2.772606
  0
VERTEX
  8
PLAN_1
  6
CONTINUOUS
 10
-0.599539
 20
2.780441
  0
VERTEX
  8
PLAN_1
  6
CONTINUOUS
 10
-0.598232
 20
2.788280
  0
VERTEX
  8
PLAN_1
  6
CONTINUOUS
 10
-0.597362
 20
2.796118
  0
VERTEX
  8
PLAN_1
  6
CONTINUOUS
 10
-0.596492
 20
2.803953
  0
VERTEX
  8
PLAN_1
  6
CONTINUOUS
 10
-0.595618
 20
2.811791
  0
VERTEX
  8
PLAN_1
  6
CONTINUOUS
 10
-0.595185
 20
2.819630
  0
VERTEX
  8
PLAN_1
  6
CONTINUOUS
 10
-0.594748
 20
2.827902
  0
VERTEX
  8
PLAN_1
  6
CONTINUOUS
 10
-0.594748
 20
2.836173
  0
VERTEX
  8
PLAN_1
  6
CONTINUOUS
 10
-0.595185
 20
2.852283
  0
VERTEX
  8
PLAN_1
  6
CONTINUOUS
 10
-0.596492
 20
2.868394
  0
VERTEX
  8
PLAN_1
  6
CONTINUOUS
 10
-0.598232
 20
2.884067
  0
VERTEX
  8
PLAN_1
  6
CONTINUOUS
 10
-0.601280
 20
2.899307
  0
VERTEX
  8
PLAN_1
  6
CONTINUOUS
 10
-0.604764
 20
2.914543
  0
VERTEX
  8
PLAN_1
  6
CONTINUOUS
 10
-0.608681
 20
2.929783
  0
VERTEX
  8
PLAN_1
  6
CONTINUOUS
 10
-0.613906
 20
2.944154
  0
VERTEX
  8
PLAN_1
  6
CONTINUOUS
 10
-0.619567
 20
2.958520
  0
VERTEX
  8
PLAN_1
  6
CONTINUOUS
 10
-0.625661
 20
2.972453
  0
VERTEX
  8
PLAN_1
  6
CONTINUOUS
 10
-0.632630
 20
2.985949
  0
VERTEX
  8
PLAN_1
  6
CONTINUOUS
 10
-0.640465
 20
2.999449
  0
VERTEX
  8
PLAN_1
  6
CONTINUOUS
 10
-0.648303
 20
3.012075
  0
VERTEX
  8
PLAN_1
  6
CONTINUOUS
 10
-0.657445
 20
3.024268
  0
VERTEX
  8
PLAN_1
  6
CONTINUOUS
 10
-0.666591
 20
3.036457
  0
VERTEX
  8
PLAN_1
  6
CONTINUOUS
 10
-0.676602
 20
3.047776
  0
VERTEX
  8
PLAN_1
  6
CONTINUOUS
 10
-0.687055
 20
3.058661
  0
VERTEX
  8
PLAN_1
  6
CONTINUOUS
 10
-0.697937
 20
3.069110
  0
VERTEX
  8
PLAN_1
  6
CONTINUOUS
 10
-0.709260
 20
3.079126
  0
VERTEX
  8
PLAN_1
  6
CONTINUOUS
 10
-0.721016
 20
3.088268
  0
VERTEX
  8
PLAN_1
  6
CONTINUOUS
 10
-0.733642
 20
3.096976
  0
VERTEX
  8
PLAN_1
  6
CONTINUOUS
 10
-0.746268
 20
3.105252
  0
VERTEX
  8
PLAN_1
  6
CONTINUOUS
 10
-0.759331
 20
3.113087
  0
VERTEX
  8
PLAN_1
  6
CONTINUOUS
 10
-0.772827
 20
3.120055
  0
VERTEX
  8
PLAN_1
  6
CONTINUOUS
 10
-0.787197
 20
3.126150
  0
VERTEX
  8
PLAN_1
  6
CONTINUOUS
 10
-0.801130
 20
3.131811
  0
VERTEX
  8
PLAN_1
  6
CONTINUOUS
 10
-0.815933
 20
3.136598
  0
VERTEX
  8
PLAN_1
  6
CONTINUOUS
 10
-0.830736
 20
3.140953
  0
VERTEX
  8
PLAN_1
  6
CONTINUOUS
 10
-0.845972
 20
3.144437
  0
VERTEX
  8
PLAN_1
  6
CONTINUOUS
 10
-0.861650
 20
3.147484
  0
VERTEX
  8
PLAN_1
  6
CONTINUOUS
 10
-0.877323
 20
3.149224
  0
VERTEX
  8
PLAN_1
  6
CONTINUOUS
 10
-0.893433
 20
3.150531
  0
VERTEX
  8
PLAN_1
  6
CONTINUOUS
 10
-0.909543
 20
3.150969
  0
VERTEX
  8
PLAN_1
  6
CONTINUOUS
 10
-0.920429
 20
3.150531
  0
VERTEX
  8
PLAN_1
  6
CONTINUOUS
 10
-0.931311
 20
3.150094
  0
VERTEX
  8
PLAN_1
  6
CONTINUOUS
 10
-0.942197
 20
3.149224
  0
VERTEX
  8
PLAN_1
  6
CONTINUOUS
 10
-0.953083
 20
3.147917
  0
VERTEX
  8
PLAN_1
  6
CONTINUOUS
 10
-0.963531
 20
3.146177
  0
VERTEX
  8
PLAN_1
  6
CONTINUOUS
 10
-0.973980
 20
3.144437
  0
VERTEX
  8
PLAN_1
  6
CONTINUOUS
 10
-0.984433
 20
3.141823
  0
VERTEX
  8
PLAN_1
  6
CONTINUOUS
 10
-0.994445
 20
3.139213
  0
VERTEX
  8
PLAN_1
  6
CONTINUOUS
 10
-1.004461
 20
3.136165
  0
VERTEX
  8
PLAN_1
  6
CONTINUOUS
 10
-1.014472
 20
3.133114
  0
VERTEX
  8
PLAN_1
  6
CONTINUOUS
 10
-1.024051
 20
3.129197
  0
VERTEX
  8
PLAN_1
  6
CONTINUOUS
 10
-1.034067
 20
3.125280
  0
VERTEX
  8
PLAN_1
  6
CONTINUOUS
 10
-1.043209
 20
3.121358
  0
VERTEX
  8
PLAN_1
  6
CONTINUOUS
 10
-1.052787
 20
3.116571
  0
VERTEX
  8
PLAN_1
  6
CONTINUOUS
 10
-1.061496
 20
3.111780
  0
VERTEX
  8
PLAN_1
  6
CONTINUOUS
 10
-1.070642
 20
3.106555
  0
VERTEX
  8
PLAN_1
  6
CONTINUOUS
 10
-1.079350
 20
3.101331
  0
VERTEX
  8
PLAN_1
  6
CONTINUOUS
 10
-1.088055
 20
3.095673
  0
VERTEX
  8
PLAN_1
  6
CONTINUOUS
 10
-1.096331
 20
3.089575
  0
VERTEX
  8
PLAN_1
  6
CONTINUOUS
 10
-1.104602
 20
3.083480
  0
VERTEX
  8
PLAN_1
  6
CONTINUOUS
 10
-1.112437
 20
3.076949
  0
VERTEX
  8
PLAN_1
  6
CONTINUOUS
 10
-1.120276
 20
3.070417
  0
VERTEX
  8
PLAN_1
  6
CONTINUOUS
 10
-1.127677
 20
3.063016
  0
VERTEX
  8
PLAN_1
  6
CONTINUOUS
 10
-1.134646
 20
3.056051
  0
VERTEX
  8
PLAN_1
  6
CONTINUOUS
 10
-1.142047
 20
3.048650
  0
VERTEX
  8
PLAN_1
  6
CONTINUOUS
 10
-1.148579
 20
3.040811
  0
VERTEX
  8
PLAN_1
  6
CONTINUOUS
 10
-1.155106
 20
3.032972
  0
VERTEX
  8
PLAN_1
  6
CONTINUOUS
 10
-1.161638
 20
3.025138
  0
VERTEX
  8
PLAN_1
  6
CONTINUOUS
 10
-1.167299
 20
3.016862
  0
VERTEX
  8
PLAN_1
  6
CONTINUOUS
 10
-1.173394
 20
3.008157
  0
VERTEX
  8
PLAN_1
  6
CONTINUOUS
 10
-1.178618
 20
2.999449
  0
VERTEX
  8
PLAN_1
  6
CONTINUOUS
 10
-1.183843
 20
2.990740
  0
SEQEND
  8
0
  0
POLYLINE
  8
PLAN_1
  6
CONTINUOUS
 66
     1
 40
0.008272
 41
0.008272
  0
VERTEX
  8
PLAN_1
  6
CONTINUOUS
 10
-1.183843
 20
2.990740
  0
VERTEX
  8
PLAN_1
  6
CONTINUOUS
 10
-1.184717
 20
2.989870
  0
VERTEX
  8
PLAN_1
  6
CONTINUOUS
 10
-1.346248
 20
2.668543
  0
VERTEX
  8
PLAN_1
  6
CONTINUOUS
 10
-1.678457
 20
2.520508
  0
VERTEX
  8
PLAN_1
  6
CONTINUOUS
 10
-1.678457
 20
1.808630
  0
SEQEND
  8
0
  0
POLYLINE
  8
PLAN_1
  6
CONTINUOUS
 66
     1
 40
0.008272
 41
0.008272
  0
VERTEX
  8
PLAN_1
  6
CONTINUOUS
 10
-1.944051
 20
1.967114
  0
VERTEX
  8
PLAN_1
  6
CONTINUOUS
 10
-1.938394
 20
1.967114
  0
VERTEX
  8
PLAN_1
  6
CONTINUOUS
 10
-1.933165
 20
1.967551
  0
VERTEX
  8
PLAN_1
  6
CONTINUOUS
 10
-1.927508
 20
1.968421
  0
VERTEX
  8
PLAN_1
  6
CONTINUOUS
 10
-1.922283
 20
1.969291
  0
VERTEX
  8
PLAN_1
  6
CONTINUOUS
 10
-1.917059
 20
1.970161
  0
VERTEX
  8
PLAN_1
  6
CONTINUOUS
 10
-1.911831
 20
1.971906
  0
VERTEX
  8
PLAN_1
  6
CONTINUOUS
 10
-1.906606
 20
1.973646
  0
VERTEX
  8
PLAN_1
  6
CONTINUOUS
 10
-1.901819
 20
1.975390
  0
VERTEX
  8
PLAN_1
  6
CONTINUOUS
 10
-1.897028
 20
1.977567
  0
VERTEX
  8
PLAN_1
  6
CONTINUOUS
 10
-1.892240
 20
1.980177
  0
VERTEX
  8
PLAN_1
  6
CONTINUOUS
 10
-1.887886
 20
1.982791
  0
VERTEX
  8
PLAN_1
  6
CONTINUOUS
 10
-1.883531
 20
1.985402
  0
VERTEX
  8
PLAN_1
  6
CONTINUOUS
 10
-1.879177
 20
1.988449
  0
VERTEX
  8
PLAN_1
  6
CONTINUOUS
 10
-1.875260
 20
1.991496
  0
VERTEX
  8
PLAN_1
  6
CONTINUOUS
 10
-1.871339
 20
1.994980
  0
VERTEX
  8
PLAN_1
  6
CONTINUOUS
 10
-1.867421
 20
1.998465
  0
VERTEX
  8
PLAN_1
  6
CONTINUOUS
 10
-1.863937
 20
2.002382
  0
VERTEX
  8
PLAN_1
  6
CONTINUOUS
 10
-1.860457
 20
2.006303
  0
VERTEX
  8
PLAN_1
  6
CONTINUOUS
 10
-1.857409
 20
2.010220
  0
VERTEX
  8
PLAN_1
  6
CONTINUOUS
 10
-1.854358
 20
2.014575
  0
VERTEX
  8
PLAN_1
  6
CONTINUOUS
 10
-1.851311
 20
2.018929
  0
VERTEX
  8
PLAN_1
  6
CONTINUOUS
 10
-1.848701
 20
2.023717
  0
VERTEX
  8
PLAN_1
  6
CONTINUOUS
 10
-1.846524
 20
2.028071
  0
VERTEX
  8
PLAN_1
  6
CONTINUOUS
 10
-1.844346
 20
2.032862
  0
VERTEX
  8
PLAN_1
  6
CONTINUOUS
 10
-1.842169
 20
2.038087
  0
VERTEX
  8
PLAN_1
  6
CONTINUOUS
 10
-1.840862
 20
2.042874
  0
VERTEX
  8
PLAN_1
  6
CONTINUOUS
 10
-1.839122
 20
2.048098
  0
VERTEX
  8
PLAN_1
  6
CONTINUOUS
 10
-1.837815
 20
2.053323
  0
VERTEX
  8
PLAN_1
  6
CONTINUOUS
 10
-1.836945
 20
2.058551
  0
VERTEX
  8
PLAN_1
  6
CONTINUOUS
 10
-1.836508
 20
2.064209
  0
VERTEX
  8
PLAN_1
  6
CONTINUOUS
 10
-1.836075
 20
2.069433
  0
VERTEX
  8
PLAN_1
  6
CONTINUOUS
 10
-1.835638
 20
2.075094
  0
VERTEX
  8
PLAN_1
  6
CONTINUOUS
 10
-1.836075
 20
2.080756
  0
VERTEX
  8
PLAN_1
  6
CONTINUOUS
 10
-1.836508
 20
2.086413
  0
VERTEX
  8
PLAN_1
  6
CONTINUOUS
 10
-1.836945
 20
2.091642
  0
VERTEX
  8
PLAN_1
  6
CONTINUOUS
 10
-1.837815
 20
2.096866
  0
VERTEX
  8
PLAN_1
  6
CONTINUOUS
 10
-1.839122
 20
2.102091
  0
VERTEX
  8
PLAN_1
  6
CONTINUOUS
 10
-1.840862
 20
2.107315
  0
VERTEX
  8
PLAN_1
  6
CONTINUOUS
 10
-1.842169
 20
2.112539
  0
VERTEX
  8
PLAN_1
  6
CONTINUOUS
 10
-1.844346
 20
2.117327
  0
VERTEX
  8
PLAN_1
  6
CONTINUOUS
 10
-1.846524
 20
2.122118
  0
VERTEX
  8
PLAN_1
  6
CONTINUOUS
 10
-1.848701
 20
2.126906
  0
VERTEX
  8
PLAN_1
  6
CONTINUOUS
 10
-1.851311
 20
2.131260
  0
VERTEX
  8
PLAN_1
  6
CONTINUOUS
 10
-1.854358
 20
2.135614
  0
VERTEX
  8
PLAN_1
  6
CONTINUOUS
 10
-1.857409
 20
2.139969
  0
VERTEX
  8
PLAN_1
  6
CONTINUOUS
 10
-1.860457
 20
2.143886
  0
VERTEX
  8
PLAN_1
  6
CONTINUOUS
 10
-1.863937
 20
2.147807
  0
VERTEX
  8
PLAN_1
  6
CONTINUOUS
 10
-1.867421
 20
2.151724
  0
VERTEX
  8
PLAN_1
  6
CONTINUOUS
 10
-1.871339
 20
2.155209
  0
VERTEX
  8
PLAN_1
  6
CONTINUOUS
 10
-1.875260
 20
2.158693
  0
VERTEX
  8
PLAN_1
  6
CONTINUOUS
 10
-1.879177
 20
2.161740
  0
VERTEX
  8
PLAN_1
  6
CONTINUOUS
 10
-1.883531
 20
2.164787
  0
VERTEX
  8
PLAN_1
  6
CONTINUOUS
 10
-1.887886
 20
2.167835
  0
VERTEX
  8
PLAN_1
  6
CONTINUOUS
 10
-1.892240
 20
2.170449
  0
VERTEX
  8
PLAN_1
  6
CONTINUOUS
 10
-1.897028
 20
2.172626
  0
VERTEX
  8
PLAN_1
  6
CONTINUOUS
 10
-1.901819
 20
2.174799
  0
VERTEX
  8
PLAN_1
  6
CONTINUOUS
 10
-1.906606
 20
2.176976
  0
VERTEX
  8
PLAN_1
  6
CONTINUOUS
 10
-1.911831
 20
2.178720
  0
VERTEX
  8
PLAN_1
  6
CONTINUOUS
 10
-1.917059
 20
2.180028
  0
VERTEX
  8
PLAN_1
  6
CONTINUOUS
 10
-1.922283
 20
2.181331
  0
VERTEX
  8
PLAN_1
  6
CONTINUOUS
 10
-1.927508
 20
2.182205
  0
VERTEX
  8
PLAN_1
  6
CONTINUOUS
 10
-1.933165
 20
2.183075
  0
VERTEX
  8
PLAN_1
  6
CONTINUOUS
 10
-1.938394
 20
2.183508
  0
VERTEX
  8
PLAN_1
  6
CONTINUOUS
 10
-1.944051
 20
2.183508
  0
VERTEX
  8
PLAN_1
  6
CONTINUOUS
 10
-1.949713
 20
2.183508
  0
VERTEX
  8
PLAN_1
  6
CONTINUOUS
 10
-1.954937
 20
2.183075
  0
VERTEX
  8
PLAN_1
  6
CONTINUOUS
 10
-1.960598
 20
2.182205
  0
VERTEX
  8
PLAN_1
  6
CONTINUOUS
 10
-1.965823
 20
2.181331
  0
VERTEX
  8
PLAN_1
  6
CONTINUOUS
 10
-1.971047
 20
2.180028
  0
VERTEX
  8
PLAN_1
  6
CONTINUOUS
 10
-1.976272
 20
2.178720
  0
VERTEX
  8
PLAN_1
  6
CONTINUOUS
 10
-1.981063
 20
2.176976
  0
VERTEX
  8
PLAN_1
  6
CONTINUOUS
 10
-1.986287
 20
2.174799
  0
VERTEX
  8
PLAN_1
  6
CONTINUOUS
 10
-1.991075
 20
2.172626
  0
VERTEX
  8
PLAN_1
  6
CONTINUOUS
 10
-1.995429
 20
2.170449
  0
VERTEX
  8
PLAN_1
  6
CONTINUOUS
 10
-2.000220
 20
2.167835
  0
VERTEX
  8
PLAN_1
  6
CONTINUOUS
 10
-2.004571
 20
2.164787
  0
VERTEX
  8
PLAN_1
  6
CONTINUOUS
 10
-2.008925
 20
2.161740
  0
VERTEX
  8
PLAN_1
  6
CONTINUOUS
 10
-2.012846
 20
2.158693
  0
VERTEX
  8
PLAN_1
  6
CONTINUOUS
 10
-2.016764
 20
2.155209
  0
VERTEX
  8
PLAN_1
  6
CONTINUOUS
 10
-2.020681
 20
2.151724
  0
VERTEX
  8
PLAN_1
  6
CONTINUOUS
 10
-2.024165
 20
2.147807
  0
VERTEX
  8
PLAN_1
  6
CONTINUOUS
 10
-2.027650
 20
2.143886
  0
VERTEX
  8
PLAN_1
  6
CONTINUOUS
 10
-2.030697
 20
2.139969
  0
VERTEX
  8
PLAN_1
  6
CONTINUOUS
 10
-2.033744
 20
2.135614
  0
VERTEX
  8
PLAN_1
  6
CONTINUOUS
 10
-2.036791
 20
2.131260
  0
VERTEX
  8
PLAN_1
  6
CONTINUOUS
 10
-2.039406
 20
2.126906
  0
VERTEX
  8
PLAN_1
  6
CONTINUOUS
 10
-2.041583
 20
2.122118
  0
VERTEX
  8
PLAN_1
  6
CONTINUOUS
 10
-2.043760
 20
2.117327
  0
VERTEX
  8
PLAN_1
  6
CONTINUOUS
 10
-2.045500
 20
2.112539
  0
VERTEX
  8
PLAN_1
  6
CONTINUOUS
 10
-2.047240
 20
2.107315
  0
VERTEX
  8
PLAN_1
  6
CONTINUOUS
 10
-2.048984
 20
2.102091
  0
VERTEX
  8
PLAN_1
  6
CONTINUOUS
 10
-2.050291
 20
2.096866
  0
VERTEX
  8
PLAN_1
  6
CONTINUOUS
 10
-2.051161
 20
2.091642
  0
VERTEX
  8
PLAN_1
  6
CONTINUOUS
 10
-2.051594
 20
2.086413
  0
VERTEX
  8
PLAN_1
  6
CONTINUOUS
 10
-2.052031
 20
2.080756
  0
VERTEX
  8
PLAN_1
  6
CONTINUOUS
 10
-2.052469
 20
2.075094
  0
VERTEX
  8
PLAN_1
  6
CONTINUOUS
 10
-2.052031
 20
2.069433
  0
VERTEX
  8
PLAN_1
  6
CONTINUOUS
 10
-2.051594
 20
2.064209
  0
VERTEX
  8
PLAN_1
  6
CONTINUOUS
 10
-2.051161
 20
2.058551
  0
VERTEX
  8
PLAN_1
  6
CONTINUOUS
 10
-2.050291
 20
2.053323
  0
VERTEX
  8
PLAN_1
  6
CONTINUOUS
 10
-2.048984
 20
2.048098
  0
VERTEX
  8
PLAN_1
  6
CONTINUOUS
 10
-2.047240
 20
2.042874
  0
VERTEX
  8
PLAN_1
  6
CONTINUOUS
 10
-2.045500
 20
2.038087
  0
VERTEX
  8
PLAN_1
  6
CONTINUOUS
 10
-2.043760
 20
2.032862
  0
VERTEX
  8
PLAN_1
  6
CONTINUOUS
 10
-2.041583
 20
2.028071
  0
VERTEX
  8
PLAN_1
  6
CONTINUOUS
 10
-2.039406
 20
2.023717
  0
VERTEX
  8
PLAN_1
  6
CONTINUOUS
 10
-2.036791
 20
2.018929
  0
VERTEX
  8
PLAN_1
  6
CONTINUOUS
 10
-2.033744
 20
2.014575
  0
VERTEX
  8
PLAN_1
  6
CONTINUOUS
 10
-2.030697
 20
2.010220
  0
VERTEX
  8
PLAN_1
  6
CONTINUOUS
 10
-2.027650
 20
2.006303
  0
VERTEX
  8
PLAN_1
  6
CONTINUOUS
 10
-2.024165
 20
2.002382
  0
VERTEX
  8
PLAN_1
  6
CONTINUOUS
 10
-2.020681
 20
1.998465
  0
VERTEX
  8
PLAN_1
  6
CONTINUOUS
 10
-2.016764
 20
1.994980
  0
VERTEX
  8
PLAN_1
  6
CONTINUOUS
 10
-2.012846
 20
1.991496
  0
VERTEX
  8
PLAN_1
  6
CONTINUOUS
 10
-2.008925
 20
1.988449
  0
VERTEX
  8
PLAN_1
  6
CONTINUOUS
 10
-2.004571
 20
1.985402
  0
VERTEX
  8
PLAN_1
  6
CONTINUOUS
 10
-2.000220
 20
1.982791
  0
VERTEX
  8
PLAN_1
  6
CONTINUOUS
 10
-1.995429
 20
1.980177
  0
VERTEX
  8
PLAN_1
  6
CONTINUOUS
 10
-1.991075
 20
1.977567
  0
VERTEX
  8
PLAN_1
  6
CONTINUOUS
 10
-1.986287
 20
1.975390
  0
VERTEX
  8
PLAN_1
  6
CONTINUOUS
 10
-1.981063
 20
1.973646
  0
VERTEX
  8
PLAN_1
  6
CONTINUOUS
 10
-1.976272
 20
1.971906
  0
VERTEX
  8
PLAN_1
  6
CONTINUOUS
 10
-1.971047
 20
1.970161
  0
VERTEX
  8
PLAN_1
  6
CONTINUOUS
 10
-1.965823
 20
1.969291
  0
VERTEX
  8
PLAN_1
  6
CONTINUOUS
 10
-1.960598
 20
1.968421
  0
VERTEX
  8
PLAN_1
  6
CONTINUOUS
 10
-1.954937
 20
1.967551
  0
VERTEX
  8
PLAN_1
  6
CONTINUOUS
 10
-1.949713
 20
1.967114
  0
VERTEX
  8
PLAN_1
  6
CONTINUOUS
 10
-1.944051
 20
1.967114
  0
SEQEND
  8
0
  0
POLYLINE
  8
PLAN_1
  6
CONTINUOUS
 66
     1
 40
0.006965
 41
0.006965
  0
VERTEX
  8
PLAN_1
  6
CONTINUOUS
 10
-1.944051
 20
2.035909
  0
VERTEX
  8
PLAN_1
  6
CONTINUOUS
 10
-1.940134
 20
2.035909
  0
VERTEX
  8
PLAN_1
  6
CONTINUOUS
 10
-1.936217
 20
2.036780
  0
VERTEX
  8
PLAN_1
  6
CONTINUOUS
 10
-1.932295
 20
2.037650
  0
VERTEX
  8
PLAN_1
  6
CONTINUOUS
 10
-1.928815
 20
2.038957
  0
VERTEX
  8
PLAN_1
  6
CONTINUOUS
 10
-1.925331
 20
2.040697
  0
VERTEX
  8
PLAN_1
  6
CONTINUOUS
 10
-1.921846
 20
2.042441
  0
VERTEX
  8
PLAN_1
  6
CONTINUOUS
 10
-1.918799
 20
2.044618
  0
VERTEX
  8
PLAN_1
  6
CONTINUOUS
 10
-1.916185
 20
2.047228
  0
VERTEX
  8
PLAN_1
  6
CONTINUOUS
 10
-1.913575
 20
2.050276
  0
VERTEX
  8
PLAN_1
  6
CONTINUOUS
 10
-1.911398
 20
2.053323
  0
VERTEX
  8
PLAN_1
  6
CONTINUOUS
 10
-1.909220
 20
2.056374
  0
VERTEX
  8
PLAN_1
  6
CONTINUOUS
 10
-1.907913
 20
2.059854
  0
VERTEX
  8
PLAN_1
  6
CONTINUOUS
 10
-1.906606
 20
2.063339
  0
VERTEX
  8
PLAN_1
  6
CONTINUOUS
 10
-1.905303
 20
2.067256
  0
VERTEX
  8
PLAN_1
  6
CONTINUOUS
 10
-1.904866
 20
2.071177
  0
VERTEX
  8
PLAN_1
  6
CONTINUOUS
 10
-1.904866
 20
2.075094
  0
VERTEX
  8
PLAN_1
  6
CONTINUOUS
 10
-1.904866
 20
2.079012
  0
VERTEX
  8
PLAN_1
  6
CONTINUOUS
 10
-1.905303
 20
2.082933
  0
VERTEX
  8
PLAN_1
  6
CONTINUOUS
 10
-1.906606
 20
2.086850
  0
VERTEX
  8
PLAN_1
  6
CONTINUOUS
 10
-1.907913
 20
2.090335
  0
VERTEX
  8
PLAN_1
  6
CONTINUOUS
 10
-1.909220
 20
2.093815
  0
VERTEX
  8
PLAN_1
  6
CONTINUOUS
 10
-1.911398
 20
2.097299
  0
VERTEX
  8
PLAN_1
  6
CONTINUOUS
 10
-1.913575
 20
2.100346
  0
VERTEX
  8
PLAN_1
  6
CONTINUOUS
 10
-1.916185
 20
2.102961
  0
VERTEX
  8
PLAN_1
  6
CONTINUOUS
 10
-1.918799
 20
2.105571
  0
VERTEX
  8
PLAN_1
  6
CONTINUOUS
 10
-1.921846
 20
2.107748
  0
VERTEX
  8
PLAN_1
  6
CONTINUOUS
 10
-1.925331
 20
2.109925
  0
VERTEX
  8
PLAN_1
  6
CONTINUOUS
 10
-1.928815
 20
2.111669
  0
VERTEX
  8
PLAN_1
  6
CONTINUOUS
 10
-1.932295
 20
2.112972
  0
VERTEX
  8
PLAN_1
  6
CONTINUOUS
 10
-1.936217
 20
2.113846
  0
VERTEX
  8
PLAN_1
  6
CONTINUOUS
 10
-1.940134
 20
2.114280
  0
VERTEX
  8
PLAN_1
  6
CONTINUOUS
 10
-1.944051
 20
2.114717
  0
VERTEX
  8
PLAN_1
  6
CONTINUOUS
 10
-1.947972
 20
2.114280
  0
VERTEX
  8
PLAN_1
  6
CONTINUOUS
 10
-1.951890
 20
2.113846
  0
VERTEX
  8
PLAN_1
  6
CONTINUOUS
 10
-1.955807
 20
2.112972
  0
VERTEX
  8
PLAN_1
  6
CONTINUOUS
 10
-1.959291
 20
2.111669
  0
VERTEX
  8
PLAN_1
  6
CONTINUOUS
 10
-1.962776
 20
2.109925
  0
VERTEX
  8
PLAN_1
  6
CONTINUOUS
 10
-1.966256
 20
2.107748
  0
VERTEX
  8
PLAN_1
  6
CONTINUOUS
 10
-1.968870
 20
2.105571
  0
VERTEX
  8
PLAN_1
  6
CONTINUOUS
 10
-1.971917
 20
2.102961
  0
VERTEX
  8
PLAN_1
  6
CONTINUOUS
 10
-1.974531
 20
2.100346
  0
VERTEX
  8
PLAN_1
  6
CONTINUOUS
 10
-1.976709
 20
2.097299
  0
VERTEX
  8
PLAN_1
  6
CONTINUOUS
 10
-1.978449
 20
2.093815
  0
VERTEX
  8
PLAN_1
  6
CONTINUOUS
 10
-1.980189
 20
2.090335
  0
VERTEX
  8
PLAN_1
  6
CONTINUOUS
 10
-1.981496
 20
2.086850
  0
VERTEX
  8
PLAN_1
  6
CONTINUOUS
 10
-1.982803
 20
2.082933
  0
VERTEX
  8
PLAN_1
  6
CONTINUOUS
 10
-1.983240
 20
2.079012
  0
VERTEX
  8
PLAN_1
  6
CONTINUOUS
 10
-1.983240
 20
2.075094
  0
VERTEX
  8
PLAN_1
  6
CONTINUOUS
 10
-1.983240
 20
2.071177
  0
VERTEX
  8
PLAN_1
  6
CONTINUOUS
 10
-1.982803
 20
2.067256
  0
VERTEX
  8
PLAN_1
  6
CONTINUOUS
 10
-1.981496
 20
2.063339
  0
VERTEX
  8
PLAN_1
  6
CONTINUOUS
 10
-1.980189
 20
2.059854
  0
VERTEX
  8
PLAN_1
  6
CONTINUOUS
 10
-1.978449
 20
2.056374
  0
VERTEX
  8
PLAN_1
  6
CONTINUOUS
 10
-1.976709
 20
2.053323
  0
VERTEX
  8
PLAN_1
  6
CONTINUOUS
 10
-1.974531
 20
2.050276
  0
VERTEX
  8
PLAN_1
  6
CONTINUOUS
 10
-1.971917
 20
2.047228
  0
VERTEX
  8
PLAN_1
  6
CONTINUOUS
 10
-1.968870
 20
2.044618
  0
VERTEX
  8
PLAN_1
  6
CONTINUOUS
 10
-1.966256
 20
2.042441
  0
VERTEX
  8
PLAN_1
  6
CONTINUOUS
 10
-1.962776
 20
2.040697
  0
VERTEX
  8
PLAN_1
  6
CONTINUOUS
 10
-1.959291
 20
2.038957
  0
VERTEX
  8
PLAN_1
  6
CONTINUOUS
 10
-1.955807
 20
2.037650
  0
VERTEX
  8
PLAN_1
  6
CONTINUOUS
 10
-1.951890
 20
2.036780
  0
VERTEX
  8
PLAN_1
  6
CONTINUOUS
 10
-1.947972
 20
2.035909
  0
VERTEX
  8
PLAN_1
  6
CONTINUOUS
 10
-1.944051
 20
2.035909
  0
SEQEND
  8
0
  0
POLYLINE
  8
PLAN_1
  6
CONTINUOUS
 66
     1
 40
0.008272
 41
0.008272
  0
VERTEX
  8
PLAN_1
  6
CONTINUOUS
 10
-1.183843
 20
2.990740
  0
VERTEX
  8
PLAN_1
  6
CONTINUOUS
 10
-1.188634
 20
2.982031
  0
VERTEX
  8
PLAN_1
  6
CONTINUOUS
 10
-1.192988
 20
2.973323
  0
VERTEX
  8
PLAN_1
  6
CONTINUOUS
 10
-1.197343
 20
2.964181
  0
VERTEX
  8
PLAN_1
  6
CONTINUOUS
 10
-1.201260
 20
2.955035
  0
VERTEX
  8
PLAN_1
  6
CONTINUOUS
 10
-1.204744
 20
2.945894
  0
VERTEX
  8
PLAN_1
  6
CONTINUOUS
 10
-1.208228
 20
2.936315
  0
VERTEX
  8
PLAN_1
  6
CONTINUOUS
 10
-1.211276
 20
2.926736
  0
VERTEX
  8
PLAN_1
  6
CONTINUOUS
 10
-1.213886
 20
2.917157
  0
VERTEX
  8
PLAN_1
  6
CONTINUOUS
 10
-1.216500
 20
2.907579
  0
VERTEX
  8
PLAN_1
  6
CONTINUOUS
 10
-1.218240
 20
2.897563
  0
VERTEX
  8
PLAN_1
  6
CONTINUOUS
 10
-1.220417
 20
2.887551
  0
VERTEX
  8
PLAN_1
  6
CONTINUOUS
 10
-1.221724
 20
2.877535
  0
VERTEX
  8
PLAN_1
  6
CONTINUOUS
 10
-1.223031
 20
2.867087
  0
VERTEX
  8
PLAN_1
  6
CONTINUOUS
 10
-1.223902
 20
2.857071
  0
VERTEX
  8
PLAN_1
  6
CONTINUOUS
 10
-1.224339
 20
2.846622
  0
VERTEX
  8
PLAN_1
  6
CONTINUOUS
 10
-1.224339
 20
2.836173
  0
VERTEX
  8
PLAN_1
  6
CONTINUOUS
 10
-1.223902
 20
2.819630
  0
VERTEX
  8
PLAN_1
  6
CONTINUOUS
 10
-1.223031
 20
2.803953
  0
VERTEX
  8
PLAN_1
  6
CONTINUOUS
 10
-1.220854
 20
2.788280
  0
VERTEX
  8
PLAN_1
  6
CONTINUOUS
 10
-1.218240
 20
2.772606
  0
VERTEX
  8
PLAN_1
  6
CONTINUOUS
 10
-1.214323
 20
2.757366
  0
VERTEX
  8
PLAN_1
  6
CONTINUOUS
 10
-1.210406
 20
2.742563
  0
VERTEX
  8
PLAN_1
  6
CONTINUOUS
 10
-1.205177
 20
2.727760
  0
VERTEX
  8
PLAN_1
  6
CONTINUOUS
 10
-1.199520
 20
2.713390
  0
VERTEX
  8
PLAN_1
  6
CONTINUOUS
 10
-1.193425
 20
2.699457
  0
VERTEX
  8
PLAN_1
  6
CONTINUOUS
 10
-1.186457
 20
2.685961
  0
VERTEX
  8
PLAN_1
  6
CONTINUOUS
 10
-1.179055
 20
2.672898
  0
VERTEX
  8
PLAN_1
  6
CONTINUOUS
 10
-1.170783
 20
2.659835
  0
VERTEX
  8
PLAN_1
  6
CONTINUOUS
 10
-1.162075
 20
2.647646
  0
VERTEX
  8
PLAN_1
  6
CONTINUOUS
 10
-1.152496
 20
2.635890
  0
VERTEX
  8
PLAN_1
  6
CONTINUOUS
 10
-1.142480
 20
2.624134
  0
VERTEX
  8
PLAN_1
  6
CONTINUOUS
 10
-1.132031
 20
2.613248
  0
VERTEX
  8
PLAN_1
  6
CONTINUOUS
 10
-1.121146
 20
2.602799
  0
VERTEX
  8
PLAN_1
  6
CONTINUOUS
 10
-1.109827
 20
2.593220
  0
VERTEX
  8
PLAN_1
  6
CONTINUOUS
 10
-1.098071
 20
2.583642
  0
VERTEX
  8
PLAN_1
  6
CONTINUOUS
 10
-1.085445
 20
2.574933
  0
VERTEX
  8
PLAN_1
  6
CONTINUOUS
 10
-1.072819
 20
2.566661
  0
VERTEX
  8
PLAN_1
  6
CONTINUOUS
 10
-1.059756
 20
2.559260
  0
VERTEX
  8
PLAN_1
  6
CONTINUOUS
 10
-1.046260
 20
2.552291
  0
VERTEX
  8
PLAN_1
  6
CONTINUOUS
 10
-1.032327
 20
2.545760
  0
VERTEX
  8
PLAN_1
  6
CONTINUOUS
 10
-1.017957
 20
2.540102
  0
VERTEX
  8
PLAN_1
  6
CONTINUOUS
 10
-1.003154
 20
2.535311
  0
VERTEX
  8
PLAN_1
  6
CONTINUOUS
 10
-0.988350
 20
2.530957
  0
VERTEX
  8
PLAN_1
  6
CONTINUOUS
 10
-0.973110
 20
2.527476
  0
VERTEX
  8
PLAN_1
  6
CONTINUOUS
 10
-0.957437
 20
2.524862
  0
VERTEX
  8
PLAN_1
  6
CONTINUOUS
 10
-0.941764
 20
2.522685
  0
VERTEX
  8
PLAN_1
  6
CONTINUOUS
 10
-0.925654
 20
2.521378
  0
VERTEX
  8
PLAN_1
  6
CONTINUOUS
 10
-0.909543
 20
2.521378
  0
VERTEX
  8
PLAN_1
  6
CONTINUOUS
 10
-0.895173
 20
2.521378
  0
VERTEX
  8
PLAN_1
  6
CONTINUOUS
 10
-0.881240
 20
2.522252
  0
VERTEX
  8
PLAN_1
  6
CONTINUOUS
 10
-0.867307
 20
2.523992
  0
VERTEX
  8
PLAN_1
  6
CONTINUOUS
 10
-0.853811
 20
2.526169
  0
VERTEX
  8
PLAN_1
  6
CONTINUOUS
 10
-0.840315
 20
2.528780
  0
VERTEX
  8
PLAN_1
  6
CONTINUOUS
 10
-0.827252
 20
2.532264
  0
VERTEX
  8
PLAN_1
  6
CONTINUOUS
 10
-0.814189
 20
2.535748
  0
VERTEX
  8
PLAN_1
  6
CONTINUOUS
 10
-0.801130
 20
2.540102
  0
VERTEX
  8
PLAN_1
  6
CONTINUOUS
 10
-0.788937
 20
2.545327
  0
VERTEX
  8
PLAN_1
  6
CONTINUOUS
 10
-0.776311
 20
2.550551
  0
VERTEX
  8
PLAN_1
  6
CONTINUOUS
 10
-0.764555
 20
2.556646
  0
VERTEX
  8
PLAN_1
  6
CONTINUOUS
 10
-0.752799
 20
2.562744
  0
VERTEX
  8
PLAN_1
  6
CONTINUOUS
 10
-0.741480
 20
2.569709
  0
VERTEX
  8
PLAN_1
  6
CONTINUOUS
 10
-0.730594
 20
2.577110
  0
VERTEX
  8
PLAN_1
  6
CONTINUOUS
 10
-0.719709
 20
2.584949
  0
VERTEX
  8
PLAN_1
  6
CONTINUOUS
 10
-0.709260
 20
2.593220
  0
VERTEX
  8
PLAN_1
  6
CONTINUOUS
 10
-0.699244
 20
2.601492
  0
VERTEX
  8
PLAN_1
  6
CONTINUOUS
 10
-0.689665
 20
2.610638
  0
VERTEX
  8
PLAN_1
  6
CONTINUOUS
 10
-0.680524
 20
2.620217
  0
VERTEX
  8
PLAN_1
  6
CONTINUOUS
 10
-0.671378
 20
2.629795
  0
VERTEX
  8
PLAN_1
  6
CONTINUOUS
 10
-0.663106
 20
2.640244
  0
VERTEX
  8
PLAN_1
  6
CONTINUOUS
 10
-0.654835
 20
2.650693
  0
VERTEX
  8
PLAN_1
  6
CONTINUOUS
 10
-0.647433
 20
2.661579
  0
VERTEX
  8
PLAN_1
  6
CONTINUOUS
 10
-0.640465
 20
2.672898
  0
VERTEX
  8
PLAN_1
  6
CONTINUOUS
 10
-0.633500
 20
2.684220
  0
VERTEX
  8
PLAN_1
  6
CONTINUOUS
 10
-0.627406
 20
2.695976
  0
VERTEX
  8
PLAN_1
  6
CONTINUOUS
 10
-0.621744
 20
2.708165
  0
VERTEX
  8
PLAN_1
  6
CONTINUOUS
 10
-0.616520
 20
2.720791
  0
VERTEX
  8
PLAN_1
  6
CONTINUOUS
 10
-0.611728
 20
2.733417
  0
VERTEX
  8
PLAN_1
  6
CONTINUOUS
 10
-0.607811
 20
2.746047
  0
VERTEX
  8
PLAN_1
  6
CONTINUOUS
 10
-0.604327
 20
2.759106
  0
VERTEX
  8
PLAN_1
  6
CONTINUOUS
 10
-0.601280
 20
2.772606
  0
SEQEND
  8
0
  0
POLYLINE
  8
PLAN_1
  6
CONTINUOUS
 66
     1
 40
0.008272
 41
0.008272
  0
VERTEX
  8
PLAN_1
  6
CONTINUOUS
 10
-0.909543
 20
2.718181
  0
VERTEX
  8
PLAN_1
  6
CONTINUOUS
 10
-0.903449
 20
2.718181
  0
VERTEX
  8
PLAN_1
  6
CONTINUOUS
 10
-0.897350
 20
2.718614
  0
VERTEX
  8
PLAN_1
  6
CONTINUOUS
 10
-0.891693
 20
2.719484
  0
VERTEX
  8
PLAN_1
  6
CONTINUOUS
 10
-0.885594
 20
2.720358
  0
VERTEX
  8
PLAN_1
  6
CONTINUOUS
 10
-0.879937
 20
2.721661
  0
VERTEX
  8
PLAN_1
  6
CONTINUOUS
 10
-0.874276
 20
2.723406
  0
VERTEX
  8
PLAN_1
  6
CONTINUOUS
 10
-0.869051
 20
2.725146
  0
VERTEX
  8
PLAN_1
  6
CONTINUOUS
 10
-0.863390
 20
2.727323
  0
VERTEX
  8
PLAN_1
  6
CONTINUOUS
 10
-0.858165
 20
2.729500
  0
VERTEX
  8
PLAN_1
  6
CONTINUOUS
 10
-0.853378
 20
2.732114
  0
VERTEX
  8
PLAN_1
  6
CONTINUOUS
 10
-0.848150
 20
2.735161
  0
VERTEX
  8
PLAN_1
  6
CONTINUOUS
 10
-0.843362
 20
2.738209
  0
VERTEX
  8
PLAN_1
  6
CONTINUOUS
 10
-0.839008
 20
2.741256
  0
VERTEX
  8
PLAN_1
  6
CONTINUOUS
 10
-0.834654
 20
2.744740
  0
VERTEX
  8
PLAN_1
  6
CONTINUOUS
 10
-0.830299
 20
2.748657
  0
VERTEX
  8
PLAN_1
  6
CONTINUOUS
 10
-0.825945
 20
2.752575
  0
VERTEX
  8
PLAN_1
  6
CONTINUOUS
 10
-0.822028
 20
2.756496
  0
VERTEX
  8
PLAN_1
  6
CONTINUOUS
 10
-0.818543
 20
2.760850
  0
VERTEX
  8
PLAN_1
  6
CONTINUOUS
 10
-0.815059
 20
2.765205
  0
VERTEX
  8
PLAN_1
  6
CONTINUOUS
 10
-0.811579
 20
2.769992
  0
VERTEX
  8
PLAN_1
  6
CONTINUOUS
 10
-0.808531
 20
2.774783
  0
VERTEX
  8
PLAN_1
  6
CONTINUOUS
 10
-0.805917
 20
2.779571
  0
VERTEX
  8
PLAN_1
  6
CONTINUOUS
 10
-0.803307
 20
2.784795
  0
VERTEX
  8
PLAN_1
  6
CONTINUOUS
 10
-0.800693
 20
2.790020
  0
VERTEX
  8
PLAN_1
  6
CONTINUOUS
 10
-0.798516
 20
2.795244
  0
VERTEX
  8
PLAN_1
  6
CONTINUOUS
 10
-0.796776
 20
2.800906
  0
VERTEX
  8
PLAN_1
  6
CONTINUOUS
 10
-0.795031
 20
2.806567
  0
VERTEX
  8
PLAN_1
  6
CONTINUOUS
 10
-0.793728
 20
2.812224
  0
VERTEX
  8
PLAN_1
  6
CONTINUOUS
 10
-0.792854
 20
2.817886
  0
VERTEX
  8
PLAN_1
  6
CONTINUOUS
 10
-0.791984
 20
2.823980
  0
VERTEX
  8
PLAN_1
  6
CONTINUOUS
 10
-0.791551
 20
2.830079
  0
VERTEX
  8
PLAN_1
  6
CONTINUOUS
 10
-0.791551
 20
2.836173
  0
VERTEX
  8
PLAN_1
  6
CONTINUOUS
 10
-0.791551
 20
2.842268
  0
VERTEX
  8
PLAN_1
  6
CONTINUOUS
 10
-0.791984
 20
2.847929
  0
VERTEX
  8
PLAN_1
  6
CONTINUOUS
 10
-0.792854
 20
2.854024
  0
VERTEX
  8
PLAN_1
  6
CONTINUOUS
 10
-0.793728
 20
2.859685
  0
VERTEX
  8
PLAN_1
  6
CONTINUOUS
 10
-0.795031
 20
2.865346
  0
VERTEX
  8
PLAN_1
  6
CONTINUOUS
 10
-0.796776
 20
2.871004
  0
VERTEX
  8
PLAN_1
  6
CONTINUOUS
 10
-0.798516
 20
2.876665
  0
VERTEX
  8
PLAN_1
  6
CONTINUOUS
 10
-0.800693
 20
2.881890
  0
VERTEX
  8
PLAN_1
  6
CONTINUOUS
 10
-0.803307
 20
2.887114
  0
VERTEX
  8
PLAN_1
  6
CONTINUOUS
 10
-0.805917
 20
2.892339
  0
VERTEX
  8
PLAN_1
  6
CONTINUOUS
 10
-0.808531
 20
2.897130
  0
VERTEX
  8
PLAN_1
  6
CONTINUOUS
 10
-0.811579
 20
2.901917
  0
VERTEX
  8
PLAN_1
  6
CONTINUOUS
 10
-0.815059
 20
2.906709
  0
VERTEX
  8
PLAN_1
  6
CONTINUOUS
 10
-0.818543
 20
2.911063
  0
VERTEX
  8
PLAN_1
  6
CONTINUOUS
 10
-0.822028
 20
2.915417
  0
VERTEX
  8
PLAN_1
  6
CONTINUOUS
 10
-0.825945
 20
2.919335
  0
VERTEX
  8
PLAN_1
  6
CONTINUOUS
 10
-0.830299
 20
2.923252
  0
VERTEX
  8
PLAN_1
  6
CONTINUOUS
 10
-0.834654
 20
2.927173
  0
VERTEX
  8
PLAN_1
  6
CONTINUOUS
 10
-0.839008
 20
2.930654
  0
VERTEX
  8
PLAN_1
  6
CONTINUOUS
 10
-0.843362
 20
2.934138
  0
VERTEX
  8
PLAN_1
  6
CONTINUOUS
 10
-0.848150
 20
2.937185
  0
VERTEX
  8
PLAN_1
  6
CONTINUOUS
 10
-0.853378
 20
2.939799
  0
VERTEX
  8
PLAN_1
  6
CONTINUOUS
 10
-0.858165
 20
2.942409
  0
VERTEX
  8
PLAN_1
  6
CONTINUOUS
 10
-0.863390
 20
2.945024
  0
VERTEX
  8
PLAN_1
  6
CONTINUOUS
 10
-0.869051
 20
2.946764
  0
VERTEX
  8
PLAN_1
  6
CONTINUOUS
 10
-0.874276
 20
2.948941
  0
VERTEX
  8
PLAN_1
  6
CONTINUOUS
 10
-0.879937
 20
2.950248
  0
VERTEX
  8
PLAN_1
  6
CONTINUOUS
 10
-0.885594
 20
2.951555
  0
VERTEX
  8
PLAN_1
  6
CONTINUOUS
 10
-0.891693
 20
2.952862
  0
VERTEX
  8
PLAN_1
  6
CONTINUOUS
 10
-0.897350
 20
2.953732
  0
VERTEX
  8
PLAN_1
  6
CONTINUOUS
 10
-0.903449
 20
2.954165
  0
VERTEX
  8
PLAN_1
  6
CONTINUOUS
 10
-0.909543
 20
2.954165
  0
VERTEX
  8
PLAN_1
  6
CONTINUOUS
 10
-0.915638
 20
2.954165
  0
VERTEX
  8
PLAN_1
  6
CONTINUOUS
 10
-0.921732
 20
2.953732
  0
VERTEX
  8
PLAN_1
  6
CONTINUOUS
 10
-0.927394
 20
2.952862
  0
VERTEX
  8
PLAN_1
  6
CONTINUOUS
 10
-0.933488
 20
2.951555
  0
VERTEX
  8
PLAN_1
  6
CONTINUOUS
 10
-0.939150
 20
2.950248
  0
VERTEX
  8
PLAN_1
  6
CONTINUOUS
 10
-0.944811
 20
2.948941
  0
VERTEX
  8
PLAN_1
  6
CONTINUOUS
 10
-0.950035
 20
2.946764
  0
VERTEX
  8
PLAN_1
  6
CONTINUOUS
 10
-0.955697
 20
2.945024
  0
VERTEX
  8
PLAN_1
  6
CONTINUOUS
 10
-0.960921
 20
2.942409
  0
VERTEX
  8
PLAN_1
  6
CONTINUOUS
 10
-0.965709
 20
2.939799
  0
VERTEX
  8
PLAN_1
  6
CONTINUOUS
 10
-0.970933
 20
2.937185
  0
VERTEX
  8
PLAN_1
  6
CONTINUOUS
 10
-0.975724
 20
2.934138
  0
VERTEX
  8
PLAN_1
  6
CONTINUOUS
 10
-0.980079
 20
2.930654
  0
VERTEX
  8
PLAN_1
  6
CONTINUOUS
 10
-0.984866
 20
2.927173
  0
VERTEX
  8
PLAN_1
  6
CONTINUOUS
 10
-0.988787
 20
2.923252
  0
VERTEX
  8
PLAN_1
  6
CONTINUOUS
 10
-0.993138
 20
2.919335
  0
VERTEX
  8
PLAN_1
  6
CONTINUOUS
 10
-0.997059
 20
2.915417
  0
VERTEX
  8
PLAN_1
  6
CONTINUOUS
 10
-1.000539
 20
2.911063
  0
VERTEX
  8
PLAN_1
  6
CONTINUOUS
 10
-1.004024
 20
2.906709
  0
VERTEX
  8
PLAN_1
  6
CONTINUOUS
 10
-1.007508
 20
2.901917
  0
VERTEX
  8
PLAN_1
  6
CONTINUOUS
 10
-1.010555
 20
2.897130
  0
VERTEX
  8
PLAN_1
  6
CONTINUOUS
 10
-1.013602
 20
2.892339
  0
VERTEX
  8
PLAN_1
  6
CONTINUOUS
 10
-1.016217
 20
2.887114
  0
VERTEX
  8
PLAN_1
  6
CONTINUOUS
 10
-1.018394
 20
2.881890
  0
VERTEX
  8
PLAN_1
  6
CONTINUOUS
 10
-1.020571
 20
2.876665
  0
VERTEX
  8
PLAN_1
  6
CONTINUOUS
 10
-1.022311
 20
2.871004
  0
VERTEX
  8
PLAN_1
  6
CONTINUOUS
 10
-1.024051
 20
2.865346
  0
VERTEX
  8
PLAN_1
  6
CONTINUOUS
 10
-1.025358
 20
2.859685
  0
VERTEX
  8
PLAN_1
  6
CONTINUOUS
 10
-1.026228
 20
2.854024
  0
VERTEX
  8
PLAN_1
  6
CONTINUOUS
 10
-1.027102
 20
2.847929
  0
VERTEX
  8
PLAN_1
  6
CONTINUOUS
 10
-1.027535
 20
2.842268
  0
VERTEX
  8
PLAN_1
  6
CONTINUOUS
 10
-1.027535
 20
2.836173
  0
VERTEX
  8
PLAN_1
  6
CONTINUOUS
 10
-1.027535
 20
2.830079
  0
VERTEX
  8
PLAN_1
  6
CONTINUOUS
 10
-1.027102
 20
2.823980
  0
VERTEX
  8
PLAN_1
  6
CONTINUOUS
 10
-1.026228
 20
2.817886
  0
VERTEX
  8
PLAN_1
  6
CONTINUOUS
 10
-1.025358
 20
2.812224
  0
VERTEX
  8
PLAN_1
  6
CONTINUOUS
 10
-1.024051
 20
2.806567
  0
VERTEX
  8
PLAN_1
  6
CONTINUOUS
 10
-1.022311
 20
2.800906
  0
VERTEX
  8
PLAN_1
  6
CONTINUOUS
 10
-1.020571
 20
2.795244
  0
VERTEX
  8
PLAN_1
  6
CONTINUOUS
 10
-1.018394
 20
2.790020
  0
VERTEX
  8
PLAN_1
  6
CONTINUOUS
 10
-1.016217
 20
2.784795
  0
VERTEX
  8
PLAN_1
  6
CONTINUOUS
 10
-1.013602
 20
2.779571
  0
VERTEX
  8
PLAN_1
  6
CONTINUOUS
 10
-1.010555
 20
2.774783
  0
VERTEX
  8
PLAN_1
  6
CONTINUOUS
 10
-1.007508
 20
2.769992
  0
VERTEX
  8
PLAN_1
  6
CONTINUOUS
 10
-1.004024
 20
2.765205
  0
VERTEX
  8
PLAN_1
  6
CONTINUOUS
 10
-1.000539
 20
2.760850
  0
VERTEX
  8
PLAN_1
  6
CONTINUOUS
 10
-0.997059
 20
2.756496
  0
VERTEX
  8
PLAN_1
  6
CONTINUOUS
 10
-0.993138
 20
2.752575
  0
VERTEX
  8
PLAN_1
  6
CONTINUOUS
 10
-0.988787
 20
2.748657
  0
VERTEX
  8
PLAN_1
  6
CONTINUOUS
 10
-0.984866
 20
2.744740
  0
VERTEX
  8
PLAN_1
  6
CONTINUOUS
 10
-0.980079
 20
2.741256
  0
VERTEX
  8
PLAN_1
  6
CONTINUOUS
 10
-0.975724
 20
2.738209
  0
VERTEX
  8
PLAN_1
  6
CONTINUOUS
 10
-0.970933
 20
2.735161
  0
VERTEX
  8
PLAN_1
  6
CONTINUOUS
 10
-0.965709
 20
2.732114
  0
VERTEX
  8
PLAN_1
  6
CONTINUOUS
 10
-0.960921
 20
2.729500
  0
VERTEX
  8
PLAN_1
  6
CONTINUOUS
 10
-0.955697
 20
2.727323
  0
VERTEX
  8
PLAN_1
  6
CONTINUOUS
 10
-0.950035
 20
2.725146
  0
VERTEX
  8
PLAN_1
  6
CONTINUOUS
 10
-0.944811
 20
2.723406
  0
VERTEX
  8
PLAN_1
  6
CONTINUOUS
 10
-0.939150
 20
2.721661
  0
VERTEX
  8
PLAN_1
  6
CONTINUOUS
 10
-0.933488
 20
2.720358
  0
VERTEX
  8
PLAN_1
  6
CONTINUOUS
 10
-0.927394
 20
2.719484
  0
VERTEX
  8
PLAN_1
  6
CONTINUOUS
 10
-0.921732
 20
2.718614
  0
VERTEX
  8
PLAN_1
  6
CONTINUOUS
 10
-0.915638
 20
2.718181
  0
VERTEX
  8
PLAN_1
  6
CONTINUOUS
 10
-0.909543
 20
2.718181
  0
SEQEND
  8
0
  0
POLYLINE
  8
PLAN_1
  6
CONTINUOUS
 66
     1
 40
0.008272
 41
0.008272
  0
VERTEX
  8
PLAN_1
  6
CONTINUOUS
 10
-1.677587
 20
2.520945
  0
VERTEX
  8
PLAN_1
  6
CONTINUOUS
 10
-1.666701
 20
2.524425
  0
VERTEX
  8
PLAN_1
  6
CONTINUOUS
 10
-1.656252
 20
2.527476
  0
VERTEX
  8
PLAN_1
  6
CONTINUOUS
 10
-1.646673
 20
2.529654
  0
VERTEX
  8
PLAN_1
  6
CONTINUOUS
 10
-1.637094
 20
2.531394
  0
VERTEX
  8
PLAN_1
  6
CONTINUOUS
 10
-1.627953
 20
2.532701
  0
VERTEX
  8
PLAN_1
  6
CONTINUOUS
 10
-1.619681
 20
2.533134
  0
VERTEX
  8
PLAN_1
  6
CONTINUOUS
 10
-1.611406
 20
2.533134
  0
VERTEX
  8
PLAN_1
  6
CONTINUOUS
 10
-1.604004
 20
2.533134
  0
VERTEX
  8
PLAN_1
  6
CONTINUOUS
 10
-1.596602
 20
2.532264
  0
VERTEX
  8
PLAN_1
  6
CONTINUOUS
 10
-1.589638
 20
2.531394
  0
VERTEX
  8
PLAN_1
  6
CONTINUOUS
 10
-1.583106
 20
2.529654
  0
VERTEX
  8
PLAN_1
  6
CONTINUOUS
 10
-1.577012
 20
2.527909
  0
VERTEX
  8
PLAN_1
  6
CONTINUOUS
 10
-1.571350
 20
2.526169
  0
VERTEX
  8
PLAN_1
  6
CONTINUOUS
 10
-1.566126
 20
2.523992
  0
VERTEX
  8
PLAN_1
  6
CONTINUOUS
 10
-1.561335
 20
2.521378
  0
VERTEX
  8
PLAN_1
  6
CONTINUOUS
 10
-1.556547
 20
2.518768
  0
VERTEX
  8
PLAN_1
  6
CONTINUOUS
 10
-1.552193
 20
2.516154
  0
VERTEX
  8
PLAN_1
  6
CONTINUOUS
 10
-1.548276
 20
2.513543
  0
VERTEX
  8
PLAN_1
  6
CONTINUOUS
 10
-1.544791
 20
2.510496
  0
VERTEX
  8
PLAN_1
  6
CONTINUOUS
 10
-1.541307
 20
2.507882
  0
VERTEX
  8
PLAN_1
  6
CONTINUOUS
 10
-1.535646
 20
2.502220
  0
VERTEX
  8
PLAN_1
  6
CONTINUOUS
 10
-1.531295
 20
2.496996
  0
VERTEX
  8
PLAN_1
  6
CONTINUOUS
 10
-1.525634
 20
2.488724
  0
VERTEX
  8
PLAN_1
  6
CONTINUOUS
 10
-1.523890
 20
2.485240
  0
SEQEND
  8
0
  0
POLYLINE
  8
PLAN_1
  6
CONTINUOUS
 66
     1
 40
0.008272
 41
0.008272
  0
VERTEX
  8
PLAN_1
  6
CONTINUOUS
 10
-1.523890
 20
2.485240
  0
VERTEX
  8
PLAN_1
  6
CONTINUOUS
 10
-1.450311
 20
2.320661
  0
VERTEX
  8
PLAN_1
  6
CONTINUOUS
 10
-1.489059
 20
2.173059
  0
SEQEND
  8
0
  0
POLYLINE
  8
PLAN_1
  6
CONTINUOUS
 66
     1
 40
0.008272
 41
0.008272
  0
VERTEX
  8
PLAN_1
  6
CONTINUOUS
 10
-1.466417
 20
2.356362
  0
VERTEX
  8
PLAN_1
  6
CONTINUOUS
 10
-1.678024
 20
2.262315
  0
VERTEX
  8
PLAN_1
  6
CONTINUOUS
 10
-1.613150
 20
2.117764
  0
SEQEND
  8
0
  0
POLYLINE
  8
PLAN_1
  6
CONTINUOUS
 66
     1
 40
0.006965
 41
0.006965
  0
VERTEX
  8
PLAN_1
  6
CONTINUOUS
 10
-1.403720
 20
1.345366
  0
VERTEX
  8
PLAN_1
  6
CONTINUOUS
 10
-1.403287
 20
1.424606
  0
VERTEX
  8
PLAN_1
  6
CONTINUOUS
 10
-1.442906
 20
1.424606
  0
SEQEND
  8
0
  0
POLYLINE
  8
PLAN_1
  6
CONTINUOUS
 66
     1
 40
0.006965
 41
0.006965
  0
VERTEX
  8
PLAN_1
  6
CONTINUOUS
 10
-0.421024
 20
1.345366
  0
VERTEX
  8
PLAN_1
  6
CONTINUOUS
 10
-0.421024
 20
1.424606
  0
VERTEX
  8
PLAN_1
  6
CONTINUOUS
 10
-0.381402
 20
1.424606
  0
SEQEND
  8
0
  0
POLYLINE
  8
PLAN_1
  6
CONTINUOUS
 66
     1
 40
0.008272
 41
0.008272
  0
VERTEX
  8
PLAN_1
  6
CONTINUOUS
 10
-0.380098
 20
1.340142
  0
VERTEX
  8
PLAN_1
  6
CONTINUOUS
 10
-0.380098
 20
1.654933
  0
VERTEX
  8
PLAN_1
  6
CONTINUOUS
 10
-1.442906
 20
1.654933
  0
VERTEX
  8
PLAN_1
  6
CONTINUOUS
 10
-1.442906
 20
1.340142
  0
VERTEX
  8
PLAN_1
  6
CONTINUOUS
 10
-0.380098
 20
1.340142
  0
SEQEND
  8
0
  0
POLYLINE
  8
PLAN_1
  6
CONTINUOUS
 66
     1
 40
0.008272
 41
0.008272
  0
VERTEX
  8
PLAN_1
  6
CONTINUOUS
 10
-1.305323
 20
1.895709
  0
VERTEX
  8
PLAN_1
  6
CONTINUOUS
 10
-1.305323
 20
1.846945
  0
SEQEND
  8
0
  0
POLYLINE
  8
PLAN_1
  6
CONTINUOUS
 66
     1
 40
0.008272
 41
0.008272
  0
VERTEX
  8
PLAN_1
  6
CONTINUOUS
 10
-0.518118
 20
1.848685
  0
VERTEX
  8
PLAN_1
  6
CONTINUOUS
 10
-0.518118
 20
1.895709
  0
SEQEND
  8
0
  0
POLYLINE
  8
PLAN_1
  6
CONTINUOUS
 66
     1
 40
0.008272
 41
0.008272
  0
VERTEX
  8
PLAN_1
  6
CONTINUOUS
 10
-1.305323
 20
1.896146
  0
VERTEX
  8
PLAN_1
  6
CONTINUOUS
 10
-1.252638
 20
2.108622
  0
SEQEND
  8
0
  0
POLYLINE
  8
PLAN_1
  6
CONTINUOUS
 66
     1
 40
0.008272
 41
0.008272
  0
VERTEX
  8
PLAN_1
  6
CONTINUOUS
 10
-1.252638
 20
2.108622
  0
VERTEX
  8
PLAN_1
  6
CONTINUOUS
 10
-1.250461
 20
2.113409
  0
VERTEX
  8
PLAN_1
  6
CONTINUOUS
 10
-1.247846
 20
2.117764
  0
VERTEX
  8
PLAN_1
  6
CONTINUOUS
 10
-1.244366
 20
2.122118
  0
VERTEX
  8
PLAN_1
  6
CONTINUOUS
 10
-1.240445
 20
2.125165
  0
VERTEX
  8
PLAN_1
  6
CONTINUOUS
 10
-1.236091
 20
2.128213
  0
VERTEX
  8
PLAN_1
  6
CONTINUOUS
 10
-1.231303
 20
2.130390
  0
VERTEX
  8
PLAN_1
  6
CONTINUOUS
 10
-1.228689
 20
2.130827
  0
VERTEX
  8
PLAN_1
  6
CONTINUOUS
 10
-1.226079
 20
2.131697
  0
VERTEX
  8
PLAN_1
  6
CONTINUOUS
 10
-1.223465
 20
2.131697
  0
VERTEX
  8
PLAN_1
  6
CONTINUOUS
 10
-1.220417
 20
2.132134
  0
SEQEND
  8
0
  0
POLYLINE
  8
PLAN_1
  6
CONTINUOUS
 66
     1
 40
0.008272
 41
0.008272
  0
VERTEX
  8
PLAN_1
  6
CONTINUOUS
 10
-1.220417
 20
2.132134
  0
VERTEX
  8
PLAN_1
  6
CONTINUOUS
 10
-0.601717
 20
2.132134
  0
SEQEND
  8
0
  0
POLYLINE
  8
PLAN_1
  6
CONTINUOUS
 66
     1
 40
0.008272
 41
0.008272
  0
VERTEX
  8
PLAN_1
  6
CONTINUOUS
 10
-0.601717
 20
2.132134
  0
VERTEX
  8
PLAN_1
  6
CONTINUOUS
 10
-0.598232
 20
2.131697
  0
VERTEX
  8
PLAN_1
  6
CONTINUOUS
 10
-0.594748
 20
2.131260
  0
VERTEX
  8
PLAN_1
  6
CONTINUOUS
 10
-0.591701
 20
2.130390
  0
VERTEX
  8
PLAN_1
  6
CONTINUOUS
 10
-0.588654
 20
2.129083
  0
VERTEX
  8
PLAN_1
  6
CONTINUOUS
 10
-0.585606
 20
2.127780
  0
VERTEX
  8
PLAN_1
  6
CONTINUOUS
 10
-0.582992
 20
2.126035
  0
VERTEX
  8
PLAN_1
  6
CONTINUOUS
 10
-0.580382
 20
2.124295
  0
VERTEX
  8
PLAN_1
  6
CONTINUOUS
 10
-0.577768
 20
2.122118
  0
VERTEX
  8
PLAN_1
  6
CONTINUOUS
 10
-0.575591
 20
2.119504
  0
VERTEX
  8
PLAN_1
  6
CONTINUOUS
 10
-0.573850
 20
2.116894
  0
VERTEX
  8
PLAN_1
  6
CONTINUOUS
 10
-0.572106
 20
2.114280
  0
VERTEX
  8
PLAN_1
  6
CONTINUOUS
 10
-0.570803
 20
2.111232
  0
VERTEX
  8
PLAN_1
  6
CONTINUOUS
 10
-0.569496
 20
2.108185
  0
VERTEX
  8
PLAN_1
  6
CONTINUOUS
 10
-0.568626
 20
2.105138
  0
VERTEX
  8
PLAN_1
  6
CONTINUOUS
 10
-0.568189
 20
2.101654
  0
VERTEX
  8
PLAN_1
  6
CONTINUOUS
 10
-0.568189
 20
2.098169
  0
SEQEND
  8
0
  0
POLYLINE
  8
PLAN_1
  6
CONTINUOUS
 66
     1
 40
0.008272
 41
0.008272
  0
VERTEX
  8
PLAN_1
  6
CONTINUOUS
 10
-0.568189
 20
2.098169
  0
VERTEX
  8
PLAN_1
  6
CONTINUOUS
 10
-0.518118
 20
1.896146
  0
SEQEND
  8
0
  0
POLYLINE
  8
PLAN_1
  6
CONTINUOUS
 66
     1
 40
0.008272
 41
0.008272
  0
VERTEX
  8
PLAN_1
  6
CONTINUOUS
 10
-0.714484
 20
2.231839
  0
VERTEX
  8
PLAN_1
  6
CONTINUOUS
 10
-0.723626
 20
2.239240
  0
VERTEX
  8
PLAN_1
  6
CONTINUOUS
 10
-0.733205
 20
2.246642
  0
VERTEX
  8
PLAN_1
  6
CONTINUOUS
 10
-0.743654
 20
2.253610
  0
VERTEX
  8
PLAN_1
  6
CONTINUOUS
 10
-0.754106
 20
2.259705
  0
VERTEX
  8
PLAN_1
  6
CONTINUOUS
 10
-0.764988
 20
2.265799
  0
VERTEX
  8
PLAN_1
  6
CONTINUOUS
 10
-0.776744
 20
2.271461
  0
VERTEX
  8
PLAN_1
  6
CONTINUOUS
 10
-0.788500
 20
2.276685
  0
VERTEX
  8
PLAN_1
  6
CONTINUOUS
 10
-0.801130
 20
2.281039
  0
VERTEX
  8
PLAN_1
  6
CONTINUOUS
 10
-0.813756
 20
2.285394
  0
VERTEX
  8
PLAN_1
  6
CONTINUOUS
 10
-0.826815
 20
2.288874
  0
VERTEX
  8
PLAN_1
  6
CONTINUOUS
 10
-0.840315
 20
2.292358
  0
VERTEX
  8
PLAN_1
  6
CONTINUOUS
 10
-0.853811
 20
2.294972
  0
VERTEX
  8
PLAN_1
  6
CONTINUOUS
 10
-0.868181
 20
2.296713
  0
VERTEX
  8
PLAN_1
  6
CONTINUOUS
 10
-0.882114
 20
2.298453
  0
VERTEX
  8
PLAN_1
  6
CONTINUOUS
 10
-0.896917
 20
2.299327
  0
VERTEX
  8
PLAN_1
  6
CONTINUOUS
 10
-0.911720
 20
2.299760
  0
VERTEX
  8
PLAN_1
  6
CONTINUOUS
 10
-0.926524
 20
2.299327
  0
VERTEX
  8
PLAN_1
  6
CONTINUOUS
 10
-0.940890
 20
2.298453
  0
VERTEX
  8
PLAN_1
  6
CONTINUOUS
 10
-0.955260
 20
2.296713
  0
VERTEX
  8
PLAN_1
  6
CONTINUOUS
 10
-0.969193
 20
2.294972
  0
VERTEX
  8
PLAN_1
  6
CONTINUOUS
 10
-0.983126
 20
2.292358
  0
VERTEX
  8
PLAN_1
  6
CONTINUOUS
 10
-0.996622
 20
2.288874
  0
VERTEX
  8
PLAN_1
  6
CONTINUOUS
 10
-1.009685
 20
2.285394
  0
VERTEX
  8
PLAN_1
  6
CONTINUOUS
 10
-1.022311
 20
2.281039
  0
VERTEX
  8
PLAN_1
  6
CONTINUOUS
 10
-1.034504
 20
2.276685
  0
VERTEX
  8
PLAN_1
  6
CONTINUOUS
 10
-1.046693
 20
2.271461
  0
VERTEX
  8
PLAN_1
  6
CONTINUOUS
 10
-1.058016
 20
2.265799
  0
VERTEX
  8
PLAN_1
  6
CONTINUOUS
 10
-1.069335
 20
2.259705
  0
VERTEX
  8
PLAN_1
  6
CONTINUOUS
 10
-1.079783
 20
2.253173
  0
VERTEX
  8
PLAN_1
  6
CONTINUOUS
 10
-1.089799
 20
2.246642
  0
VERTEX
  8
PLAN_1
  6
CONTINUOUS
 10
-1.099378
 20
2.239240
  0
VERTEX
  8
PLAN_1
  6
CONTINUOUS
 10
-1.108520
 20
2.231839
  0
SEQEND
  8
0
  0
POLYLINE
  8
PLAN_1
  6
CONTINUOUS
 66
     1
 40
0.008272
 41
0.008272
  0
VERTEX
  8
PLAN_1
  6
CONTINUOUS
 10
-1.108520
 20
2.231839
  0
VERTEX
  8
PLAN_1
  6
CONTINUOUS
 10
-1.108520
 20
2.132134
  0
VERTEX
  8
PLAN_1
  6
CONTINUOUS
 10
-0.714917
 20
2.132134
  0
VERTEX
  8
PLAN_1
  6
CONTINUOUS
 10
-0.714484
 20
2.231839
  0
SEQEND
  8
0
  0
POLYLINE
  8
PLAN_1
  6
CONTINUOUS
 66
     1
 40
0.006965
 41
0.006965
  0
VERTEX
  8
PLAN_1
  6
CONTINUOUS
 10
-1.313594
 20
1.847382
  0
VERTEX
  8
PLAN_1
  6
CONTINUOUS
 10
-1.226079
 20
1.847382
  0
VERTEX
  8
PLAN_1
  6
CONTINUOUS
 10
-1.226079
 20
1.790780
  0
VERTEX
  8
PLAN_1
  6
CONTINUOUS
 10
-1.442472
 20
1.790780
  0
VERTEX
  8
PLAN_1
  6
CONTINUOUS
 10
-1.442472
 20
1.847382
  0
VERTEX
  8
PLAN_1
  6
CONTINUOUS
 10
-1.354957
 20
1.847382
  0
VERTEX
  8
PLAN_1
  6
CONTINUOUS
 10
-1.354957
 20
1.846945
  0
VERTEX
  8
PLAN_1
  6
CONTINUOUS
 10
-1.354957
 20
1.816902
  0
VERTEX
  8
PLAN_1
  6
CONTINUOUS
 10
-1.313594
 20
1.816902
  0
VERTEX
  8
PLAN_1
  6
CONTINUOUS
 10
-1.313594
 20
1.846945
  0
VERTEX
  8
PLAN_1
  6
CONTINUOUS
 10
-1.313594
 20
1.847382
  0
SEQEND
  8
0
  0
POLYLINE
  8
PLAN_1
  6
CONTINUOUS
 66
     1
 40
0.006965
 41
0.006965
  0
VERTEX
  8
PLAN_1
  6
CONTINUOUS
 10
-0.468047
 20
1.847382
  0
VERTEX
  8
PLAN_1
  6
CONTINUOUS
 10
-0.380531
 20
1.847382
  0
VERTEX
  8
PLAN_1
  6
CONTINUOUS
 10
-0.380531
 20
1.790780
  0
VERTEX
  8
PLAN_1
  6
CONTINUOUS
 10
-0.597362
 20
1.790780
  0
VERTEX
  8
PLAN_1
  6
CONTINUOUS
 10
-0.597362
 20
1.847382
  0
VERTEX
  8
PLAN_1
  6
CONTINUOUS
 10
-0.509846
 20
1.847382
  0
VERTEX
  8
PLAN_1
  6
CONTINUOUS
 10
-0.509409
 20
1.846945
  0
VERTEX
  8
PLAN_1
  6
CONTINUOUS
 10
-0.509409
 20
1.816902
  0
VERTEX
  8
PLAN_1
  6
CONTINUOUS
 10
-0.468484
 20
1.816902
  0
VERTEX
  8
PLAN_1
  6
CONTINUOUS
 10
-0.468484
 20
1.846945
  0
VERTEX
  8
PLAN_1
  6
CONTINUOUS
 10
-0.468047
 20
1.847382
  0
SEQEND
  8
0
  0
POLYLINE
  8
PLAN_1
  6
CONTINUOUS
 66
     1
 40
0.006965
 41
0.006965
  0
VERTEX
  8
PLAN_1
  6
CONTINUOUS
 10
-1.445520
 20
1.790780
  0
VERTEX
  8
PLAN_1
  6
CONTINUOUS
 10
-1.445520
 20
1.658417
  0
SEQEND
  8
0
  0
POLYLINE
  8
PLAN_1
  6
CONTINUOUS
 66
     1
 40
0.006965
 41
0.006965
  0
VERTEX
  8
PLAN_1
  6
CONTINUOUS
 10
-0.381839
 20
1.790780
  0
VERTEX
  8
PLAN_1
  6
CONTINUOUS
 10
-0.381839
 20
1.658417
  0
SEQEND
  8
0
  0
POLYLINE
  8
PLAN_1
  6
CONTINUOUS
 66
     1
 40
0.006965
 41
0.006965
  0
VERTEX
  8
PLAN_1
  6
CONTINUOUS
 10
-1.678457
 20
1.790780
  0
VERTEX
  8
PLAN_1
  6
CONTINUOUS
 10
-1.678457
 20
1.716760
  0
VERTEX
  8
PLAN_1
  6
CONTINUOUS
 10
-1.678457
 20
1.718504
  0
SEQEND
  8
0
  0
POLYLINE
  8
PLAN_1
  6
CONTINUOUS
 66
     1
 40
0.006965
 41
0.006965
  0
VERTEX
  8
PLAN_1
  6
CONTINUOUS
 10
-1.678457
 20
1.718504
  0
VERTEX
  8
PLAN_1
  6
CONTINUOUS
 10
-1.678457
 20
1.712406
  0
VERTEX
  8
PLAN_1
  6
CONTINUOUS
 10
-1.678024
 20
1.706748
  0
VERTEX
  8
PLAN_1
  6
CONTINUOUS
 10
-1.677587
 20
1.701087
  0
VERTEX
  8
PLAN_1
  6
CONTINUOUS
 10
-1.676280
 20
1.696295
  0
VERTEX
  8
PLAN_1
  6
CONTINUOUS
 10
-1.675409
 20
1.691508
  0
VERTEX
  8
PLAN_1
  6
CONTINUOUS
 10
-1.673669
 20
1.687154
  0
VERTEX
  8
PLAN_1
  6
CONTINUOUS
 10
-1.671929
 20
1.683236
  0
VERTEX
  8
PLAN_1
  6
CONTINUOUS
 10
-1.669752
 20
1.679752
  0
VERTEX
  8
PLAN_1
  6
CONTINUOUS
 10
-1.667575
 20
1.676705
  0
VERTEX
  8
PLAN_1
  6
CONTINUOUS
 10
-1.665398
 20
1.673657
  0
VERTEX
  8
PLAN_1
  6
CONTINUOUS
 10
-1.662783
 20
1.671043
  0
VERTEX
  8
PLAN_1
  6
CONTINUOUS
 10
-1.660173
 20
1.668433
  0
VERTEX
  8
PLAN_1
  6
CONTINUOUS
 10
-1.657559
 20
1.666256
  0
VERTEX
  8
PLAN_1
  6
CONTINUOUS
 10
-1.654949
 20
1.664512
  0
VERTEX
  8
PLAN_1
  6
CONTINUOUS
 10
-1.651898
 20
1.662772
  0
VERTEX
  8
PLAN_1
  6
CONTINUOUS
 10
-1.649287
 20
1.661031
  0
VERTEX
  8
PLAN_1
  6
CONTINUOUS
 10
-1.643626
 20
1.658854
  0
VERTEX
  8
PLAN_1
  6
CONTINUOUS
 10
-1.637965
 20
1.657110
  0
VERTEX
  8
PLAN_1
  6
CONTINUOUS
 10
-1.632740
 20
1.656240
  0
VERTEX
  8
PLAN_1
  6
CONTINUOUS
 10
-1.628386
 20
1.655370
  0
VERTEX
  8
PLAN_1
  6
CONTINUOUS
 10
-1.621421
 20
1.655370
  0
VERTEX
  8
PLAN_1
  6
CONTINUOUS
 10
-1.618807
 20
1.655370
  0
SEQEND
  8
0
  0
POLYLINE
  8
PLAN_1
  6
CONTINUOUS
 66
     1
 40
0.008272
 41
0.008272
  0
VERTEX
  8
PLAN_1
  6
CONTINUOUS
 10
-0.518118
 20
1.895709
  0
VERTEX
  8
PLAN_1
  6
CONTINUOUS
 10
-1.305323
 20
1.895709
  0
SEQEND
  8
0
  0
POLYLINE
  8
PLAN_1
  6
CONTINUOUS
 66
     1
 40
0.008272
 41
0.008272
  0
VERTEX
  8
PLAN_1
  6
CONTINUOUS
 10
-0.717531
 20
2.220520
  0
VERTEX
  8
PLAN_1
  6
CONTINUOUS
 10
-1.111134
 20
2.220520
  0
SEQEND
  8
0
  0
POLYLINE
  8
PLAN_1
  6
CONTINUOUS
 66
     1
 40
0.006965
 41
0.006965
  0
VERTEX
  8
PLAN_1
  6
CONTINUOUS
 10
-0.909543
 20
2.777394
  0
VERTEX
  8
PLAN_1
  6
CONTINUOUS
 10
-0.903449
 20
2.777831
  0
VERTEX
  8
PLAN_1
  6
CONTINUOUS
 10
-0.897787
 20
2.778701
  0
VERTEX
  8
PLAN_1
  6
CONTINUOUS
 10
-0.892126
 20
2.780008
  0
VERTEX
  8
PLAN_1
  6
CONTINUOUS
 10
-0.886469
 20
2.782185
  0
VERTEX
  8
PLAN_1
  6
CONTINUOUS
 10
-0.881677
 20
2.784362
  0
VERTEX
  8
PLAN_1
  6
CONTINUOUS
 10
-0.876453
 20
2.787409
  0
VERTEX
  8
PLAN_1
  6
CONTINUOUS
 10
-0.872098
 20
2.790890
  0
VERTEX
  8
PLAN_1
  6
CONTINUOUS
 10
-0.867744
 20
2.794811
  0
VERTEX
  8
PLAN_1
  6
CONTINUOUS
 10
-0.864260
 20
2.798728
  0
VERTEX
  8
PLAN_1
  6
CONTINUOUS
 10
-0.860780
 20
2.803520
  0
VERTEX
  8
PLAN_1
  6
CONTINUOUS
 10
-0.857728
 20
2.808307
  0
VERTEX
  8
PLAN_1
  6
CONTINUOUS
 10
-0.855118
 20
2.813531
  0
VERTEX
  8
PLAN_1
  6
CONTINUOUS
 10
-0.853378
 20
2.818756
  0
VERTEX
  8
PLAN_1
  6
CONTINUOUS
 10
-0.851634
 20
2.824417
  0
VERTEX
  8
PLAN_1
  6
CONTINUOUS
 10
-0.850764
 20
2.830512
  0
VERTEX
  8
PLAN_1
  6
CONTINUOUS
 10
-0.850764
 20
2.836610
  0
VERTEX
  8
PLAN_1
  6
CONTINUOUS
 10
-0.850764
 20
2.842268
  0
VERTEX
  8
PLAN_1
  6
CONTINUOUS
 10
-0.851634
 20
2.848366
  0
VERTEX
  8
PLAN_1
  6
CONTINUOUS
 10
-0.853378
 20
2.854024
  0
VERTEX
  8
PLAN_1
  6
CONTINUOUS
 10
-0.855118
 20
2.859248
  0
VERTEX
  8
PLAN_1
  6
CONTINUOUS
 10
-0.857728
 20
2.864472
  0
VERTEX
  8
PLAN_1
  6
CONTINUOUS
 10
-0.860780
 20
2.869264
  0
VERTEX
  8
PLAN_1
  6
CONTINUOUS
 10
-0.864260
 20
2.874051
  0
VERTEX
  8
PLAN_1
  6
CONTINUOUS
 10
-0.867744
 20
2.877972
  0
VERTEX
  8
PLAN_1
  6
CONTINUOUS
 10
-0.872098
 20
2.881890
  0
VERTEX
  8
PLAN_1
  6
CONTINUOUS
 10
-0.876453
 20
2.885374
  0
VERTEX
  8
PLAN_1
  6
CONTINUOUS
 10
-0.881677
 20
2.888421
  0
VERTEX
  8
PLAN_1
  6
CONTINUOUS
 10
-0.886469
 20
2.890598
  0
VERTEX
  8
PLAN_1
  6
CONTINUOUS
 10
-0.892126
 20
2.892776
  0
VERTEX
  8
PLAN_1
  6
CONTINUOUS
 10
-0.897787
 20
2.894083
  0
VERTEX
  8
PLAN_1
  6
CONTINUOUS
 10
-0.903449
 20
2.894953
  0
VERTEX
  8
PLAN_1
  6
CONTINUOUS
 10
-0.909543
 20
2.895386
  0
VERTEX
  8
PLAN_1
  6
CONTINUOUS
 10
-0.915638
 20
2.894953
  0
VERTEX
  8
PLAN_1
  6
CONTINUOUS
 10
-0.921732
 20
2.894083
  0
VERTEX
  8
PLAN_1
  6
CONTINUOUS
 10
-0.927394
 20
2.892776
  0
VERTEX
  8
PLAN_1
  6
CONTINUOUS
 10
-0.932618
 20
2.890598
  0
VERTEX
  8
PLAN_1
  6
CONTINUOUS
 10
-0.937843
 20
2.888421
  0
VERTEX
  8
PLAN_1
  6
CONTINUOUS
 10
-0.942634
 20
2.885374
  0
VERTEX
  8
PLAN_1
  6
CONTINUOUS
 10
-0.946988
 20
2.881890
  0
VERTEX
  8
PLAN_1
  6
CONTINUOUS
 10
-0.951343
 20
2.877972
  0
VERTEX
  8
PLAN_1
  6
CONTINUOUS
 10
-0.955260
 20
2.874051
  0
VERTEX
  8
PLAN_1
  6
CONTINUOUS
 10
-0.958744
 20
2.869264
  0
VERTEX
  8
PLAN_1
  6
CONTINUOUS
 10
-0.961354
 20
2.864472
  0
VERTEX
  8
PLAN_1
  6
CONTINUOUS
 10
-0.963969
 20
2.859248
  0
VERTEX
  8
PLAN_1
  6
CONTINUOUS
 10
-0.966146
 20
2.854024
  0
VERTEX
  8
PLAN_1
  6
CONTINUOUS
 10
-0.967453
 20
2.848366
  0
VERTEX
  8
PLAN_1
  6
CONTINUOUS
 10
-0.968323
 20
2.842268
  0
VERTEX
  8
PLAN_1
  6
CONTINUOUS
 10
-0.968756
 20
2.836610
  0
VERTEX
  8
PLAN_1
  6
CONTINUOUS
 10
-0.968323
 20
2.830512
  0
VERTEX
  8
PLAN_1
  6
CONTINUOUS
 10
-0.967453
 20
2.824417
  0
VERTEX
  8
PLAN_1
  6
CONTINUOUS
 10
-0.966146
 20
2.818756
  0
VERTEX
  8
PLAN_1
  6
CONTINUOUS
 10
-0.963969
 20
2.813531
  0
VERTEX
  8
PLAN_1
  6
CONTINUOUS
 10
-0.961354
 20
2.808307
  0
VERTEX
  8
PLAN_1
  6
CONTINUOUS
 10
-0.958744
 20
2.803520
  0
VERTEX
  8
PLAN_1
  6
CONTINUOUS
 10
-0.955260
 20
2.798728
  0
VERTEX
  8
PLAN_1
  6
CONTINUOUS
 10
-0.951343
 20
2.794811
  0
VERTEX
  8
PLAN_1
  6
CONTINUOUS
 10
-0.946988
 20
2.790890
  0
VERTEX
  8
PLAN_1
  6
CONTINUOUS
 10
-0.942634
 20
2.787409
  0
VERTEX
  8
PLAN_1
  6
CONTINUOUS
 10
-0.937843
 20
2.784362
  0
VERTEX
  8
PLAN_1
  6
CONTINUOUS
 10
-0.932618
 20
2.782185
  0
VERTEX
  8
PLAN_1
  6
CONTINUOUS
 10
-0.927394
 20
2.780008
  0
VERTEX
  8
PLAN_1
  6
CONTINUOUS
 10
-0.921732
 20
2.778701
  0
VERTEX
  8
PLAN_1
  6
CONTINUOUS
 10
-0.915638
 20
2.777831
  0
VERTEX
  8
PLAN_1
  6
CONTINUOUS
 10
-0.909543
 20
2.777394
  0
SEQEND
  8
0
  0
POLYLINE
  8
PLAN_1
  6
CONTINUOUS
 66
     1
 40
0.008272
 41
0.008272
  0
VERTEX
  8
PLAN_1
  6
CONTINUOUS
 10
-1.320996
 20
1.037535
  0
VERTEX
  8
PLAN_1
  6
CONTINUOUS
 10
-0.502878
 20
1.037535
  0
SEQEND
  8
0
  0
POLYLINE
  8
PLAN_1
  6
CONTINUOUS
 66
     1
 40
0.008272
 41
0.008272
  0
VERTEX
  8
PLAN_1
  6
CONTINUOUS
 10
-0.677476
 20
2.517898
  0
VERTEX
  8
PLAN_1
  6
CONTINUOUS
 10
-0.668331
 20
2.524862
  0
VERTEX
  8
PLAN_1
  6
CONTINUOUS
 10
-0.659622
 20
2.531831
  0
VERTEX
  8
PLAN_1
  6
CONTINUOUS
 10
-0.650913
 20
2.539232
  0
VERTEX
  8
PLAN_1
  6
CONTINUOUS
 10
-0.642642
 20
2.547067
  0
VERTEX
  8
PLAN_1
  6
CONTINUOUS
 10
-0.634370
 20
2.554906
  0
VERTEX
  8
PLAN_1
  6
CONTINUOUS
 10
-0.626098
 20
2.562744
  0
VERTEX
  8
PLAN_1
  6
CONTINUOUS
 10
-0.618260
 20
2.571016
  0
VERTEX
  8
PLAN_1
  6
CONTINUOUS
 10
-0.610858
 20
2.579724
  0
VERTEX
  8
PLAN_1
  6
CONTINUOUS
 10
-0.603457
 20
2.588429
  0
VERTEX
  8
PLAN_1
  6
CONTINUOUS
 10
-0.596492
 20
2.597138
  0
VERTEX
  8
PLAN_1
  6
CONTINUOUS
 10
-0.589961
 20
2.606283
  0
VERTEX
  8
PLAN_1
  6
CONTINUOUS
 10
-0.583429
 20
2.615862
  0
VERTEX
  8
PLAN_1
  6
CONTINUOUS
 10
-0.576898
 20
2.625441
  0
VERTEX
  8
PLAN_1
  6
CONTINUOUS
 10
-0.571236
 20
2.635020
  0
VERTEX
  8
PLAN_1
  6
CONTINUOUS
 10
-0.565579
 20
2.645031
  0
VERTEX
  8
PLAN_1
  6
CONTINUOUS
 10
-0.559917
 20
2.655047
  0
VERTEX
  8
PLAN_1
  6
CONTINUOUS
 10
-0.554693
 20
2.665063
  0
VERTEX
  8
PLAN_1
  6
CONTINUOUS
 10
-0.549902
 20
2.675512
  0
VERTEX
  8
PLAN_1
  6
CONTINUOUS
 10
-0.545547
 20
2.685961
  0
VERTEX
  8
PLAN_1
  6
CONTINUOUS
 10
-0.541193
 20
2.696846
  0
VERTEX
  8
PLAN_1
  6
CONTINUOUS
 10
-0.537276
 20
2.707728
  0
VERTEX
  8
PLAN_1
  6
CONTINUOUS
 10
-0.533791
 20
2.718614
  0
VERTEX
  8
PLAN_1
  6
CONTINUOUS
 10
-0.530311
 20
2.729937
  0
VERTEX
  8
PLAN_1
  6
CONTINUOUS
 10
-0.527264
 20
2.741256
  0
VERTEX
  8
PLAN_1
  6
CONTINUOUS
 10
-0.524650
 20
2.752575
  0
VERTEX
  8
PLAN_1
  6
CONTINUOUS
 10
-0.522472
 20
2.764331
  0
VERTEX
  8
PLAN_1
  6
CONTINUOUS
 10
-0.520295
 20
2.776087
  0
VERTEX
  8
PLAN_1
  6
CONTINUOUS
 10
-0.518988
 20
2.787843
  0
VERTEX
  8
PLAN_1
  6
CONTINUOUS
 10
-0.517681
 20
2.799598
  0
VERTEX
  8
PLAN_1
  6
CONTINUOUS
 10
-0.516811
 20
2.811791
  0
VERTEX
  8
PLAN_1
  6
CONTINUOUS
 10
-0.515941
 20
2.823980
  0
VERTEX
  8
PLAN_1
  6
CONTINUOUS
 10
-0.515941
 20
2.836173
  0
VERTEX
  8
PLAN_1
  6
CONTINUOUS
 10
-0.516378
 20
2.856201
  0
VERTEX
  8
PLAN_1
  6
CONTINUOUS
 10
-0.518118
 20
2.876228
  0
VERTEX
  8
PLAN_1
  6
CONTINUOUS
 10
-0.520295
 20
2.895823
  0
VERTEX
  8
PLAN_1
  6
CONTINUOUS
 10
-0.523780
 20
2.915417
  0
VERTEX
  8
PLAN_1
  6
CONTINUOUS
 10
-0.528134
 20
2.934575
  0
VERTEX
  8
PLAN_1
  6
CONTINUOUS
 10
-0.533791
 20
2.952862
  0
VERTEX
  8
PLAN_1
  6
CONTINUOUS
 10
-0.539890
 20
2.971583
  0
VERTEX
  8
PLAN_1
  6
CONTINUOUS
 10
-0.546854
 20
2.989433
  0
VERTEX
  8
PLAN_1
  6
CONTINUOUS
 10
-0.554693
 20
3.006850
  0
VERTEX
  8
PLAN_1
  6
CONTINUOUS
 10
-0.563402
 20
3.023831
  0
VERTEX
  8
PLAN_1
  6
CONTINUOUS
 10
-0.572980
 20
3.039941
  0
VERTEX
  8
PLAN_1
  6
CONTINUOUS
 10
-0.582992
 20
3.056051
  0
VERTEX
  8
PLAN_1
  6
CONTINUOUS
 10
-0.594315
 20
3.071724
  0
VERTEX
  8
PLAN_1
  6
CONTINUOUS
 10
-0.605634
 20
3.086528
  0
VERTEX
  8
PLAN_1
  6
CONTINUOUS
 10
-0.618260
 20
3.100898
  0
VERTEX
  8
PLAN_1
  6
CONTINUOUS
 10
-0.631323
 20
3.114394
  0
VERTEX
  8
PLAN_1
  6
CONTINUOUS
 10
-0.644819
 20
3.127457
  0
VERTEX
  8
PLAN_1
  6
CONTINUOUS
 10
-0.659189
 20
3.139646
  0
VERTEX
  8
PLAN_1
  6
CONTINUOUS
 10
-0.673992
 20
3.151402
  0
VERTEX
  8
PLAN_1
  6
CONTINUOUS
 10
-0.689665
 20
3.162287
  0
VERTEX
  8
PLAN_1
  6
CONTINUOUS
 10
-0.705339
 20
3.172736
  0
VERTEX
  8
PLAN_1
  6
CONTINUOUS
 10
-0.721886
 20
3.182315
  0
VERTEX
  8
PLAN_1
  6
CONTINUOUS
 10
-0.738866
 20
3.191024
  0
VERTEX
  8
PLAN_1
  6
CONTINUOUS
 10
-0.756283
 20
3.198862
  0
VERTEX
  8
PLAN_1
  6
CONTINUOUS
 10
-0.774134
 20
3.205827
  0
VERTEX
  8
PLAN_1
  6
CONTINUOUS
 10
-0.792421
 20
3.211921
  0
VERTEX
  8
PLAN_1
  6
CONTINUOUS
 10
-0.811142
 20
3.217150
  0
VERTEX
  8
PLAN_1
  6
CONTINUOUS
 10
-0.830299
 20
3.221500
  0
VERTEX
  8
PLAN_1
  6
CONTINUOUS
 10
-0.849457
 20
3.224984
  0
VERTEX
  8
PLAN_1
  6
CONTINUOUS
 10
-0.869484
 20
3.227598
  0
VERTEX
  8
PLAN_1
  6
CONTINUOUS
 10
-0.889516
 20
3.229339
  0
VERTEX
  8
PLAN_1
  6
CONTINUOUS
 10
-0.909543
 20
3.229776
  0
VERTEX
  8
PLAN_1
  6
CONTINUOUS
 10
-0.930008
 20
3.229339
  0
VERTEX
  8
PLAN_1
  6
CONTINUOUS
 10
-0.949598
 20
3.227598
  0
VERTEX
  8
PLAN_1
  6
CONTINUOUS
 10
-0.969626
 20
3.224984
  0
VERTEX
  8
PLAN_1
  6
CONTINUOUS
 10
-0.988787
 20
3.221500
  0
VERTEX
  8
PLAN_1
  6
CONTINUOUS
 10
-1.007945
 20
3.217150
  0
VERTEX
  8
PLAN_1
  6
CONTINUOUS
 10
-1.026665
 20
3.211921
  0
VERTEX
  8
PLAN_1
  6
CONTINUOUS
 10
-1.044953
 20
3.205827
  0
VERTEX
  8
PLAN_1
  6
CONTINUOUS
 10
-1.062803
 20
3.198862
  0
VERTEX
  8
PLAN_1
  6
CONTINUOUS
 10
-1.080220
 20
3.191024
  0
VERTEX
  8
PLAN_1
  6
CONTINUOUS
 10
-1.097201
 20
3.182315
  0
VERTEX
  8
PLAN_1
  6
CONTINUOUS
 10
-1.113744
 20
3.172736
  0
VERTEX
  8
PLAN_1
  6
CONTINUOUS
 10
-1.129421
 20
3.162287
  0
VERTEX
  8
PLAN_1
  6
CONTINUOUS
 10
-1.145094
 20
3.151402
  0
VERTEX
  8
PLAN_1
  6
CONTINUOUS
 10
-1.159898
 20
3.139646
  0
VERTEX
  8
PLAN_1
  6
CONTINUOUS
 10
-1.174264
 20
3.127457
  0
VERTEX
  8
PLAN_1
  6
CONTINUOUS
 10
-1.187764
 20
3.114394
  0
VERTEX
  8
PLAN_1
  6
CONTINUOUS
 10
-1.200827
 20
3.100898
  0
VERTEX
  8
PLAN_1
  6
CONTINUOUS
 10
-1.213453
 20
3.086528
  0
VERTEX
  8
PLAN_1
  6
CONTINUOUS
 10
-1.224772
 20
3.071724
  0
VERTEX
  8
PLAN_1
  6
CONTINUOUS
 10
-1.236091
 20
3.056051
  0
VERTEX
  8
PLAN_1
  6
CONTINUOUS
 10
-1.246106
 20
3.039941
  0
VERTEX
  8
PLAN_1
  6
CONTINUOUS
 10
-1.255685
 20
3.023831
  0
VERTEX
  8
PLAN_1
  6
CONTINUOUS
 10
-1.264394
 20
3.006850
  0
VERTEX
  8
PLAN_1
  6
CONTINUOUS
 10
-1.272232
 20
2.989433
  0
VERTEX
  8
PLAN_1
  6
CONTINUOUS
 10
-1.279197
 20
2.971583
  0
VERTEX
  8
PLAN_1
  6
CONTINUOUS
 10
-1.285291
 20
2.952862
  0
VERTEX
  8
PLAN_1
  6
CONTINUOUS
 10
-1.290953
 20
2.934575
  0
VERTEX
  8
PLAN_1
  6
CONTINUOUS
 10
-1.295307
 20
2.915417
  0
VERTEX
  8
PLAN_1
  6
CONTINUOUS
 10
-1.298791
 20
2.895823
  0
VERTEX
  8
PLAN_1
  6
CONTINUOUS
 10
-1.300969
 20
2.876228
  0
VERTEX
  8
PLAN_1
  6
CONTINUOUS
 10
-1.302709
 20
2.856201
  0
VERTEX
  8
PLAN_1
  6
CONTINUOUS
 10
-1.303146
 20
2.836173
  0
VERTEX
  8
PLAN_1
  6
CONTINUOUS
 10
-1.303146
 20
2.827031
  0
VERTEX
  8
PLAN_1
  6
CONTINUOUS
 10
-1.302709
 20
2.818323
  0
VERTEX
  8
PLAN_1
  6
CONTINUOUS
 10
-1.302272
 20
2.809614
  0
VERTEX
  8
PLAN_1
  6
CONTINUOUS
 10
-1.301839
 20
2.800906
  0
VERTEX
  8
PLAN_1
  6
CONTINUOUS
 10
-1.300969
 20
2.792197
  0
VERTEX
  8
PLAN_1
  6
CONTINUOUS
 10
-1.299661
 20
2.783925
  0
VERTEX
  8
PLAN_1
  6
CONTINUOUS
 10
-1.298354
 20
2.775217
  0
VERTEX
  8
PLAN_1
  6
CONTINUOUS
 10
-1.297047
 20
2.766945
  0
SEQEND
  8
0
  0
POLYLINE
  8
PLAN_1
 62
     2
  6
CONTINUOUS
 66
     1
 40
0.004350
 41
0.004350
  0
VERTEX
  8
PLAN_1
 62
     2
  6
CONTINUOUS
 10
-2.176555
 20
2.632843
  0
VERTEX
  8
PLAN_1
 62
     2
  6
CONTINUOUS
 10
-1.812996
 20
2.632843
  0
SEQEND
  8
0
  0
SOLID
  8
PLAN_1
 62
     2
 10
-1.783390
 20
2.632843
 11
-1.842602
 21
2.648516
 12
-1.783390
 22
2.632843
 13
-1.842602
 23
2.616732
  0
POLYLINE
  8
PLAN_1
 62
     2
  6
CONTINUOUS
 66
     1
 40
0.003000
 41
0.003000
  0
VERTEX
  8
PLAN_1
 62
     2
  6
CONTINUOUS
 10
-1.783390
 20
2.632843
  0
VERTEX
  8
PLAN_1
 62
     2
  6
CONTINUOUS
 10
-1.842602
 20
2.648516
  0
VERTEX
  8
PLAN_1
 62
     2
  6
CONTINUOUS
 10
-1.842602
 20
2.616732
  0
VERTEX
  8
PLAN_1
 62
     2
  6
CONTINUOUS
 10
-1.783390
 20
2.632843
  0
SEQEND
  8
0
  0
SOLID
  8
PLAN_1
 62
     2
 10
-2.206161
 20
2.632843
 11
-2.146949
 21
2.648516
 12
-2.206161
 22
2.632843
 13
-2.146949
 23
2.616732
  0
POLYLINE
  8
PLAN_1
 62
     2
  6
CONTINUOUS
 66
     1
 40
0.003000
 41
0.003000
  0
VERTEX
  8
PLAN_1
 62
     2
  6
CONTINUOUS
 10
-2.206161
 20
2.632843
  0
VERTEX
  8
PLAN_1
 62
     2
  6
CONTINUOUS
 10
-2.146949
 20
2.648516
  0
VERTEX
  8
PLAN_1
 62
     2
  6
CONTINUOUS
 10
-2.146949
 20
2.616732
  0
VERTEX
  8
PLAN_1
 62
     2
  6
CONTINUOUS
 10
-2.206161
 20
2.632843
  0
SEQEND
  8
0
  0
POLYLINE
  8
PLAN_1
 62
     2
  6
CONTINUOUS
 66
     1
 40
0.003000
 41
0.003000
  0
VERTEX
  8
PLAN_1
 62
     2
  6
CONTINUOUS
 10
-2.015457
 20
2.656354
  0
VERTEX
  8
PLAN_1
 62
     2
  6
CONTINUOUS
 10
-2.025035
 20
2.656354
  0
VERTEX
  8
PLAN_1
 62
     2
  6
CONTINUOUS
 10
-2.025035
 20
2.708165
  0
VERTEX
  8
PLAN_1
 62
     2
  6
CONTINUOUS
 10
-2.042016
 20
2.708165
  0
VERTEX
  8
PLAN_1
 62
     2
  6
CONTINUOUS
 10
-2.042016
 20
2.715567
  0
VERTEX
  8
PLAN_1
 62
     2
  6
CONTINUOUS
 10
-2.038098
 20
2.715567
  0
VERTEX
  8
PLAN_1
 62
     2
  6
CONTINUOUS
 10
-2.034614
 20
2.716437
  0
VERTEX
  8
PLAN_1
 62
     2
  6
CONTINUOUS
 10
-2.031567
 20
2.716874
  0
VERTEX
  8
PLAN_1
 62
     2
  6
CONTINUOUS
 10
-2.028957
 20
2.718181
  0
VERTEX
  8
PLAN_1
 62
     2
  6
CONTINUOUS
 10
-2.026780
 20
2.719921
  0
VERTEX
  8
PLAN_1
 62
     2
  6
CONTINUOUS
 10
-2.025035
 20
2.722098
  0
VERTEX
  8
PLAN_1
 62
     2
  6
CONTINUOUS
 10
-2.023732
 20
2.725583
  0
VERTEX
  8
PLAN_1
 62
     2
  6
CONTINUOUS
 10
-2.022425
 20
2.729500
  0
VERTEX
  8
PLAN_1
 62
     2
  6
CONTINUOUS
 10
-2.015457
 20
2.729500
  0
VERTEX
  8
PLAN_1
 62
     2
  6
CONTINUOUS
 10
-2.015457
 20
2.656354
  0
SEQEND
  8
0
  0
POLYLINE
  8
PLAN_1
 62
     2
  6
CONTINUOUS
 66
     1
 40
0.003000
 41
0.003000
  0
VERTEX
  8
PLAN_1
 62
     2
  6
CONTINUOUS
 10
-1.971484
 20
2.697717
  0
VERTEX
  8
PLAN_1
 62
     2
  6
CONTINUOUS
 10
-1.971047
 20
2.697717
  0
VERTEX
  8
PLAN_1
 62
     2
  6
CONTINUOUS
 10
-1.970177
 20
2.697717
  0
VERTEX
  8
PLAN_1
 62
     2
  6
CONTINUOUS
 10
-1.969740
 20
2.697717
  0
VERTEX
  8
PLAN_1
 62
     2
  6
CONTINUOUS
 10
-1.968870
 20
2.697717
  0
VERTEX
  8
PLAN_1
 62
     2
  6
CONTINUOUS
 10
-1.968433
 20
2.697717
  0
VERTEX
  8
PLAN_1
 62
     2
  6
CONTINUOUS
 10
-1.968000
 20
2.697717
  0
VERTEX
  8
PLAN_1
 62
     2
  6
CONTINUOUS
 10
-1.967130
 20
2.697717
  0
VERTEX
  8
PLAN_1
 62
     2
  6
CONTINUOUS
 10
-1.966693
 20
2.697717
  0
VERTEX
  8
PLAN_1
 62
     2
  6
CONTINUOUS
 10
-1.964079
 20
2.697717
  0
VERTEX
  8
PLAN_1
 62
     2
  6
CONTINUOUS
 10
-1.961469
 20
2.698150
  0
VERTEX
  8
PLAN_1
 62
     2
  6
CONTINUOUS
 10
-1.959291
 20
2.699024
  0
VERTEX
  8
PLAN_1
 62
     2
  6
CONTINUOUS
 10
-1.957114
 20
2.700327
  0
VERTEX
  8
PLAN_1
 62
     2
  6
CONTINUOUS
 10
-1.955374
 20
2.701634
  0
VERTEX
  8
PLAN_1
 62
     2
  6
CONTINUOUS
 10
-1.954067
 20
2.703811
  0
VERTEX
  8
PLAN_1
 62
     2
  6
CONTINUOUS
 10
-1.953197
 20
2.706425
  0
VERTEX
  8
PLAN_1
 62
     2
  6
CONTINUOUS
 10
-1.952760
 20
2.709472
  0
VERTEX
  8
PLAN_1
 62
     2
  6
CONTINUOUS
 10
-1.952760
 20
2.711213
  0
VERTEX
  8
PLAN_1
 62
     2
  6
CONTINUOUS
 10
-1.953197
 20
2.713390
  0
VERTEX
  8
PLAN_1
 62
     2
  6
CONTINUOUS
 10
-1.954067
 20
2.715134
  0
VERTEX
  8
PLAN_1
 62
     2
  6
CONTINUOUS
 10
-1.955374
 20
2.716874
  0
VERTEX
  8
PLAN_1
 62
     2
  6
CONTINUOUS
 10
-1.957114
 20
2.718614
  0
VERTEX
  8
PLAN_1
 62
     2
  6
CONTINUOUS
 10
-1.959728
 20
2.719921
  0
VERTEX
  8
PLAN_1
 62
     2
  6
CONTINUOUS
 10
-1.962339
 20
2.720791
  0
VERTEX
  8
PLAN_1
 62
     2
  6
CONTINUOUS
 10
-1.966256
 20
2.721228
  0
VERTEX
  8
PLAN_1
 62
     2
  6
CONTINUOUS
 10
-1.968433
 20
2.721228
  0
VERTEX
  8
PLAN_1
 62
     2
  6
CONTINUOUS
 10
-1.970610
 20
2.720791
  0
VERTEX
  8
PLAN_1
 62
     2
  6
CONTINUOUS
 10
-1.972354
 20
2.720358
  0
VERTEX
  8
PLAN_1
 62
     2
  6
CONTINUOUS
 10
-1.974094
 20
2.719484
  0
VERTEX
  8
PLAN_1
 62
     2
  6
CONTINUOUS
 10
-1.976272
 20
2.717744
  0
VERTEX
  8
PLAN_1
 62
     2
  6
CONTINUOUS
 10
-1.978012
 20
2.715134
  0
VERTEX
  8
PLAN_1
 62
     2
  6
CONTINUOUS
 10
-1.979319
 20
2.712520
  0
VERTEX
  8
PLAN_1
 62
     2
  6
CONTINUOUS
 10
-1.979756
 20
2.709906
  0
VERTEX
  8
PLAN_1
 62
     2
  6
CONTINUOUS
 10
-1.980189
 20
2.707728
  0
VERTEX
  8
PLAN_1
 62
     2
  6
CONTINUOUS
 10
-1.980626
 20
2.705555
  0
VERTEX
  8
PLAN_1
 62
     2
  6
CONTINUOUS
 10
-1.989335
 20
2.705555
  0
VERTEX
  8
PLAN_1
 62
     2
  6
CONTINUOUS
 10
-1.989335
 20
2.709472
  0
VERTEX
  8
PLAN_1
 62
     2
  6
CONTINUOUS
 10
-1.988465
 20
2.713827
  0
VERTEX
  8
PLAN_1
 62
     2
  6
CONTINUOUS
 10
-1.987157
 20
2.717744
  0
VERTEX
  8
PLAN_1
 62
     2
  6
CONTINUOUS
 10
-1.984980
 20
2.721228
  0
VERTEX
  8
PLAN_1
 62
     2
  6
CONTINUOUS
 10
-1.983240
 20
2.722969
  0
VERTEX
  8
PLAN_1
 62
     2
  6
CONTINUOUS
 10
-1.981933
 20
2.724713
  0
VERTEX
  8
PLAN_1
 62
     2
  6
CONTINUOUS
 10
-1.979756
 20
2.726016
  0
VERTEX
  8
PLAN_1
 62
     2
  6
CONTINUOUS
 10
-1.977579
 20
2.727323
  0
VERTEX
  8
PLAN_1
 62
     2
  6
CONTINUOUS
 10
-1.974965
 20
2.728193
  0
VERTEX
  8
PLAN_1
 62
     2
  6
CONTINUOUS
 10
-1.972354
 20
2.728630
  0
VERTEX
  8
PLAN_1
 62
     2
  6
CONTINUOUS
 10
-1.969307
 20
2.729063
  0
VERTEX
  8
PLAN_1
 62
     2
  6
CONTINUOUS
 10
-1.965823
 20
2.729500
  0
VERTEX
  8
PLAN_1
 62
     2
  6
CONTINUOUS
 10
-1.960598
 20
2.729063
  0
VERTEX
  8
PLAN_1
 62
     2
  6
CONTINUOUS
 10
-1.956244
 20
2.727760
  0
VERTEX
  8
PLAN_1
 62
     2
  6
CONTINUOUS
 10
-1.952327
 20
2.726016
  0
VERTEX
  8
PLAN_1
 62
     2
  6
CONTINUOUS
 10
-1.949276
 20
2.723839
  0
VERTEX
  8
PLAN_1
 62
     2
  6
CONTINUOUS
 10
-1.946665
 20
2.721228
  0
VERTEX
  8
PLAN_1
 62
     2
  6
CONTINUOUS
 10
-1.944921
 20
2.717744
  0
VERTEX
  8
PLAN_1
 62
     2
  6
CONTINUOUS
 10
-1.943618
 20
2.714260
  0
VERTEX
  8
PLAN_1
 62
     2
  6
CONTINUOUS
 10
-1.943181
 20
2.710343
  0
VERTEX
  8
PLAN_1
 62
     2
  6
CONTINUOUS
 10
-1.943618
 20
2.706858
  0
VERTEX
  8
PLAN_1
 62
     2
  6
CONTINUOUS
 10
-1.944051
 20
2.703811
  0
VERTEX
  8
PLAN_1
 62
     2
  6
CONTINUOUS
 10
-1.945358
 20
2.701634
  0
VERTEX
  8
PLAN_1
 62
     2
  6
CONTINUOUS
 10
-1.946665
 20
2.699457
  0
VERTEX
  8
PLAN_1
 62
     2
  6
CONTINUOUS
 10
-1.947972
 20
2.697717
  0
VERTEX
  8
PLAN_1
 62
     2
  6
CONTINUOUS
 10
-1.949276
 20
2.696409
  0
VERTEX
  8
PLAN_1
 62
     2
  6
CONTINUOUS
 10
-1.951020
 20
2.695539
  0
VERTEX
  8
PLAN_1
 62
     2
  6
CONTINUOUS
 10
-1.952760
 20
2.695102
  0
VERTEX
  8
PLAN_1
 62
     2
  6
CONTINUOUS
 10
-1.952760
 20
2.694669
  0
VERTEX
  8
PLAN_1
 62
     2
  6
CONTINUOUS
 10
-1.950150
 20
2.693799
  0
VERTEX
  8
PLAN_1
 62
     2
  6
CONTINUOUS
 10
-1.947535
 20
2.692492
  0
VERTEX
  8
PLAN_1
 62
     2
  6
CONTINUOUS
 10
-1.945795
 20
2.691185
  0
VERTEX
  8
PLAN_1
 62
     2
  6
CONTINUOUS
 10
-1.944051
 20
2.689008
  0
VERTEX
  8
PLAN_1
 62
     2
  6
CONTINUOUS
 10
-1.942311
 20
2.686831
  0
VERTEX
  8
PLAN_1
 62
     2
  6
CONTINUOUS
 10
-1.941441
 20
2.684220
  0
VERTEX
  8
PLAN_1
 62
     2
  6
CONTINUOUS
 10
-1.940571
 20
2.681169
  0
VERTEX
  8
PLAN_1
 62
     2
  6
CONTINUOUS
 10
-1.940571
 20
2.677689
  0
VERTEX
  8
PLAN_1
 62
     2
  6
CONTINUOUS
 10
-1.941004
 20
2.673335
  0
VERTEX
  8
PLAN_1
 62
     2
  6
CONTINUOUS
 10
-1.941874
 20
2.668980
  0
VERTEX
  8
PLAN_1
 62
     2
  6
CONTINUOUS
 10
-1.942744
 20
2.666803
  0
VERTEX
  8
PLAN_1
 62
     2
  6
CONTINUOUS
 10
-1.944051
 20
2.665063
  0
VERTEX
  8
PLAN_1
 62
     2
  6
CONTINUOUS
 10
-1.945358
 20
2.663319
  0
VERTEX
  8
PLAN_1
 62
     2
  6
CONTINUOUS
 10
-1.946665
 20
2.661579
  0
VERTEX
  8
PLAN_1
 62
     2
  6
CONTINUOUS
 10
-1.948406
 20
2.659835
  0
VERTEX
  8
PLAN_1
 62
     2
  6
CONTINUOUS
 10
-1.950150
 20
2.658531
  0
VERTEX
  8
PLAN_1
 62
     2
  6
CONTINUOUS
 10
-1.952327
 20
2.657224
  0
VERTEX
  8
PLAN_1
 62
     2
  6
CONTINUOUS
 10
-1.954937
 20
2.656354
  0
VERTEX
  8
PLAN_1
 62
     2
  6
CONTINUOUS
 10
-1.957551
 20
2.655484
  0
VERTEX
  8
PLAN_1
 62
     2
  6
CONTINUOUS
 10
-1.960161
 20
2.654610
  0
VERTEX
  8
PLAN_1
 62
     2
  6
CONTINUOUS
 10
-1.963209
 20
2.654610
  0
VERTEX
  8
PLAN_1
 62
     2
  6
CONTINUOUS
 10
-1.966693
 20
2.654177
  0
VERTEX
  8
PLAN_1
 62
     2
  6
CONTINUOUS
 10
-1.968870
 20
2.654177
  0
VERTEX
  8
PLAN_1
 62
     2
  6
CONTINUOUS
 10
-1.970610
 20
2.654610
  0
VERTEX
  8
PLAN_1
 62
     2
  6
CONTINUOUS
 10
-1.972354
 20
2.654610
  0
VERTEX
  8
PLAN_1
 62
     2
  6
CONTINUOUS
 10
-1.974094
 20
2.655047
  0
VERTEX
  8
PLAN_1
 62
     2
  6
CONTINUOUS
 10
-1.975835
 20
2.655484
  0
VERTEX
  8
PLAN_1
 62
     2
  6
CONTINUOUS
 10
-1.977579
 20
2.656354
  0
VERTEX
  8
PLAN_1
 62
     2
  6
CONTINUOUS
 10
-1.978886
 20
2.656787
  0
VERTEX
  8
PLAN_1
 62
     2
  6
CONTINUOUS
 10
-1.980189
 20
2.657657
  0
VERTEX
  8
PLAN_1
 62
     2
  6
CONTINUOUS
 10
-1.983240
 20
2.659402
  0
VERTEX
  8
PLAN_1
 62
     2
  6
CONTINUOUS
 10
-1.985413
 20
2.661579
  0
VERTEX
  8
PLAN_1
 62
     2
  6
CONTINUOUS
 10
-1.987157
 20
2.663756
  0
VERTEX
  8
PLAN_1
 62
     2
  6
CONTINUOUS
 10
-1.988465
 20
2.666366
  0
VERTEX
  8
PLAN_1
 62
     2
  6
CONTINUOUS
 10
-1.989768
 20
2.669413
  0
VERTEX
  8
PLAN_1
 62
     2
  6
CONTINUOUS
 10
-1.990205
 20
2.672465
  0
VERTEX
  8
PLAN_1
 62
     2
  6
CONTINUOUS
 10
-1.991075
 20
2.675512
  0
VERTEX
  8
PLAN_1
 62
     2
  6
CONTINUOUS
 10
-1.991075
 20
2.678559
  0
VERTEX
  8
PLAN_1
 62
     2
  6
CONTINUOUS
 10
-1.981933
 20
2.678559
  0
VERTEX
  8
PLAN_1
 62
     2
  6
CONTINUOUS
 10
-1.981496
 20
2.675945
  0
VERTEX
  8
PLAN_1
 62
     2
  6
CONTINUOUS
 10
-1.981063
 20
2.673335
  0
VERTEX
  8
PLAN_1
 62
     2
  6
CONTINUOUS
 10
-1.980189
 20
2.670287
  0
VERTEX
  8
PLAN_1
 62
     2
  6
CONTINUOUS
 10
-1.978886
 20
2.668110
  0
VERTEX
  8
PLAN_1
 62
     2
  6
CONTINUOUS
 10
-1.977142
 20
2.665933
  0
VERTEX
  8
PLAN_1
 62
     2
  6
CONTINUOUS
 10
-1.974094
 20
2.664189
  0
VERTEX
  8
PLAN_1
 62
     2
  6
CONTINUOUS
 10
-1.972787
 20
2.663319
  0
VERTEX
  8
PLAN_1
 62
     2
  6
CONTINUOUS
 10
-1.970610
 20
2.662886
  0
VERTEX
  8
PLAN_1
 62
     2
  6
CONTINUOUS
 10
-1.968433
 20
2.662449
  0
VERTEX
  8
PLAN_1
 62
     2
  6
CONTINUOUS
 10
-1.966256
 20
2.662449
  0
VERTEX
  8
PLAN_1
 62
     2
  6
CONTINUOUS
 10
-1.962776
 20
2.662886
  0
VERTEX
  8
PLAN_1
 62
     2
  6
CONTINUOUS
 10
-1.959728
 20
2.663319
  0
VERTEX
  8
PLAN_1
 62
     2
  6
CONTINUOUS
 10
-1.957114
 20
2.664626
  0
VERTEX
  8
PLAN_1
 62
     2
  6
CONTINUOUS
 10
-1.954500
 20
2.666366
  0
VERTEX
  8
PLAN_1
 62
     2
  6
CONTINUOUS
 10
-1.952760
 20
2.668543
  0
VERTEX
  8
PLAN_1
 62
     2
  6
CONTINUOUS
 10
-1.951453
 20
2.670720
  0
VERTEX
  8
PLAN_1
 62
     2
  6
CONTINUOUS
 10
-1.950583
 20
2.673768
  0
VERTEX
  8
PLAN_1
 62
     2
  6
CONTINUOUS
 10
-1.950150
 20
2.676815
  0
VERTEX
  8
PLAN_1
 62
     2
  6
CONTINUOUS
 10
-1.950150
 20
2.678992
  0
VERTEX
  8
PLAN_1
 62
     2
  6
CONTINUOUS
 10
-1.950583
 20
2.680736
  0
VERTEX
  8
PLAN_1
 62
     2
  6
CONTINUOUS
 10
-1.951453
 20
2.682476
  0
VERTEX
  8
PLAN_1
 62
     2
  6
CONTINUOUS
 10
-1.951890
 20
2.683783
  0
VERTEX
  8
PLAN_1
 62
     2
  6
CONTINUOUS
 10
-1.954067
 20
2.686398
  0
VERTEX
  8
PLAN_1
 62
     2
  6
CONTINUOUS
 10
-1.956244
 20
2.688138
  0
VERTEX
  8
PLAN_1
 62
     2
  6
CONTINUOUS
 10
-1.959291
 20
2.689008
  0
VERTEX
  8
PLAN_1
 62
     2
  6
CONTINUOUS
 10
-1.961906
 20
2.689878
  0
VERTEX
  8
PLAN_1
 62
     2
  6
CONTINUOUS
 10
-1.964953
 20
2.689878
  0
VERTEX
  8
PLAN_1
 62
     2
  6
CONTINUOUS
 10
-1.967130
 20
2.689878
  0
VERTEX
  8
PLAN_1
 62
     2
  6
CONTINUOUS
 10
-1.968000
 20
2.689878
  0
VERTEX
  8
PLAN_1
 62
     2
  6
CONTINUOUS
 10
-1.968433
 20
2.689878
  0
VERTEX
  8
PLAN_1
 62
     2
  6
CONTINUOUS
 10
-1.968870
 20
2.689878
  0
VERTEX
  8
PLAN_1
 62
     2
  6
CONTINUOUS
 10
-1.969307
 20
2.689878
  0
VERTEX
  8
PLAN_1
 62
     2
  6
CONTINUOUS
 10
-1.969740
 20
2.689878
  0
VERTEX
  8
PLAN_1
 62
     2
  6
CONTINUOUS
 10
-1.970610
 20
2.689878
  0
VERTEX
  8
PLAN_1
 62
     2
  6
CONTINUOUS
 10
-1.971047
 20
2.689878
  0
VERTEX
  8
PLAN_1
 62
     2
  6
CONTINUOUS
 10
-1.971484
 20
2.689878
  0
VERTEX
  8
PLAN_1
 62
     2
  6
CONTINUOUS
 10
-1.971484
 20
2.697717
  0
SEQEND
  8
0
  0
POLYLINE
  8
PLAN_1
 62
     2
  6
CONTINUOUS
 66
     1
 40
0.004350
 41
0.004350
  0
VERTEX
  8
PLAN_1
 62
     2
  6
CONTINUOUS
 10
0.432795
 20
1.179043
  0
VERTEX
  8
PLAN_1
 62
     2
  6
CONTINUOUS
 10
0.432795
 20
3.201039
  0
SEQEND
  8
0
  0
SOLID
  8
PLAN_1
 62
     2
 10
0.432795
 20
3.230646
 11
0.417118
 21
3.171429
 12
0.432795
 22
3.230646
 13
0.448469
 23
3.171429
  0
POLYLINE
  8
PLAN_1
 62
     2
  6
CONTINUOUS
 66
     1
 40
0.003000
 41
0.003000
  0
VERTEX
  8
PLAN_1
 62
     2
  6
CONTINUOUS
 10
0.432795
 20
3.230646
  0
VERTEX
  8
PLAN_1
 62
     2
  6
CONTINUOUS
 10
0.417118
 20
3.171429
  0
VERTEX
  8
PLAN_1
 62
     2
  6
CONTINUOUS
 10
0.448469
 20
3.171429
  0
VERTEX
  8
PLAN_1
 62
     2
  6
CONTINUOUS
 10
0.432795
 20
3.230646
  0
SEQEND
  8
0
  0
SOLID
  8
PLAN_1
 62
     2
 10
0.432795
 20
1.149870
 11
0.417118
 21
1.208650
 12
0.432795
 22
1.149870
 13
0.448469
 23
1.208650
  0
POLYLINE
  8
PLAN_1
 62
     2
  6
CONTINUOUS
 66
     1
 40
0.003000
 41
0.003000
  0
VERTEX
  8
PLAN_1
 62
     2
  6
CONTINUOUS
 10
0.432795
 20
1.149870
  0
VERTEX
  8
PLAN_1
 62
     2
  6
CONTINUOUS
 10
0.417118
 20
1.208650
  0
VERTEX
  8
PLAN_1
 62
     2
  6
CONTINUOUS
 10
0.448469
 20
1.208650
  0
VERTEX
  8
PLAN_1
 62
     2
  6
CONTINUOUS
 10
0.432795
 20
1.149870
  0
SEQEND
  8
0
  0
POLYLINE
  8
PLAN_1
 62
     2
  6
CONTINUOUS
 66
     1
 40
0.003000
 41
0.003000
  0
VERTEX
  8
PLAN_1
 62
     2
  6
CONTINUOUS
 10
0.366614
 20
2.147370
  0
VERTEX
  8
PLAN_1
 62
     2
  6
CONTINUOUS
 10
0.365744
 20
2.148677
  0
VERTEX
  8
PLAN_1
 62
     2
  6
CONTINUOUS
 10
0.364870
 20
2.149984
  0
VERTEX
  8
PLAN_1
 62
     2
  6
CONTINUOUS
 10
0.364000
 20
2.151724
  0
VERTEX
  8
PLAN_1
 62
     2
  6
CONTINUOUS
 10
0.363130
 20
2.153469
  0
VERTEX
  8
PLAN_1
 62
     2
  6
CONTINUOUS
 10
0.362697
 20
2.155209
  0
VERTEX
  8
PLAN_1
 62
     2
  6
CONTINUOUS
 10
0.362260
 20
2.156949
  0
VERTEX
  8
PLAN_1
 62
     2
  6
CONTINUOUS
 10
0.361823
 20
2.159126
  0
VERTEX
  8
PLAN_1
 62
     2
  6
CONTINUOUS
 10
0.361823
 20
2.161740
  0
VERTEX
  8
PLAN_1
 62
     2
  6
CONTINUOUS
 10
0.362260
 20
2.166094
  0
VERTEX
  8
PLAN_1
 62
     2
  6
CONTINUOUS
 10
0.363567
 20
2.170449
  0
VERTEX
  8
PLAN_1
 62
     2
  6
CONTINUOUS
 10
0.365307
 20
2.174366
  0
VERTEX
  8
PLAN_1
 62
     2
  6
CONTINUOUS
 10
0.367921
 20
2.178283
  0
VERTEX
  8
PLAN_1
 62
     2
  6
CONTINUOUS
 10
0.369661
 20
2.179591
  0
VERTEX
  8
PLAN_1
 62
     2
  6
CONTINUOUS
 10
0.371402
 20
2.181331
  0
VERTEX
  8
PLAN_1
 62
     2
  6
CONTINUOUS
 10
0.373146
 20
2.182638
  0
VERTEX
  8
PLAN_1
 62
     2
  6
CONTINUOUS
 10
0.375323
 20
2.183508
  0
VERTEX
  8
PLAN_1
 62
     2
  6
CONTINUOUS
 10
0.377500
 20
2.184378
  0
VERTEX
  8
PLAN_1
 62
     2
  6
CONTINUOUS
 10
0.380110
 20
2.185252
  0
VERTEX
  8
PLAN_1
 62
     2
  6
CONTINUOUS
 10
0.382724
 20
2.185685
  0
VERTEX
  8
PLAN_1
 62
     2
  6
CONTINUOUS
 10
0.385335
 20
2.185685
  0
VERTEX
  8
PLAN_1
 62
     2
  6
CONTINUOUS
 10
0.388819
 20
2.185252
  0
VERTEX
  8
PLAN_1
 62
     2
  6
CONTINUOUS
 10
0.392736
 20
2.184815
  0
VERTEX
  8
PLAN_1
 62
     2
  6
CONTINUOUS
 10
0.397091
 20
2.183075
  0
VERTEX
  8
PLAN_1
 62
     2
  6
CONTINUOUS
 10
0.401012
 20
2.180898
  0
VERTEX
  8
PLAN_1
 62
     2
  6
CONTINUOUS
 10
0.403189
 20
2.179591
  0
VERTEX
  8
PLAN_1
 62
     2
  6
CONTINUOUS
 10
0.404929
 20
2.177413
  0
VERTEX
  8
PLAN_1
 62
     2
  6
CONTINUOUS
 10
0.406669
 20
2.175236
  0
VERTEX
  8
PLAN_1
 62
     2
  6
CONTINUOUS
 10
0.407976
 20
2.173059
  0
VERTEX
  8
PLAN_1
 62
     2
  6
CONTINUOUS
 10
0.409283
 20
2.170012
  0
VERTEX
  8
PLAN_1
 62
     2
  6
CONTINUOUS
 10
0.410154
 20
2.166965
  0
VERTEX
  8
PLAN_1
 62
     2
  6
CONTINUOUS
 10
0.411024
 20
2.163047
  0
VERTEX
  8
PLAN_1
 62
     2
  6
CONTINUOUS
 10
0.411024
 20
2.159126
  0
VERTEX
  8
PLAN_1
 62
     2
  6
CONTINUOUS
 10
0.411024
 20
2.155642
  0
VERTEX
  8
PLAN_1
 62
     2
  6
CONTINUOUS
 10
0.410154
 20
2.151724
  0
VERTEX
  8
PLAN_1
 62
     2
  6
CONTINUOUS
 10
0.408846
 20
2.147807
  0
VERTEX
  8
PLAN_1
 62
     2
  6
CONTINUOUS
 10
0.407106
 20
2.144323
  0
VERTEX
  8
PLAN_1
 62
     2
  6
CONTINUOUS
 10
0.405799
 20
2.142583
  0
VERTEX
  8
PLAN_1
 62
     2
  6
CONTINUOUS
 10
0.404492
 20
2.141276
  0
VERTEX
  8
PLAN_1
 62
     2
  6
CONTINUOUS
 10
0.402752
 20
2.139969
  0
VERTEX
  8
PLAN_1
 62
     2
  6
CONTINUOUS
 10
0.401012
 20
2.138661
  0
VERTEX
  8
PLAN_1
 62
     2
  6
CONTINUOUS
 10
0.398835
 20
2.137358
  0
VERTEX
  8
PLAN_1
 62
     2
  6
CONTINUOUS
 10
0.396220
 20
2.136484
  0
VERTEX
  8
PLAN_1
 62
     2
  6
CONTINUOUS
 10
0.393610
 20
2.136051
  0
VERTEX
  8
PLAN_1
 62
     2
  6
CONTINUOUS
 10
0.390996
 20
2.135614
  0
VERTEX
  8
PLAN_1
 62
     2
  6
CONTINUOUS
 10
0.390996
 20
2.144760
  0
VERTEX
  8
PLAN_1
 62
     2
  6
CONTINUOUS
 10
0.393610
 20
2.145630
  0
VERTEX
  8
PLAN_1
 62
     2
  6
CONTINUOUS
 10
0.396220
 20
2.146500
  0
VERTEX
  8
PLAN_1
 62
     2
  6
CONTINUOUS
 10
0.398398
 20
2.148240
  0
VERTEX
  8
PLAN_1
 62
     2
  6
CONTINUOUS
 10
0.400138
 20
2.149984
  0
VERTEX
  8
PLAN_1
 62
     2
  6
CONTINUOUS
 10
0.401445
 20
2.152161
  0
VERTEX
  8
PLAN_1
 62
     2
  6
CONTINUOUS
 10
0.402315
 20
2.154772
  0
VERTEX
  8
PLAN_1
 62
     2
  6
CONTINUOUS
 10
0.402752
 20
2.157386
  0
VERTEX
  8
PLAN_1
 62
     2
  6
CONTINUOUS
 10
0.403189
 20
2.160433
  0
VERTEX
  8
PLAN_1
 62
     2
  6
CONTINUOUS
 10
0.402752
 20
2.163917
  0
VERTEX
  8
PLAN_1
 62
     2
  6
CONTINUOUS
 10
0.401882
 20
2.166965
  0
VERTEX
  8
PLAN_1
 62
     2
  6
CONTINUOUS
 10
0.400138
 20
2.169575
  0
VERTEX
  8
PLAN_1
 62
     2
  6
CONTINUOUS
 10
0.397961
 20
2.171752
  0
VERTEX
  8
PLAN_1
 62
     2
  6
CONTINUOUS
 10
0.395783
 20
2.173496
  0
VERTEX
  8
PLAN_1
 62
     2
  6
CONTINUOUS
 10
0.392736
 20
2.174799
  0
VERTEX
  8
PLAN_1
 62
     2
  6
CONTINUOUS
 10
0.389689
 20
2.175673
  0
VERTEX
  8
PLAN_1
 62
     2
  6
CONTINUOUS
 10
0.386205
 20
2.175673
  0
VERTEX
  8
PLAN_1
 62
     2
  6
CONTINUOUS
 10
0.382724
 20
2.175673
  0
VERTEX
  8
PLAN_1
 62
     2
  6
CONTINUOUS
 10
0.379240
 20
2.174799
  0
VERTEX
  8
PLAN_1
 62
     2
  6
CONTINUOUS
 10
0.376626
 20
2.173059
  0
VERTEX
  8
PLAN_1
 62
     2
  6
CONTINUOUS
 10
0.374449
 20
2.171319
  0
VERTEX
  8
PLAN_1
 62
     2
  6
CONTINUOUS
 10
0.372709
 20
2.168705
  0
VERTEX
  8
PLAN_1
 62
     2
  6
CONTINUOUS
 10
0.371402
 20
2.166094
  0
VERTEX
  8
PLAN_1
 62
     2
  6
CONTINUOUS
 10
0.370531
 20
2.163047
  0
VERTEX
  8
PLAN_1
 62
     2
  6
CONTINUOUS
 10
0.370098
 20
2.159563
  0
VERTEX
  8
PLAN_1
 62
     2
  6
CONTINUOUS
 10
0.370098
 20
2.157819
  0
VERTEX
  8
PLAN_1
 62
     2
  6
CONTINUOUS
 10
0.370531
 20
2.155642
  0
VERTEX
  8
PLAN_1
 62
     2
  6
CONTINUOUS
 10
0.370969
 20
2.153902
  0
VERTEX
  8
PLAN_1
 62
     2
  6
CONTINUOUS
 10
0.371839
 20
2.152161
  0
VERTEX
  8
PLAN_1
 62
     2
  6
CONTINUOUS
 10
0.373146
 20
2.150417
  0
VERTEX
  8
PLAN_1
 62
     2
  6
CONTINUOUS
 10
0.374016
 20
2.149114
  0
VERTEX
  8
PLAN_1
 62
     2
  6
CONTINUOUS
 10
0.375323
 20
2.147370
  0
VERTEX
  8
PLAN_1
 62
     2
  6
CONTINUOUS
 10
0.377063
 20
2.146063
  0
VERTEX
  8
PLAN_1
 62
     2
  6
CONTINUOUS
 10
0.376626
 20
2.138228
  0
VERTEX
  8
PLAN_1
 62
     2
  6
CONTINUOUS
 10
0.337441
 20
2.143886
  0
VERTEX
  8
PLAN_1
 62
     2
  6
CONTINUOUS
 10
0.337441
 20
2.181768
  0
VERTEX
  8
PLAN_1
 62
     2
  6
CONTINUOUS
 10
0.346587
 20
2.181768
  0
VERTEX
  8
PLAN_1
 62
     2
  6
CONTINUOUS
 10
0.346587
 20
2.150417
  0
VERTEX
  8
PLAN_1
 62
     2
  6
CONTINUOUS
 10
0.366614
 20
2.147370
  0
SEQEND
  8
0
  0
POLYLINE
  8
PLAN_1
 62
     2
  6
CONTINUOUS
 66
     1
 40
0.003000
 41
0.003000
  0
VERTEX
  8
PLAN_1
 62
     2
  6
CONTINUOUS
 10
0.391433
 20
2.233579
  0
VERTEX
  8
PLAN_1
 62
     2
  6
CONTINUOUS
 10
0.408846
 20
2.233579
  0
VERTEX
  8
PLAN_1
 62
     2
  6
CONTINUOUS
 10
0.408846
 20
2.224437
  0
VERTEX
  8
PLAN_1
 62
     2
  6
CONTINUOUS
 10
0.391433
 20
2.224437
  0
VERTEX
  8
PLAN_1
 62
     2
  6
CONTINUOUS
 10
0.391433
 20
2.192654
  0
VERTEX
  8
PLAN_1
 62
     2
  6
CONTINUOUS
 10
0.382287
 20
2.192654
  0
VERTEX
  8
PLAN_1
 62
     2
  6
CONTINUOUS
 10
0.335701
 20
2.226177
  0
VERTEX
  8
PLAN_1
 62
     2
  6
CONTINUOUS
 10
0.335701
 20
2.233579
  0
VERTEX
  8
PLAN_1
 62
     2
  6
CONTINUOUS
 10
0.383157
 20
2.233579
  0
VERTEX
  8
PLAN_1
 62
     2
  6
CONTINUOUS
 10
0.383157
 20
2.244465
  0
VERTEX
  8
PLAN_1
 62
     2
  6
CONTINUOUS
 10
0.391433
 20
2.244465
  0
VERTEX
  8
PLAN_1
 62
     2
  6
CONTINUOUS
 10
0.391433
 20
2.233579
  0
SEQEND
  8
0
  0
SOLID
  8
PLAN_1
 62
     2
 10
0.383157
 20
2.200925
 11
0.383157
 21
2.224437
 12
0.383157
 22
2.200925
 13
0.350067
 23
2.224437
  0
POLYLINE
  8
PLAN_1
 62
     2
  6
CONTINUOUS
 66
     1
 40
0.003000
 41
0.003000
  0
VERTEX
  8
PLAN_1
 62
     2
  6
CONTINUOUS
 10
0.383157
 20
2.200925
  0
VERTEX
  8
PLAN_1
 62
     2
  6
CONTINUOUS
 10
0.383157
 20
2.224437
  0
VERTEX
  8
PLAN_1
 62
     2
  6
CONTINUOUS
 10
0.350067
 20
2.224437
  0
VERTEX
  8
PLAN_1
 62
     2
  6
CONTINUOUS
 10
0.383157
 20
2.200925
  0
SEQEND
  8
0
  0
SOLID
  8
PLAN_1
 62
     2
 10
-0.909543
 20
3.229776
 11
-0.879063
 21
3.282457
 12
-0.909543
 22
3.229776
 13
-0.856858
 23
3.260252
  0
POLYLINE
  8
PLAN_1
 62
     2
  6
CONTINUOUS
 66
     1
 40
0.003000
 41
0.003000
  0
VERTEX
  8
PLAN_1
 62
     2
  6
CONTINUOUS
 10
-0.909543
 20
3.229776
  0
VERTEX
  8
PLAN_1
 62
     2
  6
CONTINUOUS
 10
-0.879063
 20
3.282457
  0
VERTEX
  8
PLAN_1
 62
     2
  6
CONTINUOUS
 10
-0.856858
 20
3.260252
  0
VERTEX
  8
PLAN_1
 62
     2
  6
CONTINUOUS
 10
-0.909543
 20
3.229776
  0
SEQEND
  8
0
  0
POLYLINE
  8
PLAN_1
 62
     2
  6
CONTINUOUS
 66
     1
 40
0.004350
 41
0.004350
  0
VERTEX
  8
PLAN_1
 62
     2
  6
CONTINUOUS
 10
-0.882984
 20
3.255898
  0
VERTEX
  8
PLAN_1
 62
     2
  6
CONTINUOUS
 10
-0.753236
 20
3.380858
  0
VERTEX
  8
PLAN_1
 62
     2
  6
CONTINUOUS
 10
-0.465000
 20
3.380858
  0
SEQEND
  8
0
  0
POLYLINE
  8
PLAN_1
 62
     2
  6
CONTINUOUS
 66
     1
 40
0.003000
 41
0.003000
  0
VERTEX
  8
PLAN_1
 62
     2
  6
CONTINUOUS
 10
-0.647866
 20
3.468374
  0
VERTEX
  8
PLAN_1
 62
     2
  6
CONTINUOUS
 10
-0.645689
 20
3.465327
  0
VERTEX
  8
PLAN_1
 62
     2
  6
CONTINUOUS
 10
-0.643949
 20
3.461843
  0
VERTEX
  8
PLAN_1
 62
     2
  6
CONTINUOUS
 10
-0.642209
 20
3.458795
  0
VERTEX
  8
PLAN_1
 62
     2
  6
CONTINUOUS
 10
-0.640902
 20
3.455311
  0
VERTEX
  8
PLAN_1
 62
     2
  6
CONTINUOUS
 10
-0.640465
 20
3.451827
  0
VERTEX
  8
PLAN_1
 62
     2
  6
CONTINUOUS
 10
-0.639594
 20
3.448346
  0
VERTEX
  8
PLAN_1
 62
     2
  6
CONTINUOUS
 10
-0.639161
 20
3.444862
  0
VERTEX
  8
PLAN_1
 62
     2
  6
CONTINUOUS
 10
-0.639161
 20
3.441815
  0
VERTEX
  8
PLAN_1
 62
     2
  6
CONTINUOUS
 10
-0.639594
 20
3.435283
  0
VERTEX
  8
PLAN_1
 62
     2
  6
CONTINUOUS
 10
-0.640902
 20
3.428752
  0
VERTEX
  8
PLAN_1
 62
     2
  6
CONTINUOUS
 10
-0.642209
 20
3.425268
  0
VERTEX
  8
PLAN_1
 62
     2
  6
CONTINUOUS
 10
-0.643512
 20
3.422220
  0
VERTEX
  8
PLAN_1
 62
     2
  6
CONTINUOUS
 10
-0.644819
 20
3.419173
  0
VERTEX
  8
PLAN_1
 62
     2
  6
CONTINUOUS
 10
-0.646996
 20
3.416126
  0
VERTEX
  8
PLAN_1
 62
     2
  6
CONTINUOUS
 10
-0.649173
 20
3.413079
  0
VERTEX
  8
PLAN_1
 62
     2
  6
CONTINUOUS
 10
-0.651787
 20
3.410465
  0
VERTEX
  8
PLAN_1
 62
     2
  6
CONTINUOUS
 10
-0.654835
 20
3.408287
  0
VERTEX
  8
PLAN_1
 62
     2
  6
CONTINUOUS
 10
-0.658319
 20
3.406110
  0
VERTEX
  8
PLAN_1
 62
     2
  6
CONTINUOUS
 10
-0.661799
 20
3.404803
  0
VERTEX
  8
PLAN_1
 62
     2
  6
CONTINUOUS
 10
-0.666154
 20
3.403500
  0
VERTEX
  8
PLAN_1
 62
     2
  6
CONTINUOUS
 10
-0.670508
 20
3.402630
  0
VERTEX
  8
PLAN_1
 62
     2
  6
CONTINUOUS
 10
-0.675732
 20
3.402193
  0
VERTEX
  8
PLAN_1
 62
     2
  6
CONTINUOUS
 10
-0.679654
 20
3.402630
  0
VERTEX
  8
PLAN_1
 62
     2
  6
CONTINUOUS
 10
-0.683134
 20
3.403063
  0
VERTEX
  8
PLAN_1
 62
     2
  6
CONTINUOUS
 10
-0.686618
 20
3.403933
  0
VERTEX
  8
PLAN_1
 62
     2
  6
CONTINUOUS
 10
-0.689665
 20
3.404803
  0
VERTEX
  8
PLAN_1
 62
     2
  6
CONTINUOUS
 10
-0.692713
 20
3.406110
  0
VERTEX
  8
PLAN_1
 62
     2
  6
CONTINUOUS
 10
-0.695327
 20
3.407854
  0
VERTEX
  8
PLAN_1
 62
     2
  6
CONTINUOUS
 10
-0.697937
 20
3.409594
  0
VERTEX
  8
PLAN_1
 62
     2
  6
CONTINUOUS
 10
-0.700114
 20
3.411335
  0
VERTEX
  8
PLAN_1
 62
     2
  6
CONTINUOUS
 10
-0.708390
 20
3.402193
  0
VERTEX
  8
PLAN_1
 62
     2
  6
CONTINUOUS
 10
-0.711870
 20
3.405240
  0
VERTEX
  8
PLAN_1
 62
     2
  6
CONTINUOUS
 10
-0.703161
 20
3.414819
  0
VERTEX
  8
PLAN_1
 62
     2
  6
CONTINUOUS
 10
-0.705339
 20
3.417866
  0
VERTEX
  8
PLAN_1
 62
     2
  6
CONTINUOUS
 10
-0.707083
 20
3.420913
  0
VERTEX
  8
PLAN_1
 62
     2
  6
CONTINUOUS
 10
-0.708823
 20
3.424398
  0
VERTEX
  8
PLAN_1
 62
     2
  6
CONTINUOUS
 10
-0.710130
 20
3.427882
  0
VERTEX
  8
PLAN_1
 62
     2
  6
CONTINUOUS
 10
-0.711000
 20
3.431366
  0
VERTEX
  8
PLAN_1
 62
     2
  6
CONTINUOUS
 10
-0.711437
 20
3.434846
  0
VERTEX
  8
PLAN_1
 62
     2
  6
CONTINUOUS
 10
-0.711870
 20
3.438331
  0
VERTEX
  8
PLAN_1
 62
     2
  6
CONTINUOUS
 10
-0.711870
 20
3.441815
  0
VERTEX
  8
PLAN_1
 62
     2
  6
CONTINUOUS
 10
-0.711870
 20
3.444862
  0
VERTEX
  8
PLAN_1
 62
     2
  6
CONTINUOUS
 10
-0.711437
 20
3.447909
  0
VERTEX
  8
PLAN_1
 62
     2
  6
CONTINUOUS
 10
-0.711000
 20
3.451394
  0
VERTEX
  8
PLAN_1
 62
     2
  6
CONTINUOUS
 10
-0.710130
 20
3.454441
  0
VERTEX
  8
PLAN_1
 62
     2
  6
CONTINUOUS
 10
-0.709260
 20
3.457925
  0
VERTEX
  8
PLAN_1
 62
     2
  6
CONTINUOUS
 10
-0.707953
 20
3.461406
  0
VERTEX
  8
PLAN_1
 62
     2
  6
CONTINUOUS
 10
-0.706213
 20
3.464457
  0
VERTEX
  8
PLAN_1
 62
     2
  6
CONTINUOUS
 10
-0.704469
 20
3.467504
  0
VERTEX
  8
PLAN_1
 62
     2
  6
CONTINUOUS
 10
-0.701858
 20
3.470114
  0
VERTEX
  8
PLAN_1
 62
     2
  6
CONTINUOUS
 10
-0.699244
 20
3.472728
  0
VERTEX
  8
PLAN_1
 62
     2
  6
CONTINUOUS
 10
-0.696197
 20
3.474906
  0
VERTEX
  8
PLAN_1
 62
     2
  6
CONTINUOUS
 10
-0.693150
 20
3.477083
  0
VERTEX
  8
PLAN_1
 62
     2
  6
CONTINUOUS
 10
-0.689232
 20
3.478823
  0
VERTEX
  8
PLAN_1
 62
     2
  6
CONTINUOUS
 10
-0.685311
 20
3.480130
  0
VERTEX
  8
PLAN_1
 62
     2
  6
CONTINUOUS
 10
-0.680524
 20
3.480563
  0
VERTEX
  8
PLAN_1
 62
     2
  6
CONTINUOUS
 10
-0.675732
 20
3.481000
  0
VERTEX
  8
PLAN_1
 62
     2
  6
CONTINUOUS
 10
-0.671378
 20
3.481000
  0
VERTEX
  8
PLAN_1
 62
     2
  6
CONTINUOUS
 10
-0.667898
 20
3.480130
  0
VERTEX
  8
PLAN_1
 62
     2
  6
CONTINUOUS
 10
-0.664413
 20
3.479693
  0
VERTEX
  8
PLAN_1
 62
     2
  6
CONTINUOUS
 10
-0.660929
 20
3.478386
  0
VERTEX
  8
PLAN_1
 62
     2
  6
CONTINUOUS
 10
-0.657882
 20
3.477083
  0
VERTEX
  8
PLAN_1
 62
     2
  6
CONTINUOUS
 10
-0.655268
 20
3.475339
  0
VERTEX
  8
PLAN_1
 62
     2
  6
CONTINUOUS
 10
-0.653091
 20
3.473598
  0
VERTEX
  8
PLAN_1
 62
     2
  6
CONTINUOUS
 10
-0.650913
 20
3.471858
  0
VERTEX
  8
PLAN_1
 62
     2
  6
CONTINUOUS
 10
-0.642209
 20
3.481000
  0
VERTEX
  8
PLAN_1
 62
     2
  6
CONTINUOUS
 10
-0.639161
 20
3.477953
  0
VERTEX
  8
PLAN_1
 62
     2
  6
CONTINUOUS
 10
-0.647866
 20
3.468374
  0
SEQEND
  8
0
  0
POLYLINE
  8
PLAN_1
 62
     2
  6
CONTINUOUS
 66
     1
 40
0.003000
 41
0.003000
  0
VERTEX
  8
PLAN_1
 62
     2
  6
CONTINUOUS
 10
-0.693583
 20
3.418736
  0
VERTEX
  8
PLAN_1
 62
     2
  6
CONTINUOUS
 10
-0.691843
 20
3.416996
  0
VERTEX
  8
PLAN_1
 62
     2
  6
CONTINUOUS
 10
-0.690102
 20
3.415689
  0
VERTEX
  8
PLAN_1
 62
     2
  6
CONTINUOUS
 10
-0.687925
 20
3.414382
  0
VERTEX
  8
PLAN_1
 62
     2
  6
CONTINUOUS
 10
-0.685748
 20
3.413079
  0
VERTEX
  8
PLAN_1
 62
     2
  6
CONTINUOUS
 10
-0.683571
 20
3.412209
  0
VERTEX
  8
PLAN_1
 62
     2
  6
CONTINUOUS
 10
-0.680957
 20
3.411772
  0
VERTEX
  8
PLAN_1
 62
     2
  6
CONTINUOUS
 10
-0.678346
 20
3.411335
  0
VERTEX
  8
PLAN_1
 62
     2
  6
CONTINUOUS
 10
-0.675732
 20
3.411335
  0
VERTEX
  8
PLAN_1
 62
     2
  6
CONTINUOUS
 10
-0.672685
 20
3.411335
  0
VERTEX
  8
PLAN_1
 62
     2
  6
CONTINUOUS
 10
-0.669638
 20
3.411772
  0
VERTEX
  8
PLAN_1
 62
     2
  6
CONTINUOUS
 10
-0.667024
 20
3.412642
  0
VERTEX
  8
PLAN_1
 62
     2
  6
CONTINUOUS
 10
-0.664846
 20
3.413512
  0
VERTEX
  8
PLAN_1
 62
     2
  6
CONTINUOUS
 10
-0.662236
 20
3.414819
  0
VERTEX
  8
PLAN_1
 62
     2
  6
CONTINUOUS
 10
-0.660059
 20
3.416126
  0
VERTEX
  8
PLAN_1
 62
     2
  6
CONTINUOUS
 10
-0.658319
 20
3.417866
  0
VERTEX
  8
PLAN_1
 62
     2
  6
CONTINUOUS
 10
-0.656575
 20
3.420043
  0
VERTEX
  8
PLAN_1
 62
     2
  6
CONTINUOUS
 10
-0.654835
 20
3.422220
  0
VERTEX
  8
PLAN_1
 62
     2
  6
CONTINUOUS
 10
-0.653528
 20
3.424398
  0
VERTEX
  8
PLAN_1
 62
     2
  6
CONTINUOUS
 10
-0.652220
 20
3.427012
  0
VERTEX
  8
PLAN_1
 62
     2
  6
CONTINUOUS
 10
-0.651350
 20
3.429622
  0
VERTEX
  8
PLAN_1
 62
     2
  6
CONTINUOUS
 10
-0.650480
 20
3.432236
  0
VERTEX
  8
PLAN_1
 62
     2
  6
CONTINUOUS
 10
-0.650043
 20
3.435283
  0
VERTEX
  8
PLAN_1
 62
     2
  6
CONTINUOUS
 10
-0.649610
 20
3.438331
  0
VERTEX
  8
PLAN_1
 62
     2
  6
CONTINUOUS
 10
-0.649610
 20
3.441815
  0
VERTEX
  8
PLAN_1
 62
     2
  6
CONTINUOUS
 10
-0.649610
 20
3.444425
  0
VERTEX
  8
PLAN_1
 62
     2
  6
CONTINUOUS
 10
-0.650043
 20
3.447039
  0
VERTEX
  8
PLAN_1
 62
     2
  6
CONTINUOUS
 10
-0.650480
 20
3.449650
  0
VERTEX
  8
PLAN_1
 62
     2
  6
CONTINUOUS
 10
-0.650913
 20
3.452264
  0
VERTEX
  8
PLAN_1
 62
     2
  6
CONTINUOUS
 10
-0.651787
 20
3.454441
  0
VERTEX
  8
PLAN_1
 62
     2
  6
CONTINUOUS
 10
-0.652657
 20
3.456618
  0
VERTEX
  8
PLAN_1
 62
     2
  6
CONTINUOUS
 10
-0.653528
 20
3.458795
  0
VERTEX
  8
PLAN_1
 62
     2
  6
CONTINUOUS
 10
-0.654835
 20
3.460972
  0
VERTEX
  8
PLAN_1
 62
     2
  6
CONTINUOUS
 10
-0.693583
 20
3.418736
  0
SEQEND
  8
0
  0
POLYLINE
  8
PLAN_1
 62
     2
  6
CONTINUOUS
 66
     1
 40
0.003000
 41
0.003000
  0
VERTEX
  8
PLAN_1
 62
     2
  6
CONTINUOUS
 10
-0.657445
 20
3.464457
  0
VERTEX
  8
PLAN_1
 62
     2
  6
CONTINUOUS
 10
-0.659189
 20
3.466197
  0
VERTEX
  8
PLAN_1
 62
     2
  6
CONTINUOUS
 10
-0.660929
 20
3.467504
  0
VERTEX
  8
PLAN_1
 62
     2
  6
CONTINUOUS
 10
-0.663106
 20
3.468807
  0
VERTEX
  8
PLAN_1
 62
     2
  6
CONTINUOUS
 10
-0.665283
 20
3.470114
  0
VERTEX
  8
PLAN_1
 62
     2
  6
CONTINUOUS
 10
-0.667461
 20
3.470984
  0
VERTEX
  8
PLAN_1
 62
     2
  6
CONTINUOUS
 10
-0.670075
 20
3.471421
  0
VERTEX
  8
PLAN_1
 62
     2
  6
CONTINUOUS
 10
-0.672685
 20
3.471858
  0
VERTEX
  8
PLAN_1
 62
     2
  6
CONTINUOUS
 10
-0.675732
 20
3.471858
  0
VERTEX
  8
PLAN_1
 62
     2
  6
CONTINUOUS
 10
-0.678780
 20
3.471858
  0
VERTEX
  8
PLAN_1
 62
     2
  6
CONTINUOUS
 10
-0.681394
 20
3.471421
  0
VERTEX
  8
PLAN_1
 62
     2
  6
CONTINUOUS
 10
-0.684004
 20
3.470551
  0
VERTEX
  8
PLAN_1
 62
     2
  6
CONTINUOUS
 10
-0.686618
 20
3.469681
  0
VERTEX
  8
PLAN_1
 62
     2
  6
CONTINUOUS
 10
-0.688795
 20
3.468374
  0
VERTEX
  8
PLAN_1
 62
     2
  6
CONTINUOUS
 10
-0.690972
 20
3.467067
  0
VERTEX
  8
PLAN_1
 62
     2
  6
CONTINUOUS
 10
-0.692713
 20
3.465327
  0
VERTEX
  8
PLAN_1
 62
     2
  6
CONTINUOUS
 10
-0.694890
 20
3.463583
  0
VERTEX
  8
PLAN_1
 62
     2
  6
CONTINUOUS
 10
-0.696197
 20
3.461406
  0
VERTEX
  8
PLAN_1
 62
     2
  6
CONTINUOUS
 10
-0.697504
 20
3.458795
  0
VERTEX
  8
PLAN_1
 62
     2
  6
CONTINUOUS
 10
-0.698811
 20
3.456618
  0
VERTEX
  8
PLAN_1
 62
     2
  6
CONTINUOUS
 10
-0.699681
 20
3.454004
  0
VERTEX
  8
PLAN_1
 62
     2
  6
CONTINUOUS
 10
-0.700551
 20
3.450957
  0
VERTEX
  8
PLAN_1
 62
     2
  6
CONTINUOUS
 10
-0.700988
 20
3.447909
  0
VERTEX
  8
PLAN_1
 62
     2
  6
CONTINUOUS
 10
-0.701421
 20
3.444862
  0
VERTEX
  8
PLAN_1
 62
     2
  6
CONTINUOUS
 10
-0.701421
 20
3.441815
  0
VERTEX
  8
PLAN_1
 62
     2
  6
CONTINUOUS
 10
-0.701421
 20
3.438768
  0
VERTEX
  8
PLAN_1
 62
     2
  6
CONTINUOUS
 10
-0.701421
 20
3.436154
  0
VERTEX
  8
PLAN_1
 62
     2
  6
CONTINUOUS
 10
-0.700988
 20
3.433543
  0
VERTEX
  8
PLAN_1
 62
     2
  6
CONTINUOUS
 10
-0.700114
 20
3.430929
  0
VERTEX
  8
PLAN_1
 62
     2
  6
CONTINUOUS
 10
-0.699681
 20
3.428752
  0
VERTEX
  8
PLAN_1
 62
     2
  6
CONTINUOUS
 10
-0.698374
 20
3.426138
  0
VERTEX
  8
PLAN_1
 62
     2
  6
CONTINUOUS
 10
-0.697504
 20
3.423965
  0
VERTEX
  8
PLAN_1
 62
     2
  6
CONTINUOUS
 10
-0.696197
 20
3.422220
  0
VERTEX
  8
PLAN_1
 62
     2
  6
CONTINUOUS
 10
-0.657445
 20
3.464457
  0
SEQEND
  8
0
  0
POLYLINE
  8
PLAN_1
 62
     2
  6
CONTINUOUS
 66
     1
 40
0.003000
 41
0.003000
  0
VERTEX
  8
PLAN_1
 62
     2
  6
CONTINUOUS
 10
-0.630453
 20
3.451394
  0
VERTEX
  8
PLAN_1
 62
     2
  6
CONTINUOUS
 10
-0.630453
 20
3.455311
  0
VERTEX
  8
PLAN_1
 62
     2
  6
CONTINUOUS
 10
-0.629583
 20
3.459228
  0
VERTEX
  8
PLAN_1
 62
     2
  6
CONTINUOUS
 10
-0.628709
 20
3.462713
  0
VERTEX
  8
PLAN_1
 62
     2
  6
CONTINUOUS
 10
-0.627839
 20
3.465327
  0
VERTEX
  8
PLAN_1
 62
     2
  6
CONTINUOUS
 10
-0.626098
 20
3.467937
  0
VERTEX
  8
PLAN_1
 62
     2
  6
CONTINUOUS
 10
-0.624791
 20
3.470114
  0
VERTEX
  8
PLAN_1
 62
     2
  6
CONTINUOUS
 10
-0.622614
 20
3.471858
  0
VERTEX
  8
PLAN_1
 62
     2
  6
CONTINUOUS
 10
-0.620874
 20
3.473161
  0
VERTEX
  8
PLAN_1
 62
     2
  6
CONTINUOUS
 10
-0.616520
 20
3.475339
  0
VERTEX
  8
PLAN_1
 62
     2
  6
CONTINUOUS
 10
-0.612598
 20
3.476646
  0
VERTEX
  8
PLAN_1
 62
     2
  6
CONTINUOUS
 10
-0.608681
 20
3.477516
  0
VERTEX
  8
PLAN_1
 62
     2
  6
CONTINUOUS
 10
-0.605197
 20
3.477516
  0
VERTEX
  8
PLAN_1
 62
     2
  6
CONTINUOUS
 10
-0.600409
 20
3.477083
  0
VERTEX
  8
PLAN_1
 62
     2
  6
CONTINUOUS
 10
-0.596492
 20
3.475776
  0
VERTEX
  8
PLAN_1
 62
     2
  6
CONTINUOUS
 10
-0.592571
 20
3.474035
  0
VERTEX
  8
PLAN_1
 62
     2
  6
CONTINUOUS
 10
-0.589091
 20
3.471858
  0
VERTEX
  8
PLAN_1
 62
     2
  6
CONTINUOUS
 10
-0.587346
 20
3.470114
  0
VERTEX
  8
PLAN_1
 62
     2
  6
CONTINUOUS
 10
-0.586039
 20
3.468374
  0
VERTEX
  8
PLAN_1
 62
     2
  6
CONTINUOUS
 10
-0.585169
 20
3.466630
  0
VERTEX
  8
PLAN_1
 62
     2
  6
CONTINUOUS
 10
-0.584299
 20
3.464890
  0
VERTEX
  8
PLAN_1
 62
     2
  6
CONTINUOUS
 10
-0.583429
 20
3.462713
  0
VERTEX
  8
PLAN_1
 62
     2
  6
CONTINUOUS
 10
-0.582992
 20
3.460535
  0
VERTEX
  8
PLAN_1
 62
     2
  6
CONTINUOUS
 10
-0.582559
 20
3.457925
  0
VERTEX
  8
PLAN_1
 62
     2
  6
CONTINUOUS
 10
-0.582122
 20
3.455748
  0
VERTEX
  8
PLAN_1
 62
     2
  6
CONTINUOUS
 10
-0.582559
 20
3.450957
  0
VERTEX
  8
PLAN_1
 62
     2
  6
CONTINUOUS
 10
-0.583862
 20
3.447039
  0
VERTEX
  8
PLAN_1
 62
     2
  6
CONTINUOUS
 10
-0.585606
 20
3.443555
  0
VERTEX
  8
PLAN_1
 62
     2
  6
CONTINUOUS
 10
-0.588217
 20
3.440508
  0
VERTEX
  8
PLAN_1
 62
     2
  6
CONTINUOUS
 10
-0.590831
 20
3.437894
  0
VERTEX
  8
PLAN_1
 62
     2
  6
CONTINUOUS
 10
-0.594315
 20
3.435717
  0
VERTEX
  8
PLAN_1
 62
     2
  6
CONTINUOUS
 10
-0.597795
 20
3.433543
  0
VERTEX
  8
PLAN_1
 62
     2
  6
CONTINUOUS
 10
-0.601717
 20
3.431366
  0
VERTEX
  8
PLAN_1
 62
     2
  6
CONTINUOUS
 10
-0.609551
 20
3.427012
  0
VERTEX
  8
PLAN_1
 62
     2
  6
CONTINUOUS
 10
-0.613035
 20
3.424835
  0
VERTEX
  8
PLAN_1
 62
     2
  6
CONTINUOUS
 10
-0.615650
 20
3.422657
  0
VERTEX
  8
PLAN_1
 62
     2
  6
CONTINUOUS
 10
-0.617827
 20
3.420913
  0
VERTEX
  8
PLAN_1
 62
     2
  6
CONTINUOUS
 10
-0.619567
 20
3.419173
  0
VERTEX
  8
PLAN_1
 62
     2
  6
CONTINUOUS
 10
-0.620437
 20
3.416996
  0
VERTEX
  8
PLAN_1
 62
     2
  6
CONTINUOUS
 10
-0.621307
 20
3.415689
  0
VERTEX
  8
PLAN_1
 62
     2
  6
CONTINUOUS
 10
-0.621744
 20
3.413949
  0
VERTEX
  8
PLAN_1
 62
     2
  6
CONTINUOUS
 10
-0.622177
 20
3.413079
  0
VERTEX
  8
PLAN_1
 62
     2
  6
CONTINUOUS
 10
-0.582122
 20
3.413079
  0
VERTEX
  8
PLAN_1
 62
     2
  6
CONTINUOUS
 10
-0.582122
 20
3.404370
  0
VERTEX
  8
PLAN_1
 62
     2
  6
CONTINUOUS
 10
-0.632193
 20
3.404370
  0
VERTEX
  8
PLAN_1
 62
     2
  6
CONTINUOUS
 10
-0.631756
 20
3.409594
  0
VERTEX
  8
PLAN_1
 62
     2
  6
CONTINUOUS
 10
-0.630886
 20
3.414382
  0
VERTEX
  8
PLAN_1
 62
     2
  6
CONTINUOUS
 10
-0.629146
 20
3.418736
  0
VERTEX
  8
PLAN_1
 62
     2
  6
CONTINUOUS
 10
-0.627406
 20
3.422220
  0
VERTEX
  8
PLAN_1
 62
     2
  6
CONTINUOUS
 10
-0.624791
 20
3.425705
  0
VERTEX
  8
PLAN_1
 62
     2
  6
CONTINUOUS
 10
-0.621744
 20
3.428752
  0
VERTEX
  8
PLAN_1
 62
     2
  6
CONTINUOUS
 10
-0.618697
 20
3.430929
  0
VERTEX
  8
PLAN_1
 62
     2
  6
CONTINUOUS
 10
-0.615213
 20
3.433543
  0
VERTEX
  8
PLAN_1
 62
     2
  6
CONTINUOUS
 10
-0.605634
 20
3.438768
  0
VERTEX
  8
PLAN_1
 62
     2
  6
CONTINUOUS
 10
-0.602587
 20
3.440508
  0
VERTEX
  8
PLAN_1
 62
     2
  6
CONTINUOUS
 10
-0.599972
 20
3.442248
  0
VERTEX
  8
PLAN_1
 62
     2
  6
CONTINUOUS
 10
-0.597795
 20
3.443992
  0
VERTEX
  8
PLAN_1
 62
     2
  6
CONTINUOUS
 10
-0.596055
 20
3.445732
  0
VERTEX
  8
PLAN_1
 62
     2
  6
CONTINUOUS
 10
-0.594315
 20
3.447472
  0
VERTEX
  8
PLAN_1
 62
     2
  6
CONTINUOUS
 10
-0.593008
 20
3.450087
  0
VERTEX
  8
PLAN_1
 62
     2
  6
CONTINUOUS
 10
-0.592571
 20
3.452701
  0
VERTEX
  8
PLAN_1
 62
     2
  6
CONTINUOUS
 10
-0.592138
 20
3.456181
  0
VERTEX
  8
PLAN_1
 62
     2
  6
CONTINUOUS
 10
-0.592138
 20
3.458358
  0
VERTEX
  8
PLAN_1
 62
     2
  6
CONTINUOUS
 10
-0.593008
 20
3.460535
  0
VERTEX
  8
PLAN_1
 62
     2
  6
CONTINUOUS
 10
-0.593878
 20
3.462713
  0
VERTEX
  8
PLAN_1
 62
     2
  6
CONTINUOUS
 10
-0.595185
 20
3.464890
  0
VERTEX
  8
PLAN_1
 62
     2
  6
CONTINUOUS
 10
-0.597362
 20
3.466630
  0
VERTEX
  8
PLAN_1
 62
     2
  6
CONTINUOUS
 10
-0.599972
 20
3.467937
  0
VERTEX
  8
PLAN_1
 62
     2
  6
CONTINUOUS
 10
-0.603020
 20
3.468807
  0
VERTEX
  8
PLAN_1
 62
     2
  6
CONTINUOUS
 10
-0.606504
 20
3.469244
  0
VERTEX
  8
PLAN_1
 62
     2
  6
CONTINUOUS
 10
-0.609118
 20
3.469244
  0
VERTEX
  8
PLAN_1
 62
     2
  6
CONTINUOUS
 10
-0.611295
 20
3.468807
  0
VERTEX
  8
PLAN_1
 62
     2
  6
CONTINUOUS
 10
-0.613035
 20
3.467937
  0
VERTEX
  8
PLAN_1
 62
     2
  6
CONTINUOUS
 10
-0.614776
 20
3.467067
  0
VERTEX
  8
PLAN_1
 62
     2
  6
CONTINUOUS
 10
-0.616083
 20
3.466197
  0
VERTEX
  8
PLAN_1
 62
     2
  6
CONTINUOUS
 10
-0.617390
 20
3.464890
  0
VERTEX
  8
PLAN_1
 62
     2
  6
CONTINUOUS
 10
-0.618260
 20
3.463583
  0
VERTEX
  8
PLAN_1
 62
     2
  6
CONTINUOUS
 10
-0.619130
 20
3.462280
  0
VERTEX
  8
PLAN_1
 62
     2
  6
CONTINUOUS
 10
-0.620004
 20
3.459228
  0
VERTEX
  8
PLAN_1
 62
     2
  6
CONTINUOUS
 10
-0.620874
 20
3.456181
  0
VERTEX
  8
PLAN_1
 62
     2
  6
CONTINUOUS
 10
-0.621307
 20
3.453571
  0
VERTEX
  8
PLAN_1
 62
     2
  6
CONTINUOUS
 10
-0.621307
 20
3.451394
  0
VERTEX
  8
PLAN_1
 62
     2
  6
CONTINUOUS
 10
-0.630453
 20
3.451394
  0
SEQEND
  8
0
  0
POLYLINE
  8
PLAN_1
 62
     2
  6
CONTINUOUS
 66
     1
 40
0.003000
 41
0.003000
  0
VERTEX
  8
PLAN_1
 62
     2
  6
CONTINUOUS
 10
-0.548161
 20
3.402193
  0
VERTEX
  8
PLAN_1
 62
     2
  6
CONTINUOUS
 10
-0.552079
 20
3.402630
  0
VERTEX
  8
PLAN_1
 62
     2
  6
CONTINUOUS
 10
-0.555563
 20
3.403500
  0
VERTEX
  8
PLAN_1
 62
     2
  6
CONTINUOUS
 10
-0.558177
 20
3.404370
  0
VERTEX
  8
PLAN_1
 62
     2
  6
CONTINUOUS
 10
-0.561224
 20
3.406110
  0
VERTEX
  8
PLAN_1
 62
     2
  6
CONTINUOUS
 10
-0.563402
 20
3.407854
  0
VERTEX
  8
PLAN_1
 62
     2
  6
CONTINUOUS
 10
-0.565579
 20
3.410031
  0
VERTEX
  8
PLAN_1
 62
     2
  6
CONTINUOUS
 10
-0.567319
 20
3.412642
  0
VERTEX
  8
PLAN_1
 62
     2
  6
CONTINUOUS
 10
-0.568626
 20
3.415256
  0
VERTEX
  8
PLAN_1
 62
     2
  6
CONTINUOUS
 10
-0.569929
 20
3.418303
  0
VERTEX
  8
PLAN_1
 62
     2
  6
CONTINUOUS
 10
-0.570803
 20
3.421350
  0
VERTEX
  8
PLAN_1
 62
     2
  6
CONTINUOUS
 10
-0.571673
 20
3.424398
  0
VERTEX
  8
PLAN_1
 62
     2
  6
CONTINUOUS
 10
-0.572543
 20
3.427445
  0
VERTEX
  8
PLAN_1
 62
     2
  6
CONTINUOUS
 10
-0.572980
 20
3.433976
  0
VERTEX
  8
PLAN_1
 62
     2
  6
CONTINUOUS
 10
-0.573413
 20
3.440071
  0
VERTEX
  8
PLAN_1
 62
     2
  6
CONTINUOUS
 10
-0.572980
 20
3.445732
  0
VERTEX
  8
PLAN_1
 62
     2
  6
CONTINUOUS
 10
-0.572543
 20
3.452264
  0
VERTEX
  8
PLAN_1
 62
     2
  6
CONTINUOUS
 10
-0.571673
 20
3.455311
  0
VERTEX
  8
PLAN_1
 62
     2
  6
CONTINUOUS
 10
-0.570803
 20
3.458358
  0
VERTEX
  8
PLAN_1
 62
     2
  6
CONTINUOUS
 10
-0.569929
 20
3.461406
  0
VERTEX
  8
PLAN_1
 62
     2
  6
CONTINUOUS
 10
-0.568626
 20
3.464457
  0
VERTEX
  8
PLAN_1
 62
     2
  6
CONTINUOUS
 10
-0.567319
 20
3.467067
  0
VERTEX
  8
PLAN_1
 62
     2
  6
CONTINUOUS
 10
-0.565579
 20
3.469681
  0
VERTEX
  8
PLAN_1
 62
     2
  6
CONTINUOUS
 10
-0.563402
 20
3.471858
  0
VERTEX
  8
PLAN_1
 62
     2
  6
CONTINUOUS
 10
-0.561224
 20
3.473598
  0
VERTEX
  8
PLAN_1
 62
     2
  6
CONTINUOUS
 10
-0.558177
 20
3.475339
  0
VERTEX
  8
PLAN_1
 62
     2
  6
CONTINUOUS
 10
-0.555563
 20
3.476646
  0
VERTEX
  8
PLAN_1
 62
     2
  6
CONTINUOUS
 10
-0.552079
 20
3.477083
  0
VERTEX
  8
PLAN_1
 62
     2
  6
CONTINUOUS
 10
-0.548161
 20
3.477516
  0
VERTEX
  8
PLAN_1
 62
     2
  6
CONTINUOUS
 10
-0.544677
 20
3.477083
  0
VERTEX
  8
PLAN_1
 62
     2
  6
CONTINUOUS
 10
-0.541193
 20
3.476646
  0
VERTEX
  8
PLAN_1
 62
     2
  6
CONTINUOUS
 10
-0.538146
 20
3.475339
  0
VERTEX
  8
PLAN_1
 62
     2
  6
CONTINUOUS
 10
-0.535535
 20
3.473598
  0
VERTEX
  8
PLAN_1
 62
     2
  6
CONTINUOUS
 10
-0.532921
 20
3.471858
  0
VERTEX
  8
PLAN_1
 62
     2
  6
CONTINUOUS
 10
-0.531181
 20
3.469681
  0
VERTEX
  8
PLAN_1
 62
     2
  6
CONTINUOUS
 10
-0.529437
 20
3.467067
  0
VERTEX
  8
PLAN_1
 62
     2
  6
CONTINUOUS
 10
-0.527697
 20
3.464457
  0
VERTEX
  8
PLAN_1
 62
     2
  6
CONTINUOUS
 10
-0.526390
 20
3.461406
  0
VERTEX
  8
PLAN_1
 62
     2
  6
CONTINUOUS
 10
-0.525520
 20
3.458358
  0
VERTEX
  8
PLAN_1
 62
     2
  6
CONTINUOUS
 10
-0.524650
 20
3.455311
  0
VERTEX
  8
PLAN_1
 62
     2
  6
CONTINUOUS
 10
-0.524213
 20
3.452264
  0
VERTEX
  8
PLAN_1
 62
     2
  6
CONTINUOUS
 10
-0.523343
 20
3.445732
  0
VERTEX
  8
PLAN_1
 62
     2
  6
CONTINUOUS
 10
-0.523343
 20
3.440071
  0
VERTEX
  8
PLAN_1
 62
     2
  6
CONTINUOUS
 10
-0.523343
 20
3.433976
  0
VERTEX
  8
PLAN_1
 62
     2
  6
CONTINUOUS
 10
-0.524213
 20
3.427445
  0
VERTEX
  8
PLAN_1
 62
     2
  6
CONTINUOUS
 10
-0.524650
 20
3.424398
  0
VERTEX
  8
PLAN_1
 62
     2
  6
CONTINUOUS
 10
-0.525520
 20
3.421350
  0
VERTEX
  8
PLAN_1
 62
     2
  6
CONTINUOUS
 10
-0.526390
 20
3.418303
  0
VERTEX
  8
PLAN_1
 62
     2
  6
CONTINUOUS
 10
-0.527697
 20
3.415256
  0
VERTEX
  8
PLAN_1
 62
     2
  6
CONTINUOUS
 10
-0.529437
 20
3.412642
  0
VERTEX
  8
PLAN_1
 62
     2
  6
CONTINUOUS
 10
-0.531181
 20
3.410031
  0
VERTEX
  8
PLAN_1
 62
     2
  6
CONTINUOUS
 10
-0.532921
 20
3.407854
  0
VERTEX
  8
PLAN_1
 62
     2
  6
CONTINUOUS
 10
-0.535535
 20
3.406110
  0
VERTEX
  8
PLAN_1
 62
     2
  6
CONTINUOUS
 10
-0.538146
 20
3.404370
  0
VERTEX
  8
PLAN_1
 62
     2
  6
CONTINUOUS
 10
-0.541193
 20
3.403500
  0
VERTEX
  8
PLAN_1
 62
     2
  6
CONTINUOUS
 10
-0.544677
 20
3.402630
  0
VERTEX
  8
PLAN_1
 62
     2
  6
CONTINUOUS
 10
-0.548161
 20
3.402193
  0
SEQEND
  8
0
  0
POLYLINE
  8
PLAN_1
 62
     2
  6
CONTINUOUS
 66
     1
 40
0.003000
 41
0.003000
  0
VERTEX
  8
PLAN_1
 62
     2
  6
CONTINUOUS
 10
-0.548161
 20
3.469244
  0
VERTEX
  8
PLAN_1
 62
     2
  6
CONTINUOUS
 10
-0.550339
 20
3.469244
  0
VERTEX
  8
PLAN_1
 62
     2
  6
CONTINUOUS
 10
-0.552079
 20
3.468807
  0
VERTEX
  8
PLAN_1
 62
     2
  6
CONTINUOUS
 10
-0.553386
 20
3.467937
  0
VERTEX
  8
PLAN_1
 62
     2
  6
CONTINUOUS
 10
-0.555126
 20
3.467067
  0
VERTEX
  8
PLAN_1
 62
     2
  6
CONTINUOUS
 10
-0.556433
 20
3.466197
  0
VERTEX
  8
PLAN_1
 62
     2
  6
CONTINUOUS
 10
-0.557740
 20
3.464890
  0
VERTEX
  8
PLAN_1
 62
     2
  6
CONTINUOUS
 10
-0.559047
 20
3.463150
  0
VERTEX
  8
PLAN_1
 62
     2
  6
CONTINUOUS
 10
-0.559917
 20
3.461406
  0
VERTEX
  8
PLAN_1
 62
     2
  6
CONTINUOUS
 10
-0.561657
 20
3.457051
  0
VERTEX
  8
PLAN_1
 62
     2
  6
CONTINUOUS
 10
-0.562528
 20
3.452264
  0
VERTEX
  8
PLAN_1
 62
     2
  6
CONTINUOUS
 10
-0.563402
 20
3.446602
  0
VERTEX
  8
PLAN_1
 62
     2
  6
CONTINUOUS
 10
-0.563402
 20
3.440071
  0
VERTEX
  8
PLAN_1
 62
     2
  6
CONTINUOUS
 10
-0.563402
 20
3.433543
  0
VERTEX
  8
PLAN_1
 62
     2
  6
CONTINUOUS
 10
-0.562528
 20
3.427445
  0
VERTEX
  8
PLAN_1
 62
     2
  6
CONTINUOUS
 10
-0.561657
 20
3.422657
  0
VERTEX
  8
PLAN_1
 62
     2
  6
CONTINUOUS
 10
-0.559917
 20
3.418303
  0
VERTEX
  8
PLAN_1
 62
     2
  6
CONTINUOUS
 10
-0.559047
 20
3.416559
  0
VERTEX
  8
PLAN_1
 62
     2
  6
CONTINUOUS
 10
-0.557740
 20
3.414819
  0
VERTEX
  8
PLAN_1
 62
     2
  6
CONTINUOUS
 10
-0.556433
 20
3.413512
  0
VERTEX
  8
PLAN_1
 62
     2
  6
CONTINUOUS
 10
-0.555126
 20
3.412642
  0
VERTEX
  8
PLAN_1
 62
     2
  6
CONTINUOUS
 10
-0.553386
 20
3.411772
  0
VERTEX
  8
PLAN_1
 62
     2
  6
CONTINUOUS
 10
-0.552079
 20
3.410902
  0
VERTEX
  8
PLAN_1
 62
     2
  6
CONTINUOUS
 10
-0.550339
 20
3.410902
  0
VERTEX
  8
PLAN_1
 62
     2
  6
CONTINUOUS
 10
-0.548161
 20
3.410465
  0
VERTEX
  8
PLAN_1
 62
     2
  6
CONTINUOUS
 10
-0.546421
 20
3.410902
  0
VERTEX
  8
PLAN_1
 62
     2
  6
CONTINUOUS
 10
-0.544677
 20
3.410902
  0
VERTEX
  8
PLAN_1
 62
     2
  6
CONTINUOUS
 10
-0.542937
 20
3.411772
  0
VERTEX
  8
PLAN_1
 62
     2
  6
CONTINUOUS
 10
-0.541630
 20
3.412642
  0
VERTEX
  8
PLAN_1
 62
     2
  6
CONTINUOUS
 10
-0.539890
 20
3.413512
  0
VERTEX
  8
PLAN_1
 62
     2
  6
CONTINUOUS
 10
-0.539016
 20
3.414819
  0
VERTEX
  8
PLAN_1
 62
     2
  6
CONTINUOUS
 10
-0.537713
 20
3.416559
  0
VERTEX
  8
PLAN_1
 62
     2
  6
CONTINUOUS
 10
-0.536843
 20
3.418303
  0
VERTEX
  8
PLAN_1
 62
     2
  6
CONTINUOUS
 10
-0.535098
 20
3.422657
  0
VERTEX
  8
PLAN_1
 62
     2
  6
CONTINUOUS
 10
-0.533791
 20
3.427445
  0
VERTEX
  8
PLAN_1
 62
     2
  6
CONTINUOUS
 10
-0.533358
 20
3.433543
  0
VERTEX
  8
PLAN_1
 62
     2
  6
CONTINUOUS
 10
-0.532921
 20
3.440071
  0
VERTEX
  8
PLAN_1
 62
     2
  6
CONTINUOUS
 10
-0.533358
 20
3.446602
  0
VERTEX
  8
PLAN_1
 62
     2
  6
CONTINUOUS
 10
-0.533791
 20
3.452264
  0
VERTEX
  8
PLAN_1
 62
     2
  6
CONTINUOUS
 10
-0.535098
 20
3.457051
  0
VERTEX
  8
PLAN_1
 62
     2
  6
CONTINUOUS
 10
-0.536843
 20
3.461406
  0
VERTEX
  8
PLAN_1
 62
     2
  6
CONTINUOUS
 10
-0.537713
 20
3.463150
  0
VERTEX
  8
PLAN_1
 62
     2
  6
CONTINUOUS
 10
-0.539016
 20
3.464890
  0
VERTEX
  8
PLAN_1
 62
     2
  6
CONTINUOUS
 10
-0.539890
 20
3.466197
  0
VERTEX
  8
PLAN_1
 62
     2
  6
CONTINUOUS
 10
-0.541630
 20
3.467067
  0
VERTEX
  8
PLAN_1
 62
     2
  6
CONTINUOUS
 10
-0.542937
 20
3.467937
  0
VERTEX
  8
PLAN_1
 62
     2
  6
CONTINUOUS
 10
-0.544677
 20
3.468807
  0
VERTEX
  8
PLAN_1
 62
     2
  6
CONTINUOUS
 10
-0.546421
 20
3.469244
  0
VERTEX
  8
PLAN_1
 62
     2
  6
CONTINUOUS
 10
-0.548161
 20
3.469244
  0
SEQEND
  8
0
  0
POLYLINE
  8
PLAN_1
  6
CONTINUOUS
 66
     1
 40
0.004350
 41
0.004350
  0
VERTEX
  8
PLAN_1
  6
CONTINUOUS
 10
0.456307
 20
1.149870
  0
VERTEX
  8
PLAN_1
  6
CONTINUOUS
 10
0.124969
 20
1.149870
  0
SEQEND
  8
0
  0
POLYLINE
  8
PLAN_1
 62
     2
  6
CONTINUOUS
 66
     1
 40
0.004350
 41
0.004350
  0
VERTEX
  8
PLAN_1
 62
     2
  6
CONTINUOUS
 10
-0.836394
 20
3.230646
  0
VERTEX
  8
PLAN_1
 62
     2
  6
CONTINUOUS
 10
0.456307
 20
3.230646
  0
SEQEND
  8
0
  0
POLYLINE
  8
PLAN_1
 62
     2
  6
CONTINUOUS
 66
     1
 40
0.004350
 41
0.004350
  0
VERTEX
  8
PLAN_1
 62
     2
  6
CONTINUOUS
 10
-2.206161
 20
2.656354
  0
VERTEX
  8
PLAN_1
 62
     2
  6
CONTINUOUS
 10
-2.206161
 20
2.308469
  0
SEQEND
  8
0
  0
POLYLINE
  8
PLAN_1
 62
     2
  6
CONTINUOUS
 66
     1
 40
0.004350
 41
0.004350
  0
VERTEX
  8
PLAN_1
 62
     2
  6
CONTINUOUS
 10
-1.783390
 20
2.654177
  0
VERTEX
  8
PLAN_1
 62
     2
  6
CONTINUOUS
 10
-1.783390
 20
1.299213
  0
SEQEND
  8
0
  0
ENDSEC
  0
EOF
