  0
SECTION
  2
HEADER
  9
$ACADVER
  1
AC1006
  9
$EXTMIN
 10
-2.457394
 20
-4.213906
  9
$EXTMAX
 10
2.454000
 20
4.216000
  9
$LTSCALE
 40
0.000394
  9
$PDMODE
 70
    35
  9
$PDSIZE
 40
0.000315
  0
ENDSEC
  0
SECTION
  2
TABLES
  0
TABLE
  2
LTYPE
 70
     9
  0
LTYPE
  2
CONTINUOUS
 70
    64
  3
Solid line
 72
    65
 73
     0
 40
0.000000
  0
LTYPE
  2
DASHED
 70
    64
  3
__ __ __ __ __ __ __ __ __ __ __ __ __ __ __
 72
    65
 73
     2
 40
0.000003
 49
0.000002
 49
-0.000001
  0
LTYPE
  2
HIDDEN
 70
    64
  3
 _ _ _ _ _ _ _ _ _ _ _ _ _ _ _ _ _ _ _ _ _ _
 72
    65
 73
     2
 40
0.000001
 49
0.000001
 49
-0.000000
  0
LTYPE
  2
CENTER
 70
    64
  3
____ _ ____ _ ____ _ ____ _ ____ _ ____ _ ____
 72
    65
 73
     4
 40
0.000008
 49
0.000005
 49
-0.000001
 49
0.000001
 49
-0.000001
  0
LTYPE
  2
PHANTOM
 70
    64
  3
_____ _ _ _____ _ _ _____ _ _ _____ _ _ ____
 72
    65
 73
     6
 40
0.000010
 49
0.000005
 49
-0.000001
 49
0.000001
 49
-0.000001
 49
0.000001
 49
-0.000001
  0
LTYPE
  2
DOT
 70
    64
  3
...............................................
 72
    65
 73
     2
 40
0.000001
 49
0.000000
 49
-0.000001
  0
LTYPE
  2
DASHDOT
 70
    64
  3
__ . __ . __ . __ . __ . __ . __ . __ . __ . __
 72
    65
 73
     4
 40
0.000004
 49
0.000002
 49
-0.000001
 49
0.000000
 49
-0.000001
  0
LTYPE
  2
BORDER
 70
    64
  3
__ __ . __ __ . __ __ . __ __ . __ __ . __ __
 72
    65
 73
     6
 40
0.000007
 49
0.000002
 49
-0.000001
 49
0.000002
 49
-0.000001
 49
0.000000
 49
-0.000001
  0
LTYPE
  2
DIVIDE
 70
    64
  3
__ . . __ . . __ . . __ . . __ . . __ . . __
 72
    65
 73
     6
 40
0.000005
 49
0.000002
 49
-0.000001
 49
0.000000
 49
-0.000001
 49
0.000000
 49
-0.000001
  0
LTYPE
  2
DOTDOT
 70
    64
  3
 . .  . .  . .  . .  . .  . . 
 72
    65
 73
     5
 40
0.000002
 49
-0.000001
 49
0.000000
 49
-0.000001
 49
0.000000
 49
-0.000001
  0
ENDTAB
  0
TABLE
  2
STYLE
 70
     0
  0
ENDTAB
  0
TABLE
  2
LAYER
 70
     3
  0
LAYER
  2
FOREGROUND
 70
    64
 62
     7
  6
CONTINUOUS
  0
LAYER
  2
BACKGROUND
 70
    65
 62
    -7
  6
CONTINUOUS
  0
LAYER
  2
PLAN_1
 70
    64
 62
     7
  6
CONTINUOUS
  0
ENDTAB
  0
ENDSEC
  0
SECTION
  2
ENTITIES
  0
POLYLINE
  8
PLAN_1
  6
CONTINUOUS
 66
     1
 40
0.003000
 41
0.003000
  0
VERTEX
  8
PLAN_1
  6
CONTINUOUS
 10
0.650528
 20
-4.179130
  0
VERTEX
  8
PLAN_1
  6
CONTINUOUS
 10
0.493520
 20
-4.179130
  0
VERTEX
  8
PLAN_1
  6
CONTINUOUS
 10
0.493520
 20
-4.156476
  0
VERTEX
  8
PLAN_1
  6
CONTINUOUS
 10
0.615756
 20
-4.003685
  0
VERTEX
  8
PLAN_1
  6
CONTINUOUS
 10
0.502476
 20
-4.003685
  0
VERTEX
  8
PLAN_1
  6
CONTINUOUS
 10
0.502476
 20
-3.979976
  0
VERTEX
  8
PLAN_1
  6
CONTINUOUS
 10
0.650528
 20
-3.979976
  0
VERTEX
  8
PLAN_1
  6
CONTINUOUS
 10
0.650528
 20
-4.003157
  0
VERTEX
  8
PLAN_1
  6
CONTINUOUS
 10
0.527768
 20
-4.155421
  0
VERTEX
  8
PLAN_1
  6
CONTINUOUS
 10
0.650528
 20
-4.155421
  0
VERTEX
  8
PLAN_1
  6
CONTINUOUS
 10
0.650528
 20
-4.179130
  0
SEQEND
  8
0
  0
POLYLINE
  8
PLAN_1
  6
CONTINUOUS
 66
     1
 40
0.003000
 41
0.003000
  0
VERTEX
  8
PLAN_1
  6
CONTINUOUS
 10
0.818071
 20
-4.040039
  0
VERTEX
  8
PLAN_1
  6
CONTINUOUS
 10
0.815965
 20
-4.033717
  0
VERTEX
  8
PLAN_1
  6
CONTINUOUS
 10
0.813858
 20
-4.027921
  0
VERTEX
  8
PLAN_1
  6
CONTINUOUS
 10
0.811748
 20
-4.023177
  0
VERTEX
  8
PLAN_1
  6
CONTINUOUS
 10
0.808587
 20
-4.018437
  0
VERTEX
  8
PLAN_1
  6
CONTINUOUS
 10
0.805425
 20
-4.014748
  0
VERTEX
  8
PLAN_1
  6
CONTINUOUS
 10
0.801740
 20
-4.011587
  0
VERTEX
  8
PLAN_1
  6
CONTINUOUS
 10
0.798051
 20
-4.008425
  0
VERTEX
  8
PLAN_1
  6
CONTINUOUS
 10
0.794362
 20
-4.006319
  0
VERTEX
  8
PLAN_1
  6
CONTINUOUS
 10
0.790146
 20
-4.004213
  0
VERTEX
  8
PLAN_1
  6
CONTINUOUS
 10
0.785933
 20
-4.002630
  0
VERTEX
  8
PLAN_1
  6
CONTINUOUS
 10
0.781717
 20
-4.001051
  0
VERTEX
  8
PLAN_1
  6
CONTINUOUS
 10
0.778031
 20
-3.999996
  0
VERTEX
  8
PLAN_1
  6
CONTINUOUS
 10
0.769598
 20
-3.998941
  0
VERTEX
  8
PLAN_1
  6
CONTINUOUS
 10
0.762224
 20
-3.998413
  0
VERTEX
  8
PLAN_1
  6
CONTINUOUS
 10
0.755374
 20
-3.998941
  0
VERTEX
  8
PLAN_1
  6
CONTINUOUS
 10
0.749051
 20
-3.999996
  0
VERTEX
  8
PLAN_1
  6
CONTINUOUS
 10
0.742728
 20
-4.001575
  0
VERTEX
  8
PLAN_1
  6
CONTINUOUS
 10
0.736406
 20
-4.003685
  0
VERTEX
  8
PLAN_1
  6
CONTINUOUS
 10
0.731138
 20
-4.006319
  0
VERTEX
  8
PLAN_1
  6
CONTINUOUS
 10
0.725343
 20
-4.009480
  0
VERTEX
  8
PLAN_1
  6
CONTINUOUS
 10
0.720602
 20
-4.013693
  0
VERTEX
  8
PLAN_1
  6
CONTINUOUS
 10
0.715858
 20
-4.018437
  0
VERTEX
  8
PLAN_1
  6
CONTINUOUS
 10
0.711646
 20
-4.023705
  0
VERTEX
  8
PLAN_1
  6
CONTINUOUS
 10
0.707957
 20
-4.029500
  0
VERTEX
  8
PLAN_1
  6
CONTINUOUS
 10
0.704795
 20
-4.035823
  0
VERTEX
  8
PLAN_1
  6
CONTINUOUS
 10
0.702161
 20
-4.043201
  0
VERTEX
  8
PLAN_1
  6
CONTINUOUS
 10
0.699528
 20
-4.051102
  0
VERTEX
  8
PLAN_1
  6
CONTINUOUS
 10
0.697945
 20
-4.059004
  0
VERTEX
  8
PLAN_1
  6
CONTINUOUS
 10
0.696894
 20
-4.067961
  0
VERTEX
  8
PLAN_1
  6
CONTINUOUS
 10
0.696894
 20
-4.077445
  0
VERTEX
  8
PLAN_1
  6
CONTINUOUS
 10
0.696894
 20
-4.086402
  0
VERTEX
  8
PLAN_1
  6
CONTINUOUS
 10
0.697417
 20
-4.094831
  0
VERTEX
  8
PLAN_1
  6
CONTINUOUS
 10
0.698472
 20
-4.102736
  0
VERTEX
  8
PLAN_1
  6
CONTINUOUS
 10
0.700051
 20
-4.110638
  0
VERTEX
  8
PLAN_1
  6
CONTINUOUS
 10
0.702161
 20
-4.117488
  0
VERTEX
  8
PLAN_1
  6
CONTINUOUS
 10
0.704795
 20
-4.124339
  0
VERTEX
  8
PLAN_1
  6
CONTINUOUS
 10
0.707957
 20
-4.130657
  0
VERTEX
  8
PLAN_1
  6
CONTINUOUS
 10
0.711118
 20
-4.136457
  0
VERTEX
  8
PLAN_1
  6
CONTINUOUS
 10
0.715331
 20
-4.142252
  0
VERTEX
  8
PLAN_1
  6
CONTINUOUS
 10
0.720075
 20
-4.146465
  0
VERTEX
  8
PLAN_1
  6
CONTINUOUS
 10
0.725870
 20
-4.150681
  0
VERTEX
  8
PLAN_1
  6
CONTINUOUS
 10
0.731665
 20
-4.154370
  0
VERTEX
  8
PLAN_1
  6
CONTINUOUS
 10
0.738516
 20
-4.157004
  0
VERTEX
  8
PLAN_1
  6
CONTINUOUS
 10
0.745890
 20
-4.159110
  0
VERTEX
  8
PLAN_1
  6
CONTINUOUS
 10
0.753795
 20
-4.160165
  0
VERTEX
  8
PLAN_1
  6
CONTINUOUS
 10
0.762752
 20
-4.160689
  0
VERTEX
  8
PLAN_1
  6
CONTINUOUS
 10
0.770126
 20
-4.160165
  0
VERTEX
  8
PLAN_1
  6
CONTINUOUS
 10
0.778031
 20
-4.158583
  0
VERTEX
  8
PLAN_1
  6
CONTINUOUS
 10
0.781717
 20
-4.157531
  0
VERTEX
  8
PLAN_1
  6
CONTINUOUS
 10
0.785933
 20
-4.155421
  0
VERTEX
  8
PLAN_1
  6
CONTINUOUS
 10
0.790146
 20
-4.153315
  0
VERTEX
  8
PLAN_1
  6
CONTINUOUS
 10
0.794362
 20
-4.150681
  0
VERTEX
  8
PLAN_1
  6
CONTINUOUS
 10
0.798579
 20
-4.147520
  0
VERTEX
  8
PLAN_1
  6
CONTINUOUS
 10
0.802264
 20
-4.143831
  0
VERTEX
  8
PLAN_1
  6
CONTINUOUS
 10
0.805953
 20
-4.139091
  0
VERTEX
  8
PLAN_1
  6
CONTINUOUS
 10
0.809642
 20
-4.133819
  0
VERTEX
  8
PLAN_1
  6
CONTINUOUS
 10
0.812803
 20
-4.128024
  0
VERTEX
  8
PLAN_1
  6
CONTINUOUS
 10
0.815437
 20
-4.121701
  0
VERTEX
  8
PLAN_1
  6
CONTINUOUS
 10
0.817543
 20
-4.114327
  0
VERTEX
  8
PLAN_1
  6
CONTINUOUS
 10
0.819654
 20
-4.105898
  0
VERTEX
  8
PLAN_1
  6
CONTINUOUS
 10
0.845996
 20
-4.105898
  0
VERTEX
  8
PLAN_1
  6
CONTINUOUS
 10
0.844413
 20
-4.112744
  0
VERTEX
  8
PLAN_1
  6
CONTINUOUS
 10
0.843362
 20
-4.119067
  0
VERTEX
  8
PLAN_1
  6
CONTINUOUS
 10
0.841252
 20
-4.125390
  0
VERTEX
  8
PLAN_1
  6
CONTINUOUS
 10
0.839673
 20
-4.130657
  0
VERTEX
  8
PLAN_1
  6
CONTINUOUS
 10
0.837567
 20
-4.136457
  0
VERTEX
  8
PLAN_1
  6
CONTINUOUS
 10
0.834933
 20
-4.141197
  0
VERTEX
  8
PLAN_1
  6
CONTINUOUS
 10
0.832295
 20
-4.145937
  0
VERTEX
  8
PLAN_1
  6
CONTINUOUS
 10
0.829661
 20
-4.150154
  0
VERTEX
  8
PLAN_1
  6
CONTINUOUS
 10
0.827028
 20
-4.153843
  0
VERTEX
  8
PLAN_1
  6
CONTINUOUS
 10
0.823866
 20
-4.157531
  0
VERTEX
  8
PLAN_1
  6
CONTINUOUS
 10
0.820705
 20
-4.160689
  0
VERTEX
  8
PLAN_1
  6
CONTINUOUS
 10
0.817543
 20
-4.163850
  0
VERTEX
  8
PLAN_1
  6
CONTINUOUS
 10
0.810697
 20
-4.169122
  0
VERTEX
  8
PLAN_1
  6
CONTINUOUS
 10
0.803846
 20
-4.173335
  0
VERTEX
  8
PLAN_1
  6
CONTINUOUS
 10
0.796996
 20
-4.177024
  0
VERTEX
  8
PLAN_1
  6
CONTINUOUS
 10
0.790146
 20
-4.179657
  0
VERTEX
  8
PLAN_1
  6
CONTINUOUS
 10
0.783299
 20
-4.181240
  0
VERTEX
  8
PLAN_1
  6
CONTINUOUS
 10
0.776976
 20
-4.182819
  0
VERTEX
  8
PLAN_1
  6
CONTINUOUS
 10
0.766437
 20
-4.184402
  0
VERTEX
  8
PLAN_1
  6
CONTINUOUS
 10
0.758535
 20
-4.184402
  0
VERTEX
  8
PLAN_1
  6
CONTINUOUS
 10
0.750106
 20
-4.184402
  0
VERTEX
  8
PLAN_1
  6
CONTINUOUS
 10
0.741677
 20
-4.182819
  0
VERTEX
  8
PLAN_1
  6
CONTINUOUS
 10
0.733772
 20
-4.181240
  0
VERTEX
  8
PLAN_1
  6
CONTINUOUS
 10
0.725343
 20
-4.178602
  0
VERTEX
  8
PLAN_1
  6
CONTINUOUS
 10
0.717965
 20
-4.175445
  0
VERTEX
  8
PLAN_1
  6
CONTINUOUS
 10
0.710591
 20
-4.171228
  0
VERTEX
  8
PLAN_1
  6
CONTINUOUS
 10
0.703213
 20
-4.165961
  0
VERTEX
  8
PLAN_1
  6
CONTINUOUS
 10
0.696894
 20
-4.160165
  0
VERTEX
  8
PLAN_1
  6
CONTINUOUS
 10
0.691094
 20
-4.153315
  0
VERTEX
  8
PLAN_1
  6
CONTINUOUS
 10
0.685299
 20
-4.145937
  0
VERTEX
  8
PLAN_1
  6
CONTINUOUS
 10
0.683193
 20
-4.141724
  0
VERTEX
  8
PLAN_1
  6
CONTINUOUS
 10
0.680559
 20
-4.136980
  0
VERTEX
  8
PLAN_1
  6
CONTINUOUS
 10
0.678453
 20
-4.132240
  0
VERTEX
  8
PLAN_1
  6
CONTINUOUS
 10
0.676870
 20
-4.127496
  0
VERTEX
  8
PLAN_1
  6
CONTINUOUS
 10
0.674764
 20
-4.122228
  0
VERTEX
  8
PLAN_1
  6
CONTINUOUS
 10
0.673181
 20
-4.116433
  0
VERTEX
  8
PLAN_1
  6
CONTINUOUS
 10
0.672130
 20
-4.111165
  0
VERTEX
  8
PLAN_1
  6
CONTINUOUS
 10
0.671075
 20
-4.104843
  0
VERTEX
  8
PLAN_1
  6
CONTINUOUS
 10
0.669496
 20
-4.092197
  0
VERTEX
  8
PLAN_1
  6
CONTINUOUS
 10
0.668969
 20
-4.078500
  0
VERTEX
  8
PLAN_1
  6
CONTINUOUS
 10
0.669496
 20
-4.067433
  0
VERTEX
  8
PLAN_1
  6
CONTINUOUS
 10
0.670547
 20
-4.056370
  0
VERTEX
  8
PLAN_1
  6
CONTINUOUS
 10
0.672657
 20
-4.045835
  0
VERTEX
  8
PLAN_1
  6
CONTINUOUS
 10
0.675291
 20
-4.036350
  0
VERTEX
  8
PLAN_1
  6
CONTINUOUS
 10
0.678976
 20
-4.027394
  0
VERTEX
  8
PLAN_1
  6
CONTINUOUS
 10
0.683193
 20
-4.018437
  0
VERTEX
  8
PLAN_1
  6
CONTINUOUS
 10
0.687933
 20
-4.010531
  0
VERTEX
  8
PLAN_1
  6
CONTINUOUS
 10
0.693732
 20
-4.003685
  0
VERTEX
  8
PLAN_1
  6
CONTINUOUS
 10
0.700051
 20
-3.996835
  0
VERTEX
  8
PLAN_1
  6
CONTINUOUS
 10
0.706902
 20
-3.991567
  0
VERTEX
  8
PLAN_1
  6
CONTINUOUS
 10
0.714807
 20
-3.986295
  0
VERTEX
  8
PLAN_1
  6
CONTINUOUS
 10
0.723236
 20
-3.982083
  0
VERTEX
  8
PLAN_1
  6
CONTINUOUS
 10
0.731665
 20
-3.978921
  0
VERTEX
  8
PLAN_1
  6
CONTINUOUS
 10
0.741150
 20
-3.976815
  0
VERTEX
  8
PLAN_1
  6
CONTINUOUS
 10
0.751157
 20
-3.975232
  0
VERTEX
  8
PLAN_1
  6
CONTINUOUS
 10
0.762224
 20
-3.974705
  0
VERTEX
  8
PLAN_1
  6
CONTINUOUS
 10
0.771181
 20
-3.975232
  0
VERTEX
  8
PLAN_1
  6
CONTINUOUS
 10
0.780138
 20
-3.976287
  0
VERTEX
  8
PLAN_1
  6
CONTINUOUS
 10
0.788567
 20
-3.977866
  0
VERTEX
  8
PLAN_1
  6
CONTINUOUS
 10
0.795945
 20
-3.979976
  0
VERTEX
  8
PLAN_1
  6
CONTINUOUS
 10
0.802791
 20
-3.983138
  0
VERTEX
  8
PLAN_1
  6
CONTINUOUS
 10
0.809642
 20
-3.986295
  0
VERTEX
  8
PLAN_1
  6
CONTINUOUS
 10
0.815437
 20
-3.990512
  0
VERTEX
  8
PLAN_1
  6
CONTINUOUS
 10
0.820705
 20
-3.994728
  0
VERTEX
  8
PLAN_1
  6
CONTINUOUS
 10
0.825449
 20
-3.999469
  0
VERTEX
  8
PLAN_1
  6
CONTINUOUS
 10
0.829661
 20
-4.004736
  0
VERTEX
  8
PLAN_1
  6
CONTINUOUS
 10
0.833350
 20
-4.010008
  0
VERTEX
  8
PLAN_1
  6
CONTINUOUS
 10
0.836512
 20
-4.015803
  0
VERTEX
  8
PLAN_1
  6
CONTINUOUS
 10
0.839146
 20
-4.021598
  0
VERTEX
  8
PLAN_1
  6
CONTINUOUS
 10
0.841252
 20
-4.027394
  0
VERTEX
  8
PLAN_1
  6
CONTINUOUS
 10
0.842835
 20
-4.033717
  0
VERTEX
  8
PLAN_1
  6
CONTINUOUS
 10
0.843890
 20
-4.040039
  0
VERTEX
  8
PLAN_1
  6
CONTINUOUS
 10
0.818071
 20
-4.040039
  0
SEQEND
  8
0
  0
POLYLINE
  8
PLAN_1
  6
CONTINUOUS
 66
     1
 40
0.003000
 41
0.003000
  0
VERTEX
  8
PLAN_1
  6
CONTINUOUS
 10
0.905531
 20
-4.179130
  0
VERTEX
  8
PLAN_1
  6
CONTINUOUS
 10
0.878661
 20
-4.179130
  0
VERTEX
  8
PLAN_1
  6
CONTINUOUS
 10
0.878661
 20
-3.979976
  0
VERTEX
  8
PLAN_1
  6
CONTINUOUS
 10
0.905531
 20
-3.979976
  0
VERTEX
  8
PLAN_1
  6
CONTINUOUS
 10
0.905531
 20
-4.076390
  0
VERTEX
  8
PLAN_1
  6
CONTINUOUS
 10
1.001949
 20
-3.979976
  0
VERTEX
  8
PLAN_1
  6
CONTINUOUS
 10
1.039358
 20
-3.979976
  0
VERTEX
  8
PLAN_1
  6
CONTINUOUS
 10
0.956110
 20
-4.060587
  0
VERTEX
  8
PLAN_1
  6
CONTINUOUS
 10
1.041465
 20
-4.179130
  0
VERTEX
  8
PLAN_1
  6
CONTINUOUS
 10
1.006165
 20
-4.179130
  0
VERTEX
  8
PLAN_1
  6
CONTINUOUS
 10
0.936618
 20
-4.079028
  0
VERTEX
  8
PLAN_1
  6
CONTINUOUS
 10
0.905531
 20
-4.109059
  0
VERTEX
  8
PLAN_1
  6
CONTINUOUS
 10
0.905531
 20
-4.179130
  0
SEQEND
  8
0
  0
POLYLINE
  8
PLAN_1
  6
CONTINUOUS
 66
     1
 40
0.003000
 41
0.003000
  0
VERTEX
  8
PLAN_1
  6
CONTINUOUS
 10
1.065173
 20
-3.979976
  0
VERTEX
  8
PLAN_1
  6
CONTINUOUS
 10
1.145783
 20
-3.979976
  0
VERTEX
  8
PLAN_1
  6
CONTINUOUS
 10
1.155268
 20
-3.980500
  0
VERTEX
  8
PLAN_1
  6
CONTINUOUS
 10
1.164224
 20
-3.981555
  0
VERTEX
  8
PLAN_1
  6
CONTINUOUS
 10
1.172654
 20
-3.984189
  0
VERTEX
  8
PLAN_1
  6
CONTINUOUS
 10
1.181083
 20
-3.986823
  0
VERTEX
  8
PLAN_1
  6
CONTINUOUS
 10
1.188461
 20
-3.991039
  0
VERTEX
  8
PLAN_1
  6
CONTINUOUS
 10
1.195311
 20
-3.995252
  0
VERTEX
  8
PLAN_1
  6
CONTINUOUS
 10
1.201634
 20
-4.000524
  0
VERTEX
  8
PLAN_1
  6
CONTINUOUS
 10
1.207429
 20
-4.006846
  0
VERTEX
  8
PLAN_1
  6
CONTINUOUS
 10
1.212169
 20
-4.013693
  0
VERTEX
  8
PLAN_1
  6
CONTINUOUS
 10
1.216913
 20
-4.021071
  0
VERTEX
  8
PLAN_1
  6
CONTINUOUS
 10
1.220598
 20
-4.028972
  0
VERTEX
  8
PLAN_1
  6
CONTINUOUS
 10
1.223760
 20
-4.037402
  0
VERTEX
  8
PLAN_1
  6
CONTINUOUS
 10
1.226394
 20
-4.046358
  0
VERTEX
  8
PLAN_1
  6
CONTINUOUS
 10
1.227976
 20
-4.056370
  0
VERTEX
  8
PLAN_1
  6
CONTINUOUS
 10
1.229028
 20
-4.066382
  0
VERTEX
  8
PLAN_1
  6
CONTINUOUS
 10
1.229555
 20
-4.076917
  0
VERTEX
  8
PLAN_1
  6
CONTINUOUS
 10
1.229555
 20
-4.085350
  0
VERTEX
  8
PLAN_1
  6
CONTINUOUS
 10
1.228504
 20
-4.093780
  0
VERTEX
  8
PLAN_1
  6
CONTINUOUS
 10
1.227449
 20
-4.102736
  0
VERTEX
  8
PLAN_1
  6
CONTINUOUS
 10
1.225343
 20
-4.111693
  0
VERTEX
  8
PLAN_1
  6
CONTINUOUS
 10
1.223232
 20
-4.120122
  0
VERTEX
  8
PLAN_1
  6
CONTINUOUS
 10
1.220071
 20
-4.129079
  0
VERTEX
  8
PLAN_1
  6
CONTINUOUS
 10
1.216386
 20
-4.136980
  0
VERTEX
  8
PLAN_1
  6
CONTINUOUS
 10
1.211642
 20
-4.144886
  0
VERTEX
  8
PLAN_1
  6
CONTINUOUS
 10
1.206374
 20
-4.151732
  0
VERTEX
  8
PLAN_1
  6
CONTINUOUS
 10
1.200579
 20
-4.158583
  0
VERTEX
  8
PLAN_1
  6
CONTINUOUS
 10
1.196890
 20
-4.161744
  0
VERTEX
  8
PLAN_1
  6
CONTINUOUS
 10
1.193201
 20
-4.164378
  0
VERTEX
  8
PLAN_1
  6
CONTINUOUS
 10
1.189516
 20
-4.167012
  0
VERTEX
  8
PLAN_1
  6
CONTINUOUS
 10
1.185827
 20
-4.169646
  0
VERTEX
  8
PLAN_1
  6
CONTINUOUS
 10
1.181610
 20
-4.171756
  0
VERTEX
  8
PLAN_1
  6
CONTINUOUS
 10
1.176870
 20
-4.173335
  0
VERTEX
  8
PLAN_1
  6
CONTINUOUS
 10
1.172126
 20
-4.175445
  0
VERTEX
  8
PLAN_1
  6
CONTINUOUS
 10
1.167386
 20
-4.176496
  0
VERTEX
  8
PLAN_1
  6
CONTINUOUS
 10
1.162118
 20
-4.177551
  0
VERTEX
  8
PLAN_1
  6
CONTINUOUS
 10
1.156323
 20
-4.178602
  0
VERTEX
  8
PLAN_1
  6
CONTINUOUS
 10
1.150528
 20
-4.179130
  0
VERTEX
  8
PLAN_1
  6
CONTINUOUS
 10
1.144732
 20
-4.179130
  0
VERTEX
  8
PLAN_1
  6
CONTINUOUS
 10
1.065173
 20
-4.179130
  0
VERTEX
  8
PLAN_1
  6
CONTINUOUS
 10
1.065173
 20
-3.979976
  0
SEQEND
  8
0
  0
POLYLINE
  8
PLAN_1
  6
CONTINUOUS
 66
     1
 40
0.003000
 41
0.003000
  0
VERTEX
  8
PLAN_1
  6
CONTINUOUS
 10
1.092043
 20
-4.155949
  0
VERTEX
  8
PLAN_1
  6
CONTINUOUS
 10
1.144205
 20
-4.155949
  0
VERTEX
  8
PLAN_1
  6
CONTINUOUS
 10
1.150528
 20
-4.155949
  0
VERTEX
  8
PLAN_1
  6
CONTINUOUS
 10
1.156850
 20
-4.154894
  0
VERTEX
  8
PLAN_1
  6
CONTINUOUS
 10
1.162646
 20
-4.153315
  0
VERTEX
  8
PLAN_1
  6
CONTINUOUS
 10
1.167913
 20
-4.151209
  0
VERTEX
  8
PLAN_1
  6
CONTINUOUS
 10
1.173181
 20
-4.148047
  0
VERTEX
  8
PLAN_1
  6
CONTINUOUS
 10
1.177921
 20
-4.144886
  0
VERTEX
  8
PLAN_1
  6
CONTINUOUS
 10
1.182138
 20
-4.140669
  0
VERTEX
  8
PLAN_1
  6
CONTINUOUS
 10
1.186354
 20
-4.135929
  0
VERTEX
  8
PLAN_1
  6
CONTINUOUS
 10
1.189516
 20
-4.131185
  0
VERTEX
  8
PLAN_1
  6
CONTINUOUS
 10
1.192677
 20
-4.124862
  0
VERTEX
  8
PLAN_1
  6
CONTINUOUS
 10
1.195311
 20
-4.118539
  0
VERTEX
  8
PLAN_1
  6
CONTINUOUS
 10
1.197945
 20
-4.111693
  0
VERTEX
  8
PLAN_1
  6
CONTINUOUS
 10
1.199524
 20
-4.104315
  0
VERTEX
  8
PLAN_1
  6
CONTINUOUS
 10
1.201106
 20
-4.096413
  0
VERTEX
  8
PLAN_1
  6
CONTINUOUS
 10
1.201634
 20
-4.087457
  0
VERTEX
  8
PLAN_1
  6
CONTINUOUS
 10
1.202157
 20
-4.078500
  0
VERTEX
  8
PLAN_1
  6
CONTINUOUS
 10
1.201634
 20
-4.069543
  0
VERTEX
  8
PLAN_1
  6
CONTINUOUS
 10
1.200579
 20
-4.060587
  0
VERTEX
  8
PLAN_1
  6
CONTINUOUS
 10
1.199524
 20
-4.052681
  0
VERTEX
  8
PLAN_1
  6
CONTINUOUS
 10
1.197945
 20
-4.045307
  0
VERTEX
  8
PLAN_1
  6
CONTINUOUS
 10
1.195311
 20
-4.038457
  0
VERTEX
  8
PLAN_1
  6
CONTINUOUS
 10
1.192677
 20
-4.032661
  0
VERTEX
  8
PLAN_1
  6
CONTINUOUS
 10
1.189516
 20
-4.026866
  0
VERTEX
  8
PLAN_1
  6
CONTINUOUS
 10
1.185827
 20
-4.022126
  0
VERTEX
  8
PLAN_1
  6
CONTINUOUS
 10
1.181610
 20
-4.017382
  0
VERTEX
  8
PLAN_1
  6
CONTINUOUS
 10
1.177398
 20
-4.013693
  0
VERTEX
  8
PLAN_1
  6
CONTINUOUS
 10
1.172126
 20
-4.010531
  0
VERTEX
  8
PLAN_1
  6
CONTINUOUS
 10
1.166858
 20
-4.007898
  0
VERTEX
  8
PLAN_1
  6
CONTINUOUS
 10
1.161591
 20
-4.005791
  0
VERTEX
  8
PLAN_1
  6
CONTINUOUS
 10
1.155268
 20
-4.004213
  0
VERTEX
  8
PLAN_1
  6
CONTINUOUS
 10
1.148945
 20
-4.003157
  0
VERTEX
  8
PLAN_1
  6
CONTINUOUS
 10
1.142094
 20
-4.003157
  0
VERTEX
  8
PLAN_1
  6
CONTINUOUS
 10
1.092043
 20
-4.003157
  0
VERTEX
  8
PLAN_1
  6
CONTINUOUS
 10
1.092043
 20
-4.155949
  0
SEQEND
  8
0
  0
POLYLINE
  8
PLAN_1
  6
CONTINUOUS
 66
     1
 40
0.003000
 41
0.003000
  0
VERTEX
  8
PLAN_1
  6
CONTINUOUS
 10
1.320177
 20
-4.184402
  0
VERTEX
  8
PLAN_1
  6
CONTINUOUS
 10
1.314909
 20
-4.184402
  0
VERTEX
  8
PLAN_1
  6
CONTINUOUS
 10
1.310169
 20
-4.183874
  0
VERTEX
  8
PLAN_1
  6
CONTINUOUS
 10
1.305425
 20
-4.182819
  0
VERTEX
  8
PLAN_1
  6
CONTINUOUS
 10
1.301209
 20
-4.181764
  0
VERTEX
  8
PLAN_1
  6
CONTINUOUS
 10
1.296996
 20
-4.180185
  0
VERTEX
  8
PLAN_1
  6
CONTINUOUS
 10
1.293307
 20
-4.178602
  0
VERTEX
  8
PLAN_1
  6
CONTINUOUS
 10
1.289618
 20
-4.176496
  0
VERTEX
  8
PLAN_1
  6
CONTINUOUS
 10
1.285933
 20
-4.174390
  0
VERTEX
  8
PLAN_1
  6
CONTINUOUS
 10
1.282772
 20
-4.172283
  0
VERTEX
  8
PLAN_1
  6
CONTINUOUS
 10
1.279610
 20
-4.169646
  0
VERTEX
  8
PLAN_1
  6
CONTINUOUS
 10
1.276976
 20
-4.166488
  0
VERTEX
  8
PLAN_1
  6
CONTINUOUS
 10
1.274339
 20
-4.163327
  0
VERTEX
  8
PLAN_1
  6
CONTINUOUS
 10
1.269598
 20
-4.157004
  0
VERTEX
  8
PLAN_1
  6
CONTINUOUS
 10
1.265909
 20
-4.149626
  0
VERTEX
  8
PLAN_1
  6
CONTINUOUS
 10
1.262220
 20
-4.141724
  0
VERTEX
  8
PLAN_1
  6
CONTINUOUS
 10
1.259587
 20
-4.133819
  0
VERTEX
  8
PLAN_1
  6
CONTINUOUS
 10
1.257480
 20
-4.125390
  0
VERTEX
  8
PLAN_1
  6
CONTINUOUS
 10
1.255902
 20
-4.116961
  0
VERTEX
  8
PLAN_1
  6
CONTINUOUS
 10
1.254846
 20
-4.108531
  0
VERTEX
  8
PLAN_1
  6
CONTINUOUS
 10
1.253791
 20
-4.100102
  0
VERTEX
  8
PLAN_1
  6
CONTINUOUS
 10
1.253264
 20
-4.092197
  0
VERTEX
  8
PLAN_1
  6
CONTINUOUS
 10
1.253264
 20
-4.084295
  0
VERTEX
  8
PLAN_1
  6
CONTINUOUS
 10
1.253264
 20
-4.076390
  0
VERTEX
  8
PLAN_1
  6
CONTINUOUS
 10
1.253791
 20
-4.068488
  0
VERTEX
  8
PLAN_1
  6
CONTINUOUS
 10
1.254846
 20
-4.060059
  0
VERTEX
  8
PLAN_1
  6
CONTINUOUS
 10
1.255902
 20
-4.051630
  0
VERTEX
  8
PLAN_1
  6
CONTINUOUS
 10
1.257480
 20
-4.043201
  0
VERTEX
  8
PLAN_1
  6
CONTINUOUS
 10
1.259587
 20
-4.034768
  0
VERTEX
  8
PLAN_1
  6
CONTINUOUS
 10
1.262220
 20
-4.026866
  0
VERTEX
  8
PLAN_1
  6
CONTINUOUS
 10
1.265909
 20
-4.018965
  0
VERTEX
  8
PLAN_1
  6
CONTINUOUS
 10
1.269598
 20
-4.011587
  0
VERTEX
  8
PLAN_1
  6
CONTINUOUS
 10
1.274339
 20
-4.005264
  0
VERTEX
  8
PLAN_1
  6
CONTINUOUS
 10
1.276976
 20
-4.002102
  0
VERTEX
  8
PLAN_1
  6
CONTINUOUS
 10
1.279610
 20
-3.998941
  0
VERTEX
  8
PLAN_1
  6
CONTINUOUS
 10
1.282772
 20
-3.996307
  0
VERTEX
  8
PLAN_1
  6
CONTINUOUS
 10
1.285933
 20
-3.994201
  0
VERTEX
  8
PLAN_1
  6
CONTINUOUS
 10
1.289618
 20
-3.991567
  0
VERTEX
  8
PLAN_1
  6
CONTINUOUS
 10
1.293307
 20
-3.989984
  0
VERTEX
  8
PLAN_1
  6
CONTINUOUS
 10
1.296996
 20
-3.988406
  0
VERTEX
  8
PLAN_1
  6
CONTINUOUS
 10
1.301209
 20
-3.986823
  0
VERTEX
  8
PLAN_1
  6
CONTINUOUS
 10
1.305425
 20
-3.985772
  0
VERTEX
  8
PLAN_1
  6
CONTINUOUS
 10
1.310169
 20
-3.984717
  0
VERTEX
  8
PLAN_1
  6
CONTINUOUS
 10
1.314909
 20
-3.984189
  0
VERTEX
  8
PLAN_1
  6
CONTINUOUS
 10
1.320177
 20
-3.984189
  0
VERTEX
  8
PLAN_1
  6
CONTINUOUS
 10
1.325445
 20
-3.984189
  0
VERTEX
  8
PLAN_1
  6
CONTINUOUS
 10
1.330189
 20
-3.984717
  0
VERTEX
  8
PLAN_1
  6
CONTINUOUS
 10
1.334929
 20
-3.985772
  0
VERTEX
  8
PLAN_1
  6
CONTINUOUS
 10
1.339146
 20
-3.986823
  0
VERTEX
  8
PLAN_1
  6
CONTINUOUS
 10
1.343358
 20
-3.988406
  0
VERTEX
  8
PLAN_1
  6
CONTINUOUS
 10
1.347047
 20
-3.989984
  0
VERTEX
  8
PLAN_1
  6
CONTINUOUS
 10
1.350736
 20
-3.991567
  0
VERTEX
  8
PLAN_1
  6
CONTINUOUS
 10
1.354425
 20
-3.994201
  0
VERTEX
  8
PLAN_1
  6
CONTINUOUS
 10
1.357587
 20
-3.996307
  0
VERTEX
  8
PLAN_1
  6
CONTINUOUS
 10
1.360748
 20
-3.998941
  0
VERTEX
  8
PLAN_1
  6
CONTINUOUS
 10
1.363382
 20
-4.002102
  0
VERTEX
  8
PLAN_1
  6
CONTINUOUS
 10
1.366016
 20
-4.005264
  0
VERTEX
  8
PLAN_1
  6
CONTINUOUS
 10
1.370756
 20
-4.011587
  0
VERTEX
  8
PLAN_1
  6
CONTINUOUS
 10
1.374972
 20
-4.018965
  0
VERTEX
  8
PLAN_1
  6
CONTINUOUS
 10
1.378134
 20
-4.026866
  0
VERTEX
  8
PLAN_1
  6
CONTINUOUS
 10
1.380768
 20
-4.034768
  0
VERTEX
  8
PLAN_1
  6
CONTINUOUS
 10
1.382874
 20
-4.043201
  0
VERTEX
  8
PLAN_1
  6
CONTINUOUS
 10
1.384457
 20
-4.051630
  0
VERTEX
  8
PLAN_1
  6
CONTINUOUS
 10
1.385508
 20
-4.060059
  0
VERTEX
  8
PLAN_1
  6
CONTINUOUS
 10
1.386563
 20
-4.068488
  0
VERTEX
  8
PLAN_1
  6
CONTINUOUS
 10
1.387091
 20
-4.076390
  0
VERTEX
  8
PLAN_1
  6
CONTINUOUS
 10
1.387091
 20
-4.084295
  0
VERTEX
  8
PLAN_1
  6
CONTINUOUS
 10
1.387091
 20
-4.092197
  0
VERTEX
  8
PLAN_1
  6
CONTINUOUS
 10
1.386563
 20
-4.100102
  0
VERTEX
  8
PLAN_1
  6
CONTINUOUS
 10
1.385508
 20
-4.108531
  0
VERTEX
  8
PLAN_1
  6
CONTINUOUS
 10
1.384457
 20
-4.116961
  0
VERTEX
  8
PLAN_1
  6
CONTINUOUS
 10
1.382874
 20
-4.125390
  0
VERTEX
  8
PLAN_1
  6
CONTINUOUS
 10
1.380768
 20
-4.133819
  0
VERTEX
  8
PLAN_1
  6
CONTINUOUS
 10
1.378134
 20
-4.141724
  0
VERTEX
  8
PLAN_1
  6
CONTINUOUS
 10
1.374972
 20
-4.149626
  0
VERTEX
  8
PLAN_1
  6
CONTINUOUS
 10
1.370756
 20
-4.157004
  0
VERTEX
  8
PLAN_1
  6
CONTINUOUS
 10
1.366016
 20
-4.163327
  0
VERTEX
  8
PLAN_1
  6
CONTINUOUS
 10
1.363382
 20
-4.166488
  0
VERTEX
  8
PLAN_1
  6
CONTINUOUS
 10
1.360748
 20
-4.169646
  0
VERTEX
  8
PLAN_1
  6
CONTINUOUS
 10
1.357587
 20
-4.172283
  0
VERTEX
  8
PLAN_1
  6
CONTINUOUS
 10
1.354425
 20
-4.174390
  0
VERTEX
  8
PLAN_1
  6
CONTINUOUS
 10
1.350736
 20
-4.176496
  0
VERTEX
  8
PLAN_1
  6
CONTINUOUS
 10
1.347047
 20
-4.178602
  0
VERTEX
  8
PLAN_1
  6
CONTINUOUS
 10
1.343358
 20
-4.180185
  0
VERTEX
  8
PLAN_1
  6
CONTINUOUS
 10
1.339146
 20
-4.181764
  0
VERTEX
  8
PLAN_1
  6
CONTINUOUS
 10
1.334929
 20
-4.182819
  0
VERTEX
  8
PLAN_1
  6
CONTINUOUS
 10
1.330189
 20
-4.183874
  0
VERTEX
  8
PLAN_1
  6
CONTINUOUS
 10
1.325445
 20
-4.184402
  0
VERTEX
  8
PLAN_1
  6
CONTINUOUS
 10
1.320177
 20
-4.184402
  0
SEQEND
  8
0
  0
POLYLINE
  8
PLAN_1
  6
CONTINUOUS
 66
     1
 40
0.003000
 41
0.003000
  0
VERTEX
  8
PLAN_1
  6
CONTINUOUS
 10
1.320177
 20
-4.005791
  0
VERTEX
  8
PLAN_1
  6
CONTINUOUS
 10
1.314909
 20
-4.006319
  0
VERTEX
  8
PLAN_1
  6
CONTINUOUS
 10
1.310169
 20
-4.007370
  0
VERTEX
  8
PLAN_1
  6
CONTINUOUS
 10
1.305953
 20
-4.008953
  0
VERTEX
  8
PLAN_1
  6
CONTINUOUS
 10
1.302264
 20
-4.011587
  0
VERTEX
  8
PLAN_1
  6
CONTINUOUS
 10
1.298575
 20
-4.014220
  0
VERTEX
  8
PLAN_1
  6
CONTINUOUS
 10
1.294890
 20
-4.017909
  0
VERTEX
  8
PLAN_1
  6
CONTINUOUS
 10
1.291728
 20
-4.022126
  0
VERTEX
  8
PLAN_1
  6
CONTINUOUS
 10
1.289094
 20
-4.026866
  0
VERTEX
  8
PLAN_1
  6
CONTINUOUS
 10
1.286984
 20
-4.032134
  0
VERTEX
  8
PLAN_1
  6
CONTINUOUS
 10
1.284878
 20
-4.037929
  0
VERTEX
  8
PLAN_1
  6
CONTINUOUS
 10
1.283295
 20
-4.044252
  0
VERTEX
  8
PLAN_1
  6
CONTINUOUS
 10
1.281717
 20
-4.051630
  0
VERTEX
  8
PLAN_1
  6
CONTINUOUS
 10
1.280661
 20
-4.059004
  0
VERTEX
  8
PLAN_1
  6
CONTINUOUS
 10
1.280134
 20
-4.066909
  0
VERTEX
  8
PLAN_1
  6
CONTINUOUS
 10
1.279610
 20
-4.075339
  0
VERTEX
  8
PLAN_1
  6
CONTINUOUS
 10
1.279610
 20
-4.084295
  0
VERTEX
  8
PLAN_1
  6
CONTINUOUS
 10
1.279610
 20
-4.093252
  0
VERTEX
  8
PLAN_1
  6
CONTINUOUS
 10
1.280134
 20
-4.101681
  0
VERTEX
  8
PLAN_1
  6
CONTINUOUS
 10
1.280661
 20
-4.109583
  0
VERTEX
  8
PLAN_1
  6
CONTINUOUS
 10
1.281717
 20
-4.116961
  0
VERTEX
  8
PLAN_1
  6
CONTINUOUS
 10
1.283295
 20
-4.124339
  0
VERTEX
  8
PLAN_1
  6
CONTINUOUS
 10
1.284878
 20
-4.130657
  0
VERTEX
  8
PLAN_1
  6
CONTINUOUS
 10
1.286984
 20
-4.136457
  0
VERTEX
  8
PLAN_1
  6
CONTINUOUS
 10
1.289094
 20
-4.141724
  0
VERTEX
  8
PLAN_1
  6
CONTINUOUS
 10
1.291728
 20
-4.146465
  0
VERTEX
  8
PLAN_1
  6
CONTINUOUS
 10
1.294890
 20
-4.150681
  0
VERTEX
  8
PLAN_1
  6
CONTINUOUS
 10
1.298575
 20
-4.154370
  0
VERTEX
  8
PLAN_1
  6
CONTINUOUS
 10
1.302264
 20
-4.157004
  0
VERTEX
  8
PLAN_1
  6
CONTINUOUS
 10
1.305953
 20
-4.159638
  0
VERTEX
  8
PLAN_1
  6
CONTINUOUS
 10
1.310169
 20
-4.161217
  0
VERTEX
  8
PLAN_1
  6
CONTINUOUS
 10
1.314909
 20
-4.162272
  0
VERTEX
  8
PLAN_1
  6
CONTINUOUS
 10
1.320177
 20
-4.162799
  0
VERTEX
  8
PLAN_1
  6
CONTINUOUS
 10
1.325445
 20
-4.162272
  0
VERTEX
  8
PLAN_1
  6
CONTINUOUS
 10
1.330189
 20
-4.161217
  0
VERTEX
  8
PLAN_1
  6
CONTINUOUS
 10
1.334402
 20
-4.159638
  0
VERTEX
  8
PLAN_1
  6
CONTINUOUS
 10
1.338618
 20
-4.157004
  0
VERTEX
  8
PLAN_1
  6
CONTINUOUS
 10
1.342307
 20
-4.154370
  0
VERTEX
  8
PLAN_1
  6
CONTINUOUS
 10
1.345469
 20
-4.150681
  0
VERTEX
  8
PLAN_1
  6
CONTINUOUS
 10
1.348630
 20
-4.146465
  0
VERTEX
  8
PLAN_1
  6
CONTINUOUS
 10
1.351264
 20
-4.141724
  0
VERTEX
  8
PLAN_1
  6
CONTINUOUS
 10
1.353370
 20
-4.136457
  0
VERTEX
  8
PLAN_1
  6
CONTINUOUS
 10
1.355476
 20
-4.130657
  0
VERTEX
  8
PLAN_1
  6
CONTINUOUS
 10
1.357059
 20
-4.124339
  0
VERTEX
  8
PLAN_1
  6
CONTINUOUS
 10
1.358638
 20
-4.116961
  0
VERTEX
  8
PLAN_1
  6
CONTINUOUS
 10
1.359693
 20
-4.109583
  0
VERTEX
  8
PLAN_1
  6
CONTINUOUS
 10
1.360220
 20
-4.101681
  0
VERTEX
  8
PLAN_1
  6
CONTINUOUS
 10
1.360748
 20
-4.093252
  0
VERTEX
  8
PLAN_1
  6
CONTINUOUS
 10
1.361276
 20
-4.084295
  0
VERTEX
  8
PLAN_1
  6
CONTINUOUS
 10
1.360748
 20
-4.075339
  0
VERTEX
  8
PLAN_1
  6
CONTINUOUS
 10
1.360220
 20
-4.066909
  0
VERTEX
  8
PLAN_1
  6
CONTINUOUS
 10
1.359693
 20
-4.059004
  0
VERTEX
  8
PLAN_1
  6
CONTINUOUS
 10
1.358638
 20
-4.051630
  0
VERTEX
  8
PLAN_1
  6
CONTINUOUS
 10
1.357059
 20
-4.044252
  0
VERTEX
  8
PLAN_1
  6
CONTINUOUS
 10
1.355476
 20
-4.037929
  0
VERTEX
  8
PLAN_1
  6
CONTINUOUS
 10
1.353370
 20
-4.032134
  0
VERTEX
  8
PLAN_1
  6
CONTINUOUS
 10
1.351264
 20
-4.026866
  0
VERTEX
  8
PLAN_1
  6
CONTINUOUS
 10
1.348630
 20
-4.022126
  0
VERTEX
  8
PLAN_1
  6
CONTINUOUS
 10
1.345469
 20
-4.017909
  0
VERTEX
  8
PLAN_1
  6
CONTINUOUS
 10
1.342307
 20
-4.014220
  0
VERTEX
  8
PLAN_1
  6
CONTINUOUS
 10
1.338618
 20
-4.011587
  0
VERTEX
  8
PLAN_1
  6
CONTINUOUS
 10
1.334402
 20
-4.008953
  0
VERTEX
  8
PLAN_1
  6
CONTINUOUS
 10
1.330189
 20
-4.007370
  0
VERTEX
  8
PLAN_1
  6
CONTINUOUS
 10
1.325445
 20
-4.006319
  0
VERTEX
  8
PLAN_1
  6
CONTINUOUS
 10
1.320177
 20
-4.005791
  0
SEQEND
  8
0
  0
POLYLINE
  8
PLAN_1
  6
CONTINUOUS
 66
     1
 40
0.003000
 41
0.003000
  0
VERTEX
  8
PLAN_1
  6
CONTINUOUS
 10
1.513012
 20
-4.035823
  0
VERTEX
  8
PLAN_1
  6
CONTINUOUS
 10
1.511957
 20
-4.029500
  0
VERTEX
  8
PLAN_1
  6
CONTINUOUS
 10
1.509850
 20
-4.024232
  0
VERTEX
  8
PLAN_1
  6
CONTINUOUS
 10
1.506689
 20
-4.018965
  0
VERTEX
  8
PLAN_1
  6
CONTINUOUS
 10
1.503000
 20
-4.014748
  0
VERTEX
  8
PLAN_1
  6
CONTINUOUS
 10
1.500894
 20
-4.012642
  0
VERTEX
  8
PLAN_1
  6
CONTINUOUS
 10
1.498787
 20
-4.011059
  0
VERTEX
  8
PLAN_1
  6
CONTINUOUS
 10
1.496154
 20
-4.009480
  0
VERTEX
  8
PLAN_1
  6
CONTINUOUS
 10
1.493520
 20
-4.008425
  0
VERTEX
  8
PLAN_1
  6
CONTINUOUS
 10
1.490358
 20
-4.007370
  0
VERTEX
  8
PLAN_1
  6
CONTINUOUS
 10
1.487197
 20
-4.006846
  0
VERTEX
  8
PLAN_1
  6
CONTINUOUS
 10
1.483508
 20
-4.006319
  0
VERTEX
  8
PLAN_1
  6
CONTINUOUS
 10
1.479819
 20
-4.005791
  0
VERTEX
  8
PLAN_1
  6
CONTINUOUS
 10
1.476130
 20
-4.006319
  0
VERTEX
  8
PLAN_1
  6
CONTINUOUS
 10
1.472969
 20
-4.006846
  0
VERTEX
  8
PLAN_1
  6
CONTINUOUS
 10
1.469807
 20
-4.007370
  0
VERTEX
  8
PLAN_1
  6
CONTINUOUS
 10
1.466646
 20
-4.008425
  0
VERTEX
  8
PLAN_1
  6
CONTINUOUS
 10
1.461378
 20
-4.011059
  0
VERTEX
  8
PLAN_1
  6
CONTINUOUS
 10
1.456110
 20
-4.014220
  0
VERTEX
  8
PLAN_1
  6
CONTINUOUS
 10
1.451894
 20
-4.018437
  0
VERTEX
  8
PLAN_1
  6
CONTINUOUS
 10
1.448209
 20
-4.023177
  0
VERTEX
  8
PLAN_1
  6
CONTINUOUS
 10
1.445047
 20
-4.028972
  0
VERTEX
  8
PLAN_1
  6
CONTINUOUS
 10
1.441886
 20
-4.034244
  0
VERTEX
  8
PLAN_1
  6
CONTINUOUS
 10
1.439776
 20
-4.040039
  0
VERTEX
  8
PLAN_1
  6
CONTINUOUS
 10
1.437669
 20
-4.046358
  0
VERTEX
  8
PLAN_1
  6
CONTINUOUS
 10
1.436091
 20
-4.052157
  0
VERTEX
  8
PLAN_1
  6
CONTINUOUS
 10
1.435035
 20
-4.058476
  0
VERTEX
  8
PLAN_1
  6
CONTINUOUS
 10
1.433453
 20
-4.069016
  0
VERTEX
  8
PLAN_1
  6
CONTINUOUS
 10
1.433453
 20
-4.077972
  0
VERTEX
  8
PLAN_1
  6
CONTINUOUS
 10
1.433980
 20
-4.078500
  0
VERTEX
  8
PLAN_1
  6
CONTINUOUS
 10
1.436614
 20
-4.074811
  0
VERTEX
  8
PLAN_1
  6
CONTINUOUS
 10
1.439776
 20
-4.070594
  0
VERTEX
  8
PLAN_1
  6
CONTINUOUS
 10
1.443992
 20
-4.066382
  0
VERTEX
  8
PLAN_1
  6
CONTINUOUS
 10
1.449260
 20
-4.062693
  0
VERTEX
  8
PLAN_1
  6
CONTINUOUS
 10
1.455583
 20
-4.059531
  0
VERTEX
  8
PLAN_1
  6
CONTINUOUS
 10
1.462433
 20
-4.056898
  0
VERTEX
  8
PLAN_1
  6
CONTINUOUS
 10
1.466646
 20
-4.056370
  0
VERTEX
  8
PLAN_1
  6
CONTINUOUS
 10
1.470862
 20
-4.055319
  0
VERTEX
  8
PLAN_1
  6
CONTINUOUS
 10
1.475079
 20
-4.054791
  0
VERTEX
  8
PLAN_1
  6
CONTINUOUS
 10
1.480346
 20
-4.054791
  0
VERTEX
  8
PLAN_1
  6
CONTINUOUS
 10
1.484559
 20
-4.054791
  0
VERTEX
  8
PLAN_1
  6
CONTINUOUS
 10
1.489831
 20
-4.055843
  0
VERTEX
  8
PLAN_1
  6
CONTINUOUS
 10
1.494571
 20
-4.056370
  0
VERTEX
  8
PLAN_1
  6
CONTINUOUS
 10
1.499839
 20
-4.057953
  0
VERTEX
  8
PLAN_1
  6
CONTINUOUS
 10
1.505110
 20
-4.060059
  0
VERTEX
  8
PLAN_1
  6
CONTINUOUS
 10
1.509850
 20
-4.062165
  0
VERTEX
  8
PLAN_1
  6
CONTINUOUS
 10
1.515118
 20
-4.064799
  0
VERTEX
  8
PLAN_1
  6
CONTINUOUS
 10
1.519862
 20
-4.068488
  0
VERTEX
  8
PLAN_1
  6
CONTINUOUS
 10
1.524075
 20
-4.072177
  0
VERTEX
  8
PLAN_1
  6
CONTINUOUS
 10
1.528291
 20
-4.076917
  0
VERTEX
  8
PLAN_1
  6
CONTINUOUS
 10
1.531980
 20
-4.081661
  0
VERTEX
  8
PLAN_1
  6
CONTINUOUS
 10
1.535142
 20
-4.087457
  0
VERTEX
  8
PLAN_1
  6
CONTINUOUS
 10
1.537776
 20
-4.093780
  0
VERTEX
  8
PLAN_1
  6
CONTINUOUS
 10
1.539354
 20
-4.100626
  0
VERTEX
  8
PLAN_1
  6
CONTINUOUS
 10
1.540937
 20
-4.108531
  0
VERTEX
  8
PLAN_1
  6
CONTINUOUS
 10
1.541465
 20
-4.116961
  0
VERTEX
  8
PLAN_1
  6
CONTINUOUS
 10
1.540937
 20
-4.123811
  0
VERTEX
  8
PLAN_1
  6
CONTINUOUS
 10
1.540409
 20
-4.130657
  0
VERTEX
  8
PLAN_1
  6
CONTINUOUS
 10
1.538827
 20
-4.136980
  0
VERTEX
  8
PLAN_1
  6
CONTINUOUS
 10
1.536720
 20
-4.143303
  0
VERTEX
  8
PLAN_1
  6
CONTINUOUS
 10
1.534614
 20
-4.149098
  0
VERTEX
  8
PLAN_1
  6
CONTINUOUS
 10
1.530925
 20
-4.154894
  0
VERTEX
  8
PLAN_1
  6
CONTINUOUS
 10
1.527236
 20
-4.160165
  0
VERTEX
  8
PLAN_1
  6
CONTINUOUS
 10
1.522496
 20
-4.165433
  0
VERTEX
  8
PLAN_1
  6
CONTINUOUS
 10
1.518807
 20
-4.169646
  0
VERTEX
  8
PLAN_1
  6
CONTINUOUS
 10
1.514591
 20
-4.173335
  0
VERTEX
  8
PLAN_1
  6
CONTINUOUS
 10
1.509850
 20
-4.176496
  0
VERTEX
  8
PLAN_1
  6
CONTINUOUS
 10
1.504583
 20
-4.179130
  0
VERTEX
  8
PLAN_1
  6
CONTINUOUS
 10
1.498260
 20
-4.181764
  0
VERTEX
  8
PLAN_1
  6
CONTINUOUS
 10
1.490882
 20
-4.183346
  0
VERTEX
  8
PLAN_1
  6
CONTINUOUS
 10
1.482980
 20
-4.184402
  0
VERTEX
  8
PLAN_1
  6
CONTINUOUS
 10
1.473496
 20
-4.184402
  0
VERTEX
  8
PLAN_1
  6
CONTINUOUS
 10
1.467173
 20
-4.184402
  0
VERTEX
  8
PLAN_1
  6
CONTINUOUS
 10
1.460850
 20
-4.183346
  0
VERTEX
  8
PLAN_1
  6
CONTINUOUS
 10
1.454528
 20
-4.181240
  0
VERTEX
  8
PLAN_1
  6
CONTINUOUS
 10
1.447681
 20
-4.178602
  0
VERTEX
  8
PLAN_1
  6
CONTINUOUS
 10
1.444520
 20
-4.176496
  0
VERTEX
  8
PLAN_1
  6
CONTINUOUS
 10
1.440831
 20
-4.174390
  0
VERTEX
  8
PLAN_1
  6
CONTINUOUS
 10
1.437669
 20
-4.172283
  0
VERTEX
  8
PLAN_1
  6
CONTINUOUS
 10
1.434508
 20
-4.169646
  0
VERTEX
  8
PLAN_1
  6
CONTINUOUS
 10
1.431346
 20
-4.167012
  0
VERTEX
  8
PLAN_1
  6
CONTINUOUS
 10
1.428713
 20
-4.163850
  0
VERTEX
  8
PLAN_1
  6
CONTINUOUS
 10
1.425551
 20
-4.160165
  0
VERTEX
  8
PLAN_1
  6
CONTINUOUS
 10
1.422917
 20
-4.155949
  0
VERTEX
  8
PLAN_1
  6
CONTINUOUS
 10
1.419228
 20
-4.149098
  0
VERTEX
  8
PLAN_1
  6
CONTINUOUS
 10
1.415539
 20
-4.141197
  0
VERTEX
  8
PLAN_1
  6
CONTINUOUS
 10
1.412906
 20
-4.133295
  0
VERTEX
  8
PLAN_1
  6
CONTINUOUS
 10
1.411327
 20
-4.124862
  0
VERTEX
  8
PLAN_1
  6
CONTINUOUS
 10
1.409744
 20
-4.116433
  0
VERTEX
  8
PLAN_1
  6
CONTINUOUS
 10
1.408693
 20
-4.107476
  0
VERTEX
  8
PLAN_1
  6
CONTINUOUS
 10
1.408165
 20
-4.097992
  0
VERTEX
  8
PLAN_1
  6
CONTINUOUS
 10
1.408165
 20
-4.088508
  0
VERTEX
  8
PLAN_1
  6
CONTINUOUS
 10
1.408165
 20
-4.080079
  0
VERTEX
  8
PLAN_1
  6
CONTINUOUS
 10
1.408693
 20
-4.071650
  0
VERTEX
  8
PLAN_1
  6
CONTINUOUS
 10
1.409744
 20
-4.062693
  0
VERTEX
  8
PLAN_1
  6
CONTINUOUS
 10
1.411327
 20
-4.054264
  0
VERTEX
  8
PLAN_1
  6
CONTINUOUS
 10
1.412906
 20
-4.045307
  0
VERTEX
  8
PLAN_1
  6
CONTINUOUS
 10
1.415539
 20
-4.036878
  0
VERTEX
  8
PLAN_1
  6
CONTINUOUS
 10
1.418701
 20
-4.028445
  0
VERTEX
  8
PLAN_1
  6
CONTINUOUS
 10
1.422390
 20
-4.020016
  0
VERTEX
  8
PLAN_1
  6
CONTINUOUS
 10
1.426606
 20
-4.012642
  0
VERTEX
  8
PLAN_1
  6
CONTINUOUS
 10
1.431874
 20
-4.005791
  0
VERTEX
  8
PLAN_1
  6
CONTINUOUS
 10
1.434508
 20
-4.002630
  0
VERTEX
  8
PLAN_1
  6
CONTINUOUS
 10
1.437669
 20
-3.999469
  0
VERTEX
  8
PLAN_1
  6
CONTINUOUS
 10
1.440831
 20
-3.996835
  0
VERTEX
  8
PLAN_1
  6
CONTINUOUS
 10
1.444520
 20
-3.994201
  0
VERTEX
  8
PLAN_1
  6
CONTINUOUS
 10
1.448209
 20
-3.992094
  0
VERTEX
  8
PLAN_1
  6
CONTINUOUS
 10
1.451894
 20
-3.989984
  0
VERTEX
  8
PLAN_1
  6
CONTINUOUS
 10
1.456110
 20
-3.988406
  0
VERTEX
  8
PLAN_1
  6
CONTINUOUS
 10
1.460327
 20
-3.986823
  0
VERTEX
  8
PLAN_1
  6
CONTINUOUS
 10
1.465067
 20
-3.985772
  0
VERTEX
  8
PLAN_1
  6
CONTINUOUS
 10
1.469807
 20
-3.984717
  0
VERTEX
  8
PLAN_1
  6
CONTINUOUS
 10
1.475079
 20
-3.984189
  0
VERTEX
  8
PLAN_1
  6
CONTINUOUS
 10
1.480346
 20
-3.984189
  0
VERTEX
  8
PLAN_1
  6
CONTINUOUS
 10
1.484559
 20
-3.984189
  0
VERTEX
  8
PLAN_1
  6
CONTINUOUS
 10
1.488776
 20
-3.984717
  0
VERTEX
  8
PLAN_1
  6
CONTINUOUS
 10
1.493520
 20
-3.985244
  0
VERTEX
  8
PLAN_1
  6
CONTINUOUS
 10
1.498260
 20
-3.986823
  0
VERTEX
  8
PLAN_1
  6
CONTINUOUS
 10
1.503000
 20
-3.987878
  0
VERTEX
  8
PLAN_1
  6
CONTINUOUS
 10
1.507217
 20
-3.989984
  0
VERTEX
  8
PLAN_1
  6
CONTINUOUS
 10
1.511957
 20
-3.992618
  0
VERTEX
  8
PLAN_1
  6
CONTINUOUS
 10
1.516173
 20
-3.995252
  0
VERTEX
  8
PLAN_1
  6
CONTINUOUS
 10
1.520390
 20
-3.998413
  0
VERTEX
  8
PLAN_1
  6
CONTINUOUS
 10
1.524075
 20
-4.002102
  0
VERTEX
  8
PLAN_1
  6
CONTINUOUS
 10
1.527236
 20
-4.006319
  0
VERTEX
  8
PLAN_1
  6
CONTINUOUS
 10
1.530398
 20
-4.011059
  0
VERTEX
  8
PLAN_1
  6
CONTINUOUS
 10
1.533031
 20
-4.016327
  0
VERTEX
  8
PLAN_1
  6
CONTINUOUS
 10
1.534614
 20
-4.022126
  0
VERTEX
  8
PLAN_1
  6
CONTINUOUS
 10
1.536193
 20
-4.028972
  0
VERTEX
  8
PLAN_1
  6
CONTINUOUS
 10
1.537248
 20
-4.035823
  0
VERTEX
  8
PLAN_1
  6
CONTINUOUS
 10
1.513012
 20
-4.035823
  0
SEQEND
  8
0
  0
POLYLINE
  8
PLAN_1
  6
CONTINUOUS
 66
     1
 40
0.003000
 41
0.003000
  0
VERTEX
  8
PLAN_1
  6
CONTINUOUS
 10
1.477713
 20
-4.162799
  0
VERTEX
  8
PLAN_1
  6
CONTINUOUS
 10
1.481925
 20
-4.162272
  0
VERTEX
  8
PLAN_1
  6
CONTINUOUS
 10
1.486142
 20
-4.161744
  0
VERTEX
  8
PLAN_1
  6
CONTINUOUS
 10
1.489831
 20
-4.160689
  0
VERTEX
  8
PLAN_1
  6
CONTINUOUS
 10
1.493520
 20
-4.159110
  0
VERTEX
  8
PLAN_1
  6
CONTINUOUS
 10
1.496677
 20
-4.157531
  0
VERTEX
  8
PLAN_1
  6
CONTINUOUS
 10
1.499839
 20
-4.155421
  0
VERTEX
  8
PLAN_1
  6
CONTINUOUS
 10
1.503000
 20
-4.152787
  0
VERTEX
  8
PLAN_1
  6
CONTINUOUS
 10
1.505634
 20
-4.150154
  0
VERTEX
  8
PLAN_1
  6
CONTINUOUS
 10
1.507744
 20
-4.146992
  0
VERTEX
  8
PLAN_1
  6
CONTINUOUS
 10
1.509850
 20
-4.143831
  0
VERTEX
  8
PLAN_1
  6
CONTINUOUS
 10
1.511957
 20
-4.140142
  0
VERTEX
  8
PLAN_1
  6
CONTINUOUS
 10
1.513539
 20
-4.135929
  0
VERTEX
  8
PLAN_1
  6
CONTINUOUS
 10
1.514591
 20
-4.131713
  0
VERTEX
  8
PLAN_1
  6
CONTINUOUS
 10
1.515118
 20
-4.127496
  0
VERTEX
  8
PLAN_1
  6
CONTINUOUS
 10
1.515646
 20
-4.122756
  0
VERTEX
  8
PLAN_1
  6
CONTINUOUS
 10
1.516173
 20
-4.118016
  0
VERTEX
  8
PLAN_1
  6
CONTINUOUS
 10
1.515646
 20
-4.111165
  0
VERTEX
  8
PLAN_1
  6
CONTINUOUS
 10
1.514067
 20
-4.104315
  0
VERTEX
  8
PLAN_1
  6
CONTINUOUS
 10
1.513012
 20
-4.100626
  0
VERTEX
  8
PLAN_1
  6
CONTINUOUS
 10
1.511433
 20
-4.097465
  0
VERTEX
  8
PLAN_1
  6
CONTINUOUS
 10
1.509850
 20
-4.093780
  0
VERTEX
  8
PLAN_1
  6
CONTINUOUS
 10
1.507744
 20
-4.090618
  0
VERTEX
  8
PLAN_1
  6
CONTINUOUS
 10
1.505110
 20
-4.087984
  0
VERTEX
  8
PLAN_1
  6
CONTINUOUS
 10
1.502476
 20
-4.085350
  0
VERTEX
  8
PLAN_1
  6
CONTINUOUS
 10
1.499315
 20
-4.082713
  0
VERTEX
  8
PLAN_1
  6
CONTINUOUS
 10
1.495626
 20
-4.080606
  0
VERTEX
  8
PLAN_1
  6
CONTINUOUS
 10
1.491409
 20
-4.079028
  0
VERTEX
  8
PLAN_1
  6
CONTINUOUS
 10
1.487197
 20
-4.077972
  0
VERTEX
  8
PLAN_1
  6
CONTINUOUS
 10
1.481925
 20
-4.076917
  0
VERTEX
  8
PLAN_1
  6
CONTINUOUS
 10
1.476657
 20
-4.076917
  0
VERTEX
  8
PLAN_1
  6
CONTINUOUS
 10
1.471917
 20
-4.076917
  0
VERTEX
  8
PLAN_1
  6
CONTINUOUS
 10
1.467173
 20
-4.077445
  0
VERTEX
  8
PLAN_1
  6
CONTINUOUS
 10
1.462961
 20
-4.078500
  0
VERTEX
  8
PLAN_1
  6
CONTINUOUS
 10
1.458744
 20
-4.080079
  0
VERTEX
  8
PLAN_1
  6
CONTINUOUS
 10
1.455583
 20
-4.082189
  0
VERTEX
  8
PLAN_1
  6
CONTINUOUS
 10
1.451894
 20
-4.084295
  0
VERTEX
  8
PLAN_1
  6
CONTINUOUS
 10
1.449260
 20
-4.086402
  0
VERTEX
  8
PLAN_1
  6
CONTINUOUS
 10
1.446626
 20
-4.089563
  0
VERTEX
  8
PLAN_1
  6
CONTINUOUS
 10
1.443992
 20
-4.092197
  0
VERTEX
  8
PLAN_1
  6
CONTINUOUS
 10
1.441886
 20
-4.095886
  0
VERTEX
  8
PLAN_1
  6
CONTINUOUS
 10
1.440303
 20
-4.099047
  0
VERTEX
  8
PLAN_1
  6
CONTINUOUS
 10
1.439252
 20
-4.102736
  0
VERTEX
  8
PLAN_1
  6
CONTINUOUS
 10
1.438197
 20
-4.106949
  0
VERTEX
  8
PLAN_1
  6
CONTINUOUS
 10
1.437142
 20
-4.110638
  0
VERTEX
  8
PLAN_1
  6
CONTINUOUS
 10
1.436614
 20
-4.114854
  0
VERTEX
  8
PLAN_1
  6
CONTINUOUS
 10
1.436614
 20
-4.119067
  0
VERTEX
  8
PLAN_1
  6
CONTINUOUS
 10
1.436614
 20
-4.123283
  0
VERTEX
  8
PLAN_1
  6
CONTINUOUS
 10
1.437142
 20
-4.126972
  0
VERTEX
  8
PLAN_1
  6
CONTINUOUS
 10
1.438197
 20
-4.131185
  0
VERTEX
  8
PLAN_1
  6
CONTINUOUS
 10
1.439252
 20
-4.134874
  0
VERTEX
  8
PLAN_1
  6
CONTINUOUS
 10
1.440303
 20
-4.138563
  0
VERTEX
  8
PLAN_1
  6
CONTINUOUS
 10
1.441886
 20
-4.142252
  0
VERTEX
  8
PLAN_1
  6
CONTINUOUS
 10
1.443992
 20
-4.145413
  0
VERTEX
  8
PLAN_1
  6
CONTINUOUS
 10
1.446626
 20
-4.148571
  0
VERTEX
  8
PLAN_1
  6
CONTINUOUS
 10
1.449260
 20
-4.151732
  0
VERTEX
  8
PLAN_1
  6
CONTINUOUS
 10
1.451894
 20
-4.154370
  0
VERTEX
  8
PLAN_1
  6
CONTINUOUS
 10
1.455583
 20
-4.156476
  0
VERTEX
  8
PLAN_1
  6
CONTINUOUS
 10
1.459272
 20
-4.158583
  0
VERTEX
  8
PLAN_1
  6
CONTINUOUS
 10
1.463484
 20
-4.160165
  0
VERTEX
  8
PLAN_1
  6
CONTINUOUS
 10
1.467701
 20
-4.161744
  0
VERTEX
  8
PLAN_1
  6
CONTINUOUS
 10
1.472445
 20
-4.162272
  0
VERTEX
  8
PLAN_1
  6
CONTINUOUS
 10
1.477713
 20
-4.162799
  0
SEQEND
  8
0
  0
SOLID
  8
PLAN_1
 10
1.552000
 20
-4.213906
 11
1.552000
 21
-4.200205
 12
1.706374
 22
-4.213906
 13
1.706374
 23
-4.200205
  0
POLYLINE
  8
PLAN_1
  6
CONTINUOUS
 66
     1
 40
0.003000
 41
0.003000
  0
VERTEX
  8
PLAN_1
  6
CONTINUOUS
 10
1.552000
 20
-4.213906
  0
VERTEX
  8
PLAN_1
  6
CONTINUOUS
 10
1.552000
 20
-4.200205
  0
VERTEX
  8
PLAN_1
  6
CONTINUOUS
 10
1.706374
 20
-4.200205
  0
VERTEX
  8
PLAN_1
  6
CONTINUOUS
 10
1.706374
 20
-4.213906
  0
VERTEX
  8
PLAN_1
  6
CONTINUOUS
 10
1.552000
 20
-4.213906
  0
SEQEND
  8
0
  0
POLYLINE
  8
PLAN_1
  6
CONTINUOUS
 66
     1
 40
0.003000
 41
0.003000
  0
VERTEX
  8
PLAN_1
  6
CONTINUOUS
 10
1.756953
 20
-4.179130
  0
VERTEX
  8
PLAN_1
  6
CONTINUOUS
 10
1.730083
 20
-4.179130
  0
VERTEX
  8
PLAN_1
  6
CONTINUOUS
 10
1.730083
 20
-3.979976
  0
VERTEX
  8
PLAN_1
  6
CONTINUOUS
 10
1.868122
 20
-3.979976
  0
VERTEX
  8
PLAN_1
  6
CONTINUOUS
 10
1.868122
 20
-4.003685
  0
VERTEX
  8
PLAN_1
  6
CONTINUOUS
 10
1.756953
 20
-4.003685
  0
VERTEX
  8
PLAN_1
  6
CONTINUOUS
 10
1.756953
 20
-4.064799
  0
VERTEX
  8
PLAN_1
  6
CONTINUOUS
 10
1.854949
 20
-4.064799
  0
VERTEX
  8
PLAN_1
  6
CONTINUOUS
 10
1.854949
 20
-4.088508
  0
VERTEX
  8
PLAN_1
  6
CONTINUOUS
 10
1.756953
 20
-4.088508
  0
VERTEX
  8
PLAN_1
  6
CONTINUOUS
 10
1.756953
 20
-4.179130
  0
SEQEND
  8
0
  0
SOLID
  8
PLAN_1
 10
1.887091
 20
-4.179130
 11
1.858638
 21
-4.179130
 12
1.887091
 22
-4.149626
 13
1.858638
 23
-4.149626
  0
POLYLINE
  8
PLAN_1
  6
CONTINUOUS
 66
     1
 40
0.003000
 41
0.003000
  0
VERTEX
  8
PLAN_1
  6
CONTINUOUS
 10
1.887091
 20
-4.179130
  0
VERTEX
  8
PLAN_1
  6
CONTINUOUS
 10
1.858638
 20
-4.179130
  0
VERTEX
  8
PLAN_1
  6
CONTINUOUS
 10
1.858638
 20
-4.149626
  0
VERTEX
  8
PLAN_1
  6
CONTINUOUS
 10
1.887091
 20
-4.149626
  0
VERTEX
  8
PLAN_1
  6
CONTINUOUS
 10
1.887091
 20
-4.179130
  0
SEQEND
  8
0
  0
POLYLINE
  8
PLAN_1
  6
CONTINUOUS
 66
     1
 40
0.003000
 41
0.003000
  0
VERTEX
  8
PLAN_1
  6
CONTINUOUS
 10
2.082559
 20
-4.179130
  0
VERTEX
  8
PLAN_1
  6
CONTINUOUS
 10
1.935035
 20
-4.179130
  0
VERTEX
  8
PLAN_1
  6
CONTINUOUS
 10
1.935035
 20
-3.979976
  0
VERTEX
  8
PLAN_1
  6
CONTINUOUS
 10
2.080449
 20
-3.979976
  0
VERTEX
  8
PLAN_1
  6
CONTINUOUS
 10
2.080449
 20
-4.003685
  0
VERTEX
  8
PLAN_1
  6
CONTINUOUS
 10
1.962433
 20
-4.003685
  0
VERTEX
  8
PLAN_1
  6
CONTINUOUS
 10
1.962433
 20
-4.064799
  0
VERTEX
  8
PLAN_1
  6
CONTINUOUS
 10
2.071492
 20
-4.064799
  0
VERTEX
  8
PLAN_1
  6
CONTINUOUS
 10
2.071492
 20
-4.088508
  0
VERTEX
  8
PLAN_1
  6
CONTINUOUS
 10
1.962433
 20
-4.088508
  0
VERTEX
  8
PLAN_1
  6
CONTINUOUS
 10
1.962433
 20
-4.155421
  0
VERTEX
  8
PLAN_1
  6
CONTINUOUS
 10
2.082559
 20
-4.155421
  0
VERTEX
  8
PLAN_1
  6
CONTINUOUS
 10
2.082559
 20
-4.179130
  0
SEQEND
  8
0
  0
POLYLINE
  8
PLAN_1
  6
CONTINUOUS
 66
     1
 40
0.003000
 41
0.003000
  0
VERTEX
  8
PLAN_1
  6
CONTINUOUS
 10
2.147362
 20
-4.179130
  0
VERTEX
  8
PLAN_1
  6
CONTINUOUS
 10
2.120492
 20
-4.179130
  0
VERTEX
  8
PLAN_1
  6
CONTINUOUS
 10
2.120492
 20
-3.979976
  0
VERTEX
  8
PLAN_1
  6
CONTINUOUS
 10
2.210059
 20
-3.979976
  0
VERTEX
  8
PLAN_1
  6
CONTINUOUS
 10
2.216909
 20
-3.979976
  0
VERTEX
  8
PLAN_1
  6
CONTINUOUS
 10
2.223232
 20
-3.981028
  0
VERTEX
  8
PLAN_1
  6
CONTINUOUS
 10
2.229555
 20
-3.982083
  0
VERTEX
  8
PLAN_1
  6
CONTINUOUS
 10
2.234823
 20
-3.984189
  0
VERTEX
  8
PLAN_1
  6
CONTINUOUS
 10
2.240091
 20
-3.986295
  0
VERTEX
  8
PLAN_1
  6
CONTINUOUS
 10
2.245358
 20
-3.988933
  0
VERTEX
  8
PLAN_1
  6
CONTINUOUS
 10
2.249575
 20
-3.992094
  0
VERTEX
  8
PLAN_1
  6
CONTINUOUS
 10
2.253791
 20
-3.995780
  0
VERTEX
  8
PLAN_1
  6
CONTINUOUS
 10
2.256953
 20
-3.999996
  0
VERTEX
  8
PLAN_1
  6
CONTINUOUS
 10
2.260110
 20
-4.004213
  0
VERTEX
  8
PLAN_1
  6
CONTINUOUS
 10
2.263272
 20
-4.008953
  0
VERTEX
  8
PLAN_1
  6
CONTINUOUS
 10
2.265382
 20
-4.013693
  0
VERTEX
  8
PLAN_1
  6
CONTINUOUS
 10
2.266961
 20
-4.018965
  0
VERTEX
  8
PLAN_1
  6
CONTINUOUS
 10
2.268543
 20
-4.024232
  0
VERTEX
  8
PLAN_1
  6
CONTINUOUS
 10
2.269071
 20
-4.030028
  0
VERTEX
  8
PLAN_1
  6
CONTINUOUS
 10
2.269071
 20
-4.035823
  0
VERTEX
  8
PLAN_1
  6
CONTINUOUS
 10
2.269071
 20
-4.041091
  0
VERTEX
  8
PLAN_1
  6
CONTINUOUS
 10
2.268543
 20
-4.046358
  0
VERTEX
  8
PLAN_1
  6
CONTINUOUS
 10
2.267488
 20
-4.051630
  0
VERTEX
  8
PLAN_1
  6
CONTINUOUS
 10
2.265909
 20
-4.056898
  0
VERTEX
  8
PLAN_1
  6
CONTINUOUS
 10
2.264327
 20
-4.062165
  0
VERTEX
  8
PLAN_1
  6
CONTINUOUS
 10
2.262220
 20
-4.066909
  0
VERTEX
  8
PLAN_1
  6
CONTINUOUS
 10
2.259059
 20
-4.071650
  0
VERTEX
  8
PLAN_1
  6
CONTINUOUS
 10
2.255898
 20
-4.075866
  0
VERTEX
  8
PLAN_1
  6
CONTINUOUS
 10
2.252209
 20
-4.080079
  0
VERTEX
  8
PLAN_1
  6
CONTINUOUS
 10
2.247996
 20
-4.083768
  0
VERTEX
  8
PLAN_1
  6
CONTINUOUS
 10
2.243252
 20
-4.086929
  0
VERTEX
  8
PLAN_1
  6
CONTINUOUS
 10
2.237457
 20
-4.089563
  0
VERTEX
  8
PLAN_1
  6
CONTINUOUS
 10
2.231661
 20
-4.092197
  0
VERTEX
  8
PLAN_1
  6
CONTINUOUS
 10
2.225339
 20
-4.093780
  0
VERTEX
  8
PLAN_1
  6
CONTINUOUS
 10
2.217965
 20
-4.094831
  0
VERTEX
  8
PLAN_1
  6
CONTINUOUS
 10
2.210059
 20
-4.095358
  0
VERTEX
  8
PLAN_1
  6
CONTINUOUS
 10
2.147362
 20
-4.095358
  0
VERTEX
  8
PLAN_1
  6
CONTINUOUS
 10
2.147362
 20
-4.179130
  0
SEQEND
  8
0
  0
POLYLINE
  8
PLAN_1
  6
CONTINUOUS
 66
     1
 40
0.003000
 41
0.003000
  0
VERTEX
  8
PLAN_1
  6
CONTINUOUS
 10
2.147362
 20
-4.072177
  0
VERTEX
  8
PLAN_1
  6
CONTINUOUS
 10
2.201102
 20
-4.072177
  0
VERTEX
  8
PLAN_1
  6
CONTINUOUS
 10
2.209531
 20
-4.071650
  0
VERTEX
  8
PLAN_1
  6
CONTINUOUS
 10
2.217437
 20
-4.070071
  0
VERTEX
  8
PLAN_1
  6
CONTINUOUS
 10
2.221122
 20
-4.069016
  0
VERTEX
  8
PLAN_1
  6
CONTINUOUS
 10
2.224283
 20
-4.067961
  0
VERTEX
  8
PLAN_1
  6
CONTINUOUS
 10
2.227445
 20
-4.066382
  0
VERTEX
  8
PLAN_1
  6
CONTINUOUS
 10
2.230606
 20
-4.064276
  0
VERTEX
  8
PLAN_1
  6
CONTINUOUS
 10
2.232717
 20
-4.062165
  0
VERTEX
  8
PLAN_1
  6
CONTINUOUS
 10
2.235350
 20
-4.059531
  0
VERTEX
  8
PLAN_1
  6
CONTINUOUS
 10
2.236929
 20
-4.056370
  0
VERTEX
  8
PLAN_1
  6
CONTINUOUS
 10
2.238512
 20
-4.053209
  0
VERTEX
  8
PLAN_1
  6
CONTINUOUS
 10
2.240091
 20
-4.049520
  0
VERTEX
  8
PLAN_1
  6
CONTINUOUS
 10
2.240618
 20
-4.045307
  0
VERTEX
  8
PLAN_1
  6
CONTINUOUS
 10
2.241146
 20
-4.041091
  0
VERTEX
  8
PLAN_1
  6
CONTINUOUS
 10
2.241673
 20
-4.036350
  0
VERTEX
  8
PLAN_1
  6
CONTINUOUS
 10
2.241146
 20
-4.031606
  0
VERTEX
  8
PLAN_1
  6
CONTINUOUS
 10
2.240618
 20
-4.027394
  0
VERTEX
  8
PLAN_1
  6
CONTINUOUS
 10
2.239563
 20
-4.023705
  0
VERTEX
  8
PLAN_1
  6
CONTINUOUS
 10
2.238512
 20
-4.020543
  0
VERTEX
  8
PLAN_1
  6
CONTINUOUS
 10
2.236929
 20
-4.017382
  0
VERTEX
  8
PLAN_1
  6
CONTINUOUS
 10
2.234823
 20
-4.014748
  0
VERTEX
  8
PLAN_1
  6
CONTINUOUS
 10
2.232717
 20
-4.012114
  0
VERTEX
  8
PLAN_1
  6
CONTINUOUS
 10
2.230079
 20
-4.010008
  0
VERTEX
  8
PLAN_1
  6
CONTINUOUS
 10
2.227445
 20
-4.008425
  0
VERTEX
  8
PLAN_1
  6
CONTINUOUS
 10
2.224283
 20
-4.006846
  0
VERTEX
  8
PLAN_1
  6
CONTINUOUS
 10
2.221122
 20
-4.005791
  0
VERTEX
  8
PLAN_1
  6
CONTINUOUS
 10
2.217437
 20
-4.004736
  0
VERTEX
  8
PLAN_1
  6
CONTINUOUS
 10
2.210059
 20
-4.003157
  0
VERTEX
  8
PLAN_1
  6
CONTINUOUS
 10
2.202157
 20
-4.003157
  0
VERTEX
  8
PLAN_1
  6
CONTINUOUS
 10
2.147362
 20
-4.003157
  0
VERTEX
  8
PLAN_1
  6
CONTINUOUS
 10
2.147362
 20
-4.072177
  0
SEQEND
  8
0
  0
POLYLINE
  8
PLAN_1
  6
CONTINUOUS
 66
     1
 40
0.003000
 41
0.003000
  0
VERTEX
  8
PLAN_1
  6
CONTINUOUS
 10
2.423441
 20
-4.038457
  0
VERTEX
  8
PLAN_1
  6
CONTINUOUS
 10
2.422390
 20
-4.032661
  0
VERTEX
  8
PLAN_1
  6
CONTINUOUS
 10
2.421335
 20
-4.027394
  0
VERTEX
  8
PLAN_1
  6
CONTINUOUS
 10
2.420280
 20
-4.023177
  0
VERTEX
  8
PLAN_1
  6
CONTINUOUS
 10
2.418173
 20
-4.018965
  0
VERTEX
  8
PLAN_1
  6
CONTINUOUS
 10
2.415539
 20
-4.015276
  0
VERTEX
  8
PLAN_1
  6
CONTINUOUS
 10
2.412906
 20
-4.011587
  0
VERTEX
  8
PLAN_1
  6
CONTINUOUS
 10
2.409744
 20
-4.008953
  0
VERTEX
  8
PLAN_1
  6
CONTINUOUS
 10
2.406583
 20
-4.006319
  0
VERTEX
  8
PLAN_1
  6
CONTINUOUS
 10
2.402894
 20
-4.004213
  0
VERTEX
  8
PLAN_1
  6
CONTINUOUS
 10
2.398677
 20
-4.002630
  0
VERTEX
  8
PLAN_1
  6
CONTINUOUS
 10
2.394992
 20
-4.001051
  0
VERTEX
  8
PLAN_1
  6
CONTINUOUS
 10
2.390776
 20
-3.999469
  0
VERTEX
  8
PLAN_1
  6
CONTINUOUS
 10
2.382346
 20
-3.998413
  0
VERTEX
  8
PLAN_1
  6
CONTINUOUS
 10
2.373917
 20
-3.997890
  0
VERTEX
  8
PLAN_1
  6
CONTINUOUS
 10
2.367067
 20
-3.997890
  0
VERTEX
  8
PLAN_1
  6
CONTINUOUS
 10
2.359689
 20
-3.998941
  0
VERTEX
  8
PLAN_1
  6
CONTINUOUS
 10
2.355476
 20
-3.999469
  0
VERTEX
  8
PLAN_1
  6
CONTINUOUS
 10
2.351787
 20
-4.000524
  0
VERTEX
  8
PLAN_1
  6
CONTINUOUS
 10
2.348098
 20
-4.002102
  0
VERTEX
  8
PLAN_1
  6
CONTINUOUS
 10
2.344409
 20
-4.003685
  0
VERTEX
  8
PLAN_1
  6
CONTINUOUS
 10
2.341252
 20
-4.005791
  0
VERTEX
  8
PLAN_1
  6
CONTINUOUS
 10
2.338091
 20
-4.008425
  0
VERTEX
  8
PLAN_1
  6
CONTINUOUS
 10
2.335453
 20
-4.011059
  0
VERTEX
  8
PLAN_1
  6
CONTINUOUS
 10
2.332819
 20
-4.014220
  0
VERTEX
  8
PLAN_1
  6
CONTINUOUS
 10
2.331240
 20
-4.018437
  0
VERTEX
  8
PLAN_1
  6
CONTINUOUS
 10
2.329657
 20
-4.022650
  0
VERTEX
  8
PLAN_1
  6
CONTINUOUS
 10
2.328606
 20
-4.027394
  0
VERTEX
  8
PLAN_1
  6
CONTINUOUS
 10
2.328079
 20
-4.032661
  0
VERTEX
  8
PLAN_1
  6
CONTINUOUS
 10
2.328606
 20
-4.035823
  0
VERTEX
  8
PLAN_1
  6
CONTINUOUS
 10
2.328606
 20
-4.038457
  0
VERTEX
  8
PLAN_1
  6
CONTINUOUS
 10
2.329657
 20
-4.041091
  0
VERTEX
  8
PLAN_1
  6
CONTINUOUS
 10
2.330185
 20
-4.043201
  0
VERTEX
  8
PLAN_1
  6
CONTINUOUS
 10
2.332819
 20
-4.047413
  0
VERTEX
  8
PLAN_1
  6
CONTINUOUS
 10
2.335453
 20
-4.050575
  0
VERTEX
  8
PLAN_1
  6
CONTINUOUS
 10
2.339142
 20
-4.053209
  0
VERTEX
  8
PLAN_1
  6
CONTINUOUS
 10
2.343358
 20
-4.055319
  0
VERTEX
  8
PLAN_1
  6
CONTINUOUS
 10
2.347571
 20
-4.056898
  0
VERTEX
  8
PLAN_1
  6
CONTINUOUS
 10
2.351787
 20
-4.057953
  0
VERTEX
  8
PLAN_1
  6
CONTINUOUS
 10
2.408689
 20
-4.071122
  0
VERTEX
  8
PLAN_1
  6
CONTINUOUS
 10
2.413429
 20
-4.072177
  0
VERTEX
  8
PLAN_1
  6
CONTINUOUS
 10
2.418173
 20
-4.073756
  0
VERTEX
  8
PLAN_1
  6
CONTINUOUS
 10
2.422390
 20
-4.075339
  0
VERTEX
  8
PLAN_1
  6
CONTINUOUS
 10
2.426602
 20
-4.077445
  0
VERTEX
  8
PLAN_1
  6
CONTINUOUS
 10
2.430819
 20
-4.079551
  0
VERTEX
  8
PLAN_1
  6
CONTINUOUS
 10
2.434504
 20
-4.082189
  0
VERTEX
  8
PLAN_1
  6
CONTINUOUS
 10
2.437665
 20
-4.084823
  0
VERTEX
  8
PLAN_1
  6
CONTINUOUS
 10
2.440827
 20
-4.087984
  0
VERTEX
  8
PLAN_1
  6
CONTINUOUS
 10
2.443988
 20
-4.091146
  0
VERTEX
  8
PLAN_1
  6
CONTINUOUS
 10
2.446622
 20
-4.094831
  0
VERTEX
  8
PLAN_1
  6
CONTINUOUS
 10
2.448732
 20
-4.099047
  0
VERTEX
  8
PLAN_1
  6
CONTINUOUS
 10
2.450311
 20
-4.103264
  0
VERTEX
  8
PLAN_1
  6
CONTINUOUS
 10
2.451894
 20
-4.108004
  0
VERTEX
  8
PLAN_1
  6
CONTINUOUS
 10
2.452945
 20
-4.113272
  0
VERTEX
  8
PLAN_1
  6
CONTINUOUS
 10
2.454000
 20
-4.118539
  0
VERTEX
  8
PLAN_1
  6
CONTINUOUS
 10
2.454000
 20
-4.124339
  0
VERTEX
  8
PLAN_1
  6
CONTINUOUS
 10
2.453472
 20
-4.132768
  0
VERTEX
  8
PLAN_1
  6
CONTINUOUS
 10
2.451894
 20
-4.140142
  0
VERTEX
  8
PLAN_1
  6
CONTINUOUS
 10
2.449783
 20
-4.147520
  0
VERTEX
  8
PLAN_1
  6
CONTINUOUS
 10
2.446622
 20
-4.153315
  0
VERTEX
  8
PLAN_1
  6
CONTINUOUS
 10
2.442937
 20
-4.159110
  0
VERTEX
  8
PLAN_1
  6
CONTINUOUS
 10
2.438193
 20
-4.163850
  0
VERTEX
  8
PLAN_1
  6
CONTINUOUS
 10
2.433453
 20
-4.168594
  0
VERTEX
  8
PLAN_1
  6
CONTINUOUS
 10
2.427657
 20
-4.172283
  0
VERTEX
  8
PLAN_1
  6
CONTINUOUS
 10
2.421862
 20
-4.175445
  0
VERTEX
  8
PLAN_1
  6
CONTINUOUS
 10
2.415539
 20
-4.178079
  0
VERTEX
  8
PLAN_1
  6
CONTINUOUS
 10
2.409217
 20
-4.180185
  0
VERTEX
  8
PLAN_1
  6
CONTINUOUS
 10
2.402366
 20
-4.181764
  0
VERTEX
  8
PLAN_1
  6
CONTINUOUS
 10
2.396043
 20
-4.182819
  0
VERTEX
  8
PLAN_1
  6
CONTINUOUS
 10
2.389197
 20
-4.183874
  0
VERTEX
  8
PLAN_1
  6
CONTINUOUS
 10
2.382346
 20
-4.184402
  0
VERTEX
  8
PLAN_1
  6
CONTINUOUS
 10
2.376024
 20
-4.184402
  0
VERTEX
  8
PLAN_1
  6
CONTINUOUS
 10
2.363378
 20
-4.183874
  0
VERTEX
  8
PLAN_1
  6
CONTINUOUS
 10
2.352315
 20
-4.182819
  0
VERTEX
  8
PLAN_1
  6
CONTINUOUS
 10
2.342831
 20
-4.180713
  0
VERTEX
  8
PLAN_1
  6
CONTINUOUS
 10
2.335453
 20
-4.178079
  0
VERTEX
  8
PLAN_1
  6
CONTINUOUS
 10
2.329134
 20
-4.174917
  0
VERTEX
  8
PLAN_1
  6
CONTINUOUS
 10
2.323862
 20
-4.171756
  0
VERTEX
  8
PLAN_1
  6
CONTINUOUS
 10
2.319650
 20
-4.168594
  0
VERTEX
  8
PLAN_1
  6
CONTINUOUS
 10
2.315961
 20
-4.165433
  0
VERTEX
  8
PLAN_1
  6
CONTINUOUS
 10
2.310165
 20
-4.159638
  0
VERTEX
  8
PLAN_1
  6
CONTINUOUS
 10
2.305421
 20
-4.153843
  0
VERTEX
  8
PLAN_1
  6
CONTINUOUS
 10
2.301736
 20
-4.147520
  0
VERTEX
  8
PLAN_1
  6
CONTINUOUS
 10
2.299102
 20
-4.141197
  0
VERTEX
  8
PLAN_1
  6
CONTINUOUS
 10
2.297520
 20
-4.134874
  0
VERTEX
  8
PLAN_1
  6
CONTINUOUS
 10
2.296465
 20
-4.128551
  0
VERTEX
  8
PLAN_1
  6
CONTINUOUS
 10
2.295941
 20
-4.121701
  0
VERTEX
  8
PLAN_1
  6
CONTINUOUS
 10
2.295413
 20
-4.114854
  0
VERTEX
  8
PLAN_1
  6
CONTINUOUS
 10
2.320701
 20
-4.114854
  0
VERTEX
  8
PLAN_1
  6
CONTINUOUS
 10
2.321228
 20
-4.121177
  0
VERTEX
  8
PLAN_1
  6
CONTINUOUS
 10
2.322283
 20
-4.126972
  0
VERTEX
  8
PLAN_1
  6
CONTINUOUS
 10
2.323862
 20
-4.132768
  0
VERTEX
  8
PLAN_1
  6
CONTINUOUS
 10
2.325972
 20
-4.137508
  0
VERTEX
  8
PLAN_1
  6
CONTINUOUS
 10
2.328606
 20
-4.141724
  0
VERTEX
  8
PLAN_1
  6
CONTINUOUS
 10
2.331240
 20
-4.145413
  0
VERTEX
  8
PLAN_1
  6
CONTINUOUS
 10
2.334929
 20
-4.148571
  0
VERTEX
  8
PLAN_1
  6
CONTINUOUS
 10
2.338614
 20
-4.151732
  0
VERTEX
  8
PLAN_1
  6
CONTINUOUS
 10
2.342831
 20
-4.154370
  0
VERTEX
  8
PLAN_1
  6
CONTINUOUS
 10
2.347047
 20
-4.155949
  0
VERTEX
  8
PLAN_1
  6
CONTINUOUS
 10
2.351787
 20
-4.158055
  0
VERTEX
  8
PLAN_1
  6
CONTINUOUS
 10
2.356528
 20
-4.159110
  0
VERTEX
  8
PLAN_1
  6
CONTINUOUS
 10
2.361272
 20
-4.160165
  0
VERTEX
  8
PLAN_1
  6
CONTINUOUS
 10
2.366012
 20
-4.160689
  0
VERTEX
  8
PLAN_1
  6
CONTINUOUS
 10
2.370756
 20
-4.161217
  0
VERTEX
  8
PLAN_1
  6
CONTINUOUS
 10
2.375496
 20
-4.161217
  0
VERTEX
  8
PLAN_1
  6
CONTINUOUS
 10
2.383398
 20
-4.161217
  0
VERTEX
  8
PLAN_1
  6
CONTINUOUS
 10
2.391831
 20
-4.160165
  0
VERTEX
  8
PLAN_1
  6
CONTINUOUS
 10
2.396571
 20
-4.159638
  0
VERTEX
  8
PLAN_1
  6
CONTINUOUS
 10
2.400787
 20
-4.158583
  0
VERTEX
  8
PLAN_1
  6
CONTINUOUS
 10
2.405000
 20
-4.157004
  0
VERTEX
  8
PLAN_1
  6
CONTINUOUS
 10
2.409217
 20
-4.155421
  0
VERTEX
  8
PLAN_1
  6
CONTINUOUS
 10
2.412906
 20
-4.153315
  0
VERTEX
  8
PLAN_1
  6
CONTINUOUS
 10
2.416591
 20
-4.151209
  0
VERTEX
  8
PLAN_1
  6
CONTINUOUS
 10
2.419752
 20
-4.148571
  0
VERTEX
  8
PLAN_1
  6
CONTINUOUS
 10
2.422390
 20
-4.145413
  0
VERTEX
  8
PLAN_1
  6
CONTINUOUS
 10
2.424496
 20
-4.141724
  0
VERTEX
  8
PLAN_1
  6
CONTINUOUS
 10
2.426602
 20
-4.137508
  0
VERTEX
  8
PLAN_1
  6
CONTINUOUS
 10
2.427657
 20
-4.132768
  0
VERTEX
  8
PLAN_1
  6
CONTINUOUS
 10
2.427657
 20
-4.128024
  0
VERTEX
  8
PLAN_1
  6
CONTINUOUS
 10
2.427657
 20
-4.124339
  0
VERTEX
  8
PLAN_1
  6
CONTINUOUS
 10
2.427657
 20
-4.120650
  0
VERTEX
  8
PLAN_1
  6
CONTINUOUS
 10
2.426602
 20
-4.117488
  0
VERTEX
  8
PLAN_1
  6
CONTINUOUS
 10
2.426075
 20
-4.114854
  0
VERTEX
  8
PLAN_1
  6
CONTINUOUS
 10
2.424496
 20
-4.112220
  0
VERTEX
  8
PLAN_1
  6
CONTINUOUS
 10
2.422913
 20
-4.109583
  0
VERTEX
  8
PLAN_1
  6
CONTINUOUS
 10
2.421335
 20
-4.107476
  0
VERTEX
  8
PLAN_1
  6
CONTINUOUS
 10
2.418701
 20
-4.105370
  0
VERTEX
  8
PLAN_1
  6
CONTINUOUS
 10
2.416067
 20
-4.103264
  0
VERTEX
  8
PLAN_1
  6
CONTINUOUS
 10
2.413429
 20
-4.101681
  0
VERTEX
  8
PLAN_1
  6
CONTINUOUS
 10
2.409744
 20
-4.100102
  0
VERTEX
  8
PLAN_1
  6
CONTINUOUS
 10
2.406055
 20
-4.098520
  0
VERTEX
  8
PLAN_1
  6
CONTINUOUS
 10
2.396571
 20
-4.095358
  0
VERTEX
  8
PLAN_1
  6
CONTINUOUS
 10
2.385508
 20
-4.092724
  0
VERTEX
  8
PLAN_1
  6
CONTINUOUS
 10
2.344409
 20
-4.083240
  0
VERTEX
  8
PLAN_1
  6
CONTINUOUS
 10
2.339142
 20
-4.081661
  0
VERTEX
  8
PLAN_1
  6
CONTINUOUS
 10
2.332291
 20
-4.079551
  0
VERTEX
  8
PLAN_1
  6
CONTINUOUS
 10
2.329134
 20
-4.077972
  0
VERTEX
  8
PLAN_1
  6
CONTINUOUS
 10
2.325445
 20
-4.076390
  0
VERTEX
  8
PLAN_1
  6
CONTINUOUS
 10
2.321756
 20
-4.074283
  0
VERTEX
  8
PLAN_1
  6
CONTINUOUS
 10
2.318594
 20
-4.071650
  0
VERTEX
  8
PLAN_1
  6
CONTINUOUS
 10
2.315433
 20
-4.069016
  0
VERTEX
  8
PLAN_1
  6
CONTINUOUS
 10
2.312272
 20
-4.065327
  0
VERTEX
  8
PLAN_1
  6
CONTINUOUS
 10
2.309638
 20
-4.061638
  0
VERTEX
  8
PLAN_1
  6
CONTINUOUS
 10
2.307004
 20
-4.057953
  0
VERTEX
  8
PLAN_1
  6
CONTINUOUS
 10
2.304898
 20
-4.053209
  0
VERTEX
  8
PLAN_1
  6
CONTINUOUS
 10
2.303315
 20
-4.047941
  0
VERTEX
  8
PLAN_1
  6
CONTINUOUS
 10
2.302260
 20
-4.042673
  0
VERTEX
  8
PLAN_1
  6
CONTINUOUS
 10
2.302260
 20
-4.036350
  0
VERTEX
  8
PLAN_1
  6
CONTINUOUS
 10
2.302260
 20
-4.030555
  0
VERTEX
  8
PLAN_1
  6
CONTINUOUS
 10
2.303315
 20
-4.024760
  0
VERTEX
  8
PLAN_1
  6
CONTINUOUS
 10
2.304370
 20
-4.018965
  0
VERTEX
  8
PLAN_1
  6
CONTINUOUS
 10
2.305949
 20
-4.013693
  0
VERTEX
  8
PLAN_1
  6
CONTINUOUS
 10
2.308583
 20
-4.008425
  0
VERTEX
  8
PLAN_1
  6
CONTINUOUS
 10
2.311217
 20
-4.003157
  0
VERTEX
  8
PLAN_1
  6
CONTINUOUS
 10
2.314378
 20
-3.998413
  0
VERTEX
  8
PLAN_1
  6
CONTINUOUS
 10
2.318594
 20
-3.993673
  0
VERTEX
  8
PLAN_1
  6
CONTINUOUS
 10
2.322811
 20
-3.989457
  0
VERTEX
  8
PLAN_1
  6
CONTINUOUS
 10
2.327551
 20
-3.985772
  0
VERTEX
  8
PLAN_1
  6
CONTINUOUS
 10
2.333346
 20
-3.982610
  0
VERTEX
  8
PLAN_1
  6
CONTINUOUS
 10
2.339669
 20
-3.979976
  0
VERTEX
  8
PLAN_1
  6
CONTINUOUS
 10
2.346520
 20
-3.977866
  0
VERTEX
  8
PLAN_1
  6
CONTINUOUS
 10
2.353894
 20
-3.975760
  0
VERTEX
  8
PLAN_1
  6
CONTINUOUS
 10
2.361799
 20
-3.975232
  0
VERTEX
  8
PLAN_1
  6
CONTINUOUS
 10
2.370756
 20
-3.974705
  0
VERTEX
  8
PLAN_1
  6
CONTINUOUS
 10
2.382874
 20
-3.975232
  0
VERTEX
  8
PLAN_1
  6
CONTINUOUS
 10
2.393937
 20
-3.976287
  0
VERTEX
  8
PLAN_1
  6
CONTINUOUS
 10
2.403421
 20
-3.978394
  0
VERTEX
  8
PLAN_1
  6
CONTINUOUS
 10
2.411850
 20
-3.981555
  0
VERTEX
  8
PLAN_1
  6
CONTINUOUS
 10
2.419228
 20
-3.984717
  0
VERTEX
  8
PLAN_1
  6
CONTINUOUS
 10
2.425547
 20
-3.988933
  0
VERTEX
  8
PLAN_1
  6
CONTINUOUS
 10
2.430819
 20
-3.993673
  0
VERTEX
  8
PLAN_1
  6
CONTINUOUS
 10
2.435559
 20
-3.998413
  0
VERTEX
  8
PLAN_1
  6
CONTINUOUS
 10
2.438720
 20
-4.003157
  0
VERTEX
  8
PLAN_1
  6
CONTINUOUS
 10
2.441882
 20
-4.008425
  0
VERTEX
  8
PLAN_1
  6
CONTINUOUS
 10
2.443988
 20
-4.013693
  0
VERTEX
  8
PLAN_1
  6
CONTINUOUS
 10
2.445571
 20
-4.018965
  0
VERTEX
  8
PLAN_1
  6
CONTINUOUS
 10
2.447677
 20
-4.028972
  0
VERTEX
  8
PLAN_1
  6
CONTINUOUS
 10
2.448205
 20
-4.038457
  0
VERTEX
  8
PLAN_1
  6
CONTINUOUS
 10
2.423441
 20
-4.038457
  0
SEQEND
  8
0
  0
POLYLINE
  8
PLAN_1
  6
CONTINUOUS
 66
     1
 40
0.008429
 41
0.008429
  0
VERTEX
  8
PLAN_1
  6
CONTINUOUS
 10
-0.535980
 20
0.065327
  0
VERTEX
  8
PLAN_1
  6
CONTINUOUS
 10
-0.535457
 20
0.068488
  0
VERTEX
  8
PLAN_1
  6
CONTINUOUS
 10
-0.535980
 20
0.077445
  0
VERTEX
  8
PLAN_1
  6
CONTINUOUS
 10
-0.536508
 20
0.083240
  0
VERTEX
  8
PLAN_1
  6
CONTINUOUS
 10
-0.537035
 20
0.089563
  0
VERTEX
  8
PLAN_1
  6
CONTINUOUS
 10
-0.538614
 20
0.096409
  0
VERTEX
  8
PLAN_1
  6
CONTINUOUS
 10
-0.540197
 20
0.103787
  0
VERTEX
  8
PLAN_1
  6
CONTINUOUS
 10
-0.542303
 20
0.110638
  0
VERTEX
  8
PLAN_1
  6
CONTINUOUS
 10
-0.545465
 20
0.117484
  0
VERTEX
  8
PLAN_1
  6
CONTINUOUS
 10
-0.547575
 20
0.121173
  0
VERTEX
  8
PLAN_1
  6
CONTINUOUS
 10
-0.549681
 20
0.124335
  0
VERTEX
  8
PLAN_1
  6
CONTINUOUS
 10
-0.551787
 20
0.126969
  0
VERTEX
  8
PLAN_1
  6
CONTINUOUS
 10
-0.554421
 20
0.130130
  0
VERTEX
  8
PLAN_1
  6
CONTINUOUS
 10
-0.557055
 20
0.132764
  0
VERTEX
  8
PLAN_1
  6
CONTINUOUS
 10
-0.559689
 20
0.134874
  0
VERTEX
  8
PLAN_1
  6
CONTINUOUS
 10
-0.562850
 20
0.136980
  0
VERTEX
  8
PLAN_1
  6
CONTINUOUS
 10
-0.566539
 20
0.138559
  0
VERTEX
  8
PLAN_1
  6
CONTINUOUS
 10
-0.570228
 20
0.140142
  0
VERTEX
  8
PLAN_1
  6
CONTINUOUS
 10
-0.574445
 20
0.141197
  0
VERTEX
  8
PLAN_1
  6
CONTINUOUS
 10
-0.578657
 20
0.141720
  0
VERTEX
  8
PLAN_1
  6
CONTINUOUS
 10
-0.583402
 20
0.142248
  0
VERTEX
  8
PLAN_1
  6
CONTINUOUS
 10
-0.606055
 20
0.142248
  0
VERTEX
  8
PLAN_1
  6
CONTINUOUS
 10
-0.633453
 20
0.142248
  0
VERTEX
  8
PLAN_1
  6
CONTINUOUS
 10
-0.663484
 20
0.142248
  0
VERTEX
  8
PLAN_1
  6
CONTINUOUS
 10
-0.693516
 20
0.142248
  0
VERTEX
  8
PLAN_1
  6
CONTINUOUS
 10
-0.720913
 20
0.142248
  0
VERTEX
  8
PLAN_1
  6
CONTINUOUS
 10
-0.743039
 20
0.142248
  0
VERTEX
  8
PLAN_1
  6
CONTINUOUS
 10
-0.758319
 20
0.142248
  0
VERTEX
  8
PLAN_1
  6
CONTINUOUS
 10
-0.764114
 20
0.142248
  0
SEQEND
  8
0
  0
POLYLINE
  8
PLAN_1
  6
CONTINUOUS
 66
     1
 40
0.008429
 41
0.008429
  0
VERTEX
  8
PLAN_1
  6
CONTINUOUS
 10
-0.764114
 20
0.142248
  0
VERTEX
  8
PLAN_1
  6
CONTINUOUS
 10
-0.764114
 20
0.560583
  0
SEQEND
  8
0
  0
POLYLINE
  8
PLAN_1
  6
CONTINUOUS
 66
     1
 40
0.008429
 41
0.008429
  0
VERTEX
  8
PLAN_1
  6
CONTINUOUS
 10
-0.764114
 20
0.560583
  0
VERTEX
  8
PLAN_1
  6
CONTINUOUS
 10
-0.764114
 20
0.561638
  0
VERTEX
  8
PLAN_1
  6
CONTINUOUS
 10
-0.764642
 20
0.564799
  0
VERTEX
  8
PLAN_1
  6
CONTINUOUS
 10
-0.765697
 20
0.569539
  0
VERTEX
  8
PLAN_1
  6
CONTINUOUS
 10
-0.767803
 20
0.574807
  0
VERTEX
  8
PLAN_1
  6
CONTINUOUS
 10
-0.769386
 20
0.577969
  0
VERTEX
  8
PLAN_1
  6
CONTINUOUS
 10
-0.770965
 20
0.580079
  0
VERTEX
  8
PLAN_1
  6
CONTINUOUS
 10
-0.773071
 20
0.582713
  0
VERTEX
  8
PLAN_1
  6
CONTINUOUS
 10
-0.775709
 20
0.584819
  0
VERTEX
  8
PLAN_1
  6
CONTINUOUS
 10
-0.778343
 20
0.586925
  0
VERTEX
  8
PLAN_1
  6
CONTINUOUS
 10
-0.782031
 20
0.588508
  0
VERTEX
  8
PLAN_1
  6
CONTINUOUS
 10
-0.785717
 20
0.589035
  0
VERTEX
  8
PLAN_1
  6
CONTINUOUS
 10
-0.789933
 20
0.589559
  0
VERTEX
  8
PLAN_1
  6
CONTINUOUS
 10
-0.799417
 20
0.589559
  0
VERTEX
  8
PLAN_1
  6
CONTINUOUS
 10
-0.808374
 20
0.589559
  0
VERTEX
  8
PLAN_1
  6
CONTINUOUS
 10
-0.816803
 20
0.589559
  0
VERTEX
  8
PLAN_1
  6
CONTINUOUS
 10
-0.824177
 20
0.589559
  0
VERTEX
  8
PLAN_1
  6
CONTINUOUS
 10
-0.831028
 20
0.589559
  0
VERTEX
  8
PLAN_1
  6
CONTINUOUS
 10
-0.835772
 20
0.589559
  0
VERTEX
  8
PLAN_1
  6
CONTINUOUS
 10
-0.838933
 20
0.589559
  0
VERTEX
  8
PLAN_1
  6
CONTINUOUS
 10
-0.839984
 20
0.589559
  0
VERTEX
  8
PLAN_1
  6
CONTINUOUS
 10
-0.847890
 20
0.590087
  0
VERTEX
  8
PLAN_1
  6
CONTINUOUS
 10
-0.854736
 20
0.590614
  0
VERTEX
  8
PLAN_1
  6
CONTINUOUS
 10
-0.860531
 20
0.592193
  0
VERTEX
  8
PLAN_1
  6
CONTINUOUS
 10
-0.865276
 20
0.594303
  0
VERTEX
  8
PLAN_1
  6
CONTINUOUS
 10
-0.868965
 20
0.596409
  0
VERTEX
  8
PLAN_1
  6
CONTINUOUS
 10
-0.872126
 20
0.599043
  0
VERTEX
  8
PLAN_1
  6
CONTINUOUS
 10
-0.874760
 20
0.601677
  0
VERTEX
  8
PLAN_1
  6
CONTINUOUS
 10
-0.876339
 20
0.604839
  0
VERTEX
  8
PLAN_1
  6
CONTINUOUS
 10
-0.877394
 20
0.607472
  0
VERTEX
  8
PLAN_1
  6
CONTINUOUS
 10
-0.878445
 20
0.610110
  0
VERTEX
  8
PLAN_1
  6
CONTINUOUS
 10
-0.878445
 20
0.612744
  0
VERTEX
  8
PLAN_1
  6
CONTINUOUS
 10
-0.878972
 20
0.614850
  0
VERTEX
  8
PLAN_1
  6
CONTINUOUS
 10
-0.878445
 20
0.618539
  0
VERTEX
  8
PLAN_1
  6
CONTINUOUS
 10
-0.878445
 20
0.619591
  0
SEQEND
  8
0
  0
POLYLINE
  8
PLAN_1
  6
CONTINUOUS
 66
     1
 40
0.008429
 41
0.008429
  0
VERTEX
  8
PLAN_1
  6
CONTINUOUS
 10
-0.878445
 20
0.619591
  0
VERTEX
  8
PLAN_1
  6
CONTINUOUS
 10
-0.920071
 20
0.619591
  0
VERTEX
  8
PLAN_1
  6
CONTINUOUS
 10
-0.973811
 20
0.619591
  0
VERTEX
  8
PLAN_1
  6
CONTINUOUS
 10
-1.181398
 20
0.619591
  0
SEQEND
  8
0
  0
POLYLINE
  8
PLAN_1
  6
CONTINUOUS
 66
     1
 40
0.008429
 41
0.008429
  0
VERTEX
  8
PLAN_1
  6
CONTINUOUS
 10
-1.181398
 20
0.619591
  0
VERTEX
  8
PLAN_1
  6
CONTINUOUS
 10
-1.181398
 20
0.618539
  0
VERTEX
  8
PLAN_1
  6
CONTINUOUS
 10
-1.181398
 20
0.614850
  0
VERTEX
  8
PLAN_1
  6
CONTINUOUS
 10
-1.181398
 20
0.612744
  0
VERTEX
  8
PLAN_1
  6
CONTINUOUS
 10
-1.181921
 20
0.610110
  0
VERTEX
  8
PLAN_1
  6
CONTINUOUS
 10
-1.182449
 20
0.607472
  0
VERTEX
  8
PLAN_1
  6
CONTINUOUS
 10
-1.183504
 20
0.604839
  0
VERTEX
  8
PLAN_1
  6
CONTINUOUS
 10
-1.185610
 20
0.601677
  0
VERTEX
  8
PLAN_1
  6
CONTINUOUS
 10
-1.187720
 20
0.599043
  0
VERTEX
  8
PLAN_1
  6
CONTINUOUS
 10
-1.190882
 20
0.596409
  0
VERTEX
  8
PLAN_1
  6
CONTINUOUS
 10
-1.194567
 20
0.594303
  0
VERTEX
  8
PLAN_1
  6
CONTINUOUS
 10
-1.199311
 20
0.592193
  0
VERTEX
  8
PLAN_1
  6
CONTINUOUS
 10
-1.205106
 20
0.590614
  0
VERTEX
  8
PLAN_1
  6
CONTINUOUS
 10
-1.211957
 20
0.590087
  0
VERTEX
  8
PLAN_1
  6
CONTINUOUS
 10
-1.219858
 20
0.589559
  0
VERTEX
  8
PLAN_1
  6
CONTINUOUS
 10
-1.220913
 20
0.589559
  0
VERTEX
  8
PLAN_1
  6
CONTINUOUS
 10
-1.224071
 20
0.589559
  0
VERTEX
  8
PLAN_1
  6
CONTINUOUS
 10
-1.229343
 20
0.589559
  0
VERTEX
  8
PLAN_1
  6
CONTINUOUS
 10
-1.235665
 20
0.589559
  0
VERTEX
  8
PLAN_1
  6
CONTINUOUS
 10
-1.243039
 20
0.589559
  0
VERTEX
  8
PLAN_1
  6
CONTINUOUS
 10
-1.251469
 20
0.589559
  0
VERTEX
  8
PLAN_1
  6
CONTINUOUS
 10
-1.260425
 20
0.589559
  0
VERTEX
  8
PLAN_1
  6
CONTINUOUS
 10
-1.269909
 20
0.589559
  0
VERTEX
  8
PLAN_1
  6
CONTINUOUS
 10
-1.274126
 20
0.589035
  0
VERTEX
  8
PLAN_1
  6
CONTINUOUS
 10
-1.278339
 20
0.588508
  0
VERTEX
  8
PLAN_1
  6
CONTINUOUS
 10
-1.281500
 20
0.586925
  0
VERTEX
  8
PLAN_1
  6
CONTINUOUS
 10
-1.284661
 20
0.584819
  0
VERTEX
  8
PLAN_1
  6
CONTINUOUS
 10
-1.286772
 20
0.582713
  0
VERTEX
  8
PLAN_1
  6
CONTINUOUS
 10
-1.288878
 20
0.580079
  0
VERTEX
  8
PLAN_1
  6
CONTINUOUS
 10
-1.290984
 20
0.577969
  0
VERTEX
  8
PLAN_1
  6
CONTINUOUS
 10
-1.292039
 20
0.574807
  0
VERTEX
  8
PLAN_1
  6
CONTINUOUS
 10
-1.294146
 20
0.569539
  0
VERTEX
  8
PLAN_1
  6
CONTINUOUS
 10
-1.295201
 20
0.564799
  0
VERTEX
  8
PLAN_1
  6
CONTINUOUS
 10
-1.295728
 20
0.561638
  0
VERTEX
  8
PLAN_1
  6
CONTINUOUS
 10
-1.295728
 20
0.560583
  0
SEQEND
  8
0
  0
POLYLINE
  8
PLAN_1
  6
CONTINUOUS
 66
     1
 40
0.008429
 41
0.008429
  0
VERTEX
  8
PLAN_1
  6
CONTINUOUS
 10
-1.295728
 20
0.560583
  0
VERTEX
  8
PLAN_1
  6
CONTINUOUS
 10
-1.295728
 20
0.142248
  0
SEQEND
  8
0
  0
POLYLINE
  8
PLAN_1
  6
CONTINUOUS
 66
     1
 40
0.008429
 41
0.008429
  0
VERTEX
  8
PLAN_1
  6
CONTINUOUS
 10
-1.295728
 20
0.142248
  0
VERTEX
  8
PLAN_1
  6
CONTINUOUS
 10
-1.301524
 20
0.142248
  0
VERTEX
  8
PLAN_1
  6
CONTINUOUS
 10
-1.316803
 20
0.142248
  0
VERTEX
  8
PLAN_1
  6
CONTINUOUS
 10
-1.339457
 20
0.142248
  0
VERTEX
  8
PLAN_1
  6
CONTINUOUS
 10
-1.366854
 20
0.142248
  0
VERTEX
  8
PLAN_1
  6
CONTINUOUS
 10
-1.396358
 20
0.142248
  0
VERTEX
  8
PLAN_1
  6
CONTINUOUS
 10
-1.426390
 20
0.142248
  0
VERTEX
  8
PLAN_1
  6
CONTINUOUS
 10
-1.453787
 20
0.142248
  0
VERTEX
  8
PLAN_1
  6
CONTINUOUS
 10
-1.476445
 20
0.142248
  0
VERTEX
  8
PLAN_1
  6
CONTINUOUS
 10
-1.481185
 20
0.141720
  0
VERTEX
  8
PLAN_1
  6
CONTINUOUS
 10
-1.485402
 20
0.141197
  0
VERTEX
  8
PLAN_1
  6
CONTINUOUS
 10
-1.489614
 20
0.140142
  0
VERTEX
  8
PLAN_1
  6
CONTINUOUS
 10
-1.493303
 20
0.138559
  0
VERTEX
  8
PLAN_1
  6
CONTINUOUS
 10
-1.496992
 20
0.136980
  0
VERTEX
  8
PLAN_1
  6
CONTINUOUS
 10
-1.500154
 20
0.134874
  0
VERTEX
  8
PLAN_1
  6
CONTINUOUS
 10
-1.503315
 20
0.132764
  0
VERTEX
  8
PLAN_1
  6
CONTINUOUS
 10
-1.505949
 20
0.130130
  0
VERTEX
  8
PLAN_1
  6
CONTINUOUS
 10
-1.508055
 20
0.126969
  0
VERTEX
  8
PLAN_1
  6
CONTINUOUS
 10
-1.510689
 20
0.124335
  0
VERTEX
  8
PLAN_1
  6
CONTINUOUS
 10
-1.512795
 20
0.121173
  0
VERTEX
  8
PLAN_1
  6
CONTINUOUS
 10
-1.514378
 20
0.117484
  0
VERTEX
  8
PLAN_1
  6
CONTINUOUS
 10
-1.517539
 20
0.110638
  0
VERTEX
  8
PLAN_1
  6
CONTINUOUS
 10
-1.519646
 20
0.103787
  0
VERTEX
  8
PLAN_1
  6
CONTINUOUS
 10
-1.521752
 20
0.096409
  0
VERTEX
  8
PLAN_1
  6
CONTINUOUS
 10
-1.522807
 20
0.089563
  0
VERTEX
  8
PLAN_1
  6
CONTINUOUS
 10
-1.523335
 20
0.083240
  0
VERTEX
  8
PLAN_1
  6
CONTINUOUS
 10
-1.523862
 20
0.077445
  0
VERTEX
  8
PLAN_1
  6
CONTINUOUS
 10
-1.524390
 20
0.068488
  0
VERTEX
  8
PLAN_1
  6
CONTINUOUS
 10
-1.524390
 20
0.065327
  0
SEQEND
  8
0
  0
POLYLINE
  8
PLAN_1
  6
CONTINUOUS
 66
     1
 40
0.008429
 41
0.008429
  0
VERTEX
  8
PLAN_1
  6
CONTINUOUS
 10
-0.395835
 20
-0.429406
  0
VERTEX
  8
PLAN_1
  6
CONTINUOUS
 10
-0.395835
 20
-0.099583
  0
VERTEX
  8
PLAN_1
  6
CONTINUOUS
 10
-1.667169
 20
-0.099583
  0
VERTEX
  8
PLAN_1
  6
CONTINUOUS
 10
-1.667169
 20
-0.429406
  0
VERTEX
  8
PLAN_1
  6
CONTINUOUS
 10
-0.395835
 20
-0.429406
  0
SEQEND
  8
0
  0
POLYLINE
  8
PLAN_1
  6
CONTINUOUS
 66
     1
 40
0.006846
 41
0.006846
  0
VERTEX
  8
PLAN_1
  6
CONTINUOUS
 10
-1.346835
 20
0.064799
  0
VERTEX
  8
PLAN_1
  6
CONTINUOUS
 10
-1.346835
 20
-0.005803
  0
VERTEX
  8
PLAN_1
  6
CONTINUOUS
 10
-1.666642
 20
-0.005803
  0
VERTEX
  8
PLAN_1
  6
CONTINUOUS
 10
-1.666642
 20
0.064799
  0
VERTEX
  8
PLAN_1
  6
CONTINUOUS
 10
-1.346835
 20
0.064799
  0
SEQEND
  8
0
  0
POLYLINE
  8
PLAN_1
  6
CONTINUOUS
 66
     1
 40
0.006846
 41
0.006846
  0
VERTEX
  8
PLAN_1
  6
CONTINUOUS
 10
-1.480130
 20
0.037402
  0
VERTEX
  8
PLAN_1
  6
CONTINUOUS
 10
-1.480130
 20
0.064799
  0
VERTEX
  8
PLAN_1
  6
CONTINUOUS
 10
-1.535980
 20
0.064799
  0
VERTEX
  8
PLAN_1
  6
CONTINUOUS
 10
-1.535980
 20
0.037402
  0
VERTEX
  8
PLAN_1
  6
CONTINUOUS
 10
-1.480130
 20
0.037402
  0
SEQEND
  8
0
  0
POLYLINE
  8
PLAN_1
  6
CONTINUOUS
 66
     1
 40
0.006846
 41
0.006846
  0
VERTEX
  8
PLAN_1
  6
CONTINUOUS
 10
-0.396890
 20
0.064799
  0
VERTEX
  8
PLAN_1
  6
CONTINUOUS
 10
-0.396890
 20
-0.005803
  0
VERTEX
  8
PLAN_1
  6
CONTINUOUS
 10
-0.716697
 20
-0.005803
  0
VERTEX
  8
PLAN_1
  6
CONTINUOUS
 10
-0.716697
 20
0.064799
  0
VERTEX
  8
PLAN_1
  6
CONTINUOUS
 10
-0.396890
 20
0.064799
  0
SEQEND
  8
0
  0
POLYLINE
  8
PLAN_1
  6
CONTINUOUS
 66
     1
 40
0.006846
 41
0.006846
  0
VERTEX
  8
PLAN_1
  6
CONTINUOUS
 10
-0.530185
 20
0.037402
  0
VERTEX
  8
PLAN_1
  6
CONTINUOUS
 10
-0.530185
 20
0.064799
  0
VERTEX
  8
PLAN_1
  6
CONTINUOUS
 10
-0.586035
 20
0.064799
  0
VERTEX
  8
PLAN_1
  6
CONTINUOUS
 10
-0.586035
 20
0.037402
  0
VERTEX
  8
PLAN_1
  6
CONTINUOUS
 10
-0.530185
 20
0.037402
  0
SEQEND
  8
0
  0
POLYLINE
  8
PLAN_1
  6
CONTINUOUS
 66
     1
 40
0.006846
 41
0.006846
  0
VERTEX
  8
PLAN_1
  6
CONTINUOUS
 10
-0.746728
 20
0.065854
  0
VERTEX
  8
PLAN_1
  6
CONTINUOUS
 10
-1.311531
 20
0.065854
  0
SEQEND
  8
0
  0
POLYLINE
  8
PLAN_1
  6
CONTINUOUS
 66
     1
 40
0.008429
 41
0.008429
  0
VERTEX
  8
PLAN_1
  6
CONTINUOUS
 10
-1.311531
 20
-0.005803
  0
VERTEX
  8
PLAN_1
  6
CONTINUOUS
 10
-1.667169
 20
-0.005803
  0
VERTEX
  8
PLAN_1
  6
CONTINUOUS
 10
-1.667169
 20
-0.099583
  0
VERTEX
  8
PLAN_1
  6
CONTINUOUS
 10
-0.395835
 20
-0.099583
  0
VERTEX
  8
PLAN_1
  6
CONTINUOUS
 10
-0.395835
 20
-0.005803
  0
VERTEX
  8
PLAN_1
  6
CONTINUOUS
 10
-0.746728
 20
-0.005803
  0
VERTEX
  8
PLAN_1
  6
CONTINUOUS
 10
-0.746728
 20
0.065854
  0
VERTEX
  8
PLAN_1
  6
CONTINUOUS
 10
-1.311531
 20
0.065854
  0
VERTEX
  8
PLAN_1
  6
CONTINUOUS
 10
-1.311531
 20
-0.005803
  0
SEQEND
  8
0
  0
POLYLINE
  8
PLAN_1
  6
CONTINUOUS
 66
     1
 40
0.008429
 41
0.008429
  0
VERTEX
  8
PLAN_1
  6
CONTINUOUS
 10
-0.481189
 20
-0.482618
  0
VERTEX
  8
PLAN_1
  6
CONTINUOUS
 10
-0.481189
 20
-0.428350
  0
VERTEX
  8
PLAN_1
  6
CONTINUOUS
 10
-1.590248
 20
-0.428350
  0
VERTEX
  8
PLAN_1
  6
CONTINUOUS
 10
-1.590248
 20
-0.482618
  0
VERTEX
  8
PLAN_1
  6
CONTINUOUS
 10
-0.481189
 20
-0.482618
  0
SEQEND
  8
0
  0
POLYLINE
  8
PLAN_1
  6
CONTINUOUS
 66
     1
 40
0.008429
 41
0.008429
  0
VERTEX
  8
PLAN_1
  6
CONTINUOUS
 10
-1.523335
 20
-0.789783
  0
VERTEX
  8
PLAN_1
  6
CONTINUOUS
 10
-0.543358
 20
-0.789783
  0
SEQEND
  8
0
  0
POLYLINE
  8
PLAN_1
  6
CONTINUOUS
 66
     1
 40
0.008429
 41
0.008429
  0
VERTEX
  8
PLAN_1
  6
CONTINUOUS
 10
-0.543358
 20
-0.789783
  0
VERTEX
  8
PLAN_1
  6
CONTINUOUS
 10
-0.588142
 20
-0.834567
  0
VERTEX
  8
PLAN_1
  6
CONTINUOUS
 10
-1.479079
 20
-0.834567
  0
VERTEX
  8
PLAN_1
  6
CONTINUOUS
 10
-1.523335
 20
-0.789783
  0
VERTEX
  8
PLAN_1
  6
CONTINUOUS
 10
-1.523335
 20
-0.482618
  0
VERTEX
  8
PLAN_1
  6
CONTINUOUS
 10
-0.543358
 20
-0.482618
  0
VERTEX
  8
PLAN_1
  6
CONTINUOUS
 10
-0.543358
 20
-0.789783
  0
SEQEND
  8
0
  0
POLYLINE
  8
PLAN_1
  6
CONTINUOUS
 66
     1
 40
0.008429
 41
0.008429
  0
VERTEX
  8
PLAN_1
  6
CONTINUOUS
 10
-1.419539
 20
-0.834567
  0
VERTEX
  8
PLAN_1
  6
CONTINUOUS
 10
-1.361587
 20
-1.055850
  0
VERTEX
  8
PLAN_1
  6
CONTINUOUS
 10
-0.713535
 20
-1.055850
  0
VERTEX
  8
PLAN_1
  6
CONTINUOUS
 10
-0.640827
 20
-0.834567
  0
VERTEX
  8
PLAN_1
  6
CONTINUOUS
 10
-1.419539
 20
-0.834567
  0
SEQEND
  8
0
  0
POLYLINE
  8
PLAN_1
  6
CONTINUOUS
 66
     1
 40
0.006846
 41
0.006846
  0
VERTEX
  8
PLAN_1
  6
CONTINUOUS
 10
-1.367909
 20
-0.837728
  0
VERTEX
  8
PLAN_1
  6
CONTINUOUS
 10
-1.311531
 20
-1.055850
  0
SEQEND
  8
0
  0
POLYLINE
  8
PLAN_1
  6
CONTINUOUS
 66
     1
 40
0.006846
 41
0.006846
  0
VERTEX
  8
PLAN_1
  6
CONTINUOUS
 10
-1.330500
 20
-0.837728
  0
VERTEX
  8
PLAN_1
  6
CONTINUOUS
 10
-1.274654
 20
-1.055850
  0
SEQEND
  8
0
  0
POLYLINE
  8
PLAN_1
  6
CONTINUOUS
 66
     1
 40
0.006846
 41
0.006846
  0
VERTEX
  8
PLAN_1
  6
CONTINUOUS
 10
-0.713535
 20
-0.835622
  0
VERTEX
  8
PLAN_1
  6
CONTINUOUS
 10
-0.769913
 20
-1.053744
  0
SEQEND
  8
0
  0
POLYLINE
  8
PLAN_1
  6
CONTINUOUS
 66
     1
 40
0.006846
 41
0.006846
  0
VERTEX
  8
PLAN_1
  6
CONTINUOUS
 10
-0.750945
 20
-0.835622
  0
VERTEX
  8
PLAN_1
  6
CONTINUOUS
 10
-0.807319
 20
-1.053744
  0
SEQEND
  8
0
  0
POLYLINE
  8
PLAN_1
  6
CONTINUOUS
 66
     1
 40
0.006846
 41
0.006846
  0
VERTEX
  8
PLAN_1
  6
CONTINUOUS
 10
-1.251996
 20
0.142248
  0
VERTEX
  8
PLAN_1
  6
CONTINUOUS
 10
-0.803630
 20
0.142248
  0
SEQEND
  8
0
  0
POLYLINE
  8
PLAN_1
  6
CONTINUOUS
 66
     1
 40
0.005795
 41
0.005795
  0
VERTEX
  8
PLAN_1
  6
CONTINUOUS
 10
-1.174547
 20
0.585346
  0
VERTEX
  8
PLAN_1
  6
CONTINUOUS
 10
-0.879500
 20
0.585346
  0
SEQEND
  8
0
  0
POLYLINE
  8
PLAN_1
  6
CONTINUOUS
 66
     1
 40
0.005795
 41
0.005795
  0
VERTEX
  8
PLAN_1
  6
CONTINUOUS
 10
-0.895307
 20
1.204945
  0
VERTEX
  8
PLAN_1
  6
CONTINUOUS
 10
-0.891091
 20
1.209157
  0
VERTEX
  8
PLAN_1
  6
CONTINUOUS
 10
-0.887402
 20
1.213902
  0
VERTEX
  8
PLAN_1
  6
CONTINUOUS
 10
-0.884768
 20
1.218114
  0
VERTEX
  8
PLAN_1
  6
CONTINUOUS
 10
-0.883717
 20
1.221803
  0
VERTEX
  8
PLAN_1
  6
CONTINUOUS
 10
-0.882661
 20
1.226020
  0
VERTEX
  8
PLAN_1
  6
CONTINUOUS
 10
-0.883189
 20
1.229705
  0
VERTEX
  8
PLAN_1
  6
CONTINUOUS
 10
-0.883717
 20
1.233394
  0
VERTEX
  8
PLAN_1
  6
CONTINUOUS
 10
-0.884768
 20
1.236555
  0
VERTEX
  8
PLAN_1
  6
CONTINUOUS
 10
-0.887929
 20
1.242350
  0
VERTEX
  8
PLAN_1
  6
CONTINUOUS
 10
-0.891618
 20
1.246567
  0
VERTEX
  8
PLAN_1
  6
CONTINUOUS
 10
-0.894252
 20
1.249201
  0
VERTEX
  8
PLAN_1
  6
CONTINUOUS
 10
-0.895307
 20
1.250256
  0
SEQEND
  8
0
  0
POLYLINE
  8
PLAN_1
  6
CONTINUOUS
 66
     1
 40
0.005795
 41
0.005795
  0
VERTEX
  8
PLAN_1
  6
CONTINUOUS
 10
-0.895307
 20
1.250256
  0
VERTEX
  8
PLAN_1
  6
CONTINUOUS
 10
-1.174547
 20
1.250256
  0
SEQEND
  8
0
  0
POLYLINE
  8
PLAN_1
  6
CONTINUOUS
 66
     1
 40
0.005795
 41
0.005795
  0
VERTEX
  8
PLAN_1
  6
CONTINUOUS
 10
-1.174547
 20
1.250256
  0
VERTEX
  8
PLAN_1
  6
CONTINUOUS
 10
-1.175602
 20
1.249728
  0
VERTEX
  8
PLAN_1
  6
CONTINUOUS
 10
-1.178236
 20
1.247094
  0
VERTEX
  8
PLAN_1
  6
CONTINUOUS
 10
-1.181398
 20
1.242878
  0
VERTEX
  8
PLAN_1
  6
CONTINUOUS
 10
-1.184031
 20
1.237083
  0
VERTEX
  8
PLAN_1
  6
CONTINUOUS
 10
-1.185083
 20
1.233921
  0
VERTEX
  8
PLAN_1
  6
CONTINUOUS
 10
-1.185610
 20
1.230232
  0
VERTEX
  8
PLAN_1
  6
CONTINUOUS
 10
-1.186138
 20
1.226543
  0
VERTEX
  8
PLAN_1
  6
CONTINUOUS
 10
-1.185610
 20
1.222858
  0
VERTEX
  8
PLAN_1
  6
CONTINUOUS
 10
-1.184031
 20
1.218642
  0
VERTEX
  8
PLAN_1
  6
CONTINUOUS
 10
-1.181921
 20
1.214425
  0
VERTEX
  8
PLAN_1
  6
CONTINUOUS
 10
-1.178764
 20
1.209685
  0
VERTEX
  8
PLAN_1
  6
CONTINUOUS
 10
-1.174547
 20
1.204945
  0
SEQEND
  8
0
  0
POLYLINE
  8
PLAN_1
  6
CONTINUOUS
 66
     1
 40
0.005795
 41
0.005795
  0
VERTEX
  8
PLAN_1
  6
CONTINUOUS
 10
-1.174547
 20
1.204945
  0
VERTEX
  8
PLAN_1
  6
CONTINUOUS
 10
-0.895307
 20
1.204945
  0
SEQEND
  8
0
  0
POLYLINE
  8
PLAN_1
  6
CONTINUOUS
 66
     1
 40
0.005795
 41
0.005795
  0
VERTEX
  8
PLAN_1
  6
CONTINUOUS
 10
-0.895307
 20
1.160161
  0
VERTEX
  8
PLAN_1
  6
CONTINUOUS
 10
-0.890563
 20
1.164374
  0
VERTEX
  8
PLAN_1
  6
CONTINUOUS
 10
-0.886878
 20
1.168591
  0
VERTEX
  8
PLAN_1
  6
CONTINUOUS
 10
-0.884768
 20
1.172803
  0
VERTEX
  8
PLAN_1
  6
CONTINUOUS
 10
-0.883189
 20
1.177020
  0
VERTEX
  8
PLAN_1
  6
CONTINUOUS
 10
-0.882661
 20
1.180709
  0
VERTEX
  8
PLAN_1
  6
CONTINUOUS
 10
-0.882661
 20
1.184921
  0
VERTEX
  8
PLAN_1
  6
CONTINUOUS
 10
-0.883189
 20
1.188083
  0
VERTEX
  8
PLAN_1
  6
CONTINUOUS
 10
-0.884244
 20
1.191772
  0
VERTEX
  8
PLAN_1
  6
CONTINUOUS
 10
-0.887402
 20
1.197039
  0
VERTEX
  8
PLAN_1
  6
CONTINUOUS
 10
-0.891091
 20
1.201783
  0
VERTEX
  8
PLAN_1
  6
CONTINUOUS
 10
-0.893724
 20
1.204417
  0
VERTEX
  8
PLAN_1
  6
CONTINUOUS
 10
-0.895307
 20
1.205469
  0
SEQEND
  8
0
  0
POLYLINE
  8
PLAN_1
  6
CONTINUOUS
 66
     1
 40
0.005795
 41
0.005795
  0
VERTEX
  8
PLAN_1
  6
CONTINUOUS
 10
-0.895307
 20
1.205469
  0
VERTEX
  8
PLAN_1
  6
CONTINUOUS
 10
-1.174547
 20
1.205469
  0
SEQEND
  8
0
  0
POLYLINE
  8
PLAN_1
  6
CONTINUOUS
 66
     1
 40
0.005795
 41
0.005795
  0
VERTEX
  8
PLAN_1
  6
CONTINUOUS
 10
-1.174547
 20
1.205469
  0
VERTEX
  8
PLAN_1
  6
CONTINUOUS
 10
-1.175602
 20
1.204417
  0
VERTEX
  8
PLAN_1
  6
CONTINUOUS
 10
-1.177709
 20
1.201783
  0
VERTEX
  8
PLAN_1
  6
CONTINUOUS
 10
-1.180870
 20
1.197567
  0
VERTEX
  8
PLAN_1
  6
CONTINUOUS
 10
-1.184031
 20
1.192299
  0
VERTEX
  8
PLAN_1
  6
CONTINUOUS
 10
-1.185083
 20
1.189138
  0
VERTEX
  8
PLAN_1
  6
CONTINUOUS
 10
-1.185610
 20
1.185449
  0
VERTEX
  8
PLAN_1
  6
CONTINUOUS
 10
-1.185610
 20
1.181760
  0
VERTEX
  8
PLAN_1
  6
CONTINUOUS
 10
-1.185083
 20
1.177547
  0
VERTEX
  8
PLAN_1
  6
CONTINUOUS
 10
-1.183504
 20
1.173331
  0
VERTEX
  8
PLAN_1
  6
CONTINUOUS
 10
-1.181398
 20
1.169118
  0
VERTEX
  8
PLAN_1
  6
CONTINUOUS
 10
-1.178764
 20
1.164902
  0
VERTEX
  8
PLAN_1
  6
CONTINUOUS
 10
-1.174547
 20
1.160161
  0
SEQEND
  8
0
  0
POLYLINE
  8
PLAN_1
  6
CONTINUOUS
 66
     1
 40
0.005795
 41
0.005795
  0
VERTEX
  8
PLAN_1
  6
CONTINUOUS
 10
-1.174547
 20
1.160161
  0
VERTEX
  8
PLAN_1
  6
CONTINUOUS
 10
-0.895307
 20
1.160161
  0
SEQEND
  8
0
  0
POLYLINE
  8
PLAN_1
  6
CONTINUOUS
 66
     1
 40
0.005795
 41
0.005795
  0
VERTEX
  8
PLAN_1
  6
CONTINUOUS
 10
-0.895307
 20
1.114323
  0
VERTEX
  8
PLAN_1
  6
CONTINUOUS
 10
-0.890563
 20
1.118535
  0
VERTEX
  8
PLAN_1
  6
CONTINUOUS
 10
-0.886878
 20
1.123280
  0
VERTEX
  8
PLAN_1
  6
CONTINUOUS
 10
-0.884768
 20
1.127492
  0
VERTEX
  8
PLAN_1
  6
CONTINUOUS
 10
-0.883189
 20
1.131181
  0
VERTEX
  8
PLAN_1
  6
CONTINUOUS
 10
-0.882661
 20
1.135398
  0
VERTEX
  8
PLAN_1
  6
CONTINUOUS
 10
-0.882661
 20
1.139087
  0
VERTEX
  8
PLAN_1
  6
CONTINUOUS
 10
-0.883717
 20
1.142772
  0
VERTEX
  8
PLAN_1
  6
CONTINUOUS
 10
-0.884768
 20
1.145933
  0
VERTEX
  8
PLAN_1
  6
CONTINUOUS
 10
-0.887929
 20
1.151728
  0
VERTEX
  8
PLAN_1
  6
CONTINUOUS
 10
-0.891091
 20
1.155945
  0
VERTEX
  8
PLAN_1
  6
CONTINUOUS
 10
-0.894252
 20
1.158579
  0
VERTEX
  8
PLAN_1
  6
CONTINUOUS
 10
-0.895307
 20
1.159634
  0
SEQEND
  8
0
  0
POLYLINE
  8
PLAN_1
  6
CONTINUOUS
 66
     1
 40
0.005795
 41
0.005795
  0
VERTEX
  8
PLAN_1
  6
CONTINUOUS
 10
-0.895307
 20
1.159634
  0
VERTEX
  8
PLAN_1
  6
CONTINUOUS
 10
-1.174547
 20
1.159634
  0
SEQEND
  8
0
  0
POLYLINE
  8
PLAN_1
  6
CONTINUOUS
 66
     1
 40
0.005795
 41
0.005795
  0
VERTEX
  8
PLAN_1
  6
CONTINUOUS
 10
-1.174547
 20
1.159634
  0
VERTEX
  8
PLAN_1
  6
CONTINUOUS
 10
-1.175602
 20
1.159106
  0
VERTEX
  8
PLAN_1
  6
CONTINUOUS
 10
-1.178236
 20
1.156472
  0
VERTEX
  8
PLAN_1
  6
CONTINUOUS
 10
-1.181398
 20
1.152256
  0
VERTEX
  8
PLAN_1
  6
CONTINUOUS
 10
-1.184031
 20
1.146461
  0
VERTEX
  8
PLAN_1
  6
CONTINUOUS
 10
-1.185083
 20
1.143299
  0
VERTEX
  8
PLAN_1
  6
CONTINUOUS
 10
-1.185610
 20
1.139610
  0
VERTEX
  8
PLAN_1
  6
CONTINUOUS
 10
-1.185610
 20
1.135925
  0
VERTEX
  8
PLAN_1
  6
CONTINUOUS
 10
-1.185083
 20
1.132236
  0
VERTEX
  8
PLAN_1
  6
CONTINUOUS
 10
-1.184031
 20
1.128020
  0
VERTEX
  8
PLAN_1
  6
CONTINUOUS
 10
-1.181921
 20
1.123807
  0
VERTEX
  8
PLAN_1
  6
CONTINUOUS
 10
-1.178764
 20
1.119063
  0
VERTEX
  8
PLAN_1
  6
CONTINUOUS
 10
-1.174547
 20
1.114323
  0
SEQEND
  8
0
  0
POLYLINE
  8
PLAN_1
  6
CONTINUOUS
 66
     1
 40
0.005795
 41
0.005795
  0
VERTEX
  8
PLAN_1
  6
CONTINUOUS
 10
-1.174547
 20
1.114323
  0
VERTEX
  8
PLAN_1
  6
CONTINUOUS
 10
-0.895307
 20
1.114323
  0
SEQEND
  8
0
  0
POLYLINE
  8
PLAN_1
  6
CONTINUOUS
 66
     1
 40
0.005795
 41
0.005795
  0
VERTEX
  8
PLAN_1
  6
CONTINUOUS
 10
-0.894780
 20
1.069539
  0
VERTEX
  8
PLAN_1
  6
CONTINUOUS
 10
-0.890039
 20
1.073752
  0
VERTEX
  8
PLAN_1
  6
CONTINUOUS
 10
-0.886878
 20
1.077969
  0
VERTEX
  8
PLAN_1
  6
CONTINUOUS
 10
-0.884244
 20
1.082181
  0
VERTEX
  8
PLAN_1
  6
CONTINUOUS
 10
-0.882661
 20
1.086398
  0
VERTEX
  8
PLAN_1
  6
CONTINUOUS
 10
-0.882134
 20
1.090614
  0
VERTEX
  8
PLAN_1
  6
CONTINUOUS
 10
-0.882134
 20
1.094299
  0
VERTEX
  8
PLAN_1
  6
CONTINUOUS
 10
-0.883189
 20
1.097461
  0
VERTEX
  8
PLAN_1
  6
CONTINUOUS
 10
-0.884244
 20
1.101150
  0
VERTEX
  8
PLAN_1
  6
CONTINUOUS
 10
-0.887402
 20
1.106417
  0
VERTEX
  8
PLAN_1
  6
CONTINUOUS
 10
-0.891091
 20
1.111161
  0
VERTEX
  8
PLAN_1
  6
CONTINUOUS
 10
-0.893724
 20
1.113795
  0
VERTEX
  8
PLAN_1
  6
CONTINUOUS
 10
-0.894780
 20
1.114850
  0
SEQEND
  8
0
  0
POLYLINE
  8
PLAN_1
  6
CONTINUOUS
 66
     1
 40
0.005795
 41
0.005795
  0
VERTEX
  8
PLAN_1
  6
CONTINUOUS
 10
-0.894780
 20
1.114850
  0
VERTEX
  8
PLAN_1
  6
CONTINUOUS
 10
-1.174020
 20
1.114850
  0
SEQEND
  8
0
  0
POLYLINE
  8
PLAN_1
  6
CONTINUOUS
 66
     1
 40
0.005795
 41
0.005795
  0
VERTEX
  8
PLAN_1
  6
CONTINUOUS
 10
-1.174020
 20
1.114850
  0
VERTEX
  8
PLAN_1
  6
CONTINUOUS
 10
-1.175075
 20
1.113795
  0
VERTEX
  8
PLAN_1
  6
CONTINUOUS
 10
-1.177709
 20
1.111161
  0
VERTEX
  8
PLAN_1
  6
CONTINUOUS
 10
-1.180870
 20
1.106945
  0
VERTEX
  8
PLAN_1
  6
CONTINUOUS
 10
-1.183504
 20
1.101677
  0
VERTEX
  8
PLAN_1
  6
CONTINUOUS
 10
-1.184559
 20
1.098516
  0
VERTEX
  8
PLAN_1
  6
CONTINUOUS
 10
-1.185083
 20
1.094827
  0
VERTEX
  8
PLAN_1
  6
CONTINUOUS
 10
-1.185083
 20
1.091138
  0
VERTEX
  8
PLAN_1
  6
CONTINUOUS
 10
-1.184559
 20
1.086925
  0
VERTEX
  8
PLAN_1
  6
CONTINUOUS
 10
-1.183504
 20
1.082709
  0
VERTEX
  8
PLAN_1
  6
CONTINUOUS
 10
-1.181398
 20
1.078496
  0
VERTEX
  8
PLAN_1
  6
CONTINUOUS
 10
-1.178236
 20
1.074280
  0
VERTEX
  8
PLAN_1
  6
CONTINUOUS
 10
-1.174020
 20
1.069539
  0
SEQEND
  8
0
  0
POLYLINE
  8
PLAN_1
  6
CONTINUOUS
 66
     1
 40
0.005795
 41
0.005795
  0
VERTEX
  8
PLAN_1
  6
CONTINUOUS
 10
-1.174020
 20
1.069539
  0
VERTEX
  8
PLAN_1
  6
CONTINUOUS
 10
-0.894780
 20
1.069539
  0
SEQEND
  8
0
  0
POLYLINE
  8
PLAN_1
  6
CONTINUOUS
 66
     1
 40
0.005795
 41
0.005795
  0
VERTEX
  8
PLAN_1
  6
CONTINUOUS
 10
-0.895307
 20
1.024228
  0
VERTEX
  8
PLAN_1
  6
CONTINUOUS
 10
-0.890563
 20
1.028969
  0
VERTEX
  8
PLAN_1
  6
CONTINUOUS
 10
-0.886878
 20
1.033185
  0
VERTEX
  8
PLAN_1
  6
CONTINUOUS
 10
-0.884768
 20
1.037398
  0
VERTEX
  8
PLAN_1
  6
CONTINUOUS
 10
-0.883189
 20
1.041614
  0
VERTEX
  8
PLAN_1
  6
CONTINUOUS
 10
-0.882661
 20
1.045303
  0
VERTEX
  8
PLAN_1
  6
CONTINUOUS
 10
-0.882661
 20
1.048992
  0
VERTEX
  8
PLAN_1
  6
CONTINUOUS
 10
-0.883717
 20
1.052677
  0
VERTEX
  8
PLAN_1
  6
CONTINUOUS
 10
-0.884768
 20
1.055839
  0
VERTEX
  8
PLAN_1
  6
CONTINUOUS
 10
-0.887929
 20
1.061634
  0
VERTEX
  8
PLAN_1
  6
CONTINUOUS
 10
-0.891091
 20
1.065850
  0
VERTEX
  8
PLAN_1
  6
CONTINUOUS
 10
-0.894252
 20
1.069012
  0
VERTEX
  8
PLAN_1
  6
CONTINUOUS
 10
-0.895307
 20
1.070067
  0
SEQEND
  8
0
  0
POLYLINE
  8
PLAN_1
  6
CONTINUOUS
 66
     1
 40
0.005795
 41
0.005795
  0
VERTEX
  8
PLAN_1
  6
CONTINUOUS
 10
-0.895307
 20
1.070067
  0
VERTEX
  8
PLAN_1
  6
CONTINUOUS
 10
-1.174547
 20
1.070067
  0
SEQEND
  8
0
  0
POLYLINE
  8
PLAN_1
  6
CONTINUOUS
 66
     1
 40
0.005795
 41
0.005795
  0
VERTEX
  8
PLAN_1
  6
CONTINUOUS
 10
-1.174547
 20
1.070067
  0
VERTEX
  8
PLAN_1
  6
CONTINUOUS
 10
-1.175602
 20
1.069012
  0
VERTEX
  8
PLAN_1
  6
CONTINUOUS
 10
-1.178236
 20
1.066378
  0
VERTEX
  8
PLAN_1
  6
CONTINUOUS
 10
-1.181398
 20
1.062161
  0
VERTEX
  8
PLAN_1
  6
CONTINUOUS
 10
-1.184031
 20
1.056366
  0
VERTEX
  8
PLAN_1
  6
CONTINUOUS
 10
-1.185083
 20
1.053205
  0
VERTEX
  8
PLAN_1
  6
CONTINUOUS
 10
-1.185610
 20
1.050043
  0
VERTEX
  8
PLAN_1
  6
CONTINUOUS
 10
-1.185610
 20
1.046354
  0
VERTEX
  8
PLAN_1
  6
CONTINUOUS
 10
-1.185083
 20
1.042142
  0
VERTEX
  8
PLAN_1
  6
CONTINUOUS
 10
-1.184031
 20
1.037925
  0
VERTEX
  8
PLAN_1
  6
CONTINUOUS
 10
-1.181921
 20
1.033713
  0
VERTEX
  8
PLAN_1
  6
CONTINUOUS
 10
-1.178764
 20
1.028969
  0
VERTEX
  8
PLAN_1
  6
CONTINUOUS
 10
-1.174547
 20
1.024228
  0
SEQEND
  8
0
  0
POLYLINE
  8
PLAN_1
  6
CONTINUOUS
 66
     1
 40
0.005795
 41
0.005795
  0
VERTEX
  8
PLAN_1
  6
CONTINUOUS
 10
-1.174547
 20
1.024228
  0
VERTEX
  8
PLAN_1
  6
CONTINUOUS
 10
-0.895307
 20
1.024228
  0
SEQEND
  8
0
  0
POLYLINE
  8
PLAN_1
  6
CONTINUOUS
 66
     1
 40
0.005795
 41
0.005795
  0
VERTEX
  8
PLAN_1
  6
CONTINUOUS
 10
-0.894780
 20
0.979445
  0
VERTEX
  8
PLAN_1
  6
CONTINUOUS
 10
-0.890039
 20
0.983657
  0
VERTEX
  8
PLAN_1
  6
CONTINUOUS
 10
-0.886878
 20
0.987874
  0
VERTEX
  8
PLAN_1
  6
CONTINUOUS
 10
-0.884244
 20
0.992087
  0
VERTEX
  8
PLAN_1
  6
CONTINUOUS
 10
-0.882661
 20
0.996303
  0
VERTEX
  8
PLAN_1
  6
CONTINUOUS
 10
-0.882134
 20
1.000520
  0
VERTEX
  8
PLAN_1
  6
CONTINUOUS
 10
-0.882134
 20
1.004205
  0
VERTEX
  8
PLAN_1
  6
CONTINUOUS
 10
-0.883189
 20
1.007894
  0
VERTEX
  8
PLAN_1
  6
CONTINUOUS
 10
-0.884244
 20
1.011055
  0
VERTEX
  8
PLAN_1
  6
CONTINUOUS
 10
-0.887402
 20
1.016850
  0
VERTEX
  8
PLAN_1
  6
CONTINUOUS
 10
-0.891091
 20
1.021067
  0
VERTEX
  8
PLAN_1
  6
CONTINUOUS
 10
-0.893724
 20
1.023701
  0
VERTEX
  8
PLAN_1
  6
CONTINUOUS
 10
-0.894780
 20
1.024756
  0
SEQEND
  8
0
  0
POLYLINE
  8
PLAN_1
  6
CONTINUOUS
 66
     1
 40
0.005795
 41
0.005795
  0
VERTEX
  8
PLAN_1
  6
CONTINUOUS
 10
-0.894780
 20
1.024756
  0
VERTEX
  8
PLAN_1
  6
CONTINUOUS
 10
-1.174020
 20
1.024756
  0
SEQEND
  8
0
  0
POLYLINE
  8
PLAN_1
  6
CONTINUOUS
 66
     1
 40
0.005795
 41
0.005795
  0
VERTEX
  8
PLAN_1
  6
CONTINUOUS
 10
-1.174020
 20
1.024756
  0
VERTEX
  8
PLAN_1
  6
CONTINUOUS
 10
-1.175075
 20
1.023701
  0
VERTEX
  8
PLAN_1
  6
CONTINUOUS
 10
-1.177709
 20
1.021067
  0
VERTEX
  8
PLAN_1
  6
CONTINUOUS
 10
-1.180870
 20
1.016850
  0
VERTEX
  8
PLAN_1
  6
CONTINUOUS
 10
-1.183504
 20
1.011583
  0
VERTEX
  8
PLAN_1
  6
CONTINUOUS
 10
-1.184559
 20
1.008421
  0
VERTEX
  8
PLAN_1
  6
CONTINUOUS
 10
-1.185083
 20
1.004732
  0
VERTEX
  8
PLAN_1
  6
CONTINUOUS
 10
-1.185083
 20
1.001043
  0
VERTEX
  8
PLAN_1
  6
CONTINUOUS
 10
-1.184559
 20
0.997358
  0
VERTEX
  8
PLAN_1
  6
CONTINUOUS
 10
-1.183504
 20
0.993142
  0
VERTEX
  8
PLAN_1
  6
CONTINUOUS
 10
-1.181398
 20
0.988402
  0
VERTEX
  8
PLAN_1
  6
CONTINUOUS
 10
-1.178236
 20
0.984185
  0
VERTEX
  8
PLAN_1
  6
CONTINUOUS
 10
-1.174020
 20
0.979445
  0
SEQEND
  8
0
  0
POLYLINE
  8
PLAN_1
  6
CONTINUOUS
 66
     1
 40
0.005795
 41
0.005795
  0
VERTEX
  8
PLAN_1
  6
CONTINUOUS
 10
-1.174020
 20
0.979445
  0
VERTEX
  8
PLAN_1
  6
CONTINUOUS
 10
-0.894780
 20
0.979445
  0
SEQEND
  8
0
  0
POLYLINE
  8
PLAN_1
  6
CONTINUOUS
 66
     1
 40
0.005795
 41
0.005795
  0
VERTEX
  8
PLAN_1
  6
CONTINUOUS
 10
-0.895307
 20
0.934661
  0
VERTEX
  8
PLAN_1
  6
CONTINUOUS
 10
-0.890563
 20
0.938874
  0
VERTEX
  8
PLAN_1
  6
CONTINUOUS
 10
-0.886878
 20
0.943091
  0
VERTEX
  8
PLAN_1
  6
CONTINUOUS
 10
-0.884768
 20
0.947303
  0
VERTEX
  8
PLAN_1
  6
CONTINUOUS
 10
-0.883189
 20
0.951520
  0
VERTEX
  8
PLAN_1
  6
CONTINUOUS
 10
-0.882661
 20
0.955209
  0
VERTEX
  8
PLAN_1
  6
CONTINUOUS
 10
-0.882661
 20
0.958894
  0
VERTEX
  8
PLAN_1
  6
CONTINUOUS
 10
-0.883717
 20
0.962583
  0
VERTEX
  8
PLAN_1
  6
CONTINUOUS
 10
-0.884768
 20
0.965744
  0
VERTEX
  8
PLAN_1
  6
CONTINUOUS
 10
-0.887929
 20
0.971539
  0
VERTEX
  8
PLAN_1
  6
CONTINUOUS
 10
-0.891091
 20
0.976283
  0
VERTEX
  8
PLAN_1
  6
CONTINUOUS
 10
-0.894252
 20
0.978917
  0
VERTEX
  8
PLAN_1
  6
CONTINUOUS
 10
-0.895307
 20
0.979969
  0
SEQEND
  8
0
  0
POLYLINE
  8
PLAN_1
  6
CONTINUOUS
 66
     1
 40
0.005795
 41
0.005795
  0
VERTEX
  8
PLAN_1
  6
CONTINUOUS
 10
-0.895307
 20
0.979969
  0
VERTEX
  8
PLAN_1
  6
CONTINUOUS
 10
-1.174547
 20
0.979969
  0
SEQEND
  8
0
  0
POLYLINE
  8
PLAN_1
  6
CONTINUOUS
 66
     1
 40
0.005795
 41
0.005795
  0
VERTEX
  8
PLAN_1
  6
CONTINUOUS
 10
-1.174547
 20
0.979969
  0
VERTEX
  8
PLAN_1
  6
CONTINUOUS
 10
-1.175602
 20
0.978917
  0
VERTEX
  8
PLAN_1
  6
CONTINUOUS
 10
-1.178236
 20
0.976283
  0
VERTEX
  8
PLAN_1
  6
CONTINUOUS
 10
-1.181398
 20
0.972067
  0
VERTEX
  8
PLAN_1
  6
CONTINUOUS
 10
-1.184031
 20
0.966799
  0
VERTEX
  8
PLAN_1
  6
CONTINUOUS
 10
-1.185083
 20
0.963110
  0
VERTEX
  8
PLAN_1
  6
CONTINUOUS
 10
-1.185610
 20
0.959949
  0
VERTEX
  8
PLAN_1
  6
CONTINUOUS
 10
-1.185610
 20
0.956260
  0
VERTEX
  8
PLAN_1
  6
CONTINUOUS
 10
-1.185083
 20
0.952047
  0
VERTEX
  8
PLAN_1
  6
CONTINUOUS
 10
-1.184031
 20
0.947831
  0
VERTEX
  8
PLAN_1
  6
CONTINUOUS
 10
-1.181921
 20
0.943618
  0
VERTEX
  8
PLAN_1
  6
CONTINUOUS
 10
-1.178764
 20
0.938874
  0
VERTEX
  8
PLAN_1
  6
CONTINUOUS
 10
-1.174547
 20
0.934661
  0
SEQEND
  8
0
  0
POLYLINE
  8
PLAN_1
  6
CONTINUOUS
 66
     1
 40
0.005795
 41
0.005795
  0
VERTEX
  8
PLAN_1
  6
CONTINUOUS
 10
-1.174547
 20
0.934661
  0
VERTEX
  8
PLAN_1
  6
CONTINUOUS
 10
-0.895307
 20
0.934661
  0
SEQEND
  8
0
  0
POLYLINE
  8
PLAN_1
  6
CONTINUOUS
 66
     1
 40
0.005795
 41
0.005795
  0
VERTEX
  8
PLAN_1
  6
CONTINUOUS
 10
-0.894780
 20
0.889350
  0
VERTEX
  8
PLAN_1
  6
CONTINUOUS
 10
-0.890039
 20
0.893563
  0
VERTEX
  8
PLAN_1
  6
CONTINUOUS
 10
-0.886878
 20
0.898307
  0
VERTEX
  8
PLAN_1
  6
CONTINUOUS
 10
-0.884244
 20
0.902520
  0
VERTEX
  8
PLAN_1
  6
CONTINUOUS
 10
-0.882661
 20
0.906209
  0
VERTEX
  8
PLAN_1
  6
CONTINUOUS
 10
-0.882134
 20
0.910425
  0
VERTEX
  8
PLAN_1
  6
CONTINUOUS
 10
-0.882134
 20
0.914110
  0
VERTEX
  8
PLAN_1
  6
CONTINUOUS
 10
-0.883189
 20
0.917799
  0
VERTEX
  8
PLAN_1
  6
CONTINUOUS
 10
-0.884244
 20
0.920961
  0
VERTEX
  8
PLAN_1
  6
CONTINUOUS
 10
-0.887402
 20
0.926756
  0
VERTEX
  8
PLAN_1
  6
CONTINUOUS
 10
-0.891091
 20
0.930972
  0
VERTEX
  8
PLAN_1
  6
CONTINUOUS
 10
-0.893724
 20
0.933606
  0
VERTEX
  8
PLAN_1
  6
CONTINUOUS
 10
-0.894780
 20
0.934661
  0
SEQEND
  8
0
  0
POLYLINE
  8
PLAN_1
  6
CONTINUOUS
 66
     1
 40
0.005795
 41
0.005795
  0
VERTEX
  8
PLAN_1
  6
CONTINUOUS
 10
-0.894780
 20
0.934661
  0
VERTEX
  8
PLAN_1
  6
CONTINUOUS
 10
-1.174020
 20
0.934661
  0
SEQEND
  8
0
  0
POLYLINE
  8
PLAN_1
  6
CONTINUOUS
 66
     1
 40
0.005795
 41
0.005795
  0
VERTEX
  8
PLAN_1
  6
CONTINUOUS
 10
-1.174020
 20
0.934661
  0
VERTEX
  8
PLAN_1
  6
CONTINUOUS
 10
-1.175075
 20
0.934134
  0
VERTEX
  8
PLAN_1
  6
CONTINUOUS
 10
-1.177709
 20
0.931500
  0
VERTEX
  8
PLAN_1
  6
CONTINUOUS
 10
-1.180870
 20
0.927283
  0
VERTEX
  8
PLAN_1
  6
CONTINUOUS
 10
-1.183504
 20
0.921488
  0
VERTEX
  8
PLAN_1
  6
CONTINUOUS
 10
-1.184559
 20
0.918327
  0
VERTEX
  8
PLAN_1
  6
CONTINUOUS
 10
-1.185083
 20
0.914638
  0
VERTEX
  8
PLAN_1
  6
CONTINUOUS
 10
-1.185083
 20
0.910949
  0
VERTEX
  8
PLAN_1
  6
CONTINUOUS
 10
-1.184559
 20
0.907264
  0
VERTEX
  8
PLAN_1
  6
CONTINUOUS
 10
-1.183504
 20
0.903047
  0
VERTEX
  8
PLAN_1
  6
CONTINUOUS
 10
-1.181398
 20
0.898831
  0
VERTEX
  8
PLAN_1
  6
CONTINUOUS
 10
-1.178236
 20
0.894091
  0
VERTEX
  8
PLAN_1
  6
CONTINUOUS
 10
-1.174020
 20
0.889350
  0
SEQEND
  8
0
  0
POLYLINE
  8
PLAN_1
  6
CONTINUOUS
 66
     1
 40
0.005795
 41
0.005795
  0
VERTEX
  8
PLAN_1
  6
CONTINUOUS
 10
-1.174020
 20
0.889350
  0
VERTEX
  8
PLAN_1
  6
CONTINUOUS
 10
-0.894780
 20
0.889350
  0
SEQEND
  8
0
  0
POLYLINE
  8
PLAN_1
  6
CONTINUOUS
 66
     1
 40
0.005795
 41
0.005795
  0
VERTEX
  8
PLAN_1
  6
CONTINUOUS
 10
-0.895307
 20
0.844567
  0
VERTEX
  8
PLAN_1
  6
CONTINUOUS
 10
-0.890563
 20
0.848780
  0
VERTEX
  8
PLAN_1
  6
CONTINUOUS
 10
-0.886878
 20
0.852996
  0
VERTEX
  8
PLAN_1
  6
CONTINUOUS
 10
-0.884768
 20
0.857209
  0
VERTEX
  8
PLAN_1
  6
CONTINUOUS
 10
-0.883189
 20
0.861425
  0
VERTEX
  8
PLAN_1
  6
CONTINUOUS
 10
-0.882661
 20
0.865642
  0
VERTEX
  8
PLAN_1
  6
CONTINUOUS
 10
-0.882661
 20
0.869327
  0
VERTEX
  8
PLAN_1
  6
CONTINUOUS
 10
-0.883717
 20
0.872488
  0
VERTEX
  8
PLAN_1
  6
CONTINUOUS
 10
-0.884768
 20
0.876177
  0
VERTEX
  8
PLAN_1
  6
CONTINUOUS
 10
-0.887929
 20
0.881445
  0
VERTEX
  8
PLAN_1
  6
CONTINUOUS
 10
-0.891091
 20
0.886189
  0
VERTEX
  8
PLAN_1
  6
CONTINUOUS
 10
-0.894252
 20
0.888823
  0
VERTEX
  8
PLAN_1
  6
CONTINUOUS
 10
-0.895307
 20
0.889874
  0
SEQEND
  8
0
  0
POLYLINE
  8
PLAN_1
  6
CONTINUOUS
 66
     1
 40
0.005795
 41
0.005795
  0
VERTEX
  8
PLAN_1
  6
CONTINUOUS
 10
-0.895307
 20
0.889874
  0
VERTEX
  8
PLAN_1
  6
CONTINUOUS
 10
-1.174547
 20
0.889874
  0
SEQEND
  8
0
  0
POLYLINE
  8
PLAN_1
  6
CONTINUOUS
 66
     1
 40
0.005795
 41
0.005795
  0
VERTEX
  8
PLAN_1
  6
CONTINUOUS
 10
-1.174547
 20
0.889874
  0
VERTEX
  8
PLAN_1
  6
CONTINUOUS
 10
-1.175602
 20
0.888823
  0
VERTEX
  8
PLAN_1
  6
CONTINUOUS
 10
-1.178236
 20
0.886189
  0
VERTEX
  8
PLAN_1
  6
CONTINUOUS
 10
-1.181398
 20
0.881972
  0
VERTEX
  8
PLAN_1
  6
CONTINUOUS
 10
-1.184031
 20
0.876705
  0
VERTEX
  8
PLAN_1
  6
CONTINUOUS
 10
-1.185083
 20
0.873543
  0
VERTEX
  8
PLAN_1
  6
CONTINUOUS
 10
-1.185610
 20
0.869854
  0
VERTEX
  8
PLAN_1
  6
CONTINUOUS
 10
-1.185610
 20
0.866165
  0
VERTEX
  8
PLAN_1
  6
CONTINUOUS
 10
-1.185083
 20
0.861953
  0
VERTEX
  8
PLAN_1
  6
CONTINUOUS
 10
-1.184031
 20
0.857736
  0
VERTEX
  8
PLAN_1
  6
CONTINUOUS
 10
-1.181921
 20
0.853524
  0
VERTEX
  8
PLAN_1
  6
CONTINUOUS
 10
-1.178764
 20
0.849307
  0
VERTEX
  8
PLAN_1
  6
CONTINUOUS
 10
-1.174547
 20
0.844567
  0
SEQEND
  8
0
  0
POLYLINE
  8
PLAN_1
  6
CONTINUOUS
 66
     1
 40
0.005795
 41
0.005795
  0
VERTEX
  8
PLAN_1
  6
CONTINUOUS
 10
-1.174547
 20
0.844567
  0
VERTEX
  8
PLAN_1
  6
CONTINUOUS
 10
-0.895307
 20
0.844567
  0
SEQEND
  8
0
  0
POLYLINE
  8
PLAN_1
  6
CONTINUOUS
 66
     1
 40
0.005795
 41
0.005795
  0
VERTEX
  8
PLAN_1
  6
CONTINUOUS
 10
-0.894780
 20
0.799256
  0
VERTEX
  8
PLAN_1
  6
CONTINUOUS
 10
-0.890039
 20
0.803996
  0
VERTEX
  8
PLAN_1
  6
CONTINUOUS
 10
-0.886878
 20
0.808213
  0
VERTEX
  8
PLAN_1
  6
CONTINUOUS
 10
-0.884244
 20
0.812425
  0
VERTEX
  8
PLAN_1
  6
CONTINUOUS
 10
-0.882661
 20
0.816642
  0
VERTEX
  8
PLAN_1
  6
CONTINUOUS
 10
-0.882134
 20
0.820331
  0
VERTEX
  8
PLAN_1
  6
CONTINUOUS
 10
-0.882134
 20
0.824016
  0
VERTEX
  8
PLAN_1
  6
CONTINUOUS
 10
-0.883189
 20
0.827705
  0
VERTEX
  8
PLAN_1
  6
CONTINUOUS
 10
-0.884244
 20
0.830866
  0
VERTEX
  8
PLAN_1
  6
CONTINUOUS
 10
-0.887402
 20
0.836661
  0
VERTEX
  8
PLAN_1
  6
CONTINUOUS
 10
-0.891091
 20
0.840878
  0
VERTEX
  8
PLAN_1
  6
CONTINUOUS
 10
-0.893724
 20
0.844039
  0
VERTEX
  8
PLAN_1
  6
CONTINUOUS
 10
-0.894780
 20
0.845091
  0
SEQEND
  8
0
  0
POLYLINE
  8
PLAN_1
  6
CONTINUOUS
 66
     1
 40
0.005795
 41
0.005795
  0
VERTEX
  8
PLAN_1
  6
CONTINUOUS
 10
-0.894780
 20
0.845091
  0
VERTEX
  8
PLAN_1
  6
CONTINUOUS
 10
-1.174020
 20
0.845091
  0
SEQEND
  8
0
  0
POLYLINE
  8
PLAN_1
  6
CONTINUOUS
 66
     1
 40
0.005795
 41
0.005795
  0
VERTEX
  8
PLAN_1
  6
CONTINUOUS
 10
-1.174020
 20
0.845091
  0
VERTEX
  8
PLAN_1
  6
CONTINUOUS
 10
-1.175075
 20
0.844039
  0
VERTEX
  8
PLAN_1
  6
CONTINUOUS
 10
-1.177709
 20
0.841406
  0
VERTEX
  8
PLAN_1
  6
CONTINUOUS
 10
-1.180870
 20
0.837189
  0
VERTEX
  8
PLAN_1
  6
CONTINUOUS
 10
-1.183504
 20
0.831394
  0
VERTEX
  8
PLAN_1
  6
CONTINUOUS
 10
-1.184559
 20
0.828232
  0
VERTEX
  8
PLAN_1
  6
CONTINUOUS
 10
-1.185083
 20
0.825071
  0
VERTEX
  8
PLAN_1
  6
CONTINUOUS
 10
-1.185083
 20
0.821382
  0
VERTEX
  8
PLAN_1
  6
CONTINUOUS
 10
-1.184559
 20
0.817169
  0
VERTEX
  8
PLAN_1
  6
CONTINUOUS
 10
-1.183504
 20
0.812953
  0
VERTEX
  8
PLAN_1
  6
CONTINUOUS
 10
-1.181398
 20
0.808736
  0
VERTEX
  8
PLAN_1
  6
CONTINUOUS
 10
-1.178236
 20
0.803996
  0
VERTEX
  8
PLAN_1
  6
CONTINUOUS
 10
-1.174020
 20
0.799256
  0
SEQEND
  8
0
  0
POLYLINE
  8
PLAN_1
  6
CONTINUOUS
 66
     1
 40
0.005795
 41
0.005795
  0
VERTEX
  8
PLAN_1
  6
CONTINUOUS
 10
-1.174020
 20
0.799256
  0
VERTEX
  8
PLAN_1
  6
CONTINUOUS
 10
-0.894780
 20
0.799256
  0
SEQEND
  8
0
  0
POLYLINE
  8
PLAN_1
  6
CONTINUOUS
 66
     1
 40
0.005795
 41
0.005795
  0
VERTEX
  8
PLAN_1
  6
CONTINUOUS
 10
-0.895307
 20
0.754469
  0
VERTEX
  8
PLAN_1
  6
CONTINUOUS
 10
-0.890563
 20
0.758685
  0
VERTEX
  8
PLAN_1
  6
CONTINUOUS
 10
-0.886878
 20
0.762902
  0
VERTEX
  8
PLAN_1
  6
CONTINUOUS
 10
-0.884768
 20
0.767114
  0
VERTEX
  8
PLAN_1
  6
CONTINUOUS
 10
-0.883189
 20
0.771331
  0
VERTEX
  8
PLAN_1
  6
CONTINUOUS
 10
-0.882661
 20
0.775543
  0
VERTEX
  8
PLAN_1
  6
CONTINUOUS
 10
-0.882661
 20
0.779232
  0
VERTEX
  8
PLAN_1
  6
CONTINUOUS
 10
-0.883717
 20
0.782921
  0
VERTEX
  8
PLAN_1
  6
CONTINUOUS
 10
-0.884768
 20
0.786083
  0
VERTEX
  8
PLAN_1
  6
CONTINUOUS
 10
-0.887929
 20
0.791878
  0
VERTEX
  8
PLAN_1
  6
CONTINUOUS
 10
-0.891091
 20
0.796094
  0
VERTEX
  8
PLAN_1
  6
CONTINUOUS
 10
-0.894252
 20
0.798728
  0
VERTEX
  8
PLAN_1
  6
CONTINUOUS
 10
-0.895307
 20
0.799780
  0
SEQEND
  8
0
  0
POLYLINE
  8
PLAN_1
  6
CONTINUOUS
 66
     1
 40
0.005795
 41
0.005795
  0
VERTEX
  8
PLAN_1
  6
CONTINUOUS
 10
-0.895307
 20
0.799780
  0
VERTEX
  8
PLAN_1
  6
CONTINUOUS
 10
-1.174547
 20
0.799780
  0
SEQEND
  8
0
  0
POLYLINE
  8
PLAN_1
  6
CONTINUOUS
 66
     1
 40
0.005795
 41
0.005795
  0
VERTEX
  8
PLAN_1
  6
CONTINUOUS
 10
-1.174547
 20
0.799780
  0
VERTEX
  8
PLAN_1
  6
CONTINUOUS
 10
-1.175602
 20
0.798728
  0
VERTEX
  8
PLAN_1
  6
CONTINUOUS
 10
-1.178236
 20
0.796094
  0
VERTEX
  8
PLAN_1
  6
CONTINUOUS
 10
-1.181398
 20
0.791878
  0
VERTEX
  8
PLAN_1
  6
CONTINUOUS
 10
-1.184031
 20
0.786610
  0
VERTEX
  8
PLAN_1
  6
CONTINUOUS
 10
-1.185083
 20
0.783449
  0
VERTEX
  8
PLAN_1
  6
CONTINUOUS
 10
-1.185610
 20
0.779760
  0
VERTEX
  8
PLAN_1
  6
CONTINUOUS
 10
-1.185610
 20
0.776071
  0
VERTEX
  8
PLAN_1
  6
CONTINUOUS
 10
-1.185083
 20
0.772386
  0
VERTEX
  8
PLAN_1
  6
CONTINUOUS
 10
-1.184031
 20
0.768169
  0
VERTEX
  8
PLAN_1
  6
CONTINUOUS
 10
-1.181921
 20
0.763429
  0
VERTEX
  8
PLAN_1
  6
CONTINUOUS
 10
-1.178764
 20
0.759213
  0
VERTEX
  8
PLAN_1
  6
CONTINUOUS
 10
-1.174547
 20
0.754469
  0
SEQEND
  8
0
  0
POLYLINE
  8
PLAN_1
  6
CONTINUOUS
 66
     1
 40
0.005795
 41
0.005795
  0
VERTEX
  8
PLAN_1
  6
CONTINUOUS
 10
-1.174547
 20
0.754469
  0
VERTEX
  8
PLAN_1
  6
CONTINUOUS
 10
-0.895307
 20
0.754469
  0
SEQEND
  8
0
  0
POLYLINE
  8
PLAN_1
  6
CONTINUOUS
 66
     1
 40
0.005795
 41
0.005795
  0
VERTEX
  8
PLAN_1
  6
CONTINUOUS
 10
-0.894780
 20
0.709685
  0
VERTEX
  8
PLAN_1
  6
CONTINUOUS
 10
-0.890039
 20
0.713902
  0
VERTEX
  8
PLAN_1
  6
CONTINUOUS
 10
-0.886878
 20
0.718118
  0
VERTEX
  8
PLAN_1
  6
CONTINUOUS
 10
-0.884244
 20
0.722331
  0
VERTEX
  8
PLAN_1
  6
CONTINUOUS
 10
-0.882661
 20
0.726547
  0
VERTEX
  8
PLAN_1
  6
CONTINUOUS
 10
-0.882134
 20
0.730236
  0
VERTEX
  8
PLAN_1
  6
CONTINUOUS
 10
-0.882134
 20
0.733921
  0
VERTEX
  8
PLAN_1
  6
CONTINUOUS
 10
-0.883189
 20
0.737610
  0
VERTEX
  8
PLAN_1
  6
CONTINUOUS
 10
-0.884244
 20
0.740772
  0
VERTEX
  8
PLAN_1
  6
CONTINUOUS
 10
-0.887402
 20
0.746567
  0
VERTEX
  8
PLAN_1
  6
CONTINUOUS
 10
-0.891091
 20
0.751311
  0
VERTEX
  8
PLAN_1
  6
CONTINUOUS
 10
-0.893724
 20
0.753945
  0
VERTEX
  8
PLAN_1
  6
CONTINUOUS
 10
-0.894780
 20
0.754996
  0
SEQEND
  8
0
  0
POLYLINE
  8
PLAN_1
  6
CONTINUOUS
 66
     1
 40
0.005795
 41
0.005795
  0
VERTEX
  8
PLAN_1
  6
CONTINUOUS
 10
-0.894780
 20
0.754996
  0
VERTEX
  8
PLAN_1
  6
CONTINUOUS
 10
-1.174020
 20
0.754996
  0
SEQEND
  8
0
  0
POLYLINE
  8
PLAN_1
  6
CONTINUOUS
 66
     1
 40
0.005795
 41
0.005795
  0
VERTEX
  8
PLAN_1
  6
CONTINUOUS
 10
-1.174020
 20
0.754996
  0
VERTEX
  8
PLAN_1
  6
CONTINUOUS
 10
-1.175075
 20
0.753945
  0
VERTEX
  8
PLAN_1
  6
CONTINUOUS
 10
-1.177709
 20
0.751311
  0
VERTEX
  8
PLAN_1
  6
CONTINUOUS
 10
-1.180870
 20
0.747094
  0
VERTEX
  8
PLAN_1
  6
CONTINUOUS
 10
-1.183504
 20
0.741827
  0
VERTEX
  8
PLAN_1
  6
CONTINUOUS
 10
-1.184559
 20
0.738138
  0
VERTEX
  8
PLAN_1
  6
CONTINUOUS
 10
-1.185083
 20
0.734976
  0
VERTEX
  8
PLAN_1
  6
CONTINUOUS
 10
-1.185083
 20
0.731287
  0
VERTEX
  8
PLAN_1
  6
CONTINUOUS
 10
-1.184559
 20
0.727075
  0
VERTEX
  8
PLAN_1
  6
CONTINUOUS
 10
-1.183504
 20
0.722858
  0
VERTEX
  8
PLAN_1
  6
CONTINUOUS
 10
-1.181398
 20
0.718642
  0
VERTEX
  8
PLAN_1
  6
CONTINUOUS
 10
-1.178236
 20
0.713902
  0
VERTEX
  8
PLAN_1
  6
CONTINUOUS
 10
-1.174020
 20
0.709685
  0
SEQEND
  8
0
  0
POLYLINE
  8
PLAN_1
  6
CONTINUOUS
 66
     1
 40
0.005795
 41
0.005795
  0
VERTEX
  8
PLAN_1
  6
CONTINUOUS
 10
-1.174020
 20
0.709685
  0
VERTEX
  8
PLAN_1
  6
CONTINUOUS
 10
-0.894780
 20
0.709685
  0
SEQEND
  8
0
  0
POLYLINE
  8
PLAN_1
  6
CONTINUOUS
 66
     1
 40
0.005795
 41
0.005795
  0
VERTEX
  8
PLAN_1
  6
CONTINUOUS
 10
-0.895307
 20
0.664374
  0
VERTEX
  8
PLAN_1
  6
CONTINUOUS
 10
-0.890563
 20
0.668591
  0
VERTEX
  8
PLAN_1
  6
CONTINUOUS
 10
-0.886878
 20
0.673331
  0
VERTEX
  8
PLAN_1
  6
CONTINUOUS
 10
-0.884768
 20
0.677547
  0
VERTEX
  8
PLAN_1
  6
CONTINUOUS
 10
-0.883189
 20
0.681236
  0
VERTEX
  8
PLAN_1
  6
CONTINUOUS
 10
-0.882661
 20
0.685449
  0
VERTEX
  8
PLAN_1
  6
CONTINUOUS
 10
-0.882661
 20
0.689138
  0
VERTEX
  8
PLAN_1
  6
CONTINUOUS
 10
-0.883717
 20
0.692827
  0
VERTEX
  8
PLAN_1
  6
CONTINUOUS
 10
-0.884768
 20
0.695988
  0
VERTEX
  8
PLAN_1
  6
CONTINUOUS
 10
-0.887929
 20
0.701783
  0
VERTEX
  8
PLAN_1
  6
CONTINUOUS
 10
-0.891091
 20
0.706000
  0
VERTEX
  8
PLAN_1
  6
CONTINUOUS
 10
-0.894252
 20
0.708634
  0
VERTEX
  8
PLAN_1
  6
CONTINUOUS
 10
-0.895307
 20
0.709685
  0
SEQEND
  8
0
  0
POLYLINE
  8
PLAN_1
  6
CONTINUOUS
 66
     1
 40
0.005795
 41
0.005795
  0
VERTEX
  8
PLAN_1
  6
CONTINUOUS
 10
-0.895307
 20
0.709685
  0
VERTEX
  8
PLAN_1
  6
CONTINUOUS
 10
-1.174547
 20
0.709685
  0
SEQEND
  8
0
  0
POLYLINE
  8
PLAN_1
  6
CONTINUOUS
 66
     1
 40
0.005795
 41
0.005795
  0
VERTEX
  8
PLAN_1
  6
CONTINUOUS
 10
-1.174547
 20
0.709685
  0
VERTEX
  8
PLAN_1
  6
CONTINUOUS
 10
-1.175602
 20
0.709161
  0
VERTEX
  8
PLAN_1
  6
CONTINUOUS
 10
-1.178236
 20
0.706524
  0
VERTEX
  8
PLAN_1
  6
CONTINUOUS
 10
-1.181398
 20
0.702311
  0
VERTEX
  8
PLAN_1
  6
CONTINUOUS
 10
-1.184031
 20
0.696516
  0
VERTEX
  8
PLAN_1
  6
CONTINUOUS
 10
-1.185083
 20
0.693354
  0
VERTEX
  8
PLAN_1
  6
CONTINUOUS
 10
-1.185610
 20
0.689665
  0
VERTEX
  8
PLAN_1
  6
CONTINUOUS
 10
-1.185610
 20
0.685976
  0
VERTEX
  8
PLAN_1
  6
CONTINUOUS
 10
-1.185083
 20
0.682291
  0
VERTEX
  8
PLAN_1
  6
CONTINUOUS
 10
-1.184031
 20
0.678075
  0
VERTEX
  8
PLAN_1
  6
CONTINUOUS
 10
-1.181921
 20
0.673858
  0
VERTEX
  8
PLAN_1
  6
CONTINUOUS
 10
-1.178764
 20
0.669118
  0
VERTEX
  8
PLAN_1
  6
CONTINUOUS
 10
-1.174547
 20
0.664374
  0
SEQEND
  8
0
  0
POLYLINE
  8
PLAN_1
  6
CONTINUOUS
 66
     1
 40
0.005795
 41
0.005795
  0
VERTEX
  8
PLAN_1
  6
CONTINUOUS
 10
-1.174547
 20
0.664374
  0
VERTEX
  8
PLAN_1
  6
CONTINUOUS
 10
-0.895307
 20
0.664374
  0
SEQEND
  8
0
  0
POLYLINE
  8
PLAN_1
  6
CONTINUOUS
 66
     1
 40
0.005795
 41
0.005795
  0
VERTEX
  8
PLAN_1
  6
CONTINUOUS
 10
-0.894780
 20
0.619591
  0
VERTEX
  8
PLAN_1
  6
CONTINUOUS
 10
-0.890039
 20
0.623807
  0
VERTEX
  8
PLAN_1
  6
CONTINUOUS
 10
-0.886878
 20
0.628024
  0
VERTEX
  8
PLAN_1
  6
CONTINUOUS
 10
-0.884244
 20
0.632236
  0
VERTEX
  8
PLAN_1
  6
CONTINUOUS
 10
-0.882661
 20
0.636453
  0
VERTEX
  8
PLAN_1
  6
CONTINUOUS
 10
-0.882134
 20
0.640665
  0
VERTEX
  8
PLAN_1
  6
CONTINUOUS
 10
-0.882134
 20
0.644354
  0
VERTEX
  8
PLAN_1
  6
CONTINUOUS
 10
-0.883189
 20
0.647516
  0
VERTEX
  8
PLAN_1
  6
CONTINUOUS
 10
-0.884244
 20
0.651205
  0
VERTEX
  8
PLAN_1
  6
CONTINUOUS
 10
-0.887402
 20
0.656472
  0
VERTEX
  8
PLAN_1
  6
CONTINUOUS
 10
-0.891091
 20
0.661217
  0
VERTEX
  8
PLAN_1
  6
CONTINUOUS
 10
-0.893724
 20
0.663850
  0
VERTEX
  8
PLAN_1
  6
CONTINUOUS
 10
-0.894780
 20
0.664902
  0
SEQEND
  8
0
  0
POLYLINE
  8
PLAN_1
  6
CONTINUOUS
 66
     1
 40
0.005795
 41
0.005795
  0
VERTEX
  8
PLAN_1
  6
CONTINUOUS
 10
-0.894780
 20
0.664902
  0
VERTEX
  8
PLAN_1
  6
CONTINUOUS
 10
-1.174020
 20
0.664902
  0
SEQEND
  8
0
  0
POLYLINE
  8
PLAN_1
  6
CONTINUOUS
 66
     1
 40
0.005795
 41
0.005795
  0
VERTEX
  8
PLAN_1
  6
CONTINUOUS
 10
-1.174020
 20
0.664902
  0
VERTEX
  8
PLAN_1
  6
CONTINUOUS
 10
-1.175075
 20
0.663850
  0
VERTEX
  8
PLAN_1
  6
CONTINUOUS
 10
-1.177709
 20
0.661217
  0
VERTEX
  8
PLAN_1
  6
CONTINUOUS
 10
-1.180870
 20
0.657000
  0
VERTEX
  8
PLAN_1
  6
CONTINUOUS
 10
-1.183504
 20
0.651732
  0
VERTEX
  8
PLAN_1
  6
CONTINUOUS
 10
-1.184559
 20
0.648571
  0
VERTEX
  8
PLAN_1
  6
CONTINUOUS
 10
-1.185083
 20
0.644882
  0
VERTEX
  8
PLAN_1
  6
CONTINUOUS
 10
-1.185083
 20
0.641193
  0
VERTEX
  8
PLAN_1
  6
CONTINUOUS
 10
-1.184559
 20
0.636980
  0
VERTEX
  8
PLAN_1
  6
CONTINUOUS
 10
-1.183504
 20
0.632764
  0
VERTEX
  8
PLAN_1
  6
CONTINUOUS
 10
-1.181398
 20
0.628547
  0
VERTEX
  8
PLAN_1
  6
CONTINUOUS
 10
-1.178236
 20
0.624335
  0
VERTEX
  8
PLAN_1
  6
CONTINUOUS
 10
-1.174020
 20
0.619591
  0
SEQEND
  8
0
  0
POLYLINE
  8
PLAN_1
  6
CONTINUOUS
 66
     1
 40
0.005795
 41
0.005795
  0
VERTEX
  8
PLAN_1
  6
CONTINUOUS
 10
-1.174020
 20
0.619591
  0
VERTEX
  8
PLAN_1
  6
CONTINUOUS
 10
-0.894780
 20
0.619591
  0
SEQEND
  8
0
  0
POLYLINE
  8
PLAN_1
  6
CONTINUOUS
 66
     1
 40
0.005795
 41
0.005795
  0
VERTEX
  8
PLAN_1
  6
CONTINUOUS
 10
-0.895307
 20
1.835606
  0
VERTEX
  8
PLAN_1
  6
CONTINUOUS
 10
-0.890563
 20
1.839819
  0
VERTEX
  8
PLAN_1
  6
CONTINUOUS
 10
-0.886878
 20
1.844563
  0
VERTEX
  8
PLAN_1
  6
CONTINUOUS
 10
-0.884768
 20
1.848776
  0
VERTEX
  8
PLAN_1
  6
CONTINUOUS
 10
-0.883189
 20
1.852465
  0
VERTEX
  8
PLAN_1
  6
CONTINUOUS
 10
-0.882661
 20
1.856681
  0
VERTEX
  8
PLAN_1
  6
CONTINUOUS
 10
-0.882661
 20
1.860370
  0
VERTEX
  8
PLAN_1
  6
CONTINUOUS
 10
-0.883189
 20
1.864055
  0
VERTEX
  8
PLAN_1
  6
CONTINUOUS
 10
-0.884768
 20
1.867217
  0
VERTEX
  8
PLAN_1
  6
CONTINUOUS
 10
-0.887929
 20
1.873012
  0
VERTEX
  8
PLAN_1
  6
CONTINUOUS
 10
-0.891091
 20
1.877228
  0
VERTEX
  8
PLAN_1
  6
CONTINUOUS
 10
-0.894252
 20
1.879862
  0
VERTEX
  8
PLAN_1
  6
CONTINUOUS
 10
-0.895307
 20
1.880917
  0
SEQEND
  8
0
  0
POLYLINE
  8
PLAN_1
  6
CONTINUOUS
 66
     1
 40
0.005795
 41
0.005795
  0
VERTEX
  8
PLAN_1
  6
CONTINUOUS
 10
-0.895307
 20
1.880917
  0
VERTEX
  8
PLAN_1
  6
CONTINUOUS
 10
-1.174547
 20
1.880917
  0
SEQEND
  8
0
  0
POLYLINE
  8
PLAN_1
  6
CONTINUOUS
 66
     1
 40
0.005795
 41
0.005795
  0
VERTEX
  8
PLAN_1
  6
CONTINUOUS
 10
-1.174547
 20
1.880917
  0
VERTEX
  8
PLAN_1
  6
CONTINUOUS
 10
-1.175602
 20
1.880390
  0
VERTEX
  8
PLAN_1
  6
CONTINUOUS
 10
-1.178236
 20
1.877756
  0
VERTEX
  8
PLAN_1
  6
CONTINUOUS
 10
-1.180870
 20
1.873539
  0
VERTEX
  8
PLAN_1
  6
CONTINUOUS
 10
-1.184031
 20
1.867744
  0
VERTEX
  8
PLAN_1
  6
CONTINUOUS
 10
-1.185083
 20
1.864583
  0
VERTEX
  8
PLAN_1
  6
CONTINUOUS
 10
-1.185610
 20
1.860894
  0
VERTEX
  8
PLAN_1
  6
CONTINUOUS
 10
-1.185610
 20
1.857209
  0
VERTEX
  8
PLAN_1
  6
CONTINUOUS
 10
-1.185083
 20
1.853520
  0
VERTEX
  8
PLAN_1
  6
CONTINUOUS
 10
-1.184031
 20
1.849303
  0
VERTEX
  8
PLAN_1
  6
CONTINUOUS
 10
-1.181921
 20
1.844563
  0
VERTEX
  8
PLAN_1
  6
CONTINUOUS
 10
-1.178764
 20
1.840346
  0
VERTEX
  8
PLAN_1
  6
CONTINUOUS
 10
-1.174547
 20
1.835606
  0
SEQEND
  8
0
  0
POLYLINE
  8
PLAN_1
  6
CONTINUOUS
 66
     1
 40
0.005795
 41
0.005795
  0
VERTEX
  8
PLAN_1
  6
CONTINUOUS
 10
-1.174547
 20
1.835606
  0
VERTEX
  8
PLAN_1
  6
CONTINUOUS
 10
-0.895307
 20
1.835606
  0
SEQEND
  8
0
  0
POLYLINE
  8
PLAN_1
  6
CONTINUOUS
 66
     1
 40
0.005795
 41
0.005795
  0
VERTEX
  8
PLAN_1
  6
CONTINUOUS
 10
-0.894780
 20
1.790823
  0
VERTEX
  8
PLAN_1
  6
CONTINUOUS
 10
-0.890039
 20
1.795035
  0
VERTEX
  8
PLAN_1
  6
CONTINUOUS
 10
-0.886878
 20
1.799252
  0
VERTEX
  8
PLAN_1
  6
CONTINUOUS
 10
-0.884244
 20
1.803469
  0
VERTEX
  8
PLAN_1
  6
CONTINUOUS
 10
-0.882661
 20
1.807681
  0
VERTEX
  8
PLAN_1
  6
CONTINUOUS
 10
-0.882134
 20
1.811370
  0
VERTEX
  8
PLAN_1
  6
CONTINUOUS
 10
-0.882134
 20
1.815587
  0
VERTEX
  8
PLAN_1
  6
CONTINUOUS
 10
-0.883189
 20
1.818744
  0
VERTEX
  8
PLAN_1
  6
CONTINUOUS
 10
-0.884244
 20
1.821906
  0
VERTEX
  8
PLAN_1
  6
CONTINUOUS
 10
-0.887402
 20
1.827701
  0
VERTEX
  8
PLAN_1
  6
CONTINUOUS
 10
-0.890563
 20
1.832445
  0
VERTEX
  8
PLAN_1
  6
CONTINUOUS
 10
-0.893724
 20
1.835079
  0
VERTEX
  8
PLAN_1
  6
CONTINUOUS
 10
-0.894780
 20
1.836134
  0
SEQEND
  8
0
  0
POLYLINE
  8
PLAN_1
  6
CONTINUOUS
 66
     1
 40
0.005795
 41
0.005795
  0
VERTEX
  8
PLAN_1
  6
CONTINUOUS
 10
-0.894780
 20
1.836134
  0
VERTEX
  8
PLAN_1
  6
CONTINUOUS
 10
-1.174020
 20
1.836134
  0
SEQEND
  8
0
  0
POLYLINE
  8
PLAN_1
  6
CONTINUOUS
 66
     1
 40
0.005795
 41
0.005795
  0
VERTEX
  8
PLAN_1
  6
CONTINUOUS
 10
-1.174020
 20
1.836134
  0
VERTEX
  8
PLAN_1
  6
CONTINUOUS
 10
-1.175075
 20
1.835079
  0
VERTEX
  8
PLAN_1
  6
CONTINUOUS
 10
-1.177709
 20
1.832445
  0
VERTEX
  8
PLAN_1
  6
CONTINUOUS
 10
-1.180870
 20
1.828228
  0
VERTEX
  8
PLAN_1
  6
CONTINUOUS
 10
-1.183504
 20
1.822961
  0
VERTEX
  8
PLAN_1
  6
CONTINUOUS
 10
-1.184559
 20
1.819799
  0
VERTEX
  8
PLAN_1
  6
CONTINUOUS
 10
-1.185083
 20
1.816110
  0
VERTEX
  8
PLAN_1
  6
CONTINUOUS
 10
-1.185083
 20
1.812425
  0
VERTEX
  8
PLAN_1
  6
CONTINUOUS
 10
-1.184559
 20
1.808209
  0
VERTEX
  8
PLAN_1
  6
CONTINUOUS
 10
-1.183504
 20
1.803992
  0
VERTEX
  8
PLAN_1
  6
CONTINUOUS
 10
-1.181398
 20
1.799780
  0
VERTEX
  8
PLAN_1
  6
CONTINUOUS
 10
-1.178236
 20
1.795563
  0
VERTEX
  8
PLAN_1
  6
CONTINUOUS
 10
-1.174020
 20
1.790823
  0
SEQEND
  8
0
  0
POLYLINE
  8
PLAN_1
  6
CONTINUOUS
 66
     1
 40
0.005795
 41
0.005795
  0
VERTEX
  8
PLAN_1
  6
CONTINUOUS
 10
-1.174020
 20
1.790823
  0
VERTEX
  8
PLAN_1
  6
CONTINUOUS
 10
-0.894780
 20
1.790823
  0
SEQEND
  8
0
  0
POLYLINE
  8
PLAN_1
  6
CONTINUOUS
 66
     1
 40
0.005795
 41
0.005795
  0
VERTEX
  8
PLAN_1
  6
CONTINUOUS
 10
-0.895307
 20
1.744984
  0
VERTEX
  8
PLAN_1
  6
CONTINUOUS
 10
-0.890563
 20
1.749201
  0
VERTEX
  8
PLAN_1
  6
CONTINUOUS
 10
-0.886878
 20
1.753941
  0
VERTEX
  8
PLAN_1
  6
CONTINUOUS
 10
-0.884244
 20
1.758157
  0
VERTEX
  8
PLAN_1
  6
CONTINUOUS
 10
-0.883189
 20
1.761843
  0
VERTEX
  8
PLAN_1
  6
CONTINUOUS
 10
-0.882134
 20
1.766059
  0
VERTEX
  8
PLAN_1
  6
CONTINUOUS
 10
-0.882661
 20
1.769748
  0
VERTEX
  8
PLAN_1
  6
CONTINUOUS
 10
-0.883189
 20
1.773437
  0
VERTEX
  8
PLAN_1
  6
CONTINUOUS
 10
-0.884244
 20
1.776594
  0
VERTEX
  8
PLAN_1
  6
CONTINUOUS
 10
-0.887402
 20
1.782394
  0
VERTEX
  8
PLAN_1
  6
CONTINUOUS
 10
-0.891091
 20
1.786606
  0
VERTEX
  8
PLAN_1
  6
CONTINUOUS
 10
-0.893724
 20
1.789240
  0
VERTEX
  8
PLAN_1
  6
CONTINUOUS
 10
-0.895307
 20
1.790295
  0
SEQEND
  8
0
  0
POLYLINE
  8
PLAN_1
  6
CONTINUOUS
 66
     1
 40
0.005795
 41
0.005795
  0
VERTEX
  8
PLAN_1
  6
CONTINUOUS
 10
-0.895307
 20
1.790295
  0
VERTEX
  8
PLAN_1
  6
CONTINUOUS
 10
-1.174020
 20
1.790295
  0
SEQEND
  8
0
  0
POLYLINE
  8
PLAN_1
  6
CONTINUOUS
 66
     1
 40
0.005795
 41
0.005795
  0
VERTEX
  8
PLAN_1
  6
CONTINUOUS
 10
-1.174020
 20
1.790295
  0
VERTEX
  8
PLAN_1
  6
CONTINUOUS
 10
-1.175075
 20
1.789768
  0
VERTEX
  8
PLAN_1
  6
CONTINUOUS
 10
-1.177709
 20
1.787134
  0
VERTEX
  8
PLAN_1
  6
CONTINUOUS
 10
-1.180870
 20
1.782917
  0
VERTEX
  8
PLAN_1
  6
CONTINUOUS
 10
-1.183504
 20
1.777122
  0
VERTEX
  8
PLAN_1
  6
CONTINUOUS
 10
-1.184559
 20
1.773961
  0
VERTEX
  8
PLAN_1
  6
CONTINUOUS
 10
-1.185083
 20
1.770276
  0
VERTEX
  8
PLAN_1
  6
CONTINUOUS
 10
-1.185610
 20
1.766587
  0
VERTEX
  8
PLAN_1
  6
CONTINUOUS
 10
-1.185083
 20
1.762898
  0
VERTEX
  8
PLAN_1
  6
CONTINUOUS
 10
-1.183504
 20
1.758681
  0
VERTEX
  8
PLAN_1
  6
CONTINUOUS
 10
-1.181398
 20
1.753941
  0
VERTEX
  8
PLAN_1
  6
CONTINUOUS
 10
-1.178236
 20
1.749724
  0
VERTEX
  8
PLAN_1
  6
CONTINUOUS
 10
-1.174020
 20
1.744984
  0
SEQEND
  8
0
  0
POLYLINE
  8
PLAN_1
  6
CONTINUOUS
 66
     1
 40
0.005795
 41
0.005795
  0
VERTEX
  8
PLAN_1
  6
CONTINUOUS
 10
-1.174020
 20
1.744984
  0
VERTEX
  8
PLAN_1
  6
CONTINUOUS
 10
-0.895307
 20
1.744984
  0
SEQEND
  8
0
  0
POLYLINE
  8
PLAN_1
  6
CONTINUOUS
 66
     1
 40
0.005795
 41
0.005795
  0
VERTEX
  8
PLAN_1
  6
CONTINUOUS
 10
-0.894780
 20
1.700201
  0
VERTEX
  8
PLAN_1
  6
CONTINUOUS
 10
-0.890039
 20
1.704413
  0
VERTEX
  8
PLAN_1
  6
CONTINUOUS
 10
-0.886350
 20
1.708630
  0
VERTEX
  8
PLAN_1
  6
CONTINUOUS
 10
-0.884244
 20
1.712846
  0
VERTEX
  8
PLAN_1
  6
CONTINUOUS
 10
-0.882661
 20
1.717059
  0
VERTEX
  8
PLAN_1
  6
CONTINUOUS
 10
-0.882134
 20
1.720748
  0
VERTEX
  8
PLAN_1
  6
CONTINUOUS
 10
-0.882134
 20
1.724965
  0
VERTEX
  8
PLAN_1
  6
CONTINUOUS
 10
-0.882661
 20
1.728126
  0
VERTEX
  8
PLAN_1
  6
CONTINUOUS
 10
-0.883717
 20
1.731811
  0
VERTEX
  8
PLAN_1
  6
CONTINUOUS
 10
-0.886878
 20
1.737083
  0
VERTEX
  8
PLAN_1
  6
CONTINUOUS
 10
-0.890563
 20
1.741823
  0
VERTEX
  8
PLAN_1
  6
CONTINUOUS
 10
-0.893201
 20
1.744457
  0
VERTEX
  8
PLAN_1
  6
CONTINUOUS
 10
-0.894780
 20
1.745512
  0
SEQEND
  8
0
  0
POLYLINE
  8
PLAN_1
  6
CONTINUOUS
 66
     1
 40
0.005795
 41
0.005795
  0
VERTEX
  8
PLAN_1
  6
CONTINUOUS
 10
-0.894780
 20
1.745512
  0
VERTEX
  8
PLAN_1
  6
CONTINUOUS
 10
-1.174020
 20
1.745512
  0
SEQEND
  8
0
  0
POLYLINE
  8
PLAN_1
  6
CONTINUOUS
 66
     1
 40
0.005795
 41
0.005795
  0
VERTEX
  8
PLAN_1
  6
CONTINUOUS
 10
-1.174020
 20
1.745512
  0
VERTEX
  8
PLAN_1
  6
CONTINUOUS
 10
-1.175075
 20
1.744457
  0
VERTEX
  8
PLAN_1
  6
CONTINUOUS
 10
-1.177181
 20
1.741823
  0
VERTEX
  8
PLAN_1
  6
CONTINUOUS
 10
-1.180343
 20
1.737606
  0
VERTEX
  8
PLAN_1
  6
CONTINUOUS
 10
-1.183504
 20
1.732339
  0
VERTEX
  8
PLAN_1
  6
CONTINUOUS
 10
-1.184559
 20
1.729177
  0
VERTEX
  8
PLAN_1
  6
CONTINUOUS
 10
-1.185083
 20
1.725488
  0
VERTEX
  8
PLAN_1
  6
CONTINUOUS
 10
-1.185083
 20
1.721803
  0
VERTEX
  8
PLAN_1
  6
CONTINUOUS
 10
-1.184559
 20
1.717587
  0
VERTEX
  8
PLAN_1
  6
CONTINUOUS
 10
-1.182976
 20
1.713374
  0
VERTEX
  8
PLAN_1
  6
CONTINUOUS
 10
-1.180870
 20
1.709157
  0
VERTEX
  8
PLAN_1
  6
CONTINUOUS
 10
-1.178236
 20
1.704941
  0
VERTEX
  8
PLAN_1
  6
CONTINUOUS
 10
-1.174020
 20
1.700201
  0
SEQEND
  8
0
  0
POLYLINE
  8
PLAN_1
  6
CONTINUOUS
 66
     1
 40
0.005795
 41
0.005795
  0
VERTEX
  8
PLAN_1
  6
CONTINUOUS
 10
-1.174020
 20
1.700201
  0
VERTEX
  8
PLAN_1
  6
CONTINUOUS
 10
-0.894780
 20
1.700201
  0
SEQEND
  8
0
  0
POLYLINE
  8
PLAN_1
  6
CONTINUOUS
 66
     1
 40
0.005795
 41
0.005795
  0
VERTEX
  8
PLAN_1
  6
CONTINUOUS
 10
-0.895307
 20
1.654890
  0
VERTEX
  8
PLAN_1
  6
CONTINUOUS
 10
-0.890563
 20
1.659630
  0
VERTEX
  8
PLAN_1
  6
CONTINUOUS
 10
-0.886878
 20
1.663846
  0
VERTEX
  8
PLAN_1
  6
CONTINUOUS
 10
-0.884244
 20
1.668063
  0
VERTEX
  8
PLAN_1
  6
CONTINUOUS
 10
-0.883189
 20
1.672276
  0
VERTEX
  8
PLAN_1
  6
CONTINUOUS
 10
-0.882134
 20
1.675965
  0
VERTEX
  8
PLAN_1
  6
CONTINUOUS
 10
-0.882661
 20
1.679654
  0
VERTEX
  8
PLAN_1
  6
CONTINUOUS
 10
-0.883189
 20
1.683343
  0
VERTEX
  8
PLAN_1
  6
CONTINUOUS
 10
-0.884244
 20
1.686500
  0
VERTEX
  8
PLAN_1
  6
CONTINUOUS
 10
-0.887402
 20
1.692299
  0
VERTEX
  8
PLAN_1
  6
CONTINUOUS
 10
-0.891091
 20
1.696512
  0
VERTEX
  8
PLAN_1
  6
CONTINUOUS
 10
-0.893724
 20
1.699673
  0
VERTEX
  8
PLAN_1
  6
CONTINUOUS
 10
-0.895307
 20
1.700201
  0
SEQEND
  8
0
  0
POLYLINE
  8
PLAN_1
  6
CONTINUOUS
 66
     1
 40
0.005795
 41
0.005795
  0
VERTEX
  8
PLAN_1
  6
CONTINUOUS
 10
-0.895307
 20
1.700201
  0
VERTEX
  8
PLAN_1
  6
CONTINUOUS
 10
-1.174020
 20
1.700201
  0
SEQEND
  8
0
  0
POLYLINE
  8
PLAN_1
  6
CONTINUOUS
 66
     1
 40
0.005795
 41
0.005795
  0
VERTEX
  8
PLAN_1
  6
CONTINUOUS
 10
-1.174020
 20
1.700201
  0
VERTEX
  8
PLAN_1
  6
CONTINUOUS
 10
-1.175075
 20
1.699673
  0
VERTEX
  8
PLAN_1
  6
CONTINUOUS
 10
-1.177709
 20
1.697039
  0
VERTEX
  8
PLAN_1
  6
CONTINUOUS
 10
-1.180870
 20
1.692823
  0
VERTEX
  8
PLAN_1
  6
CONTINUOUS
 10
-1.183504
 20
1.687028
  0
VERTEX
  8
PLAN_1
  6
CONTINUOUS
 10
-1.184559
 20
1.683866
  0
VERTEX
  8
PLAN_1
  6
CONTINUOUS
 10
-1.185083
 20
1.680705
  0
VERTEX
  8
PLAN_1
  6
CONTINUOUS
 10
-1.185610
 20
1.676492
  0
VERTEX
  8
PLAN_1
  6
CONTINUOUS
 10
-1.185083
 20
1.672803
  0
VERTEX
  8
PLAN_1
  6
CONTINUOUS
 10
-1.183504
 20
1.668587
  0
VERTEX
  8
PLAN_1
  6
CONTINUOUS
 10
-1.181398
 20
1.664374
  0
VERTEX
  8
PLAN_1
  6
CONTINUOUS
 10
-1.178236
 20
1.659630
  0
VERTEX
  8
PLAN_1
  6
CONTINUOUS
 10
-1.174020
 20
1.654890
  0
SEQEND
  8
0
  0
POLYLINE
  8
PLAN_1
  6
CONTINUOUS
 66
     1
 40
0.005795
 41
0.005795
  0
VERTEX
  8
PLAN_1
  6
CONTINUOUS
 10
-1.174020
 20
1.654890
  0
VERTEX
  8
PLAN_1
  6
CONTINUOUS
 10
-0.895307
 20
1.654890
  0
SEQEND
  8
0
  0
POLYLINE
  8
PLAN_1
  6
CONTINUOUS
 66
     1
 40
0.005795
 41
0.005795
  0
VERTEX
  8
PLAN_1
  6
CONTINUOUS
 10
-0.894780
 20
1.610106
  0
VERTEX
  8
PLAN_1
  6
CONTINUOUS
 10
-0.890039
 20
1.614319
  0
VERTEX
  8
PLAN_1
  6
CONTINUOUS
 10
-0.886350
 20
1.618535
  0
VERTEX
  8
PLAN_1
  6
CONTINUOUS
 10
-0.884244
 20
1.622752
  0
VERTEX
  8
PLAN_1
  6
CONTINUOUS
 10
-0.882661
 20
1.626965
  0
VERTEX
  8
PLAN_1
  6
CONTINUOUS
 10
-0.882134
 20
1.631181
  0
VERTEX
  8
PLAN_1
  6
CONTINUOUS
 10
-0.882134
 20
1.634870
  0
VERTEX
  8
PLAN_1
  6
CONTINUOUS
 10
-0.882661
 20
1.638031
  0
VERTEX
  8
PLAN_1
  6
CONTINUOUS
 10
-0.883717
 20
1.641717
  0
VERTEX
  8
PLAN_1
  6
CONTINUOUS
 10
-0.886878
 20
1.647512
  0
VERTEX
  8
PLAN_1
  6
CONTINUOUS
 10
-0.890563
 20
1.651728
  0
VERTEX
  8
PLAN_1
  6
CONTINUOUS
 10
-0.893201
 20
1.654362
  0
VERTEX
  8
PLAN_1
  6
CONTINUOUS
 10
-0.894780
 20
1.655417
  0
SEQEND
  8
0
  0
POLYLINE
  8
PLAN_1
  6
CONTINUOUS
 66
     1
 40
0.005795
 41
0.005795
  0
VERTEX
  8
PLAN_1
  6
CONTINUOUS
 10
-0.894780
 20
1.655417
  0
VERTEX
  8
PLAN_1
  6
CONTINUOUS
 10
-1.174020
 20
1.655417
  0
SEQEND
  8
0
  0
POLYLINE
  8
PLAN_1
  6
CONTINUOUS
 66
     1
 40
0.005795
 41
0.005795
  0
VERTEX
  8
PLAN_1
  6
CONTINUOUS
 10
-1.174020
 20
1.655417
  0
VERTEX
  8
PLAN_1
  6
CONTINUOUS
 10
-1.175075
 20
1.654362
  0
VERTEX
  8
PLAN_1
  6
CONTINUOUS
 10
-1.177181
 20
1.651728
  0
VERTEX
  8
PLAN_1
  6
CONTINUOUS
 10
-1.180343
 20
1.647512
  0
VERTEX
  8
PLAN_1
  6
CONTINUOUS
 10
-1.183504
 20
1.642244
  0
VERTEX
  8
PLAN_1
  6
CONTINUOUS
 10
-1.184559
 20
1.639083
  0
VERTEX
  8
PLAN_1
  6
CONTINUOUS
 10
-1.185083
 20
1.635394
  0
VERTEX
  8
PLAN_1
  6
CONTINUOUS
 10
-1.185083
 20
1.631709
  0
VERTEX
  8
PLAN_1
  6
CONTINUOUS
 10
-1.184559
 20
1.628020
  0
VERTEX
  8
PLAN_1
  6
CONTINUOUS
 10
-1.182976
 20
1.623803
  0
VERTEX
  8
PLAN_1
  6
CONTINUOUS
 10
-1.180870
 20
1.619063
  0
VERTEX
  8
PLAN_1
  6
CONTINUOUS
 10
-1.178236
 20
1.614846
  0
VERTEX
  8
PLAN_1
  6
CONTINUOUS
 10
-1.174020
 20
1.610106
  0
SEQEND
  8
0
  0
POLYLINE
  8
PLAN_1
  6
CONTINUOUS
 66
     1
 40
0.005795
 41
0.005795
  0
VERTEX
  8
PLAN_1
  6
CONTINUOUS
 10
-1.174020
 20
1.610106
  0
VERTEX
  8
PLAN_1
  6
CONTINUOUS
 10
-0.894780
 20
1.610106
  0
SEQEND
  8
0
  0
POLYLINE
  8
PLAN_1
  6
CONTINUOUS
 66
     1
 40
0.005795
 41
0.005795
  0
VERTEX
  8
PLAN_1
  6
CONTINUOUS
 10
-0.895307
 20
1.564795
  0
VERTEX
  8
PLAN_1
  6
CONTINUOUS
 10
-0.890563
 20
1.569535
  0
VERTEX
  8
PLAN_1
  6
CONTINUOUS
 10
-0.886878
 20
1.573752
  0
VERTEX
  8
PLAN_1
  6
CONTINUOUS
 10
-0.884244
 20
1.577969
  0
VERTEX
  8
PLAN_1
  6
CONTINUOUS
 10
-0.883189
 20
1.582181
  0
VERTEX
  8
PLAN_1
  6
CONTINUOUS
 10
-0.882134
 20
1.585870
  0
VERTEX
  8
PLAN_1
  6
CONTINUOUS
 10
-0.882661
 20
1.589559
  0
VERTEX
  8
PLAN_1
  6
CONTINUOUS
 10
-0.883189
 20
1.593244
  0
VERTEX
  8
PLAN_1
  6
CONTINUOUS
 10
-0.884244
 20
1.596406
  0
VERTEX
  8
PLAN_1
  6
CONTINUOUS
 10
-0.887402
 20
1.602201
  0
VERTEX
  8
PLAN_1
  6
CONTINUOUS
 10
-0.891091
 20
1.606417
  0
VERTEX
  8
PLAN_1
  6
CONTINUOUS
 10
-0.893724
 20
1.609579
  0
VERTEX
  8
PLAN_1
  6
CONTINUOUS
 10
-0.895307
 20
1.610634
  0
SEQEND
  8
0
  0
POLYLINE
  8
PLAN_1
  6
CONTINUOUS
 66
     1
 40
0.005795
 41
0.005795
  0
VERTEX
  8
PLAN_1
  6
CONTINUOUS
 10
-0.895307
 20
1.610634
  0
VERTEX
  8
PLAN_1
  6
CONTINUOUS
 10
-1.174020
 20
1.610634
  0
SEQEND
  8
0
  0
POLYLINE
  8
PLAN_1
  6
CONTINUOUS
 66
     1
 40
0.005795
 41
0.005795
  0
VERTEX
  8
PLAN_1
  6
CONTINUOUS
 10
-1.174020
 20
1.610634
  0
VERTEX
  8
PLAN_1
  6
CONTINUOUS
 10
-1.175075
 20
1.609579
  0
VERTEX
  8
PLAN_1
  6
CONTINUOUS
 10
-1.177709
 20
1.606945
  0
VERTEX
  8
PLAN_1
  6
CONTINUOUS
 10
-1.180870
 20
1.602728
  0
VERTEX
  8
PLAN_1
  6
CONTINUOUS
 10
-1.183504
 20
1.597461
  0
VERTEX
  8
PLAN_1
  6
CONTINUOUS
 10
-1.184559
 20
1.593772
  0
VERTEX
  8
PLAN_1
  6
CONTINUOUS
 10
-1.185083
 20
1.590610
  0
VERTEX
  8
PLAN_1
  6
CONTINUOUS
 10
-1.185610
 20
1.586925
  0
VERTEX
  8
PLAN_1
  6
CONTINUOUS
 10
-1.185083
 20
1.582709
  0
VERTEX
  8
PLAN_1
  6
CONTINUOUS
 10
-1.183504
 20
1.578492
  0
VERTEX
  8
PLAN_1
  6
CONTINUOUS
 10
-1.181398
 20
1.574280
  0
VERTEX
  8
PLAN_1
  6
CONTINUOUS
 10
-1.178236
 20
1.569535
  0
VERTEX
  8
PLAN_1
  6
CONTINUOUS
 10
-1.174020
 20
1.564795
  0
SEQEND
  8
0
  0
POLYLINE
  8
PLAN_1
  6
CONTINUOUS
 66
     1
 40
0.005795
 41
0.005795
  0
VERTEX
  8
PLAN_1
  6
CONTINUOUS
 10
-1.174020
 20
1.564795
  0
VERTEX
  8
PLAN_1
  6
CONTINUOUS
 10
-0.895307
 20
1.564795
  0
SEQEND
  8
0
  0
POLYLINE
  8
PLAN_1
  6
CONTINUOUS
 66
     1
 40
0.005795
 41
0.005795
  0
VERTEX
  8
PLAN_1
  6
CONTINUOUS
 10
-0.894780
 20
1.520012
  0
VERTEX
  8
PLAN_1
  6
CONTINUOUS
 10
-0.890039
 20
1.524224
  0
VERTEX
  8
PLAN_1
  6
CONTINUOUS
 10
-0.886350
 20
1.528969
  0
VERTEX
  8
PLAN_1
  6
CONTINUOUS
 10
-0.884244
 20
1.533181
  0
VERTEX
  8
PLAN_1
  6
CONTINUOUS
 10
-0.882661
 20
1.536870
  0
VERTEX
  8
PLAN_1
  6
CONTINUOUS
 10
-0.882134
 20
1.541087
  0
VERTEX
  8
PLAN_1
  6
CONTINUOUS
 10
-0.882134
 20
1.544776
  0
VERTEX
  8
PLAN_1
  6
CONTINUOUS
 10
-0.882661
 20
1.548461
  0
VERTEX
  8
PLAN_1
  6
CONTINUOUS
 10
-0.883717
 20
1.551622
  0
VERTEX
  8
PLAN_1
  6
CONTINUOUS
 10
-0.886878
 20
1.557417
  0
VERTEX
  8
PLAN_1
  6
CONTINUOUS
 10
-0.890563
 20
1.561634
  0
VERTEX
  8
PLAN_1
  6
CONTINUOUS
 10
-0.893201
 20
1.564268
  0
VERTEX
  8
PLAN_1
  6
CONTINUOUS
 10
-0.894780
 20
1.565323
  0
SEQEND
  8
0
  0
POLYLINE
  8
PLAN_1
  6
CONTINUOUS
 66
     1
 40
0.005795
 41
0.005795
  0
VERTEX
  8
PLAN_1
  6
CONTINUOUS
 10
-0.894780
 20
1.565323
  0
VERTEX
  8
PLAN_1
  6
CONTINUOUS
 10
-1.174020
 20
1.565323
  0
SEQEND
  8
0
  0
POLYLINE
  8
PLAN_1
  6
CONTINUOUS
 66
     1
 40
0.005795
 41
0.005795
  0
VERTEX
  8
PLAN_1
  6
CONTINUOUS
 10
-1.174020
 20
1.565323
  0
VERTEX
  8
PLAN_1
  6
CONTINUOUS
 10
-1.175075
 20
1.564795
  0
VERTEX
  8
PLAN_1
  6
CONTINUOUS
 10
-1.177181
 20
1.562161
  0
VERTEX
  8
PLAN_1
  6
CONTINUOUS
 10
-1.180343
 20
1.557945
  0
VERTEX
  8
PLAN_1
  6
CONTINUOUS
 10
-1.183504
 20
1.552150
  0
VERTEX
  8
PLAN_1
  6
CONTINUOUS
 10
-1.184559
 20
1.548988
  0
VERTEX
  8
PLAN_1
  6
CONTINUOUS
 10
-1.185083
 20
1.545299
  0
VERTEX
  8
PLAN_1
  6
CONTINUOUS
 10
-1.185083
 20
1.541614
  0
VERTEX
  8
PLAN_1
  6
CONTINUOUS
 10
-1.184559
 20
1.537925
  0
VERTEX
  8
PLAN_1
  6
CONTINUOUS
 10
-1.182976
 20
1.533709
  0
VERTEX
  8
PLAN_1
  6
CONTINUOUS
 10
-1.180870
 20
1.529496
  0
VERTEX
  8
PLAN_1
  6
CONTINUOUS
 10
-1.178236
 20
1.524752
  0
VERTEX
  8
PLAN_1
  6
CONTINUOUS
 10
-1.174020
 20
1.520012
  0
SEQEND
  8
0
  0
POLYLINE
  8
PLAN_1
  6
CONTINUOUS
 66
     1
 40
0.005795
 41
0.005795
  0
VERTEX
  8
PLAN_1
  6
CONTINUOUS
 10
-1.174020
 20
1.520012
  0
VERTEX
  8
PLAN_1
  6
CONTINUOUS
 10
-0.894780
 20
1.520012
  0
SEQEND
  8
0
  0
POLYLINE
  8
PLAN_1
  6
CONTINUOUS
 66
     1
 40
0.005795
 41
0.005795
  0
VERTEX
  8
PLAN_1
  6
CONTINUOUS
 10
-0.895307
 20
1.475228
  0
VERTEX
  8
PLAN_1
  6
CONTINUOUS
 10
-0.890563
 20
1.479441
  0
VERTEX
  8
PLAN_1
  6
CONTINUOUS
 10
-0.886878
 20
1.483657
  0
VERTEX
  8
PLAN_1
  6
CONTINUOUS
 10
-0.884244
 20
1.487874
  0
VERTEX
  8
PLAN_1
  6
CONTINUOUS
 10
-0.883189
 20
1.492087
  0
VERTEX
  8
PLAN_1
  6
CONTINUOUS
 10
-0.882134
 20
1.495776
  0
VERTEX
  8
PLAN_1
  6
CONTINUOUS
 10
-0.882661
 20
1.499988
  0
VERTEX
  8
PLAN_1
  6
CONTINUOUS
 10
-0.883189
 20
1.503150
  0
VERTEX
  8
PLAN_1
  6
CONTINUOUS
 10
-0.884244
 20
1.506839
  0
VERTEX
  8
PLAN_1
  6
CONTINUOUS
 10
-0.887402
 20
1.512106
  0
VERTEX
  8
PLAN_1
  6
CONTINUOUS
 10
-0.891091
 20
1.516850
  0
VERTEX
  8
PLAN_1
  6
CONTINUOUS
 10
-0.893724
 20
1.519484
  0
VERTEX
  8
PLAN_1
  6
CONTINUOUS
 10
-0.895307
 20
1.520539
  0
SEQEND
  8
0
  0
POLYLINE
  8
PLAN_1
  6
CONTINUOUS
 66
     1
 40
0.005795
 41
0.005795
  0
VERTEX
  8
PLAN_1
  6
CONTINUOUS
 10
-0.895307
 20
1.520539
  0
VERTEX
  8
PLAN_1
  6
CONTINUOUS
 10
-1.174020
 20
1.520539
  0
SEQEND
  8
0
  0
POLYLINE
  8
PLAN_1
  6
CONTINUOUS
 66
     1
 40
0.005795
 41
0.005795
  0
VERTEX
  8
PLAN_1
  6
CONTINUOUS
 10
-1.174020
 20
1.520539
  0
VERTEX
  8
PLAN_1
  6
CONTINUOUS
 10
-1.175075
 20
1.519484
  0
VERTEX
  8
PLAN_1
  6
CONTINUOUS
 10
-1.177709
 20
1.516850
  0
VERTEX
  8
PLAN_1
  6
CONTINUOUS
 10
-1.180870
 20
1.512634
  0
VERTEX
  8
PLAN_1
  6
CONTINUOUS
 10
-1.183504
 20
1.507366
  0
VERTEX
  8
PLAN_1
  6
CONTINUOUS
 10
-1.184559
 20
1.504205
  0
VERTEX
  8
PLAN_1
  6
CONTINUOUS
 10
-1.185083
 20
1.500516
  0
VERTEX
  8
PLAN_1
  6
CONTINUOUS
 10
-1.185610
 20
1.496831
  0
VERTEX
  8
PLAN_1
  6
CONTINUOUS
 10
-1.185083
 20
1.492614
  0
VERTEX
  8
PLAN_1
  6
CONTINUOUS
 10
-1.183504
 20
1.488398
  0
VERTEX
  8
PLAN_1
  6
CONTINUOUS
 10
-1.181398
 20
1.484185
  0
VERTEX
  8
PLAN_1
  6
CONTINUOUS
 10
-1.178236
 20
1.479441
  0
VERTEX
  8
PLAN_1
  6
CONTINUOUS
 10
-1.174020
 20
1.475228
  0
SEQEND
  8
0
  0
POLYLINE
  8
PLAN_1
  6
CONTINUOUS
 66
     1
 40
0.005795
 41
0.005795
  0
VERTEX
  8
PLAN_1
  6
CONTINUOUS
 10
-1.174020
 20
1.475228
  0
VERTEX
  8
PLAN_1
  6
CONTINUOUS
 10
-0.895307
 20
1.475228
  0
SEQEND
  8
0
  0
POLYLINE
  8
PLAN_1
  6
CONTINUOUS
 66
     1
 40
0.005795
 41
0.005795
  0
VERTEX
  8
PLAN_1
  6
CONTINUOUS
 10
-0.894780
 20
1.429917
  0
VERTEX
  8
PLAN_1
  6
CONTINUOUS
 10
-0.890039
 20
1.434657
  0
VERTEX
  8
PLAN_1
  6
CONTINUOUS
 10
-0.886350
 20
1.438874
  0
VERTEX
  8
PLAN_1
  6
CONTINUOUS
 10
-0.884244
 20
1.443087
  0
VERTEX
  8
PLAN_1
  6
CONTINUOUS
 10
-0.882661
 20
1.447303
  0
VERTEX
  8
PLAN_1
  6
CONTINUOUS
 10
-0.882134
 20
1.450992
  0
VERTEX
  8
PLAN_1
  6
CONTINUOUS
 10
-0.882134
 20
1.454681
  0
VERTEX
  8
PLAN_1
  6
CONTINUOUS
 10
-0.882661
 20
1.458366
  0
VERTEX
  8
PLAN_1
  6
CONTINUOUS
 10
-0.883717
 20
1.461528
  0
VERTEX
  8
PLAN_1
  6
CONTINUOUS
 10
-0.886878
 20
1.467323
  0
VERTEX
  8
PLAN_1
  6
CONTINUOUS
 10
-0.890563
 20
1.471539
  0
VERTEX
  8
PLAN_1
  6
CONTINUOUS
 10
-0.893201
 20
1.474701
  0
VERTEX
  8
PLAN_1
  6
CONTINUOUS
 10
-0.894780
 20
1.475228
  0
SEQEND
  8
0
  0
POLYLINE
  8
PLAN_1
  6
CONTINUOUS
 66
     1
 40
0.005795
 41
0.005795
  0
VERTEX
  8
PLAN_1
  6
CONTINUOUS
 10
-0.894780
 20
1.475228
  0
VERTEX
  8
PLAN_1
  6
CONTINUOUS
 10
-1.174020
 20
1.475228
  0
SEQEND
  8
0
  0
POLYLINE
  8
PLAN_1
  6
CONTINUOUS
 66
     1
 40
0.005795
 41
0.005795
  0
VERTEX
  8
PLAN_1
  6
CONTINUOUS
 10
-1.174020
 20
1.475228
  0
VERTEX
  8
PLAN_1
  6
CONTINUOUS
 10
-1.175075
 20
1.474701
  0
VERTEX
  8
PLAN_1
  6
CONTINUOUS
 10
-1.177181
 20
1.472067
  0
VERTEX
  8
PLAN_1
  6
CONTINUOUS
 10
-1.180343
 20
1.467850
  0
VERTEX
  8
PLAN_1
  6
CONTINUOUS
 10
-1.183504
 20
1.462055
  0
VERTEX
  8
PLAN_1
  6
CONTINUOUS
 10
-1.184559
 20
1.458894
  0
VERTEX
  8
PLAN_1
  6
CONTINUOUS
 10
-1.185083
 20
1.455732
  0
VERTEX
  8
PLAN_1
  6
CONTINUOUS
 10
-1.185083
 20
1.451520
  0
VERTEX
  8
PLAN_1
  6
CONTINUOUS
 10
-1.184559
 20
1.447831
  0
VERTEX
  8
PLAN_1
  6
CONTINUOUS
 10
-1.182976
 20
1.443614
  0
VERTEX
  8
PLAN_1
  6
CONTINUOUS
 10
-1.180870
 20
1.439402
  0
VERTEX
  8
PLAN_1
  6
CONTINUOUS
 10
-1.178236
 20
1.434657
  0
VERTEX
  8
PLAN_1
  6
CONTINUOUS
 10
-1.174020
 20
1.429917
  0
SEQEND
  8
0
  0
POLYLINE
  8
PLAN_1
  6
CONTINUOUS
 66
     1
 40
0.005795
 41
0.005795
  0
VERTEX
  8
PLAN_1
  6
CONTINUOUS
 10
-1.174020
 20
1.429917
  0
VERTEX
  8
PLAN_1
  6
CONTINUOUS
 10
-0.894780
 20
1.429917
  0
SEQEND
  8
0
  0
POLYLINE
  8
PLAN_1
  6
CONTINUOUS
 66
     1
 40
0.005795
 41
0.005795
  0
VERTEX
  8
PLAN_1
  6
CONTINUOUS
 10
-0.895307
 20
1.385134
  0
VERTEX
  8
PLAN_1
  6
CONTINUOUS
 10
-0.890563
 20
1.389346
  0
VERTEX
  8
PLAN_1
  6
CONTINUOUS
 10
-0.886878
 20
1.393563
  0
VERTEX
  8
PLAN_1
  6
CONTINUOUS
 10
-0.884244
 20
1.397776
  0
VERTEX
  8
PLAN_1
  6
CONTINUOUS
 10
-0.883189
 20
1.401992
  0
VERTEX
  8
PLAN_1
  6
CONTINUOUS
 10
-0.882134
 20
1.406209
  0
VERTEX
  8
PLAN_1
  6
CONTINUOUS
 10
-0.882661
 20
1.409894
  0
VERTEX
  8
PLAN_1
  6
CONTINUOUS
 10
-0.883189
 20
1.413055
  0
VERTEX
  8
PLAN_1
  6
CONTINUOUS
 10
-0.884244
 20
1.416744
  0
VERTEX
  8
PLAN_1
  6
CONTINUOUS
 10
-0.887402
 20
1.422539
  0
VERTEX
  8
PLAN_1
  6
CONTINUOUS
 10
-0.891091
 20
1.426756
  0
VERTEX
  8
PLAN_1
  6
CONTINUOUS
 10
-0.893724
 20
1.429390
  0
VERTEX
  8
PLAN_1
  6
CONTINUOUS
 10
-0.895307
 20
1.430445
  0
SEQEND
  8
0
  0
POLYLINE
  8
PLAN_1
  6
CONTINUOUS
 66
     1
 40
0.005795
 41
0.005795
  0
VERTEX
  8
PLAN_1
  6
CONTINUOUS
 10
-0.895307
 20
1.430445
  0
VERTEX
  8
PLAN_1
  6
CONTINUOUS
 10
-1.174020
 20
1.430445
  0
SEQEND
  8
0
  0
POLYLINE
  8
PLAN_1
  6
CONTINUOUS
 66
     1
 40
0.005795
 41
0.005795
  0
VERTEX
  8
PLAN_1
  6
CONTINUOUS
 10
-1.174020
 20
1.430445
  0
VERTEX
  8
PLAN_1
  6
CONTINUOUS
 10
-1.175075
 20
1.429390
  0
VERTEX
  8
PLAN_1
  6
CONTINUOUS
 10
-1.177709
 20
1.426756
  0
VERTEX
  8
PLAN_1
  6
CONTINUOUS
 10
-1.180870
 20
1.422539
  0
VERTEX
  8
PLAN_1
  6
CONTINUOUS
 10
-1.183504
 20
1.417272
  0
VERTEX
  8
PLAN_1
  6
CONTINUOUS
 10
-1.184559
 20
1.414110
  0
VERTEX
  8
PLAN_1
  6
CONTINUOUS
 10
-1.185083
 20
1.410421
  0
VERTEX
  8
PLAN_1
  6
CONTINUOUS
 10
-1.185610
 20
1.406736
  0
VERTEX
  8
PLAN_1
  6
CONTINUOUS
 10
-1.185083
 20
1.403047
  0
VERTEX
  8
PLAN_1
  6
CONTINUOUS
 10
-1.183504
 20
1.398831
  0
VERTEX
  8
PLAN_1
  6
CONTINUOUS
 10
-1.181398
 20
1.394091
  0
VERTEX
  8
PLAN_1
  6
CONTINUOUS
 10
-1.178236
 20
1.389874
  0
VERTEX
  8
PLAN_1
  6
CONTINUOUS
 10
-1.174020
 20
1.385134
  0
SEQEND
  8
0
  0
POLYLINE
  8
PLAN_1
  6
CONTINUOUS
 66
     1
 40
0.005795
 41
0.005795
  0
VERTEX
  8
PLAN_1
  6
CONTINUOUS
 10
-1.174020
 20
1.385134
  0
VERTEX
  8
PLAN_1
  6
CONTINUOUS
 10
-0.895307
 20
1.385134
  0
SEQEND
  8
0
  0
POLYLINE
  8
PLAN_1
  6
CONTINUOUS
 66
     1
 40
0.005795
 41
0.005795
  0
VERTEX
  8
PLAN_1
  6
CONTINUOUS
 10
-0.894780
 20
1.339823
  0
VERTEX
  8
PLAN_1
  6
CONTINUOUS
 10
-0.890039
 20
1.344563
  0
VERTEX
  8
PLAN_1
  6
CONTINUOUS
 10
-0.886350
 20
1.348780
  0
VERTEX
  8
PLAN_1
  6
CONTINUOUS
 10
-0.884244
 20
1.352992
  0
VERTEX
  8
PLAN_1
  6
CONTINUOUS
 10
-0.882661
 20
1.357209
  0
VERTEX
  8
PLAN_1
  6
CONTINUOUS
 10
-0.882134
 20
1.360898
  0
VERTEX
  8
PLAN_1
  6
CONTINUOUS
 10
-0.882134
 20
1.364587
  0
VERTEX
  8
PLAN_1
  6
CONTINUOUS
 10
-0.882661
 20
1.368272
  0
VERTEX
  8
PLAN_1
  6
CONTINUOUS
 10
-0.883717
 20
1.371433
  0
VERTEX
  8
PLAN_1
  6
CONTINUOUS
 10
-0.886878
 20
1.377228
  0
VERTEX
  8
PLAN_1
  6
CONTINUOUS
 10
-0.890563
 20
1.381445
  0
VERTEX
  8
PLAN_1
  6
CONTINUOUS
 10
-0.893201
 20
1.384606
  0
VERTEX
  8
PLAN_1
  6
CONTINUOUS
 10
-0.894780
 20
1.385661
  0
SEQEND
  8
0
  0
POLYLINE
  8
PLAN_1
  6
CONTINUOUS
 66
     1
 40
0.005795
 41
0.005795
  0
VERTEX
  8
PLAN_1
  6
CONTINUOUS
 10
-0.894780
 20
1.385661
  0
VERTEX
  8
PLAN_1
  6
CONTINUOUS
 10
-1.174020
 20
1.385661
  0
SEQEND
  8
0
  0
POLYLINE
  8
PLAN_1
  6
CONTINUOUS
 66
     1
 40
0.005795
 41
0.005795
  0
VERTEX
  8
PLAN_1
  6
CONTINUOUS
 10
-1.174020
 20
1.385661
  0
VERTEX
  8
PLAN_1
  6
CONTINUOUS
 10
-1.175075
 20
1.384606
  0
VERTEX
  8
PLAN_1
  6
CONTINUOUS
 10
-1.177181
 20
1.381972
  0
VERTEX
  8
PLAN_1
  6
CONTINUOUS
 10
-1.180343
 20
1.377756
  0
VERTEX
  8
PLAN_1
  6
CONTINUOUS
 10
-1.183504
 20
1.372488
  0
VERTEX
  8
PLAN_1
  6
CONTINUOUS
 10
-1.184559
 20
1.368799
  0
VERTEX
  8
PLAN_1
  6
CONTINUOUS
 10
-1.185083
 20
1.365638
  0
VERTEX
  8
PLAN_1
  6
CONTINUOUS
 10
-1.185083
 20
1.361949
  0
VERTEX
  8
PLAN_1
  6
CONTINUOUS
 10
-1.184559
 20
1.357736
  0
VERTEX
  8
PLAN_1
  6
CONTINUOUS
 10
-1.182976
 20
1.353520
  0
VERTEX
  8
PLAN_1
  6
CONTINUOUS
 10
-1.180870
 20
1.349307
  0
VERTEX
  8
PLAN_1
  6
CONTINUOUS
 10
-1.178236
 20
1.344563
  0
VERTEX
  8
PLAN_1
  6
CONTINUOUS
 10
-1.174020
 20
1.339823
  0
SEQEND
  8
0
  0
POLYLINE
  8
PLAN_1
  6
CONTINUOUS
 66
     1
 40
0.005795
 41
0.005795
  0
VERTEX
  8
PLAN_1
  6
CONTINUOUS
 10
-1.174020
 20
1.339823
  0
VERTEX
  8
PLAN_1
  6
CONTINUOUS
 10
-0.894780
 20
1.339823
  0
SEQEND
  8
0
  0
POLYLINE
  8
PLAN_1
  6
CONTINUOUS
 66
     1
 40
0.005795
 41
0.005795
  0
VERTEX
  8
PLAN_1
  6
CONTINUOUS
 10
-0.895307
 20
1.295039
  0
VERTEX
  8
PLAN_1
  6
CONTINUOUS
 10
-0.890563
 20
1.299252
  0
VERTEX
  8
PLAN_1
  6
CONTINUOUS
 10
-0.886878
 20
1.303996
  0
VERTEX
  8
PLAN_1
  6
CONTINUOUS
 10
-0.884244
 20
1.308209
  0
VERTEX
  8
PLAN_1
  6
CONTINUOUS
 10
-0.883189
 20
1.311898
  0
VERTEX
  8
PLAN_1
  6
CONTINUOUS
 10
-0.882134
 20
1.316114
  0
VERTEX
  8
PLAN_1
  6
CONTINUOUS
 10
-0.882661
 20
1.319799
  0
VERTEX
  8
PLAN_1
  6
CONTINUOUS
 10
-0.883189
 20
1.323488
  0
VERTEX
  8
PLAN_1
  6
CONTINUOUS
 10
-0.884244
 20
1.326650
  0
VERTEX
  8
PLAN_1
  6
CONTINUOUS
 10
-0.887402
 20
1.332445
  0
VERTEX
  8
PLAN_1
  6
CONTINUOUS
 10
-0.891091
 20
1.336661
  0
VERTEX
  8
PLAN_1
  6
CONTINUOUS
 10
-0.893724
 20
1.339295
  0
VERTEX
  8
PLAN_1
  6
CONTINUOUS
 10
-0.895307
 20
1.340350
  0
SEQEND
  8
0
  0
POLYLINE
  8
PLAN_1
  6
CONTINUOUS
 66
     1
 40
0.005795
 41
0.005795
  0
VERTEX
  8
PLAN_1
  6
CONTINUOUS
 10
-0.895307
 20
1.340350
  0
VERTEX
  8
PLAN_1
  6
CONTINUOUS
 10
-1.174020
 20
1.340350
  0
SEQEND
  8
0
  0
POLYLINE
  8
PLAN_1
  6
CONTINUOUS
 66
     1
 40
0.005795
 41
0.005795
  0
VERTEX
  8
PLAN_1
  6
CONTINUOUS
 10
-1.174020
 20
1.340350
  0
VERTEX
  8
PLAN_1
  6
CONTINUOUS
 10
-1.175075
 20
1.339823
  0
VERTEX
  8
PLAN_1
  6
CONTINUOUS
 10
-1.177709
 20
1.337189
  0
VERTEX
  8
PLAN_1
  6
CONTINUOUS
 10
-1.180870
 20
1.332972
  0
VERTEX
  8
PLAN_1
  6
CONTINUOUS
 10
-1.183504
 20
1.327177
  0
VERTEX
  8
PLAN_1
  6
CONTINUOUS
 10
-1.184559
 20
1.324016
  0
VERTEX
  8
PLAN_1
  6
CONTINUOUS
 10
-1.185083
 20
1.320327
  0
VERTEX
  8
PLAN_1
  6
CONTINUOUS
 10
-1.185610
 20
1.316638
  0
VERTEX
  8
PLAN_1
  6
CONTINUOUS
 10
-1.185083
 20
1.312953
  0
VERTEX
  8
PLAN_1
  6
CONTINUOUS
 10
-1.183504
 20
1.308736
  0
VERTEX
  8
PLAN_1
  6
CONTINUOUS
 10
-1.181398
 20
1.304524
  0
VERTEX
  8
PLAN_1
  6
CONTINUOUS
 10
-1.178236
 20
1.299780
  0
VERTEX
  8
PLAN_1
  6
CONTINUOUS
 10
-1.174020
 20
1.295039
  0
SEQEND
  8
0
  0
POLYLINE
  8
PLAN_1
  6
CONTINUOUS
 66
     1
 40
0.005795
 41
0.005795
  0
VERTEX
  8
PLAN_1
  6
CONTINUOUS
 10
-1.174020
 20
1.295039
  0
VERTEX
  8
PLAN_1
  6
CONTINUOUS
 10
-0.895307
 20
1.295039
  0
SEQEND
  8
0
  0
POLYLINE
  8
PLAN_1
  6
CONTINUOUS
 66
     1
 40
0.005795
 41
0.005795
  0
VERTEX
  8
PLAN_1
  6
CONTINUOUS
 10
-0.894780
 20
1.250256
  0
VERTEX
  8
PLAN_1
  6
CONTINUOUS
 10
-0.890039
 20
1.254469
  0
VERTEX
  8
PLAN_1
  6
CONTINUOUS
 10
-0.886350
 20
1.258685
  0
VERTEX
  8
PLAN_1
  6
CONTINUOUS
 10
-0.884244
 20
1.262898
  0
VERTEX
  8
PLAN_1
  6
CONTINUOUS
 10
-0.882661
 20
1.267114
  0
VERTEX
  8
PLAN_1
  6
CONTINUOUS
 10
-0.882134
 20
1.270803
  0
VERTEX
  8
PLAN_1
  6
CONTINUOUS
 10
-0.882134
 20
1.275016
  0
VERTEX
  8
PLAN_1
  6
CONTINUOUS
 10
-0.882661
 20
1.278177
  0
VERTEX
  8
PLAN_1
  6
CONTINUOUS
 10
-0.883717
 20
1.281866
  0
VERTEX
  8
PLAN_1
  6
CONTINUOUS
 10
-0.886878
 20
1.287134
  0
VERTEX
  8
PLAN_1
  6
CONTINUOUS
 10
-0.890563
 20
1.291878
  0
VERTEX
  8
PLAN_1
  6
CONTINUOUS
 10
-0.893201
 20
1.294512
  0
VERTEX
  8
PLAN_1
  6
CONTINUOUS
 10
-0.894780
 20
1.295563
  0
SEQEND
  8
0
  0
POLYLINE
  8
PLAN_1
  6
CONTINUOUS
 66
     1
 40
0.005795
 41
0.005795
  0
VERTEX
  8
PLAN_1
  6
CONTINUOUS
 10
-0.894780
 20
1.295563
  0
VERTEX
  8
PLAN_1
  6
CONTINUOUS
 10
-1.174020
 20
1.295563
  0
SEQEND
  8
0
  0
POLYLINE
  8
PLAN_1
  6
CONTINUOUS
 66
     1
 40
0.005795
 41
0.005795
  0
VERTEX
  8
PLAN_1
  6
CONTINUOUS
 10
-1.174020
 20
1.295563
  0
VERTEX
  8
PLAN_1
  6
CONTINUOUS
 10
-1.175075
 20
1.294512
  0
VERTEX
  8
PLAN_1
  6
CONTINUOUS
 10
-1.177181
 20
1.291878
  0
VERTEX
  8
PLAN_1
  6
CONTINUOUS
 10
-1.180343
 20
1.287661
  0
VERTEX
  8
PLAN_1
  6
CONTINUOUS
 10
-1.183504
 20
1.282394
  0
VERTEX
  8
PLAN_1
  6
CONTINUOUS
 10
-1.184559
 20
1.279232
  0
VERTEX
  8
PLAN_1
  6
CONTINUOUS
 10
-1.185083
 20
1.275543
  0
VERTEX
  8
PLAN_1
  6
CONTINUOUS
 10
-1.185083
 20
1.271854
  0
VERTEX
  8
PLAN_1
  6
CONTINUOUS
 10
-1.184559
 20
1.267642
  0
VERTEX
  8
PLAN_1
  6
CONTINUOUS
 10
-1.182976
 20
1.263425
  0
VERTEX
  8
PLAN_1
  6
CONTINUOUS
 10
-1.180870
 20
1.259213
  0
VERTEX
  8
PLAN_1
  6
CONTINUOUS
 10
-1.178236
 20
1.254996
  0
VERTEX
  8
PLAN_1
  6
CONTINUOUS
 10
-1.174020
 20
1.250256
  0
SEQEND
  8
0
  0
POLYLINE
  8
PLAN_1
  6
CONTINUOUS
 66
     1
 40
0.005795
 41
0.005795
  0
VERTEX
  8
PLAN_1
  6
CONTINUOUS
 10
-1.174020
 20
1.250256
  0
VERTEX
  8
PLAN_1
  6
CONTINUOUS
 10
-0.894780
 20
1.250256
  0
SEQEND
  8
0
  0
POLYLINE
  8
PLAN_1
  6
CONTINUOUS
 66
     1
 40
0.005795
 41
0.005795
  0
VERTEX
  8
PLAN_1
  6
CONTINUOUS
 10
-1.154528
 20
3.102724
  0
VERTEX
  8
PLAN_1
  6
CONTINUOUS
 10
-1.154528
 20
3.958362
  0
VERTEX
  8
PLAN_1
  6
CONTINUOUS
 10
-1.107106
 20
3.958362
  0
VERTEX
  8
PLAN_1
  6
CONTINUOUS
 10
-1.107634
 20
3.129594
  0
SEQEND
  8
0
  0
POLYLINE
  8
PLAN_1
  6
CONTINUOUS
 66
     1
 40
0.005795
 41
0.005795
  0
VERTEX
  8
PLAN_1
  6
CONTINUOUS
 10
-1.107634
 20
2.969957
  0
VERTEX
  8
PLAN_1
  6
CONTINUOUS
 10
-1.108161
 20
1.972063
  0
SEQEND
  8
0
  0
POLYLINE
  8
PLAN_1
  6
CONTINUOUS
 66
     1
 40
0.005795
 41
0.005795
  0
VERTEX
  8
PLAN_1
  6
CONTINUOUS
 10
-1.108161
 20
1.972063
  0
VERTEX
  8
PLAN_1
  6
CONTINUOUS
 10
-1.108689
 20
1.970484
  0
VERTEX
  8
PLAN_1
  6
CONTINUOUS
 10
-1.108689
 20
1.967323
  0
VERTEX
  8
PLAN_1
  6
CONTINUOUS
 10
-1.109217
 20
1.962583
  0
VERTEX
  8
PLAN_1
  6
CONTINUOUS
 10
-1.108689
 20
1.956260
  0
VERTEX
  8
PLAN_1
  6
CONTINUOUS
 10
-1.108161
 20
1.952571
  0
VERTEX
  8
PLAN_1
  6
CONTINUOUS
 10
-1.107106
 20
1.948882
  0
VERTEX
  8
PLAN_1
  6
CONTINUOUS
 10
-1.105528
 20
1.944669
  0
VERTEX
  8
PLAN_1
  6
CONTINUOUS
 10
-1.103945
 20
1.940453
  0
VERTEX
  8
PLAN_1
  6
CONTINUOUS
 10
-1.101311
 20
1.936236
  0
VERTEX
  8
PLAN_1
  6
CONTINUOUS
 10
-1.098677
 20
1.932024
  0
VERTEX
  8
PLAN_1
  6
CONTINUOUS
 10
-1.094988
 20
1.927807
  0
VERTEX
  8
PLAN_1
  6
CONTINUOUS
 10
-1.090776
 20
1.923067
  0
VERTEX
  8
PLAN_1
  6
CONTINUOUS
 10
-1.087087
 20
1.919906
  0
VERTEX
  8
PLAN_1
  6
CONTINUOUS
 10
-1.082870
 20
1.917272
  0
VERTEX
  8
PLAN_1
  6
CONTINUOUS
 10
-1.077602
 20
1.914110
  0
VERTEX
  8
PLAN_1
  6
CONTINUOUS
 10
-1.072335
 20
1.911476
  0
VERTEX
  8
PLAN_1
  6
CONTINUOUS
 10
-1.061272
 20
1.905681
  0
VERTEX
  8
PLAN_1
  6
CONTINUOUS
 10
-1.049154
 20
1.900409
  0
VERTEX
  8
PLAN_1
  6
CONTINUOUS
 10
-1.036508
 20
1.895142
  0
VERTEX
  8
PLAN_1
  6
CONTINUOUS
 10
-1.025445
 20
1.890402
  0
VERTEX
  8
PLAN_1
  6
CONTINUOUS
 10
-1.014906
 20
1.885657
  0
VERTEX
  8
PLAN_1
  6
CONTINUOUS
 10
-1.007004
 20
1.881445
  0
SEQEND
  8
0
  0
POLYLINE
  8
PLAN_1
  6
CONTINUOUS
 66
     1
 40
0.005795
 41
0.005795
  0
VERTEX
  8
PLAN_1
  6
CONTINUOUS
 10
-1.007004
 20
1.881445
  0
VERTEX
  8
PLAN_1
  6
CONTINUOUS
 10
-1.075496
 20
1.881445
  0
SEQEND
  8
0
  0
POLYLINE
  8
PLAN_1
  6
CONTINUOUS
 66
     1
 40
0.005795
 41
0.005795
  0
VERTEX
  8
PLAN_1
  6
CONTINUOUS
 10
-1.075496
 20
1.881445
  0
VERTEX
  8
PLAN_1
  6
CONTINUOUS
 10
-1.082346
 20
1.881445
  0
VERTEX
  8
PLAN_1
  6
CONTINUOUS
 10
-1.088669
 20
1.881969
  0
VERTEX
  8
PLAN_1
  6
CONTINUOUS
 10
-1.094465
 20
1.882496
  0
VERTEX
  8
PLAN_1
  6
CONTINUOUS
 10
-1.100260
 20
1.883551
  0
VERTEX
  8
PLAN_1
  6
CONTINUOUS
 10
-1.105528
 20
1.884606
  0
VERTEX
  8
PLAN_1
  6
CONTINUOUS
 10
-1.110268
 20
1.885657
  0
VERTEX
  8
PLAN_1
  6
CONTINUOUS
 10
-1.115012
 20
1.887240
  0
VERTEX
  8
PLAN_1
  6
CONTINUOUS
 10
-1.119224
 20
1.888819
  0
VERTEX
  8
PLAN_1
  6
CONTINUOUS
 10
-1.126602
 20
1.892508
  0
VERTEX
  8
PLAN_1
  6
CONTINUOUS
 10
-1.133453
 20
1.896724
  0
VERTEX
  8
PLAN_1
  6
CONTINUOUS
 10
-1.138720
 20
1.900937
  0
VERTEX
  8
PLAN_1
  6
CONTINUOUS
 10
-1.142933
 20
1.905681
  0
VERTEX
  8
PLAN_1
  6
CONTINUOUS
 10
-1.146622
 20
1.910421
  0
VERTEX
  8
PLAN_1
  6
CONTINUOUS
 10
-1.149256
 20
1.914638
  0
VERTEX
  8
PLAN_1
  6
CONTINUOUS
 10
-1.150839
 20
1.918850
  0
VERTEX
  8
PLAN_1
  6
CONTINUOUS
 10
-1.152417
 20
1.922539
  0
VERTEX
  8
PLAN_1
  6
CONTINUOUS
 10
-1.154000
 20
1.928335
  0
VERTEX
  8
PLAN_1
  6
CONTINUOUS
 10
-1.154528
 20
1.930441
  0
SEQEND
  8
0
  0
POLYLINE
  8
PLAN_1
  6
CONTINUOUS
 66
     1
 40
0.005795
 41
0.005795
  0
VERTEX
  8
PLAN_1
  6
CONTINUOUS
 10
-1.154528
 20
1.930441
  0
VERTEX
  8
PLAN_1
  6
CONTINUOUS
 10
-1.154528
 20
2.943083
  0
SEQEND
  8
0
  0
POLYLINE
  8
PLAN_1
 62
     5
  6
CONTINUOUS
 66
     1
 40
0.003000
 41
0.003000
  0
VERTEX
  8
PLAN_1
 62
     5
  6
CONTINUOUS
 10
-2.455894
 20
-1.210224
  0
VERTEX
  8
PLAN_1
 62
     5
  6
CONTINUOUS
 10
-2.455894
 20
-1.201795
  0
SEQEND
  8
0
  0
POLYLINE
  8
PLAN_1
 62
     5
  6
CONTINUOUS
 66
     1
 40
0.003000
 41
0.003000
  0
VERTEX
  8
PLAN_1
 62
     5
  6
CONTINUOUS
 10
-2.455894
 20
-1.193366
  0
VERTEX
  8
PLAN_1
 62
     5
  6
CONTINUOUS
 10
-2.455894
 20
-1.184933
  0
SEQEND
  8
0
  0
POLYLINE
  8
PLAN_1
 62
     5
  6
CONTINUOUS
 66
     1
 40
0.003000
 41
0.003000
  0
VERTEX
  8
PLAN_1
 62
     5
  6
CONTINUOUS
 10
-2.455894
 20
-1.176504
  0
VERTEX
  8
PLAN_1
 62
     5
  6
CONTINUOUS
 10
-2.455894
 20
-1.168075
  0
SEQEND
  8
0
  0
POLYLINE
  8
PLAN_1
 62
     5
  6
CONTINUOUS
 66
     1
 40
0.003000
 41
0.003000
  0
VERTEX
  8
PLAN_1
 62
     5
  6
CONTINUOUS
 10
-2.455894
 20
-1.160173
  0
VERTEX
  8
PLAN_1
 62
     5
  6
CONTINUOUS
 10
-2.455894
 20
-1.151740
  0
SEQEND
  8
0
  0
POLYLINE
  8
PLAN_1
 62
     5
  6
CONTINUOUS
 66
     1
 40
0.003000
 41
0.003000
  0
VERTEX
  8
PLAN_1
 62
     5
  6
CONTINUOUS
 10
-2.455894
 20
-1.143311
  0
VERTEX
  8
PLAN_1
 62
     5
  6
CONTINUOUS
 10
-2.455894
 20
-1.134882
  0
SEQEND
  8
0
  0
POLYLINE
  8
PLAN_1
 62
     5
  6
CONTINUOUS
 66
     1
 40
0.003000
 41
0.003000
  0
VERTEX
  8
PLAN_1
 62
     5
  6
CONTINUOUS
 10
-2.455894
 20
-1.126453
  0
VERTEX
  8
PLAN_1
 62
     5
  6
CONTINUOUS
 10
-2.455894
 20
-1.118547
  0
SEQEND
  8
0
  0
POLYLINE
  8
PLAN_1
 62
     5
  6
CONTINUOUS
 66
     1
 40
0.003000
 41
0.003000
  0
VERTEX
  8
PLAN_1
 62
     5
  6
CONTINUOUS
 10
-2.455894
 20
-1.110118
  0
VERTEX
  8
PLAN_1
 62
     5
  6
CONTINUOUS
 10
-2.455894
 20
-1.101689
  0
SEQEND
  8
0
  0
POLYLINE
  8
PLAN_1
 62
     5
  6
CONTINUOUS
 66
     1
 40
0.003000
 41
0.003000
  0
VERTEX
  8
PLAN_1
 62
     5
  6
CONTINUOUS
 10
-2.455894
 20
-1.093260
  0
VERTEX
  8
PLAN_1
 62
     5
  6
CONTINUOUS
 10
-2.455894
 20
-1.084831
  0
SEQEND
  8
0
  0
POLYLINE
  8
PLAN_1
 62
     5
  6
CONTINUOUS
 66
     1
 40
0.003000
 41
0.003000
  0
VERTEX
  8
PLAN_1
 62
     5
  6
CONTINUOUS
 10
-2.455894
 20
-1.076925
  0
VERTEX
  8
PLAN_1
 62
     5
  6
CONTINUOUS
 10
-2.455894
 20
-1.068496
  0
SEQEND
  8
0
  0
POLYLINE
  8
PLAN_1
 62
     5
  6
CONTINUOUS
 66
     1
 40
0.003000
 41
0.003000
  0
VERTEX
  8
PLAN_1
 62
     5
  6
CONTINUOUS
 10
-2.455894
 20
-1.060067
  0
VERTEX
  8
PLAN_1
 62
     5
  6
CONTINUOUS
 10
-2.455894
 20
-1.051638
  0
SEQEND
  8
0
  0
POLYLINE
  8
PLAN_1
 62
     5
  6
CONTINUOUS
 66
     1
 40
0.003000
 41
0.003000
  0
VERTEX
  8
PLAN_1
 62
     5
  6
CONTINUOUS
 10
-2.455894
 20
-1.043209
  0
VERTEX
  8
PLAN_1
 62
     5
  6
CONTINUOUS
 10
-2.455894
 20
-1.035303
  0
SEQEND
  8
0
  0
POLYLINE
  8
PLAN_1
 62
     5
  6
CONTINUOUS
 66
     1
 40
0.003000
 41
0.003000
  0
VERTEX
  8
PLAN_1
 62
     5
  6
CONTINUOUS
 10
-2.455894
 20
-1.026874
  0
VERTEX
  8
PLAN_1
 62
     5
  6
CONTINUOUS
 10
-2.455894
 20
-1.018445
  0
SEQEND
  8
0
  0
POLYLINE
  8
PLAN_1
 62
     5
  6
CONTINUOUS
 66
     1
 40
0.003000
 41
0.003000
  0
VERTEX
  8
PLAN_1
 62
     5
  6
CONTINUOUS
 10
-2.455894
 20
-1.010016
  0
VERTEX
  8
PLAN_1
 62
     5
  6
CONTINUOUS
 10
-2.455894
 20
-1.001583
  0
SEQEND
  8
0
  0
POLYLINE
  8
PLAN_1
 62
     5
  6
CONTINUOUS
 66
     1
 40
0.003000
 41
0.003000
  0
VERTEX
  8
PLAN_1
 62
     5
  6
CONTINUOUS
 10
-2.455894
 20
-0.993154
  0
VERTEX
  8
PLAN_1
 62
     5
  6
CONTINUOUS
 10
-2.455894
 20
-0.985252
  0
SEQEND
  8
0
  0
POLYLINE
  8
PLAN_1
 62
     5
  6
CONTINUOUS
 66
     1
 40
0.003000
 41
0.003000
  0
VERTEX
  8
PLAN_1
 62
     5
  6
CONTINUOUS
 10
-2.455894
 20
-0.976823
  0
VERTEX
  8
PLAN_1
 62
     5
  6
CONTINUOUS
 10
-2.455894
 20
-0.968390
  0
SEQEND
  8
0
  0
POLYLINE
  8
PLAN_1
 62
     5
  6
CONTINUOUS
 66
     1
 40
0.003000
 41
0.003000
  0
VERTEX
  8
PLAN_1
 62
     5
  6
CONTINUOUS
 10
-2.455894
 20
-0.959961
  0
VERTEX
  8
PLAN_1
 62
     5
  6
CONTINUOUS
 10
-2.455894
 20
-0.951531
  0
SEQEND
  8
0
  0
POLYLINE
  8
PLAN_1
 62
     5
  6
CONTINUOUS
 66
     1
 40
0.003000
 41
0.003000
  0
VERTEX
  8
PLAN_1
 62
     5
  6
CONTINUOUS
 10
-2.455894
 20
-0.943630
  0
VERTEX
  8
PLAN_1
 62
     5
  6
CONTINUOUS
 10
-2.455894
 20
-0.935197
  0
SEQEND
  8
0
  0
POLYLINE
  8
PLAN_1
 62
     5
  6
CONTINUOUS
 66
     1
 40
0.003000
 41
0.003000
  0
VERTEX
  8
PLAN_1
 62
     5
  6
CONTINUOUS
 10
-2.455894
 20
-0.926768
  0
VERTEX
  8
PLAN_1
 62
     5
  6
CONTINUOUS
 10
-2.455894
 20
-0.918339
  0
SEQEND
  8
0
  0
POLYLINE
  8
PLAN_1
 62
     5
  6
CONTINUOUS
 66
     1
 40
0.003000
 41
0.003000
  0
VERTEX
  8
PLAN_1
 62
     5
  6
CONTINUOUS
 10
-2.455894
 20
-0.909909
  0
VERTEX
  8
PLAN_1
 62
     5
  6
CONTINUOUS
 10
-2.455894
 20
-0.902004
  0
SEQEND
  8
0
  0
POLYLINE
  8
PLAN_1
 62
     5
  6
CONTINUOUS
 66
     1
 40
0.003000
 41
0.003000
  0
VERTEX
  8
PLAN_1
 62
     5
  6
CONTINUOUS
 10
-2.455894
 20
-0.893575
  0
VERTEX
  8
PLAN_1
 62
     5
  6
CONTINUOUS
 10
-2.455894
 20
-0.885146
  0
SEQEND
  8
0
  0
POLYLINE
  8
PLAN_1
 62
     5
  6
CONTINUOUS
 66
     1
 40
0.003000
 41
0.003000
  0
VERTEX
  8
PLAN_1
 62
     5
  6
CONTINUOUS
 10
-2.455894
 20
-0.876717
  0
VERTEX
  8
PLAN_1
 62
     5
  6
CONTINUOUS
 10
-2.455894
 20
-0.868287
  0
SEQEND
  8
0
  0
POLYLINE
  8
PLAN_1
 62
     5
  6
CONTINUOUS
 66
     1
 40
0.003000
 41
0.003000
  0
VERTEX
  8
PLAN_1
 62
     5
  6
CONTINUOUS
 10
-2.455894
 20
-0.860382
  0
VERTEX
  8
PLAN_1
 62
     5
  6
CONTINUOUS
 10
-2.455894
 20
-0.851953
  0
SEQEND
  8
0
  0
POLYLINE
  8
PLAN_1
 62
     5
  6
CONTINUOUS
 66
     1
 40
0.003000
 41
0.003000
  0
VERTEX
  8
PLAN_1
 62
     5
  6
CONTINUOUS
 10
-2.455894
 20
-0.843524
  0
VERTEX
  8
PLAN_1
 62
     5
  6
CONTINUOUS
 10
-2.455894
 20
-0.835094
  0
SEQEND
  8
0
  0
POLYLINE
  8
PLAN_1
 62
     5
  6
CONTINUOUS
 66
     1
 40
0.003000
 41
0.003000
  0
VERTEX
  8
PLAN_1
 62
     5
  6
CONTINUOUS
 10
-2.455894
 20
-0.826665
  0
VERTEX
  8
PLAN_1
 62
     5
  6
CONTINUOUS
 10
-2.455894
 20
-0.818232
  0
SEQEND
  8
0
  0
POLYLINE
  8
PLAN_1
 62
     5
  6
CONTINUOUS
 66
     1
 40
0.003000
 41
0.003000
  0
VERTEX
  8
PLAN_1
 62
     5
  6
CONTINUOUS
 10
-2.455894
 20
-0.810331
  0
VERTEX
  8
PLAN_1
 62
     5
  6
CONTINUOUS
 10
-2.455894
 20
-0.801902
  0
SEQEND
  8
0
  0
POLYLINE
  8
PLAN_1
 62
     5
  6
CONTINUOUS
 66
     1
 40
0.003000
 41
0.003000
  0
VERTEX
  8
PLAN_1
 62
     5
  6
CONTINUOUS
 10
-2.455894
 20
-0.793472
  0
VERTEX
  8
PLAN_1
 62
     5
  6
CONTINUOUS
 10
-2.455894
 20
-0.785039
  0
SEQEND
  8
0
  0
POLYLINE
  8
PLAN_1
 62
     5
  6
CONTINUOUS
 66
     1
 40
0.003000
 41
0.003000
  0
VERTEX
  8
PLAN_1
 62
     5
  6
CONTINUOUS
 10
-2.455894
 20
-0.776610
  0
VERTEX
  8
PLAN_1
 62
     5
  6
CONTINUOUS
 10
-2.455894
 20
-0.768709
  0
SEQEND
  8
0
  0
POLYLINE
  8
PLAN_1
 62
     5
  6
CONTINUOUS
 66
     1
 40
0.003000
 41
0.003000
  0
VERTEX
  8
PLAN_1
 62
     5
  6
CONTINUOUS
 10
-2.455894
 20
-0.760280
  0
VERTEX
  8
PLAN_1
 62
     5
  6
CONTINUOUS
 10
-2.455894
 20
-0.751846
  0
SEQEND
  8
0
  0
POLYLINE
  8
PLAN_1
 62
     5
  6
CONTINUOUS
 66
     1
 40
0.003000
 41
0.003000
  0
VERTEX
  8
PLAN_1
 62
     5
  6
CONTINUOUS
 10
-2.455894
 20
-0.743417
  0
VERTEX
  8
PLAN_1
 62
     5
  6
CONTINUOUS
 10
-2.455894
 20
-0.734988
  0
SEQEND
  8
0
  0
POLYLINE
  8
PLAN_1
 62
     5
  6
CONTINUOUS
 66
     1
 40
0.003000
 41
0.003000
  0
VERTEX
  8
PLAN_1
 62
     5
  6
CONTINUOUS
 10
-2.455894
 20
-0.727087
  0
VERTEX
  8
PLAN_1
 62
     5
  6
CONTINUOUS
 10
-2.455894
 20
-0.718654
  0
SEQEND
  8
0
  0
POLYLINE
  8
PLAN_1
 62
     5
  6
CONTINUOUS
 66
     1
 40
0.003000
 41
0.003000
  0
VERTEX
  8
PLAN_1
 62
     5
  6
CONTINUOUS
 10
-2.455894
 20
-0.710224
  0
VERTEX
  8
PLAN_1
 62
     5
  6
CONTINUOUS
 10
-2.455894
 20
-0.701795
  0
SEQEND
  8
0
  0
POLYLINE
  8
PLAN_1
 62
     5
  6
CONTINUOUS
 66
     1
 40
0.003000
 41
0.003000
  0
VERTEX
  8
PLAN_1
 62
     5
  6
CONTINUOUS
 10
-2.455894
 20
-0.693366
  0
VERTEX
  8
PLAN_1
 62
     5
  6
CONTINUOUS
 10
-2.455894
 20
-0.685465
  0
SEQEND
  8
0
  0
POLYLINE
  8
PLAN_1
 62
     5
  6
CONTINUOUS
 66
     1
 40
0.003000
 41
0.003000
  0
VERTEX
  8
PLAN_1
 62
     5
  6
CONTINUOUS
 10
-2.455894
 20
-0.677031
  0
VERTEX
  8
PLAN_1
 62
     5
  6
CONTINUOUS
 10
-2.455894
 20
-0.668602
  0
SEQEND
  8
0
  0
POLYLINE
  8
PLAN_1
 62
     5
  6
CONTINUOUS
 66
     1
 40
0.003000
 41
0.003000
  0
VERTEX
  8
PLAN_1
 62
     5
  6
CONTINUOUS
 10
-2.455894
 20
-0.660173
  0
VERTEX
  8
PLAN_1
 62
     5
  6
CONTINUOUS
 10
-2.455894
 20
-0.651744
  0
SEQEND
  8
0
  0
POLYLINE
  8
PLAN_1
 62
     5
  6
CONTINUOUS
 66
     1
 40
0.003000
 41
0.003000
  0
VERTEX
  8
PLAN_1
 62
     5
  6
CONTINUOUS
 10
-2.455894
 20
-0.643315
  0
VERTEX
  8
PLAN_1
 62
     5
  6
CONTINUOUS
 10
-2.455894
 20
-0.635409
  0
SEQEND
  8
0
  0
POLYLINE
  8
PLAN_1
 62
     5
  6
CONTINUOUS
 66
     1
 40
0.003000
 41
0.003000
  0
VERTEX
  8
PLAN_1
 62
     5
  6
CONTINUOUS
 10
-2.455894
 20
-0.626980
  0
VERTEX
  8
PLAN_1
 62
     5
  6
CONTINUOUS
 10
-2.455894
 20
-0.618551
  0
SEQEND
  8
0
  0
POLYLINE
  8
PLAN_1
 62
     5
  6
CONTINUOUS
 66
     1
 40
0.003000
 41
0.003000
  0
VERTEX
  8
PLAN_1
 62
     5
  6
CONTINUOUS
 10
-2.455894
 20
-0.610122
  0
VERTEX
  8
PLAN_1
 62
     5
  6
CONTINUOUS
 10
-2.455894
 20
-0.603799
  0
SEQEND
  8
0
  0
POLYLINE
  8
PLAN_1
 62
     5
  6
CONTINUOUS
 66
     1
 40
0.003000
 41
0.003000
  0
VERTEX
  8
PLAN_1
 62
     5
  6
CONTINUOUS
 10
-2.455894
 20
-0.610122
  0
VERTEX
  8
PLAN_1
 62
     5
  6
CONTINUOUS
 10
-2.455894
 20
-0.603799
  0
SEQEND
  8
0
  0
POLYLINE
  8
PLAN_1
 62
     5
  6
CONTINUOUS
 66
     1
 40
0.003000
 41
0.003000
  0
VERTEX
  8
PLAN_1
 62
     5
  6
CONTINUOUS
 10
-2.455894
 20
-0.603799
  0
VERTEX
  8
PLAN_1
 62
     5
  6
CONTINUOUS
 10
-2.455366
 20
-0.596421
  0
VERTEX
  8
PLAN_1
 62
     5
  6
CONTINUOUS
 10
-2.455366
 20
-0.595366
  0
SEQEND
  8
0
  0
POLYLINE
  8
PLAN_1
 62
     5
  6
CONTINUOUS
 66
     1
 40
0.003000
 41
0.003000
  0
VERTEX
  8
PLAN_1
 62
     5
  6
CONTINUOUS
 10
-2.453783
 20
-0.587465
  0
VERTEX
  8
PLAN_1
 62
     5
  6
CONTINUOUS
 10
-2.452732
 20
-0.579035
  0
SEQEND
  8
0
  0
POLYLINE
  8
PLAN_1
 62
     5
  6
CONTINUOUS
 66
     1
 40
0.003000
 41
0.003000
  0
VERTEX
  8
PLAN_1
 62
     5
  6
CONTINUOUS
 10
-2.450622
 20
-0.571134
  0
VERTEX
  8
PLAN_1
 62
     5
  6
CONTINUOUS
 10
-2.448516
 20
-0.563228
  0
VERTEX
  8
PLAN_1
 62
     5
  6
CONTINUOUS
 10
-2.448516
 20
-0.562701
  0
SEQEND
  8
0
  0
POLYLINE
  8
PLAN_1
 62
     5
  6
CONTINUOUS
 66
     1
 40
0.003000
 41
0.003000
  0
VERTEX
  8
PLAN_1
 62
     5
  6
CONTINUOUS
 10
-2.445882
 20
-0.554799
  0
VERTEX
  8
PLAN_1
 62
     5
  6
CONTINUOUS
 10
-2.443776
 20
-0.548476
  0
VERTEX
  8
PLAN_1
 62
     5
  6
CONTINUOUS
 10
-2.443248
 20
-0.546898
  0
SEQEND
  8
0
  0
POLYLINE
  8
PLAN_1
 62
     5
  6
CONTINUOUS
 66
     1
 40
0.003000
 41
0.003000
  0
VERTEX
  8
PLAN_1
 62
     5
  6
CONTINUOUS
 10
-2.440087
 20
-0.539520
  0
VERTEX
  8
PLAN_1
 62
     5
  6
CONTINUOUS
 10
-2.437453
 20
-0.533197
  0
VERTEX
  8
PLAN_1
 62
     5
  6
CONTINUOUS
 10
-2.436398
 20
-0.531618
  0
SEQEND
  8
0
  0
POLYLINE
  8
PLAN_1
 62
     5
  6
CONTINUOUS
 66
     1
 40
0.003000
 41
0.003000
  0
VERTEX
  8
PLAN_1
 62
     5
  6
CONTINUOUS
 10
-2.432709
 20
-0.524240
  0
VERTEX
  8
PLAN_1
 62
     5
  6
CONTINUOUS
 10
-2.428496
 20
-0.517390
  0
SEQEND
  8
0
  0
POLYLINE
  8
PLAN_1
 62
     5
  6
CONTINUOUS
 66
     1
 40
0.003000
 41
0.003000
  0
VERTEX
  8
PLAN_1
 62
     5
  6
CONTINUOUS
 10
-2.424280
 20
-0.510016
  0
VERTEX
  8
PLAN_1
 62
     5
  6
CONTINUOUS
 10
-2.423228
 20
-0.508433
  0
VERTEX
  8
PLAN_1
 62
     5
  6
CONTINUOUS
 10
-2.419539
 20
-0.503165
  0
SEQEND
  8
0
  0
POLYLINE
  8
PLAN_1
 62
     5
  6
CONTINUOUS
 66
     1
 40
0.003000
 41
0.003000
  0
VERTEX
  8
PLAN_1
 62
     5
  6
CONTINUOUS
 10
-2.414272
 20
-0.496843
  0
VERTEX
  8
PLAN_1
 62
     5
  6
CONTINUOUS
 10
-2.410583
 20
-0.492630
  0
VERTEX
  8
PLAN_1
 62
     5
  6
CONTINUOUS
 10
-2.409000
 20
-0.490520
  0
SEQEND
  8
0
  0
POLYLINE
  8
PLAN_1
 62
     5
  6
CONTINUOUS
 66
     1
 40
0.003000
 41
0.003000
  0
VERTEX
  8
PLAN_1
 62
     5
  6
CONTINUOUS
 10
-2.403205
 20
-0.484197
  0
VERTEX
  8
PLAN_1
 62
     5
  6
CONTINUOUS
 10
-2.396882
 20
-0.478929
  0
SEQEND
  8
0
  0
POLYLINE
  8
PLAN_1
 62
     5
  6
CONTINUOUS
 66
     1
 40
0.003000
 41
0.003000
  0
VERTEX
  8
PLAN_1
 62
     5
  6
CONTINUOUS
 10
-2.390559
 20
-0.473134
  0
VERTEX
  8
PLAN_1
 62
     5
  6
CONTINUOUS
 10
-2.386874
 20
-0.469972
  0
VERTEX
  8
PLAN_1
 62
     5
  6
CONTINUOUS
 10
-2.384240
 20
-0.468394
  0
SEQEND
  8
0
  0
POLYLINE
  8
PLAN_1
 62
     5
  6
CONTINUOUS
 66
     1
 40
0.003000
 41
0.003000
  0
VERTEX
  8
PLAN_1
 62
     5
  6
CONTINUOUS
 10
-2.377390
 20
-0.463122
  0
VERTEX
  8
PLAN_1
 62
     5
  6
CONTINUOUS
 10
-2.376862
 20
-0.463122
  0
VERTEX
  8
PLAN_1
 62
     5
  6
CONTINUOUS
 10
-2.370539
 20
-0.458909
  0
SEQEND
  8
0
  0
POLYLINE
  8
PLAN_1
 62
     5
  6
CONTINUOUS
 66
     1
 40
0.003000
 41
0.003000
  0
VERTEX
  8
PLAN_1
 62
     5
  6
CONTINUOUS
 10
-2.363165
 20
-0.454693
  0
VERTEX
  8
PLAN_1
 62
     5
  6
CONTINUOUS
 10
-2.355787
 20
-0.451004
  0
SEQEND
  8
0
  0
POLYLINE
  8
PLAN_1
 62
     5
  6
CONTINUOUS
 66
     1
 40
0.003000
 41
0.003000
  0
VERTEX
  8
PLAN_1
 62
     5
  6
CONTINUOUS
 10
-2.347886
 20
-0.447846
  0
VERTEX
  8
PLAN_1
 62
     5
  6
CONTINUOUS
 10
-2.343142
 20
-0.445736
  0
VERTEX
  8
PLAN_1
 62
     5
  6
CONTINUOUS
 10
-2.340508
 20
-0.444685
  0
SEQEND
  8
0
  0
POLYLINE
  8
PLAN_1
 62
     5
  6
CONTINUOUS
 66
     1
 40
0.003000
 41
0.003000
  0
VERTEX
  8
PLAN_1
 62
     5
  6
CONTINUOUS
 10
-2.332606
 20
-0.442047
  0
VERTEX
  8
PLAN_1
 62
     5
  6
CONTINUOUS
 10
-2.329972
 20
-0.440996
  0
VERTEX
  8
PLAN_1
 62
     5
  6
CONTINUOUS
 10
-2.324701
 20
-0.439413
  0
SEQEND
  8
0
  0
POLYLINE
  8
PLAN_1
 62
     5
  6
CONTINUOUS
 66
     1
 40
0.003000
 41
0.003000
  0
VERTEX
  8
PLAN_1
 62
     5
  6
CONTINUOUS
 10
-2.316272
 20
-0.437307
  0
VERTEX
  8
PLAN_1
 62
     5
  6
CONTINUOUS
 10
-2.315744
 20
-0.436780
  0
VERTEX
  8
PLAN_1
 62
     5
  6
CONTINUOUS
 10
-2.308370
 20
-0.435201
  0
SEQEND
  8
0
  0
POLYLINE
  8
PLAN_1
 62
     5
  6
CONTINUOUS
 66
     1
 40
0.003000
 41
0.003000
  0
VERTEX
  8
PLAN_1
 62
     5
  6
CONTINUOUS
 10
-2.299941
 20
-0.433618
  0
VERTEX
  8
PLAN_1
 62
     5
  6
CONTINUOUS
 10
-2.292035
 20
-0.432567
  0
SEQEND
  8
0
  0
POLYLINE
  8
PLAN_1
 62
     5
  6
CONTINUOUS
 66
     1
 40
0.003000
 41
0.003000
  0
VERTEX
  8
PLAN_1
 62
     5
  6
CONTINUOUS
 10
-2.283606
 20
-0.431512
  0
VERTEX
  8
PLAN_1
 62
     5
  6
CONTINUOUS
 10
-2.275177
 20
-0.430457
  0
SEQEND
  8
0
  0
POLYLINE
  8
PLAN_1
 62
     5
  6
CONTINUOUS
 66
     1
 40
0.003000
 41
0.003000
  0
VERTEX
  8
PLAN_1
 62
     5
  6
CONTINUOUS
 10
-2.267272
 20
-0.429933
  0
VERTEX
  8
PLAN_1
 62
     5
  6
CONTINUOUS
 10
-2.266748
 20
-0.429933
  0
VERTEX
  8
PLAN_1
 62
     5
  6
CONTINUOUS
 10
-2.258843
 20
-0.429933
  0
SEQEND
  8
0
  0
POLYLINE
  8
PLAN_1
 62
     5
  6
CONTINUOUS
 66
     1
 40
0.003000
 41
0.003000
  0
VERTEX
  8
PLAN_1
 62
     5
  6
CONTINUOUS
 10
-2.250413
 20
-0.429406
  0
VERTEX
  8
PLAN_1
 62
     5
  6
CONTINUOUS
 10
-2.248307
 20
-0.429406
  0
VERTEX
  8
PLAN_1
 62
     5
  6
CONTINUOUS
 10
-2.241984
 20
-0.429406
  0
SEQEND
  8
0
  0
POLYLINE
  8
PLAN_1
 62
     5
  6
CONTINUOUS
 66
     1
 40
0.003000
 41
0.003000
  0
VERTEX
  8
PLAN_1
 62
     5
  6
CONTINUOUS
 10
-2.233555
 20
-0.429406
  0
VERTEX
  8
PLAN_1
 62
     5
  6
CONTINUOUS
 10
-2.225650
 20
-0.429406
  0
SEQEND
  8
0
  0
POLYLINE
  8
PLAN_1
 62
     5
  6
CONTINUOUS
 66
     1
 40
0.003000
 41
0.003000
  0
VERTEX
  8
PLAN_1
 62
     5
  6
CONTINUOUS
 10
-2.217220
 20
-0.429406
  0
VERTEX
  8
PLAN_1
 62
     5
  6
CONTINUOUS
 10
-2.208791
 20
-0.429406
  0
SEQEND
  8
0
  0
POLYLINE
  8
PLAN_1
 62
     5
  6
CONTINUOUS
 66
     1
 40
0.003000
 41
0.003000
  0
VERTEX
  8
PLAN_1
 62
     5
  6
CONTINUOUS
 10
-2.200362
 20
-0.429406
  0
VERTEX
  8
PLAN_1
 62
     5
  6
CONTINUOUS
 10
-2.191933
 20
-0.429406
  0
SEQEND
  8
0
  0
POLYLINE
  8
PLAN_1
 62
     5
  6
CONTINUOUS
 66
     1
 40
0.003000
 41
0.003000
  0
VERTEX
  8
PLAN_1
 62
     5
  6
CONTINUOUS
 10
-2.184028
 20
-0.429406
  0
VERTEX
  8
PLAN_1
 62
     5
  6
CONTINUOUS
 10
-2.175598
 20
-0.429406
  0
SEQEND
  8
0
  0
POLYLINE
  8
PLAN_1
 62
     5
  6
CONTINUOUS
 66
     1
 40
0.003000
 41
0.003000
  0
VERTEX
  8
PLAN_1
 62
     5
  6
CONTINUOUS
 10
-2.167169
 20
-0.429406
  0
VERTEX
  8
PLAN_1
 62
     5
  6
CONTINUOUS
 10
-2.158740
 20
-0.429406
  0
SEQEND
  8
0
  0
POLYLINE
  8
PLAN_1
 62
     5
  6
CONTINUOUS
 66
     1
 40
0.003000
 41
0.003000
  0
VERTEX
  8
PLAN_1
 62
     5
  6
CONTINUOUS
 10
-2.150307
 20
-0.429406
  0
VERTEX
  8
PLAN_1
 62
     5
  6
CONTINUOUS
 10
-2.142406
 20
-0.429406
  0
SEQEND
  8
0
  0
POLYLINE
  8
PLAN_1
 62
     5
  6
CONTINUOUS
 66
     1
 40
0.003000
 41
0.003000
  0
VERTEX
  8
PLAN_1
 62
     5
  6
CONTINUOUS
 10
-2.133976
 20
-0.429406
  0
VERTEX
  8
PLAN_1
 62
     5
  6
CONTINUOUS
 10
-2.125547
 20
-0.429406
  0
SEQEND
  8
0
  0
POLYLINE
  8
PLAN_1
 62
     5
  6
CONTINUOUS
 66
     1
 40
0.003000
 41
0.003000
  0
VERTEX
  8
PLAN_1
 62
     5
  6
CONTINUOUS
 10
-2.117114
 20
-0.429406
  0
VERTEX
  8
PLAN_1
 62
     5
  6
CONTINUOUS
 10
-2.108685
 20
-0.429406
  0
SEQEND
  8
0
  0
POLYLINE
  8
PLAN_1
 62
     5
  6
CONTINUOUS
 66
     1
 40
0.003000
 41
0.003000
  0
VERTEX
  8
PLAN_1
 62
     5
  6
CONTINUOUS
 10
-2.100256
 20
-0.429406
  0
VERTEX
  8
PLAN_1
 62
     5
  6
CONTINUOUS
 10
-2.092354
 20
-0.429406
  0
SEQEND
  8
0
  0
POLYLINE
  8
PLAN_1
 62
     5
  6
CONTINUOUS
 66
     1
 40
0.003000
 41
0.003000
  0
VERTEX
  8
PLAN_1
 62
     5
  6
CONTINUOUS
 10
-2.083921
 20
-0.429406
  0
VERTEX
  8
PLAN_1
 62
     5
  6
CONTINUOUS
 10
-2.075492
 20
-0.429406
  0
SEQEND
  8
0
  0
POLYLINE
  8
PLAN_1
 62
     5
  6
CONTINUOUS
 66
     1
 40
0.003000
 41
0.003000
  0
VERTEX
  8
PLAN_1
 62
     5
  6
CONTINUOUS
 10
-2.067063
 20
-0.429406
  0
VERTEX
  8
PLAN_1
 62
     5
  6
CONTINUOUS
 10
-2.058634
 20
-0.429406
  0
SEQEND
  8
0
  0
POLYLINE
  8
PLAN_1
 62
     5
  6
CONTINUOUS
 66
     1
 40
0.003000
 41
0.003000
  0
VERTEX
  8
PLAN_1
 62
     5
  6
CONTINUOUS
 10
-2.050728
 20
-0.429406
  0
VERTEX
  8
PLAN_1
 62
     5
  6
CONTINUOUS
 10
-2.042299
 20
-0.429406
  0
SEQEND
  8
0
  0
POLYLINE
  8
PLAN_1
 62
     5
  6
CONTINUOUS
 66
     1
 40
0.003000
 41
0.003000
  0
VERTEX
  8
PLAN_1
 62
     5
  6
CONTINUOUS
 10
-2.033870
 20
-0.429406
  0
VERTEX
  8
PLAN_1
 62
     5
  6
CONTINUOUS
 10
-2.025441
 20
-0.429406
  0
SEQEND
  8
0
  0
POLYLINE
  8
PLAN_1
 62
     5
  6
CONTINUOUS
 66
     1
 40
0.003000
 41
0.003000
  0
VERTEX
  8
PLAN_1
 62
     5
  6
CONTINUOUS
 10
-2.017012
 20
-0.429406
  0
VERTEX
  8
PLAN_1
 62
     5
  6
CONTINUOUS
 10
-2.009106
 20
-0.429406
  0
SEQEND
  8
0
  0
POLYLINE
  8
PLAN_1
 62
     5
  6
CONTINUOUS
 66
     1
 40
0.003000
 41
0.003000
  0
VERTEX
  8
PLAN_1
 62
     5
  6
CONTINUOUS
 10
-2.000677
 20
-0.429406
  0
VERTEX
  8
PLAN_1
 62
     5
  6
CONTINUOUS
 10
-1.992248
 20
-0.429406
  0
SEQEND
  8
0
  0
POLYLINE
  8
PLAN_1
 62
     5
  6
CONTINUOUS
 66
     1
 40
0.003000
 41
0.003000
  0
VERTEX
  8
PLAN_1
 62
     5
  6
CONTINUOUS
 10
-1.983819
 20
-0.429406
  0
VERTEX
  8
PLAN_1
 62
     5
  6
CONTINUOUS
 10
-1.975390
 20
-0.429406
  0
SEQEND
  8
0
  0
POLYLINE
  8
PLAN_1
 62
     5
  6
CONTINUOUS
 66
     1
 40
0.003000
 41
0.003000
  0
VERTEX
  8
PLAN_1
 62
     5
  6
CONTINUOUS
 10
-1.967484
 20
-0.429406
  0
VERTEX
  8
PLAN_1
 62
     5
  6
CONTINUOUS
 10
-1.959055
 20
-0.429406
  0
SEQEND
  8
0
  0
POLYLINE
  8
PLAN_1
 62
     5
  6
CONTINUOUS
 66
     1
 40
0.003000
 41
0.003000
  0
VERTEX
  8
PLAN_1
 62
     5
  6
CONTINUOUS
 10
-1.950626
 20
-0.429406
  0
VERTEX
  8
PLAN_1
 62
     5
  6
CONTINUOUS
 10
-1.942197
 20
-0.429406
  0
SEQEND
  8
0
  0
POLYLINE
  8
PLAN_1
 62
     5
  6
CONTINUOUS
 66
     1
 40
0.003000
 41
0.003000
  0
VERTEX
  8
PLAN_1
 62
     5
  6
CONTINUOUS
 10
-1.933764
 20
-0.429406
  0
VERTEX
  8
PLAN_1
 62
     5
  6
CONTINUOUS
 10
-1.925335
 20
-0.429406
  0
SEQEND
  8
0
  0
POLYLINE
  8
PLAN_1
 62
     5
  6
CONTINUOUS
 66
     1
 40
0.003000
 41
0.003000
  0
VERTEX
  8
PLAN_1
 62
     5
  6
CONTINUOUS
 10
-1.917433
 20
-0.429406
  0
VERTEX
  8
PLAN_1
 62
     5
  6
CONTINUOUS
 10
-1.909004
 20
-0.429406
  0
SEQEND
  8
0
  0
POLYLINE
  8
PLAN_1
 62
     5
  6
CONTINUOUS
 66
     1
 40
0.003000
 41
0.003000
  0
VERTEX
  8
PLAN_1
 62
     5
  6
CONTINUOUS
 10
-1.900571
 20
-0.429406
  0
VERTEX
  8
PLAN_1
 62
     5
  6
CONTINUOUS
 10
-1.892142
 20
-0.429406
  0
SEQEND
  8
0
  0
POLYLINE
  8
PLAN_1
 62
     5
  6
CONTINUOUS
 66
     1
 40
0.003000
 41
0.003000
  0
VERTEX
  8
PLAN_1
 62
     5
  6
CONTINUOUS
 10
-1.883713
 20
-0.429406
  0
VERTEX
  8
PLAN_1
 62
     5
  6
CONTINUOUS
 10
-1.875811
 20
-0.429406
  0
SEQEND
  8
0
  0
POLYLINE
  8
PLAN_1
 62
     5
  6
CONTINUOUS
 66
     1
 40
0.003000
 41
0.003000
  0
VERTEX
  8
PLAN_1
 62
     5
  6
CONTINUOUS
 10
-1.867378
 20
-0.429406
  0
VERTEX
  8
PLAN_1
 62
     5
  6
CONTINUOUS
 10
-1.858949
 20
-0.429406
  0
SEQEND
  8
0
  0
POLYLINE
  8
PLAN_1
 62
     5
  6
CONTINUOUS
 66
     1
 40
0.003000
 41
0.003000
  0
VERTEX
  8
PLAN_1
 62
     5
  6
CONTINUOUS
 10
-1.850520
 20
-0.429406
  0
VERTEX
  8
PLAN_1
 62
     5
  6
CONTINUOUS
 10
-1.842091
 20
-0.429406
  0
SEQEND
  8
0
  0
POLYLINE
  8
PLAN_1
 62
     5
  6
CONTINUOUS
 66
     1
 40
0.003000
 41
0.003000
  0
VERTEX
  8
PLAN_1
 62
     5
  6
CONTINUOUS
 10
-1.834189
 20
-0.429406
  0
VERTEX
  8
PLAN_1
 62
     5
  6
CONTINUOUS
 10
-1.825756
 20
-0.429406
  0
SEQEND
  8
0
  0
POLYLINE
  8
PLAN_1
 62
     5
  6
CONTINUOUS
 66
     1
 40
0.003000
 41
0.003000
  0
VERTEX
  8
PLAN_1
 62
     5
  6
CONTINUOUS
 10
-1.817327
 20
-0.429406
  0
VERTEX
  8
PLAN_1
 62
     5
  6
CONTINUOUS
 10
-1.808898
 20
-0.429406
  0
SEQEND
  8
0
  0
POLYLINE
  8
PLAN_1
 62
     5
  6
CONTINUOUS
 66
     1
 40
0.003000
 41
0.003000
  0
VERTEX
  8
PLAN_1
 62
     5
  6
CONTINUOUS
 10
-1.800469
 20
-0.429406
  0
VERTEX
  8
PLAN_1
 62
     5
  6
CONTINUOUS
 10
-1.792563
 20
-0.429406
  0
SEQEND
  8
0
  0
POLYLINE
  8
PLAN_1
 62
     5
  6
CONTINUOUS
 66
     1
 40
0.003000
 41
0.003000
  0
VERTEX
  8
PLAN_1
 62
     5
  6
CONTINUOUS
 10
-1.784134
 20
-0.429406
  0
VERTEX
  8
PLAN_1
 62
     5
  6
CONTINUOUS
 10
-1.778339
 20
-0.429406
  0
VERTEX
  8
PLAN_1
 62
     5
  6
CONTINUOUS
 10
-1.775705
 20
-0.429406
  0
SEQEND
  8
0
  0
POLYLINE
  8
PLAN_1
 62
     5
  6
CONTINUOUS
 66
     1
 40
0.003000
 41
0.003000
  0
VERTEX
  8
PLAN_1
 62
     5
  6
CONTINUOUS
 10
-1.767276
 20
-0.429406
  0
VERTEX
  8
PLAN_1
 62
     5
  6
CONTINUOUS
 10
-1.758846
 20
-0.429406
  0
SEQEND
  8
0
  0
POLYLINE
  8
PLAN_1
 62
     5
  6
CONTINUOUS
 66
     1
 40
0.003000
 41
0.003000
  0
VERTEX
  8
PLAN_1
 62
     5
  6
CONTINUOUS
 10
-1.750413
 20
-0.429406
  0
VERTEX
  8
PLAN_1
 62
     5
  6
CONTINUOUS
 10
-1.742512
 20
-0.429406
  0
SEQEND
  8
0
  0
POLYLINE
  8
PLAN_1
 62
     5
  6
CONTINUOUS
 66
     1
 40
0.003000
 41
0.003000
  0
VERTEX
  8
PLAN_1
 62
     5
  6
CONTINUOUS
 10
-1.734083
 20
-0.429406
  0
VERTEX
  8
PLAN_1
 62
     5
  6
CONTINUOUS
 10
-1.725654
 20
-0.429406
  0
SEQEND
  8
0
  0
POLYLINE
  8
PLAN_1
 62
     5
  6
CONTINUOUS
 66
     1
 40
0.003000
 41
0.003000
  0
VERTEX
  8
PLAN_1
 62
     5
  6
CONTINUOUS
 10
-1.717220
 20
-0.429406
  0
VERTEX
  8
PLAN_1
 62
     5
  6
CONTINUOUS
 10
-1.708791
 20
-0.429406
  0
SEQEND
  8
0
  0
POLYLINE
  8
PLAN_1
 62
     5
  6
CONTINUOUS
 66
     1
 40
0.003000
 41
0.003000
  0
VERTEX
  8
PLAN_1
 62
     5
  6
CONTINUOUS
 10
-1.700890
 20
-0.429406
  0
VERTEX
  8
PLAN_1
 62
     5
  6
CONTINUOUS
 10
-1.692461
 20
-0.429406
  0
SEQEND
  8
0
  0
POLYLINE
  8
PLAN_1
 62
     5
  6
CONTINUOUS
 66
     1
 40
0.003000
 41
0.003000
  0
VERTEX
  8
PLAN_1
 62
     5
  6
CONTINUOUS
 10
-1.684028
 20
-0.429406
  0
VERTEX
  8
PLAN_1
 62
     5
  6
CONTINUOUS
 10
-1.675598
 20
-0.429406
  0
SEQEND
  8
0
  0
POLYLINE
  8
PLAN_1
 62
     5
  6
CONTINUOUS
 66
     1
 40
0.003000
 41
0.003000
  0
VERTEX
  8
PLAN_1
 62
     5
  6
CONTINUOUS
 10
-1.667169
 20
-0.429406
  0
VERTEX
  8
PLAN_1
 62
     5
  6
CONTINUOUS
 10
-1.659268
 20
-0.429406
  0
SEQEND
  8
0
  0
POLYLINE
  8
PLAN_1
 62
     5
  6
CONTINUOUS
 66
     1
 40
0.003000
 41
0.003000
  0
VERTEX
  8
PLAN_1
 62
     5
  6
CONTINUOUS
 10
-1.650839
 20
-0.429406
  0
VERTEX
  8
PLAN_1
 62
     5
  6
CONTINUOUS
 10
-1.642406
 20
-0.429406
  0
SEQEND
  8
0
  0
POLYLINE
  8
PLAN_1
 62
     5
  6
CONTINUOUS
 66
     1
 40
0.003000
 41
0.003000
  0
VERTEX
  8
PLAN_1
 62
     5
  6
CONTINUOUS
 10
-1.633976
 20
-0.429406
  0
VERTEX
  8
PLAN_1
 62
     5
  6
CONTINUOUS
 10
-1.625547
 20
-0.429406
  0
SEQEND
  8
0
  0
POLYLINE
  8
PLAN_1
 62
     5
  6
CONTINUOUS
 66
     1
 40
0.003000
 41
0.003000
  0
VERTEX
  8
PLAN_1
 62
     5
  6
CONTINUOUS
 10
-1.617646
 20
-0.429406
  0
VERTEX
  8
PLAN_1
 62
     5
  6
CONTINUOUS
 10
-1.609213
 20
-0.429406
  0
SEQEND
  8
0
  0
POLYLINE
  8
PLAN_1
 62
     5
  6
CONTINUOUS
 66
     1
 40
0.003000
 41
0.003000
  0
VERTEX
  8
PLAN_1
 62
     5
  6
CONTINUOUS
 10
-1.600783
 20
-0.429406
  0
VERTEX
  8
PLAN_1
 62
     5
  6
CONTINUOUS
 10
-1.592354
 20
-0.429406
  0
SEQEND
  8
0
  0
POLYLINE
  8
PLAN_1
 62
     5
  6
CONTINUOUS
 66
     1
 40
0.003000
 41
0.003000
  0
VERTEX
  8
PLAN_1
 62
     5
  6
CONTINUOUS
 10
-1.583925
 20
-0.429406
  0
VERTEX
  8
PLAN_1
 62
     5
  6
CONTINUOUS
 10
-1.575496
 20
-0.429406
  0
SEQEND
  8
0
  0
POLYLINE
  8
PLAN_1
 62
     5
  6
CONTINUOUS
 66
     1
 40
0.003000
 41
0.003000
  0
VERTEX
  8
PLAN_1
 62
     5
  6
CONTINUOUS
 10
-1.567591
 20
-0.429406
  0
VERTEX
  8
PLAN_1
 62
     5
  6
CONTINUOUS
 10
-1.559161
 20
-0.429406
  0
SEQEND
  8
0
  0
POLYLINE
  8
PLAN_1
 62
     5
  6
CONTINUOUS
 66
     1
 40
0.003000
 41
0.003000
  0
VERTEX
  8
PLAN_1
 62
     5
  6
CONTINUOUS
 10
-1.550732
 20
-0.429406
  0
VERTEX
  8
PLAN_1
 62
     5
  6
CONTINUOUS
 10
-1.542303
 20
-0.429406
  0
SEQEND
  8
0
  0
POLYLINE
  8
PLAN_1
 62
     5
  6
CONTINUOUS
 66
     1
 40
0.003000
 41
0.003000
  0
VERTEX
  8
PLAN_1
 62
     5
  6
CONTINUOUS
 10
-1.533870
 20
-0.429406
  0
VERTEX
  8
PLAN_1
 62
     5
  6
CONTINUOUS
 10
-1.525969
 20
-0.429406
  0
SEQEND
  8
0
  0
POLYLINE
  8
PLAN_1
 62
     5
  6
CONTINUOUS
 66
     1
 40
0.003000
 41
0.003000
  0
VERTEX
  8
PLAN_1
 62
     5
  6
CONTINUOUS
 10
-1.517539
 20
-0.429406
  0
VERTEX
  8
PLAN_1
 62
     5
  6
CONTINUOUS
 10
-1.509110
 20
-0.429406
  0
SEQEND
  8
0
  0
POLYLINE
  8
PLAN_1
 62
     5
  6
CONTINUOUS
 66
     1
 40
0.003000
 41
0.003000
  0
VERTEX
  8
PLAN_1
 62
     5
  6
CONTINUOUS
 10
-1.500677
 20
-0.429406
  0
VERTEX
  8
PLAN_1
 62
     5
  6
CONTINUOUS
 10
-1.492248
 20
-0.429406
  0
SEQEND
  8
0
  0
POLYLINE
  8
PLAN_1
 62
     5
  6
CONTINUOUS
 66
     1
 40
0.003000
 41
0.003000
  0
VERTEX
  8
PLAN_1
 62
     5
  6
CONTINUOUS
 10
-1.484346
 20
-0.429406
  0
VERTEX
  8
PLAN_1
 62
     5
  6
CONTINUOUS
 10
-1.475917
 20
-0.429406
  0
SEQEND
  8
0
  0
POLYLINE
  8
PLAN_1
 62
     5
  6
CONTINUOUS
 66
     1
 40
0.003000
 41
0.003000
  0
VERTEX
  8
PLAN_1
 62
     5
  6
CONTINUOUS
 10
-1.467484
 20
-0.429406
  0
VERTEX
  8
PLAN_1
 62
     5
  6
CONTINUOUS
 10
-1.459055
 20
-0.429406
  0
SEQEND
  8
0
  0
POLYLINE
  8
PLAN_1
 62
     5
  6
CONTINUOUS
 66
     1
 40
0.003000
 41
0.003000
  0
VERTEX
  8
PLAN_1
 62
     5
  6
CONTINUOUS
 10
-1.450626
 20
-0.429406
  0
VERTEX
  8
PLAN_1
 62
     5
  6
CONTINUOUS
 10
-1.442724
 20
-0.429406
  0
SEQEND
  8
0
  0
POLYLINE
  8
PLAN_1
 62
     5
  6
CONTINUOUS
 66
     1
 40
0.003000
 41
0.003000
  0
VERTEX
  8
PLAN_1
 62
     5
  6
CONTINUOUS
 10
-1.434295
 20
-0.429406
  0
VERTEX
  8
PLAN_1
 62
     5
  6
CONTINUOUS
 10
-1.425862
 20
-0.429406
  0
SEQEND
  8
0
  0
POLYLINE
  8
PLAN_1
 62
     5
  6
CONTINUOUS
 66
     1
 40
0.003000
 41
0.003000
  0
VERTEX
  8
PLAN_1
 62
     5
  6
CONTINUOUS
 10
-1.417433
 20
-0.429406
  0
VERTEX
  8
PLAN_1
 62
     5
  6
CONTINUOUS
 10
-1.409004
 20
-0.429406
  0
SEQEND
  8
0
  0
POLYLINE
  8
PLAN_1
 62
     5
  6
CONTINUOUS
 66
     1
 40
0.003000
 41
0.003000
  0
VERTEX
  8
PLAN_1
 62
     5
  6
CONTINUOUS
 10
-1.401102
 20
-0.429406
  0
VERTEX
  8
PLAN_1
 62
     5
  6
CONTINUOUS
 10
-1.392669
 20
-0.429406
  0
SEQEND
  8
0
  0
POLYLINE
  8
PLAN_1
 62
     5
  6
CONTINUOUS
 66
     1
 40
0.003000
 41
0.003000
  0
VERTEX
  8
PLAN_1
 62
     5
  6
CONTINUOUS
 10
-1.384240
 20
-0.429406
  0
VERTEX
  8
PLAN_1
 62
     5
  6
CONTINUOUS
 10
-1.381079
 20
-0.429406
  0
VERTEX
  8
PLAN_1
 62
     5
  6
CONTINUOUS
 10
-1.375811
 20
-0.429406
  0
SEQEND
  8
0
  0
POLYLINE
  8
PLAN_1
 62
     5
  6
CONTINUOUS
 66
     1
 40
0.003000
 41
0.003000
  0
VERTEX
  8
PLAN_1
 62
     5
  6
CONTINUOUS
 10
-1.367382
 20
-0.429406
  0
VERTEX
  8
PLAN_1
 62
     5
  6
CONTINUOUS
 10
-1.358953
 20
-0.429406
  0
SEQEND
  8
0
  0
POLYLINE
  8
PLAN_1
 62
     5
  6
CONTINUOUS
 66
     1
 40
0.003000
 41
0.003000
  0
VERTEX
  8
PLAN_1
 62
     5
  6
CONTINUOUS
 10
-1.351047
 20
-0.429406
  0
VERTEX
  8
PLAN_1
 62
     5
  6
CONTINUOUS
 10
-1.342618
 20
-0.429406
  0
SEQEND
  8
0
  0
POLYLINE
  8
PLAN_1
 62
     5
  6
CONTINUOUS
 66
     1
 40
0.003000
 41
0.003000
  0
VERTEX
  8
PLAN_1
 62
     5
  6
CONTINUOUS
 10
-1.334189
 20
-0.429406
  0
VERTEX
  8
PLAN_1
 62
     5
  6
CONTINUOUS
 10
-1.325760
 20
-0.429406
  0
SEQEND
  8
0
  0
POLYLINE
  8
PLAN_1
 62
     5
  6
CONTINUOUS
 66
     1
 40
0.003000
 41
0.003000
  0
VERTEX
  8
PLAN_1
 62
     5
  6
CONTINUOUS
 10
-1.317327
 20
-0.429406
  0
VERTEX
  8
PLAN_1
 62
     5
  6
CONTINUOUS
 10
-1.309425
 20
-0.429406
  0
SEQEND
  8
0
  0
POLYLINE
  8
PLAN_1
 62
     5
  6
CONTINUOUS
 66
     1
 40
0.003000
 41
0.003000
  0
VERTEX
  8
PLAN_1
 62
     5
  6
CONTINUOUS
 10
-1.300996
 20
-0.429406
  0
VERTEX
  8
PLAN_1
 62
     5
  6
CONTINUOUS
 10
-1.292567
 20
-0.429406
  0
SEQEND
  8
0
  0
POLYLINE
  8
PLAN_1
 62
     5
  6
CONTINUOUS
 66
     1
 40
0.003000
 41
0.003000
  0
VERTEX
  8
PLAN_1
 62
     5
  6
CONTINUOUS
 10
-1.284134
 20
-0.429406
  0
VERTEX
  8
PLAN_1
 62
     5
  6
CONTINUOUS
 10
-1.275705
 20
-0.429406
  0
SEQEND
  8
0
  0
POLYLINE
  8
PLAN_1
 62
     5
  6
CONTINUOUS
 66
     1
 40
0.003000
 41
0.003000
  0
VERTEX
  8
PLAN_1
 62
     5
  6
CONTINUOUS
 10
-1.267803
 20
-0.429406
  0
VERTEX
  8
PLAN_1
 62
     5
  6
CONTINUOUS
 10
-1.259374
 20
-0.429406
  0
SEQEND
  8
0
  0
POLYLINE
  8
PLAN_1
 62
     5
  6
CONTINUOUS
 66
     1
 40
0.003000
 41
0.003000
  0
VERTEX
  8
PLAN_1
 62
     5
  6
CONTINUOUS
 10
-1.250945
 20
-0.429406
  0
VERTEX
  8
PLAN_1
 62
     5
  6
CONTINUOUS
 10
-1.242512
 20
-0.429406
  0
SEQEND
  8
0
  0
POLYLINE
  8
PLAN_1
 62
     5
  6
CONTINUOUS
 66
     1
 40
0.003000
 41
0.003000
  0
VERTEX
  8
PLAN_1
 62
     5
  6
CONTINUOUS
 10
-1.234083
 20
-0.429406
  0
VERTEX
  8
PLAN_1
 62
     5
  6
CONTINUOUS
 10
-1.226181
 20
-0.429406
  0
SEQEND
  8
0
  0
POLYLINE
  8
PLAN_1
 62
     5
  6
CONTINUOUS
 66
     1
 40
0.003000
 41
0.003000
  0
VERTEX
  8
PLAN_1
 62
     5
  6
CONTINUOUS
 10
-1.217752
 20
-0.429406
  0
VERTEX
  8
PLAN_1
 62
     5
  6
CONTINUOUS
 10
-1.209319
 20
-0.429406
  0
SEQEND
  8
0
  0
POLYLINE
  8
PLAN_1
 62
     5
  6
CONTINUOUS
 66
     1
 40
0.003000
 41
0.003000
  0
VERTEX
  8
PLAN_1
 62
     5
  6
CONTINUOUS
 10
-1.200890
 20
-0.429406
  0
VERTEX
  8
PLAN_1
 62
     5
  6
CONTINUOUS
 10
-1.192461
 20
-0.429406
  0
SEQEND
  8
0
  0
POLYLINE
  8
PLAN_1
 62
     5
  6
CONTINUOUS
 66
     1
 40
0.003000
 41
0.003000
  0
VERTEX
  8
PLAN_1
 62
     5
  6
CONTINUOUS
 10
-1.184031
 20
-0.429406
  0
VERTEX
  8
PLAN_1
 62
     5
  6
CONTINUOUS
 10
-1.176126
 20
-0.429406
  0
SEQEND
  8
0
  0
POLYLINE
  8
PLAN_1
 62
     5
  6
CONTINUOUS
 66
     1
 40
0.003000
 41
0.003000
  0
VERTEX
  8
PLAN_1
 62
     5
  6
CONTINUOUS
 10
-1.167697
 20
-0.429406
  0
VERTEX
  8
PLAN_1
 62
     5
  6
CONTINUOUS
 10
-1.159268
 20
-0.429406
  0
SEQEND
  8
0
  0
POLYLINE
  8
PLAN_1
 62
     5
  6
CONTINUOUS
 66
     1
 40
0.003000
 41
0.003000
  0
VERTEX
  8
PLAN_1
 62
     5
  6
CONTINUOUS
 10
-1.150839
 20
-0.429406
  0
VERTEX
  8
PLAN_1
 62
     5
  6
CONTINUOUS
 10
-1.142409
 20
-0.429406
  0
SEQEND
  8
0
  0
POLYLINE
  8
PLAN_1
 62
     5
  6
CONTINUOUS
 66
     1
 40
0.003000
 41
0.003000
  0
VERTEX
  8
PLAN_1
 62
     5
  6
CONTINUOUS
 10
-1.134504
 20
-0.429406
  0
VERTEX
  8
PLAN_1
 62
     5
  6
CONTINUOUS
 10
-1.126075
 20
-0.429406
  0
SEQEND
  8
0
  0
POLYLINE
  8
PLAN_1
 62
     5
  6
CONTINUOUS
 66
     1
 40
0.003000
 41
0.003000
  0
VERTEX
  8
PLAN_1
 62
     5
  6
CONTINUOUS
 10
-1.117646
 20
-0.429406
  0
VERTEX
  8
PLAN_1
 62
     5
  6
CONTINUOUS
 10
-1.109217
 20
-0.429406
  0
SEQEND
  8
0
  0
POLYLINE
  8
PLAN_1
 62
     5
  6
CONTINUOUS
 66
     1
 40
0.003000
 41
0.003000
  0
VERTEX
  8
PLAN_1
 62
     5
  6
CONTINUOUS
 10
-1.100783
 20
-0.429406
  0
VERTEX
  8
PLAN_1
 62
     5
  6
CONTINUOUS
 10
-1.092882
 20
-0.429406
  0
SEQEND
  8
0
  0
POLYLINE
  8
PLAN_1
 62
     5
  6
CONTINUOUS
 66
     1
 40
0.003000
 41
0.003000
  0
VERTEX
  8
PLAN_1
 62
     5
  6
CONTINUOUS
 10
-1.084453
 20
-0.429406
  0
VERTEX
  8
PLAN_1
 62
     5
  6
CONTINUOUS
 10
-1.076024
 20
-0.429406
  0
SEQEND
  8
0
  0
POLYLINE
  8
PLAN_1
 62
     5
  6
CONTINUOUS
 66
     1
 40
0.003000
 41
0.003000
  0
VERTEX
  8
PLAN_1
 62
     5
  6
CONTINUOUS
 10
-1.067594
 20
-0.429406
  0
VERTEX
  8
PLAN_1
 62
     5
  6
CONTINUOUS
 10
-1.059161
 20
-0.429406
  0
SEQEND
  8
0
  0
POLYLINE
  8
PLAN_1
 62
     5
  6
CONTINUOUS
 66
     1
 40
0.003000
 41
0.003000
  0
VERTEX
  8
PLAN_1
 62
     5
  6
CONTINUOUS
 10
-1.051260
 20
-0.429406
  0
VERTEX
  8
PLAN_1
 62
     5
  6
CONTINUOUS
 10
-1.042831
 20
-0.429406
  0
SEQEND
  8
0
  0
POLYLINE
  8
PLAN_1
 62
     5
  6
CONTINUOUS
 66
     1
 40
0.003000
 41
0.003000
  0
VERTEX
  8
PLAN_1
 62
     5
  6
CONTINUOUS
 10
-1.034402
 20
-0.429406
  0
VERTEX
  8
PLAN_1
 62
     5
  6
CONTINUOUS
 10
-1.025969
 20
-0.429406
  0
SEQEND
  8
0
  0
POLYLINE
  8
PLAN_1
 62
     5
  6
CONTINUOUS
 66
     1
 40
0.003000
 41
0.003000
  0
VERTEX
  8
PLAN_1
 62
     5
  6
CONTINUOUS
 10
-1.017539
 20
-0.429406
  0
VERTEX
  8
PLAN_1
 62
     5
  6
CONTINUOUS
 10
-1.009110
 20
-0.429406
  0
SEQEND
  8
0
  0
POLYLINE
  8
PLAN_1
 62
     5
  6
CONTINUOUS
 66
     1
 40
0.003000
 41
0.003000
  0
VERTEX
  8
PLAN_1
 62
     5
  6
CONTINUOUS
 10
-1.001209
 20
-0.429406
  0
VERTEX
  8
PLAN_1
 62
     5
  6
CONTINUOUS
 10
-0.992776
 20
-0.429406
  0
SEQEND
  8
0
  0
POLYLINE
  8
PLAN_1
 62
     5
  6
CONTINUOUS
 66
     1
 40
0.003000
 41
0.003000
  0
VERTEX
  8
PLAN_1
 62
     5
  6
CONTINUOUS
 10
-0.984346
 20
-0.429406
  0
VERTEX
  8
PLAN_1
 62
     5
  6
CONTINUOUS
 10
-0.975917
 20
-0.429406
  0
SEQEND
  8
0
  0
POLYLINE
  8
PLAN_1
 62
     5
  6
CONTINUOUS
 66
     1
 40
0.003000
 41
0.003000
  0
VERTEX
  8
PLAN_1
 62
     5
  6
CONTINUOUS
 10
-0.967488
 20
-0.429406
  0
VERTEX
  8
PLAN_1
 62
     5
  6
CONTINUOUS
 10
-0.959583
 20
-0.429406
  0
SEQEND
  8
0
  0
POLYLINE
  8
PLAN_1
 62
     5
  6
CONTINUOUS
 66
     1
 40
0.003000
 41
0.003000
  0
VERTEX
  8
PLAN_1
 62
     5
  6
CONTINUOUS
 10
-0.951154
 20
-0.429406
  0
VERTEX
  8
PLAN_1
 62
     5
  6
CONTINUOUS
 10
-0.942724
 20
-0.429406
  0
SEQEND
  8
0
  0
POLYLINE
  8
PLAN_1
 62
     5
  6
CONTINUOUS
 66
     1
 40
0.003000
 41
0.003000
  0
VERTEX
  8
PLAN_1
 62
     5
  6
CONTINUOUS
 10
-0.934295
 20
-0.429406
  0
VERTEX
  8
PLAN_1
 62
     5
  6
CONTINUOUS
 10
-0.925866
 20
-0.429406
  0
SEQEND
  8
0
  0
POLYLINE
  8
PLAN_1
 62
     5
  6
CONTINUOUS
 66
     1
 40
0.003000
 41
0.003000
  0
VERTEX
  8
PLAN_1
 62
     5
  6
CONTINUOUS
 10
-0.917961
 20
-0.429406
  0
VERTEX
  8
PLAN_1
 62
     5
  6
CONTINUOUS
 10
-0.909531
 20
-0.429406
  0
SEQEND
  8
0
  0
POLYLINE
  8
PLAN_1
 62
     5
  6
CONTINUOUS
 66
     1
 40
0.003000
 41
0.003000
  0
VERTEX
  8
PLAN_1
 62
     5
  6
CONTINUOUS
 10
-0.901102
 20
-0.429406
  0
VERTEX
  8
PLAN_1
 62
     5
  6
CONTINUOUS
 10
-0.892673
 20
-0.429406
  0
SEQEND
  8
0
  0
POLYLINE
  8
PLAN_1
 62
     5
  6
CONTINUOUS
 66
     1
 40
0.003000
 41
0.003000
  0
VERTEX
  8
PLAN_1
 62
     5
  6
CONTINUOUS
 10
-0.884244
 20
-0.429406
  0
VERTEX
  8
PLAN_1
 62
     5
  6
CONTINUOUS
 10
-0.876339
 20
-0.429406
  0
SEQEND
  8
0
  0
POLYLINE
  8
PLAN_1
 62
     5
  6
CONTINUOUS
 66
     1
 40
0.003000
 41
0.003000
  0
VERTEX
  8
PLAN_1
 62
     5
  6
CONTINUOUS
 10
-0.867909
 20
-0.429406
  0
VERTEX
  8
PLAN_1
 62
     5
  6
CONTINUOUS
 10
-0.859480
 20
-0.429406
  0
SEQEND
  8
0
  0
POLYLINE
  8
PLAN_1
 62
     5
  6
CONTINUOUS
 66
     1
 40
0.003000
 41
0.003000
  0
VERTEX
  8
PLAN_1
 62
     5
  6
CONTINUOUS
 10
-0.851051
 20
-0.429406
  0
VERTEX
  8
PLAN_1
 62
     5
  6
CONTINUOUS
 10
-0.842618
 20
-0.429406
  0
SEQEND
  8
0
  0
POLYLINE
  8
PLAN_1
 62
     5
  6
CONTINUOUS
 66
     1
 40
0.003000
 41
0.003000
  0
VERTEX
  8
PLAN_1
 62
     5
  6
CONTINUOUS
 10
-0.834717
 20
-0.429406
  0
VERTEX
  8
PLAN_1
 62
     5
  6
CONTINUOUS
 10
-0.826287
 20
-0.429406
  0
SEQEND
  8
0
  0
POLYLINE
  8
PLAN_1
 62
     5
  6
CONTINUOUS
 66
     1
 40
0.003000
 41
0.003000
  0
VERTEX
  8
PLAN_1
 62
     5
  6
CONTINUOUS
 10
-0.817858
 20
-0.429406
  0
VERTEX
  8
PLAN_1
 62
     5
  6
CONTINUOUS
 10
-0.809425
 20
-0.429406
  0
SEQEND
  8
0
  0
POLYLINE
  8
PLAN_1
 62
     5
  6
CONTINUOUS
 66
     1
 40
0.003000
 41
0.003000
  0
VERTEX
  8
PLAN_1
 62
     5
  6
CONTINUOUS
 10
-0.800996
 20
-0.429406
  0
VERTEX
  8
PLAN_1
 62
     5
  6
CONTINUOUS
 10
-0.792567
 20
-0.429406
  0
SEQEND
  8
0
  0
POLYLINE
  8
PLAN_1
 62
     5
  6
CONTINUOUS
 66
     1
 40
0.003000
 41
0.003000
  0
VERTEX
  8
PLAN_1
 62
     5
  6
CONTINUOUS
 10
-0.784665
 20
-0.429406
  0
VERTEX
  8
PLAN_1
 62
     5
  6
CONTINUOUS
 10
-0.776232
 20
-0.429406
  0
SEQEND
  8
0
  0
POLYLINE
  8
PLAN_1
 62
     5
  6
CONTINUOUS
 66
     1
 40
0.003000
 41
0.003000
  0
VERTEX
  8
PLAN_1
 62
     5
  6
CONTINUOUS
 10
-0.767803
 20
-0.429406
  0
VERTEX
  8
PLAN_1
 62
     5
  6
CONTINUOUS
 10
-0.759374
 20
-0.429406
  0
SEQEND
  8
0
  0
POLYLINE
  8
PLAN_1
 62
     5
  6
CONTINUOUS
 66
     1
 40
0.003000
 41
0.003000
  0
VERTEX
  8
PLAN_1
 62
     5
  6
CONTINUOUS
 10
-0.750945
 20
-0.429406
  0
VERTEX
  8
PLAN_1
 62
     5
  6
CONTINUOUS
 10
-0.743039
 20
-0.429406
  0
SEQEND
  8
0
  0
POLYLINE
  8
PLAN_1
 62
     5
  6
CONTINUOUS
 66
     1
 40
0.003000
 41
0.003000
  0
VERTEX
  8
PLAN_1
 62
     5
  6
CONTINUOUS
 10
-0.734610
 20
-0.429406
  0
VERTEX
  8
PLAN_1
 62
     5
  6
CONTINUOUS
 10
-0.726181
 20
-0.429406
  0
SEQEND
  8
0
  0
POLYLINE
  8
PLAN_1
 62
     5
  6
CONTINUOUS
 66
     1
 40
0.003000
 41
0.003000
  0
VERTEX
  8
PLAN_1
 62
     5
  6
CONTINUOUS
 10
-0.717752
 20
-0.429406
  0
VERTEX
  8
PLAN_1
 62
     5
  6
CONTINUOUS
 10
-0.709323
 20
-0.429406
  0
SEQEND
  8
0
  0
POLYLINE
  8
PLAN_1
 62
     5
  6
CONTINUOUS
 66
     1
 40
0.003000
 41
0.003000
  0
VERTEX
  8
PLAN_1
 62
     5
  6
CONTINUOUS
 10
-0.701417
 20
-0.429406
  0
VERTEX
  8
PLAN_1
 62
     5
  6
CONTINUOUS
 10
-0.692988
 20
-0.429406
  0
SEQEND
  8
0
  0
POLYLINE
  8
PLAN_1
 62
     5
  6
CONTINUOUS
 66
     1
 40
0.003000
 41
0.003000
  0
VERTEX
  8
PLAN_1
 62
     5
  6
CONTINUOUS
 10
-0.684559
 20
-0.429406
  0
VERTEX
  8
PLAN_1
 62
     5
  6
CONTINUOUS
 10
-0.676130
 20
-0.429406
  0
SEQEND
  8
0
  0
POLYLINE
  8
PLAN_1
 62
     5
  6
CONTINUOUS
 66
     1
 40
0.003000
 41
0.003000
  0
VERTEX
  8
PLAN_1
 62
     5
  6
CONTINUOUS
 10
-0.667701
 20
-0.429406
  0
VERTEX
  8
PLAN_1
 62
     5
  6
CONTINUOUS
 10
-0.659795
 20
-0.429406
  0
SEQEND
  8
0
  0
POLYLINE
  8
PLAN_1
 62
     5
  6
CONTINUOUS
 66
     1
 40
0.003000
 41
0.003000
  0
VERTEX
  8
PLAN_1
 62
     5
  6
CONTINUOUS
 10
-0.651366
 20
-0.429406
  0
VERTEX
  8
PLAN_1
 62
     5
  6
CONTINUOUS
 10
-0.642937
 20
-0.429406
  0
SEQEND
  8
0
  0
POLYLINE
  8
PLAN_1
 62
     5
  6
CONTINUOUS
 66
     1
 40
0.003000
 41
0.003000
  0
VERTEX
  8
PLAN_1
 62
     5
  6
CONTINUOUS
 10
-0.634508
 20
-0.429406
  0
VERTEX
  8
PLAN_1
 62
     5
  6
CONTINUOUS
 10
-0.626075
 20
-0.429406
  0
SEQEND
  8
0
  0
POLYLINE
  8
PLAN_1
 62
     5
  6
CONTINUOUS
 66
     1
 40
0.003000
 41
0.003000
  0
VERTEX
  8
PLAN_1
 62
     5
  6
CONTINUOUS
 10
-0.617646
 20
-0.429406
  0
VERTEX
  8
PLAN_1
 62
     5
  6
CONTINUOUS
 10
-0.609744
 20
-0.429406
  0
SEQEND
  8
0
  0
POLYLINE
  8
PLAN_1
 62
     5
  6
CONTINUOUS
 66
     1
 40
0.003000
 41
0.003000
  0
VERTEX
  8
PLAN_1
 62
     5
  6
CONTINUOUS
 10
-0.601315
 20
-0.429406
  0
VERTEX
  8
PLAN_1
 62
     5
  6
CONTINUOUS
 10
-0.592882
 20
-0.429406
  0
SEQEND
  8
0
  0
POLYLINE
  8
PLAN_1
 62
     5
  6
CONTINUOUS
 66
     1
 40
0.003000
 41
0.003000
  0
VERTEX
  8
PLAN_1
 62
     5
  6
CONTINUOUS
 10
-0.584453
 20
-0.429406
  0
VERTEX
  8
PLAN_1
 62
     5
  6
CONTINUOUS
 10
-0.576024
 20
-0.429406
  0
SEQEND
  8
0
  0
POLYLINE
  8
PLAN_1
 62
     5
  6
CONTINUOUS
 66
     1
 40
0.003000
 41
0.003000
  0
VERTEX
  8
PLAN_1
 62
     5
  6
CONTINUOUS
 10
-0.568122
 20
-0.429406
  0
VERTEX
  8
PLAN_1
 62
     5
  6
CONTINUOUS
 10
-0.559689
 20
-0.429406
  0
SEQEND
  8
0
  0
POLYLINE
  8
PLAN_1
 62
     5
  6
CONTINUOUS
 66
     1
 40
0.003000
 41
0.003000
  0
VERTEX
  8
PLAN_1
 62
     5
  6
CONTINUOUS
 10
-0.551260
 20
-0.429406
  0
VERTEX
  8
PLAN_1
 62
     5
  6
CONTINUOUS
 10
-0.542831
 20
-0.429406
  0
SEQEND
  8
0
  0
POLYLINE
  8
PLAN_1
 62
     5
  6
CONTINUOUS
 66
     1
 40
0.003000
 41
0.003000
  0
VERTEX
  8
PLAN_1
 62
     5
  6
CONTINUOUS
 10
-0.534402
 20
-0.429406
  0
VERTEX
  8
PLAN_1
 62
     5
  6
CONTINUOUS
 10
-0.526500
 20
-0.429406
  0
SEQEND
  8
0
  0
POLYLINE
  8
PLAN_1
 62
     5
  6
CONTINUOUS
 66
     1
 40
0.003000
 41
0.003000
  0
VERTEX
  8
PLAN_1
 62
     5
  6
CONTINUOUS
 10
-0.518067
 20
-0.429406
  0
VERTEX
  8
PLAN_1
 62
     5
  6
CONTINUOUS
 10
-0.513854
 20
-0.429406
  0
VERTEX
  8
PLAN_1
 62
     5
  6
CONTINUOUS
 10
-0.509638
 20
-0.429406
  0
SEQEND
  8
0
  0
POLYLINE
  8
PLAN_1
 62
     5
  6
CONTINUOUS
 66
     1
 40
0.003000
 41
0.003000
  0
VERTEX
  8
PLAN_1
 62
     5
  6
CONTINUOUS
 10
-0.501209
 20
-0.429406
  0
VERTEX
  8
PLAN_1
 62
     5
  6
CONTINUOUS
 10
-0.492780
 20
-0.429406
  0
SEQEND
  8
0
  0
POLYLINE
  8
PLAN_1
 62
     5
  6
CONTINUOUS
 66
     1
 40
0.003000
 41
0.003000
  0
VERTEX
  8
PLAN_1
 62
     5
  6
CONTINUOUS
 10
-0.484874
 20
-0.429406
  0
VERTEX
  8
PLAN_1
 62
     5
  6
CONTINUOUS
 10
-0.476445
 20
-0.429406
  0
SEQEND
  8
0
  0
POLYLINE
  8
PLAN_1
 62
     5
  6
CONTINUOUS
 66
     1
 40
0.003000
 41
0.003000
  0
VERTEX
  8
PLAN_1
 62
     5
  6
CONTINUOUS
 10
-0.468016
 20
-0.429406
  0
VERTEX
  8
PLAN_1
 62
     5
  6
CONTINUOUS
 10
-0.459587
 20
-0.429406
  0
SEQEND
  8
0
  0
POLYLINE
  8
PLAN_1
 62
     5
  6
CONTINUOUS
 66
     1
 40
0.003000
 41
0.003000
  0
VERTEX
  8
PLAN_1
 62
     5
  6
CONTINUOUS
 10
-0.451157
 20
-0.429406
  0
VERTEX
  8
PLAN_1
 62
     5
  6
CONTINUOUS
 10
-0.442724
 20
-0.429406
  0
SEQEND
  8
0
  0
POLYLINE
  8
PLAN_1
 62
     5
  6
CONTINUOUS
 66
     1
 40
0.003000
 41
0.003000
  0
VERTEX
  8
PLAN_1
 62
     5
  6
CONTINUOUS
 10
-0.434823
 20
-0.429406
  0
VERTEX
  8
PLAN_1
 62
     5
  6
CONTINUOUS
 10
-0.426394
 20
-0.429406
  0
SEQEND
  8
0
  0
POLYLINE
  8
PLAN_1
 62
     5
  6
CONTINUOUS
 66
     1
 40
0.003000
 41
0.003000
  0
VERTEX
  8
PLAN_1
 62
     5
  6
CONTINUOUS
 10
-0.417965
 20
-0.429406
  0
VERTEX
  8
PLAN_1
 62
     5
  6
CONTINUOUS
 10
-0.409531
 20
-0.429406
  0
SEQEND
  8
0
  0
POLYLINE
  8
PLAN_1
 62
     5
  6
CONTINUOUS
 66
     1
 40
0.003000
 41
0.003000
  0
VERTEX
  8
PLAN_1
 62
     5
  6
CONTINUOUS
 10
-0.401102
 20
-0.429406
  0
VERTEX
  8
PLAN_1
 62
     5
  6
CONTINUOUS
 10
-0.393201
 20
-0.429406
  0
SEQEND
  8
0
  0
POLYLINE
  8
PLAN_1
 62
     5
  6
CONTINUOUS
 66
     1
 40
0.003000
 41
0.003000
  0
VERTEX
  8
PLAN_1
 62
     5
  6
CONTINUOUS
 10
-0.384772
 20
-0.429406
  0
VERTEX
  8
PLAN_1
 62
     5
  6
CONTINUOUS
 10
-0.376339
 20
-0.429406
  0
SEQEND
  8
0
  0
POLYLINE
  8
PLAN_1
 62
     5
  6
CONTINUOUS
 66
     1
 40
0.003000
 41
0.003000
  0
VERTEX
  8
PLAN_1
 62
     5
  6
CONTINUOUS
 10
-0.367909
 20
-0.429406
  0
VERTEX
  8
PLAN_1
 62
     5
  6
CONTINUOUS
 10
-0.359480
 20
-0.429406
  0
SEQEND
  8
0
  0
POLYLINE
  8
PLAN_1
 62
     5
  6
CONTINUOUS
 66
     1
 40
0.003000
 41
0.003000
  0
VERTEX
  8
PLAN_1
 62
     5
  6
CONTINUOUS
 10
-0.351579
 20
-0.429406
  0
VERTEX
  8
PLAN_1
 62
     5
  6
CONTINUOUS
 10
-0.343150
 20
-0.429406
  0
SEQEND
  8
0
  0
POLYLINE
  8
PLAN_1
 62
     5
  6
CONTINUOUS
 66
     1
 40
0.003000
 41
0.003000
  0
VERTEX
  8
PLAN_1
 62
     5
  6
CONTINUOUS
 10
-0.334717
 20
-0.429406
  0
VERTEX
  8
PLAN_1
 62
     5
  6
CONTINUOUS
 10
-0.326287
 20
-0.429406
  0
SEQEND
  8
0
  0
POLYLINE
  8
PLAN_1
 62
     5
  6
CONTINUOUS
 66
     1
 40
0.003000
 41
0.003000
  0
VERTEX
  8
PLAN_1
 62
     5
  6
CONTINUOUS
 10
-0.317858
 20
-0.429406
  0
VERTEX
  8
PLAN_1
 62
     5
  6
CONTINUOUS
 10
-0.309957
 20
-0.429406
  0
SEQEND
  8
0
  0
POLYLINE
  8
PLAN_1
 62
     5
  6
CONTINUOUS
 66
     1
 40
0.003000
 41
0.003000
  0
VERTEX
  8
PLAN_1
 62
     5
  6
CONTINUOUS
 10
-0.301524
 20
-0.429406
  0
VERTEX
  8
PLAN_1
 62
     5
  6
CONTINUOUS
 10
-0.293094
 20
-0.429406
  0
SEQEND
  8
0
  0
POLYLINE
  8
PLAN_1
 62
     5
  6
CONTINUOUS
 66
     1
 40
0.003000
 41
0.003000
  0
VERTEX
  8
PLAN_1
 62
     5
  6
CONTINUOUS
 10
-0.284665
 20
-0.429406
  0
VERTEX
  8
PLAN_1
 62
     5
  6
CONTINUOUS
 10
-0.276236
 20
-0.429406
  0
SEQEND
  8
0
  0
POLYLINE
  8
PLAN_1
 62
     5
  6
CONTINUOUS
 66
     1
 40
0.003000
 41
0.003000
  0
VERTEX
  8
PLAN_1
 62
     5
  6
CONTINUOUS
 10
-0.268331
 20
-0.429406
  0
VERTEX
  8
PLAN_1
 62
     5
  6
CONTINUOUS
 10
-0.259902
 20
-0.429406
  0
SEQEND
  8
0
  0
POLYLINE
  8
PLAN_1
 62
     5
  6
CONTINUOUS
 66
     1
 40
0.003000
 41
0.003000
  0
VERTEX
  8
PLAN_1
 62
     5
  6
CONTINUOUS
 10
-0.251472
 20
-0.429406
  0
VERTEX
  8
PLAN_1
 62
     5
  6
CONTINUOUS
 10
-0.243043
 20
-0.429406
  0
SEQEND
  8
0
  0
POLYLINE
  8
PLAN_1
 62
     5
  6
CONTINUOUS
 66
     1
 40
0.003000
 41
0.003000
  0
VERTEX
  8
PLAN_1
 62
     5
  6
CONTINUOUS
 10
-0.234614
 20
-0.429406
  0
VERTEX
  8
PLAN_1
 62
     5
  6
CONTINUOUS
 10
-0.226181
 20
-0.429406
  0
SEQEND
  8
0
  0
POLYLINE
  8
PLAN_1
 62
     5
  6
CONTINUOUS
 66
     1
 40
0.003000
 41
0.003000
  0
VERTEX
  8
PLAN_1
 62
     5
  6
CONTINUOUS
 10
-0.218280
 20
-0.429406
  0
VERTEX
  8
PLAN_1
 62
     5
  6
CONTINUOUS
 10
-0.209850
 20
-0.429406
  0
SEQEND
  8
0
  0
POLYLINE
  8
PLAN_1
 62
     5
  6
CONTINUOUS
 66
     1
 40
0.003000
 41
0.003000
  0
VERTEX
  8
PLAN_1
 62
     5
  6
CONTINUOUS
 10
-0.201421
 20
-0.429406
  0
VERTEX
  8
PLAN_1
 62
     5
  6
CONTINUOUS
 10
-0.192988
 20
-0.429406
  0
SEQEND
  8
0
  0
POLYLINE
  8
PLAN_1
 62
     5
  6
CONTINUOUS
 66
     1
 40
0.003000
 41
0.003000
  0
VERTEX
  8
PLAN_1
 62
     5
  6
CONTINUOUS
 10
-0.184559
 20
-0.429406
  0
VERTEX
  8
PLAN_1
 62
     5
  6
CONTINUOUS
 10
-0.176657
 20
-0.429406
  0
SEQEND
  8
0
  0
POLYLINE
  8
PLAN_1
 62
     5
  6
CONTINUOUS
 66
     1
 40
0.003000
 41
0.003000
  0
VERTEX
  8
PLAN_1
 62
     5
  6
CONTINUOUS
 10
-0.168228
 20
-0.429406
  0
VERTEX
  8
PLAN_1
 62
     5
  6
CONTINUOUS
 10
-0.159799
 20
-0.429406
  0
SEQEND
  8
0
  0
POLYLINE
  8
PLAN_1
 62
     5
  6
CONTINUOUS
 66
     1
 40
0.003000
 41
0.003000
  0
VERTEX
  8
PLAN_1
 62
     5
  6
CONTINUOUS
 10
-0.151366
 20
-0.429406
  0
VERTEX
  8
PLAN_1
 62
     5
  6
CONTINUOUS
 10
-0.145043
 20
-0.429406
  0
VERTEX
  8
PLAN_1
 62
     5
  6
CONTINUOUS
 10
-0.142937
 20
-0.429406
  0
SEQEND
  8
0
  0
POLYLINE
  8
PLAN_1
 62
     5
  6
CONTINUOUS
 66
     1
 40
0.003000
 41
0.003000
  0
VERTEX
  8
PLAN_1
 62
     5
  6
CONTINUOUS
 10
-0.135035
 20
-0.429406
  0
VERTEX
  8
PLAN_1
 62
     5
  6
CONTINUOUS
 10
-0.126606
 20
-0.429406
  0
SEQEND
  8
0
  0
POLYLINE
  8
PLAN_1
 62
     5
  6
CONTINUOUS
 66
     1
 40
0.003000
 41
0.003000
  0
VERTEX
  8
PLAN_1
 62
     5
  6
CONTINUOUS
 10
-0.118173
 20
-0.429406
  0
VERTEX
  8
PLAN_1
 62
     5
  6
CONTINUOUS
 10
-0.109744
 20
-0.429406
  0
SEQEND
  8
0
  0
POLYLINE
  8
PLAN_1
 62
     5
  6
CONTINUOUS
 66
     1
 40
0.003000
 41
0.003000
  0
VERTEX
  8
PLAN_1
 62
     5
  6
CONTINUOUS
 10
-0.101315
 20
-0.429406
  0
VERTEX
  8
PLAN_1
 62
     5
  6
CONTINUOUS
 10
-0.093413
 20
-0.429406
  0
SEQEND
  8
0
  0
POLYLINE
  8
PLAN_1
 62
     5
  6
CONTINUOUS
 66
     1
 40
0.003000
 41
0.003000
  0
VERTEX
  8
PLAN_1
 62
     5
  6
CONTINUOUS
 10
-0.084980
 20
-0.429406
  0
VERTEX
  8
PLAN_1
 62
     5
  6
CONTINUOUS
 10
-0.076551
 20
-0.429406
  0
SEQEND
  8
0
  0
POLYLINE
  8
PLAN_1
 62
     5
  6
CONTINUOUS
 66
     1
 40
0.003000
 41
0.003000
  0
VERTEX
  8
PLAN_1
 62
     5
  6
CONTINUOUS
 10
-0.068122
 20
-0.429406
  0
VERTEX
  8
PLAN_1
 62
     5
  6
CONTINUOUS
 10
-0.059693
 20
-0.429406
  0
SEQEND
  8
0
  0
POLYLINE
  8
PLAN_1
 62
     5
  6
CONTINUOUS
 66
     1
 40
0.003000
 41
0.003000
  0
VERTEX
  8
PLAN_1
 62
     5
  6
CONTINUOUS
 10
-0.051264
 20
-0.429406
  0
VERTEX
  8
PLAN_1
 62
     5
  6
CONTINUOUS
 10
-0.043358
 20
-0.429406
  0
SEQEND
  8
0
  0
POLYLINE
  8
PLAN_1
 62
     5
  6
CONTINUOUS
 66
     1
 40
0.003000
 41
0.003000
  0
VERTEX
  8
PLAN_1
 62
     5
  6
CONTINUOUS
 10
-0.034929
 20
-0.429406
  0
VERTEX
  8
PLAN_1
 62
     5
  6
CONTINUOUS
 10
-0.026500
 20
-0.429406
  0
SEQEND
  8
0
  0
POLYLINE
  8
PLAN_1
 62
     5
  6
CONTINUOUS
 66
     1
 40
0.003000
 41
0.003000
  0
VERTEX
  8
PLAN_1
 62
     5
  6
CONTINUOUS
 10
-0.018071
 20
-0.429406
  0
VERTEX
  8
PLAN_1
 62
     5
  6
CONTINUOUS
 10
-0.009638
 20
-0.429406
  0
SEQEND
  8
0
  0
POLYLINE
  8
PLAN_1
 62
     5
  6
CONTINUOUS
 66
     1
 40
0.003000
 41
0.003000
  0
VERTEX
  8
PLAN_1
 62
     5
  6
CONTINUOUS
 10
-0.001736
 20
-0.429406
  0
VERTEX
  8
PLAN_1
 62
     5
  6
CONTINUOUS
 10
0.006693
 20
-0.429406
  0
SEQEND
  8
0
  0
POLYLINE
  8
PLAN_1
 62
     5
  6
CONTINUOUS
 66
     1
 40
0.003000
 41
0.003000
  0
VERTEX
  8
PLAN_1
 62
     5
  6
CONTINUOUS
 10
0.015122
 20
-0.429406
  0
VERTEX
  8
PLAN_1
 62
     5
  6
CONTINUOUS
 10
0.023551
 20
-0.429406
  0
SEQEND
  8
0
  0
POLYLINE
  8
PLAN_1
 62
     5
  6
CONTINUOUS
 66
     1
 40
0.003000
 41
0.003000
  0
VERTEX
  8
PLAN_1
 62
     5
  6
CONTINUOUS
 10
0.031984
 20
-0.429406
  0
VERTEX
  8
PLAN_1
 62
     5
  6
CONTINUOUS
 10
0.039886
 20
-0.429406
  0
SEQEND
  8
0
  0
POLYLINE
  8
PLAN_1
 62
     5
  6
CONTINUOUS
 66
     1
 40
0.003000
 41
0.003000
  0
VERTEX
  8
PLAN_1
 62
     5
  6
CONTINUOUS
 10
0.048315
 20
-0.429406
  0
VERTEX
  8
PLAN_1
 62
     5
  6
CONTINUOUS
 10
0.056744
 20
-0.429406
  0
SEQEND
  8
0
  0
POLYLINE
  8
PLAN_1
 62
     5
  6
CONTINUOUS
 66
     1
 40
0.003000
 41
0.003000
  0
VERTEX
  8
PLAN_1
 62
     5
  6
CONTINUOUS
 10
0.065177
 20
-0.429406
  0
VERTEX
  8
PLAN_1
 62
     5
  6
CONTINUOUS
 10
0.073606
 20
-0.429406
  0
SEQEND
  8
0
  0
POLYLINE
  8
PLAN_1
 62
     5
  6
CONTINUOUS
 66
     1
 40
0.003000
 41
0.003000
  0
VERTEX
  8
PLAN_1
 62
     5
  6
CONTINUOUS
 10
0.081508
 20
-0.429406
  0
VERTEX
  8
PLAN_1
 62
     5
  6
CONTINUOUS
 10
0.089937
 20
-0.429406
  0
SEQEND
  8
0
  0
POLYLINE
  8
PLAN_1
 62
     5
  6
CONTINUOUS
 66
     1
 40
0.003000
 41
0.003000
  0
VERTEX
  8
PLAN_1
 62
     5
  6
CONTINUOUS
 10
0.098370
 20
-0.429406
  0
VERTEX
  8
PLAN_1
 62
     5
  6
CONTINUOUS
 10
0.106799
 20
-0.429406
  0
SEQEND
  8
0
  0
POLYLINE
  8
PLAN_1
 62
     5
  6
CONTINUOUS
 66
     1
 40
0.003000
 41
0.003000
  0
VERTEX
  8
PLAN_1
 62
     5
  6
CONTINUOUS
 10
0.115228
 20
-0.429406
  0
VERTEX
  8
PLAN_1
 62
     5
  6
CONTINUOUS
 10
0.123657
 20
-0.429406
  0
SEQEND
  8
0
  0
POLYLINE
  8
PLAN_1
 62
     5
  6
CONTINUOUS
 66
     1
 40
0.003000
 41
0.003000
  0
VERTEX
  8
PLAN_1
 62
     5
  6
CONTINUOUS
 10
0.131563
 20
-0.429406
  0
VERTEX
  8
PLAN_1
 62
     5
  6
CONTINUOUS
 10
0.139992
 20
-0.429406
  0
SEQEND
  8
0
  0
POLYLINE
  8
PLAN_1
 62
     5
  6
CONTINUOUS
 66
     1
 40
0.003000
 41
0.003000
  0
VERTEX
  8
PLAN_1
 62
     5
  6
CONTINUOUS
 10
0.148421
 20
-0.429406
  0
VERTEX
  8
PLAN_1
 62
     5
  6
CONTINUOUS
 10
0.156850
 20
-0.429406
  0
SEQEND
  8
0
  0
POLYLINE
  8
PLAN_1
 62
     5
  6
CONTINUOUS
 66
     1
 40
0.003000
 41
0.003000
  0
VERTEX
  8
PLAN_1
 62
     5
  6
CONTINUOUS
 10
0.165280
 20
-0.429406
  0
VERTEX
  8
PLAN_1
 62
     5
  6
CONTINUOUS
 10
0.173185
 20
-0.429406
  0
SEQEND
  8
0
  0
POLYLINE
  8
PLAN_1
 62
     5
  6
CONTINUOUS
 66
     1
 40
0.003000
 41
0.003000
  0
VERTEX
  8
PLAN_1
 62
     5
  6
CONTINUOUS
 10
0.181614
 20
-0.429406
  0
VERTEX
  8
PLAN_1
 62
     5
  6
CONTINUOUS
 10
0.190043
 20
-0.429406
  0
SEQEND
  8
0
  0
POLYLINE
  8
PLAN_1
 62
     5
  6
CONTINUOUS
 66
     1
 40
0.003000
 41
0.003000
  0
VERTEX
  8
PLAN_1
 62
     5
  6
CONTINUOUS
 10
0.198472
 20
-0.429406
  0
VERTEX
  8
PLAN_1
 62
     5
  6
CONTINUOUS
 10
0.206906
 20
-0.429406
  0
SEQEND
  8
0
  0
POLYLINE
  8
PLAN_1
 62
     5
  6
CONTINUOUS
 66
     1
 40
0.003000
 41
0.003000
  0
VERTEX
  8
PLAN_1
 62
     5
  6
CONTINUOUS
 10
0.214807
 20
-0.429406
  0
VERTEX
  8
PLAN_1
 62
     5
  6
CONTINUOUS
 10
0.218496
 20
-0.429406
  0
VERTEX
  8
PLAN_1
 62
     5
  6
CONTINUOUS
 10
0.223236
 20
-0.429933
  0
SEQEND
  8
0
  0
POLYLINE
  8
PLAN_1
 62
     5
  6
CONTINUOUS
 66
     1
 40
0.003000
 41
0.003000
  0
VERTEX
  8
PLAN_1
 62
     5
  6
CONTINUOUS
 10
0.231665
 20
-0.430457
  0
VERTEX
  8
PLAN_1
 62
     5
  6
CONTINUOUS
 10
0.239043
 20
-0.431512
  0
VERTEX
  8
PLAN_1
 62
     5
  6
CONTINUOUS
 10
0.240094
 20
-0.431512
  0
SEQEND
  8
0
  0
POLYLINE
  8
PLAN_1
 62
     5
  6
CONTINUOUS
 66
     1
 40
0.003000
 41
0.003000
  0
VERTEX
  8
PLAN_1
 62
     5
  6
CONTINUOUS
 10
0.248000
 20
-0.433091
  0
VERTEX
  8
PLAN_1
 62
     5
  6
CONTINUOUS
 10
0.253268
 20
-0.434146
  0
VERTEX
  8
PLAN_1
 62
     5
  6
CONTINUOUS
 10
0.256429
 20
-0.434673
  0
SEQEND
  8
0
  0
POLYLINE
  8
PLAN_1
 62
     5
  6
CONTINUOUS
 66
     1
 40
0.003000
 41
0.003000
  0
VERTEX
  8
PLAN_1
 62
     5
  6
CONTINUOUS
 10
0.264331
 20
-0.436780
  0
VERTEX
  8
PLAN_1
 62
     5
  6
CONTINUOUS
 10
0.268547
 20
-0.438362
  0
VERTEX
  8
PLAN_1
 62
     5
  6
CONTINUOUS
 10
0.272236
 20
-0.439413
  0
SEQEND
  8
0
  0
POLYLINE
  8
PLAN_1
 62
     5
  6
CONTINUOUS
 66
     1
 40
0.003000
 41
0.003000
  0
VERTEX
  8
PLAN_1
 62
     5
  6
CONTINUOUS
 10
0.280138
 20
-0.442575
  0
VERTEX
  8
PLAN_1
 62
     5
  6
CONTINUOUS
 10
0.284882
 20
-0.444685
  0
VERTEX
  8
PLAN_1
 62
     5
  6
CONTINUOUS
 10
0.287516
 20
-0.445736
  0
SEQEND
  8
0
  0
POLYLINE
  8
PLAN_1
 62
     5
  6
CONTINUOUS
 66
     1
 40
0.003000
 41
0.003000
  0
VERTEX
  8
PLAN_1
 62
     5
  6
CONTINUOUS
 10
0.294890
 20
-0.449425
  0
VERTEX
  8
PLAN_1
 62
     5
  6
CONTINUOUS
 10
0.302268
 20
-0.453114
  0
VERTEX
  8
PLAN_1
 62
     5
  6
CONTINUOUS
 10
0.302268
 20
-0.453642
  0
SEQEND
  8
0
  0
POLYLINE
  8
PLAN_1
 62
     5
  6
CONTINUOUS
 66
     1
 40
0.003000
 41
0.003000
  0
VERTEX
  8
PLAN_1
 62
     5
  6
CONTINUOUS
 10
0.309642
 20
-0.457854
  0
VERTEX
  8
PLAN_1
 62
     5
  6
CONTINUOUS
 10
0.310697
 20
-0.458909
  0
VERTEX
  8
PLAN_1
 62
     5
  6
CONTINUOUS
 10
0.315965
 20
-0.463122
  0
SEQEND
  8
0
  0
POLYLINE
  8
PLAN_1
 62
     5
  6
CONTINUOUS
 66
     1
 40
0.003000
 41
0.003000
  0
VERTEX
  8
PLAN_1
 62
     5
  6
CONTINUOUS
 10
0.322815
 20
-0.467866
  0
VERTEX
  8
PLAN_1
 62
     5
  6
CONTINUOUS
 10
0.327555
 20
-0.472079
  0
VERTEX
  8
PLAN_1
 62
     5
  6
CONTINUOUS
 10
0.329138
 20
-0.473661
  0
SEQEND
  8
0
  0
POLYLINE
  8
PLAN_1
 62
     5
  6
CONTINUOUS
 66
     1
 40
0.003000
 41
0.003000
  0
VERTEX
  8
PLAN_1
 62
     5
  6
CONTINUOUS
 10
0.334933
 20
-0.479457
  0
VERTEX
  8
PLAN_1
 62
     5
  6
CONTINUOUS
 10
0.335461
 20
-0.479984
  0
VERTEX
  8
PLAN_1
 62
     5
  6
CONTINUOUS
 10
0.340728
 20
-0.485252
  0
SEQEND
  8
0
  0
POLYLINE
  8
PLAN_1
 62
     5
  6
CONTINUOUS
 66
     1
 40
0.003000
 41
0.003000
  0
VERTEX
  8
PLAN_1
 62
     5
  6
CONTINUOUS
 10
0.345996
 20
-0.491575
  0
VERTEX
  8
PLAN_1
 62
     5
  6
CONTINUOUS
 10
0.350740
 20
-0.498425
  0
VERTEX
  8
PLAN_1
 62
     5
  6
CONTINUOUS
 10
0.351264
 20
-0.498425
  0
SEQEND
  8
0
  0
POLYLINE
  8
PLAN_1
 62
     5
  6
CONTINUOUS
 66
     1
 40
0.003000
 41
0.003000
  0
VERTEX
  8
PLAN_1
 62
     5
  6
CONTINUOUS
 10
0.355480
 20
-0.505272
  0
VERTEX
  8
PLAN_1
 62
     5
  6
CONTINUOUS
 10
0.358114
 20
-0.508961
  0
VERTEX
  8
PLAN_1
 62
     5
  6
CONTINUOUS
 10
0.360224
 20
-0.512122
  0
SEQEND
  8
0
  0
POLYLINE
  8
PLAN_1
 62
     5
  6
CONTINUOUS
 66
     1
 40
0.003000
 41
0.003000
  0
VERTEX
  8
PLAN_1
 62
     5
  6
CONTINUOUS
 10
0.364437
 20
-0.519500
  0
VERTEX
  8
PLAN_1
 62
     5
  6
CONTINUOUS
 10
0.364965
 20
-0.520551
  0
VERTEX
  8
PLAN_1
 62
     5
  6
CONTINUOUS
 10
0.368126
 20
-0.526874
  0
SEQEND
  8
0
  0
POLYLINE
  8
PLAN_1
 62
     5
  6
CONTINUOUS
 66
     1
 40
0.003000
 41
0.003000
  0
VERTEX
  8
PLAN_1
 62
     5
  6
CONTINUOUS
 10
0.371287
 20
-0.534780
  0
VERTEX
  8
PLAN_1
 62
     5
  6
CONTINUOUS
 10
0.374449
 20
-0.542154
  0
SEQEND
  8
0
  0
POLYLINE
  8
PLAN_1
 62
     5
  6
CONTINUOUS
 66
     1
 40
0.003000
 41
0.003000
  0
VERTEX
  8
PLAN_1
 62
     5
  6
CONTINUOUS
 10
0.377610
 20
-0.550059
  0
VERTEX
  8
PLAN_1
 62
     5
  6
CONTINUOUS
 10
0.379717
 20
-0.557961
  0
SEQEND
  8
0
  0
POLYLINE
  8
PLAN_1
 62
     5
  6
CONTINUOUS
 66
     1
 40
0.003000
 41
0.003000
  0
VERTEX
  8
PLAN_1
 62
     5
  6
CONTINUOUS
 10
0.382350
 20
-0.565862
  0
VERTEX
  8
PLAN_1
 62
     5
  6
CONTINUOUS
 10
0.384457
 20
-0.574291
  0
SEQEND
  8
0
  0
POLYLINE
  8
PLAN_1
 62
     5
  6
CONTINUOUS
 66
     1
 40
0.003000
 41
0.003000
  0
VERTEX
  8
PLAN_1
 62
     5
  6
CONTINUOUS
 10
0.386039
 20
-0.582197
  0
VERTEX
  8
PLAN_1
 62
     5
  6
CONTINUOUS
 10
0.387094
 20
-0.587465
  0
VERTEX
  8
PLAN_1
 62
     5
  6
CONTINUOUS
 10
0.387618
 20
-0.590626
  0
SEQEND
  8
0
  0
POLYLINE
  8
PLAN_1
 62
     5
  6
CONTINUOUS
 66
     1
 40
0.003000
 41
0.003000
  0
VERTEX
  8
PLAN_1
 62
     5
  6
CONTINUOUS
 10
0.389201
 20
-0.598528
  0
VERTEX
  8
PLAN_1
 62
     5
  6
CONTINUOUS
 10
0.390256
 20
-0.605906
  0
VERTEX
  8
PLAN_1
 62
     5
  6
CONTINUOUS
 10
0.390256
 20
-0.606961
  0
SEQEND
  8
0
  0
POLYLINE
  8
PLAN_1
 62
     5
  6
CONTINUOUS
 66
     1
 40
0.003000
 41
0.003000
  0
VERTEX
  8
PLAN_1
 62
     5
  6
CONTINUOUS
 10
0.391307
 20
-0.615390
  0
VERTEX
  8
PLAN_1
 62
     5
  6
CONTINUOUS
 10
0.391835
 20
-0.623291
  0
SEQEND
  8
0
  0
POLYLINE
  8
PLAN_1
 62
     5
  6
CONTINUOUS
 66
     1
 40
0.003000
 41
0.003000
  0
VERTEX
  8
PLAN_1
 62
     5
  6
CONTINUOUS
 10
0.392362
 20
-0.631720
  0
VERTEX
  8
PLAN_1
 62
     5
  6
CONTINUOUS
 10
0.392890
 20
-0.635937
  0
VERTEX
  8
PLAN_1
 62
     5
  6
CONTINUOUS
 10
0.392890
 20
-0.640154
  0
SEQEND
  8
0
  0
POLYLINE
  8
PLAN_1
 62
     5
  6
CONTINUOUS
 66
     1
 40
0.003000
 41
0.003000
  0
VERTEX
  8
PLAN_1
 62
     5
  6
CONTINUOUS
 10
0.393413
 20
-0.648583
  0
VERTEX
  8
PLAN_1
 62
     5
  6
CONTINUOUS
 10
0.393413
 20
-0.657012
  0
SEQEND
  8
0
  0
POLYLINE
  8
PLAN_1
 62
     5
  6
CONTINUOUS
 66
     1
 40
0.003000
 41
0.003000
  0
VERTEX
  8
PLAN_1
 62
     5
  6
CONTINUOUS
 10
0.393413
 20
-0.658067
  0
VERTEX
  8
PLAN_1
 62
     5
  6
CONTINUOUS
 10
0.393413
 20
-0.665969
  0
SEQEND
  8
0
  0
POLYLINE
  8
PLAN_1
 62
     5
  6
CONTINUOUS
 66
     1
 40
0.003000
 41
0.003000
  0
VERTEX
  8
PLAN_1
 62
     5
  6
CONTINUOUS
 10
0.393413
 20
-0.674398
  0
VERTEX
  8
PLAN_1
 62
     5
  6
CONTINUOUS
 10
0.393413
 20
-0.682827
  0
SEQEND
  8
0
  0
POLYLINE
  8
PLAN_1
 62
     5
  6
CONTINUOUS
 66
     1
 40
0.003000
 41
0.003000
  0
VERTEX
  8
PLAN_1
 62
     5
  6
CONTINUOUS
 10
0.393413
 20
-0.691260
  0
VERTEX
  8
PLAN_1
 62
     5
  6
CONTINUOUS
 10
0.393413
 20
-0.699689
  0
SEQEND
  8
0
  0
POLYLINE
  8
PLAN_1
 62
     5
  6
CONTINUOUS
 66
     1
 40
0.003000
 41
0.003000
  0
VERTEX
  8
PLAN_1
 62
     5
  6
CONTINUOUS
 10
0.393413
 20
-0.707591
  0
VERTEX
  8
PLAN_1
 62
     5
  6
CONTINUOUS
 10
0.393413
 20
-0.716020
  0
SEQEND
  8
0
  0
POLYLINE
  8
PLAN_1
 62
     5
  6
CONTINUOUS
 66
     1
 40
0.003000
 41
0.003000
  0
VERTEX
  8
PLAN_1
 62
     5
  6
CONTINUOUS
 10
0.393413
 20
-0.724453
  0
VERTEX
  8
PLAN_1
 62
     5
  6
CONTINUOUS
 10
0.393413
 20
-0.732882
  0
SEQEND
  8
0
  0
POLYLINE
  8
PLAN_1
 62
     5
  6
CONTINUOUS
 66
     1
 40
0.003000
 41
0.003000
  0
VERTEX
  8
PLAN_1
 62
     5
  6
CONTINUOUS
 10
0.393413
 20
-0.741311
  0
VERTEX
  8
PLAN_1
 62
     5
  6
CONTINUOUS
 10
0.393413
 20
-0.749213
  0
SEQEND
  8
0
  0
POLYLINE
  8
PLAN_1
 62
     5
  6
CONTINUOUS
 66
     1
 40
0.003000
 41
0.003000
  0
VERTEX
  8
PLAN_1
 62
     5
  6
CONTINUOUS
 10
0.393413
 20
-0.757642
  0
VERTEX
  8
PLAN_1
 62
     5
  6
CONTINUOUS
 10
0.393413
 20
-0.766075
  0
SEQEND
  8
0
  0
POLYLINE
  8
PLAN_1
 62
     5
  6
CONTINUOUS
 66
     1
 40
0.003000
 41
0.003000
  0
VERTEX
  8
PLAN_1
 62
     5
  6
CONTINUOUS
 10
0.393413
 20
-0.774504
  0
VERTEX
  8
PLAN_1
 62
     5
  6
CONTINUOUS
 10
0.393413
 20
-0.782933
  0
SEQEND
  8
0
  0
POLYLINE
  8
PLAN_1
 62
     5
  6
CONTINUOUS
 66
     1
 40
0.003000
 41
0.003000
  0
VERTEX
  8
PLAN_1
 62
     5
  6
CONTINUOUS
 10
0.393413
 20
-0.790835
  0
VERTEX
  8
PLAN_1
 62
     5
  6
CONTINUOUS
 10
0.393413
 20
-0.799268
  0
SEQEND
  8
0
  0
POLYLINE
  8
PLAN_1
 62
     5
  6
CONTINUOUS
 66
     1
 40
0.003000
 41
0.003000
  0
VERTEX
  8
PLAN_1
 62
     5
  6
CONTINUOUS
 10
0.393413
 20
-0.807697
  0
VERTEX
  8
PLAN_1
 62
     5
  6
CONTINUOUS
 10
0.393413
 20
-0.816126
  0
SEQEND
  8
0
  0
POLYLINE
  8
PLAN_1
 62
     5
  6
CONTINUOUS
 66
     1
 40
0.003000
 41
0.003000
  0
VERTEX
  8
PLAN_1
 62
     5
  6
CONTINUOUS
 10
0.393413
 20
-0.824555
  0
VERTEX
  8
PLAN_1
 62
     5
  6
CONTINUOUS
 10
0.393413
 20
-0.832984
  0
SEQEND
  8
0
  0
POLYLINE
  8
PLAN_1
 62
     5
  6
CONTINUOUS
 66
     1
 40
0.003000
 41
0.003000
  0
VERTEX
  8
PLAN_1
 62
     5
  6
CONTINUOUS
 10
0.393413
 20
-0.840890
  0
VERTEX
  8
PLAN_1
 62
     5
  6
CONTINUOUS
 10
0.393413
 20
-0.849319
  0
SEQEND
  8
0
  0
POLYLINE
  8
PLAN_1
 62
     5
  6
CONTINUOUS
 66
     1
 40
0.003000
 41
0.003000
  0
VERTEX
  8
PLAN_1
 62
     5
  6
CONTINUOUS
 10
0.393413
 20
-0.857748
  0
VERTEX
  8
PLAN_1
 62
     5
  6
CONTINUOUS
 10
0.393413
 20
-0.866177
  0
SEQEND
  8
0
  0
POLYLINE
  8
PLAN_1
 62
     5
  6
CONTINUOUS
 66
     1
 40
0.003000
 41
0.003000
  0
VERTEX
  8
PLAN_1
 62
     5
  6
CONTINUOUS
 10
0.393413
 20
-0.874610
  0
VERTEX
  8
PLAN_1
 62
     5
  6
CONTINUOUS
 10
0.393413
 20
-0.882512
  0
SEQEND
  8
0
  0
POLYLINE
  8
PLAN_1
 62
     5
  6
CONTINUOUS
 66
     1
 40
0.003000
 41
0.003000
  0
VERTEX
  8
PLAN_1
 62
     5
  6
CONTINUOUS
 10
0.393413
 20
-0.890941
  0
VERTEX
  8
PLAN_1
 62
     5
  6
CONTINUOUS
 10
0.393413
 20
-0.899370
  0
SEQEND
  8
0
  0
POLYLINE
  8
PLAN_1
 62
     5
  6
CONTINUOUS
 66
     1
 40
0.003000
 41
0.003000
  0
VERTEX
  8
PLAN_1
 62
     5
  6
CONTINUOUS
 10
0.393413
 20
-0.907803
  0
VERTEX
  8
PLAN_1
 62
     5
  6
CONTINUOUS
 10
0.393413
 20
-0.916232
  0
SEQEND
  8
0
  0
POLYLINE
  8
PLAN_1
 62
     5
  6
CONTINUOUS
 66
     1
 40
0.003000
 41
0.003000
  0
VERTEX
  8
PLAN_1
 62
     5
  6
CONTINUOUS
 10
0.393413
 20
-0.924134
  0
VERTEX
  8
PLAN_1
 62
     5
  6
CONTINUOUS
 10
0.393413
 20
-0.932563
  0
SEQEND
  8
0
  0
POLYLINE
  8
PLAN_1
 62
     5
  6
CONTINUOUS
 66
     1
 40
0.003000
 41
0.003000
  0
VERTEX
  8
PLAN_1
 62
     5
  6
CONTINUOUS
 10
0.393413
 20
-0.940996
  0
VERTEX
  8
PLAN_1
 62
     5
  6
CONTINUOUS
 10
0.393413
 20
-0.949425
  0
SEQEND
  8
0
  0
POLYLINE
  8
PLAN_1
 62
     5
  6
CONTINUOUS
 66
     1
 40
0.003000
 41
0.003000
  0
VERTEX
  8
PLAN_1
 62
     5
  6
CONTINUOUS
 10
0.393413
 20
-0.957854
  0
VERTEX
  8
PLAN_1
 62
     5
  6
CONTINUOUS
 10
0.393413
 20
-0.965756
  0
SEQEND
  8
0
  0
POLYLINE
  8
PLAN_1
 62
     5
  6
CONTINUOUS
 66
     1
 40
0.003000
 41
0.003000
  0
VERTEX
  8
PLAN_1
 62
     5
  6
CONTINUOUS
 10
0.393413
 20
-0.974185
  0
VERTEX
  8
PLAN_1
 62
     5
  6
CONTINUOUS
 10
0.393413
 20
-0.982618
  0
SEQEND
  8
0
  0
POLYLINE
  8
PLAN_1
 62
     5
  6
CONTINUOUS
 66
     1
 40
0.003000
 41
0.003000
  0
VERTEX
  8
PLAN_1
 62
     5
  6
CONTINUOUS
 10
0.393413
 20
-0.991047
  0
VERTEX
  8
PLAN_1
 62
     5
  6
CONTINUOUS
 10
0.393413
 20
-0.999476
  0
SEQEND
  8
0
  0
POLYLINE
  8
PLAN_1
 62
     5
  6
CONTINUOUS
 66
     1
 40
0.003000
 41
0.003000
  0
VERTEX
  8
PLAN_1
 62
     5
  6
CONTINUOUS
 10
0.393413
 20
-1.007906
  0
VERTEX
  8
PLAN_1
 62
     5
  6
CONTINUOUS
 10
0.393413
 20
-1.015811
  0
SEQEND
  8
0
  0
POLYLINE
  8
PLAN_1
 62
     5
  6
CONTINUOUS
 66
     1
 40
0.003000
 41
0.003000
  0
VERTEX
  8
PLAN_1
 62
     5
  6
CONTINUOUS
 10
0.393413
 20
-1.024240
  0
VERTEX
  8
PLAN_1
 62
     5
  6
CONTINUOUS
 10
0.393413
 20
-1.032669
  0
SEQEND
  8
0
  0
POLYLINE
  8
PLAN_1
 62
     5
  6
CONTINUOUS
 66
     1
 40
0.003000
 41
0.003000
  0
VERTEX
  8
PLAN_1
 62
     5
  6
CONTINUOUS
 10
0.393413
 20
-1.041098
  0
VERTEX
  8
PLAN_1
 62
     5
  6
CONTINUOUS
 10
0.393413
 20
-1.049528
  0
SEQEND
  8
0
  0
POLYLINE
  8
PLAN_1
 62
     5
  6
CONTINUOUS
 66
     1
 40
0.003000
 41
0.003000
  0
VERTEX
  8
PLAN_1
 62
     5
  6
CONTINUOUS
 10
0.393413
 20
-1.057433
  0
VERTEX
  8
PLAN_1
 62
     5
  6
CONTINUOUS
 10
0.393413
 20
-1.065862
  0
SEQEND
  8
0
  0
POLYLINE
  8
PLAN_1
 62
     5
  6
CONTINUOUS
 66
     1
 40
0.003000
 41
0.003000
  0
VERTEX
  8
PLAN_1
 62
     5
  6
CONTINUOUS
 10
0.393413
 20
-1.074291
  0
VERTEX
  8
PLAN_1
 62
     5
  6
CONTINUOUS
 10
0.393413
 20
-1.082720
  0
SEQEND
  8
0
  0
POLYLINE
  8
PLAN_1
 62
     5
  6
CONTINUOUS
 66
     1
 40
0.003000
 41
0.003000
  0
VERTEX
  8
PLAN_1
 62
     5
  6
CONTINUOUS
 10
0.393413
 20
-1.091154
  0
VERTEX
  8
PLAN_1
 62
     5
  6
CONTINUOUS
 10
0.393413
 20
-1.099055
  0
SEQEND
  8
0
  0
POLYLINE
  8
PLAN_1
 62
     5
  6
CONTINUOUS
 66
     1
 40
0.003000
 41
0.003000
  0
VERTEX
  8
PLAN_1
 62
     5
  6
CONTINUOUS
 10
0.393413
 20
-1.107484
  0
VERTEX
  8
PLAN_1
 62
     5
  6
CONTINUOUS
 10
0.393413
 20
-1.115913
  0
SEQEND
  8
0
  0
POLYLINE
  8
PLAN_1
 62
     5
  6
CONTINUOUS
 66
     1
 40
0.003000
 41
0.003000
  0
VERTEX
  8
PLAN_1
 62
     5
  6
CONTINUOUS
 10
0.393413
 20
-1.124346
  0
VERTEX
  8
PLAN_1
 62
     5
  6
CONTINUOUS
 10
0.393413
 20
-1.132776
  0
SEQEND
  8
0
  0
POLYLINE
  8
PLAN_1
 62
     5
  6
CONTINUOUS
 66
     1
 40
0.003000
 41
0.003000
  0
VERTEX
  8
PLAN_1
 62
     5
  6
CONTINUOUS
 10
0.393413
 20
-1.140677
  0
VERTEX
  8
PLAN_1
 62
     5
  6
CONTINUOUS
 10
0.393413
 20
-1.149106
  0
SEQEND
  8
0
  0
POLYLINE
  8
PLAN_1
 62
     5
  6
CONTINUOUS
 66
     1
 40
0.003000
 41
0.003000
  0
VERTEX
  8
PLAN_1
 62
     5
  6
CONTINUOUS
 10
0.393413
 20
-1.157535
  0
VERTEX
  8
PLAN_1
 62
     5
  6
CONTINUOUS
 10
0.393413
 20
-1.165969
  0
SEQEND
  8
0
  0
POLYLINE
  8
PLAN_1
 62
     5
  6
CONTINUOUS
 66
     1
 40
0.003000
 41
0.003000
  0
VERTEX
  8
PLAN_1
 62
     5
  6
CONTINUOUS
 10
0.393413
 20
-1.174398
  0
VERTEX
  8
PLAN_1
 62
     5
  6
CONTINUOUS
 10
0.393413
 20
-1.182827
  0
SEQEND
  8
0
  0
POLYLINE
  8
PLAN_1
 62
     5
  6
CONTINUOUS
 66
     1
 40
0.003000
 41
0.003000
  0
VERTEX
  8
PLAN_1
 62
     5
  6
CONTINUOUS
 10
0.393413
 20
-1.190728
  0
VERTEX
  8
PLAN_1
 62
     5
  6
CONTINUOUS
 10
0.393413
 20
-1.199161
  0
SEQEND
  8
0
  0
POLYLINE
  8
PLAN_1
  6
CONTINUOUS
 66
     1
 40
0.004213
 41
0.004213
  0
VERTEX
  8
PLAN_1
  6
CONTINUOUS
 10
-2.233028
 20
-0.678614
  0
VERTEX
  8
PLAN_1
  6
CONTINUOUS
 10
-1.908476
 20
-0.678614
  0
SEQEND
  8
0
  0
POLYLINE
  8
PLAN_1
  6
CONTINUOUS
 66
     1
 40
0.004213
 41
0.004213
  0
VERTEX
  8
PLAN_1
  6
CONTINUOUS
 10
-2.069169
 20
-0.827717
  0
VERTEX
  8
PLAN_1
  6
CONTINUOUS
 10
-2.069697
 20
-0.528984
  0
SEQEND
  8
0
  0
POLYLINE
  8
PLAN_1
  6
CONTINUOUS
 66
     1
 40
0.003000
 41
0.003000
  0
VERTEX
  8
PLAN_1
  6
CONTINUOUS
 10
-2.068118
 20
-0.640677
  0
VERTEX
  8
PLAN_1
  6
CONTINUOUS
 10
-2.072331
 20
-0.641205
  0
VERTEX
  8
PLAN_1
  6
CONTINUOUS
 10
-2.076020
 20
-0.641732
  0
VERTEX
  8
PLAN_1
  6
CONTINUOUS
 10
-2.079709
 20
-0.642787
  0
VERTEX
  8
PLAN_1
  6
CONTINUOUS
 10
-2.083398
 20
-0.643839
  0
VERTEX
  8
PLAN_1
  6
CONTINUOUS
 10
-2.086559
 20
-0.645421
  0
VERTEX
  8
PLAN_1
  6
CONTINUOUS
 10
-2.089720
 20
-0.647528
  0
VERTEX
  8
PLAN_1
  6
CONTINUOUS
 10
-2.092878
 20
-0.649634
  0
VERTEX
  8
PLAN_1
  6
CONTINUOUS
 10
-2.095516
 20
-0.652272
  0
VERTEX
  8
PLAN_1
  6
CONTINUOUS
 10
-2.097622
 20
-0.654906
  0
VERTEX
  8
PLAN_1
  6
CONTINUOUS
 10
-2.100256
 20
-0.657539
  0
VERTEX
  8
PLAN_1
  6
CONTINUOUS
 10
-2.101835
 20
-0.660701
  0
VERTEX
  8
PLAN_1
  6
CONTINUOUS
 10
-2.103417
 20
-0.664390
  0
VERTEX
  8
PLAN_1
  6
CONTINUOUS
 10
-2.104996
 20
-0.667547
  0
VERTEX
  8
PLAN_1
  6
CONTINUOUS
 10
-2.105524
 20
-0.671236
  0
VERTEX
  8
PLAN_1
  6
CONTINUOUS
 10
-2.106579
 20
-0.674925
  0
VERTEX
  8
PLAN_1
  6
CONTINUOUS
 10
-2.106579
 20
-0.679142
  0
VERTEX
  8
PLAN_1
  6
CONTINUOUS
 10
-2.106579
 20
-0.682827
  0
VERTEX
  8
PLAN_1
  6
CONTINUOUS
 10
-2.105524
 20
-0.686516
  0
VERTEX
  8
PLAN_1
  6
CONTINUOUS
 10
-2.104996
 20
-0.690205
  0
VERTEX
  8
PLAN_1
  6
CONTINUOUS
 10
-2.103417
 20
-0.693894
  0
VERTEX
  8
PLAN_1
  6
CONTINUOUS
 10
-2.101835
 20
-0.697055
  0
VERTEX
  8
PLAN_1
  6
CONTINUOUS
 10
-2.100256
 20
-0.700217
  0
VERTEX
  8
PLAN_1
  6
CONTINUOUS
 10
-2.097622
 20
-0.703378
  0
VERTEX
  8
PLAN_1
  6
CONTINUOUS
 10
-2.095516
 20
-0.706012
  0
VERTEX
  8
PLAN_1
  6
CONTINUOUS
 10
-2.092878
 20
-0.708646
  0
VERTEX
  8
PLAN_1
  6
CONTINUOUS
 10
-2.089720
 20
-0.710752
  0
VERTEX
  8
PLAN_1
  6
CONTINUOUS
 10
-2.086559
 20
-0.712858
  0
VERTEX
  8
PLAN_1
  6
CONTINUOUS
 10
-2.083398
 20
-0.714441
  0
VERTEX
  8
PLAN_1
  6
CONTINUOUS
 10
-2.079709
 20
-0.715496
  0
VERTEX
  8
PLAN_1
  6
CONTINUOUS
 10
-2.076020
 20
-0.716547
  0
VERTEX
  8
PLAN_1
  6
CONTINUOUS
 10
-2.072331
 20
-0.717075
  0
VERTEX
  8
PLAN_1
  6
CONTINUOUS
 10
-2.068118
 20
-0.717075
  0
VERTEX
  8
PLAN_1
  6
CONTINUOUS
 10
-2.064429
 20
-0.717075
  0
VERTEX
  8
PLAN_1
  6
CONTINUOUS
 10
-2.060740
 20
-0.716547
  0
VERTEX
  8
PLAN_1
  6
CONTINUOUS
 10
-2.057051
 20
-0.715496
  0
VERTEX
  8
PLAN_1
  6
CONTINUOUS
 10
-2.053366
 20
-0.714441
  0
VERTEX
  8
PLAN_1
  6
CONTINUOUS
 10
-2.050205
 20
-0.712858
  0
VERTEX
  8
PLAN_1
  6
CONTINUOUS
 10
-2.047043
 20
-0.710752
  0
VERTEX
  8
PLAN_1
  6
CONTINUOUS
 10
-2.043882
 20
-0.708646
  0
VERTEX
  8
PLAN_1
  6
CONTINUOUS
 10
-2.041248
 20
-0.706012
  0
VERTEX
  8
PLAN_1
  6
CONTINUOUS
 10
-2.039138
 20
-0.703378
  0
VERTEX
  8
PLAN_1
  6
CONTINUOUS
 10
-2.036504
 20
-0.700217
  0
VERTEX
  8
PLAN_1
  6
CONTINUOUS
 10
-2.034925
 20
-0.697055
  0
VERTEX
  8
PLAN_1
  6
CONTINUOUS
 10
-2.033343
 20
-0.693894
  0
VERTEX
  8
PLAN_1
  6
CONTINUOUS
 10
-2.031764
 20
-0.690205
  0
VERTEX
  8
PLAN_1
  6
CONTINUOUS
 10
-2.030709
 20
-0.686516
  0
VERTEX
  8
PLAN_1
  6
CONTINUOUS
 10
-2.030181
 20
-0.682827
  0
VERTEX
  8
PLAN_1
  6
CONTINUOUS
 10
-2.030181
 20
-0.679142
  0
VERTEX
  8
PLAN_1
  6
CONTINUOUS
 10
-2.030181
 20
-0.674925
  0
VERTEX
  8
PLAN_1
  6
CONTINUOUS
 10
-2.030709
 20
-0.671236
  0
VERTEX
  8
PLAN_1
  6
CONTINUOUS
 10
-2.031764
 20
-0.667547
  0
VERTEX
  8
PLAN_1
  6
CONTINUOUS
 10
-2.033343
 20
-0.664390
  0
VERTEX
  8
PLAN_1
  6
CONTINUOUS
 10
-2.034925
 20
-0.660701
  0
VERTEX
  8
PLAN_1
  6
CONTINUOUS
 10
-2.036504
 20
-0.657539
  0
VERTEX
  8
PLAN_1
  6
CONTINUOUS
 10
-2.039138
 20
-0.654906
  0
VERTEX
  8
PLAN_1
  6
CONTINUOUS
 10
-2.041248
 20
-0.652272
  0
VERTEX
  8
PLAN_1
  6
CONTINUOUS
 10
-2.043882
 20
-0.649634
  0
VERTEX
  8
PLAN_1
  6
CONTINUOUS
 10
-2.047043
 20
-0.647528
  0
VERTEX
  8
PLAN_1
  6
CONTINUOUS
 10
-2.050205
 20
-0.645421
  0
VERTEX
  8
PLAN_1
  6
CONTINUOUS
 10
-2.053366
 20
-0.643839
  0
VERTEX
  8
PLAN_1
  6
CONTINUOUS
 10
-2.057051
 20
-0.642787
  0
VERTEX
  8
PLAN_1
  6
CONTINUOUS
 10
-2.060740
 20
-0.641732
  0
VERTEX
  8
PLAN_1
  6
CONTINUOUS
 10
-2.064429
 20
-0.641205
  0
VERTEX
  8
PLAN_1
  6
CONTINUOUS
 10
-2.068118
 20
-0.640677
  0
SEQEND
  8
0
  0
POLYLINE
  8
PLAN_1
  6
CONTINUOUS
 66
     1
 40
0.004213
 41
0.004213
  0
VERTEX
  8
PLAN_1
  6
CONTINUOUS
 10
-0.140831
 20
-0.678614
  0
VERTEX
  8
PLAN_1
  6
CONTINUOUS
 10
0.183720
 20
-0.678614
  0
SEQEND
  8
0
  0
POLYLINE
  8
PLAN_1
  6
CONTINUOUS
 66
     1
 40
0.004213
 41
0.004213
  0
VERTEX
  8
PLAN_1
  6
CONTINUOUS
 10
0.023028
 20
-0.827717
  0
VERTEX
  8
PLAN_1
  6
CONTINUOUS
 10
0.021972
 20
-0.528984
  0
SEQEND
  8
0
  0
POLYLINE
  8
PLAN_1
  6
CONTINUOUS
 66
     1
 40
0.003000
 41
0.003000
  0
VERTEX
  8
PLAN_1
  6
CONTINUOUS
 10
0.023551
 20
-0.640677
  0
VERTEX
  8
PLAN_1
  6
CONTINUOUS
 10
0.019866
 20
-0.641205
  0
VERTEX
  8
PLAN_1
  6
CONTINUOUS
 10
0.016177
 20
-0.641732
  0
VERTEX
  8
PLAN_1
  6
CONTINUOUS
 10
0.012488
 20
-0.642787
  0
VERTEX
  8
PLAN_1
  6
CONTINUOUS
 10
0.008799
 20
-0.643839
  0
VERTEX
  8
PLAN_1
  6
CONTINUOUS
 10
0.005638
 20
-0.645421
  0
VERTEX
  8
PLAN_1
  6
CONTINUOUS
 10
0.002480
 20
-0.647528
  0
VERTEX
  8
PLAN_1
  6
CONTINUOUS
 10
-0.000681
 20
-0.649634
  0
VERTEX
  8
PLAN_1
  6
CONTINUOUS
 10
-0.003319
 20
-0.652272
  0
VERTEX
  8
PLAN_1
  6
CONTINUOUS
 10
-0.005425
 20
-0.654906
  0
VERTEX
  8
PLAN_1
  6
CONTINUOUS
 10
-0.008059
 20
-0.657539
  0
VERTEX
  8
PLAN_1
  6
CONTINUOUS
 10
-0.009638
 20
-0.660701
  0
VERTEX
  8
PLAN_1
  6
CONTINUOUS
 10
-0.011220
 20
-0.664390
  0
VERTEX
  8
PLAN_1
  6
CONTINUOUS
 10
-0.012799
 20
-0.667547
  0
VERTEX
  8
PLAN_1
  6
CONTINUOUS
 10
-0.013327
 20
-0.671236
  0
VERTEX
  8
PLAN_1
  6
CONTINUOUS
 10
-0.014382
 20
-0.674925
  0
VERTEX
  8
PLAN_1
  6
CONTINUOUS
 10
-0.014382
 20
-0.679142
  0
VERTEX
  8
PLAN_1
  6
CONTINUOUS
 10
-0.014382
 20
-0.682827
  0
VERTEX
  8
PLAN_1
  6
CONTINUOUS
 10
-0.013327
 20
-0.686516
  0
VERTEX
  8
PLAN_1
  6
CONTINUOUS
 10
-0.012799
 20
-0.690205
  0
VERTEX
  8
PLAN_1
  6
CONTINUOUS
 10
-0.011220
 20
-0.693894
  0
VERTEX
  8
PLAN_1
  6
CONTINUOUS
 10
-0.009638
 20
-0.697055
  0
VERTEX
  8
PLAN_1
  6
CONTINUOUS
 10
-0.008059
 20
-0.700217
  0
VERTEX
  8
PLAN_1
  6
CONTINUOUS
 10
-0.005425
 20
-0.703378
  0
VERTEX
  8
PLAN_1
  6
CONTINUOUS
 10
-0.003319
 20
-0.706012
  0
VERTEX
  8
PLAN_1
  6
CONTINUOUS
 10
-0.000681
 20
-0.708646
  0
VERTEX
  8
PLAN_1
  6
CONTINUOUS
 10
0.002480
 20
-0.710752
  0
VERTEX
  8
PLAN_1
  6
CONTINUOUS
 10
0.005638
 20
-0.712858
  0
VERTEX
  8
PLAN_1
  6
CONTINUOUS
 10
0.008799
 20
-0.714441
  0
VERTEX
  8
PLAN_1
  6
CONTINUOUS
 10
0.012488
 20
-0.715496
  0
VERTEX
  8
PLAN_1
  6
CONTINUOUS
 10
0.016177
 20
-0.716547
  0
VERTEX
  8
PLAN_1
  6
CONTINUOUS
 10
0.019866
 20
-0.717075
  0
VERTEX
  8
PLAN_1
  6
CONTINUOUS
 10
0.023551
 20
-0.717075
  0
VERTEX
  8
PLAN_1
  6
CONTINUOUS
 10
0.027768
 20
-0.717075
  0
VERTEX
  8
PLAN_1
  6
CONTINUOUS
 10
0.031457
 20
-0.716547
  0
VERTEX
  8
PLAN_1
  6
CONTINUOUS
 10
0.035146
 20
-0.715496
  0
VERTEX
  8
PLAN_1
  6
CONTINUOUS
 10
0.038831
 20
-0.714441
  0
VERTEX
  8
PLAN_1
  6
CONTINUOUS
 10
0.041992
 20
-0.712858
  0
VERTEX
  8
PLAN_1
  6
CONTINUOUS
 10
0.045154
 20
-0.710752
  0
VERTEX
  8
PLAN_1
  6
CONTINUOUS
 10
0.048315
 20
-0.708646
  0
VERTEX
  8
PLAN_1
  6
CONTINUOUS
 10
0.050949
 20
-0.706012
  0
VERTEX
  8
PLAN_1
  6
CONTINUOUS
 10
0.053059
 20
-0.703378
  0
VERTEX
  8
PLAN_1
  6
CONTINUOUS
 10
0.055693
 20
-0.700217
  0
VERTEX
  8
PLAN_1
  6
CONTINUOUS
 10
0.057272
 20
-0.697055
  0
VERTEX
  8
PLAN_1
  6
CONTINUOUS
 10
0.058854
 20
-0.693894
  0
VERTEX
  8
PLAN_1
  6
CONTINUOUS
 10
0.060433
 20
-0.690205
  0
VERTEX
  8
PLAN_1
  6
CONTINUOUS
 10
0.060961
 20
-0.686516
  0
VERTEX
  8
PLAN_1
  6
CONTINUOUS
 10
0.062016
 20
-0.682827
  0
VERTEX
  8
PLAN_1
  6
CONTINUOUS
 10
0.062016
 20
-0.679142
  0
VERTEX
  8
PLAN_1
  6
CONTINUOUS
 10
0.062016
 20
-0.674925
  0
VERTEX
  8
PLAN_1
  6
CONTINUOUS
 10
0.060961
 20
-0.671236
  0
VERTEX
  8
PLAN_1
  6
CONTINUOUS
 10
0.060433
 20
-0.667547
  0
VERTEX
  8
PLAN_1
  6
CONTINUOUS
 10
0.058854
 20
-0.664390
  0
VERTEX
  8
PLAN_1
  6
CONTINUOUS
 10
0.057272
 20
-0.660701
  0
VERTEX
  8
PLAN_1
  6
CONTINUOUS
 10
0.055693
 20
-0.657539
  0
VERTEX
  8
PLAN_1
  6
CONTINUOUS
 10
0.053059
 20
-0.654906
  0
VERTEX
  8
PLAN_1
  6
CONTINUOUS
 10
0.050949
 20
-0.652272
  0
VERTEX
  8
PLAN_1
  6
CONTINUOUS
 10
0.048315
 20
-0.649634
  0
VERTEX
  8
PLAN_1
  6
CONTINUOUS
 10
0.045154
 20
-0.647528
  0
VERTEX
  8
PLAN_1
  6
CONTINUOUS
 10
0.041992
 20
-0.645421
  0
VERTEX
  8
PLAN_1
  6
CONTINUOUS
 10
0.038831
 20
-0.643839
  0
VERTEX
  8
PLAN_1
  6
CONTINUOUS
 10
0.035146
 20
-0.642787
  0
VERTEX
  8
PLAN_1
  6
CONTINUOUS
 10
0.031457
 20
-0.641732
  0
VERTEX
  8
PLAN_1
  6
CONTINUOUS
 10
0.027768
 20
-0.641205
  0
VERTEX
  8
PLAN_1
  6
CONTINUOUS
 10
0.023551
 20
-0.640677
  0
SEQEND
  8
0
  0
POLYLINE
  8
PLAN_1
  6
CONTINUOUS
 66
     1
 40
0.004213
 41
0.004213
  0
VERTEX
  8
PLAN_1
  6
CONTINUOUS
 10
-1.344201
 20
2.993665
  0
VERTEX
  8
PLAN_1
  6
CONTINUOUS
 10
-0.902681
 20
3.249720
  0
SEQEND
  8
0
  0
POLYLINE
  8
PLAN_1
  6
CONTINUOUS
 66
     1
 40
0.004213
 41
0.004213
  0
VERTEX
  8
PLAN_1
  6
CONTINUOUS
 10
-1.343146
 20
2.835602
  0
VERTEX
  8
PLAN_1
  6
CONTINUOUS
 10
-0.898469
 20
3.091134
  0
SEQEND
  8
0
  0
POLYLINE
  8
PLAN_1
  6
CONTINUOUS
 66
     1
 40
0.008429
 41
0.008429
  0
VERTEX
  8
PLAN_1
  6
CONTINUOUS
 10
-1.311531
 20
-0.005803
  0
VERTEX
  8
PLAN_1
  6
CONTINUOUS
 10
-0.746728
 20
-0.005803
  0
SEQEND
  8
0
  0
POLYLINE
  8
PLAN_1
 62
     2
  6
CONTINUOUS
 66
     1
 40
0.004213
 41
0.004213
  0
VERTEX
  8
PLAN_1
 62
     2
  6
CONTINUOUS
 10
-1.184031
 20
4.115894
  0
VERTEX
  8
PLAN_1
 62
     2
  6
CONTINUOUS
 10
-0.815220
 20
4.115894
  0
SEQEND
  8
0
  0
SOLID
  8
PLAN_1
 62
     2
 10
-1.154528
 20
4.115894
 11
-1.213535
 21
4.131701
 12
-1.154528
 22
4.115894
 13
-1.213535
 23
4.100091
  0
POLYLINE
  8
PLAN_1
 62
     2
  6
CONTINUOUS
 66
     1
 40
0.003000
 41
0.003000
  0
VERTEX
  8
PLAN_1
 62
     2
  6
CONTINUOUS
 10
-1.154528
 20
4.115894
  0
VERTEX
  8
PLAN_1
 62
     2
  6
CONTINUOUS
 10
-1.213535
 20
4.131701
  0
VERTEX
  8
PLAN_1
 62
     2
  6
CONTINUOUS
 10
-1.213535
 20
4.100091
  0
VERTEX
  8
PLAN_1
 62
     2
  6
CONTINUOUS
 10
-1.154528
 20
4.115894
  0
SEQEND
  8
0
  0
SOLID
  8
PLAN_1
 62
     2
 10
-1.103421
 20
4.115894
 11
-1.044409
 21
4.131701
 12
-1.103421
 22
4.115894
 13
-1.044409
 23
4.100091
  0
POLYLINE
  8
PLAN_1
 62
     2
  6
CONTINUOUS
 66
     1
 40
0.003000
 41
0.003000
  0
VERTEX
  8
PLAN_1
 62
     2
  6
CONTINUOUS
 10
-1.103421
 20
4.115894
  0
VERTEX
  8
PLAN_1
 62
     2
  6
CONTINUOUS
 10
-1.044409
 20
4.131701
  0
VERTEX
  8
PLAN_1
 62
     2
  6
CONTINUOUS
 10
-1.044409
 20
4.100091
  0
VERTEX
  8
PLAN_1
 62
     2
  6
CONTINUOUS
 10
-1.103421
 20
4.115894
  0
SEQEND
  8
0
  0
POLYLINE
  8
PLAN_1
 62
     2
  6
CONTINUOUS
 66
     1
 40
0.003000
 41
0.003000
  0
VERTEX
  8
PLAN_1
 62
     2
  6
CONTINUOUS
 10
-0.963799
 20
4.203354
  0
VERTEX
  8
PLAN_1
 62
     2
  6
CONTINUOUS
 10
-0.961693
 20
4.200193
  0
VERTEX
  8
PLAN_1
 62
     2
  6
CONTINUOUS
 10
-0.960110
 20
4.197031
  0
VERTEX
  8
PLAN_1
 62
     2
  6
CONTINUOUS
 10
-0.958531
 20
4.193870
  0
VERTEX
  8
PLAN_1
 62
     2
  6
CONTINUOUS
 10
-0.957476
 20
4.190185
  0
VERTEX
  8
PLAN_1
 62
     2
  6
CONTINUOUS
 10
-0.956425
 20
4.186496
  0
VERTEX
  8
PLAN_1
 62
     2
  6
CONTINUOUS
 10
-0.955898
 20
4.183335
  0
VERTEX
  8
PLAN_1
 62
     2
  6
CONTINUOUS
 10
-0.955370
 20
4.179646
  0
VERTEX
  8
PLAN_1
 62
     2
  6
CONTINUOUS
 10
-0.955370
 20
4.176484
  0
VERTEX
  8
PLAN_1
 62
     2
  6
CONTINUOUS
 10
-0.955898
 20
4.170161
  0
VERTEX
  8
PLAN_1
 62
     2
  6
CONTINUOUS
 10
-0.956949
 20
4.163839
  0
VERTEX
  8
PLAN_1
 62
     2
  6
CONTINUOUS
 10
-0.958004
 20
4.160154
  0
VERTEX
  8
PLAN_1
 62
     2
  6
CONTINUOUS
 10
-0.959583
 20
4.156992
  0
VERTEX
  8
PLAN_1
 62
     2
  6
CONTINUOUS
 10
-0.961165
 20
4.153831
  0
VERTEX
  8
PLAN_1
 62
     2
  6
CONTINUOUS
 10
-0.963272
 20
4.151197
  0
VERTEX
  8
PLAN_1
 62
     2
  6
CONTINUOUS
 10
-0.965382
 20
4.148035
  0
VERTEX
  8
PLAN_1
 62
     2
  6
CONTINUOUS
 10
-0.968016
 20
4.145398
  0
VERTEX
  8
PLAN_1
 62
     2
  6
CONTINUOUS
 10
-0.971177
 20
4.143291
  0
VERTEX
  8
PLAN_1
 62
     2
  6
CONTINUOUS
 10
-0.974339
 20
4.141185
  0
VERTEX
  8
PLAN_1
 62
     2
  6
CONTINUOUS
 10
-0.978024
 20
4.139602
  0
VERTEX
  8
PLAN_1
 62
     2
  6
CONTINUOUS
 10
-0.982240
 20
4.138551
  0
VERTEX
  8
PLAN_1
 62
     2
  6
CONTINUOUS
 10
-0.986980
 20
4.137496
  0
VERTEX
  8
PLAN_1
 62
     2
  6
CONTINUOUS
 10
-0.991724
 20
4.137496
  0
VERTEX
  8
PLAN_1
 62
     2
  6
CONTINUOUS
 10
-0.995937
 20
4.137496
  0
VERTEX
  8
PLAN_1
 62
     2
  6
CONTINUOUS
 10
-0.999626
 20
4.138024
  0
VERTEX
  8
PLAN_1
 62
     2
  6
CONTINUOUS
 10
-1.002787
 20
4.138551
  0
VERTEX
  8
PLAN_1
 62
     2
  6
CONTINUOUS
 10
-1.005949
 20
4.139602
  0
VERTEX
  8
PLAN_1
 62
     2
  6
CONTINUOUS
 10
-1.009110
 20
4.141185
  0
VERTEX
  8
PLAN_1
 62
     2
  6
CONTINUOUS
 10
-1.011744
 20
4.142764
  0
VERTEX
  8
PLAN_1
 62
     2
  6
CONTINUOUS
 10
-1.013850
 20
4.144346
  0
VERTEX
  8
PLAN_1
 62
     2
  6
CONTINUOUS
 10
-1.016488
 20
4.146453
  0
VERTEX
  8
PLAN_1
 62
     2
  6
CONTINUOUS
 10
-1.024390
 20
4.137496
  0
VERTEX
  8
PLAN_1
 62
     2
  6
CONTINUOUS
 10
-1.028079
 20
4.140130
  0
VERTEX
  8
PLAN_1
 62
     2
  6
CONTINUOUS
 10
-1.019122
 20
4.149614
  0
VERTEX
  8
PLAN_1
 62
     2
  6
CONTINUOUS
 10
-1.021756
 20
4.152776
  0
VERTEX
  8
PLAN_1
 62
     2
  6
CONTINUOUS
 10
-1.023335
 20
4.155937
  0
VERTEX
  8
PLAN_1
 62
     2
  6
CONTINUOUS
 10
-1.024917
 20
4.159626
  0
VERTEX
  8
PLAN_1
 62
     2
  6
CONTINUOUS
 10
-1.025969
 20
4.162787
  0
VERTEX
  8
PLAN_1
 62
     2
  6
CONTINUOUS
 10
-1.027024
 20
4.166472
  0
VERTEX
  8
PLAN_1
 62
     2
  6
CONTINUOUS
 10
-1.027551
 20
4.170161
  0
VERTEX
  8
PLAN_1
 62
     2
  6
CONTINUOUS
 10
-1.028079
 20
4.173323
  0
VERTEX
  8
PLAN_1
 62
     2
  6
CONTINUOUS
 10
-1.028079
 20
4.176484
  0
VERTEX
  8
PLAN_1
 62
     2
  6
CONTINUOUS
 10
-1.027551
 20
4.182807
  0
VERTEX
  8
PLAN_1
 62
     2
  6
CONTINUOUS
 10
-1.026496
 20
4.189657
  0
VERTEX
  8
PLAN_1
 62
     2
  6
CONTINUOUS
 10
-1.025445
 20
4.192819
  0
VERTEX
  8
PLAN_1
 62
     2
  6
CONTINUOUS
 10
-1.023862
 20
4.195980
  0
VERTEX
  8
PLAN_1
 62
     2
  6
CONTINUOUS
 10
-1.022283
 20
4.199142
  0
VERTEX
  8
PLAN_1
 62
     2
  6
CONTINUOUS
 10
-1.020173
 20
4.202303
  0
VERTEX
  8
PLAN_1
 62
     2
  6
CONTINUOUS
 10
-1.018067
 20
4.205465
  0
VERTEX
  8
PLAN_1
 62
     2
  6
CONTINUOUS
 10
-1.015433
 20
4.207571
  0
VERTEX
  8
PLAN_1
 62
     2
  6
CONTINUOUS
 10
-1.012799
 20
4.210205
  0
VERTEX
  8
PLAN_1
 62
     2
  6
CONTINUOUS
 10
-1.009110
 20
4.212311
  0
VERTEX
  8
PLAN_1
 62
     2
  6
CONTINUOUS
 10
-1.005421
 20
4.213894
  0
VERTEX
  8
PLAN_1
 62
     2
  6
CONTINUOUS
 10
-1.001209
 20
4.214945
  0
VERTEX
  8
PLAN_1
 62
     2
  6
CONTINUOUS
 10
-0.996992
 20
4.215472
  0
VERTEX
  8
PLAN_1
 62
     2
  6
CONTINUOUS
 10
-0.991724
 20
4.216000
  0
VERTEX
  8
PLAN_1
 62
     2
  6
CONTINUOUS
 10
-0.987508
 20
4.216000
  0
VERTEX
  8
PLAN_1
 62
     2
  6
CONTINUOUS
 10
-0.983819
 20
4.215472
  0
VERTEX
  8
PLAN_1
 62
     2
  6
CONTINUOUS
 10
-0.980134
 20
4.214421
  0
VERTEX
  8
PLAN_1
 62
     2
  6
CONTINUOUS
 10
-0.976972
 20
4.213366
  0
VERTEX
  8
PLAN_1
 62
     2
  6
CONTINUOUS
 10
-0.974339
 20
4.212311
  0
VERTEX
  8
PLAN_1
 62
     2
  6
CONTINUOUS
 10
-0.971701
 20
4.210732
  0
VERTEX
  8
PLAN_1
 62
     2
  6
CONTINUOUS
 10
-0.969067
 20
4.208622
  0
VERTEX
  8
PLAN_1
 62
     2
  6
CONTINUOUS
 10
-0.966961
 20
4.206516
  0
VERTEX
  8
PLAN_1
 62
     2
  6
CONTINUOUS
 10
-0.958531
 20
4.216000
  0
VERTEX
  8
PLAN_1
 62
     2
  6
CONTINUOUS
 10
-0.955370
 20
4.212839
  0
VERTEX
  8
PLAN_1
 62
     2
  6
CONTINUOUS
 10
-0.963799
 20
4.203354
  0
SEQEND
  8
0
  0
POLYLINE
  8
PLAN_1
 62
     2
  6
CONTINUOUS
 66
     1
 40
0.003000
 41
0.003000
  0
VERTEX
  8
PLAN_1
 62
     2
  6
CONTINUOUS
 10
-1.009638
 20
4.153831
  0
VERTEX
  8
PLAN_1
 62
     2
  6
CONTINUOUS
 10
-1.008055
 20
4.152248
  0
VERTEX
  8
PLAN_1
 62
     2
  6
CONTINUOUS
 10
-1.005949
 20
4.150669
  0
VERTEX
  8
PLAN_1
 62
     2
  6
CONTINUOUS
 10
-1.003843
 20
4.149087
  0
VERTEX
  8
PLAN_1
 62
     2
  6
CONTINUOUS
 10
-1.001732
 20
4.148035
  0
VERTEX
  8
PLAN_1
 62
     2
  6
CONTINUOUS
 10
-0.999626
 20
4.147508
  0
VERTEX
  8
PLAN_1
 62
     2
  6
CONTINUOUS
 10
-0.996992
 20
4.146980
  0
VERTEX
  8
PLAN_1
 62
     2
  6
CONTINUOUS
 10
-0.994358
 20
4.146453
  0
VERTEX
  8
PLAN_1
 62
     2
  6
CONTINUOUS
 10
-0.991724
 20
4.146453
  0
VERTEX
  8
PLAN_1
 62
     2
  6
CONTINUOUS
 10
-0.988563
 20
4.146453
  0
VERTEX
  8
PLAN_1
 62
     2
  6
CONTINUOUS
 10
-0.985929
 20
4.146980
  0
VERTEX
  8
PLAN_1
 62
     2
  6
CONTINUOUS
 10
-0.983295
 20
4.147508
  0
VERTEX
  8
PLAN_1
 62
     2
  6
CONTINUOUS
 10
-0.980657
 20
4.148559
  0
VERTEX
  8
PLAN_1
 62
     2
  6
CONTINUOUS
 10
-0.978551
 20
4.149614
  0
VERTEX
  8
PLAN_1
 62
     2
  6
CONTINUOUS
 10
-0.976445
 20
4.151197
  0
VERTEX
  8
PLAN_1
 62
     2
  6
CONTINUOUS
 10
-0.974339
 20
4.152776
  0
VERTEX
  8
PLAN_1
 62
     2
  6
CONTINUOUS
 10
-0.972756
 20
4.154882
  0
VERTEX
  8
PLAN_1
 62
     2
  6
CONTINUOUS
 10
-0.969594
 20
4.159098
  0
VERTEX
  8
PLAN_1
 62
     2
  6
CONTINUOUS
 10
-0.967488
 20
4.164366
  0
VERTEX
  8
PLAN_1
 62
     2
  6
CONTINUOUS
 10
-0.966433
 20
4.170161
  0
VERTEX
  8
PLAN_1
 62
     2
  6
CONTINUOUS
 10
-0.965906
 20
4.176484
  0
VERTEX
  8
PLAN_1
 62
     2
  6
CONTINUOUS
 10
-0.965906
 20
4.179646
  0
VERTEX
  8
PLAN_1
 62
     2
  6
CONTINUOUS
 10
-0.965906
 20
4.182280
  0
VERTEX
  8
PLAN_1
 62
     2
  6
CONTINUOUS
 10
-0.966433
 20
4.184913
  0
VERTEX
  8
PLAN_1
 62
     2
  6
CONTINUOUS
 10
-0.966961
 20
4.187024
  0
VERTEX
  8
PLAN_1
 62
     2
  6
CONTINUOUS
 10
-0.968016
 20
4.189657
  0
VERTEX
  8
PLAN_1
 62
     2
  6
CONTINUOUS
 10
-0.968539
 20
4.191764
  0
VERTEX
  8
PLAN_1
 62
     2
  6
CONTINUOUS
 10
-0.969594
 20
4.193870
  0
VERTEX
  8
PLAN_1
 62
     2
  6
CONTINUOUS
 10
-0.970650
 20
4.195980
  0
VERTEX
  8
PLAN_1
 62
     2
  6
CONTINUOUS
 10
-1.009638
 20
4.153831
  0
SEQEND
  8
0
  0
POLYLINE
  8
PLAN_1
 62
     2
  6
CONTINUOUS
 66
     1
 40
0.003000
 41
0.003000
  0
VERTEX
  8
PLAN_1
 62
     2
  6
CONTINUOUS
 10
-0.973283
 20
4.199665
  0
VERTEX
  8
PLAN_1
 62
     2
  6
CONTINUOUS
 10
-0.975390
 20
4.201248
  0
VERTEX
  8
PLAN_1
 62
     2
  6
CONTINUOUS
 10
-0.976972
 20
4.202827
  0
VERTEX
  8
PLAN_1
 62
     2
  6
CONTINUOUS
 10
-0.979079
 20
4.203882
  0
VERTEX
  8
PLAN_1
 62
     2
  6
CONTINUOUS
 10
-0.981185
 20
4.204937
  0
VERTEX
  8
PLAN_1
 62
     2
  6
CONTINUOUS
 10
-0.983819
 20
4.205988
  0
VERTEX
  8
PLAN_1
 62
     2
  6
CONTINUOUS
 10
-0.986457
 20
4.206516
  0
VERTEX
  8
PLAN_1
 62
     2
  6
CONTINUOUS
 10
-0.989091
 20
4.207043
  0
VERTEX
  8
PLAN_1
 62
     2
  6
CONTINUOUS
 10
-0.991724
 20
4.207043
  0
VERTEX
  8
PLAN_1
 62
     2
  6
CONTINUOUS
 10
-0.994886
 20
4.207043
  0
VERTEX
  8
PLAN_1
 62
     2
  6
CONTINUOUS
 10
-0.997520
 20
4.206516
  0
VERTEX
  8
PLAN_1
 62
     2
  6
CONTINUOUS
 10
-1.000154
 20
4.205988
  0
VERTEX
  8
PLAN_1
 62
     2
  6
CONTINUOUS
 10
-1.002787
 20
4.204937
  0
VERTEX
  8
PLAN_1
 62
     2
  6
CONTINUOUS
 10
-1.004894
 20
4.203354
  0
VERTEX
  8
PLAN_1
 62
     2
  6
CONTINUOUS
 10
-1.007004
 20
4.202303
  0
VERTEX
  8
PLAN_1
 62
     2
  6
CONTINUOUS
 10
-1.009110
 20
4.200193
  0
VERTEX
  8
PLAN_1
 62
     2
  6
CONTINUOUS
 10
-1.010689
 20
4.198614
  0
VERTEX
  8
PLAN_1
 62
     2
  6
CONTINUOUS
 10
-1.013850
 20
4.193870
  0
VERTEX
  8
PLAN_1
 62
     2
  6
CONTINUOUS
 10
-1.015961
 20
4.188602
  0
VERTEX
  8
PLAN_1
 62
     2
  6
CONTINUOUS
 10
-1.017539
 20
4.182807
  0
VERTEX
  8
PLAN_1
 62
     2
  6
CONTINUOUS
 10
-1.017539
 20
4.176484
  0
VERTEX
  8
PLAN_1
 62
     2
  6
CONTINUOUS
 10
-1.017539
 20
4.173850
  0
VERTEX
  8
PLAN_1
 62
     2
  6
CONTINUOUS
 10
-1.017539
 20
4.171217
  0
VERTEX
  8
PLAN_1
 62
     2
  6
CONTINUOUS
 10
-1.017012
 20
4.168583
  0
VERTEX
  8
PLAN_1
 62
     2
  6
CONTINUOUS
 10
-1.016488
 20
4.165949
  0
VERTEX
  8
PLAN_1
 62
     2
  6
CONTINUOUS
 10
-1.015433
 20
4.163839
  0
VERTEX
  8
PLAN_1
 62
     2
  6
CONTINUOUS
 10
-1.014906
 20
4.161205
  0
VERTEX
  8
PLAN_1
 62
     2
  6
CONTINUOUS
 10
-1.013850
 20
4.159098
  0
VERTEX
  8
PLAN_1
 62
     2
  6
CONTINUOUS
 10
-1.012272
 20
4.156992
  0
VERTEX
  8
PLAN_1
 62
     2
  6
CONTINUOUS
 10
-0.973283
 20
4.199665
  0
SEQEND
  8
0
  0
POLYLINE
  8
PLAN_1
 62
     2
  6
CONTINUOUS
 66
     1
 40
0.003000
 41
0.003000
  0
VERTEX
  8
PLAN_1
 62
     2
  6
CONTINUOUS
 10
-0.913748
 20
4.139079
  0
VERTEX
  8
PLAN_1
 62
     2
  6
CONTINUOUS
 10
-0.923756
 20
4.139079
  0
VERTEX
  8
PLAN_1
 62
     2
  6
CONTINUOUS
 10
-0.923756
 20
4.191236
  0
VERTEX
  8
PLAN_1
 62
     2
  6
CONTINUOUS
 10
-0.940618
 20
4.191236
  0
VERTEX
  8
PLAN_1
 62
     2
  6
CONTINUOUS
 10
-0.940618
 20
4.198614
  0
VERTEX
  8
PLAN_1
 62
     2
  6
CONTINUOUS
 10
-0.936402
 20
4.198614
  0
VERTEX
  8
PLAN_1
 62
     2
  6
CONTINUOUS
 10
-0.933240
 20
4.199142
  0
VERTEX
  8
PLAN_1
 62
     2
  6
CONTINUOUS
 10
-0.930079
 20
4.200193
  0
VERTEX
  8
PLAN_1
 62
     2
  6
CONTINUOUS
 10
-0.927445
 20
4.201248
  0
VERTEX
  8
PLAN_1
 62
     2
  6
CONTINUOUS
 10
-0.925339
 20
4.202827
  0
VERTEX
  8
PLAN_1
 62
     2
  6
CONTINUOUS
 10
-0.923756
 20
4.205465
  0
VERTEX
  8
PLAN_1
 62
     2
  6
CONTINUOUS
 10
-0.922177
 20
4.208622
  0
VERTEX
  8
PLAN_1
 62
     2
  6
CONTINUOUS
 10
-0.921122
 20
4.212311
  0
VERTEX
  8
PLAN_1
 62
     2
  6
CONTINUOUS
 10
-0.913748
 20
4.212311
  0
VERTEX
  8
PLAN_1
 62
     2
  6
CONTINUOUS
 10
-0.913748
 20
4.139079
  0
SEQEND
  8
0
  0
POLYLINE
  8
PLAN_1
 62
     2
  6
CONTINUOUS
 66
     1
 40
0.003000
 41
0.003000
  0
VERTEX
  8
PLAN_1
 62
     2
  6
CONTINUOUS
 10
-0.884244
 20
4.150142
  0
VERTEX
  8
PLAN_1
 62
     2
  6
CONTINUOUS
 10
-0.873177
 20
4.150142
  0
VERTEX
  8
PLAN_1
 62
     2
  6
CONTINUOUS
 10
-0.873177
 20
4.140130
  0
VERTEX
  8
PLAN_1
 62
     2
  6
CONTINUOUS
 10
-0.873705
 20
4.135390
  0
VERTEX
  8
PLAN_1
 62
     2
  6
CONTINUOUS
 10
-0.874760
 20
4.131701
  0
VERTEX
  8
PLAN_1
 62
     2
  6
CONTINUOUS
 10
-0.876339
 20
4.129067
  0
VERTEX
  8
PLAN_1
 62
     2
  6
CONTINUOUS
 10
-0.877921
 20
4.126961
  0
VERTEX
  8
PLAN_1
 62
     2
  6
CONTINUOUS
 10
-0.880028
 20
4.125378
  0
VERTEX
  8
PLAN_1
 62
     2
  6
CONTINUOUS
 10
-0.881606
 20
4.124850
  0
VERTEX
  8
PLAN_1
 62
     2
  6
CONTINUOUS
 10
-0.883189
 20
4.124323
  0
VERTEX
  8
PLAN_1
 62
     2
  6
CONTINUOUS
 10
-0.884244
 20
4.123799
  0
VERTEX
  8
PLAN_1
 62
     2
  6
CONTINUOUS
 10
-0.884244
 20
4.129067
  0
VERTEX
  8
PLAN_1
 62
     2
  6
CONTINUOUS
 10
-0.882661
 20
4.129067
  0
VERTEX
  8
PLAN_1
 62
     2
  6
CONTINUOUS
 10
-0.881606
 20
4.130122
  0
VERTEX
  8
PLAN_1
 62
     2
  6
CONTINUOUS
 10
-0.880555
 20
4.131173
  0
VERTEX
  8
PLAN_1
 62
     2
  6
CONTINUOUS
 10
-0.880028
 20
4.132228
  0
VERTEX
  8
PLAN_1
 62
     2
  6
CONTINUOUS
 10
-0.879500
 20
4.133807
  0
VERTEX
  8
PLAN_1
 62
     2
  6
CONTINUOUS
 10
-0.878972
 20
4.135917
  0
VERTEX
  8
PLAN_1
 62
     2
  6
CONTINUOUS
 10
-0.878972
 20
4.137496
  0
VERTEX
  8
PLAN_1
 62
     2
  6
CONTINUOUS
 10
-0.878972
 20
4.139079
  0
VERTEX
  8
PLAN_1
 62
     2
  6
CONTINUOUS
 10
-0.884244
 20
4.139079
  0
VERTEX
  8
PLAN_1
 62
     2
  6
CONTINUOUS
 10
-0.884244
 20
4.150142
  0
SEQEND
  8
0
  0
POLYLINE
  8
PLAN_1
 62
     2
  6
CONTINUOUS
 66
     1
 40
0.003000
 41
0.003000
  0
VERTEX
  8
PLAN_1
 62
     2
  6
CONTINUOUS
 10
-0.860008
 20
4.186496
  0
VERTEX
  8
PLAN_1
 62
     2
  6
CONTINUOUS
 10
-0.859480
 20
4.190709
  0
VERTEX
  8
PLAN_1
 62
     2
  6
CONTINUOUS
 10
-0.858953
 20
4.194398
  0
VERTEX
  8
PLAN_1
 62
     2
  6
CONTINUOUS
 10
-0.857898
 20
4.197559
  0
VERTEX
  8
PLAN_1
 62
     2
  6
CONTINUOUS
 10
-0.856846
 20
4.200193
  0
VERTEX
  8
PLAN_1
 62
     2
  6
CONTINUOUS
 10
-0.855264
 20
4.202827
  0
VERTEX
  8
PLAN_1
 62
     2
  6
CONTINUOUS
 10
-0.853685
 20
4.204937
  0
VERTEX
  8
PLAN_1
 62
     2
  6
CONTINUOUS
 10
-0.852102
 20
4.207043
  0
VERTEX
  8
PLAN_1
 62
     2
  6
CONTINUOUS
 10
-0.849996
 20
4.208098
  0
VERTEX
  8
PLAN_1
 62
     2
  6
CONTINUOUS
 10
-0.845780
 20
4.210205
  0
VERTEX
  8
PLAN_1
 62
     2
  6
CONTINUOUS
 10
-0.841567
 20
4.211783
  0
VERTEX
  8
PLAN_1
 62
     2
  6
CONTINUOUS
 10
-0.837878
 20
4.212311
  0
VERTEX
  8
PLAN_1
 62
     2
  6
CONTINUOUS
 10
-0.834717
 20
4.212311
  0
VERTEX
  8
PLAN_1
 62
     2
  6
CONTINUOUS
 10
-0.829976
 20
4.212311
  0
VERTEX
  8
PLAN_1
 62
     2
  6
CONTINUOUS
 10
-0.825760
 20
4.210732
  0
VERTEX
  8
PLAN_1
 62
     2
  6
CONTINUOUS
 10
-0.821543
 20
4.209150
  0
VERTEX
  8
PLAN_1
 62
     2
  6
CONTINUOUS
 10
-0.818382
 20
4.206516
  0
VERTEX
  8
PLAN_1
 62
     2
  6
CONTINUOUS
 10
-0.815748
 20
4.203354
  0
VERTEX
  8
PLAN_1
 62
     2
  6
CONTINUOUS
 10
-0.813642
 20
4.199665
  0
VERTEX
  8
PLAN_1
 62
     2
  6
CONTINUOUS
 10
-0.812063
 20
4.195453
  0
VERTEX
  8
PLAN_1
 62
     2
  6
CONTINUOUS
 10
-0.811535
 20
4.190709
  0
VERTEX
  8
PLAN_1
 62
     2
  6
CONTINUOUS
 10
-0.812063
 20
4.185969
  0
VERTEX
  8
PLAN_1
 62
     2
  6
CONTINUOUS
 10
-0.813114
 20
4.182280
  0
VERTEX
  8
PLAN_1
 62
     2
  6
CONTINUOUS
 10
-0.814697
 20
4.178591
  0
VERTEX
  8
PLAN_1
 62
     2
  6
CONTINUOUS
 10
-0.817331
 20
4.175429
  0
VERTEX
  8
PLAN_1
 62
     2
  6
CONTINUOUS
 10
-0.819965
 20
4.172795
  0
VERTEX
  8
PLAN_1
 62
     2
  6
CONTINUOUS
 10
-0.823654
 20
4.170689
  0
VERTEX
  8
PLAN_1
 62
     2
  6
CONTINUOUS
 10
-0.827339
 20
4.168583
  0
VERTEX
  8
PLAN_1
 62
     2
  6
CONTINUOUS
 10
-0.831028
 20
4.165949
  0
VERTEX
  8
PLAN_1
 62
     2
  6
CONTINUOUS
 10
-0.838933
 20
4.162260
  0
VERTEX
  8
PLAN_1
 62
     2
  6
CONTINUOUS
 10
-0.842094
 20
4.160154
  0
VERTEX
  8
PLAN_1
 62
     2
  6
CONTINUOUS
 10
-0.844728
 20
4.158043
  0
VERTEX
  8
PLAN_1
 62
     2
  6
CONTINUOUS
 10
-0.846835
 20
4.155937
  0
VERTEX
  8
PLAN_1
 62
     2
  6
CONTINUOUS
 10
-0.848413
 20
4.153831
  0
VERTEX
  8
PLAN_1
 62
     2
  6
CONTINUOUS
 10
-0.849996
 20
4.152248
  0
VERTEX
  8
PLAN_1
 62
     2
  6
CONTINUOUS
 10
-0.850524
 20
4.150669
  0
VERTEX
  8
PLAN_1
 62
     2
  6
CONTINUOUS
 10
-0.851051
 20
4.149087
  0
VERTEX
  8
PLAN_1
 62
     2
  6
CONTINUOUS
 10
-0.851575
 20
4.148035
  0
VERTEX
  8
PLAN_1
 62
     2
  6
CONTINUOUS
 10
-0.811535
 20
4.148035
  0
VERTEX
  8
PLAN_1
 62
     2
  6
CONTINUOUS
 10
-0.811535
 20
4.139079
  0
VERTEX
  8
PLAN_1
 62
     2
  6
CONTINUOUS
 10
-0.861587
 20
4.139079
  0
VERTEX
  8
PLAN_1
 62
     2
  6
CONTINUOUS
 10
-0.861059
 20
4.144874
  0
VERTEX
  8
PLAN_1
 62
     2
  6
CONTINUOUS
 10
-0.860008
 20
4.149614
  0
VERTEX
  8
PLAN_1
 62
     2
  6
CONTINUOUS
 10
-0.858425
 20
4.153831
  0
VERTEX
  8
PLAN_1
 62
     2
  6
CONTINUOUS
 10
-0.856319
 20
4.157516
  0
VERTEX
  8
PLAN_1
 62
     2
  6
CONTINUOUS
 10
-0.854213
 20
4.160677
  0
VERTEX
  8
PLAN_1
 62
     2
  6
CONTINUOUS
 10
-0.851051
 20
4.163315
  0
VERTEX
  8
PLAN_1
 62
     2
  6
CONTINUOUS
 10
-0.847890
 20
4.165949
  0
VERTEX
  8
PLAN_1
 62
     2
  6
CONTINUOUS
 10
-0.844728
 20
4.168583
  0
VERTEX
  8
PLAN_1
 62
     2
  6
CONTINUOUS
 10
-0.834717
 20
4.173850
  0
VERTEX
  8
PLAN_1
 62
     2
  6
CONTINUOUS
 10
-0.832083
 20
4.175429
  0
VERTEX
  8
PLAN_1
 62
     2
  6
CONTINUOUS
 10
-0.829449
 20
4.177012
  0
VERTEX
  8
PLAN_1
 62
     2
  6
CONTINUOUS
 10
-0.827339
 20
4.178591
  0
VERTEX
  8
PLAN_1
 62
     2
  6
CONTINUOUS
 10
-0.825232
 20
4.180701
  0
VERTEX
  8
PLAN_1
 62
     2
  6
CONTINUOUS
 10
-0.823654
 20
4.182807
  0
VERTEX
  8
PLAN_1
 62
     2
  6
CONTINUOUS
 10
-0.822598
 20
4.184913
  0
VERTEX
  8
PLAN_1
 62
     2
  6
CONTINUOUS
 10
-0.821543
 20
4.187547
  0
VERTEX
  8
PLAN_1
 62
     2
  6
CONTINUOUS
 10
-0.821543
 20
4.191236
  0
VERTEX
  8
PLAN_1
 62
     2
  6
CONTINUOUS
 10
-0.821543
 20
4.193346
  0
VERTEX
  8
PLAN_1
 62
     2
  6
CONTINUOUS
 10
-0.822071
 20
4.195453
  0
VERTEX
  8
PLAN_1
 62
     2
  6
CONTINUOUS
 10
-0.823126
 20
4.197559
  0
VERTEX
  8
PLAN_1
 62
     2
  6
CONTINUOUS
 10
-0.824705
 20
4.199665
  0
VERTEX
  8
PLAN_1
 62
     2
  6
CONTINUOUS
 10
-0.826815
 20
4.201776
  0
VERTEX
  8
PLAN_1
 62
     2
  6
CONTINUOUS
 10
-0.828921
 20
4.202827
  0
VERTEX
  8
PLAN_1
 62
     2
  6
CONTINUOUS
 10
-0.832083
 20
4.203882
  0
VERTEX
  8
PLAN_1
 62
     2
  6
CONTINUOUS
 10
-0.835772
 20
4.204409
  0
VERTEX
  8
PLAN_1
 62
     2
  6
CONTINUOUS
 10
-0.838406
 20
4.203882
  0
VERTEX
  8
PLAN_1
 62
     2
  6
CONTINUOUS
 10
-0.840512
 20
4.203882
  0
VERTEX
  8
PLAN_1
 62
     2
  6
CONTINUOUS
 10
-0.842094
 20
4.202827
  0
VERTEX
  8
PLAN_1
 62
     2
  6
CONTINUOUS
 10
-0.844201
 20
4.202303
  0
VERTEX
  8
PLAN_1
 62
     2
  6
CONTINUOUS
 10
-0.846307
 20
4.199665
  0
VERTEX
  8
PLAN_1
 62
     2
  6
CONTINUOUS
 10
-0.848413
 20
4.197031
  0
VERTEX
  8
PLAN_1
 62
     2
  6
CONTINUOUS
 10
-0.849469
 20
4.194398
  0
VERTEX
  8
PLAN_1
 62
     2
  6
CONTINUOUS
 10
-0.849996
 20
4.191236
  0
VERTEX
  8
PLAN_1
 62
     2
  6
CONTINUOUS
 10
-0.850524
 20
4.188602
  0
VERTEX
  8
PLAN_1
 62
     2
  6
CONTINUOUS
 10
-0.850524
 20
4.186496
  0
VERTEX
  8
PLAN_1
 62
     2
  6
CONTINUOUS
 10
-0.860008
 20
4.186496
  0
SEQEND
  8
0
  0
POLYLINE
  8
PLAN_1
 62
     2
  6
CONTINUOUS
 66
     1
 40
0.004213
 41
0.004213
  0
VERTEX
  8
PLAN_1
 62
     2
  6
CONTINUOUS
 10
0.552004
 20
-0.647528
  0
VERTEX
  8
PLAN_1
 62
     2
  6
CONTINUOUS
 10
0.552004
 20
3.928331
  0
SEQEND
  8
0
  0
SOLID
  8
PLAN_1
 62
     2
 10
0.552004
 20
3.957835
 11
0.536197
 21
3.898827
 12
0.552004
 22
3.957835
 13
0.567807
 23
3.898827
  0
POLYLINE
  8
PLAN_1
 62
     2
  6
CONTINUOUS
 66
     1
 40
0.003000
 41
0.003000
  0
VERTEX
  8
PLAN_1
 62
     2
  6
CONTINUOUS
 10
0.552004
 20
3.957835
  0
VERTEX
  8
PLAN_1
 62
     2
  6
CONTINUOUS
 10
0.536197
 20
3.898827
  0
VERTEX
  8
PLAN_1
 62
     2
  6
CONTINUOUS
 10
0.567807
 20
3.898827
  0
VERTEX
  8
PLAN_1
 62
     2
  6
CONTINUOUS
 10
0.552004
 20
3.957835
  0
SEQEND
  8
0
  0
SOLID
  8
PLAN_1
 62
     2
 10
0.552004
 20
-0.677031
 11
0.536197
 21
-0.618024
 12
0.552004
 22
-0.677031
 13
0.567807
 23
-0.618024
  0
POLYLINE
  8
PLAN_1
 62
     2
  6
CONTINUOUS
 66
     1
 40
0.003000
 41
0.003000
  0
VERTEX
  8
PLAN_1
 62
     2
  6
CONTINUOUS
 10
0.552004
 20
-0.677031
  0
VERTEX
  8
PLAN_1
 62
     2
  6
CONTINUOUS
 10
0.536197
 20
-0.618024
  0
VERTEX
  8
PLAN_1
 62
     2
  6
CONTINUOUS
 10
0.567807
 20
-0.618024
  0
VERTEX
  8
PLAN_1
 62
     2
  6
CONTINUOUS
 10
0.552004
 20
-0.677031
  0
SEQEND
  8
0
  0
POLYLINE
  8
PLAN_1
 62
     2
  6
CONTINUOUS
 66
     1
 40
0.003000
 41
0.003000
  0
VERTEX
  8
PLAN_1
 62
     2
  6
CONTINUOUS
 10
0.528819
 20
1.547409
  0
VERTEX
  8
PLAN_1
 62
     2
  6
CONTINUOUS
 10
0.528819
 20
1.537925
  0
VERTEX
  8
PLAN_1
 62
     2
  6
CONTINUOUS
 10
0.476661
 20
1.537925
  0
VERTEX
  8
PLAN_1
 62
     2
  6
CONTINUOUS
 10
0.476661
 20
1.520539
  0
VERTEX
  8
PLAN_1
 62
     2
  6
CONTINUOUS
 10
0.469283
 20
1.520539
  0
VERTEX
  8
PLAN_1
 62
     2
  6
CONTINUOUS
 10
0.469283
 20
1.524752
  0
VERTEX
  8
PLAN_1
 62
     2
  6
CONTINUOUS
 10
0.468756
 20
1.528441
  0
VERTEX
  8
PLAN_1
 62
     2
  6
CONTINUOUS
 10
0.467705
 20
1.531602
  0
VERTEX
  8
PLAN_1
 62
     2
  6
CONTINUOUS
 10
0.466650
 20
1.533709
  0
VERTEX
  8
PLAN_1
 62
     2
  6
CONTINUOUS
 10
0.465071
 20
1.535819
  0
VERTEX
  8
PLAN_1
 62
     2
  6
CONTINUOUS
 10
0.462437
 20
1.537925
  0
VERTEX
  8
PLAN_1
 62
     2
  6
CONTINUOUS
 10
0.459276
 20
1.538980
  0
VERTEX
  8
PLAN_1
 62
     2
  6
CONTINUOUS
 10
0.455587
 20
1.540559
  0
VERTEX
  8
PLAN_1
 62
     2
  6
CONTINUOUS
 10
0.455587
 20
1.547409
  0
VERTEX
  8
PLAN_1
 62
     2
  6
CONTINUOUS
 10
0.528819
 20
1.547409
  0
SEQEND
  8
0
  0
POLYLINE
  8
PLAN_1
 62
     2
  6
CONTINUOUS
 66
     1
 40
0.003000
 41
0.003000
  0
VERTEX
  8
PLAN_1
 62
     2
  6
CONTINUOUS
 10
0.510906
 20
1.611685
  0
VERTEX
  8
PLAN_1
 62
     2
  6
CONTINUOUS
 10
0.528819
 20
1.611685
  0
VERTEX
  8
PLAN_1
 62
     2
  6
CONTINUOUS
 10
0.528819
 20
1.602728
  0
VERTEX
  8
PLAN_1
 62
     2
  6
CONTINUOUS
 10
0.510906
 20
1.602728
  0
VERTEX
  8
PLAN_1
 62
     2
  6
CONTINUOUS
 10
0.510906
 20
1.570591
  0
VERTEX
  8
PLAN_1
 62
     2
  6
CONTINUOUS
 10
0.501949
 20
1.570591
  0
VERTEX
  8
PLAN_1
 62
     2
  6
CONTINUOUS
 10
0.455587
 20
1.604311
  0
VERTEX
  8
PLAN_1
 62
     2
  6
CONTINUOUS
 10
0.455587
 20
1.611685
  0
VERTEX
  8
PLAN_1
 62
     2
  6
CONTINUOUS
 10
0.503004
 20
1.611685
  0
VERTEX
  8
PLAN_1
 62
     2
  6
CONTINUOUS
 10
0.503004
 20
1.622752
  0
VERTEX
  8
PLAN_1
 62
     2
  6
CONTINUOUS
 10
0.510906
 20
1.622752
  0
VERTEX
  8
PLAN_1
 62
     2
  6
CONTINUOUS
 10
0.510906
 20
1.611685
  0
SEQEND
  8
0
  0
SOLID
  8
PLAN_1
 62
     2
 10
0.503004
 20
1.579020
 11
0.503004
 21
1.602728
 12
0.503004
 22
1.579020
 13
0.469811
 23
1.602728
  0
POLYLINE
  8
PLAN_1
 62
     2
  6
CONTINUOUS
 66
     1
 40
0.003000
 41
0.003000
  0
VERTEX
  8
PLAN_1
 62
     2
  6
CONTINUOUS
 10
0.503004
 20
1.579020
  0
VERTEX
  8
PLAN_1
 62
     2
  6
CONTINUOUS
 10
0.503004
 20
1.602728
  0
VERTEX
  8
PLAN_1
 62
     2
  6
CONTINUOUS
 10
0.469811
 20
1.602728
  0
VERTEX
  8
PLAN_1
 62
     2
  6
CONTINUOUS
 10
0.503004
 20
1.579020
  0
SEQEND
  8
0
  0
POLYLINE
  8
PLAN_1
 62
     2
  6
CONTINUOUS
 66
     1
 40
0.003000
 41
0.003000
  0
VERTEX
  8
PLAN_1
 62
     2
  6
CONTINUOUS
 10
0.481402
 20
1.630654
  0
VERTEX
  8
PLAN_1
 62
     2
  6
CONTINUOUS
 10
0.477189
 20
1.630654
  0
VERTEX
  8
PLAN_1
 62
     2
  6
CONTINUOUS
 10
0.473500
 20
1.631181
  0
VERTEX
  8
PLAN_1
 62
     2
  6
CONTINUOUS
 10
0.470339
 20
1.632236
  0
VERTEX
  8
PLAN_1
 62
     2
  6
CONTINUOUS
 10
0.467705
 20
1.633287
  0
VERTEX
  8
PLAN_1
 62
     2
  6
CONTINUOUS
 10
0.465071
 20
1.634870
  0
VERTEX
  8
PLAN_1
 62
     2
  6
CONTINUOUS
 10
0.462961
 20
1.636449
  0
VERTEX
  8
PLAN_1
 62
     2
  6
CONTINUOUS
 10
0.460854
 20
1.638555
  0
VERTEX
  8
PLAN_1
 62
     2
  6
CONTINUOUS
 10
0.459799
 20
1.640138
  0
VERTEX
  8
PLAN_1
 62
     2
  6
CONTINUOUS
 10
0.457693
 20
1.644350
  0
VERTEX
  8
PLAN_1
 62
     2
  6
CONTINUOUS
 10
0.456114
 20
1.648567
  0
VERTEX
  8
PLAN_1
 62
     2
  6
CONTINUOUS
 10
0.455587
 20
1.652783
  0
VERTEX
  8
PLAN_1
 62
     2
  6
CONTINUOUS
 10
0.455587
 20
1.655945
  0
VERTEX
  8
PLAN_1
 62
     2
  6
CONTINUOUS
 10
0.455587
 20
1.660685
  0
VERTEX
  8
PLAN_1
 62
     2
  6
CONTINUOUS
 10
0.457165
 20
1.664902
  0
VERTEX
  8
PLAN_1
 62
     2
  6
CONTINUOUS
 10
0.458748
 20
1.668587
  0
VERTEX
  8
PLAN_1
 62
     2
  6
CONTINUOUS
 10
0.461382
 20
1.672276
  0
VERTEX
  8
PLAN_1
 62
     2
  6
CONTINUOUS
 10
0.464543
 20
1.674909
  0
VERTEX
  8
PLAN_1
 62
     2
  6
CONTINUOUS
 10
0.468232
 20
1.677020
  0
VERTEX
  8
PLAN_1
 62
     2
  6
CONTINUOUS
 10
0.472445
 20
1.678071
  0
VERTEX
  8
PLAN_1
 62
     2
  6
CONTINUOUS
 10
0.477189
 20
1.678598
  0
VERTEX
  8
PLAN_1
 62
     2
  6
CONTINUOUS
 10
0.481929
 20
1.678598
  0
VERTEX
  8
PLAN_1
 62
     2
  6
CONTINUOUS
 10
0.485618
 20
1.677020
  0
VERTEX
  8
PLAN_1
 62
     2
  6
CONTINUOUS
 10
0.489307
 20
1.675437
  0
VERTEX
  8
PLAN_1
 62
     2
  6
CONTINUOUS
 10
0.492469
 20
1.673331
  0
VERTEX
  8
PLAN_1
 62
     2
  6
CONTINUOUS
 10
0.495102
 20
1.670169
  0
VERTEX
  8
PLAN_1
 62
     2
  6
CONTINUOUS
 10
0.497209
 20
1.667008
  0
VERTEX
  8
PLAN_1
 62
     2
  6
CONTINUOUS
 10
0.499315
 20
1.663319
  0
VERTEX
  8
PLAN_1
 62
     2
  6
CONTINUOUS
 10
0.501949
 20
1.659106
  0
VERTEX
  8
PLAN_1
 62
     2
  6
CONTINUOUS
 10
0.505638
 20
1.651728
  0
VERTEX
  8
PLAN_1
 62
     2
  6
CONTINUOUS
 10
0.507744
 20
1.648039
  0
VERTEX
  8
PLAN_1
 62
     2
  6
CONTINUOUS
 10
0.509854
 20
1.645406
  0
VERTEX
  8
PLAN_1
 62
     2
  6
CONTINUOUS
 10
0.511961
 20
1.643299
  0
VERTEX
  8
PLAN_1
 62
     2
  6
CONTINUOUS
 10
0.514067
 20
1.641717
  0
VERTEX
  8
PLAN_1
 62
     2
  6
CONTINUOUS
 10
0.515650
 20
1.640665
  0
VERTEX
  8
PLAN_1
 62
     2
  6
CONTINUOUS
 10
0.517228
 20
1.639610
  0
VERTEX
  8
PLAN_1
 62
     2
  6
CONTINUOUS
 10
0.518811
 20
1.639083
  0
VERTEX
  8
PLAN_1
 62
     2
  6
CONTINUOUS
 10
0.519862
 20
1.639083
  0
VERTEX
  8
PLAN_1
 62
     2
  6
CONTINUOUS
 10
0.519862
 20
1.678598
  0
VERTEX
  8
PLAN_1
 62
     2
  6
CONTINUOUS
 10
0.528819
 20
1.678598
  0
VERTEX
  8
PLAN_1
 62
     2
  6
CONTINUOUS
 10
0.528819
 20
1.628547
  0
VERTEX
  8
PLAN_1
 62
     2
  6
CONTINUOUS
 10
0.523024
 20
1.629075
  0
VERTEX
  8
PLAN_1
 62
     2
  6
CONTINUOUS
 10
0.518283
 20
1.630126
  0
VERTEX
  8
PLAN_1
 62
     2
  6
CONTINUOUS
 10
0.514067
 20
1.631709
  0
VERTEX
  8
PLAN_1
 62
     2
  6
CONTINUOUS
 10
0.510382
 20
1.633815
  0
VERTEX
  8
PLAN_1
 62
     2
  6
CONTINUOUS
 10
0.507220
 20
1.636449
  0
VERTEX
  8
PLAN_1
 62
     2
  6
CONTINUOUS
 10
0.504583
 20
1.639083
  0
VERTEX
  8
PLAN_1
 62
     2
  6
CONTINUOUS
 10
0.501949
 20
1.642244
  0
VERTEX
  8
PLAN_1
 62
     2
  6
CONTINUOUS
 10
0.499315
 20
1.645933
  0
VERTEX
  8
PLAN_1
 62
     2
  6
CONTINUOUS
 10
0.494047
 20
1.655417
  0
VERTEX
  8
PLAN_1
 62
     2
  6
CONTINUOUS
 10
0.492469
 20
1.658579
  0
VERTEX
  8
PLAN_1
 62
     2
  6
CONTINUOUS
 10
0.490886
 20
1.661213
  0
VERTEX
  8
PLAN_1
 62
     2
  6
CONTINUOUS
 10
0.489307
 20
1.663319
  0
VERTEX
  8
PLAN_1
 62
     2
  6
CONTINUOUS
 10
0.487197
 20
1.665425
  0
VERTEX
  8
PLAN_1
 62
     2
  6
CONTINUOUS
 10
0.485091
 20
1.667008
  0
VERTEX
  8
PLAN_1
 62
     2
  6
CONTINUOUS
 10
0.482984
 20
1.668063
  0
VERTEX
  8
PLAN_1
 62
     2
  6
CONTINUOUS
 10
0.480350
 20
1.668587
  0
VERTEX
  8
PLAN_1
 62
     2
  6
CONTINUOUS
 10
0.476661
 20
1.669114
  0
VERTEX
  8
PLAN_1
 62
     2
  6
CONTINUOUS
 10
0.474551
 20
1.668587
  0
VERTEX
  8
PLAN_1
 62
     2
  6
CONTINUOUS
 10
0.472445
 20
1.668063
  0
VERTEX
  8
PLAN_1
 62
     2
  6
CONTINUOUS
 10
0.470339
 20
1.667008
  0
VERTEX
  8
PLAN_1
 62
     2
  6
CONTINUOUS
 10
0.468232
 20
1.665953
  0
VERTEX
  8
PLAN_1
 62
     2
  6
CONTINUOUS
 10
0.466122
 20
1.663846
  0
VERTEX
  8
PLAN_1
 62
     2
  6
CONTINUOUS
 10
0.465071
 20
1.661213
  0
VERTEX
  8
PLAN_1
 62
     2
  6
CONTINUOUS
 10
0.464016
 20
1.658051
  0
VERTEX
  8
PLAN_1
 62
     2
  6
CONTINUOUS
 10
0.463488
 20
1.654362
  0
VERTEX
  8
PLAN_1
 62
     2
  6
CONTINUOUS
 10
0.464016
 20
1.652256
  0
VERTEX
  8
PLAN_1
 62
     2
  6
CONTINUOUS
 10
0.464016
 20
1.650150
  0
VERTEX
  8
PLAN_1
 62
     2
  6
CONTINUOUS
 10
0.465071
 20
1.648039
  0
VERTEX
  8
PLAN_1
 62
     2
  6
CONTINUOUS
 10
0.465594
 20
1.646461
  0
VERTEX
  8
PLAN_1
 62
     2
  6
CONTINUOUS
 10
0.468232
 20
1.643827
  0
VERTEX
  8
PLAN_1
 62
     2
  6
CONTINUOUS
 10
0.470866
 20
1.642244
  0
VERTEX
  8
PLAN_1
 62
     2
  6
CONTINUOUS
 10
0.473500
 20
1.641193
  0
VERTEX
  8
PLAN_1
 62
     2
  6
CONTINUOUS
 10
0.476661
 20
1.640138
  0
VERTEX
  8
PLAN_1
 62
     2
  6
CONTINUOUS
 10
0.479295
 20
1.640138
  0
VERTEX
  8
PLAN_1
 62
     2
  6
CONTINUOUS
 10
0.481402
 20
1.639610
  0
VERTEX
  8
PLAN_1
 62
     2
  6
CONTINUOUS
 10
0.481402
 20
1.630654
  0
SEQEND
  8
0
  0
POLYLINE
  8
PLAN_1
 62
     2
  6
CONTINUOUS
 66
     1
 40
0.003000
 41
0.003000
  0
VERTEX
  8
PLAN_1
 62
     2
  6
CONTINUOUS
 10
0.517756
 20
1.692823
  0
VERTEX
  8
PLAN_1
 62
     2
  6
CONTINUOUS
 10
0.517756
 20
1.703890
  0
VERTEX
  8
PLAN_1
 62
     2
  6
CONTINUOUS
 10
0.527768
 20
1.703890
  0
VERTEX
  8
PLAN_1
 62
     2
  6
CONTINUOUS
 10
0.532508
 20
1.703362
  0
VERTEX
  8
PLAN_1
 62
     2
  6
CONTINUOUS
 10
0.536197
 20
1.702307
  0
VERTEX
  8
PLAN_1
 62
     2
  6
CONTINUOUS
 10
0.538831
 20
1.700728
  0
VERTEX
  8
PLAN_1
 62
     2
  6
CONTINUOUS
 10
0.540937
 20
1.699146
  0
VERTEX
  8
PLAN_1
 62
     2
  6
CONTINUOUS
 10
0.542520
 20
1.697567
  0
VERTEX
  8
PLAN_1
 62
     2
  6
CONTINUOUS
 10
0.543047
 20
1.695457
  0
VERTEX
  8
PLAN_1
 62
     2
  6
CONTINUOUS
 10
0.543575
 20
1.693878
  0
VERTEX
  8
PLAN_1
 62
     2
  6
CONTINUOUS
 10
0.544098
 20
1.692823
  0
VERTEX
  8
PLAN_1
 62
     2
  6
CONTINUOUS
 10
0.538831
 20
1.692823
  0
VERTEX
  8
PLAN_1
 62
     2
  6
CONTINUOUS
 10
0.538831
 20
1.694406
  0
VERTEX
  8
PLAN_1
 62
     2
  6
CONTINUOUS
 10
0.537776
 20
1.695457
  0
VERTEX
  8
PLAN_1
 62
     2
  6
CONTINUOUS
 10
0.536724
 20
1.696512
  0
VERTEX
  8
PLAN_1
 62
     2
  6
CONTINUOUS
 10
0.535669
 20
1.697567
  0
VERTEX
  8
PLAN_1
 62
     2
  6
CONTINUOUS
 10
0.534091
 20
1.698094
  0
VERTEX
  8
PLAN_1
 62
     2
  6
CONTINUOUS
 10
0.531980
 20
1.698094
  0
VERTEX
  8
PLAN_1
 62
     2
  6
CONTINUOUS
 10
0.530402
 20
1.698618
  0
VERTEX
  8
PLAN_1
 62
     2
  6
CONTINUOUS
 10
0.528819
 20
1.698618
  0
VERTEX
  8
PLAN_1
 62
     2
  6
CONTINUOUS
 10
0.528819
 20
1.692823
  0
VERTEX
  8
PLAN_1
 62
     2
  6
CONTINUOUS
 10
0.517756
 20
1.692823
  0
SEQEND
  8
0
  0
POLYLINE
  8
PLAN_1
 62
     2
  6
CONTINUOUS
 66
     1
 40
0.003000
 41
0.003000
  0
VERTEX
  8
PLAN_1
 62
     2
  6
CONTINUOUS
 10
0.486146
 20
1.728126
  0
VERTEX
  8
PLAN_1
 62
     2
  6
CONTINUOUS
 10
0.485091
 20
1.729177
  0
VERTEX
  8
PLAN_1
 62
     2
  6
CONTINUOUS
 10
0.484035
 20
1.730760
  0
VERTEX
  8
PLAN_1
 62
     2
  6
CONTINUOUS
 10
0.483508
 20
1.732339
  0
VERTEX
  8
PLAN_1
 62
     2
  6
CONTINUOUS
 10
0.482984
 20
1.733921
  0
VERTEX
  8
PLAN_1
 62
     2
  6
CONTINUOUS
 10
0.482457
 20
1.736028
  0
VERTEX
  8
PLAN_1
 62
     2
  6
CONTINUOUS
 10
0.481929
 20
1.737606
  0
VERTEX
  8
PLAN_1
 62
     2
  6
CONTINUOUS
 10
0.481402
 20
1.739717
  0
VERTEX
  8
PLAN_1
 62
     2
  6
CONTINUOUS
 10
0.481402
 20
1.742350
  0
VERTEX
  8
PLAN_1
 62
     2
  6
CONTINUOUS
 10
0.481929
 20
1.746563
  0
VERTEX
  8
PLAN_1
 62
     2
  6
CONTINUOUS
 10
0.482984
 20
1.751307
  0
VERTEX
  8
PLAN_1
 62
     2
  6
CONTINUOUS
 10
0.485091
 20
1.754996
  0
VERTEX
  8
PLAN_1
 62
     2
  6
CONTINUOUS
 10
0.487724
 20
1.758681
  0
VERTEX
  8
PLAN_1
 62
     2
  6
CONTINUOUS
 10
0.490886
 20
1.761843
  0
VERTEX
  8
PLAN_1
 62
     2
  6
CONTINUOUS
 10
0.494575
 20
1.764480
  0
VERTEX
  8
PLAN_1
 62
     2
  6
CONTINUOUS
 10
0.497209
 20
1.765004
  0
VERTEX
  8
PLAN_1
 62
     2
  6
CONTINUOUS
 10
0.499315
 20
1.766059
  0
VERTEX
  8
PLAN_1
 62
     2
  6
CONTINUOUS
 10
0.501949
 20
1.766059
  0
VERTEX
  8
PLAN_1
 62
     2
  6
CONTINUOUS
 10
0.505110
 20
1.766587
  0
VERTEX
  8
PLAN_1
 62
     2
  6
CONTINUOUS
 10
0.508272
 20
1.766059
  0
VERTEX
  8
PLAN_1
 62
     2
  6
CONTINUOUS
 10
0.512488
 20
1.765531
  0
VERTEX
  8
PLAN_1
 62
     2
  6
CONTINUOUS
 10
0.516701
 20
1.763953
  0
VERTEX
  8
PLAN_1
 62
     2
  6
CONTINUOUS
 10
0.520917
 20
1.761843
  0
VERTEX
  8
PLAN_1
 62
     2
  6
CONTINUOUS
 10
0.522500
 20
1.760264
  0
VERTEX
  8
PLAN_1
 62
     2
  6
CONTINUOUS
 10
0.524606
 20
1.758157
  0
VERTEX
  8
PLAN_1
 62
     2
  6
CONTINUOUS
 10
0.526185
 20
1.756047
  0
VERTEX
  8
PLAN_1
 62
     2
  6
CONTINUOUS
 10
0.527768
 20
1.753413
  0
VERTEX
  8
PLAN_1
 62
     2
  6
CONTINUOUS
 10
0.528819
 20
1.750780
  0
VERTEX
  8
PLAN_1
 62
     2
  6
CONTINUOUS
 10
0.529874
 20
1.747618
  0
VERTEX
  8
PLAN_1
 62
     2
  6
CONTINUOUS
 10
0.530402
 20
1.743929
  0
VERTEX
  8
PLAN_1
 62
     2
  6
CONTINUOUS
 10
0.530402
 20
1.739717
  0
VERTEX
  8
PLAN_1
 62
     2
  6
CONTINUOUS
 10
0.530402
 20
1.736028
  0
VERTEX
  8
PLAN_1
 62
     2
  6
CONTINUOUS
 10
0.529874
 20
1.732339
  0
VERTEX
  8
PLAN_1
 62
     2
  6
CONTINUOUS
 10
0.528295
 20
1.728650
  0
VERTEX
  8
PLAN_1
 62
     2
  6
CONTINUOUS
 10
0.526713
 20
1.724965
  0
VERTEX
  8
PLAN_1
 62
     2
  6
CONTINUOUS
 10
0.524079
 20
1.721803
  0
VERTEX
  8
PLAN_1
 62
     2
  6
CONTINUOUS
 10
0.520390
 20
1.719169
  0
VERTEX
  8
PLAN_1
 62
     2
  6
CONTINUOUS
 10
0.518283
 20
1.718114
  0
VERTEX
  8
PLAN_1
 62
     2
  6
CONTINUOUS
 10
0.516177
 20
1.717587
  0
VERTEX
  8
PLAN_1
 62
     2
  6
CONTINUOUS
 10
0.513543
 20
1.716531
  0
VERTEX
  8
PLAN_1
 62
     2
  6
CONTINUOUS
 10
0.510382
 20
1.716008
  0
VERTEX
  8
PLAN_1
 62
     2
  6
CONTINUOUS
 10
0.510382
 20
1.725488
  0
VERTEX
  8
PLAN_1
 62
     2
  6
CONTINUOUS
 10
0.513543
 20
1.726016
  0
VERTEX
  8
PLAN_1
 62
     2
  6
CONTINUOUS
 10
0.515650
 20
1.727071
  0
VERTEX
  8
PLAN_1
 62
     2
  6
CONTINUOUS
 10
0.517756
 20
1.728650
  0
VERTEX
  8
PLAN_1
 62
     2
  6
CONTINUOUS
 10
0.519862
 20
1.730760
  0
VERTEX
  8
PLAN_1
 62
     2
  6
CONTINUOUS
 10
0.520917
 20
1.732866
  0
VERTEX
  8
PLAN_1
 62
     2
  6
CONTINUOUS
 10
0.521972
 20
1.735500
  0
VERTEX
  8
PLAN_1
 62
     2
  6
CONTINUOUS
 10
0.522500
 20
1.738134
  0
VERTEX
  8
PLAN_1
 62
     2
  6
CONTINUOUS
 10
0.522500
 20
1.741295
  0
VERTEX
  8
PLAN_1
 62
     2
  6
CONTINUOUS
 10
0.522500
 20
1.744457
  0
VERTEX
  8
PLAN_1
 62
     2
  6
CONTINUOUS
 10
0.521445
 20
1.747618
  0
VERTEX
  8
PLAN_1
 62
     2
  6
CONTINUOUS
 10
0.519862
 20
1.750252
  0
VERTEX
  8
PLAN_1
 62
     2
  6
CONTINUOUS
 10
0.517756
 20
1.752362
  0
VERTEX
  8
PLAN_1
 62
     2
  6
CONTINUOUS
 10
0.515122
 20
1.753941
  0
VERTEX
  8
PLAN_1
 62
     2
  6
CONTINUOUS
 10
0.512488
 20
1.755520
  0
VERTEX
  8
PLAN_1
 62
     2
  6
CONTINUOUS
 10
0.509327
 20
1.756047
  0
VERTEX
  8
PLAN_1
 62
     2
  6
CONTINUOUS
 10
0.505638
 20
1.756575
  0
VERTEX
  8
PLAN_1
 62
     2
  6
CONTINUOUS
 10
0.501949
 20
1.756047
  0
VERTEX
  8
PLAN_1
 62
     2
  6
CONTINUOUS
 10
0.498787
 20
1.755520
  0
VERTEX
  8
PLAN_1
 62
     2
  6
CONTINUOUS
 10
0.496154
 20
1.753941
  0
VERTEX
  8
PLAN_1
 62
     2
  6
CONTINUOUS
 10
0.494047
 20
1.751835
  0
VERTEX
  8
PLAN_1
 62
     2
  6
CONTINUOUS
 10
0.491941
 20
1.749201
  0
VERTEX
  8
PLAN_1
 62
     2
  6
CONTINUOUS
 10
0.490886
 20
1.746563
  0
VERTEX
  8
PLAN_1
 62
     2
  6
CONTINUOUS
 10
0.489831
 20
1.743406
  0
VERTEX
  8
PLAN_1
 62
     2
  6
CONTINUOUS
 10
0.489831
 20
1.740244
  0
VERTEX
  8
PLAN_1
 62
     2
  6
CONTINUOUS
 10
0.489831
 20
1.738134
  0
VERTEX
  8
PLAN_1
 62
     2
  6
CONTINUOUS
 10
0.490358
 20
1.736555
  0
VERTEX
  8
PLAN_1
 62
     2
  6
CONTINUOUS
 10
0.490886
 20
1.734449
  0
VERTEX
  8
PLAN_1
 62
     2
  6
CONTINUOUS
 10
0.491413
 20
1.732866
  0
VERTEX
  8
PLAN_1
 62
     2
  6
CONTINUOUS
 10
0.492469
 20
1.731287
  0
VERTEX
  8
PLAN_1
 62
     2
  6
CONTINUOUS
 10
0.493520
 20
1.729705
  0
VERTEX
  8
PLAN_1
 62
     2
  6
CONTINUOUS
 10
0.495102
 20
1.728126
  0
VERTEX
  8
PLAN_1
 62
     2
  6
CONTINUOUS
 10
0.496681
 20
1.727071
  0
VERTEX
  8
PLAN_1
 62
     2
  6
CONTINUOUS
 10
0.496154
 20
1.719169
  0
VERTEX
  8
PLAN_1
 62
     2
  6
CONTINUOUS
 10
0.457165
 20
1.724437
  0
VERTEX
  8
PLAN_1
 62
     2
  6
CONTINUOUS
 10
0.457165
 20
1.762370
  0
VERTEX
  8
PLAN_1
 62
     2
  6
CONTINUOUS
 10
0.466122
 20
1.762370
  0
VERTEX
  8
PLAN_1
 62
     2
  6
CONTINUOUS
 10
0.466122
 20
1.731287
  0
VERTEX
  8
PLAN_1
 62
     2
  6
CONTINUOUS
 10
0.486146
 20
1.728126
  0
SEQEND
  8
0
  0
POLYLINE
  8
PLAN_1
 62
     2
  6
CONTINUOUS
 66
     1
 40
0.004213
 41
0.004213
  0
VERTEX
  8
PLAN_1
 62
     2
  6
CONTINUOUS
 10
0.207429
 20
-0.677031
  0
VERTEX
  8
PLAN_1
 62
     2
  6
CONTINUOUS
 10
0.575713
 20
-0.677031
  0
SEQEND
  8
0
  0
POLYLINE
  8
PLAN_1
 62
     2
  6
CONTINUOUS
 66
     1
 40
0.004213
 41
0.004213
  0
VERTEX
  8
PLAN_1
 62
     2
  6
CONTINUOUS
 10
-1.083398
 20
3.957835
  0
VERTEX
  8
PLAN_1
 62
     2
  6
CONTINUOUS
 10
0.575713
 20
3.957835
  0
SEQEND
  8
0
  0
POLYLINE
  8
PLAN_1
 62
     2
  6
CONTINUOUS
 66
     1
 40
0.004213
 41
0.004213
  0
VERTEX
  8
PLAN_1
 62
     2
  6
CONTINUOUS
 10
-1.154528
 20
4.139079
  0
VERTEX
  8
PLAN_1
 62
     2
  6
CONTINUOUS
 10
-1.154528
 20
3.982071
  0
SEQEND
  8
0
  0
POLYLINE
  8
PLAN_1
 62
     2
  6
CONTINUOUS
 66
     1
 40
0.004213
 41
0.004213
  0
VERTEX
  8
PLAN_1
 62
     2
  6
CONTINUOUS
 10
-1.103421
 20
4.139079
  0
VERTEX
  8
PLAN_1
 62
     2
  6
CONTINUOUS
 10
-1.103421
 20
3.982071
  0
SEQEND
  8
0
  0
ENDSEC
  0
EOF
