999
DXF file: C:\Users\sesa63760\Dev\_Creo\CAD\MCADID0003680_3D-CAD\drw0001_1.dxf
999
Pro/ENGINEER 2019471 by Parametric Technology Corporation
  0
SECTION
  2
HEADER
  9
$ACADVER
  1
AC1024
  9
$DWGCODEPAGE
  3
ANSI_1252
  9
$EXTMAX
 10
126.1391837396
 20
178.3968455746
 30
0.0
  9
$EXTMIN
 10
0.0
 20
0.0
 30
0.0
  9
$LIMMIN
 10
0.0
 20
0.0
  9
$LIMMAX
 10
126.1391837396
 20
178.3968455746
  9
$VIEWCTR
 10
63.0695918698
 20
89.1984227873
  9
$VIEWSIZE
 40
178.3968455746
  9
$CLAYER
  8
0
  9
$LTSCALE
 40
11.6288314152
  9
$CELTYPE
  6
BYLAYER
  9
$DIMSCALE
 40
1.0
  9
$DIMASZ
 40
1.5016569493
  9
$DIMEXO
 40
1.0
  9
$DIMDLI
 40
8.0344653414
  9
$DIMEXE
 40
1.0
  9
$DIMCEN
 40
1.9028996861
  9
$DIMLFAC
 40
1.0
  9
$DIMBLK
  1
_FILLED
  9
$DIMALT
 70
0
  9
$DIMALTF
 40
0.0393700787
  9
$DIMTXT
 40
2.102319729
  9
$DIMTOL
 70
1
  9
$DIMLIM
 70
0
  9
$DIMTFAC
 40
1.0
  9
$DIMTP
 40
0.01
  9
$DIMTM
 40
0.01
  9
$DIMGAP
 40
0.625
  9
$DIMDSEP
 70
46
  9
$AUNITS
 70
0
  9
$PDMODE
 70
3
  9
$PDSIZE
 40
0.3125
  9
$HANDSEED
  5
4DF
  9
$TILEMODE
 70
1
  9
$MEASUREMENT
 70
1
  9
$INSUNITS
 70
4
  0
ENDSEC
  0
SECTION
  2
CLASSES
  0
CLASS
  1
ACDBDICTIONARYWDFLT
  2
AcDbDictionaryWithDefault
  3
AutoCAD 2000
 90
0
 91
1
280
0
281
0
  0
CLASS
  1
ACDBPLACEHOLDER
  2
AcDbPlaceHolder
  3
AutoCAD 2000
 90
0
 91
1
280
0
281
0
  0
CLASS
  1
LAYOUT
  2
AcDbLayout
  3
AutoCAD 2000
 90
0
 91
0
280
0
281
0
  0
ENDSEC
  0
SECTION
  2
TABLES
  0
TABLE
  2
VPORT
  5
8
100
AcDbSymbolTable
 70
2
  0
VPORT
  5
1F4
100
AcDbSymbolTableRecord
100
AcDbViewportTableRecord
  2
*ACTIVE
 70
0
 10
0.0
 20
0.0
 11
1.0
 21
1.0
 12
63.0695918698
 22
89.1984227873
 13
0.0
 23
0.0
 14
1.0
 24
1.0
 15
0.0
 25
0.0
 16
0.0
 26
0.0
 36
1.0
 17
0.0
 27
0.0
 37
0.0
 40
178.3968455746
 41
0.7070707071
 42
50.0
 43
0.0
 44
0.0
 50
0.0
 51
0.0
 71
0
 72
100
 73
1
 74
1
 75
0
 76
0
 77
0
 78
0
  0
ENDTAB
  0
TABLE
  2
LTYPE
  5
5
100
AcDbSymbolTable
 70
6
  0
LTYPE
  5
14
100
AcDbSymbolTableRecord
100
AcDbLinetypeTableRecord
  2
BYBLOCK
 70
0
  3

 72
65
 73
0
 40
0.0
  0
LTYPE
  5
15
100
AcDbSymbolTableRecord
100
AcDbLinetypeTableRecord
  2
BYLAYER
 70
0
  3

 72
65
 73
0
 40
0.0
  0
LTYPE
  5
16
100
AcDbSymbolTableRecord
100
AcDbLinetypeTableRecord
  2
CONTINUOUS
 70
64
  3
Solid line
 72
65
 73
0
 40
0.0
  0
LTYPE
  5
1F5
100
AcDbSymbolTableRecord
100
AcDbLinetypeTableRecord
  2
CENTER
 70
64
  3
____ _ ____ _ ____ _ ____ _ ____ _ ____ _ ____
 72
65
 73
4
 40
0.6
 49
0.375
 74
0
 49
-0.075
 74
0
 49
0.075
 74
0
 49
-0.075
 74
0
  0
LTYPE
  5
1F6
100
AcDbSymbolTableRecord
100
AcDbLinetypeTableRecord
  2
HIDDEN
 70
64
  3
- - - - - - - - - - - - - - - - - - - -
 72
65
 73
2
 40
0.2
 49
0.1
 74
0
 49
-0.1
 74
0
  0
LTYPE
  5
1F7
100
AcDbSymbolTableRecord
100
AcDbLinetypeTableRecord
  2
PHANTOM
 70
64
  3
_____ _ _ _____ _ _ _____ _ _ _____
 72
65
 73
6
 40
0.8
 49
0.45
 74
0
 49
-0.05
 74
0
 49
0.1
 74
0
 49
-0.05
 74
0
 49
0.1
 74
0
 49
-0.05
 74
0
  0
LTYPE
  5
1F8
100
AcDbSymbolTableRecord
100
AcDbLinetypeTableRecord
  2
DOT
 70
64
  3
. . . . . . . . . . . . . . . . . . . .
 72
65
 73
2
 40
0.2
 49
0.1
 74
0
 49
-0.1
 74
0
  0
LTYPE
  5
1F9
100
AcDbSymbolTableRecord
100
AcDbLinetypeTableRecord
  2
DASHED
 70
64
  3
- - - - - - - - - - - - - - - - - - - -
 72
65
 73
2
 40
0.2
 49
0.1
 74
0
 49
-0.1
 74
0
  0
ENDTAB
  0
TABLE
  2
LAYER
  5
2
100
AcDbSymbolTable
 70
36
  0
LAYER
  5
10
100
AcDbSymbolTableRecord
100
AcDbLayerTableRecord
  2
0
 70
0
 62
7
  6
CONTINUOUS
370
-3
390
F
  0
LAYER
  5
1FA
100
AcDbSymbolTableRecord
100
AcDbLayerTableRecord
  2
DEFAULT_1
 70
0
 62
7
  6
CENTER
370
-3
390
F
  0
LAYER
  5
1FB
100
AcDbSymbolTableRecord
100
AcDbLayerTableRecord
  2
DEFAULT_2
 70
0
 62
7
  6
HIDDEN
370
-3
390
F
  0
LAYER
  5
1FC
100
AcDbSymbolTableRecord
100
AcDbLayerTableRecord
  2
DEFAULT_3
 70
0
 62
7
  6
PHANTOM
370
-3
390
F
  0
LAYER
  5
1FD
100
AcDbSymbolTableRecord
100
AcDbLayerTableRecord
  2
00_COMPONENTS
 70
0
 62
7
  6
CONTINUOUS
370
-3
390
F
  0
LAYER
  5
1FE
100
AcDbSymbolTableRecord
100
AcDbLayerTableRecord
  2
01_1_DEFAULT_DATUMS
 70
0
 62
7
  6
CONTINUOUS
370
-3
390
F
  0
LAYER
  5
1FF
100
AcDbSymbolTableRecord
100
AcDbLayerTableRecord
  2
01_PLANES
 70
0
 62
7
  6
CONTINUOUS
370
-3
390
F
  0
LAYER
  5
200
100
AcDbSymbolTableRecord
100
AcDbLayerTableRecord
  2
02_COORD_SYS
 70
0
 62
7
  6
CONTINUOUS
370
-3
390
F
  0
LAYER
  5
201
100
AcDbSymbolTableRecord
100
AcDbLayerTableRecord
  2
03_AXES
 70
0
 62
7
  6
CONTINUOUS
370
-3
390
F
  0
LAYER
  5
202
100
AcDbSymbolTableRecord
100
AcDbLayerTableRecord
  2
04_POINTS
 70
0
 62
7
  6
CONTINUOUS
370
-3
390
F
  0
LAYER
  5
203
100
AcDbSymbolTableRecord
100
AcDbLayerTableRecord
  2
05_CURVES
 70
0
 62
7
  6
CONTINUOUS
370
-3
390
F
  0
LAYER
  5
204
100
AcDbSymbolTableRecord
100
AcDbLayerTableRecord
  2
06_SURFS
 70
0
 62
7
  6
CONTINUOUS
370
-3
390
F
  0
LAYER
  5
205
100
AcDbSymbolTableRecord
100
AcDbLayerTableRecord
  2
07_COSMETICS
 70
0
 62
7
  6
CONTINUOUS
370
-3
390
F
  0
LAYER
  5
206
100
AcDbSymbolTableRecord
100
AcDbLayerTableRecord
  2
10_NOTES
 70
0
 62
7
  6
CONTINUOUS
370
-3
390
F
  0
LAYER
  5
207
100
AcDbSymbolTableRecord
100
AcDbLayerTableRecord
  2
11_NOTES_PUB
 70
0
 62
7
  6
CONTINUOUS
370
-3
390
F
  0
LAYER
  5
208
100
AcDbSymbolTableRecord
100
AcDbLayerTableRecord
  2
13_REF_GTOL
 70
0
 62
7
  6
CONTINUOUS
370
-3
390
F
  0
LAYER
  5
209
100
AcDbSymbolTableRecord
100
AcDbLayerTableRecord
  2
16_MISC
 70
0
 62
7
  6
CONTINUOUS
370
-3
390
F
  0
LAYER
  5
20A
100
AcDbSymbolTableRecord
100
AcDbLayerTableRecord
  2
17_NO_PRINT
 70
0
 62
7
  6
CONTINUOUS
370
-3
390
F
  0
LAYER
  5
20B
100
AcDbSymbolTableRecord
100
AcDbLayerTableRecord
  2
18_DATUM_CAMS_JOINTS
 70
0
 62
7
  6
CONTINUOUS
370
-3
390
F
  0
LAYER
  5
20C
100
AcDbSymbolTableRecord
100
AcDbLayerTableRecord
  2
19_DATUM_FUNCTIONAL
 70
0
 62
7
  6
CONTINUOUS
370
-3
390
F
  0
LAYER
  5
20D
100
AcDbSymbolTableRecord
100
AcDbLayerTableRecord
  2
20_DATUM_KINEMATIC_SCHEME
 70
0
 62
7
  6
CONTINUOUS
370
-3
390
F
  0
ENDTAB
  0
TABLE
  2
STYLE
  5
3
100
AcDbSymbolTable
 70
1
  0
STYLE
  5
11
100
AcDbSymbolTableRecord
100
AcDbTextStyleTableRecord
  2
STANDARD
 70
0
 40
0.0
 41
1.0
 50
0.0
 71
0
 42
0.2
  3
ARIAL.TTF
  4

  0
STYLE
  5
20E
100
AcDbSymbolTableRecord
100
AcDbTextStyleTableRecord
  2
TEXTSTYLE_1
 70
0
 40
0.0
 41
0.8
 50
0.0
 71
0
 42
0.2
  3
gdt
  4

  0
ENDTAB
  0
TABLE
  2
VIEW
  5
6
100
AcDbSymbolTable
 70
0
  0
ENDTAB
  0
TABLE
  2
UCS
  5
7
100
AcDbSymbolTable
 70
0
  0
ENDTAB
  0
TABLE
  2
APPID
  5
9
100
AcDbSymbolTable
 70
1
  0
APPID
  5
20F
100
AcDbSymbolTableRecord
100
AcDbRegAppTableRecord
  2
ACAD
 70
0
  0
ENDTAB
  0
TABLE
  2
BLOCK_RECORD
  5
1
100
AcDbSymbolTable
 70
0
  0
BLOCK_RECORD
  5
210
100
AcDbSymbolTableRecord
100
AcDbBlockTableRecord
  2
*Model_Space
  0
BLOCK_RECORD
  5
211
100
AcDbSymbolTableRecord
100
AcDbBlockTableRecord
  2
*Paper_Space
  0
BLOCK_RECORD
  5
212
100
AcDbSymbolTableRecord
100
AcDbBlockTableRecord
  2
_FILLED
  0
ENDTAB
  0
TABLE
  2
DIMSTYLE
  5
A
100
AcDbSymbolTable
 70
1
100
AcDbDimStyleTable
 71
0
  0
DIMSTYLE
105
213
100
AcDbSymbolTableRecord
100
AcDbDimStyleTableRecord
  2
STANDARD
 70
0
  3

  4

 40
1.0
 41
1.5016569493
 42
1.0
 43
0.38
 44
1.0
 45
0.0
 46
0.0
 47
0.01
 48
0.01
140
2.102319729
141
0.09
142
0.0
143
25.4
144
1.0
145
0.0
146
1.0
147
0.625
 71
1
 72
0
 73
0
 74
0
 75
0
 76
0
 77
1
 78
8
 79
2
170
0
171
1
172
0
173
0
174
0
175
0
176
0
177
0
178
0
270
2
179
2
271
2
272
2
273
2
274
2
275
0
280
0
281
0
282
0
283
1
284
8
285
0
286
0
287
3
288
0
340
11
278
46
341
212
342
212
343
212
344
212
  0
ENDTAB
  0
ENDSEC
  0
SECTION
  2
BLOCKS
  0
BLOCK
  5
20
100
AcDbEntity
  8
0
100
AcDbBlockBegin
  2
*Model_Space
 70
0
 10
0.0
 20
0.0
 30
0.0
  3
*Model_Space
  1

  0
ENDBLK
  5
21
100
AcDbEntity
  8
0
100
AcDbBlockEnd
  0
BLOCK
  5
1C
100
AcDbEntity
  8
0
100
AcDbBlockBegin
  2
*Paper_Space
 70
0
 10
0.0
 20
0.0
 30
0.0
  3
*Paper_Space
  1

  0
ENDBLK
  5
1D
100
AcDbEntity
  8
0
100
AcDbBlockEnd
  0
BLOCK
  5
214
100
AcDbEntity
  8
0
100
AcDbBlockBegin
  2
_FILLED
 70
64
 10
0.0
 20
0.0
  3
_FILLED
  1

  0
SOLID
  5
215
100
AcDbEntity
  8
0
  6
BYBLOCK
 62
0
100
AcDbTrace
 10
0.0
 20
0.0
 11
-1.0
 21
0.25
 12
-1.0
 22
-0.25
 13
-1.0
 23
-0.25
  0
ENDBLK
  5
216
100
AcDbEntity
  8
0
  6
BYBLOCK
 62
0
100
AcDbBlockEnd
  0
ENDSEC
  0
SECTION
  2
ENTITIES
  0
LINE
  5
217
100
AcDbEntity
  8
0
100
AcDbLine
 62
7
  6
BYLAYER
 10
36.3197608415
 20
24.4836728849
 11
33.2084780509
 21
26.2799322048
  0
LINE
  5
218
100
AcDbEntity
  8
0
100
AcDbLine
 62
7
  6
BYLAYER
 10
37.4696467531
 20
26.4753055839
 11
38.0256985178
 21
26.1542762106
  0
LINE
  5
219
100
AcDbEntity
  8
0
100
AcDbLine
 62
7
  6
BYLAYER
 10
37.4888970116
 20
27.12941358
 11
37.357111082
 21
27.2054985006
  0
LINE
  5
21A
100
AcDbEntity
  8
0
100
AcDbLine
 62
7
  6
BYLAYER
 10
37.357111082
 20
27.6953999509
 11
37.4888970116
 21
27.6193150303
  0
LINE
  5
21B
100
AcDbEntity
  8
0
100
AcDbLine
 62
7
  6
BYLAYER
 10
39.8207047937
 20
27.5246999399
 11
39.2948868093
 21
27.828274227
  0
LINE
  5
21C
100
AcDbEntity
  8
0
100
AcDbLine
 62
7
  6
BYLAYER
 10
40.9159357834
 20
27.1372598851
 11
41.6937564811
 21
26.6881950551
  0
LINE
  5
21D
100
AcDbEntity
  8
0
100
AcDbLine
 62
7
  6
BYLAYER
 10
36.3197608415
 20
29.7909385962
 11
37.0975815392
 21
29.3418737663
  0
LINE
  5
21E
100
AcDbEntity
  8
0
100
AcDbLine
 62
7
  6
BYLAYER
 10
40.5278086309
 20
27.9329440938
 11
39.7788015243
 21
28.3653737656
  0
LINE
  5
21F
100
AcDbEntity
  8
0
100
AcDbLine
 62
7
  6
BYLAYER
 10
39.648156195
 20
28.9307016255
 11
40.5278086309
 21
28.4228455441
  0
LINE
  5
220
100
AcDbEntity
  8
0
100
AcDbLine
 62
7
  6
BYLAYER
 10
14.795802349
 20
37.670548613
 11
33.2084780509
 21
26.6658765231
  0
LINE
  5
221
100
AcDbEntity
  8
0
100
AcDbLine
 62
7
  6
BYLAYER
 10
14.6335965796
 20
38.0347265985
 11
33.2084780509
 21
26.9331092666
  0
LINE
  5
222
100
AcDbEntity
  8
0
100
AcDbLine
 62
7
  6
BYLAYER
 10
41.1684418413
 20
29.3046084594
 11
41.2124550613
 21
29.2791979898
  0
LINE
  5
223
100
AcDbEntity
  8
0
100
AcDbLine
 62
7
  6
BYLAYER
 10
41.2034500226
 20
29.8290256769
 11
41.6937564811
 21
29.545953515
  0
LINE
  5
224
100
AcDbEntity
  8
0
100
AcDbLine
 62
7
  6
BYLAYER
 10
40.2949225637
 20
30.9640469771
 11
40.6756535551
 21
30.7442368095
  0
LINE
  5
225
100
AcDbEntity
  8
0
100
AcDbLine
 62
7
  6
BYLAYER
 10
14.6335965796
 20
38.0347265985
 11
14.6335965796
 21
95.279798942
  0
LINE
  5
226
100
AcDbEntity
  8
0
100
AcDbLine
 62
7
  6
BYLAYER
 10
39.7632329129
 20
27.9907546229
 11
40.2902767529
 21
27.0778929816
  0
LINE
  5
227
100
AcDbEntity
  8
0
100
AcDbLine
 62
7
  6
BYLAYER
 10
73.2127220526
 20
146.0701812902
 11
87.3547987969
 21
154.2350643677
  0
LINE
  5
228
100
AcDbEntity
  8
0
100
AcDbLine
 62
7
  6
BYLAYER
 10
71.2168103242
 20
142.8765919523
 11
69.7302356543
 21
142.0183227896
  0
LINE
  5
229
100
AcDbEntity
  8
0
100
AcDbLine
 62
7
  6
BYLAYER
 10
92.3115787973
 20
154.055411086
 11
91.8934336199
 21
153.8139962963
  0
LINE
  5
22A
100
AcDbEntity
  8
0
100
AcDbLine
 62
7
  6
BYLAYER
 10
91.5034278298
 20
153.5888276924
 11
90.9495115186
 21
153.26902587
  0
LINE
  5
22B
100
AcDbEntity
  8
0
100
AcDbLine
 62
7
  6
BYLAYER
 10
90.191967742
 20
152.8316603774
 11
89.3971613216
 21
152.3727814158
  0
LINE
  5
22C
100
AcDbEntity
  8
0
100
AcDbLine
 62
7
  6
BYLAYER
 10
75.3410867042
 20
144.257551393
 11
74.9229415268
 21
144.0161366034
  0
LINE
  5
22D
100
AcDbEntity
  8
0
100
AcDbLine
 62
7
  6
BYLAYER
 10
74.5329357366
 20
143.7909679995
 11
73.9790194254
 21
143.4711661771
  0
LINE
  5
22E
100
AcDbEntity
  8
0
100
AcDbLine
 62
7
  6
BYLAYER
 10
73.2214756489
 20
143.0338006845
 11
71.9682681092
 21
142.3102652931
  0
LINE
  5
22F
100
AcDbEntity
  8
0
100
AcDbLine
 62
7
  6
BYLAYER
 10
89.2816804522
 20
152.0611779307
 11
76.9780736847
 21
144.9577296533
  0
LINE
  5
230
100
AcDbEntity
  8
0
100
AcDbLine
 62
7
  6
BYLAYER
 10
73.6998975274
 20
142.330245587
 11
73.2127510507
 21
142.0489931164
  0
LINE
  5
231
100
AcDbEntity
  8
0
100
AcDbLine
 62
7
  6
BYLAYER
 10
93.8326541148
 20
153.9538286389
 11
94.3198005915
 21
154.2350811095
  0
LINE
  5
232
100
AcDbEntity
  8
0
100
AcDbLine
 62
7
  6
BYLAYER
 10
89.2816922281
 20
148.482068736
 11
80.0777233702
 21
143.1681865579
  0
LINE
  5
233
100
AcDbEntity
  8
0
100
AcDbLine
 62
7
  6
BYLAYER
 10
89.2816922281
 20
147.3254989288
 11
81.0793565237
 21
142.5899064696
  0
LINE
  5
234
100
AcDbEntity
  8
0
100
AcDbLine
 62
7
  6
BYLAYER
 10
81.5035759256
 20
142.3449888244
 11
93.8071826932
 21
149.4484371018
  0
LINE
  5
235
100
AcDbEntity
  8
0
100
AcDbLine
 62
7
  6
BYLAYER
 10
56.754879798
 20
124.6014239485
 11
65.2401258464
 21
129.500353796
  0
LINE
  5
236
100
AcDbEntity
  8
0
100
AcDbLine
 62
7
  6
BYLAYER
 10
72.8248386138
 20
46.8875132775
 11
73.3808903785
 21
46.5664839041
  0
LINE
  5
237
100
AcDbEntity
  8
0
100
AcDbLine
 62
7
  6
BYLAYER
 10
33.2084780509
 20
26.2799322048
 11
33.2084780509
 21
85.0681062381
  0
LINE
  5
238
100
AcDbEntity
  8
0
100
AcDbLine
 62
7
  6
BYLAYER
 10
36.3197608415
 20
24.4836728849
 11
36.3197608415
 21
29.7909385962
  0
LINE
  5
239
100
AcDbEntity
  8
0
100
AcDbLine
 62
7
  6
BYLAYER
 10
36.3197608415
 20
78.3728324155
 11
36.3197608415
 21
83.2718469182
  0
LINE
  5
23A
100
AcDbEntity
  8
0
100
AcDbLine
 62
7
  6
BYLAYER
 10
37.0975815392
 20
29.3418737663
 11
37.0975815392
 21
77.9237675855
  0
LINE
  5
23B
100
AcDbEntity
  8
0
100
AcDbLine
 62
7
  6
BYLAYER
 10
65.9472667776
 20
125.0352192478
 11
66.1593979288
 21
125.157692494
  0
LINE
  5
23C
100
AcDbEntity
  8
0
100
AcDbLine
 62
7
  6
BYLAYER
 10
67.5736173791
 20
124.3412109849
 11
67.3614862279
 21
124.2187377388
  0
LINE
  5
23D
100
AcDbEntity
  8
0
100
AcDbLine
 62
7
  6
BYLAYER
 10
67.5736173791
 20
124.1298764859
 11
67.3614862279
 21
124.0074032397
  0
LINE
  5
23E
100
AcDbEntity
  8
0
100
AcDbLine
 62
7
  6
BYLAYER
 10
68.2098758561
 20
123.5259829372
 11
71.9576682353
 21
125.6897589602
  0
LINE
  5
23F
100
AcDbEntity
  8
0
100
AcDbLine
 62
7
  6
BYLAYER
 10
107.9748486178
 20
145.7890135485
 11
108.4619950945
 21
146.0702660191
  0
LINE
  5
240
100
AcDbEntity
  8
0
100
AcDbLine
 62
7
  6
BYLAYER
 10
72.8440888723
 20
47.5416212736
 11
72.8163594776
 21
47.5576304849
  0
LINE
  5
241
100
AcDbEntity
  8
0
100
AcDbLine
 62
7
  6
BYLAYER
 10
75.1758966544
 20
47.9369076335
 11
74.65007867
 21
48.2404819206
  0
LINE
  5
242
100
AcDbEntity
  8
0
100
AcDbLine
 62
7
  6
BYLAYER
 10
76.2711276441
 20
47.5494675786
 11
77.0489483418
 21
47.1004027487
  0
LINE
  5
243
100
AcDbEntity
  8
0
100
AcDbLine
 62
7
  6
BYLAYER
 10
75.8830004916
 20
48.3451517874
 11
75.133993385
 21
48.7775814592
  0
LINE
  5
244
100
AcDbEntity
  8
0
100
AcDbLine
 62
7
  6
BYLAYER
 10
75.0033480557
 20
49.3429093191
 11
75.8830004916
 21
48.8350532377
  0
LINE
  5
245
100
AcDbEntity
  8
0
100
AcDbLine
 62
7
  6
BYLAYER
 10
76.523633702
 20
49.7168161529
 11
76.567646922
 21
49.6914056834
  0
LINE
  5
246
100
AcDbEntity
  8
0
100
AcDbLine
 62
7
  6
BYLAYER
 10
76.5586418833
 20
50.2412333705
 11
77.0489483418
 21
49.9581612086
  0
LINE
  5
247
100
AcDbEntity
  8
0
100
AcDbLine
 62
7
  6
BYLAYER
 10
75.6473477364
 20
51.3778519826
 11
76.0308454158
 21
51.1564445031
  0
LINE
  5
248
100
AcDbEntity
  8
0
100
AcDbLine
 62
7
  6
BYLAYER
 10
41.2124550613
 20
29.2791979898
 11
41.214586852
 21
29.0150970204
  0
LINE
  5
249
100
AcDbEntity
  8
0
100
AcDbLine
 62
7
  6
BYLAYER
 10
41.2124550613
 20
82.7601063118
 11
41.214586852
 21
82.4960053424
  0
LINE
  5
24A
100
AcDbEntity
  8
0
100
AcDbLine
 62
7
  6
BYLAYER
 10
40.9159357834
 20
86.8548645274
 11
40.9159357834
 21
84.020440236
  0
LINE
  5
24B
100
AcDbEntity
  8
0
100
AcDbLine
 62
7
  6
BYLAYER
 10
40.9159357834
 20
27.9717813539
 11
40.9159357834
 21
27.1372598851
  0
LINE
  5
24C
100
AcDbEntity
  8
0
100
AcDbLine
 62
7
  6
BYLAYER
 10
41.6937564811
 20
86.4057996974
 11
41.6937564811
 21
83.026861837
  0
LINE
  5
24D
100
AcDbEntity
  8
0
100
AcDbLine
 62
7
  6
BYLAYER
 10
41.6937564811
 20
29.545953515
 11
41.6937564811
 21
26.6881950551
  0
LINE
  5
24E
100
AcDbEntity
  8
0
100
AcDbLine
 62
7
  6
BYLAYER
 10
109.2822122008
 20
144.2576329775
 11
108.8640670234
 21
144.0162181878
  0
LINE
  5
24F
100
AcDbEntity
  8
0
100
AcDbLine
 62
7
  6
BYLAYER
 10
108.4740612333
 20
143.7910495839
 11
107.9201449221
 21
143.4712477615
  0
LINE
  5
250
100
AcDbEntity
  8
0
100
AcDbLine
 62
7
  6
BYLAYER
 10
107.1626011456
 20
143.033882269
 11
106.3730599537
 21
142.5780431703
  0
LINE
  5
251
100
AcDbEntity
  8
0
100
AcDbLine
 62
7
  6
BYLAYER
 10
92.3117201077
 20
134.4597732846
 11
91.8935749303
 21
134.2183584949
  0
LINE
  5
252
100
AcDbEntity
  8
0
100
AcDbLine
 62
7
  6
BYLAYER
 10
91.5035691401
 20
133.993189891
 11
90.949652829
 21
133.6733880686
  0
LINE
  5
253
100
AcDbEntity
  8
0
100
AcDbLine
 62
7
  6
BYLAYER
 10
90.1921090524
 20
133.236022576
 11
88.9389015127
 21
132.5124871846
  0
LINE
  5
254
100
AcDbEntity
  8
0
100
AcDbLine
 62
7
  6
BYLAYER
 10
69.7180462177
 20
120.966082585
 11
69.9011740692
 21
121.0718108682
  0
LINE
  5
255
100
AcDbEntity
  8
0
100
AcDbLine
 62
7
  6
BYLAYER
 10
69.8680484776
 20
120.9512269937
 11
70.0511704606
 21
121.0569518888
  0
LINE
  5
256
100
AcDbEntity
  8
0
100
AcDbLine
 62
7
  6
BYLAYER
 10
65.8412515439
 20
117.993036658
 11
67.2554592183
 21
118.8095249657
  0
LINE
  5
257
100
AcDbEntity
  8
0
100
AcDbLine
 62
7
  6
BYLAYER
 10
71.5611243723
 20
121.0911859735
 11
71.9576682353
 21
121.3201293129
  0
LINE
  5
258
100
AcDbEntity
  8
0
100
AcDbLine
 62
7
  6
BYLAYER
 10
67.4675921358
 20
118.6870527394
 11
66.0533844614
 21
117.8705644316
  0
LINE
  5
259
100
AcDbEntity
  8
0
100
AcDbLine
 62
7
  6
BYLAYER
 10
71.4576417351
 20
120.8681951447
 11
71.1091665936
 21
120.6670041289
  0
LINE
  5
25A
100
AcDbEntity
  8
0
100
AcDbLine
 62
7
  6
BYLAYER
 10
70.8263250587
 20
120.5037064674
 11
70.4778499173
 21
120.3025154516
  0
LINE
  5
25B
100
AcDbEntity
  8
0
100
AcDbLine
 62
7
  6
BYLAYER
 10
71.4576417351
 20
120.7048946613
 11
71.2505909825
 21
120.5853545671
  0
LINE
  5
25C
100
AcDbEntity
  8
0
100
AcDbLine
 62
7
  6
BYLAYER
 10
70.8263250587
 20
120.340405984
 11
70.4778499173
 21
120.1392149682
  0
LINE
  5
25D
100
AcDbEntity
  8
0
100
AcDbLine
 62
7
  6
BYLAYER
 10
94.6612077547
 20
134.0812203792
 11
108.4620240925
 21
142.0490778452
  0
LINE
  5
25E
100
AcDbEntity
  8
0
100
AcDbLine
 62
7
  6
BYLAYER
 10
107.5427891041
 20
140.0486560944
 11
95.2391823366
 21
132.945207817
  0
LINE
  5
25F
100
AcDbEntity
  8
0
100
AcDbLine
 62
7
  6
BYLAYER
 10
111.9445104908
 20
142.0184242602
 11
108.4620240925
 21
140.0078218024
  0
LINE
  5
260
100
AcDbEntity
  8
0
100
AcDbLine
 62
7
  6
BYLAYER
 10
90.83746095
 20
129.8323362672
 11
94.6612557127
 21
132.0399920248
  0
LINE
  5
261
100
AcDbEntity
  8
0
100
AcDbLine
 62
7
  6
BYLAYER
 10
36.3197608415
 20
78.3728324155
 11
37.0975815392
 21
77.9237675855
  0
LINE
  5
262
100
AcDbEntity
  8
0
100
AcDbLine
 62
7
  6
BYLAYER
 10
37.4696467531
 20
79.9562139059
 11
38.0256985178
 21
79.6351845325
  0
LINE
  5
263
100
AcDbEntity
  8
0
100
AcDbLine
 62
7
  6
BYLAYER
 10
39.7632329129
 20
81.4716629449
 11
40.2902767529
 21
80.5588013036
  0
LINE
  5
264
100
AcDbEntity
  8
0
100
AcDbLine
 62
7
  6
BYLAYER
 10
74.8740755145
 20
119.7584161492
 11
72.117250667
 21
118.1667720822
  0
LINE
  5
265
100
AcDbEntity
  8
0
100
AcDbLine
 62
7
  6
BYLAYER
 10
73.1808260567
 20
118.2909267369
 11
75.0862113691
 21
119.3909948934
  0
LINE
  5
266
100
AcDbEntity
  8
0
100
AcDbLine
 62
7
  6
BYLAYER
 10
75.9882248747
 20
119.11379724
 11
79.7358752119
 21
121.2774912556
  0
LINE
  5
267
100
AcDbEntity
  8
0
100
AcDbLine
 62
7
  6
BYLAYER
 10
95.2391823366
 20
129.2212075322
 11
106.24234881
 21
135.5738507374
  0
LINE
  5
268
100
AcDbEntity
  8
0
100
AcDbLine
 62
7
  6
BYLAYER
 10
95.2391823366
 20
127.7195923474
 11
107.5427891041
 21
134.8230406247
  0
LINE
  5
269
100
AcDbEntity
  8
0
100
AcDbLine
 62
7
  6
BYLAYER
 10
39.0798679706
 20
79.6370051533
 11
39.5724449694
 21
79.352622124
  0
LINE
  5
26A
100
AcDbEntity
  8
0
100
AcDbLine
 62
7
  6
BYLAYER
 10
37.4888970116
 20
80.610321902
 11
37.357111082
 21
80.6864068226
  0
LINE
  5
26B
100
AcDbEntity
  8
0
100
AcDbLine
 62
7
  6
BYLAYER
 10
37.357111082
 20
81.1763082729
 11
37.4888970116
 21
81.1002233523
  0
LINE
  5
26C
100
AcDbEntity
  8
0
100
AcDbLine
 62
7
  6
BYLAYER
 10
39.8207047937
 20
81.0056082619
 11
39.2948868093
 21
81.309182549
  0
LINE
  5
26D
100
AcDbEntity
  8
0
100
AcDbLine
 62
7
  6
BYLAYER
 10
33.2084780509
 20
85.0681062381
 11
36.3197608415
 21
83.2718469182
  0
LINE
  5
26E
100
AcDbEntity
  8
0
100
AcDbLine
 62
7
  6
BYLAYER
 10
40.5278086309
 20
81.4138524158
 11
39.7788015243
 21
81.8462820876
  0
LINE
  5
26F
100
AcDbEntity
  8
0
100
AcDbLine
 62
7
  6
BYLAYER
 10
39.648156195
 20
82.4116099475
 11
40.5278086309
 21
81.9037538661
  0
LINE
  5
270
100
AcDbEntity
  8
0
100
AcDbLine
 62
7
  6
BYLAYER
 10
41.1684418413
 20
82.7855167813
 11
41.2124550613
 21
82.7601063118
  0
LINE
  5
271
100
AcDbEntity
  8
0
100
AcDbLine
 62
7
  6
BYLAYER
 10
41.6937564811
 20
83.026861837
 11
41.2034500226
 21
83.3099339989
  0
LINE
  5
272
100
AcDbEntity
  8
0
100
AcDbLine
 62
7
  6
BYLAYER
 10
40.1196017905
 20
84.5461745049
 11
40.6756535551
 21
84.2251451315
  0
LINE
  5
273
100
AcDbEntity
  8
0
100
AcDbLine
 62
7
  6
BYLAYER
 10
33.2084780509
 20
84.5243974057
 11
14.6335965796
 21
95.279798942
  0
LINE
  5
274
100
AcDbEntity
  8
0
100
AcDbLine
 62
7
  6
BYLAYER
 10
74.5971427595
 20
143.6764764081
 11
74.5602153484
 21
143.6024540642
  0
LINE
  5
275
100
AcDbEntity
  8
0
100
AcDbLine
 62
7
  6
BYLAYER
 10
54.3788390882
 20
100.6626639518
 11
33.6720921847
 21
85.4345237191
  0
LINE
  5
276
100
AcDbEntity
  8
0
100
AcDbLine
 62
7
  6
BYLAYER
 10
75.4932875163
 20
113.9718699339
 11
83.9785335628
 21
118.8707997803
  0
LINE
  5
277
100
AcDbEntity
  8
0
100
AcDbLine
 62
7
  6
BYLAYER
 10
82.4936414116
 20
114.4209534603
 11
87.0898163535
 21
117.0745404604
  0
LINE
  5
278
100
AcDbEntity
  8
0
100
AcDbLine
 62
7
  6
BYLAYER
 10
79.3823910046
 20
111.726545784
 11
83.2714621092
 21
113.9718886303
  0
LINE
  5
279
100
AcDbEntity
  8
0
100
AcDbLine
 62
7
  6
BYLAYER
 10
98.9691349118
 20
115.2780395854
 11
97.2544234151
 21
114.6167484523
  0
LINE
  5
27A
100
AcDbEntity
  8
0
100
AcDbLine
 62
7
  6
BYLAYER
 10
40.9159357834
 20
86.8548645274
 11
41.6937564811
 21
86.4057996974
  0
LINE
  5
27B
100
AcDbEntity
  8
0
100
AcDbLine
 62
7
  6
BYLAYER
 10
75.1184247735
 20
48.4029623165
 11
75.6454686136
 21
47.4901006752
  0
LINE
  5
27C
100
AcDbEntity
  8
0
100
AcDbLine
 62
7
  6
BYLAYER
 10
85.4035015671
 20
113.1615660634
 11
86.1106054044
 21
113.5698102173
  0
LINE
  5
27D
100
AcDbEntity
  8
0
100
AcDbLine
 62
7
  6
BYLAYER
 10
85.8170438435
 20
112.7471071258
 11
85.559030055
 21
112.5981436847
  0
LINE
  5
27E
100
AcDbEntity
  8
0
100
AcDbLine
 62
7
  6
BYLAYER
 10
83.9095802103
 20
111.6458390574
 11
83.2714621092
 21
111.2774235991
  0
LINE
  5
27F
100
AcDbEntity
  8
0
100
AcDbLine
 62
7
  6
BYLAYER
 10
87.0898163535
 20
111.7672747491
 11
86.3695590756
 21
111.3514364981
  0
LINE
  5
280
100
AcDbEntity
  8
0
100
AcDbLine
 62
7
  6
BYLAYER
 10
87.8676370511
 20
111.3182099191
 11
85.3927736209
 21
109.8893553806
  0
LINE
  5
281
100
AcDbEntity
  8
0
100
AcDbLine
 62
7
  6
BYLAYER
 10
105.7043191274
 20
121.5059045436
 11
97.0776523134
 21
116.5253258663
  0
LINE
  5
282
100
AcDbEntity
  8
0
100
AcDbLine
 62
7
  6
BYLAYER
 10
39.5831729157
 20
82.6248328069
 11
40.2902767529
 21
83.0330769608
  0
LINE
  5
283
100
AcDbEntity
  8
0
100
AcDbLine
 62
7
  6
BYLAYER
 10
39.9967151921
 20
82.2103738693
 11
39.7387014036
 21
82.0614104282
  0
LINE
  5
284
100
AcDbEntity
  8
0
100
AcDbLine
 62
7
  6
BYLAYER
 10
38.0892515588
 20
81.1091058008
 11
37.357111082
 21
80.6864068226
  0
LINE
  5
285
100
AcDbEntity
  8
0
100
AcDbLine
 62
7
  6
BYLAYER
 10
87.8676370511
 20
108.8686250662
 11
88.3625773535
 21
109.1543772774
  0
LINE
  5
286
100
AcDbEntity
  8
0
100
AcDbLine
 62
7
  6
BYLAYER
 10
97.2544234151
 20
114.1778627396
 11
104.2370727772
 21
118.2092731642
  0
LINE
  5
287
100
AcDbEntity
  8
0
100
AcDbLine
 62
7
  6
BYLAYER
 10
105.1209536041
 20
118.5766934975
 11
104.3608169791
 21
118.1378310321
  0
LINE
  5
288
100
AcDbEntity
  8
0
100
AcDbLine
 62
7
  6
BYLAYER
 10
97.2544234151
 20
114.0349772857
 11
97.0776523134
 21
113.9329190517
  0
LINE
  5
289
100
AcDbEntity
  8
0
100
AcDbLine
 62
7
  6
BYLAYER
 10
91.5676348526
 20
153.474336101
 11
91.5307074415
 21
153.4003137571
  0
LINE
  5
28A
100
AcDbEntity
  8
0
100
AcDbLine
 62
7
  6
BYLAYER
 10
38.3598512715
 20
79.5506721436
 11
36.3197608415
 21
78.3728324155
  0
LINE
  5
28B
100
AcDbEntity
  8
0
100
AcDbLine
 62
7
  6
BYLAYER
 10
97.0776523134
 20
113.2593161978
 11
105.7043191274
 21
118.2398948751
  0
LINE
  5
28C
100
AcDbEntity
  8
0
100
AcDbLine
 62
7
  6
BYLAYER
 10
39.5724449694
 20
79.352622124
 11
37.0975815392
 21
77.9237675855
  0
LINE
  5
28D
100
AcDbEntity
  8
0
100
AcDbLine
 62
7
  6
BYLAYER
 10
111.9445104908
 20
119.9728589977
 11
90.83746095
 21
107.7867710047
  0
LINE
  5
28E
100
AcDbEntity
  8
0
100
AcDbLine
 62
7
  6
BYLAYER
 10
90.8374613916
 20
107.7255346365
 11
112.0721743139
 21
119.9853286773
  0
LINE
  5
28F
100
AcDbEntity
  8
0
100
AcDbLine
 62
7
  6
BYLAYER
 10
106.0401938917
 20
115.2780303191
 11
96.8478440079
 21
109.9708563188
  0
LINE
  5
290
100
AcDbEntity
  8
0
100
AcDbLine
 62
7
  6
BYLAYER
 10
87.8676370511
 20
104.3779393735
 11
91.8981289233
 21
106.7049310506
  0
LINE
  5
291
100
AcDbEntity
  8
0
100
AcDbLine
 62
7
  6
BYLAYER
 10
98.6156153768
 20
109.1135461615
 11
107.1008614233
 21
114.012476008
  0
LINE
  5
292
100
AcDbEntity
  8
0
100
AcDbLine
 62
7
  6
BYLAYER
 10
65.8412515439
 20
117.993036658
 11
65.8412515439
 21
117.823391615
  0
LINE
  5
293
100
AcDbEntity
  8
0
100
AcDbLine
 62
7
  6
BYLAYER
 10
65.9472667776
 20
125.0352192478
 11
65.9472667776
 21
124.8096337315
  0
LINE
  5
294
100
AcDbEntity
  8
0
100
AcDbLine
 62
7
  6
BYLAYER
 10
66.0533844614
 20
117.8705644316
 11
66.0533844614
 21
117.7030570811
  0
LINE
  5
295
100
AcDbEntity
  8
0
100
AcDbLine
 62
7
  6
BYLAYER
 10
67.3614862279
 20
124.2187377388
 11
67.3614862279
 21
124.0074032397
  0
LINE
  5
296
100
AcDbEntity
  8
0
100
AcDbLine
 62
7
  6
BYLAYER
 10
67.4675921358
 20
118.6870527394
 11
67.4675921358
 21
118.5245279745
  0
LINE
  5
297
100
AcDbEntity
  8
0
100
AcDbLine
 62
7
  6
BYLAYER
 10
67.5736173791
 20
124.3412109849
 11
67.5736173791
 21
124.1298764859
  0
LINE
  5
298
100
AcDbEntity
  8
0
100
AcDbLine
 62
7
  6
BYLAYER
 10
68.2100178981
 20
119.8967478762
 11
68.2100178981
 21
123.5260649447
  0
LINE
  5
299
100
AcDbEntity
  8
0
100
AcDbLine
 62
7
  6
BYLAYER
 10
69.3630223537
 20
119.0324519388
 11
69.3630223537
 21
120.4205060479
  0
LINE
  5
29A
100
AcDbEntity
  8
0
100
AcDbLine
 62
7
  6
BYLAYER
 10
69.397097605
 20
118.8830225079
 11
69.397097605
 21
120.271076617
  0
LINE
  5
29B
100
AcDbEntity
  8
0
100
AcDbLine
 62
7
  6
BYLAYER
 10
69.7302356543
 20
126.9532929431
 11
69.7302356543
 21
142.0183227896
  0
LINE
  5
29C
100
AcDbEntity
  8
0
100
AcDbLine
 62
7
  6
BYLAYER
 10
70.119214156
 20
121.0752442036
 11
70.119214156
 21
120.9119437202
  0
LINE
  5
29D
100
AcDbEntity
  8
0
100
AcDbLine
 62
7
  6
BYLAYER
 10
91.567776163
 20
133.8786982996
 11
91.5308487519
 21
133.8046759557
  0
LINE
  5
29E
100
AcDbEntity
  8
0
100
AcDbLine
 62
7
  6
BYLAYER
 10
112.0721743139
 20
114.2698117574
 11
107.1008614233
 21
111.3996400544
  0
LINE
  5
29F
100
AcDbEntity
  8
0
100
AcDbLine
 62
7
  6
BYLAYER
 10
96.8478440079
 20
105.4800930245
 11
91.8981289233
 21
102.6223907462
  0
LINE
  5
2A0
100
AcDbEntity
  8
0
100
AcDbLine
 62
7
  6
BYLAYER
 10
108.8871343117
 20
67.707965125
 11
109.4431860764
 21
67.3869357516
  0
LINE
  5
2A1
100
AcDbEntity
  8
0
100
AcDbLine
 62
7
  6
BYLAYER
 10
108.9063845702
 20
68.362073121
 11
108.8786460595
 21
68.3780875954
  0
LINE
  5
2A2
100
AcDbEntity
  8
0
100
AcDbLine
 62
7
  6
BYLAYER
 10
111.2381923523
 20
68.757359481
 11
110.7123743679
 21
69.060933768
  0
LINE
  5
2A3
100
AcDbEntity
  8
0
100
AcDbLine
 62
7
  6
BYLAYER
 10
70.4778499173
 20
120.3025154516
 11
70.4778499173
 21
120.1392149682
  0
LINE
  5
2A4
100
AcDbEntity
  8
0
100
AcDbLine
 62
7
  6
BYLAYER
 10
70.8263250587
 20
120.5037064674
 11
70.8263250587
 21
120.340405984
  0
LINE
  5
2A5
100
AcDbEntity
  8
0
100
AcDbLine
 62
7
  6
BYLAYER
 10
71.2168103242
 20
142.0183327327
 11
71.2168103242
 21
142.9981356333
  0
LINE
  5
2A6
100
AcDbEntity
  8
0
100
AcDbLine
 62
7
  6
BYLAYER
 10
71.4576417351
 20
120.8681951447
 11
71.4576417351
 21
120.7048946613
  0
LINE
  5
2A7
100
AcDbEntity
  8
0
100
AcDbLine
 62
7
  6
BYLAYER
 10
71.9576682353
 20
121.3201293129
 11
71.9576682353
 21
125.6897589602
  0
LINE
  5
2A8
100
AcDbEntity
  8
0
100
AcDbLine
 62
7
  6
BYLAYER
 10
72.240544509
 20
119.6872249584
 11
72.240544509
 21
119.5239244749
  0
LINE
  5
2A9
100
AcDbEntity
  8
0
100
AcDbLine
 62
7
  6
BYLAYER
 10
72.5819652765
 20
119.7688737891
 11
72.5819652765
 21
119.6055733057
  0
LINE
  5
2AA
100
AcDbEntity
  8
0
100
AcDbLine
 62
7
  6
BYLAYER
 10
72.8063253185
 20
47.5086962854
 11
72.8063253185
 21
44.6509378254
  0
LINE
  5
2AB
100
AcDbEntity
  8
0
100
AcDbLine
 62
7
  6
BYLAYER
 10
73.2127220526
 20
144.477319697
 11
73.2127220526
 21
146.0701812902
  0
LINE
  5
2AC
100
AcDbEntity
  8
0
100
AcDbLine
 62
7
  6
BYLAYER
 10
73.2127510507
 20
140.0077370736
 11
73.2127510507
 21
142.0489931164
  0
LINE
  5
2AD
100
AcDbEntity
  8
0
100
AcDbLine
 62
7
  6
BYLAYER
 10
73.6998725857
 20
145.7889311616
 11
73.6998725857
 21
144.5174667291
  0
LINE
  5
2AE
100
AcDbEntity
  8
0
100
AcDbLine
 62
7
  6
BYLAYER
 10
75.0862113691
 20
119.3909948934
 11
75.0862113691
 21
118.6980518563
  0
LINE
  5
2AF
100
AcDbEntity
  8
0
100
AcDbLine
 62
7
  6
BYLAYER
 10
75.379101644
 20
119.799235648
 11
75.379101644
 21
118.8330420023
  0
LINE
  5
2B0
100
AcDbEntity
  8
0
100
AcDbLine
 62
7
  6
BYLAYER
 10
102.8689663463
 20
104.4656410701
 11
103.5760701835
 21
104.873885224
  0
LINE
  5
2B1
100
AcDbEntity
  8
0
100
AcDbLine
 62
7
  6
BYLAYER
 10
103.2825086227
 20
104.0511821324
 11
103.0244948342
 21
103.9022186914
  0
LINE
  5
2B2
100
AcDbEntity
  8
0
100
AcDbLine
 62
7
  6
BYLAYER
 10
101.3750449895
 20
102.949914064
 11
100.7749072754
 21
102.6034264615
  0
LINE
  5
2B3
100
AcDbEntity
  8
0
100
AcDbLine
 62
7
  6
BYLAYER
 10
107.1008614233
 20
104.0510689175
 11
109.57569247
 21
105.4799047595
  0
LINE
  5
2B4
100
AcDbEntity
  8
0
100
AcDbLine
 62
7
  6
BYLAYER
 10
111.9452961895
 20
69.1656036348
 11
111.1962890829
 21
69.5980333066
  0
LINE
  5
2B5
100
AcDbEntity
  8
0
100
AcDbLine
 62
7
  6
BYLAYER
 10
111.0656437536
 20
70.1633611665
 11
111.9452961895
 21
69.6555050851
  0
LINE
  5
2B6
100
AcDbEntity
  8
0
100
AcDbLine
 62
7
  6
BYLAYER
 10
112.5859293999
 20
70.5372680004
 11
112.6299426199
 21
70.5118575308
  0
LINE
  5
2B7
100
AcDbEntity
  8
0
100
AcDbLine
 62
7
  6
BYLAYER
 10
111.5370893491
 20
72.2979257239
 11
112.0931411137
 21
71.9768963505
  0
LINE
  5
2B8
100
AcDbEntity
  8
0
100
AcDbLine
 62
7
  6
BYLAYER
 10
76.567646922
 20
49.6914056834
 11
76.5697787127
 21
49.427304714
  0
LINE
  5
2B9
100
AcDbEntity
  8
0
100
AcDbLine
 62
7
  6
BYLAYER
 10
76.2711276441
 20
48.3839890475
 11
76.2711276441
 21
47.5494675786
  0
LINE
  5
2BA
100
AcDbEntity
  8
0
100
AcDbLine
 62
7
  6
BYLAYER
 10
77.0489483418
 20
49.9581612086
 11
77.0489483418
 21
47.1004027487
  0
LINE
  5
2BB
100
AcDbEntity
  8
0
100
AcDbLine
 62
7
  6
BYLAYER
 10
108.5382682562
 20
143.6765579926
 11
108.501340845
 21
143.6025356486
  0
LINE
  5
2BC
100
AcDbEntity
  8
0
100
AcDbLine
 62
7
  6
BYLAYER
 10
94.7265442721
 20
92.416110532
 11
95.7872000279
 21
93.0284767628
  0
LINE
  5
2BD
100
AcDbEntity
  8
0
100
AcDbLine
 62
7
  6
BYLAYER
 10
109.9292767722
 20
101.1933598403
 11
113.4647959583
 21
103.2345806096
  0
LINE
  5
2BE
100
AcDbEntity
  8
0
100
AcDbLine
 62
7
  6
BYLAYER
 10
69.3630223537
 20
120.4205060479
 11
69.397097605
 21
120.271076617
  0
LINE
  5
2BF
100
AcDbEntity
  8
0
100
AcDbLine
 62
7
  6
BYLAYER
 10
69.397097605
 20
118.8830225079
 11
69.3630490721
 21
119.0324519288
  0
LINE
  5
2C0
100
AcDbEntity
  8
0
100
AcDbLine
 62
7
  6
BYLAYER
 10
83.2714621092
 20
111.1141301703
 11
83.2714621092
 21
113.9718886303
  0
LINE
  5
2C1
100
AcDbEntity
  8
0
100
AcDbLine
 62
7
  6
BYLAYER
 10
92.6759107606
 20
102.0824879115
 11
92.9480734101
 21
101.9914698406
  0
LINE
  5
2C2
100
AcDbEntity
  8
0
100
AcDbLine
 62
7
  6
BYLAYER
 10
94.7265442721
 20
92.416110532
 11
91.8980927098
 21
94.0490808602
  0
LINE
  5
2C3
100
AcDbEntity
  8
0
100
AcDbLine
 62
7
  6
BYLAYER
 10
91.8980965396
 20
95.2738009127
 11
95.7872000279
 21
93.0284767628
  0
LINE
  5
2C4
100
AcDbEntity
  8
0
100
AcDbLine
 62
7
  6
BYLAYER
 10
69.543793606
 20
118.5669463379
 11
69.397097605
 21
118.8830225079
  0
LINE
  5
2C5
100
AcDbEntity
  8
0
100
AcDbLine
 62
7
  6
BYLAYER
 10
69.397097605
 20
120.271076617
 11
70.2520138381
 21
118.4290451598
  0
LINE
  5
2C6
100
AcDbEntity
  8
0
100
AcDbLine
 62
7
  6
BYLAYER
 10
69.6868761026
 20
120.5608538594
 11
70.6959639107
 21
118.3866391078
  0
LINE
  5
2C7
100
AcDbEntity
  8
0
100
AcDbLine
 62
7
  6
BYLAYER
 10
70.4778499173
 20
120.1392149682
 11
70.119214156
 21
120.9119437202
  0
LINE
  5
2C8
100
AcDbEntity
  8
0
100
AcDbLine
 62
7
  6
BYLAYER
 10
70.119214156
 20
121.0752442036
 11
70.4778499173
 21
120.3025154516
  0
LINE
  5
2C9
100
AcDbEntity
  8
0
100
AcDbLine
 62
7
  6
BYLAYER
 10
73.239586369
 20
143.6173364913
 11
73.2488591006
 21
143.5764842933
  0
LINE
  5
2CA
100
AcDbEntity
  8
0
100
AcDbLine
 62
7
  6
BYLAYER
 10
73.2397116894
 20
143.6173076858
 11
73.2488591006
 21
143.5764842933
  0
LINE
  5
2CB
100
AcDbEntity
  8
0
100
AcDbLine
 62
7
  6
BYLAYER
 10
87.0327837127
 20
113.2968395683
 11
87.0349155034
 21
113.0327385989
  0
LINE
  5
2CC
100
AcDbEntity
  8
0
100
AcDbLine
 62
7
  6
BYLAYER
 10
87.0136823056
 20
134.0812019969
 11
87.0136823056
 21
132.039945954
  0
LINE
  5
2CD
100
AcDbEntity
  8
0
100
AcDbLine
 62
7
  6
BYLAYER
 10
87.0898163535
 20
117.0745404604
 11
87.0898163535
 21
111.7672747491
  0
LINE
  5
2CE
100
AcDbEntity
  8
0
100
AcDbLine
 62
7
  6
BYLAYER
 10
87.837543729
 20
132.2346965245
 11
87.837543729
 21
134.2759525673
  0
LINE
  5
2CF
100
AcDbEntity
  8
0
100
AcDbLine
 62
7
  6
BYLAYER
 10
87.8676370511
 20
111.3182099191
 11
87.8676370511
 21
104.3779393735
  0
LINE
  5
2D0
100
AcDbEntity
  8
0
100
AcDbLine
 62
7
  6
BYLAYER
 10
88.1874437278
 20
132.2205546242
 11
88.1874437278
 21
133.2003575248
  0
LINE
  5
2D1
100
AcDbEntity
  8
0
100
AcDbLine
 62
7
  6
BYLAYER
 10
88.3625773535
 20
108.7461365228
 11
88.3625773535
 21
109.1543772774
  0
LINE
  5
2D2
100
AcDbEntity
  8
0
100
AcDbLine
 62
7
  6
BYLAYER
 10
89.2816922281
 20
147.3254989288
 11
89.2816804522
 21
152.0611779307
  0
LINE
  5
2D3
100
AcDbEntity
  8
0
100
AcDbLine
 62
7
  6
BYLAYER
 10
89.3373024174
 20
146.8677659258
 11
89.3373024174
 21
147.2933930974
  0
LINE
  5
2D4
100
AcDbEntity
  8
0
100
AcDbLine
 62
7
  6
BYLAYER
 10
89.3374437278
 20
108.1833098921
 11
89.3374437278
 21
108.6527867598
  0
LINE
  5
2D5
100
AcDbEntity
  8
0
100
AcDbLine
 62
7
  6
BYLAYER
 10
90.8374613916
 20
107.317293882
 11
90.8374613916
 21
107.7255346365
  0
LINE
  5
2D6
100
AcDbEntity
  8
0
100
AcDbLine
 62
7
  6
BYLAYER
 10
90.83746095
 20
107.7867710047
 11
90.83746095
 21
129.8323362672
  0
LINE
  5
2D7
100
AcDbEntity
  8
0
100
AcDbLine
 62
7
  6
BYLAYER
 10
91.8981289233
 20
106.7049310506
 11
91.8981289233
 21
94.0491435851
  0
LINE
  5
2D8
100
AcDbEntity
  8
0
100
AcDbLine
 62
7
  6
BYLAYER
 10
65.8412515439
 20
117.823391615
 11
66.0533844614
 21
117.703057081
  0
LINE
  5
2D9
100
AcDbEntity
  8
0
100
AcDbLine
 62
7
  6
BYLAYER
 10
75.4932875163
 20
113.9718699339
 11
67.4675921358
 21
118.5245279745
  0
LINE
  5
2DA
100
AcDbEntity
  8
0
100
AcDbLine
 62
7
  6
BYLAYER
 10
67.11159988
 20
118.7264682338
 11
56.7548797999
 21
124.6014239495
  0
LINE
  5
2DB
100
AcDbEntity
  8
0
100
AcDbLine
 62
7
  6
BYLAYER
 10
92.6759107606
 20
98.9888791505
 11
91.8981289233
 21
99.4379215449
  0
LINE
  5
2DC
100
AcDbEntity
  8
0
100
AcDbLine
 62
7
  6
BYLAYER
 10
91.8981289233
 20
99.6103224524
 11
92.6759107606
 21
99.1612800579
  0
LINE
  5
2DD
100
AcDbEntity
  8
0
100
AcDbLine
 62
7
  6
BYLAYER
 10
98.6156153768
 20
97.9274630468
 11
94.7265118885
 21
100.1727871967
  0
LINE
  5
2DE
100
AcDbEntity
  8
0
100
AcDbLine
 62
7
  6
BYLAYER
 10
92.6759107606
 20
102.0824879115
 11
91.8981289233
 21
102.531530306
  0
LINE
  5
2DF
100
AcDbEntity
  8
0
100
AcDbLine
 62
7
  6
BYLAYER
 10
91.9687460488
 20
102.6631613193
 11
92.6759107606
 21
102.254888819
  0
LINE
  5
2E0
100
AcDbEntity
  8
0
100
AcDbLine
 62
7
  6
BYLAYER
 10
66.0533844614
 20
117.8705644316
 11
65.8412515439
 21
117.993036658
  0
LINE
  5
2E1
100
AcDbEntity
  8
0
100
AcDbLine
 62
7
  6
BYLAYER
 10
79.3823910046
 20
111.726545784
 11
75.4932875163
 21
113.9718699339
  0
LINE
  5
2E2
100
AcDbEntity
  8
0
100
AcDbLine
 62
7
  6
BYLAYER
 10
67.2554592183
 20
118.8095249657
 11
67.4675921358
 21
118.6870527394
  0
LINE
  5
2E3
100
AcDbEntity
  8
0
100
AcDbLine
 62
7
  6
BYLAYER
 10
83.4653056656
 20
110.391722479
 11
83.8460271692
 21
110.1719177891
  0
LINE
  5
2E4
100
AcDbEntity
  8
0
100
AcDbLine
 62
7
  6
BYLAYER
 10
75.055247893
 20
120.1487892912
 11
74.9882192747
 21
120.2932114213
  0
LINE
  5
2E5
100
AcDbEntity
  8
0
100
AcDbLine
 62
7
  6
BYLAYER
 10
75.2603385311
 20
120.1745584011
 11
75.3273692975
 21
120.0301316427
  0
LINE
  5
2E6
100
AcDbEntity
  8
0
100
AcDbLine
 62
7
  6
BYLAYER
 10
93.8326541148
 20
153.9538286389
 11
93.8371222267
 21
153.8574484848
  0
LINE
  5
2E7
100
AcDbEntity
  8
0
100
AcDbLine
 62
7
  6
BYLAYER
 10
92.3374437278
 20
105.5407202366
 11
92.3374437278
 21
108.6527812958
  0
LINE
  5
2E8
100
AcDbEntity
  8
0
100
AcDbLine
 62
7
  6
BYLAYER
 10
92.6759107606
 20
98.9888791505
 11
92.6759107606
 21
99.1612800579
  0
LINE
  5
2E9
100
AcDbEntity
  8
0
100
AcDbLine
 62
7
  6
BYLAYER
 10
92.6759107606
 20
102.0824879115
 11
92.6759107606
 21
102.254888819
  0
LINE
  5
2EA
100
AcDbEntity
  8
0
100
AcDbLine
 62
7
  6
BYLAYER
 10
93.4874437278
 20
132.2205546242
 11
93.4874437278
 21
133.2003575248
  0
LINE
  5
2EB
100
AcDbEntity
  8
0
100
AcDbLine
 62
7
  6
BYLAYER
 10
93.8373472344
 20
132.2344462827
 11
93.8373435225
 21
134.275966989
  0
LINE
  5
2EC
100
AcDbEntity
  8
0
100
AcDbLine
 62
7
  6
BYLAYER
 10
94.6612077547
 20
132.0399643364
 11
94.6612077547
 21
134.0812203792
  0
LINE
  5
2ED
100
AcDbEntity
  8
0
100
AcDbLine
 62
7
  6
BYLAYER
 10
94.7265118885
 20
100.1727871967
 11
94.7265118885
 21
104.2553486651
  0
LINE
  5
2EE
100
AcDbEntity
  8
0
100
AcDbLine
 62
7
  6
BYLAYER
 10
95.2391823366
 20
132.945207817
 11
95.2391823366
 21
127.7195923474
  0
LINE
  5
2EF
100
AcDbEntity
  8
0
100
AcDbLine
 62
7
  6
BYLAYER
 10
96.8478440079
 20
109.9708563188
 11
96.8478440079
 21
105.4800930245
  0
LINE
  5
2F0
100
AcDbEntity
  8
0
100
AcDbLine
 62
7
  6
BYLAYER
 10
97.0776523134
 20
113.2593161978
 11
97.0776523134
 21
116.5253258663
  0
LINE
  5
2F1
100
AcDbEntity
  8
0
100
AcDbLine
 62
7
  6
BYLAYER
 10
97.2544234151
 20
116.6273841003
 11
97.2544234151
 21
114.0349772857
  0
LINE
  5
2F2
100
AcDbEntity
  8
0
100
AcDbLine
 62
7
  6
BYLAYER
 10
71.4576417351
 20
120.8681951447
 11
70.119214156
 21
121.0752442036
  0
LINE
  5
2F3
100
AcDbEntity
  8
0
100
AcDbLine
 62
7
  6
BYLAYER
 10
74.4932373896
 20
120.5789828809
 11
70.727324734
 21
121.1615535655
  0
LINE
  5
2F4
100
AcDbEntity
  8
0
100
AcDbLine
 62
7
  6
BYLAYER
 10
70.7731839206
 20
121.213077013
 11
74.5391045927
 21
120.6305050882
  0
LINE
  5
2F5
100
AcDbEntity
  8
0
100
AcDbLine
 62
7
  6
BYLAYER
 10
67.3614862279
 20
124.0074032397
 11
65.9472667776
 21
124.8096337315
  0
LINE
  5
2F6
100
AcDbEntity
  8
0
100
AcDbLine
 62
7
  6
BYLAYER
 10
85.3927736209
 20
109.8893553806
 11
84.9001966221
 21
110.1737384098
  0
LINE
  5
2F7
100
AcDbEntity
  8
0
100
AcDbLine
 62
7
  6
BYLAYER
 10
83.3092256631
 20
111.1470551585
 11
83.2714621092
 21
111.1688574632
  0
LINE
  5
2F8
100
AcDbEntity
  8
0
100
AcDbLine
 62
7
  6
BYLAYER
 10
83.2714621092
 20
111.6587589135
 11
83.3092256631
 21
111.6369566088
  0
LINE
  5
2F9
100
AcDbEntity
  8
0
100
AcDbLine
 62
7
  6
BYLAYER
 10
91.8981289233
 20
106.7049310506
 11
88.0090254349
 21
108.9502552004
  0
LINE
  5
2FA
100
AcDbEntity
  8
0
100
AcDbLine
 62
7
  6
BYLAYER
 10
100.9328991517
 20
101.6945685039
 11
101.3114919484
 21
101.4759927957
  0
LINE
  5
2FB
100
AcDbEntity
  8
0
100
AcDbLine
 62
7
  6
BYLAYER
 10
90.8374613916
 20
107.7255346365
 11
88.3625773535
 21
109.1543772774
  0
LINE
  5
2FC
100
AcDbEntity
  8
0
100
AcDbLine
 62
7
  6
BYLAYER
 10
90.83746095
 20
107.7867710047
 11
87.8676370511
 21
109.5013608429
  0
LINE
  5
2FD
100
AcDbEntity
  8
0
100
AcDbLine
 62
7
  6
BYLAYER
 10
100.7746904423
 20
102.4511301651
 11
100.7469610475
 21
102.4671393765
  0
LINE
  5
2FE
100
AcDbEntity
  8
0
100
AcDbLine
 62
7
  6
BYLAYER
 10
85.6410334451
 20
111.5423415185
 11
85.1152154608
 21
111.8459158055
  0
LINE
  5
2FF
100
AcDbEntity
  8
0
100
AcDbLine
 62
7
  6
BYLAYER
 10
72.240544509
 20
119.5239244749
 11
70.8263250587
 21
120.340405984
  0
LINE
  5
300
100
AcDbEntity
  8
0
100
AcDbLine
 62
7
  6
BYLAYER
 10
72.240544509
 20
119.6872249584
 11
70.8263250587
 21
120.5037064674
  0
LINE
  5
301
100
AcDbEntity
  8
0
100
AcDbLine
 62
7
  6
BYLAYER
 10
71.1091665936
 20
120.6670041289
 11
72.5233860439
 21
119.8505226199
  0
LINE
  5
302
100
AcDbEntity
  8
0
100
AcDbLine
 62
7
  6
BYLAYER
 10
86.3481372824
 20
111.9505856723
 11
85.5991301757
 21
112.3830153441
  0
LINE
  5
303
100
AcDbEntity
  8
0
100
AcDbLine
 62
7
  6
BYLAYER
 10
87.0898163535
 20
111.7672747491
 11
87.8676370511
 21
111.3182099191
  0
LINE
  5
304
100
AcDbEntity
  8
0
100
AcDbLine
 62
7
  6
BYLAYER
 10
82.4936414116
 20
114.4209534603
 11
83.2714621092
 21
113.9718886303
  0
LINE
  5
305
100
AcDbEntity
  8
0
100
AcDbLine
 62
7
  6
BYLAYER
 10
85.4684848465
 20
112.948343204
 11
86.3481372824
 21
112.4404871226
  0
LINE
  5
306
100
AcDbEntity
  8
0
100
AcDbLine
 62
7
  6
BYLAYER
 10
103.1064982243
 20
102.8464165251
 11
102.58068024
 21
103.1499908121
  0
LINE
  5
307
100
AcDbEntity
  8
0
100
AcDbLine
 62
7
  6
BYLAYER
 10
72.5353966501
 20
120.9865852029
 11
71.9576682353
 21
121.3201293129
  0
LINE
  5
308
100
AcDbEntity
  8
0
100
AcDbLine
 62
7
  6
BYLAYER
 10
67.3614862279
 20
124.2187377388
 11
65.9472667776
 21
125.0352192478
  0
LINE
  5
309
100
AcDbEntity
  8
0
100
AcDbLine
 62
7
  6
BYLAYER
 10
103.8136020615
 20
103.254660679
 11
103.0645949549
 21
103.6870903507
  0
LINE
  5
30A
100
AcDbEntity
  8
0
100
AcDbLine
 62
7
  6
BYLAYER
 10
66.1593979288
 20
125.157692494
 11
67.5736173791
 21
124.3412109849
  0
LINE
  5
30B
100
AcDbEntity
  8
0
100
AcDbLine
 62
7
  6
BYLAYER
 10
86.9887704927
 20
113.3222500379
 11
87.0327837127
 21
113.2968395683
  0
LINE
  5
30C
100
AcDbEntity
  8
0
100
AcDbLine
 62
7
  6
BYLAYER
 10
102.9339496257
 20
104.2524182107
 11
103.8136020615
 21
103.7445621293
  0
LINE
  5
30D
100
AcDbEntity
  8
0
100
AcDbLine
 62
7
  6
BYLAYER
 10
109.9292767722
 20
101.1933598403
 11
107.1008252099
 21
102.8263301684
  0
LINE
  5
30E
100
AcDbEntity
  8
0
100
AcDbLine
 62
7
  6
BYLAYER
 10
85.9399304419
 20
115.0829077614
 11
86.4959822066
 21
114.761878388
  0
LINE
  5
30F
100
AcDbEntity
  8
0
100
AcDbLine
 62
7
  6
BYLAYER
 10
85.5835615643
 20
112.0083962014
 11
86.1106054044
 21
111.0955345602
  0
LINE
  5
310
100
AcDbEntity
  8
0
100
AcDbLine
 62
7
  6
BYLAYER
 10
111.1807204715
 20
69.2234141639
 11
111.7077643115
 21
68.3105525227
  0
LINE
  5
311
100
AcDbEntity
  8
0
100
AcDbLine
 62
7
  6
BYLAYER
 10
73.1734075412
 20
143.6024507307
 11
73.136477889
 21
143.6764764081
  0
LINE
  5
312
100
AcDbEntity
  8
0
100
AcDbLine
 62
7
  6
BYLAYER
 10
98.6156153768
 20
97.9274630468
 11
98.6156153768
 21
109.1135461615
  0
LINE
  5
313
100
AcDbEntity
  8
0
100
AcDbLine
 62
7
  6
BYLAYER
 10
39.5724449694
 20
30.7707283048
 11
37.0975815392
 21
29.3418737663
  0
LINE
  5
314
100
AcDbEntity
  8
0
100
AcDbLine
 62
7
  6
BYLAYER
 10
110.989932528
 20
72.0033878458
 11
113.4647959583
 21
73.4322423844
  0
LINE
  5
315
100
AcDbEntity
  8
0
100
AcDbLine
 62
7
  6
BYLAYER
 10
65.2401258464
 20
129.500353796
 11
71.9576682353
 21
125.6897589602
  0
LINE
  5
316
100
AcDbEntity
  8
0
100
AcDbLine
 62
7
  6
BYLAYER
 10
79.7358752119
 20
121.2774912556
 11
83.9785335628
 21
118.8707997803
  0
LINE
  5
317
100
AcDbEntity
  8
0
100
AcDbLine
 62
7
  6
BYLAYER
 10
104.4542352719
 20
104.6263250445
 11
104.4982484919
 21
104.600914575
  0
LINE
  5
318
100
AcDbEntity
  8
0
100
AcDbLine
 62
7
  6
BYLAYER
 10
98.6156153768
 20
109.1135461615
 11
96.9892593432
 21
110.0525020133
  0
LINE
  5
319
100
AcDbEntity
  8
0
100
AcDbLine
 62
7
  6
BYLAYER
 10
103.5779493063
 20
106.2873608742
 11
103.9614469858
 21
106.0659533947
  0
LINE
  5
31A
100
AcDbEntity
  8
0
100
AcDbLine
 62
7
  6
BYLAYER
 10
87.0898163535
 20
117.0745404604
 11
83.9785335628
 21
118.8707997803
  0
LINE
  5
31B
100
AcDbEntity
  8
0
100
AcDbLine
 62
7
  6
BYLAYER
 10
113.4647959583
 20
103.2345806096
 11
109.57569247
 21
105.4799047595
  0
LINE
  5
31C
100
AcDbEntity
  8
0
100
AcDbLine
 62
7
  6
BYLAYER
 10
108.2321951793
 20
107.9702505356
 11
107.1008614233
 21
108.6234116077
  0
LINE
  5
31D
100
AcDbEntity
  8
0
100
AcDbLine
 62
7
  6
BYLAYER
 10
90.2102197726
 20
133.8195583828
 11
90.2194925042
 21
133.7787061848
  0
LINE
  5
31E
100
AcDbEntity
  8
0
100
AcDbLine
 62
7
  6
BYLAYER
 10
90.2103450929
 20
133.8195295773
 11
90.2194925042
 21
133.7787061848
  0
LINE
  5
31F
100
AcDbEntity
  8
0
100
AcDbLine
 62
7
  6
BYLAYER
 10
104.4982484919
 20
104.600914575
 11
104.5003802826
 21
104.3368136056
  0
LINE
  5
320
100
AcDbEntity
  8
0
100
AcDbLine
 62
7
  6
BYLAYER
 10
104.2370727772
 20
120.6587945249
 11
104.2370727772
 21
118.2092731642
  0
LINE
  5
321
100
AcDbEntity
  8
0
100
AcDbLine
 62
7
  6
BYLAYER
 10
104.3608169791
 20
120.7302378467
 11
104.3608169791
 21
118.1378310321
  0
LINE
  5
322
100
AcDbEntity
  8
0
100
AcDbLine
 62
7
  6
BYLAYER
 10
105.1209536041
 20
121.1691003121
 11
105.1209536041
 21
118.5766934975
  0
LINE
  5
323
100
AcDbEntity
  8
0
100
AcDbLine
 62
7
  6
BYLAYER
 10
105.7043191274
 20
121.5059045436
 11
105.7043191274
 21
118.2398948751
  0
LINE
  5
324
100
AcDbEntity
  8
0
100
AcDbLine
 62
7
  6
BYLAYER
 10
106.0401938917
 20
114.6248388394
 11
106.0401938917
 21
115.2780303191
  0
LINE
  5
325
100
AcDbEntity
  8
0
100
AcDbLine
 62
7
  6
BYLAYER
 10
106.24234881
 20
138.4813344957
 11
106.24234881
 21
135.5738507374
  0
LINE
  5
326
100
AcDbEntity
  8
0
100
AcDbLine
 62
7
  6
BYLAYER
 10
106.3079358209
 20
115.3385799295
 11
106.3079358209
 21
116.7186005201
  0
LINE
  5
327
100
AcDbEntity
  8
0
100
AcDbLine
 62
7
  6
BYLAYER
 10
107.1008614233
 20
114.012476008
 11
107.1008614233
 21
102.8263928933
  0
LINE
  5
328
100
AcDbEntity
  8
0
100
AcDbLine
 62
7
  6
BYLAYER
 10
107.5427891041
 20
134.8230406247
 11
107.5427891041
 21
140.0486560944
  0
LINE
  5
329
100
AcDbEntity
  8
0
100
AcDbLine
 62
7
  6
BYLAYER
 10
107.9748486178
 20
144.5152416371
 11
107.9748486178
 21
145.7890135485
  0
LINE
  5
32A
100
AcDbEntity
  8
0
100
AcDbLine
 62
7
  6
BYLAYER
 10
108.2321951793
 20
107.9702505356
 11
108.2321951793
 21
111.2362602042
  0
LINE
  5
32B
100
AcDbEntity
  8
0
100
AcDbLine
 62
7
  6
BYLAYER
 10
39.5831729157
 20
29.1439244849
 11
40.2902767529
 21
29.5521686388
  0
LINE
  5
32C
100
AcDbEntity
  8
0
100
AcDbLine
 62
7
  6
BYLAYER
 10
74.9383647764
 20
49.5561321785
 11
75.6454686136
 21
49.9643763324
  0
LINE
  5
32D
100
AcDbEntity
  8
0
100
AcDbLine
 62
7
  6
BYLAYER
 10
111.0006604743
 20
70.376584026
 11
111.7077643115
 21
70.7848281798
  0
LINE
  5
32E
100
AcDbEntity
  8
0
100
AcDbLine
 62
7
  6
BYLAYER
 10
111.4142027507
 20
69.9621250883
 11
111.1561889622
 21
69.8131616472
  0
LINE
  5
32F
100
AcDbEntity
  8
0
100
AcDbLine
 62
7
  6
BYLAYER
 10
109.5067391174
 20
68.8608570199
 11
108.9065576422
 21
68.514344152
  0
LINE
  5
330
100
AcDbEntity
  8
0
100
AcDbLine
 62
7
  6
BYLAYER
 10
75.3519070528
 20
49.1416732409
 11
75.0938932643
 21
48.9927097998
  0
LINE
  5
331
100
AcDbEntity
  8
0
100
AcDbLine
 62
7
  6
BYLAYER
 10
73.4444434195
 20
48.0404051724
 11
72.8443057055
 21
47.6939175699
  0
LINE
  5
332
100
AcDbEntity
  8
0
100
AcDbLine
 62
7
  6
BYLAYER
 10
39.9967151921
 20
28.7294655473
 11
39.7387014036
 21
28.5805021062
  0
LINE
  5
333
100
AcDbEntity
  8
0
100
AcDbLine
 62
7
  6
BYLAYER
 10
38.0892515588
 20
27.6281974788
 11
37.357111082
 21
27.2054985006
  0
LINE
  5
334
100
AcDbEntity
  8
0
100
AcDbLine
 62
7
  6
BYLAYER
 10
112.6869752606
 20
68.574041503
 11
108.8686210164
 21
66.3695268114
  0
LINE
  5
335
100
AcDbEntity
  8
0
100
AcDbLine
 62
7
  6
BYLAYER
 10
76.2711276441
 20
47.5494675786
 11
72.8063253185
 21
45.549074964
  0
LINE
  5
336
100
AcDbEntity
  8
0
100
AcDbLine
 62
7
  6
BYLAYER
 10
40.9159357834
 20
27.1372598851
 11
36.3197608415
 21
24.4836728849
  0
LINE
  5
337
100
AcDbEntity
  8
0
100
AcDbLine
 62
7
  6
BYLAYER
 10
108.8686210164
 20
65.4713896729
 11
77.0489483418
 21
47.1004027487
  0
LINE
  5
338
100
AcDbEntity
  8
0
100
AcDbLine
 62
7
  6
BYLAYER
 10
72.8063253185
 20
44.6509378254
 11
41.6937564811
 21
26.6881950551
  0
LINE
  5
339
100
AcDbEntity
  8
0
100
AcDbLine
 62
7
  6
BYLAYER
 10
91.5789783896
 20
133.1417241063
 11
92.1726101951
 21
133.2133138561
  0
LINE
  5
33A
100
AcDbEntity
  8
0
100
AcDbLine
 62
7
  6
BYLAYER
 10
107.5250304675
 20
111.6445327045
 11
108.2321951793
 21
111.2362602042
  0
LINE
  5
33B
100
AcDbEntity
  8
0
100
AcDbLine
 62
7
  6
BYLAYER
 10
107.1008614233
 20
114.012476008
 11
105.4745053897
 21
114.9514318598
  0
LINE
  5
33C
100
AcDbEntity
  8
0
100
AcDbLine
 62
7
  6
BYLAYER
 10
72.9559061592
 20
144.3078321126
 11
73.7109370428
 21
143.3449633999
  0
LINE
  5
33D
100
AcDbEntity
  8
0
100
AcDbLine
 62
7
  6
BYLAYER
 10
103.0490263435
 20
103.3124712081
 11
103.5760701835
 21
102.3996095668
  0
LINE
  5
33E
100
AcDbEntity
  8
0
100
AcDbLine
 62
7
  6
BYLAYER
 10
90.1440409447
 20
133.8046726222
 11
90.1071112925
 21
133.8786982996
  0
LINE
  5
33F
100
AcDbEntity
  8
0
100
AcDbLine
 62
7
  6
BYLAYER
 10
90.2100784622
 20
153.4151961842
 11
90.2193511938
 21
153.3743439862
  0
LINE
  5
340
100
AcDbEntity
  8
0
100
AcDbLine
 62
7
  6
BYLAYER
 10
90.2102037825
 20
153.4151673787
 11
90.2193511938
 21
153.3743439862
  0
LINE
  5
341
100
AcDbEntity
  8
0
100
AcDbLine
 62
7
  6
BYLAYER
 10
112.6299426199
 20
70.5118575308
 11
112.6320744106
 21
70.2477565615
  0
LINE
  5
342
100
AcDbEntity
  8
0
100
AcDbLine
 62
7
  6
BYLAYER
 10
108.4619950945
 20
144.4842703057
 11
108.4619950945
 21
146.0702660191
  0
LINE
  5
343
100
AcDbEntity
  8
0
100
AcDbLine
 62
7
  6
BYLAYER
 10
108.4620240925
 20
140.0078218024
 11
108.4620240925
 21
142.0490778452
  0
LINE
  5
344
100
AcDbEntity
  8
0
100
AcDbLine
 62
7
  6
BYLAYER
 10
108.8686210164
 20
68.3291481328
 11
108.8686210164
 21
65.4713896729
  0
LINE
  5
345
100
AcDbEntity
  8
0
100
AcDbLine
 62
7
  6
BYLAYER
 10
109.3079358209
 20
115.3385799295
 11
109.3079358209
 21
118.4506409887
  0
LINE
  5
346
100
AcDbEntity
  8
0
100
AcDbLine
 62
7
  6
BYLAYER
 10
109.57569247
 20
112.8284758964
 11
109.57569247
 21
105.4799047595
  0
LINE
  5
347
100
AcDbEntity
  8
0
100
AcDbLine
 62
7
  6
BYLAYER
 10
110.4579358209
 20
142.0184143171
 11
110.4579358209
 21
142.9982172177
  0
LINE
  5
348
100
AcDbEntity
  8
0
100
AcDbLine
 62
7
  6
BYLAYER
 10
111.9445104908
 20
142.0184242602
 11
111.9445104908
 21
119.9728589977
  0
LINE
  5
349
100
AcDbEntity
  8
0
100
AcDbLine
 62
7
  6
BYLAYER
 10
112.0721743139
 20
119.9853286773
 11
112.0721743139
 21
114.2698117574
  0
LINE
  5
34A
100
AcDbEntity
  8
0
100
AcDbLine
 62
7
  6
BYLAYER
 10
112.6869752606
 20
72.9831700758
 11
112.6869752606
 21
68.574041503
  0
LINE
  5
34B
100
AcDbEntity
  8
0
100
AcDbLine
 62
7
  6
BYLAYER
 10
113.4647959583
 20
103.2345806096
 11
113.4647959583
 21
73.4322423844
  0
LINE
  5
34C
100
AcDbEntity
  8
0
100
AcDbLine
 62
7
  6
BYLAYER
 10
108.5494704828
 20
142.9395837992
 11
109.1431022882
 21
143.0111735491
  0
LINE
  5
34D
100
AcDbEntity
  8
0
100
AcDbLine
 62
7
  6
BYLAYER
 10
104.3608169791
 20
118.1378310321
 11
104.2370727772
 21
118.2092731642
  0
LINE
  5
34E
100
AcDbEntity
  8
0
100
AcDbLine
 62
7
  6
BYLAYER
 10
105.1209536041
 20
118.5766934975
 11
105.7043191274
 21
118.2398948751
  0
LINE
  5
34F
100
AcDbEntity
  8
0
100
AcDbLine
 62
7
  6
BYLAYER
 10
73.2127510507
 20
140.0077370736
 11
69.7302356543
 21
142.0183227896
  0
LINE
  5
350
100
AcDbEntity
  8
0
100
AcDbLine
 62
7
  6
BYLAYER
 10
87.0136823056
 20
132.039945954
 11
90.83746095
 21
129.8323362672
  0
LINE
  5
351
100
AcDbEntity
  8
0
100
AcDbLine
 62
7
  6
BYLAYER
 10
89.9265395628
 20
134.5100540041
 11
90.6815704464
 21
133.5471852914
  0
LINE
  5
352
100
AcDbEntity
  8
0
100
AcDbLine
 62
7
  6
BYLAYER
 10
74.6083449861
 20
142.9395022148
 11
75.2019767916
 21
143.0110919646
  0
LINE
  5
353
100
AcDbEntity
  8
0
100
AcDbLine
 62
7
  6
BYLAYER
 10
106.24234881
 20
138.4813344957
 11
104.9418635712
 21
138.5470200014
  0
LINE
  5
354
100
AcDbEntity
  8
0
100
AcDbLine
 62
7
  6
BYLAYER
 10
92.7112688964
 20
134.2822045325
 11
92.4150625534
 21
134.429651254
  0
LINE
  5
355
100
AcDbEntity
  8
0
100
AcDbLine
 62
7
  6
BYLAYER
 10
75.7406354929
 20
144.079982641
 11
75.4444291499
 21
144.2274293625
  0
LINE
  5
356
100
AcDbEntity
  8
0
100
AcDbLine
 62
7
  6
BYLAYER
 10
112.0721743139
 20
119.9853286773
 11
111.9445104908
 21
120.0577584529
  0
LINE
  5
357
100
AcDbEntity
  8
0
100
AcDbLine
 62
7
  6
BYLAYER
 10
87.0136823056
 20
134.0812019969
 11
73.2127510507
 21
142.0489931164
  0
LINE
  5
358
100
AcDbEntity
  8
0
100
AcDbLine
 62
7
  6
BYLAYER
 10
73.6998725857
 20
145.7889311616
 11
73.2127220526
 21
146.0701812902
  0
LINE
  5
359
100
AcDbEntity
  8
0
100
AcDbLine
 62
7
  6
BYLAYER
 10
76.9780736847
 20
144.9577296533
 11
81.5035759256
 21
142.3449888244
  0
LINE
  5
35A
100
AcDbEntity
  8
0
100
AcDbLine
 62
7
  6
BYLAYER
 10
90.1438996343
 20
153.4003104236
 11
90.1069699821
 21
153.474336101
  0
LINE
  5
35B
100
AcDbEntity
  8
0
100
AcDbLine
 62
7
  6
BYLAYER
 10
107.1807118657
 20
143.6174180757
 11
107.1899845973
 21
143.5765658777
  0
LINE
  5
35C
100
AcDbEntity
  8
0
100
AcDbLine
 62
7
  6
BYLAYER
 10
107.1808371861
 20
143.6173892703
 11
107.1899845973
 21
143.5765658777
  0
LINE
  5
35D
100
AcDbEntity
  8
0
100
AcDbLine
 62
7
  6
BYLAYER
 10
91.5788370793
 20
152.7373619077
 11
92.1724688847
 21
152.8089516575
  0
LINE
  5
35E
100
AcDbEntity
  8
0
100
AcDbLine
 62
7
  6
BYLAYER
 10
89.9263982524
 20
154.1056918055
 11
90.681429136
 21
153.1428230928
  0
LINE
  5
35F
100
AcDbEntity
  8
0
100
AcDbLine
 62
7
  6
BYLAYER
 10
106.24234881
 20
135.5738507374
 11
107.5427891041
 21
134.8230406247
  0
LINE
  5
360
100
AcDbEntity
  8
0
100
AcDbLine
 62
7
  6
BYLAYER
 10
89.7059116301
 20
147.0805812837
 11
89.2816922281
 21
147.3254989288
  0
LINE
  5
361
100
AcDbEntity
  8
0
100
AcDbLine
 62
7
  6
BYLAYER
 10
90.7075447835
 20
147.6588710025
 11
89.2816922281
 21
148.482068736
  0
LINE
  5
362
100
AcDbEntity
  8
0
100
AcDbLine
 62
7
  6
BYLAYER
 10
107.1145330378
 20
143.6025323151
 11
107.0776033856
 21
143.6765579926
  0
LINE
  5
363
100
AcDbEntity
  8
0
100
AcDbLine
 62
7
  6
BYLAYER
 10
109.6817609895
 20
144.0800642255
 11
109.3855546465
 21
144.2275109469
  0
LINE
  5
364
100
AcDbEntity
  8
0
100
AcDbLine
 62
7
  6
BYLAYER
 10
92.711127586
 20
153.8778423339
 11
92.414921243
 21
154.0252890554
  0
LINE
  5
365
100
AcDbEntity
  8
0
100
AcDbLine
 62
7
  6
BYLAYER
 10
93.8071826932
 20
149.4484371018
 11
89.2816804522
 21
152.0611779307
  0
LINE
  5
366
100
AcDbEntity
  8
0
100
AcDbLine
 62
7
  6
BYLAYER
 10
87.84194933
 20
153.953814239
 11
87.3547987969
 21
154.2350643677
  0
LINE
  5
367
100
AcDbEntity
  8
0
100
AcDbLine
 62
7
  6
BYLAYER
 10
107.9748735594
 20
142.3303279739
 11
108.4620240925
 21
142.0490778452
  0
LINE
  5
368
100
AcDbEntity
  8
0
100
AcDbLine
 62
7
  6
BYLAYER
 10
110.4579358209
 20
142.8766791298
 11
111.9445104908
 21
142.0184242602
  0
LINE
  5
369
100
AcDbEntity
  8
0
100
AcDbLine
 62
7
  6
BYLAYER
 10
108.4619950945
 20
146.0702660191
 11
94.3198005915
 21
154.2350811095
  0
LINE
  5
36A
100
AcDbEntity
  8
0
100
AcDbLine
 62
7
  6
BYLAYER
 10
106.8970316559
 20
144.3079136971
 11
107.6520625395
 21
143.3450449843
  0
ARC
  5
36B
100
AcDbEntity
  8
0
100
AcDbCircle
 62
7
  6
BYLAYER
 10
73.0885724387
 20
54.042785209
 40
6.0162321165
100
AcDbArc
 50
267.6710116027
 51
268.3307424914
  0
ARC
  5
36C
100
AcDbEntity
  8
0
100
AcDbCircle
 62
7
  6
BYLAYER
 10
73.0891515447
 20
49.7948547088
 40
3.5
100
AcDbArc
 50
293.1368679412
 51
353.97199885
  0
ARC
  5
36D
100
AcDbEntity
  8
0
100
AcDbCircle
 62
7
  6
BYLAYER
 10
73.0891515447
 20
49.7948547088
 40
3.5
100
AcDbArc
 50
6.025863859
 51
6.8642545851
  0
ARC
  5
36E
100
AcDbEntity
  8
0
100
AcDbCircle
 62
7
  6
BYLAYER
 10
37.733959684
 20
29.3826470152
 40
3.5
100
AcDbArc
 50
293.1368679412
 51
353.97199885
  0
ARC
  5
36F
100
AcDbEntity
  8
0
100
AcDbCircle
 62
7
  6
BYLAYER
 10
37.733959684
 20
29.3826470152
 40
3.5
100
AcDbArc
 50
6.025863859
 51
6.8642545851
  0
ARC
  5
370
100
AcDbEntity
  8
0
100
AcDbCircle
 62
7
  6
BYLAYER
 10
37.733959684
 20
82.8635553372
 40
3.5
100
AcDbArc
 50
293.1368679412
 51
353.97199885
  0
ARC
  5
371
100
AcDbEntity
  8
0
100
AcDbCircle
 62
7
  6
BYLAYER
 10
37.733959684
 20
82.8635553372
 40
3.5
100
AcDbArc
 50
6.025863859
 51
6.8642545852
  0
ARC
  5
372
100
AcDbEntity
  8
0
100
AcDbCircle
 62
7
  6
BYLAYER
 10
40.4222622787
 20
28.79264344
 40
2.1117159689
100
AcDbArc
 50
113.2089678777
 51
116.0689955476
  0
ARC
  5
373
100
AcDbEntity
  8
0
100
AcDbCircle
 62
7
  6
BYLAYER
 10
39.347544979
 20
30.2040068272
 40
1.5436530903
100
AcDbArc
 50
21.1655202123
 51
23.1415403714
  0
ARC
  5
374
100
AcDbEntity
  8
0
100
AcDbCircle
 62
7
  6
BYLAYER
 10
34.2983029881
 20
84.6421879223
 40
1.0099188013
100
AcDbArc
 50
128.3205560085
 51
132.2121869616
  0
ARC
  5
375
100
AcDbEntity
  8
0
100
AcDbCircle
 62
7
  6
BYLAYER
 10
73.2665288199
 20
47.6526405628
 40
0.883461903
100
AcDbArc
 50
238.4711885349
 51
240.0031584705
  0
ARC
  5
376
100
AcDbEntity
  8
0
100
AcDbCircle
 62
7
  6
BYLAYER
 10
32.7172465962
 20
166.7101486068
 40
60.2328694465
100
AcDbArc
 50
347.2485673316
 51
347.5367449855
  0
ARC
  5
377
100
AcDbEntity
  8
0
100
AcDbCircle
 62
7
  6
BYLAYER
 10
49.6878799997
 20
156.9123704983
 40
60.2328694465
100
AcDbArc
 50
347.2485673316
 51
347.5367449855
  0
ARC
  5
378
100
AcDbEntity
  8
0
100
AcDbCircle
 62
7
  6
BYLAYER
 10
32.7173879066
 20
147.1145108054
 40
60.2328694465
100
AcDbArc
 50
347.2485673316
 51
347.5367449855
  0
ARC
  5
379
100
AcDbEntity
  8
0
100
AcDbCircle
 62
7
  6
BYLAYER
 10
15.7467545095
 20
156.9122889124
 40
60.2328694399
100
AcDbArc
 50
347.2485673315
 51
347.5367449855
  0
ARC
  5
37A
100
AcDbEntity
  8
0
100
AcDbCircle
 62
7
  6
BYLAYER
 10
62.7778973826
 20
146.9252408595
 40
12.2396135496
100
AcDbArc
 50
341.907191527
 51
342.3488201564
  0
ARC
  5
37B
100
AcDbEntity
  8
0
100
AcDbCircle
 62
7
  6
BYLAYER
 10
72.5085922576
 20
114.3642681846
 40
6.6108081537
100
AcDbArc
 50
71.4156317987
 51
71.9638863744
  0
ARC
  5
37C
100
AcDbEntity
  8
0
100
AcDbCircle
 62
7
  6
BYLAYER
 10
71.533950795
 20
114.800051457
 40
6.1479969767
100
AcDbArc
 50
110.6731685789
 51
111.3339805843
  0
ARC
  5
37D
100
AcDbEntity
  8
0
100
AcDbCircle
 62
7
  6
BYLAYER
 10
109.1508675935
 20
74.8632223502
 40
6.0162174004
100
AcDbArc
 50
267.6710110794
 51
268.3297073253
  0
ARC
  5
37E
100
AcDbEntity
  8
0
100
AcDbCircle
 62
7
  6
BYLAYER
 10
77.5822257569
 20
47.2562267068
 40
4.7665699846
100
AcDbArc
 50
139.2264277738
 51
141.2604198916
  0
ARC
  5
37F
100
AcDbEntity
  8
0
100
AcDbCircle
 62
7
  6
BYLAYER
 10
109.1514472426
 20
70.6153065562
 40
3.5
100
AcDbArc
 50
293.1368679412
 51
353.97199885
  0
ARC
  5
380
100
AcDbEntity
  8
0
100
AcDbCircle
 62
7
  6
BYLAYER
 10
109.1514472426
 20
70.6153065562
 40
3.5
100
AcDbArc
 50
6.025863859
 51
6.8642545852
  0
ARC
  5
381
100
AcDbEntity
  8
0
100
AcDbCircle
 62
7
  6
BYLAYER
 10
111.8973183157
 20
69.905208449
 40
2.2448916465
100
AcDbArc
 50
116.0418357144
 51
117.1289738343
  0
ARC
  5
382
100
AcDbEntity
  8
0
100
AcDbCircle
 62
7
  6
BYLAYER
 10
111.8397498373
 20
70.025302981
 40
2.1117159689
100
AcDbArc
 50
113.2089678777
 51
116.0689955476
  0
ARC
  5
383
100
AcDbEntity
  8
0
100
AcDbCircle
 62
7
  6
BYLAYER
 10
74.7031367055
 20
50.6163979295
 40
1.5432184113
100
AcDbArc
 50
21.182520687
 51
23.1472089347
  0
ARC
  5
384
100
AcDbEntity
  8
0
100
AcDbCircle
 62
7
  6
BYLAYER
 10
111.0951535493
 20
71.5323667855
 40
0.8839585225
100
AcDbArc
 50
60.0033599788
 51
61.4724041408
  0
ARC
  5
385
100
AcDbEntity
  8
0
100
AcDbCircle
 62
7
  6
BYLAYER
 10
109.3288245178
 20
68.4730924102
 40
0.8834619029
100
AcDbArc
 50
238.4711885349
 51
240.0031584706
  0
ARC
  5
386
100
AcDbEntity
  8
0
100
AcDbCircle
 62
7
  6
BYLAYER
 10
131.5951564767
 20
156.8251327275
 40
59.8315840004
100
AcDbArc
 50
192.4627155591
 51
192.7530624495
  0
ARC
  5
387
100
AcDbEntity
  8
0
100
AcDbCircle
 62
7
  6
BYLAYER
 10
96.7190228769
 20
146.9253224447
 40
12.2396135521
100
AcDbArc
 50
341.9071915271
 51
342.3488201563
  0
ARC
  5
388
100
AcDbEntity
  8
0
100
AcDbCircle
 62
7
  6
BYLAYER
 10
79.7485307852
 20
137.1274627514
 40
12.2396135505
100
AcDbArc
 50
341.9071915271
 51
342.3488201563
  0
ARC
  5
389
100
AcDbEntity
  8
0
100
AcDbCircle
 62
7
  6
BYLAYER
 10
79.7483894762
 20
156.7231005523
 40
12.2396135491
100
AcDbArc
 50
341.907191527
 51
342.3488201564
  0
ARC
  5
38A
100
AcDbEntity
  8
0
100
AcDbCircle
 62
7
  6
BYLAYER
 10
101.0191740086
 20
108.9522941002
 40
6.0162321161
100
AcDbArc
 50
267.6710116027
 51
268.3307424914
  0
ARC
  5
38B
100
AcDbEntity
  8
0
100
AcDbCircle
 62
7
  6
BYLAYER
 10
73.866810321
 20
147.5197653582
 40
5.1922033219
100
AcDbArc
 50
268.1578058562
 51
271.842469588
  0
ARC
  5
38C
100
AcDbEntity
  8
0
100
AcDbCircle
 62
7
  6
BYLAYER
 10
107.8079358241
 20
140.5994937773
 40
5.1922033219
100
AcDbArc
 50
88.1578058562
 51
91.842469588
  0
ARC
  5
38D
100
AcDbEntity
  8
0
100
AcDbCircle
 62
7
  6
BYLAYER
 10
105.5128273267
 20
102.1657355985
 40
4.7665699845
100
AcDbArc
 50
139.2264277738
 51
141.2604198917
  0
ARC
  5
38E
100
AcDbEntity
  8
0
100
AcDbCircle
 62
7
  6
BYLAYER
 10
87.2591805191
 20
111.2612056476
 40
4.5833105019
100
AcDbArc
 50
146.2406031711
 51
150.8548974102
  0
ARC
  5
38F
100
AcDbEntity
  8
0
100
AcDbCircle
 62
7
  6
BYLAYER
 10
90.8373024174
 20
150.3373024226
 40
4.01125
100
AcDbArc
 50
66.8400985807
 51
113.1599014193
  0
ARC
  5
390
100
AcDbEntity
  8
0
100
AcDbCircle
 62
7
  6
BYLAYER
 10
107.8079358209
 20
140.5395243141
 40
4.01125
100
AcDbArc
 50
66.8400985807
 51
113.1599014193
  0
ARC
  5
391
100
AcDbEntity
  8
0
100
AcDbCircle
 62
7
  6
BYLAYER
 10
73.8668103242
 20
140.5394427297
 40
4.01125
100
AcDbArc
 50
66.8400985807
 51
113.1599014193
  0
ARC
  5
392
100
AcDbEntity
  8
0
100
AcDbCircle
 62
7
  6
BYLAYER
 10
90.8374437278
 20
130.7416646212
 40
4.01125
100
AcDbArc
 50
66.8400985807
 51
113.1599014193
  0
ARC
  5
393
100
AcDbEntity
  8
0
100
AcDbCircle
 62
7
  6
BYLAYER
 10
101.0197531147
 20
104.7043636003
 40
3.5
100
AcDbArc
 50
293.1368679412
 51
353.97199885
  0
ARC
  5
394
100
AcDbEntity
  8
0
100
AcDbCircle
 62
7
  6
BYLAYER
 10
101.0197531146
 20
104.7043636003
 40
3.5
100
AcDbArc
 50
6.025863859
 51
6.8642545851
  0
ARC
  5
395
100
AcDbEntity
  8
0
100
AcDbCircle
 62
7
  6
BYLAYER
 10
83.5542883355
 20
113.4002885937
 40
3.5
100
AcDbArc
 50
293.1368679412
 51
353.97199885
  0
ARC
  5
396
100
AcDbEntity
  8
0
100
AcDbCircle
 62
7
  6
BYLAYER
 10
83.5542883355
 20
113.4002885937
 40
3.5
100
AcDbArc
 50
6.025863859
 51
6.8642545852
  0
ARC
  5
397
100
AcDbEntity
  8
0
100
AcDbCircle
 62
7
  6
BYLAYER
 10
91.502009876
 20
151.7827492709
 40
2.4189627073
100
AcDbArc
 50
58.3843949663
 51
60.0099452822
  0
ARC
  5
398
100
AcDbEntity
  8
0
100
AcDbCircle
 62
7
  6
BYLAYER
 10
108.4726432797
 20
141.9849711626
 40
2.4189627071
100
AcDbArc
 50
58.3843949662
 51
60.0099452823
  0
ARC
  5
399
100
AcDbEntity
  8
0
100
AcDbCircle
 62
7
  6
BYLAYER
 10
74.5315177829
 20
141.984889578
 40
2.4189627072
100
AcDbArc
 50
58.3843949662
 51
60.0099452822
  0
ARC
  5
39A
100
AcDbEntity
  8
0
100
AcDbCircle
 62
7
  6
BYLAYER
 10
91.5021511865
 20
132.1871114697
 40
2.418962707
100
AcDbArc
 50
58.3843949662
 51
60.0099452823
  0
ARC
  5
39B
100
AcDbEntity
  8
0
100
AcDbCircle
 62
7
  6
BYLAYER
 10
91.6023817429
 20
152.2857113418
 40
1.8998991606
100
AcDbArc
 50
53.3738602129
 51
55.1552053188
  0
ARC
  5
39C
100
AcDbEntity
  8
0
100
AcDbCircle
 62
7
  6
BYLAYER
 10
74.6318896498
 20
142.4878516489
 40
1.8998991607
100
AcDbArc
 50
53.3738602129
 51
55.1552053188
  0
ARC
  5
39D
100
AcDbEntity
  8
0
100
AcDbCircle
 62
7
  6
BYLAYER
 10
91.6025230533
 20
132.6900735403
 40
1.8998991607
100
AcDbArc
 50
53.3738602129
 51
55.1552053188
  0
ARC
  5
39E
100
AcDbEntity
  8
0
100
AcDbCircle
 62
7
  6
BYLAYER
 10
108.5730151466
 20
142.4879332335
 40
1.8998991604
100
AcDbArc
 50
53.3738602128
 51
55.1552053189
  0
ARC
  5
39F
100
AcDbEntity
  8
0
100
AcDbCircle
 62
7
  6
BYLAYER
 10
102.6337382754
 20
105.5259068211
 40
1.5432184113
100
AcDbArc
 50
21.182520687
 51
23.1472089347
  0
ARC
  5
3A0
100
AcDbEntity
  8
0
100
AcDbCircle
 62
7
  6
BYLAYER
 10
101.1156936935
 20
102.8932799284
 40
1.5405849184
100
AcDbArc
 50
276.8602684346
 51
278.4912042389
  0
ARC
  5
3A1
100
AcDbEntity
  8
0
100
AcDbCircle
 62
7
  6
BYLAYER
 10
83.6506255563
 20
111.5858839275
 40
1.5372787166
100
AcDbArc
 50
276.8565738388
 51
278.4656020562
  0
ARC
  5
3A2
100
AcDbEntity
  8
0
100
AcDbCircle
 62
7
  6
BYLAYER
 10
92.3517818959
 20
152.4398566424
 40
1.4234029411
100
AcDbArc
 50
74.3464374351
 51
75.6918897461
  0
ARC
  5
3A3
100
AcDbEntity
  8
0
100
AcDbCircle
 62
7
  6
BYLAYER
 10
75.3812898027
 20
142.6419969495
 40
1.4234029411
100
AcDbArc
 50
74.3464374351
 51
75.6918897461
  0
ARC
  5
3A4
100
AcDbEntity
  8
0
100
AcDbCircle
 62
7
  6
BYLAYER
 10
109.3224152995
 20
142.6420785341
 40
1.4234029408
100
AcDbArc
 50
74.346437435
 51
75.6918897462
  0
ARC
  5
3A5
100
AcDbEntity
  8
0
100
AcDbCircle
 62
7
  6
BYLAYER
 10
92.3519232063
 20
132.8442188411
 40
1.4234029409
100
AcDbArc
 50
74.346437435
 51
75.6918897461
  0
ARC
  5
3A6
100
AcDbEntity
  8
0
100
AcDbCircle
 62
7
  6
BYLAYER
 10
88.8409492851
 20
153.8575511109
 40
1.0036468833
100
AcDbArc
 50
180.0058596083
 51
185.5164900854
  0
ARC
  5
3A7
100
AcDbEntity
  8
0
100
AcDbCircle
 62
7
  6
BYLAYER
 10
88.8409481888
 20
153.8573458719
 40
1.0036457871
100
AcDbArc
 50
174.4843323797
 51
179.9941430027
  0
ARC
  5
3A8
100
AcDbEntity
  8
0
100
AcDbCircle
 62
7
  6
BYLAYER
 10
92.8358391389
 20
153.8576857581
 40
1.001445877
100
AcDbArc
 50
359.1422053833
 51
359.9864241387
  0
ARC
  5
3A9
100
AcDbEntity
  8
0
100
AcDbCircle
 62
7
  6
BYLAYER
 10
278.5910920365
 20
-222.7662811492
 40
390.3264451072
100
AcDbArc
 50
127.5110045104
 51
128.3664664362
  0
ARC
  5
3AA
100
AcDbEntity
  8
0
100
AcDbCircle
 62
7
  6
BYLAYER
 10
222.7914409475
 20
-150.5021407097
 40
310.6458537837
100
AcDbArc
 50
120.0001963451
 51
120.3018461503
  0
ARC
  5
3AB
100
AcDbEntity
  8
0
100
AcDbCircle
 62
7
  6
BYLAYER
 10
148.5656485726
 20
166.622992421
 40
59.8315840033
100
AcDbArc
 50
192.4627155591
 51
192.7530624495
  0
ARC
  5
3AC
100
AcDbEntity
  8
0
100
AcDbCircle
 62
7
  6
BYLAYER
 10
165.5362819741
 20
156.8252143121
 40
59.8315840013
100
AcDbArc
 50
192.462715559
 51
192.7530624495
  0
ARC
  5
3AD
100
AcDbEntity
  8
0
100
AcDbCircle
 62
7
  6
BYLAYER
 10
148.5657898778
 20
147.0273546184
 40
59.831583998
100
AcDbArc
 50
192.4627155591
 51
192.7530624495
  0
SPLINE
  5
3AE
100
AcDbEntity
  8
0
100
AcDbSpline
 62
7
  6
BYLAYER
 70
0
 71
3
 72
14
 73
10
 74
0
 42
0.0000001
 43
0.0000001
 44
0.0000000001
 40
0.0
 40
0.0
 40
0.0
 40
0.0
 40
0.1118993239
 40
0.2252812296
 40
0.3415314283
 40
0.4618671759
 40
0.5872771959
 40
0.7185161519
 40
1.0
 40
1.0
 40
1.0
 40
1.0
 10
109.4431878927
 20
67.3869388977
 30
0.0
 10
109.479465206
 20
67.365996095
 30
0.0
 10
109.5556192373
 20
67.3289938422
 30
0.0
 10
109.6777004526
 20
67.2897362478
 30
0.0
 10
109.8070637302
 20
67.2667406446
 30
0.0
 10
109.9427493612
 20
67.2601607653
 30
0.0
 10
110.0838423355
 20
67.2699311574
 30
0.0
 10
110.2824278123
 20
67.305447014
 30
0.0
 10
110.4298020552
 20
67.3554170738
 30
0.0
 10
110.5266987122
 20
67.3968182672
 30
0.0
  0
SPLINE
  5
3AF
100
AcDbEntity
  8
0
100
AcDbSpline
 62
7
  6
BYLAYER
 70
0
 71
3
 72
9
 73
5
 74
0
 42
0.0000001
 43
0.0000001
 44
0.0000000001
 40
0.0
 40
0.0
 40
0.0
 40
0.0
 40
0.4843887765
 40
1.0
 40
1.0
 40
1.0
 40
1.0
 10
111.2381923523
 20
69.2472609312
 30
0.0
 10
111.2247570256
 20
69.4334828369
 30
0.0
 10
111.1681188672
 20
69.8161165677
 30
0.0
 10
111.0644369196
 20
70.188354491
 30
0.0
 10
111.0006604743
 20
70.376584026
 30
0.0
  0
SPLINE
  5
3B0
100
AcDbEntity
  8
0
100
AcDbSpline
 62
7
  6
BYLAYER
 70
0
 71
3
 72
11
 73
7
 74
0
 42
0.0000001
 43
0.0000001
 44
0.0000000001
 40
0.0
 40
0.0
 40
0.0
 40
0.0
 40
0.2603046203
 40
0.5169420844
 40
0.7649661608
 40
1.0
 40
1.0
 40
1.0
 40
1.0
 10
108.9755070229
 20
68.8495611959
 30
0.0
 10
109.176193182
 20
68.8437084837
 30
0.0
 10
109.5755979596
 20
68.8519298408
 30
0.0
 10
110.1623134141
 20
68.9230726152
 30
0.0
 10
110.7194213298
 20
69.0508785214
 30
0.0
 10
111.0717297462
 20
69.1754783556
 30
0.0
 10
111.2381923523
 20
69.2472609312
 30
0.0
  0
SPLINE
  5
3B1
100
AcDbEntity
  8
0
100
AcDbSpline
 62
7
  6
BYLAYER
 70
0
 71
3
 72
15
 73
11
 74
0
 42
0.0000001
 43
0.0000001
 44
0.0000000001
 40
0.0
 40
0.0
 40
0.0
 40
0.0
 40
0.1445717972
 40
0.2820275967
 40
0.4127696561
 40
0.5374870268
 40
0.6571713005
 40
0.7731055983
 40
0.8868174083
 40
1.0
 40
1.0
 40
1.0
 40
1.0
 10
111.9452961895
 20
69.6555050851
 30
0.0
 10
112.0048459302
 20
69.7015361898
 30
0.0
 10
112.1172285816
 20
69.7964105458
 30
0.0
 10
112.2673845792
 20
69.9506487896
 30
0.0
 10
112.3936949444
 20
70.1121150776
 30
0.0
 10
112.4951004137
 20
70.279628114
 30
0.0
 10
112.5707093566
 20
70.4519449992
 30
0.0
 10
112.6197849094
 20
70.6277407036
 30
0.0
 10
112.6418128594
 20
70.8055147962
 30
0.0
 10
112.6382935198
 20
70.9241282603
 30
0.0
 10
112.6321082742
 20
70.9827274249
 30
0.0
  0
SPLINE
  5
3B2
100
AcDbEntity
  8
0
100
AcDbSpline
 62
7
  6
BYLAYER
 70
0
 71
3
 72
14
 73
10
 74
0
 42
0.0000001
 43
0.0000001
 44
0.0000000001
 40
0.0
 40
0.0
 40
0.0
 40
0.0
 40
0.2815090635
 40
0.4127416006
 40
0.5381403164
 40
0.6584740794
 40
0.7747241695
 40
0.8881034491
 40
1.0
 40
1.0
 40
1.0
 40
1.0
 10
112.6263588453
 20
71.0336171207
 30
0.0
 10
112.6137593552
 20
71.1382414753
 30
0.0
 10
112.5833510829
 20
71.2908648891
 30
0.0
 10
112.5147986015
 20
71.4805994823
 30
0.0
 10
112.452716171
 20
71.6076678845
 30
0.0
 10
112.3791683945
 20
71.7218745045
 30
0.0
 10
112.2945779145
 20
71.8224113446
 30
0.0
 10
112.1995338629
 20
71.9084988624
 30
0.0
 10
112.1294156994
 20
71.9559509278
 30
0.0
 10
112.0931392974
 20
71.9768932044
 30
0.0
  0
SPLINE
  5
3B3
100
AcDbEntity
  8
0
100
AcDbSpline
 62
7
  6
BYLAYER
 70
0
 71
3
 72
10
 73
6
 74
0
 42
0.0000001
 43
0.0000001
 44
0.0000000001
 40
0.0
 40
0.0
 40
0.0
 40
0.0
 40
0.4735456306
 40
0.7299509201
 40
1.0
 40
1.0
 40
1.0
 40
1.0
 10
111.0006604743
 20
67.9023083688
 30
0.0
 10
111.0692148913
 20
68.0254815581
 30
0.0
 10
111.1490745726
 20
68.230419732
 30
0.0
 10
111.2129673509
 20
68.5213385349
 30
0.0
 10
111.2318850055
 20
68.6772187007
 30
0.0
 10
111.2381923523
 20
68.757359481
 30
0.0
  0
SPLINE
  5
3B4
100
AcDbEntity
  8
0
100
AcDbSpline
 62
7
  6
BYLAYER
 70
0
 71
3
 72
9
 73
5
 74
0
 42
0.0000001
 43
0.0000001
 44
0.0000000001
 40
0.0
 40
0.0
 40
0.0
 40
0.0
 40
0.5156112235
 40
1.0
 40
1.0
 40
1.0
 40
1.0
 10
111.7077643115
 20
70.7848281798
 30
0.0
 10
111.7715407568
 20
70.5965986448
 30
0.0
 10
111.8752227045
 20
70.2243607216
 30
0.0
 10
111.9318608628
 20
69.8417269908
 30
0.0
 10
111.9452961895
 20
69.6555050851
 30
0.0
  0
SPLINE
  5
3B5
100
AcDbEntity
  8
0
100
AcDbSpline
 62
7
  6
BYLAYER
 70
0
 71
3
 72
13
 73
9
 74
0
 42
0.0000001
 43
0.0000001
 44
0.0000000001
 40
0.0
 40
0.0
 40
0.0
 40
0.0
 40
0.1120383125
 40
0.2261591872
 40
0.343370213
 40
0.4645405486
 40
0.7211447719
 40
1.0
 40
1.0
 40
1.0
 40
1.0
 10
112.6320946783
 20
70.2477558476
 30
0.0
 10
112.6269292867
 20
70.1988747042
 30
0.0
 10
112.6102705745
 20
70.1007584807
 30
0.0
 10
112.5670870975
 20
69.9560856455
 30
0.0
 10
112.5058289711
 20
69.813717344
 30
0.0
 10
112.3985620074
 20
69.624470463
 30
0.0
 10
112.2183275763
 20
69.3973656957
 30
0.0
 10
112.0420891042
 20
69.2404231846
 30
0.0
 10
111.9452961895
 20
69.1656036348
 30
0.0
  0
SPLINE
  5
3B6
100
AcDbEntity
  8
0
100
AcDbSpline
 62
7
  6
BYLAYER
 70
0
 71
3
 72
14
 73
10
 74
0
 42
0.0000001
 43
0.0000001
 44
0.0000000001
 40
0.0
 40
0.0
 40
0.0
 40
0.0
 40
0.1118658198
 40
0.2252187526
 40
0.3414484244
 40
0.4617749956
 40
0.587188841
 40
0.7184450498
 40
1.0
 40
1.0
 40
1.0
 40
1.0
 10
112.0931392974
 20
71.9768932044
 30
0.0
 10
112.0568000535
 20
71.9978717595
 30
0.0
 10
111.9805087531
 20
72.0349291367
 30
0.0
 10
111.8581969156
 20
72.0742124321
 30
0.0
 10
111.7285815752
 20
72.0971769971
 30
0.0
 10
111.59262765
 20
72.1036692287
 30
0.0
 10
111.4512549973
 20
72.0937555439
 30
0.0
 10
111.2522709329
 20
72.0579692131
 30
0.0
 10
111.1046222745
 20
72.0077278474
 30
0.0
 10
111.0075526302
 20
71.9661255236
 30
0.0
  0
SPLINE
  5
3B7
100
AcDbEntity
  8
0
100
AcDbSpline
 62
7
  6
BYLAYER
 70
0
 71
3
 72
11
 73
7
 74
0
 42
0.0000001
 43
0.0000001
 44
0.0000000001
 40
0.0
 40
0.0
 40
0.0
 40
0.0
 40
0.2349666049
 40
0.4831605051
 40
0.7399247507
 40
1.0
 40
1.0
 40
1.0
 40
1.0
 10
111.2381923523
 20
68.757359481
 30
0.0
 10
111.0668099799
 20
68.6834553869
 30
0.0
 10
110.7035994587
 20
68.5557972368
 30
0.0
 10
110.1290059025
 20
68.42688672
 30
0.0
 10
109.5241507159
 20
68.3580539853
 30
0.0
 10
109.1127960942
 20
68.3536775047
 30
0.0
 10
108.9063845702
 20
68.362073121
 30
0.0
  0
SPLINE
  5
3B8
100
AcDbEntity
  8
0
100
AcDbSpline
 62
7
  6
BYLAYER
 70
0
 71
3
 72
9
 73
5
 74
0
 42
0.0000001
 43
0.0000001
 44
0.0000000001
 40
0.0
 40
0.0
 40
0.0
 40
0.0
 40
0.4999997701
 40
1.0
 40
1.0
 40
1.0
 40
1.0
 10
111.7077643115
 20
68.3105525227
 30
0.0
 10
111.6039857506
 20
68.2216232521
 30
0.0
 10
111.3796100293
 20
68.0624403081
 30
0.0
 10
111.1295651002
 20
67.9477180225
 30
0.0
 10
111.0006604743
 20
67.9023083688
 30
0.0
  0
SPLINE
  5
3B9
100
AcDbEntity
  8
0
100
AcDbSpline
 62
7
  6
BYLAYER
 70
0
 71
3
 72
10
 73
6
 74
0
 42
0.0000001
 43
0.0000001
 44
0.0000000001
 40
0.0
 40
0.0
 40
0.0
 40
0.0
 40
0.2700490799
 40
0.5264543694
 40
1.0
 40
1.0
 40
1.0
 40
1.0
 10
111.9452961895
 20
69.1656036348
 30
0.0
 10
111.9389888427
 20
69.0854628546
 30
0.0
 10
111.9200711881
 20
68.9295826887
 30
0.0
 10
111.8561784098
 20
68.6386638858
 30
0.0
 10
111.7763187286
 20
68.433725712
 30
0.0
 10
111.7077643115
 20
68.3105525227
 30
0.0
  0
SPLINE
  5
3BA
100
AcDbEntity
  8
0
100
AcDbSpline
 62
7
  6
BYLAYER
 70
0
 71
3
 72
14
 73
10
 74
0
 42
0.0000001
 43
0.0000001
 44
0.0000000001
 40
0.0
 40
0.0
 40
0.0
 40
0.0
 40
0.2824904844
 40
0.4139751661
 40
0.539431851
 40
0.6596391681
 40
0.7756028632
 40
0.8885750813
 40
1.0
 40
1.0
 40
1.0
 40
1.0
 10
108.9063845702
 20
68.362073121
 30
0.0
 10
108.9177029945
 20
68.2539023586
 30
0.0
 10
108.9466870772
 20
68.0959838006
 30
0.0
 10
109.014685806
 20
67.8994196486
 30
0.0
 10
109.0769597296
 20
67.7678823961
 30
0.0
 10
109.1513106189
 20
67.6497460672
 30
0.0
 10
109.2372866864
 20
67.5458798813
 30
0.0
 10
109.3342709242
 20
67.4571358547
 30
0.0
 10
109.4060349302
 20
67.4083872105
 30
0.0
 10
109.4431878927
 20
67.3869388977
 30
0.0
  0
SPLINE
  5
3BB
100
AcDbEntity
  8
0
100
AcDbSpline
 62
7
  6
BYLAYER
 70
0
 71
3
 72
14
 73
10
 74
0
 42
0.0000001
 43
0.0000001
 44
0.0000000001
 40
0.0
 40
0.0
 40
0.0
 40
0.0
 40
0.1118993239
 40
0.2252812296
 40
0.3415314283
 40
0.4618671759
 40
0.5872771959
 40
0.7185161519
 40
1.0
 40
1.0
 40
1.0
 40
1.0
 10
73.3808921948
 20
46.5664870503
 30
0.0
 10
73.4171695081
 20
46.5455442476
 30
0.0
 10
73.4933235394
 20
46.5085419947
 30
0.0
 10
73.6154047547
 20
46.4692844003
 30
0.0
 10
73.7447680323
 20
46.4462887972
 30
0.0
 10
73.8804536633
 20
46.4397089179
 30
0.0
 10
74.0215466376
 20
46.44947931
 30
0.0
 10
74.2201321144
 20
46.4849951665
 30
0.0
 10
74.3675063573
 20
46.5349652263
 30
0.0
 10
74.4644030143
 20
46.5763664198
 30
0.0
  0
SPLINE
  5
3BC
100
AcDbEntity
  8
0
100
AcDbSpline
 62
7
  6
BYLAYER
 70
0
 71
3
 72
9
 73
5
 74
0
 42
0.0000001
 43
0.0000001
 44
0.0000000001
 40
0.0
 40
0.0
 40
0.0
 40
0.0
 40
0.4843887765
 40
1.0
 40
1.0
 40
1.0
 40
1.0
 10
75.1758966544
 20
48.4268090838
 30
0.0
 10
75.1624613277
 20
48.6130309894
 30
0.0
 10
75.1058231693
 20
48.9956647203
 30
0.0
 10
75.0021412217
 20
49.3679026435
 30
0.0
 10
74.9383647764
 20
49.5561321785
 30
0.0
  0
SPLINE
  5
3BD
100
AcDbEntity
  8
0
100
AcDbSpline
 62
7
  6
BYLAYER
 70
0
 71
3
 72
11
 73
7
 74
0
 42
0.0000001
 43
0.0000001
 44
0.0000000001
 40
0.0
 40
0.0
 40
0.0
 40
0.0
 40
0.2603049578
 40
0.5169422207
 40
0.76496604
 40
1.0
 40
1.0
 40
1.0
 40
1.0
 10
72.9133200886
 20
48.0291061775
 30
0.0
 10
73.1139971892
 20
48.0232573564
 30
0.0
 10
73.5133831188
 20
48.0314845804
 30
0.0
 10
74.1000700266
 20
48.102630792
 30
0.0
 10
74.657150479
 20
48.2304348441
 30
0.0
 10
75.00944178
 20
48.3550298422
 30
0.0
 10
75.1758966544
 20
48.4268090838
 30
0.0
  0
SPLINE
  5
3BE
100
AcDbEntity
  8
0
100
AcDbSpline
 62
7
  6
BYLAYER
 70
0
 71
3
 72
15
 73
11
 74
0
 42
0.0000001
 43
0.0000001
 44
0.0000000001
 40
0.0
 40
0.0
 40
0.0
 40
0.0
 40
0.1445717972
 40
0.2820275967
 40
0.4127696561
 40
0.5374870268
 40
0.6571713005
 40
0.7731055983
 40
0.8868174083
 40
1.0
 40
1.0
 40
1.0
 40
1.0
 10
75.8830004916
 20
48.8350532377
 30
0.0
 10
75.9425502323
 20
48.8810843424
 30
0.0
 10
76.0549328837
 20
48.9759586984
 30
0.0
 10
76.2050888813
 20
49.1301969422
 30
0.0
 10
76.3313992465
 20
49.2916632302
 30
0.0
 10
76.4328047158
 20
49.4591762665
 30
0.0
 10
76.5084136586
 20
49.6314931518
 30
0.0
 10
76.5574892114
 20
49.8072888561
 30
0.0
 10
76.5795171614
 20
49.9850629487
 30
0.0
 10
76.5759978219
 20
50.1036764128
 30
0.0
 10
76.5698125763
 20
50.1622755774
 30
0.0
  0
SPLINE
  5
3BF
100
AcDbEntity
  8
0
100
AcDbSpline
 62
7
  6
BYLAYER
 70
0
 71
3
 72
14
 73
10
 74
0
 42
0.0000001
 43
0.0000001
 44
0.0000000001
 40
0.0
 40
0.0
 40
0.0
 40
0.0
 40
0.2815090635
 40
0.4127416006
 40
0.5381403164
 40
0.6584740794
 40
0.7747241695
 40
0.8881034491
 40
1.0
 40
1.0
 40
1.0
 40
1.0
 10
76.5640631474
 20
50.2131652732
 30
0.0
 10
76.5514636573
 20
50.3177896278
 30
0.0
 10
76.521055385
 20
50.4704130416
 30
0.0
 10
76.4525029036
 20
50.6601476349
 30
0.0
 10
76.3904204731
 20
50.787216037
 30
0.0
 10
76.3168726966
 20
50.9014226571
 30
0.0
 10
76.2322822166
 20
51.0019594972
 30
0.0
 10
76.137238165
 20
51.0880470149
 30
0.0
 10
76.0671200015
 20
51.1354990804
 30
0.0
 10
76.0308435995
 20
51.156441357
 30
0.0
  0
SPLINE
  5
3C0
100
AcDbEntity
  8
0
100
AcDbSpline
 62
7
  6
BYLAYER
 70
0
 71
3
 72
10
 73
6
 74
0
 42
0.0000001
 43
0.0000001
 44
0.0000000001
 40
0.0
 40
0.0
 40
0.0
 40
0.0
 40
0.4735456306
 40
0.7299509201
 40
1.0
 40
1.0
 40
1.0
 40
1.0
 10
74.9383647764
 20
47.0818565213
 30
0.0
 10
75.0069191934
 20
47.2050297106
 30
0.0
 10
75.0867788747
 20
47.4099678845
 30
0.0
 10
75.150671653
 20
47.7008866874
 30
0.0
 10
75.1695893076
 20
47.8567668533
 30
0.0
 10
75.1758966544
 20
47.9369076335
 30
0.0
  0
SPLINE
  5
3C1
100
AcDbEntity
  8
0
100
AcDbSpline
 62
7
  6
BYLAYER
 70
0
 71
3
 72
9
 73
5
 74
0
 42
0.0000001
 43
0.0000001
 44
0.0000000001
 40
0.0
 40
0.0
 40
0.0
 40
0.0
 40
0.5156112235
 40
1.0
 40
1.0
 40
1.0
 40
1.0
 10
75.6454686136
 20
49.9643763324
 30
0.0
 10
75.7092450589
 20
49.7761467974
 30
0.0
 10
75.8129270066
 20
49.4039088742
 30
0.0
 10
75.8695651649
 20
49.0212751433
 30
0.0
 10
75.8830004916
 20
48.8350532377
 30
0.0
  0
SPLINE
  5
3C2
100
AcDbEntity
  8
0
100
AcDbSpline
 62
7
  6
BYLAYER
 70
0
 71
3
 72
13
 73
9
 74
0
 42
0.0000001
 43
0.0000001
 44
0.0000000001
 40
0.0
 40
0.0
 40
0.0
 40
0.0
 40
0.1120383125
 40
0.2261591872
 40
0.343370213
 40
0.4645405486
 40
0.7211447719
 40
1.0
 40
1.0
 40
1.0
 40
1.0
 10
76.5697989804
 20
49.4273040001
 30
0.0
 10
76.5646335888
 20
49.3784228568
 30
0.0
 10
76.5479748766
 20
49.2803066333
 30
0.0
 10
76.5047913996
 20
49.135633798
 30
0.0
 10
76.4435332732
 20
48.9932654965
 30
0.0
 10
76.3362663095
 20
48.8040186155
 30
0.0
 10
76.1560318784
 20
48.5769138482
 30
0.0
 10
75.9797934063
 20
48.4199713372
 30
0.0
 10
75.8830004916
 20
48.3451517874
 30
0.0
  0
SPLINE
  5
3C3
100
AcDbEntity
  8
0
100
AcDbSpline
 62
7
  6
BYLAYER
 70
0
 71
3
 72
14
 73
10
 74
0
 42
0.0000001
 43
0.0000001
 44
0.0000000001
 40
0.0
 40
0.0
 40
0.0
 40
0.0
 40
0.1096028454
 40
0.2210104038
 40
0.3358823685
 40
0.4556284823
 40
0.5813397437
 40
0.7137751302
 40
1.0
 40
1.0
 40
1.0
 40
1.0
 10
76.0308435995
 20
51.156441357
 30
0.0
 10
75.9903116456
 20
51.1798403531
 30
0.0
 10
75.9046596537
 20
51.2205664476
 30
0.0
 10
75.7665666013
 20
51.261252055
 30
0.0
 10
75.6196846683
 20
51.2815355959
 30
0.0
 10
75.4653767214
 20
51.281309178
 30
0.0
 10
75.3049308989
 20
51.2607027142
 30
0.0
 10
75.0788689356
 20
51.2049957868
 30
0.0
 10
74.9128158423
 20
51.1351046931
 30
0.0
 10
74.8042329189
 20
51.0790021618
 30
0.0
  0
SPLINE
  5
3C4
100
AcDbEntity
  8
0
100
AcDbSpline
 62
7
  6
BYLAYER
 70
0
 71
3
 72
11
 73
7
 74
0
 42
0.0000001
 43
0.0000001
 44
0.0000000001
 40
0.0
 40
0.0
 40
0.0
 40
0.0
 40
0.2349666049
 40
0.4831605051
 40
0.7399247507
 40
1.0
 40
1.0
 40
1.0
 40
1.0
 10
75.1758966544
 20
47.9369076335
 30
0.0
 10
75.004514282
 20
47.8630035394
 30
0.0
 10
74.6413037608
 20
47.7353453894
 30
0.0
 10
74.0667102046
 20
47.6064348726
 30
0.0
 10
73.461855018
 20
47.5376021379
 30
0.0
 10
73.0505003963
 20
47.5332256572
 30
0.0
 10
72.8440888723
 20
47.5416212736
 30
0.0
  0
SPLINE
  5
3C5
100
AcDbEntity
  8
0
100
AcDbSpline
 62
7
  6
BYLAYER
 70
0
 71
3
 72
9
 73
5
 74
0
 42
0.0000001
 43
0.0000001
 44
0.0000000001
 40
0.0
 40
0.0
 40
0.0
 40
0.0
 40
0.4999997701
 40
1.0
 40
1.0
 40
1.0
 40
1.0
 10
75.6454686136
 20
47.4901006752
 30
0.0
 10
75.5416900527
 20
47.4011714047
 30
0.0
 10
75.3173143314
 20
47.2419884607
 30
0.0
 10
75.0672694023
 20
47.1272661751
 30
0.0
 10
74.9383647764
 20
47.0818565213
 30
0.0
  0
SPLINE
  5
3C6
100
AcDbEntity
  8
0
100
AcDbSpline
 62
7
  6
BYLAYER
 70
0
 71
3
 72
10
 73
6
 74
0
 42
0.0000001
 43
0.0000001
 44
0.0000000001
 40
0.0
 40
0.0
 40
0.0
 40
0.0
 40
0.2700490799
 40
0.5264543694
 40
1.0
 40
1.0
 40
1.0
 40
1.0
 10
75.8830004916
 20
48.3451517874
 30
0.0
 10
75.8766931448
 20
48.2650110072
 30
0.0
 10
75.8577754902
 20
48.1091308413
 30
0.0
 10
75.7938827119
 20
47.8182120384
 30
0.0
 10
75.7140230306
 20
47.6132738645
 30
0.0
 10
75.6454686136
 20
47.4901006752
 30
0.0
  0
SPLINE
  5
3C7
100
AcDbEntity
  8
0
100
AcDbSpline
 62
7
  6
BYLAYER
 70
0
 71
3
 72
14
 73
10
 74
0
 42
0.0000001
 43
0.0000001
 44
0.0000000001
 40
0.0
 40
0.0
 40
0.0
 40
0.0
 40
0.2824904844
 40
0.4139751661
 40
0.539431851
 40
0.6596391681
 40
0.7756028632
 40
0.8885750813
 40
1.0
 40
1.0
 40
1.0
 40
1.0
 10
72.8440888723
 20
47.5416212736
 30
0.0
 10
72.8554072966
 20
47.4334505111
 30
0.0
 10
72.8843913793
 20
47.2755319532
 30
0.0
 10
72.9523901081
 20
47.0789678011
 30
0.0
 10
73.0146640316
 20
46.9474305487
 30
0.0
 10
73.089014921
 20
46.8292942197
 30
0.0
 10
73.1749909885
 20
46.7254280339
 30
0.0
 10
73.2719752263
 20
46.6366840073
 30
0.0
 10
73.3437392323
 20
46.587935363
 30
0.0
 10
73.3808921948
 20
46.5664870503
 30
0.0
  0
SPLINE
  5
3C8
100
AcDbEntity
  8
0
100
AcDbSpline
 62
7
  6
BYLAYER
 70
0
 71
3
 72
14
 73
10
 74
0
 42
0.0000001
 43
0.0000001
 44
0.0000000001
 40
0.0
 40
0.0
 40
0.0
 40
0.0
 40
0.1118993239
 40
0.2252812296
 40
0.3415314283
 40
0.4618671759
 40
0.5872771959
 40
0.7185161519
 40
1.0
 40
1.0
 40
1.0
 40
1.0
 10
101.3114937647
 20
101.4759959418
 30
0.0
 10
101.347771078
 20
101.4550531391
 30
0.0
 10
101.4239251093
 20
101.4180508863
 30
0.0
 10
101.5460063246
 20
101.3787932919
 30
0.0
 10
101.6753696023
 20
101.3557976888
 30
0.0
 10
101.8110552333
 20
101.3492178095
 30
0.0
 10
101.9521482075
 20
101.3589882016
 30
0.0
 10
102.1507336843
 20
101.3945040581
 30
0.0
 10
102.2981079272
 20
101.4444741179
 30
0.0
 10
102.3950045842
 20
101.4858753114
 30
0.0
  0
SPLINE
  5
3C9
100
AcDbEntity
  8
0
100
AcDbSpline
 62
7
  6
BYLAYER
 70
0
 71
3
 72
9
 73
5
 74
0
 42
0.0000001
 43
0.0000001
 44
0.0000000001
 40
0.0
 40
0.0
 40
0.0
 40
0.0
 40
0.4843887765
 40
1.0
 40
1.0
 40
1.0
 40
1.0
 10
103.1064982243
 20
103.3363179754
 30
0.0
 10
103.0930628976
 20
103.522539881
 30
0.0
 10
103.0364247393
 20
103.9051736119
 30
0.0
 10
102.9327427917
 20
104.2774115351
 30
0.0
 10
102.8689663463
 20
104.4656410701
 30
0.0
  0
SPLINE
  5
3CA
100
AcDbEntity
  8
0
100
AcDbSpline
 62
7
  6
BYLAYER
 70
0
 71
3
 72
11
 73
7
 74
0
 42
0.0000001
 43
0.0000001
 44
0.0000000001
 40
0.0
 40
0.0
 40
0.0
 40
0.0
 40
0.2603049578
 40
0.5169422207
 40
0.76496604
 40
1.0
 40
1.0
 40
1.0
 40
1.0
 10
100.8439216585
 20
102.9386150691
 30
0.0
 10
101.0445987591
 20
102.932766248
 30
0.0
 10
101.4439846888
 20
102.9409934719
 30
0.0
 10
102.0306715966
 20
103.0121396836
 30
0.0
 10
102.5877520489
 20
103.1399437357
 30
0.0
 10
102.9400433499
 20
103.2645387338
 30
0.0
 10
103.1064982243
 20
103.3363179754
 30
0.0
  0
SPLINE
  5
3CB
100
AcDbEntity
  8
0
100
AcDbSpline
 62
7
  6
BYLAYER
 70
0
 71
3
 72
15
 73
11
 74
0
 42
0.0000001
 43
0.0000001
 44
0.0000000001
 40
0.0
 40
0.0
 40
0.0
 40
0.0
 40
0.1445717972
 40
0.2820275967
 40
0.4127696561
 40
0.5374870268
 40
0.6571713005
 40
0.7731055983
 40
0.8868174083
 40
1.0
 40
1.0
 40
1.0
 40
1.0
 10
103.8136020615
 20
103.7445621293
 30
0.0
 10
103.8731518022
 20
103.7905932339
 30
0.0
 10
103.9855344536
 20
103.88546759
 30
0.0
 10
104.1356904512
 20
104.0397058338
 30
0.0
 10
104.2620008164
 20
104.2011721218
 30
0.0
 10
104.3634062858
 20
104.3686851581
 30
0.0
 10
104.4390152286
 20
104.5410020433
 30
0.0
 10
104.4880907814
 20
104.7167977477
 30
0.0
 10
104.5101187314
 20
104.8945718403
 30
0.0
 10
104.5065993918
 20
105.0131853044
 30
0.0
 10
104.5004141462
 20
105.071784469
 30
0.0
  0
SPLINE
  5
3CC
100
AcDbEntity
  8
0
100
AcDbSpline
 62
7
  6
BYLAYER
 70
0
 71
3
 72
14
 73
10
 74
0
 42
0.0000001
 43
0.0000001
 44
0.0000000001
 40
0.0
 40
0.0
 40
0.0
 40
0.0
 40
0.2815090635
 40
0.4127416006
 40
0.5381403164
 40
0.6584740794
 40
0.7747241695
 40
0.8881034491
 40
1.0
 40
1.0
 40
1.0
 40
1.0
 10
104.4946647174
 20
105.1226741648
 30
0.0
 10
104.4820652273
 20
105.2272985194
 30
0.0
 10
104.4516569549
 20
105.3799219332
 30
0.0
 10
104.3831044735
 20
105.5696565264
 30
0.0
 10
104.321022043
 20
105.6967249286
 30
0.0
 10
104.2474742666
 20
105.8109315486
 30
0.0
 10
104.1628837866
 20
105.9114683887
 30
0.0
 10
104.0678397349
 20
105.9975559065
 30
0.0
 10
103.9977215714
 20
106.045007972
 30
0.0
 10
103.9614451695
 20
106.0659502485
 30
0.0
  0
SPLINE
  5
3CD
100
AcDbEntity
  8
0
100
AcDbSpline
 62
7
  6
BYLAYER
 70
0
 71
3
 72
10
 73
6
 74
0
 42
0.0000001
 43
0.0000001
 44
0.0000000001
 40
0.0
 40
0.0
 40
0.0
 40
0.0
 40
0.4735456306
 40
0.7299509201
 40
1.0
 40
1.0
 40
1.0
 40
1.0
 10
102.8689663463
 20
101.9913654129
 30
0.0
 10
102.9375207634
 20
102.1145386022
 30
0.0
 10
103.0173804446
 20
102.3194767761
 30
0.0
 10
103.081273223
 20
102.610395579
 30
0.0
 10
103.1001908775
 20
102.7662757449
 30
0.0
 10
103.1064982243
 20
102.8464165251
 30
0.0
  0
SPLINE
  5
3CE
100
AcDbEntity
  8
0
100
AcDbSpline
 62
7
  6
BYLAYER
 70
0
 71
3
 72
9
 73
5
 74
0
 42
0.0000001
 43
0.0000001
 44
0.0000000001
 40
0.0
 40
0.0
 40
0.0
 40
0.0
 40
0.5156112235
 40
1.0
 40
1.0
 40
1.0
 40
1.0
 10
103.5760701835
 20
104.873885224
 30
0.0
 10
103.6398466289
 20
104.685655689
 30
0.0
 10
103.7435285765
 20
104.3134177657
 30
0.0
 10
103.8001667348
 20
103.9307840349
 30
0.0
 10
103.8136020615
 20
103.7445621293
 30
0.0
  0
SPLINE
  5
3CF
100
AcDbEntity
  8
0
100
AcDbSpline
 62
7
  6
BYLAYER
 70
0
 71
3
 72
13
 73
9
 74
0
 42
0.0000001
 43
0.0000001
 44
0.0000000001
 40
0.0
 40
0.0
 40
0.0
 40
0.0
 40
0.1120383125
 40
0.2261591872
 40
0.343370213
 40
0.4645405486
 40
0.7211447719
 40
1.0
 40
1.0
 40
1.0
 40
1.0
 10
104.5004005503
 20
104.3368128917
 30
0.0
 10
104.4952351587
 20
104.2879317483
 30
0.0
 10
104.4785764465
 20
104.1898155249
 30
0.0
 10
104.4353929695
 20
104.0451426896
 30
0.0
 10
104.3741348432
 20
103.9027743881
 30
0.0
 10
104.2668678794
 20
103.7135275071
 30
0.0
 10
104.0866334483
 20
103.4864227398
 30
0.0
 10
103.9103949762
 20
103.3294802288
 30
0.0
 10
103.8136020615
 20
103.254660679
 30
0.0
  0
SPLINE
  5
3D0
100
AcDbEntity
  8
0
100
AcDbSpline
 62
7
  6
BYLAYER
 70
0
 71
3
 72
14
 73
10
 74
0
 42
0.0000001
 43
0.0000001
 44
0.0000000001
 40
0.0
 40
0.0
 40
0.0
 40
0.0
 40
0.1096028454
 40
0.2210104038
 40
0.3358823685
 40
0.4556284823
 40
0.5813397437
 40
0.7137751302
 40
1.0
 40
1.0
 40
1.0
 40
1.0
 10
103.9614451695
 20
106.0659502485
 30
0.0
 10
103.9209132156
 20
106.0893492447
 30
0.0
 10
103.8352612236
 20
106.1300753392
 30
0.0
 10
103.6971681712
 20
106.1707609466
 30
0.0
 10
103.5502862382
 20
106.1910444875
 30
0.0
 10
103.3959782913
 20
106.1908180696
 30
0.0
 10
103.2355324689
 20
106.1702116057
 30
0.0
 10
103.0094705056
 20
106.1145046784
 30
0.0
 10
102.8434174123
 20
106.0446135847
 30
0.0
 10
102.7348344888
 20
105.9885110533
 30
0.0
  0
SPLINE
  5
3D1
100
AcDbEntity
  8
0
100
AcDbSpline
 62
7
  6
BYLAYER
 70
0
 71
3
 72
11
 73
7
 74
0
 42
0.0000001
 43
0.0000001
 44
0.0000000001
 40
0.0
 40
0.0
 40
0.0
 40
0.0
 40
0.2349666049
 40
0.4831605051
 40
0.7399247507
 40
1.0
 40
1.0
 40
1.0
 40
1.0
 10
103.1064982243
 20
102.8464165251
 30
0.0
 10
102.935115852
 20
102.772512431
 30
0.0
 10
102.5719053308
 20
102.644854281
 30
0.0
 10
101.9973117745
 20
102.5159437641
 30
0.0
 10
101.3924565879
 20
102.4471110295
 30
0.0
 10
100.9811019663
 20
102.4427345488
 30
0.0
 10
100.7746904423
 20
102.4511301651
 30
0.0
  0
SPLINE
  5
3D2
100
AcDbEntity
  8
0
100
AcDbSpline
 62
7
  6
BYLAYER
 70
0
 71
3
 72
9
 73
5
 74
0
 42
0.0000001
 43
0.0000001
 44
0.0000000001
 40
0.0
 40
0.0
 40
0.0
 40
0.0
 40
0.4999997701
 40
1.0
 40
1.0
 40
1.0
 40
1.0
 10
103.5760701835
 20
102.3996095668
 30
0.0
 10
103.4722916226
 20
102.3106802963
 30
0.0
 10
103.2479159013
 20
102.1514973523
 30
0.0
 10
102.9978709722
 20
102.0367750667
 30
0.0
 10
102.8689663463
 20
101.9913654129
 30
0.0
  0
SPLINE
  5
3D3
100
AcDbEntity
  8
0
100
AcDbSpline
 62
7
  6
BYLAYER
 70
0
 71
3
 72
10
 73
6
 74
0
 42
0.0000001
 43
0.0000001
 44
0.0000000001
 40
0.0
 40
0.0
 40
0.0
 40
0.0
 40
0.2700490799
 40
0.5264543694
 40
1.0
 40
1.0
 40
1.0
 40
1.0
 10
103.8136020615
 20
103.254660679
 30
0.0
 10
103.8072947148
 20
103.1745198988
 30
0.0
 10
103.7883770602
 20
103.0186397329
 30
0.0
 10
103.7244842818
 20
102.72772093
 30
0.0
 10
103.6446246006
 20
102.5227827561
 30
0.0
 10
103.5760701835
 20
102.3996095668
 30
0.0
  0
SPLINE
  5
3D4
100
AcDbEntity
  8
0
100
AcDbSpline
 62
7
  6
BYLAYER
 70
0
 71
3
 72
14
 73
10
 74
0
 42
0.0000001
 43
0.0000001
 44
0.0000000001
 40
0.0
 40
0.0
 40
0.0
 40
0.0
 40
0.2824904844
 40
0.4139751661
 40
0.539431851
 40
0.6596391681
 40
0.7756028632
 40
0.8885750813
 40
1.0
 40
1.0
 40
1.0
 40
1.0
 10
100.7746904423
 20
102.4511301651
 30
0.0
 10
100.7860088666
 20
102.3429594027
 30
0.0
 10
100.8149929492
 20
102.1850408447
 30
0.0
 10
100.8829916781
 20
101.9884766927
 30
0.0
 10
100.9452656016
 20
101.8569394403
 30
0.0
 10
101.0196164909
 20
101.7388031113
 30
0.0
 10
101.1055925584
 20
101.6349369255
 30
0.0
 10
101.2025767963
 20
101.5461928988
 30
0.0
 10
101.2743408022
 20
101.4974442546
 30
0.0
 10
101.3114937647
 20
101.4759959418
 30
0.0
  0
SPLINE
  5
3D5
100
AcDbEntity
  8
0
100
AcDbSpline
 62
7
  6
BYLAYER
 70
0
 71
3
 72
12
 73
8
 74
0
 42
0.0000001
 43
0.0000001
 44
0.0000000001
 40
0.0
 40
0.0
 40
0.0
 40
0.0
 40
0.1115543083
 40
0.2282831895
 40
0.4747737585
 40
0.7342263387
 40
1.0
 40
1.0
 40
1.0
 40
1.0
 10
36.9207991031
 20
27.6884388756
 30
0.0
 10
36.9207991031
 20
27.7631843611
 30
0.0
 10
36.9276519345
 20
27.9162058456
 30
0.0
 10
36.9670382078
 20
28.2321297959
 30
0.0
 10
37.0644363163
 20
28.6393191483
 30
0.0
 10
37.24777612
 20
29.1240302738
 30
0.0
 10
37.4106010467
 20
29.4371003114
 30
0.0
 10
37.5017667441
 20
29.5900729623
 30
0.0
  0
SPLINE
  5
3D6
100
AcDbEntity
  8
0
100
AcDbSpline
 62
7
  6
BYLAYER
 70
0
 71
3
 72
14
 73
10
 74
0
 42
0.0000001
 43
0.0000001
 44
0.0000000001
 40
0.0
 40
0.0
 40
0.0
 40
0.0
 40
0.1118993239
 40
0.2252812296
 40
0.3415314283
 40
0.4618671759
 40
0.5872771959
 40
0.7185161519
 40
1.0
 40
1.0
 40
1.0
 40
1.0
 10
38.0257003341
 20
26.1542793567
 30
0.0
 10
38.0619776474
 20
26.133336554
 30
0.0
 10
38.1381316787
 20
26.0963343012
 30
0.0
 10
38.260212894
 20
26.0570767067
 30
0.0
 10
38.3895761716
 20
26.0340811036
 30
0.0
 10
38.5252618026
 20
26.0275012243
 30
0.0
 10
38.6663547769
 20
26.0372716164
 30
0.0
 10
38.8649402537
 20
26.0727874729
 30
0.0
 10
39.0123144966
 20
26.1227575328
 30
0.0
 10
39.1092111536
 20
26.1641587262
 30
0.0
  0
SPLINE
  5
3D7
100
AcDbEntity
  8
0
100
AcDbSpline
 62
7
  6
BYLAYER
 70
0
 71
3
 72
15
 73
11
 74
0
 42
0.0000001
 43
0.0000001
 44
0.0000000001
 40
0.0
 40
0.0
 40
0.0
 40
0.0
 40
0.1080121026
 40
0.218059937
 40
0.3319969004
 40
0.4513573127
 40
0.5772745889
 40
0.7104904161
 40
0.8514201578
 40
1.0
 40
1.0
 40
1.0
 40
1.0
 10
37.4696481851
 20
26.4753080684
 30
0.0
 10
37.4261987933
 20
26.500390358
 30
0.0
 10
37.3426675277
 20
26.5586850975
 30
0.0
 10
37.2322860874
 20
26.6673054198
 30
0.0
 10
37.137359009
 20
26.7962337738
 30
0.0
 10
37.0587632821
 20
26.944012262
 30
0.0
 10
36.9970986584
 20
27.1091274042
 30
0.0
 10
36.9528497217
 20
27.2899978325
 30
0.0
 10
36.9263665938
 20
27.4848627421
 30
0.0
 10
36.9207991031
 20
27.6194265648
 30
0.0
 10
36.9207991031
 20
27.6884388756
 30
0.0
  0
SPLINE
  5
3D8
100
AcDbEntity
  8
0
100
AcDbSpline
 62
7
  6
BYLAYER
 70
0
 71
3
 72
9
 73
5
 74
0
 42
0.0000001
 43
0.0000001
 44
0.0000000001
 40
0.0
 40
0.0
 40
0.0
 40
0.0
 40
0.4843887765
 40
1.0
 40
1.0
 40
1.0
 40
1.0
 10
39.8207047937
 20
28.0146013902
 30
0.0
 10
39.807269467
 20
28.2008232959
 30
0.0
 10
39.7506313086
 20
28.5834570267
 30
0.0
 10
39.646949361
 20
28.9556949499
 30
0.0
 10
39.5831729157
 20
29.1439244849
 30
0.0
  0
SPLINE
  5
3D9
100
AcDbEntity
  8
0
100
AcDbSpline
 62
7
  6
BYLAYER
 70
0
 71
3
 72
11
 73
7
 74
0
 42
0.0000001
 43
0.0000001
 44
0.0000000001
 40
0.0
 40
0.0
 40
0.0
 40
0.0
 40
0.2600737756
 40
0.5168379342
 40
0.7650325209
 40
1.0
 40
1.0
 40
1.0
 40
1.0
 10
37.4888970116
 20
27.6193150303
 30
0.0
 10
37.695307366
 20
27.6109194615
 30
0.0
 10
38.1066607377
 20
27.6152957767
 30
0.0
 10
38.7115152689
 20
27.6841281162
 30
0.0
 10
39.2861100497
 20
27.8130385431
 30
0.0
 10
39.6493217837
 20
27.9406970212
 30
0.0
 10
39.8207047937
 20
28.0146013902
 30
0.0
  0
SPLINE
  5
3DA
100
AcDbEntity
  8
0
100
AcDbSpline
 62
7
  6
BYLAYER
 70
0
 71
3
 72
15
 73
11
 74
0
 42
0.0000001
 43
0.0000001
 44
0.0000000001
 40
0.0
 40
0.0
 40
0.0
 40
0.0
 40
0.1445717972
 40
0.2820275967
 40
0.4127696561
 40
0.5374870268
 40
0.6571713005
 40
0.7731055983
 40
0.8868174083
 40
1.0
 40
1.0
 40
1.0
 40
1.0
 10
40.5278086309
 20
28.4228455441
 30
0.0
 10
40.5873583716
 20
28.4688766488
 30
0.0
 10
40.699741023
 20
28.5637510048
 30
0.0
 10
40.8498970206
 20
28.7179892486
 30
0.0
 10
40.9762073858
 20
28.8794555366
 30
0.0
 10
41.0776128551
 20
29.0469685729
 30
0.0
 10
41.153221798
 20
29.2192854582
 30
0.0
 10
41.2022973508
 20
29.3950811626
 30
0.0
 10
41.2243253008
 20
29.5728552552
 30
0.0
 10
41.2208059612
 20
29.6914687192
 30
0.0
 10
41.2146207156
 20
29.7500678839
 30
0.0
  0
SPLINE
  5
3DB
100
AcDbEntity
  8
0
100
AcDbSpline
 62
7
  6
BYLAYER
 70
0
 71
3
 72
14
 73
10
 74
0
 42
0.0000001
 43
0.0000001
 44
0.0000000001
 40
0.0
 40
0.0
 40
0.0
 40
0.0
 40
0.2815090635
 40
0.4127416006
 40
0.5381403164
 40
0.6584740794
 40
0.7747241695
 40
0.8881034491
 40
1.0
 40
1.0
 40
1.0
 40
1.0
 10
41.2088712867
 20
29.8009575797
 30
0.0
 10
41.1962717966
 20
29.9055819343
 30
0.0
 10
41.1658635243
 20
30.0582053481
 30
0.0
 10
41.0973110429
 20
30.2479399413
 30
0.0
 10
41.0352286124
 20
30.3750083435
 30
0.0
 10
40.9616808359
 20
30.4892149635
 30
0.0
 10
40.8770903559
 20
30.5897518036
 30
0.0
 10
40.7820463043
 20
30.6758393213
 30
0.0
 10
40.7119281408
 20
30.7232913868
 30
0.0
 10
40.6756517388
 20
30.7442336634
 30
0.0
  0
SPLINE
  5
3DC
100
AcDbEntity
  8
0
100
AcDbSpline
 62
7
  6
BYLAYER
 70
0
 71
3
 72
10
 73
6
 74
0
 42
0.0000001
 43
0.0000001
 44
0.0000000001
 40
0.0
 40
0.0
 40
0.0
 40
0.0
 40
0.4735456306
 40
0.7299509201
 40
1.0
 40
1.0
 40
1.0
 40
1.0
 10
39.5831729157
 20
26.6696488278
 30
0.0
 10
39.6517273327
 20
26.7928220171
 30
0.0
 10
39.731587014
 20
26.9977601909
 30
0.0
 10
39.7954797923
 20
27.2886789938
 30
0.0
 10
39.8143974469
 20
27.4445591597
 30
0.0
 10
39.8207047937
 20
27.5246999399
 30
0.0
  0
SPLINE
  5
3DD
100
AcDbEntity
  8
0
100
AcDbSpline
 62
7
  6
BYLAYER
 70
0
 71
3
 72
9
 73
5
 74
0
 42
0.0000001
 43
0.0000001
 44
0.0000000001
 40
0.0
 40
0.0
 40
0.0
 40
0.0
 40
0.5156112235
 40
1.0
 40
1.0
 40
1.0
 40
1.0
 10
40.2902767529
 20
29.5521686388
 30
0.0
 10
40.3540531982
 20
29.3639391038
 30
0.0
 10
40.4577351459
 20
28.9917011806
 30
0.0
 10
40.5143733042
 20
28.6090674497
 30
0.0
 10
40.5278086309
 20
28.4228455441
 30
0.0
  0
SPLINE
  5
3DE
100
AcDbEntity
  8
0
100
AcDbSpline
 62
7
  6
BYLAYER
 70
0
 71
3
 72
13
 73
9
 74
0
 42
0.0000001
 43
0.0000001
 44
0.0000000001
 40
0.0
 40
0.0
 40
0.0
 40
0.0
 40
0.1120383125
 40
0.2261591872
 40
0.343370213
 40
0.4645405486
 40
0.7211447719
 40
1.0
 40
1.0
 40
1.0
 40
1.0
 10
41.2146071197
 20
29.0150963065
 30
0.0
 10
41.2094417281
 20
28.9662151632
 30
0.0
 10
41.1927830159
 20
28.8680989397
 30
0.0
 10
41.1495995389
 20
28.7234261045
 30
0.0
 10
41.0883414125
 20
28.581057803
 30
0.0
 10
40.9810744488
 20
28.391810922
 30
0.0
 10
40.8008400177
 20
28.1647061546
 30
0.0
 10
40.6246015456
 20
28.0077636436
 30
0.0
 10
40.5278086309
 20
27.9329440938
 30
0.0
  0
SPLINE
  5
3DF
100
AcDbEntity
  8
0
100
AcDbSpline
 62
7
  6
BYLAYER
 70
0
 71
3
 72
14
 73
10
 74
0
 42
0.0000001
 43
0.0000001
 44
0.0000000001
 40
0.0
 40
0.0
 40
0.0
 40
0.0
 40
0.1118658198
 40
0.2252187526
 40
0.3414484244
 40
0.4617749956
 40
0.587188841
 40
0.7184450498
 40
1.0
 40
1.0
 40
1.0
 40
1.0
 10
40.6756517388
 20
30.7442336634
 30
0.0
 10
40.6393124949
 20
30.7652122185
 30
0.0
 10
40.5630211945
 20
30.8022695957
 30
0.0
 10
40.440709357
 20
30.8415528911
 30
0.0
 10
40.3110940166
 20
30.8645174561
 30
0.0
 10
40.1751400914
 20
30.8710096877
 30
0.0
 10
40.0337674387
 20
30.8610960029
 30
0.0
 10
39.8347833743
 20
30.825309672
 30
0.0
 10
39.6871347159
 20
30.7750683064
 30
0.0
 10
39.5900650716
 20
30.7334659826
 30
0.0
  0
SPLINE
  5
3E0
100
AcDbEntity
  8
0
100
AcDbSpline
 62
7
  6
BYLAYER
 70
0
 71
3
 72
15
 73
11
 74
0
 42
0.0000001
 43
0.0000001
 44
0.0000000001
 40
0.0
 40
0.0
 40
0.0
 40
0.0
 40
0.109961172
 40
0.229514292
 40
0.3565635661
 40
0.4883539201
 40
0.6217559637
 40
0.7535208811
 40
0.8805146239
 40
1.0
 40
1.0
 40
1.0
 40
1.0
 10
39.4942620316
 20
30.6895250585
 30
0.0
 10
39.3690070235
 20
30.6283250346
 30
0.0
 10
39.119254692
 20
30.4760320508
 30
0.0
 10
38.770971618
 20
30.1858897711
 30
0.0
 10
38.4434940182
 20
29.8336936699
 30
0.0
 10
38.1485604223
 20
29.4320318472
 30
0.0
 10
37.8966268715
 20
28.9952145315
 30
0.0
 10
37.696717691
 20
28.5388308935
 30
0.0
 10
37.5559644288
 20
28.0793026823
 30
0.0
 10
37.502977408
 20
27.770140646
 30
0.0
 10
37.4888970116
 20
27.6193150303
 30
0.0
  0
SPLINE
  5
3E1
100
AcDbEntity
  8
0
100
AcDbSpline
 62
7
  6
BYLAYER
 70
0
 71
3
 72
11
 73
7
 74
0
 42
0.0000001
 43
0.0000001
 44
0.0000000001
 40
0.0
 40
0.0
 40
0.0
 40
0.0
 40
0.2349666049
 40
0.4831605051
 40
0.7399247507
 40
1.0
 40
1.0
 40
1.0
 40
1.0
 10
39.8207047937
 20
27.5246999399
 30
0.0
 10
39.6493224213
 20
27.4507958458
 30
0.0
 10
39.2861119001
 20
27.3231376958
 30
0.0
 10
38.7115183439
 20
27.194227179
 30
0.0
 10
38.1066631573
 20
27.1253944443
 30
0.0
 10
37.6953085356
 20
27.1210179636
 30
0.0
 10
37.4888970116
 20
27.12941358
 30
0.0
  0
SPLINE
  5
3E2
100
AcDbEntity
  8
0
100
AcDbSpline
 62
7
  6
BYLAYER
 70
0
 71
3
 72
9
 73
5
 74
0
 42
0.0000001
 43
0.0000001
 44
0.0000000001
 40
0.0
 40
0.0
 40
0.0
 40
0.0
 40
0.4999997701
 40
1.0
 40
1.0
 40
1.0
 40
1.0
 10
40.2902767529
 20
27.0778929816
 30
0.0
 10
40.186498192
 20
26.9889637111
 30
0.0
 10
39.9621224707
 20
26.8297807671
 30
0.0
 10
39.7120775416
 20
26.7150584815
 30
0.0
 10
39.5831729157
 20
26.6696488278
 30
0.0
  0
SPLINE
  5
3E3
100
AcDbEntity
  8
0
100
AcDbSpline
 62
7
  6
BYLAYER
 70
0
 71
3
 72
10
 73
6
 74
0
 42
0.0000001
 43
0.0000001
 44
0.0000000001
 40
0.0
 40
0.0
 40
0.0
 40
0.0
 40
0.2700490799
 40
0.5264543694
 40
1.0
 40
1.0
 40
1.0
 40
1.0
 10
40.5278086309
 20
27.9329440938
 30
0.0
 10
40.5215012841
 20
27.8528033136
 30
0.0
 10
40.5025836295
 20
27.6969231477
 30
0.0
 10
40.4386908512
 20
27.4060043448
 30
0.0
 10
40.35883117
 20
27.2010661709
 30
0.0
 10
40.2902767529
 20
27.0778929816
 30
0.0
  0
SPLINE
  5
3E4
100
AcDbEntity
  8
0
100
AcDbSpline
 62
7
  6
BYLAYER
 70
0
 71
3
 72
14
 73
10
 74
0
 42
0.0000001
 43
0.0000001
 44
0.0000000001
 40
0.0
 40
0.0
 40
0.0
 40
0.0
 40
0.2824904844
 40
0.4139751661
 40
0.539431851
 40
0.6596391681
 40
0.7756028632
 40
0.8885750813
 40
1.0
 40
1.0
 40
1.0
 40
1.0
 10
37.4888970116
 20
27.12941358
 30
0.0
 10
37.5002154359
 20
27.0212428175
 30
0.0
 10
37.5291995186
 20
26.8633242596
 30
0.0
 10
37.5971982474
 20
26.6667601076
 30
0.0
 10
37.659472171
 20
26.5352228551
 30
0.0
 10
37.7338230603
 20
26.4170865262
 30
0.0
 10
37.8197991278
 20
26.3132203403
 30
0.0
 10
37.9167833656
 20
26.2244763137
 30
0.0
 10
37.9885473716
 20
26.1757276695
 30
0.0
 10
38.0257003341
 20
26.1542793567
 30
0.0
  0
SPLINE
  5
3E5
100
AcDbEntity
  8
0
100
AcDbSpline
 62
7
  6
BYLAYER
 70
0
 71
3
 72
9
 73
5
 74
0
 42
0.0000001
 43
0.0000001
 44
0.0000000001
 40
0.0
 40
0.0
 40
0.0
 40
0.0
 40
0.2556222336
 40
1.0
 40
1.0
 40
1.0
 40
1.0
 10
37.3450649382
 20
27.4434944229
 30
0.0
 10
37.3450649382
 20
27.4231843587
 30
0.0
 10
37.3460337768
 20
27.3437357469
 30
0.0
 10
37.3509562297
 20
27.2643207411
 30
0.0
 10
37.357111082
 20
27.2054985006
 30
0.0
  0
SPLINE
  5
3E6
100
AcDbEntity
  8
0
100
AcDbSpline
 62
7
  6
BYLAYER
 70
0
 71
3
 72
9
 73
5
 74
0
 42
0.0000001
 43
0.0000001
 44
0.0000000001
 40
0.0
 40
0.0
 40
0.0
 40
0.0
 40
0.2549975815
 40
1.0
 40
1.0
 40
1.0
 40
1.0
 10
37.357111082
 20
27.6953999509
 30
0.0
 10
37.3551181574
 20
27.6740522504
 30
0.0
 10
37.3482215844
 20
27.5902531587
 30
0.0
 10
37.3450649382
 20
27.5061351824
 30
0.0
 10
37.3450649382
 20
27.4434944229
 30
0.0
  0
SPLINE
  5
3E7
100
AcDbEntity
  8
0
100
AcDbSpline
 62
7
  6
BYLAYER
 70
0
 71
3
 72
20
 73
16
 74
0
 42
0.0000001
 43
0.0000001
 44
0.0000000001
 40
0.0
 40
0.0
 40
0.0
 40
0.0
 40
0.1563750851
 40
0.3072374782
 40
0.4496403642
 40
0.5169692353
 40
0.5814070091
 40
0.642829302
 40
0.7012027275
 40
0.7565944148
 40
0.8091922128
 40
0.8593146558
 40
0.9074159141
 40
0.9540815957
 40
1.0
 40
1.0
 40
1.0
 40
1.0
 10
83.44871478
 20
113.8081815031
 30
0.0
 10
83.5367868411
 20
113.939896008
 30
0.0
 10
83.7235130182
 20
114.1898847067
 30
0.0
 10
84.0353229278
 20
114.5233099903
 30
0.0
 10
84.3161471412
 20
114.7588660978
 30
0.0
 10
84.5469091366
 20
114.9139311154
 30
0.0
 10
84.7173907226
 20
115.0105544009
 30
0.0
 10
84.8871090032
 20
115.0888572382
 30
0.0
 10
85.0547002144
 20
115.1481958358
 30
0.0
 10
85.2188287212
 20
115.1880265893
 30
0.0
 10
85.3781736671
 20
115.2079708473
 30
0.0
 10
85.5314349361
 20
115.207778041
 30
0.0
 10
85.6773268286
 20
115.1873110109
 30
0.0
 10
85.8145155928
 20
115.1466849624
 30
0.0
 10
85.8996343593
 20
115.1061664103
 30
0.0
 10
85.9399290099
 20
115.0829052769
 30
0.0
  0
SPLINE
  5
3E8
100
AcDbEntity
  8
0
100
AcDbSpline
 62
7
  6
BYLAYER
 70
0
 71
3
 72
14
 73
10
 74
0
 42
0.0000001
 43
0.0000001
 44
0.0000000001
 40
0.0
 40
0.0
 40
0.0
 40
0.0
 40
0.1118993239
 40
0.2252812296
 40
0.3415314283
 40
0.4618671759
 40
0.5872771959
 40
0.7185161519
 40
1.0
 40
1.0
 40
1.0
 40
1.0
 10
83.8460289856
 20
110.1719209352
 30
0.0
 10
83.8823062989
 20
110.1509781325
 30
0.0
 10
83.9584603301
 20
110.1139758797
 30
0.0
 10
84.0805415454
 20
110.0747182853
 30
0.0
 10
84.2099048231
 20
110.0517226821
 30
0.0
 10
84.3455904541
 20
110.0451428028
 30
0.0
 10
84.4866834283
 20
110.0549131949
 30
0.0
 10
84.6852689051
 20
110.0904290515
 30
0.0
 10
84.832643148
 20
110.1403991113
 30
0.0
 10
84.929539805
 20
110.1818003047
 30
0.0
  0
SPLINE
  5
3E9
100
AcDbEntity
  8
0
100
AcDbSpline
 62
7
  6
BYLAYER
 70
0
 71
3
 72
9
 73
5
 74
0
 42
0.0000001
 43
0.0000001
 44
0.0000000001
 40
0.0
 40
0.0
 40
0.0
 40
0.0
 40
0.4843887765
 40
1.0
 40
1.0
 40
1.0
 40
1.0
 10
85.6410334451
 20
112.0322429687
 30
0.0
 10
85.6275981184
 20
112.2184648744
 30
0.0
 10
85.5709599601
 20
112.6010986052
 30
0.0
 10
85.4672780125
 20
112.9733365285
 30
0.0
 10
85.4035015671
 20
113.1615660634
 30
0.0
  0
SPLINE
  5
3EA
100
AcDbEntity
  8
0
100
AcDbSpline
 62
7
  6
BYLAYER
 70
0
 71
3
 72
11
 73
7
 74
0
 42
0.0000001
 43
0.0000001
 44
0.0000000001
 40
0.0
 40
0.0
 40
0.0
 40
0.0
 40
0.2600737756
 40
0.5168379342
 40
0.7650325209
 40
1.0
 40
1.0
 40
1.0
 40
1.0
 10
83.3092256631
 20
111.6369566088
 30
0.0
 10
83.5156360174
 20
111.62856104
 30
0.0
 10
83.9269893892
 20
111.6329373552
 30
0.0
 10
84.5318439204
 20
111.7017696947
 30
0.0
 10
85.1064387012
 20
111.8306801216
 30
0.0
 10
85.4696504352
 20
111.9583385997
 30
0.0
 10
85.6410334451
 20
112.0322429687
 30
0.0
  0
SPLINE
  5
3EB
100
AcDbEntity
  8
0
100
AcDbSpline
 62
7
  6
BYLAYER
 70
0
 71
3
 72
15
 73
11
 74
0
 42
0.0000001
 43
0.0000001
 44
0.0000000001
 40
0.0
 40
0.0
 40
0.0
 40
0.0
 40
0.1445717972
 40
0.2820275967
 40
0.4127696561
 40
0.5374870268
 40
0.6571713005
 40
0.7731055983
 40
0.8868174083
 40
1.0
 40
1.0
 40
1.0
 40
1.0
 10
86.3481372824
 20
112.4404871226
 30
0.0
 10
86.407687023
 20
112.4865182273
 30
0.0
 10
86.5200696745
 20
112.5813925833
 30
0.0
 10
86.670225672
 20
112.7356308271
 30
0.0
 10
86.7965360373
 20
112.8970971151
 30
0.0
 10
86.8979415066
 20
113.0646101514
 30
0.0
 10
86.9735504494
 20
113.2369270367
 30
0.0
 10
87.0226260022
 20
113.4127227411
 30
0.0
 10
87.0446539522
 20
113.5904968337
 30
0.0
 10
87.0411346126
 20
113.7091102978
 30
0.0
 10
87.0349493671
 20
113.7677094624
 30
0.0
  0
SPLINE
  5
3EC
100
AcDbEntity
  8
0
100
AcDbSpline
 62
7
  6
BYLAYER
 70
0
 71
3
 72
14
 73
10
 74
0
 42
0.0000001
 43
0.0000001
 44
0.0000000001
 40
0.0
 40
0.0
 40
0.0
 40
0.0
 40
0.2815090635
 40
0.4127416006
 40
0.5381403164
 40
0.6584740794
 40
0.7747241695
 40
0.8881034491
 40
1.0
 40
1.0
 40
1.0
 40
1.0
 10
87.0291999382
 20
113.8185991582
 30
0.0
 10
87.0166004481
 20
113.9232235128
 30
0.0
 10
86.9861921757
 20
114.0758469266
 30
0.0
 10
86.9176396943
 20
114.2655815198
 30
0.0
 10
86.8555572639
 20
114.392649922
 30
0.0
 10
86.7820094874
 20
114.506856542
 30
0.0
 10
86.6974190074
 20
114.6073933821
 30
0.0
 10
86.6023749557
 20
114.6934808998
 30
0.0
 10
86.5322567922
 20
114.7409329653
 30
0.0
 10
86.4959803903
 20
114.7618752419
 30
0.0
  0
SPLINE
  5
3ED
100
AcDbEntity
  8
0
100
AcDbSpline
 62
7
  6
BYLAYER
 70
0
 71
3
 72
10
 73
6
 74
0
 42
0.0000001
 43
0.0000001
 44
0.0000000001
 40
0.0
 40
0.0
 40
0.0
 40
0.0
 40
0.4735456306
 40
0.7299509201
 40
1.0
 40
1.0
 40
1.0
 40
1.0
 10
85.4035015671
 20
110.6872904063
 30
0.0
 10
85.4720559842
 20
110.8104635956
 30
0.0
 10
85.5519156654
 20
111.0154017694
 30
0.0
 10
85.6158084438
 20
111.3063205723
 30
0.0
 10
85.6347260984
 20
111.4622007382
 30
0.0
 10
85.6410334451
 20
111.5423415185
 30
0.0
  0
SPLINE
  5
3EE
100
AcDbEntity
  8
0
100
AcDbSpline
 62
7
  6
BYLAYER
 70
0
 71
3
 72
9
 73
5
 74
0
 42
0.0000001
 43
0.0000001
 44
0.0000000001
 40
0.0
 40
0.0
 40
0.0
 40
0.0
 40
0.5156112235
 40
1.0
 40
1.0
 40
1.0
 40
1.0
 10
86.1106054044
 20
113.5698102173
 30
0.0
 10
86.1743818497
 20
113.3815806823
 30
0.0
 10
86.2780637973
 20
113.0093427591
 30
0.0
 10
86.3347019556
 20
112.6267090282
 30
0.0
 10
86.3481372824
 20
112.4404871226
 30
0.0
  0
SPLINE
  5
3EF
100
AcDbEntity
  8
0
100
AcDbSpline
 62
7
  6
BYLAYER
 70
0
 71
3
 72
13
 73
9
 74
0
 42
0.0000001
 43
0.0000001
 44
0.0000000001
 40
0.0
 40
0.0
 40
0.0
 40
0.0
 40
0.1120383125
 40
0.2261591872
 40
0.343370213
 40
0.4645405486
 40
0.7211447719
 40
1.0
 40
1.0
 40
1.0
 40
1.0
 10
87.0349357712
 20
113.0327378851
 30
0.0
 10
87.0297703795
 20
112.9838567417
 30
0.0
 10
87.0131116673
 20
112.8857405182
 30
0.0
 10
86.9699281903
 20
112.741067683
 30
0.0
 10
86.908670064
 20
112.5986993815
 30
0.0
 10
86.8014031002
 20
112.4094525005
 30
0.0
 10
86.6211686692
 20
112.1823477332
 30
0.0
 10
86.444930197
 20
112.0254052221
 30
0.0
 10
86.3481372824
 20
111.9505856723
 30
0.0
  0
SPLINE
  5
3F0
100
AcDbEntity
  8
0
100
AcDbSpline
 62
7
  6
BYLAYER
 70
0
 71
3
 72
25
 73
21
 74
0
 42
0.0000001
 43
0.0000001
 44
0.0000000001
 40
0.0
 40
0.0
 40
0.0
 40
0.0
 40
0.0213185639
 40
0.0428441642
 40
0.0647740561
 40
0.0872870997
 40
0.1345962667
 40
0.1857369612
 40
0.2411555489
 40
0.3009059312
 40
0.3647266111
 40
0.4321125358
 40
0.5023758921
 40
0.5746972711
 40
0.6481703877
 40
0.7218420967
 40
0.7947526801
 40
0.86596911
 40
0.9346370915
 40
1.0
 40
1.0
 40
1.0
 40
1.0
 10
86.4959803903
 20
114.7618752419
 30
0.0
 10
86.46499358
 20
114.7797638504
 30
0.0
 10
86.4004620636
 20
114.8119568319
 30
0.0
 10
86.2978124068
 20
114.8484881728
 30
0.0
 10
86.1896352401
 20
114.8732199478
 30
0.0
 10
86.0363514994
 20
114.8905997655
 30
0.0
 10
85.8321026318
 20
114.8808087261
 30
0.0
 10
85.5795402909
 20
114.8216929644
 30
0.0
 10
85.3198480908
 20
114.7168082623
 30
0.0
 10
85.0578192785
 20
114.56838565
 30
0.0
 10
84.7982519965
 20
114.3793580232
 30
0.0
 10
84.5460319287
 20
114.153367504
 30
0.0
 10
84.3059615516
 20
113.8947613095
 30
0.0
 10
84.082653933
 20
113.6085241415
 30
0.0
 10
83.8804215292
 20
113.3001868921
 30
0.0
 10
83.7031739707
 20
112.9757153869
 30
0.0
 10
83.5543501324
 20
112.6413950386
 30
0.0
 10
83.4368134501
 20
112.3036702962
 30
0.0
 10
83.3528615722
 20
111.9691117373
 30
0.0
 10
83.3194224942
 20
111.7461824634
 30
0.0
 10
83.3092256631
 20
111.6369566088
 30
0.0
  0
SPLINE
  5
3F1
100
AcDbEntity
  8
0
100
AcDbSpline
 62
7
  6
BYLAYER
 70
0
 71
3
 72
11
 73
7
 74
0
 42
0.0000001
 43
0.0000001
 44
0.0000000001
 40
0.0
 40
0.0
 40
0.0
 40
0.0
 40
0.2349666049
 40
0.4831605051
 40
0.7399247507
 40
1.0
 40
1.0
 40
1.0
 40
1.0
 10
85.6410334451
 20
111.5423415185
 30
0.0
 10
85.4696510728
 20
111.4684374243
 30
0.0
 10
85.1064405516
 20
111.3407792743
 30
0.0
 10
84.5318469954
 20
111.2118687575
 30
0.0
 10
83.9269918088
 20
111.1430360228
 30
0.0
 10
83.5156371871
 20
111.1386595422
 30
0.0
 10
83.3092256631
 20
111.1470551585
 30
0.0
  0
SPLINE
  5
3F2
100
AcDbEntity
  8
0
100
AcDbSpline
 62
7
  6
BYLAYER
 70
0
 71
3
 72
9
 73
5
 74
0
 42
0.0000001
 43
0.0000001
 44
0.0000000001
 40
0.0
 40
0.0
 40
0.0
 40
0.0
 40
0.4999997701
 40
1.0
 40
1.0
 40
1.0
 40
1.0
 10
86.1106054044
 20
111.0955345602
 30
0.0
 10
86.0068268434
 20
111.0066052896
 30
0.0
 10
85.7824511221
 20
110.8474223456
 30
0.0
 10
85.532406193
 20
110.73270006
 30
0.0
 10
85.4035015671
 20
110.6872904063
 30
0.0
  0
SPLINE
  5
3F3
100
AcDbEntity
  8
0
100
AcDbSpline
 62
7
  6
BYLAYER
 70
0
 71
3
 72
10
 73
6
 74
0
 42
0.0000001
 43
0.0000001
 44
0.0000000001
 40
0.0
 40
0.0
 40
0.0
 40
0.0
 40
0.2700490799
 40
0.5264543694
 40
1.0
 40
1.0
 40
1.0
 40
1.0
 10
86.3481372824
 20
111.9505856723
 30
0.0
 10
86.3418299356
 20
111.8704448921
 30
0.0
 10
86.322912281
 20
111.7145647262
 30
0.0
 10
86.2590195026
 20
111.4236459233
 30
0.0
 10
86.1791598214
 20
111.2187077494
 30
0.0
 10
86.1106054044
 20
111.0955345602
 30
0.0
  0
SPLINE
  5
3F4
100
AcDbEntity
  8
0
100
AcDbSpline
 62
7
  6
BYLAYER
 70
0
 71
3
 72
14
 73
10
 74
0
 42
0.0000001
 43
0.0000001
 44
0.0000000001
 40
0.0
 40
0.0
 40
0.0
 40
0.0
 40
0.2824904844
 40
0.4139751661
 40
0.539431851
 40
0.6596391681
 40
0.7756028632
 40
0.8885750813
 40
1.0
 40
1.0
 40
1.0
 40
1.0
 10
83.3092256631
 20
111.1470551585
 30
0.0
 10
83.3205440874
 20
111.0388843961
 30
0.0
 10
83.34952817
 20
110.8809658381
 30
0.0
 10
83.4175268989
 20
110.6844016861
 30
0.0
 10
83.4798008224
 20
110.5528644336
 30
0.0
 10
83.5541517118
 20
110.4347281047
 30
0.0
 10
83.6401277792
 20
110.3308619188
 30
0.0
 10
83.7371120171
 20
110.2421178922
 30
0.0
 10
83.8088760231
 20
110.193369248
 30
0.0
 10
83.8460289856
 20
110.1719209352
 30
0.0
  0
SPLINE
  5
3F5
100
AcDbEntity
  8
0
100
AcDbSpline
 62
7
  6
BYLAYER
 70
0
 71
3
 72
25
 73
21
 74
0
 42
0.0000001
 43
0.0000001
 44
0.0000000001
 40
0.0
 40
0.0
 40
0.0
 40
0.0
 40
0.0623833394
 40
0.1287224647
 40
0.1983152332
 40
0.2702914448
 40
0.3436694037
 40
0.4174020212
 40
0.4904270711
 40
0.5617141324
 40
0.6303109073
 40
0.695397526
 40
0.7563446584
 40
0.8127820214
 40
0.8646827661
 40
0.9124576856
 40
0.9351022678
 40
0.9571076053
 40
0.9786679612
 40
1.0
 40
1.0
 40
1.0
 40
1.0
 10
36.9207991031
 20
81.1693471976
 30
0.0
 10
36.9207991031
 20
81.2792853819
 30
0.0
 10
36.9356927615
 20
81.5062844855
 30
0.0
 10
36.9969792129
 20
81.8509517701
 30
0.0
 10
37.0966188727
 20
82.2041243489
 30
0.0
 10
37.2324809616
 20
82.5582508017
 30
0.0
 10
37.4016745059
 20
82.905825062
 30
0.0
 10
37.6005908444
 20
83.2394310212
 30
0.0
 10
37.824986101
 20
83.5519515139
 30
0.0
 10
38.0700788294
 20
83.83672433
 30
0.0
 10
38.3306673192
 20
84.0876960327
 30
0.0
 10
38.6012704622
 20
84.2995473442
 30
0.0
 10
38.8762622782
 20
84.4677926181
 30
0.0
 10
39.150088881
 20
84.5888028128
 30
0.0
 10
39.4171972946
 20
84.6598005044
 30
0.0
 10
39.6338380544
 20
84.675706157
 30
0.0
 10
39.7963207803
 20
84.6604579922
 30
0.0
 10
39.9107189919
 20
84.6360605784
 30
0.0
 10
40.0190793361
 20
84.5986042
 30
0.0
 10
40.0870424192
 20
84.5649669363
 30
0.0
 10
40.1196003585
 20
84.5461720204
 30
0.0
  0
SPLINE
  5
3F6
100
AcDbEntity
  8
0
100
AcDbSpline
 62
7
  6
BYLAYER
 70
0
 71
3
 72
14
 73
10
 74
0
 42
0.0000001
 43
0.0000001
 44
0.0000000001
 40
0.0
 40
0.0
 40
0.0
 40
0.0
 40
0.1118993239
 40
0.2252812296
 40
0.3415314283
 40
0.4618671759
 40
0.5872771959
 40
0.7185161519
 40
1.0
 40
1.0
 40
1.0
 40
1.0
 10
38.0257003341
 20
79.6351876787
 30
0.0
 10
38.0619776474
 20
79.614244876
 30
0.0
 10
38.1381316787
 20
79.5772426232
 30
0.0
 10
38.260212894
 20
79.5379850287
 30
0.0
 10
38.3895761716
 20
79.5149894256
 30
0.0
 10
38.5252618026
 20
79.5084095463
 30
0.0
 10
38.6663547769
 20
79.5181799384
 30
0.0
 10
38.8649402537
 20
79.5536957949
 30
0.0
 10
39.0123144966
 20
79.6036658548
 30
0.0
 10
39.1092111536
 20
79.6450670482
 30
0.0
  0
SPLINE
  5
3F7
100
AcDbEntity
  8
0
100
AcDbSpline
 62
7
  6
BYLAYER
 70
0
 71
3
 72
15
 73
11
 74
0
 42
0.0000001
 43
0.0000001
 44
0.0000000001
 40
0.0
 40
0.0
 40
0.0
 40
0.0
 40
0.1080121026
 40
0.218059937
 40
0.3319969004
 40
0.4513573127
 40
0.5772745889
 40
0.7104904161
 40
0.8514201578
 40
1.0
 40
1.0
 40
1.0
 40
1.0
 10
37.4696481851
 20
79.9562163904
 30
0.0
 10
37.4261987933
 20
79.98129868
 30
0.0
 10
37.3426675277
 20
80.0395934195
 30
0.0
 10
37.2322860874
 20
80.1482137418
 30
0.0
 10
37.137359009
 20
80.2771420957
 30
0.0
 10
37.0587632821
 20
80.4249205839
 30
0.0
 10
36.9970986584
 20
80.5900357262
 30
0.0
 10
36.9528497217
 20
80.7709061544
 30
0.0
 10
36.9263665938
 20
80.9657710641
 30
0.0
 10
36.9207991031
 20
81.1003348868
 30
0.0
 10
36.9207991031
 20
81.1693471976
 30
0.0
  0
SPLINE
  5
3F8
100
AcDbEntity
  8
0
100
AcDbSpline
 62
7
  6
BYLAYER
 70
0
 71
3
 72
9
 73
5
 74
0
 42
0.0000001
 43
0.0000001
 44
0.0000000001
 40
0.0
 40
0.0
 40
0.0
 40
0.0
 40
0.4843887765
 40
1.0
 40
1.0
 40
1.0
 40
1.0
 10
39.8207047937
 20
81.4955097122
 30
0.0
 10
39.807269467
 20
81.6817316179
 30
0.0
 10
39.7506313086
 20
82.0643653487
 30
0.0
 10
39.646949361
 20
82.4366032719
 30
0.0
 10
39.5831729157
 20
82.6248328069
 30
0.0
  0
SPLINE
  5
3F9
100
AcDbEntity
  8
0
100
AcDbSpline
 62
7
  6
BYLAYER
 70
0
 71
3
 72
11
 73
7
 74
0
 42
0.0000001
 43
0.0000001
 44
0.0000000001
 40
0.0
 40
0.0
 40
0.0
 40
0.0
 40
0.2600737756
 40
0.5168379342
 40
0.7650325209
 40
1.0
 40
1.0
 40
1.0
 40
1.0
 10
37.4888970116
 20
81.1002233523
 30
0.0
 10
37.695307366
 20
81.0918277835
 30
0.0
 10
38.1066607377
 20
81.0962040987
 30
0.0
 10
38.7115152689
 20
81.1650364382
 30
0.0
 10
39.2861100497
 20
81.2939468651
 30
0.0
 10
39.6493217837
 20
81.4216053431
 30
0.0
 10
39.8207047937
 20
81.4955097122
 30
0.0
  0
SPLINE
  5
3FA
100
AcDbEntity
  8
0
100
AcDbSpline
 62
7
  6
BYLAYER
 70
0
 71
3
 72
15
 73
11
 74
0
 42
0.0000001
 43
0.0000001
 44
0.0000000001
 40
0.0
 40
0.0
 40
0.0
 40
0.0
 40
0.1445717972
 40
0.2820275967
 40
0.4127696561
 40
0.5374870268
 40
0.6571713005
 40
0.7731055983
 40
0.8868174083
 40
1.0
 40
1.0
 40
1.0
 40
1.0
 10
40.5278086309
 20
81.9037538661
 30
0.0
 10
40.5873583716
 20
81.9497849708
 30
0.0
 10
40.699741023
 20
82.0446593268
 30
0.0
 10
40.8498970206
 20
82.1988975706
 30
0.0
 10
40.9762073858
 20
82.3603638586
 30
0.0
 10
41.0776128551
 20
82.5278768949
 30
0.0
 10
41.153221798
 20
82.7001937802
 30
0.0
 10
41.2022973508
 20
82.8759894845
 30
0.0
 10
41.2243253008
 20
83.0537635772
 30
0.0
 10
41.2208059612
 20
83.1723770412
 30
0.0
 10
41.2146207156
 20
83.2309762058
 30
0.0
  0
SPLINE
  5
3FB
100
AcDbEntity
  8
0
100
AcDbSpline
 62
7
  6
BYLAYER
 70
0
 71
3
 72
14
 73
10
 74
0
 42
0.0000001
 43
0.0000001
 44
0.0000000001
 40
0.0
 40
0.0
 40
0.0
 40
0.0
 40
0.2815090635
 40
0.4127416006
 40
0.5381403164
 40
0.6584740794
 40
0.7747241695
 40
0.8881034491
 40
1.0
 40
1.0
 40
1.0
 40
1.0
 10
41.2088712867
 20
83.2818659017
 30
0.0
 10
41.1962717966
 20
83.3864902562
 30
0.0
 10
41.1658635243
 20
83.5391136701
 30
0.0
 10
41.0973110429
 20
83.7288482633
 30
0.0
 10
41.0352286124
 20
83.8559166655
 30
0.0
 10
40.9616808359
 20
83.9701232855
 30
0.0
 10
40.8770903559
 20
84.0706601256
 30
0.0
 10
40.7820463043
 20
84.1567476433
 30
0.0
 10
40.7119281408
 20
84.2041997088
 30
0.0
 10
40.6756517388
 20
84.2251419854
 30
0.0
  0
SPLINE
  5
3FC
100
AcDbEntity
  8
0
100
AcDbSpline
 62
7
  6
BYLAYER
 70
0
 71
3
 72
10
 73
6
 74
0
 42
0.0000001
 43
0.0000001
 44
0.0000000001
 40
0.0
 40
0.0
 40
0.0
 40
0.0
 40
0.4735456306
 40
0.7299509201
 40
1.0
 40
1.0
 40
1.0
 40
1.0
 10
39.5831729157
 20
80.1505571498
 30
0.0
 10
39.6517273327
 20
80.273730339
 30
0.0
 10
39.731587014
 20
80.4786685129
 30
0.0
 10
39.7954797923
 20
80.7695873158
 30
0.0
 10
39.8143974469
 20
80.9254674817
 30
0.0
 10
39.8207047937
 20
81.0056082619
 30
0.0
  0
SPLINE
  5
3FD
100
AcDbEntity
  8
0
100
AcDbSpline
 62
7
  6
BYLAYER
 70
0
 71
3
 72
9
 73
5
 74
0
 42
0.0000001
 43
0.0000001
 44
0.0000000001
 40
0.0
 40
0.0
 40
0.0
 40
0.0
 40
0.5156112235
 40
1.0
 40
1.0
 40
1.0
 40
1.0
 10
40.2902767529
 20
83.0330769608
 30
0.0
 10
40.3540531982
 20
82.8448474258
 30
0.0
 10
40.4577351459
 20
82.4726095026
 30
0.0
 10
40.5143733042
 20
82.0899757717
 30
0.0
 10
40.5278086309
 20
81.9037538661
 30
0.0
  0
SPLINE
  5
3FE
100
AcDbEntity
  8
0
100
AcDbSpline
 62
7
  6
BYLAYER
 70
0
 71
3
 72
13
 73
9
 74
0
 42
0.0000001
 43
0.0000001
 44
0.0000000001
 40
0.0
 40
0.0
 40
0.0
 40
0.0
 40
0.1120383125
 40
0.2261591872
 40
0.343370213
 40
0.4645405486
 40
0.7211447719
 40
1.0
 40
1.0
 40
1.0
 40
1.0
 10
41.2146071197
 20
82.4960046285
 30
0.0
 10
41.2094417281
 20
82.4471234852
 30
0.0
 10
41.1927830159
 20
82.3490072617
 30
0.0
 10
41.1495995389
 20
82.2043344265
 30
0.0
 10
41.0883414125
 20
82.061966125
 30
0.0
 10
40.9810744488
 20
81.8727192439
 30
0.0
 10
40.8008400177
 20
81.6456144766
 30
0.0
 10
40.6246015456
 20
81.4886719656
 30
0.0
 10
40.5278086309
 20
81.4138524158
 30
0.0
  0
SPLINE
  5
3FF
100
AcDbEntity
  8
0
100
AcDbSpline
 62
7
  6
BYLAYER
 70
0
 71
3
 72
25
 73
21
 74
0
 42
0.0000001
 43
0.0000001
 44
0.0000000001
 40
0.0
 40
0.0
 40
0.0
 40
0.0
 40
0.0213185639
 40
0.0428441642
 40
0.0647740561
 40
0.0872870997
 40
0.1345962667
 40
0.1857369612
 40
0.2411555489
 40
0.3009059312
 40
0.3647266111
 40
0.4321125358
 40
0.5023758921
 40
0.5746972711
 40
0.6481703877
 40
0.7218420967
 40
0.7947526801
 40
0.86596911
 40
0.9346370915
 40
1.0
 40
1.0
 40
1.0
 40
1.0
 10
40.6756517388
 20
84.2251419854
 30
0.0
 10
40.6446649286
 20
84.2430305938
 30
0.0
 10
40.5801334122
 20
84.2752235754
 30
0.0
 10
40.4774837554
 20
84.3117549163
 30
0.0
 10
40.3693065886
 20
84.3364866913
 30
0.0
 10
40.216022848
 20
84.3538665089
 30
0.0
 10
40.0117739804
 20
84.3440754695
 30
0.0
 10
39.7592116394
 20
84.2849597078
 30
0.0
 10
39.4995194393
 20
84.1800750058
 30
0.0
 10
39.237490627
 20
84.0316523935
 30
0.0
 10
38.9779233451
 20
83.8426247667
 30
0.0
 10
38.7257032772
 20
83.6166342475
 30
0.0
 10
38.4856329001
 20
83.358028053
 30
0.0
 10
38.2623252816
 20
83.071790885
 30
0.0
 10
38.0600928777
 20
82.7634536355
 30
0.0
 10
37.8828453193
 20
82.4389821304
 30
0.0
 10
37.7340214809
 20
82.1046617821
 30
0.0
 10
37.6164847987
 20
81.7669370397
 30
0.0
 10
37.5325329207
 20
81.4323784808
 30
0.0
 10
37.4990938427
 20
81.2094492068
 30
0.0
 10
37.4888970116
 20
81.1002233523
 30
0.0
  0
SPLINE
  5
400
100
AcDbEntity
  8
0
100
AcDbSpline
 62
7
  6
BYLAYER
 70
0
 71
3
 72
11
 73
7
 74
0
 42
0.0000001
 43
0.0000001
 44
0.0000000001
 40
0.0
 40
0.0
 40
0.0
 40
0.0
 40
0.2349666049
 40
0.4831605051
 40
0.7399247507
 40
1.0
 40
1.0
 40
1.0
 40
1.0
 10
39.8207047937
 20
81.0056082619
 30
0.0
 10
39.6493224213
 20
80.9317041678
 30
0.0
 10
39.2861119001
 20
80.8040460178
 30
0.0
 10
38.7115183439
 20
80.675135501
 30
0.0
 10
38.1066631573
 20
80.6063027663
 30
0.0
 10
37.6953085356
 20
80.6019262856
 30
0.0
 10
37.4888970116
 20
80.610321902
 30
0.0
  0
SPLINE
  5
401
100
AcDbEntity
  8
0
100
AcDbSpline
 62
7
  6
BYLAYER
 70
0
 71
3
 72
9
 73
5
 74
0
 42
0.0000001
 43
0.0000001
 44
0.0000000001
 40
0.0
 40
0.0
 40
0.0
 40
0.0
 40
0.4999997701
 40
1.0
 40
1.0
 40
1.0
 40
1.0
 10
40.2902767529
 20
80.5588013036
 30
0.0
 10
40.186498192
 20
80.4698720331
 30
0.0
 10
39.9621224707
 20
80.3106890891
 30
0.0
 10
39.7120775416
 20
80.1959668035
 30
0.0
 10
39.5831729157
 20
80.1505571498
 30
0.0
  0
SPLINE
  5
402
100
AcDbEntity
  8
0
100
AcDbSpline
 62
7
  6
BYLAYER
 70
0
 71
3
 72
10
 73
6
 74
0
 42
0.0000001
 43
0.0000001
 44
0.0000000001
 40
0.0
 40
0.0
 40
0.0
 40
0.0
 40
0.2700490799
 40
0.5264543694
 40
1.0
 40
1.0
 40
1.0
 40
1.0
 10
40.5278086309
 20
81.4138524158
 30
0.0
 10
40.5215012841
 20
81.3337116356
 30
0.0
 10
40.5025836295
 20
81.1778314697
 30
0.0
 10
40.4386908512
 20
80.8869126668
 30
0.0
 10
40.35883117
 20
80.6819744929
 30
0.0
 10
40.2902767529
 20
80.5588013036
 30
0.0
  0
SPLINE
  5
403
100
AcDbEntity
  8
0
100
AcDbSpline
 62
7
  6
BYLAYER
 70
0
 71
3
 72
14
 73
10
 74
0
 42
0.0000001
 43
0.0000001
 44
0.0000000001
 40
0.0
 40
0.0
 40
0.0
 40
0.0
 40
0.2824904844
 40
0.4139751661
 40
0.539431851
 40
0.6596391681
 40
0.7756028632
 40
0.8885750813
 40
1.0
 40
1.0
 40
1.0
 40
1.0
 10
37.4888970116
 20
80.610321902
 30
0.0
 10
37.5002154359
 20
80.5021511395
 30
0.0
 10
37.5291995186
 20
80.3442325816
 30
0.0
 10
37.5971982474
 20
80.1476684295
 30
0.0
 10
37.659472171
 20
80.0161311771
 30
0.0
 10
37.7338230603
 20
79.8979948481
 30
0.0
 10
37.8197991278
 20
79.7941286623
 30
0.0
 10
37.9167833656
 20
79.7053846357
 30
0.0
 10
37.9885473716
 20
79.6566359915
 30
0.0
 10
38.0257003341
 20
79.6351876787
 30
0.0
  0
SPLINE
  5
404
100
AcDbEntity
  8
0
100
AcDbSpline
 62
7
  6
BYLAYER
 70
0
 71
3
 72
9
 73
5
 74
0
 42
0.0000001
 43
0.0000001
 44
0.0000000001
 40
0.0
 40
0.0
 40
0.0
 40
0.0
 40
0.2556222336
 40
1.0
 40
1.0
 40
1.0
 40
1.0
 10
37.3450649382
 20
80.9244027449
 30
0.0
 10
37.3450649382
 20
80.9040926807
 30
0.0
 10
37.3460337768
 20
80.8246440688
 30
0.0
 10
37.3509562297
 20
80.7452290631
 30
0.0
 10
37.357111082
 20
80.6864068226
 30
0.0
  0
SPLINE
  5
405
100
AcDbEntity
  8
0
100
AcDbSpline
 62
7
  6
BYLAYER
 70
0
 71
3
 72
9
 73
5
 74
0
 42
0.0000001
 43
0.0000001
 44
0.0000000001
 40
0.0
 40
0.0
 40
0.0
 40
0.0
 40
0.2549975815
 40
1.0
 40
1.0
 40
1.0
 40
1.0
 10
37.357111082
 20
81.1763082729
 30
0.0
 10
37.3551181574
 20
81.1549605724
 30
0.0
 10
37.3482215844
 20
81.0711614807
 30
0.0
 10
37.3450649382
 20
80.9870435044
 30
0.0
 10
37.3450649382
 20
80.9244027449
 30
0.0
  0
SPLINE
  5
406
100
AcDbEntity
  8
0
100
AcDbSpline
 62
7
  6
BYLAYER
 70
0
 71
3
 72
9
 73
5
 74
0
 42
0.0000001
 43
0.0000001
 44
0.0000000001
 40
0.0
 40
0.0
 40
0.0
 40
0.0
 40
0.2494000527
 40
1.0
 40
1.0
 40
1.0
 40
1.0
 10
90.2193511938
 20
153.3743439862
 30
0.0
 10
90.2274525508
 20
153.3387250545
 30
0.0
 10
90.2601085502
 20
153.1959462794
 30
0.0
 10
90.2935579153
 20
153.0533459956
 30
0.0
 10
90.3194971244
 20
152.9465125755
 30
0.0
  0
SPLINE
  5
407
100
AcDbEntity
  8
0
100
AcDbSpline
 62
7
  6
BYLAYER
 70
0
 71
3
 72
9
 73
5
 74
0
 42
0.0000001
 43
0.0000001
 44
0.0000000001
 40
0.0
 40
0.0
 40
0.0
 40
0.0
 40
0.2377467811
 40
1.0
 40
1.0
 40
1.0
 40
1.0
 10
89.50213595
 20
153.8607453132
 30
0.0
 10
89.5543035298
 20
153.8566867376
 30
0.0
 10
89.7730154895
 20
153.830603968
 30
0.0
 10
89.9869689855
 20
153.7703932064
 30
0.0
 10
90.1438973932
 20
153.711081893
 30
0.0
  0
SPLINE
  5
408
100
AcDbEntity
  8
0
100
AcDbSpline
 62
7
  6
BYLAYER
 70
0
 71
3
 72
9
 73
5
 74
0
 42
0.0000001
 43
0.0000001
 44
0.0000000001
 40
0.0
 40
0.0
 40
0.0
 40
0.0
 40
0.2505562875
 40
1.0
 40
1.0
 40
1.0
 40
1.0
 10
91.3737773537
 20
153.0240814173
 30
0.0
 10
91.3815774575
 20
153.0567163714
 30
0.0
 10
91.4124395332
 20
153.1870306979
 30
0.0
 10
91.4424112634
 20
153.317554493
 30
0.0
 10
91.4645808401
 20
153.4154398475
 30
0.0
  0
SPLINE
  5
409
100
AcDbEntity
  8
0
100
AcDbSpline
 62
7
  6
BYLAYER
 70
0
 71
3
 72
12
 73
8
 74
0
 42
0.0000001
 43
0.0000001
 44
0.0000000001
 40
0.0
 40
0.0
 40
0.0
 40
0.0
 40
0.2906860191
 40
0.5530033761
 40
0.78735338
 40
0.8958624182
 40
1.0
 40
1.0
 40
1.0
 40
1.0
 10
89.259687007
 20
154.0252863945
 30
0.0
 10
89.1261004684
 20
153.9681346077
 30
0.0
 10
88.8789582446
 20
153.8412069621
 30
0.0
 10
88.5640223032
 20
153.6014293006
 30
0.0
 10
88.3671449586
 20
153.367034152
 30
0.0
 10
88.262690551
 20
153.1687193088
 30
0.0
 10
88.2279309135
 20
153.0677004572
 30
0.0
 10
88.2151626796
 20
153.017237842
 30
0.0
  0
SPLINE
  5
40A
100
AcDbEntity
  8
0
100
AcDbSpline
 62
7
  6
BYLAYER
 70
0
 71
3
 72
11
 73
7
 74
0
 42
0.0000001
 43
0.0000001
 44
0.0000000001
 40
0.0
 40
0.0
 40
0.0
 40
0.0
 40
0.2290150475
 40
0.4700745561
 40
0.7264406442
 40
1.0
 40
1.0
 40
1.0
 40
1.0
 10
92.7035562543
 20
153.8191067043
 30
0.0
 10
92.615152012
 20
153.8416565916
 30
0.0
 10
92.428915514
 20
153.8706066954
 30
0.0
 10
92.1383602451
 20
153.8654273221
 30
0.0
 10
91.8346577855
 20
153.8130956776
 30
0.0
 10
91.6326472418
 20
153.749615176
 30
0.0
 10
91.5307052004
 20
153.7110852265
 30
0.0
  0
SPLINE
  5
40B
100
AcDbEntity
  8
0
100
AcDbSpline
 62
7
  6
BYLAYER
 70
0
 71
3
 72
9
 73
5
 74
0
 42
0.0000001
 43
0.0000001
 44
0.0000000001
 40
0.0
 40
0.0
 40
0.0
 40
0.0
 40
0.4875077226
 40
1.0
 40
1.0
 40
1.0
 40
1.0
 10
90.5681654694
 20
153.1553659709
 30
0.0
 10
90.4059261701
 20
153.0293491458
 30
0.0
 10
90.0895654606
 20
152.7492877437
 30
0.0
 10
89.8062120536
 20
152.4362360206
 30
0.0
 10
89.6694930033
 20
152.2690647737
 30
0.0
  0
SPLINE
  5
40C
100
AcDbEntity
  8
0
100
AcDbSpline
 62
7
  6
BYLAYER
 70
0
 71
3
 72
9
 73
5
 74
0
 42
0.0000001
 43
0.0000001
 44
0.0000000001
 40
0.0
 40
0.0
 40
0.0
 40
0.0
 40
0.5000363841
 40
1.0
 40
1.0
 40
1.0
 40
1.0
 10
91.1064451392
 20
153.1553672648
 30
0.0
 10
91.0183864698
 20
153.1356338455
 30
0.0
 10
90.8372985269
 20
153.116901553
 30
0.0
 10
90.6562114279
 20
153.1356358871
 30
0.0
 10
90.5681654694
 20
153.1553659709
 30
0.0
  0
SPLINE
  5
40D
100
AcDbEntity
  8
0
100
AcDbSpline
 62
7
  6
BYLAYER
 70
0
 71
3
 72
9
 73
5
 74
0
 42
0.0000001
 43
0.0000001
 44
0.0000000001
 40
0.0
 40
0.0
 40
0.0
 40
0.0
 40
0.2425594715
 40
1.0
 40
1.0
 40
1.0
 40
1.0
 10
91.1064451392
 20
153.1553672648
 30
0.0
 10
91.1622040984
 20
153.1120579985
 30
0.0
 10
91.3880922335
 20
152.9283981122
 30
0.0
 10
91.5981830559
 20
152.7255618413
 30
0.0
 10
91.7482065824
 20
152.5640051652
 30
0.0
  0
SPLINE
  5
40E
100
AcDbEntity
  8
0
100
AcDbSpline
 62
7
  6
BYLAYER
 70
0
 71
3
 72
9
 73
5
 74
0
 42
0.0000001
 43
0.0000001
 44
0.0000000001
 40
0.0
 40
0.0
 40
0.0
 40
0.0
 40
0.2508051503
 40
1.0
 40
1.0
 40
1.0
 40
1.0
 10
91.5307074415
 20
153.4003137571
 30
0.0
 10
91.521033406
 20
153.3677508716
 30
0.0
 10
91.4822562525
 20
153.2379792041
 30
0.0
 10
91.4425450866
 20
153.1084812785
 30
0.0
 10
91.4117643889
 20
153.0117900727
 30
0.0
  0
SPLINE
  5
40F
100
AcDbEntity
  8
0
100
AcDbSpline
 62
7
  6
BYLAYER
 70
0
 71
3
 72
9
 73
5
 74
0
 42
0.0000001
 43
0.0000001
 44
0.0000000001
 40
0.0
 40
0.0
 40
0.0
 40
0.0
 40
0.2487005055
 40
1.0
 40
1.0
 40
1.0
 40
1.0
 10
90.2919926122
 20
152.9213977825
 30
0.0
 10
90.2790732373
 20
152.9608961995
 30
0.0
 10
90.2280659821
 20
153.120023065
 30
0.0
 10
90.179651812
 20
153.2799674601
 30
0.0
 10
90.1438996343
 20
153.4003104236
 30
0.0
  0
SPLINE
  5
410
100
AcDbEntity
  8
0
100
AcDbSpline
 62
7
  6
BYLAYER
 70
0
 71
3
 72
11
 73
7
 74
0
 42
0.0000001
 43
0.0000001
 44
0.0000000001
 40
0.0
 40
0.0
 40
0.0
 40
0.0
 40
0.2214632643
 40
0.4593670235
 40
0.7182764729
 40
1.0
 40
1.0
 40
1.0
 40
1.0
 10
93.4545338161
 20
153.0358503567
 30
0.0
 10
93.4333759551
 20
153.1128231019
 30
0.0
 10
93.3688937091
 20
153.2672930938
 30
0.0
 10
93.2186019608
 20
153.4801317262
 30
0.0
 10
93.0163316717
 20
153.6765740088
 30
0.0
 10
92.8565479282
 20
153.7894614313
 30
0.0
 10
92.7700733352
 20
153.842699669
 30
0.0
  0
SPLINE
  5
411
100
AcDbEntity
  8
0
100
AcDbSpline
 62
7
  6
BYLAYER
 70
0
 71
3
 72
9
 73
5
 74
0
 42
0.0000001
 43
0.0000001
 44
0.0000000001
 40
0.0
 40
0.0
 40
0.0
 40
0.0
 40
0.2493306732
 40
1.0
 40
1.0
 40
1.0
 40
1.0
 10
91.1064393653
 20
153.9560296792
 30
0.0
 10
91.0937897083
 20
153.8988440543
 30
0.0
 10
91.042771166
 20
153.6695515648
 30
0.0
 10
90.9905024003
 20
153.4405281439
 30
0.0
 10
90.9495115186
 20
153.26902587
 30
0.0
  0
SPLINE
  5
412
100
AcDbEntity
  8
0
100
AcDbSpline
 62
7
  6
BYLAYER
 70
0
 71
3
 72
9
 73
5
 74
0
 42
0.0000001
 43
0.0000001
 44
0.0000000001
 40
0.0
 40
0.0
 40
0.0
 40
0.0
 40
0.2581154612
 40
1.0
 40
1.0
 40
1.0
 40
1.0
 10
90.9495115186
 20
153.26902587
 30
0.0
 10
90.9659390128
 20
153.2670421408
 30
0.0
 10
91.0293433164
 20
153.2575962455
 30
0.0
 10
91.0918285019
 20
153.2412142705
 30
0.0
 10
91.1363451325
 20
153.2244758359
 30
0.0
  0
SPLINE
  5
413
100
AcDbEntity
  8
0
100
AcDbSpline
 62
7
  6
BYLAYER
 70
0
 71
3
 72
11
 73
7
 74
0
 42
0.0000001
 43
0.0000001
 44
0.0000000001
 40
0.0
 40
0.0
 40
0.0
 40
0.0
 40
0.2899049337
 40
0.552995559
 40
0.7886009954
 40
1.0
 40
1.0
 40
1.0
 40
1.0
 10
91.1363451325
 20
153.2244758359
 30
0.0
 10
91.1652403795
 20
153.2136111052
 30
0.0
 10
91.2190851148
 20
153.1891415857
 30
0.0
 10
91.2891299283
 20
153.1419757478
 30
0.0
 10
91.342365245
 20
153.0874158862
 30
0.0
 10
91.3661095559
 20
153.0452459106
 30
0.0
 10
91.3737773537
 20
153.0240814173
 30
0.0
  0
SPLINE
  5
414
100
AcDbEntity
  8
0
100
AcDbSpline
 62
7
  6
BYLAYER
 70
0
 71
3
 72
9
 73
5
 74
0
 42
0.0000001
 43
0.0000001
 44
0.0000000001
 40
0.0
 40
0.0
 40
0.0
 40
0.0
 40
0.2445233586
 40
1.0
 40
1.0
 40
1.0
 40
1.0
 10
92.5369917246
 20
153.9406169694
 30
0.0
 10
92.5191313208
 20
153.9509284451
 30
0.0
 10
92.4455155051
 20
153.992099335
 30
0.0
 10
92.3697206519
 20
154.0293448762
 30
0.0
 10
92.3115787973
 20
154.055411086
 30
0.0
  0
SPLINE
  5
415
100
AcDbEntity
  8
0
100
AcDbSpline
 62
7
  6
BYLAYER
 70
0
 71
3
 72
9
 73
5
 74
0
 42
0.0000001
 43
0.0000001
 44
0.0000000001
 40
0.0
 40
0.0
 40
0.0
 40
0.0
 40
0.2454548372
 40
1.0
 40
1.0
 40
1.0
 40
1.0
 10
92.6878993492
 20
153.844963838
 30
0.0
 10
92.6759016424
 20
153.8533199919
 30
0.0
 10
92.626641797
 20
153.8868153965
 30
0.0
 10
92.5759162691
 20
153.9181450332
 30
0.0
 10
92.5369917246
 20
153.9406169694
 30
0.0
  0
SPLINE
  5
416
100
AcDbEntity
  8
0
100
AcDbSpline
 62
7
  6
BYLAYER
 70
0
 71
3
 72
9
 73
5
 74
0
 42
0.0000001
 43
0.0000001
 44
0.0000000001
 40
0.0
 40
0.0
 40
0.0
 40
0.0
 40
0.2379441331
 40
1.0
 40
1.0
 40
1.0
 40
1.0
 10
92.1724688847
 20
152.8089516575
 30
0.0
 10
92.1393898661
 20
152.7885611843
 30
0.0
 10
91.9996946946
 20
152.7039632082
 30
0.0
 10
91.857529286
 20
152.6234749872
 30
0.0
 10
91.7482065824
 20
152.5640051652
 30
0.0
  0
SPLINE
  5
417
100
AcDbEntity
  8
0
100
AcDbSpline
 62
7
  6
BYLAYER
 70
0
 71
3
 72
9
 73
5
 74
0
 42
0.0000001
 43
0.0000001
 44
0.0000000001
 40
0.0
 40
0.0
 40
0.0
 40
0.0
 40
0.2425582917
 40
1.0
 40
1.0
 40
1.0
 40
1.0
 10
91.5307074415
 20
153.4003137571
 30
0.0
 10
91.5864661301
 20
153.357004701
 30
0.0
 10
91.8123545221
 20
153.1733451245
 30
0.0
 10
92.0224451229
 20
152.970508587
 30
0.0
 10
92.1724688847
 20
152.8089516575
 30
0.0
  0
SPLINE
  5
418
100
AcDbEntity
  8
0
100
AcDbSpline
 62
7
  6
BYLAYER
 70
0
 71
3
 72
11
 73
7
 74
0
 42
0.0000001
 43
0.0000001
 44
0.0000000001
 40
0.0
 40
0.0
 40
0.0
 40
0.0
 40
0.2626459699
 40
0.511375355
 40
0.7539174086
 40
1.0
 40
1.0
 40
1.0
 40
1.0
 10
91.5307052004
 20
153.7110852265
 30
0.0
 10
91.5428237494
 20
153.6930597511
 30
0.0
 10
91.5632132765
 20
153.6556122744
 30
0.0
 10
91.5804872474
 20
153.5951286509
 30
0.0
 10
91.5826432911
 20
153.5335843306
 30
0.0
 10
91.5740783627
 20
153.4936364667
 30
0.0
 10
91.5676201385
 20
153.4743377423
 30
0.0
  0
SPLINE
  5
419
100
AcDbEntity
  8
0
100
AcDbSpline
 62
7
  6
BYLAYER
 70
0
 71
3
 72
9
 73
5
 74
0
 42
0.0000001
 43
0.0000001
 44
0.0000000001
 40
0.0
 40
0.0
 40
0.0
 40
0.0
 40
0.2377545413
 40
1.0
 40
1.0
 40
1.0
 40
1.0
 10
89.9263982524
 20
154.1056918055
 30
0.0
 10
89.9785675397
 20
154.1016330971
 30
0.0
 10
90.1972795819
 20
154.0755506763
 30
0.0
 10
90.411232871
 20
154.0153391004
 30
0.0
 10
90.5681596956
 20
153.9560283854
 30
0.0
  0
SPLINE
  5
41A
100
AcDbEntity
  8
0
100
AcDbSpline
 62
7
  6
BYLAYER
 70
0
 71
3
 72
9
 73
5
 74
0
 42
0.0000001
 43
0.0000001
 44
0.0000000001
 40
0.0
 40
0.0
 40
0.0
 40
0.0
 40
0.2473863895
 40
1.0
 40
1.0
 40
1.0
 40
1.0
 10
89.50213595
 20
153.8607453132
 30
0.0
 10
89.5347109888
 20
153.8847146488
 30
0.0
 10
89.669089602
 20
153.9778948583
 30
0.0
 10
89.8138629116
 20
154.0559483412
 30
0.0
 10
89.9263982524
 20
154.1056918056
 30
0.0
  0
SPLINE
  5
41B
100
AcDbEntity
  8
0
100
AcDbSpline
 62
7
  6
BYLAYER
 70
0
 71
3
 72
9
 73
5
 74
0
 42
0.0000001
 43
0.0000001
 44
0.0000000001
 40
0.0
 40
0.0
 40
0.0
 40
0.0
 40
0.512961968
 40
1.0
 40
1.0
 40
1.0
 40
1.0
 10
89.2011687353
 20
152.4595307221
 30
0.0
 10
89.3436555627
 20
152.6376765735
 30
0.0
 10
89.6398865556
 20
152.9706822893
 30
0.0
 10
89.9728468048
 20
153.2674478275
 30
0.0
 10
90.1438996343
 20
153.4003104236
 30
0.0
  0
SPLINE
  5
41C
100
AcDbEntity
  8
0
100
AcDbSpline
 62
7
  6
BYLAYER
 70
0
 71
3
 72
11
 73
7
 74
0
 42
0.0000001
 43
0.0000001
 44
0.0000000001
 40
0.0
 40
0.0
 40
0.0
 40
0.0
 40
0.2741637279
 40
0.5305136483
 40
0.7712922971
 40
1.0
 40
1.0
 40
1.0
 40
1.0
 10
91.1064393653
 20
153.9560296792
 30
0.0
 10
91.2114538154
 20
153.9957208743
 30
0.0
 10
91.4194541512
 20
154.0607877668
 30
0.0
 10
91.7321830926
 20
154.1125000338
 30
0.0
 10
92.0307278025
 20
154.1141628516
 30
0.0
 10
92.2214014052
 20
154.0806827292
 30
0.0
 10
92.3115787973
 20
154.055411086
 30
0.0
  0
SPLINE
  5
41D
100
AcDbEntity
  8
0
100
AcDbSpline
 62
7
  6
BYLAYER
 70
0
 71
3
 72
9
 73
5
 74
0
 42
0.0000001
 43
0.0000001
 44
0.0000000001
 40
0.0
 40
0.0
 40
0.0
 40
0.0
 40
0.4999997431
 40
1.0
 40
1.0
 40
1.0
 40
1.0
 10
90.5681596956
 20
153.9560283854
 30
0.0
 10
90.6562120464
 20
153.9757603886
 30
0.0
 10
90.837299394
 20
153.9945017373
 30
0.0
 10
91.0183868201
 20
153.975761239
 30
0.0
 10
91.1064393653
 20
153.9560296792
 30
0.0
  0
SPLINE
  5
41E
100
AcDbEntity
  8
0
100
AcDbSpline
 62
7
  6
BYLAYER
 70
0
 71
3
 72
9
 73
5
 74
0
 42
0.0000001
 43
0.0000001
 44
0.0000000001
 40
0.0
 40
0.0
 40
0.0
 40
0.0
 40
0.5013280972
 40
1.0
 40
1.0
 40
1.0
 40
1.0
 10
90.7576986398
 20
153.1344379001
 30
0.0
 10
90.7240131377
 20
153.2712559175
 30
0.0
 10
90.6599011379
 20
153.5449225303
 30
0.0
 10
90.5984314711
 20
153.8191792874
 30
0.0
 10
90.5681596956
 20
153.9560283854
 30
0.0
  0
SPLINE
  5
41F
100
AcDbEntity
  8
0
100
AcDbSpline
 62
7
  6
BYLAYER
 70
0
 71
3
 72
11
 73
7
 74
0
 42
0.0000001
 43
0.0000001
 44
0.0000000001
 40
0.0
 40
0.0
 40
0.0
 40
0.0
 40
0.2460746161
 40
0.4886168313
 40
0.7373526693
 40
1.0
 40
1.0
 40
1.0
 40
1.0
 10
90.1069842739
 20
153.4743376952
 30
0.0
 10
90.10052637
 20
153.4936354741
 30
0.0
 10
90.0919621589
 20
153.5335820534
 30
0.0
 10
90.0941168984
 20
153.5951252631
 30
0.0
 10
90.1113907398
 20
153.6556085398
 30
0.0
 10
90.1317791892
 20
153.6930564858
 30
0.0
 10
90.1438973932
 20
153.711081893
 30
0.0
  0
SPLINE
  5
420
100
AcDbEntity
  8
0
100
AcDbSpline
 62
7
  6
BYLAYER
 70
0
 71
3
 72
9
 73
5
 74
0
 42
0.0000001
 43
0.0000001
 44
0.0000000001
 40
0.0
 40
0.0
 40
0.0
 40
0.0
 40
0.2494000527
 40
1.0
 40
1.0
 40
1.0
 40
1.0
 10
107.1899845973
 20
143.5765658777
 30
0.0
 10
107.1980859544
 20
143.540946946
 30
0.0
 10
107.2307419537
 20
143.398168171
 30
0.0
 10
107.2641913189
 20
143.2555678871
 30
0.0
 10
107.2901305279
 20
143.148734467
 30
0.0
  0
SPLINE
  5
421
100
AcDbEntity
  8
0
100
AcDbSpline
 62
7
  6
BYLAYER
 70
0
 71
3
 72
9
 73
5
 74
0
 42
0.0000001
 43
0.0000001
 44
0.0000000001
 40
0.0
 40
0.0
 40
0.0
 40
0.0
 40
0.2377467811
 40
1.0
 40
1.0
 40
1.0
 40
1.0
 10
106.4727693536
 20
144.0629672047
 30
0.0
 10
106.5249369334
 20
144.0589086291
 30
0.0
 10
106.7436488931
 20
144.0328258595
 30
0.0
 10
106.957602389
 20
143.9726150979
 30
0.0
 10
107.1145307968
 20
143.9133037845
 30
0.0
  0
SPLINE
  5
422
100
AcDbEntity
  8
0
100
AcDbSpline
 62
7
  6
BYLAYER
 70
0
 71
3
 72
9
 73
5
 74
0
 42
0.0000001
 43
0.0000001
 44
0.0000000001
 40
0.0
 40
0.0
 40
0.0
 40
0.0
 40
0.2505562875
 40
1.0
 40
1.0
 40
1.0
 40
1.0
 10
108.3444107572
 20
143.2263033088
 30
0.0
 10
108.352210861
 20
143.2589382629
 30
0.0
 10
108.3830729367
 20
143.3892525894
 30
0.0
 10
108.4130446669
 20
143.5197763845
 30
0.0
 10
108.4352142436
 20
143.6176617391
 30
0.0
  0
SPLINE
  5
423
100
AcDbEntity
  8
0
100
AcDbSpline
 62
7
  6
BYLAYER
 70
0
 71
3
 72
12
 73
8
 74
0
 42
0.0000001
 43
0.0000001
 44
0.0000000001
 40
0.0
 40
0.0
 40
0.0
 40
0.0
 40
0.2909176925
 40
0.5532596374
 40
0.7874750808
 40
0.8959083848
 40
1.0
 40
1.0
 40
1.0
 40
1.0
 10
106.2303204105
 20
144.227508286
 30
0.0
 10
106.0959831918
 20
144.1700353388
 30
0.0
 10
105.8475686555
 20
144.0423328589
 30
0.0
 10
105.5314235158
 20
143.8008351578
 30
0.0
 10
105.3344477851
 20
143.5646346548
 30
0.0
 10
105.2306591155
 20
143.3648816619
 30
0.0
 10
105.1964690933
 20
143.2631799198
 30
0.0
 10
105.184038538
 20
143.2123985745
 30
0.0
  0
SPLINE
  5
424
100
AcDbEntity
  8
0
100
AcDbSpline
 62
7
  6
BYLAYER
 70
0
 71
3
 72
11
 73
7
 74
0
 42
0.0000001
 43
0.0000001
 44
0.0000000001
 40
0.0
 40
0.0
 40
0.0
 40
0.0
 40
0.2290150475
 40
0.4700745561
 40
0.7264406442
 40
1.0
 40
1.0
 40
1.0
 40
1.0
 10
109.6741896578
 20
144.0213285959
 30
0.0
 10
109.5857854156
 20
144.0438784831
 30
0.0
 10
109.3995489176
 20
144.0728285869
 30
0.0
 10
109.1089936486
 20
144.0676492136
 30
0.0
 10
108.8052911891
 20
144.0153175691
 30
0.0
 10
108.6032806454
 20
143.9518370675
 30
0.0
 10
108.5013386039
 20
143.913307118
 30
0.0
  0
SPLINE
  5
425
100
AcDbEntity
  8
0
100
AcDbSpline
 62
7
  6
BYLAYER
 70
0
 71
3
 72
9
 73
5
 74
0
 42
0.0000001
 43
0.0000001
 44
0.0000000001
 40
0.0
 40
0.0
 40
0.0
 40
0.0
 40
0.487548818
 40
1.0
 40
1.0
 40
1.0
 40
1.0
 10
107.5387988729
 20
143.3575878624
 30
0.0
 10
107.3774340186
 20
143.2322502487
 30
0.0
 10
107.0627183503
 20
142.9538364059
 30
0.0
 10
106.7806555026
 20
142.6427444045
 30
0.0
 10
106.6445162941
 20
142.4766484282
 30
0.0
  0
SPLINE
  5
426
100
AcDbEntity
  8
0
100
AcDbSpline
 62
7
  6
BYLAYER
 70
0
 71
3
 72
9
 73
5
 74
0
 42
0.0000001
 43
0.0000001
 44
0.0000000001
 40
0.0
 40
0.0
 40
0.0
 40
0.0
 40
0.5000363841
 40
1.0
 40
1.0
 40
1.0
 40
1.0
 10
108.0770785427
 20
143.3575891563
 30
0.0
 10
107.9890198733
 20
143.3378557371
 30
0.0
 10
107.8079319305
 20
143.3191234445
 30
0.0
 10
107.6268448314
 20
143.3378577787
 30
0.0
 10
107.5387988729
 20
143.3575878624
 30
0.0
  0
SPLINE
  5
427
100
AcDbEntity
  8
0
100
AcDbSpline
 62
7
  6
BYLAYER
 70
0
 71
3
 72
9
 73
5
 74
0
 42
0.0000001
 43
0.0000001
 44
0.0000000001
 40
0.0
 40
0.0
 40
0.0
 40
0.0
 40
0.2425594715
 40
1.0
 40
1.0
 40
1.0
 40
1.0
 10
108.0770785427
 20
143.3575891563
 30
0.0
 10
108.1328375019
 20
143.31427989
 30
0.0
 10
108.3587256371
 20
143.1306200037
 30
0.0
 10
108.5688164594
 20
142.9277837328
 30
0.0
 10
108.7188399859
 20
142.7662270567
 30
0.0
  0
SPLINE
  5
428
100
AcDbEntity
  8
0
100
AcDbSpline
 62
7
  6
BYLAYER
 70
0
 71
3
 72
9
 73
5
 74
0
 42
0.0000001
 43
0.0000001
 44
0.0000000001
 40
0.0
 40
0.0
 40
0.0
 40
0.0
 40
0.2508051503
 40
1.0
 40
1.0
 40
1.0
 40
1.0
 10
108.501340845
 20
143.6025356486
 30
0.0
 10
108.4916668095
 20
143.5699727631
 30
0.0
 10
108.452889656
 20
143.4402010956
 30
0.0
 10
108.4131784901
 20
143.31070317
 30
0.0
 10
108.3823977925
 20
143.2140119642
 30
0.0
  0
SPLINE
  5
429
100
AcDbEntity
  8
0
100
AcDbSpline
 62
7
  6
BYLAYER
 70
0
 71
3
 72
9
 73
5
 74
0
 42
0.0000001
 43
0.0000001
 44
0.0000000001
 40
0.0
 40
0.0
 40
0.0
 40
0.0
 40
0.2487005055
 40
1.0
 40
1.0
 40
1.0
 40
1.0
 10
107.2626260158
 20
143.123619674
 30
0.0
 10
107.2497066408
 20
143.163118091
 30
0.0
 10
107.1986993856
 20
143.3222449565
 30
0.0
 10
107.1502852156
 20
143.4821893516
 30
0.0
 10
107.1145330378
 20
143.6025323151
 30
0.0
  0
SPLINE
  5
42A
100
AcDbEntity
  8
0
100
AcDbSpline
 62
7
  6
BYLAYER
 70
0
 71
3
 72
12
 73
8
 74
0
 42
0.0000001
 43
0.0000001
 44
0.0000000001
 40
0.0
 40
0.0
 40
0.0
 40
0.0
 40
0.1090944872
 40
0.2200864812
 40
0.4538501306
 40
0.7122081188
 40
1.0
 40
1.0
 40
1.0
 40
1.0
 10
110.4579347313
 20
142.9982172144
 30
0.0
 10
110.4579313277
 20
143.046332222
 30
0.0
 10
110.4499086855
 20
143.1435840617
 30
0.0
 10
110.4015350284
 20
143.338572596
 30
0.0
 10
110.2773250156
 20
143.5783282855
 30
0.0
 10
110.0446369175
 20
143.8354174328
 30
0.0
 10
109.848792849
 20
143.9783781535
 30
0.0
 10
109.7407067387
 20
144.0449215606
 30
0.0
  0
SPLINE
  5
42B
100
AcDbEntity
  8
0
100
AcDbSpline
 62
7
  6
BYLAYER
 70
0
 71
3
 72
15
 73
11
 74
0
 42
0.0000001
 43
0.0000001
 44
0.0000000001
 40
0.0
 40
0.0
 40
0.0
 40
0.0
 40
0.0948361497
 40
0.1945069748
 40
0.3027362624
 40
0.4216513565
 40
0.5518644281
 40
0.6927737262
 40
0.8428712949
 40
1.0
 40
1.0
 40
1.0
 40
1.0
 10
110.4579330342
 20
142.0184143187
 30
0.0
 10
110.4579311842
 20
141.9339991535
 30
0.0
 10
110.4324134628
 20
141.7599737578
 30
0.0
 10
110.3210881554
 20
141.5114801658
 30
0.0
 10
110.1419626297
 20
141.2793883294
 30
0.0
 10
109.9011704401
 20
141.0690340119
 30
0.0
 10
109.6053730837
 20
140.8848907221
 30
0.0
 10
109.2622623391
 20
140.7312701085
 30
0.0
 10
108.880799545
 20
140.6119705859
 30
0.0
 10
108.6120884781
 20
140.5582799196
 30
0.0
 10
108.4737711919
 20
140.5375454114
 30
0.0
  0
SPLINE
  5
42C
100
AcDbEntity
  8
0
100
AcDbSpline
 62
7
  6
BYLAYER
 70
0
 71
3
 72
9
 73
5
 74
0
 42
0.0000001
 43
0.0000001
 44
0.0000000001
 40
0.0
 40
0.0
 40
0.0
 40
0.0
 40
0.2493306732
 40
1.0
 40
1.0
 40
1.0
 40
1.0
 10
108.0770727689
 20
144.1582515707
 30
0.0
 10
108.0644231119
 20
144.1010659458
 30
0.0
 10
108.0134045695
 20
143.8717734563
 30
0.0
 10
107.9611358038
 20
143.6427500354
 30
0.0
 10
107.9201449221
 20
143.4712477615
 30
0.0
  0
SPLINE
  5
42D
100
AcDbEntity
  8
0
100
AcDbSpline
 62
7
  6
BYLAYER
 70
0
 71
3
 72
9
 73
5
 74
0
 42
0.0000001
 43
0.0000001
 44
0.0000000001
 40
0.0
 40
0.0
 40
0.0
 40
0.0
 40
0.2581154612
 40
1.0
 40
1.0
 40
1.0
 40
1.0
 10
107.9201449221
 20
143.4712477615
 30
0.0
 10
107.9365724164
 20
143.4692640324
 30
0.0
 10
107.9999767199
 20
143.459818137
 30
0.0
 10
108.0624619055
 20
143.443436162
 30
0.0
 10
108.1069785361
 20
143.4266977274
 30
0.0
  0
SPLINE
  5
42E
100
AcDbEntity
  8
0
100
AcDbSpline
 62
7
  6
BYLAYER
 70
0
 71
3
 72
11
 73
7
 74
0
 42
0.0000001
 43
0.0000001
 44
0.0000000001
 40
0.0
 40
0.0
 40
0.0
 40
0.0
 40
0.2899049337
 40
0.552995559
 40
0.7886009954
 40
1.0
 40
1.0
 40
1.0
 40
1.0
 10
108.1069785361
 20
143.4266977274
 30
0.0
 10
108.135873783
 20
143.4158329967
 30
0.0
 10
108.1897185184
 20
143.3913634772
 30
0.0
 10
108.2597633318
 20
143.3441976393
 30
0.0
 10
108.3129986486
 20
143.2896377777
 30
0.0
 10
108.3367429595
 20
143.2474678021
 30
0.0
 10
108.3444107572
 20
143.2263033088
 30
0.0
  0
SPLINE
  5
42F
100
AcDbEntity
  8
0
100
AcDbSpline
 62
7
  6
BYLAYER
 70
0
 71
3
 72
9
 73
5
 74
0
 42
0.0000001
 43
0.0000001
 44
0.0000000001
 40
0.0
 40
0.0
 40
0.0
 40
0.0
 40
0.2445233586
 40
1.0
 40
1.0
 40
1.0
 40
1.0
 10
109.5076251281
 20
144.142838861
 30
0.0
 10
109.4897647244
 20
144.1531503366
 30
0.0
 10
109.4161489087
 20
144.1943212266
 30
0.0
 10
109.3403540554
 20
144.2315667677
 30
0.0
 10
109.2822122008
 20
144.2576329775
 30
0.0
  0
SPLINE
  5
430
100
AcDbEntity
  8
0
100
AcDbSpline
 62
7
  6
BYLAYER
 70
0
 71
3
 72
9
 73
5
 74
0
 42
0.0000001
 43
0.0000001
 44
0.0000000001
 40
0.0
 40
0.0
 40
0.0
 40
0.0
 40
0.2454548372
 40
1.0
 40
1.0
 40
1.0
 40
1.0
 10
109.6585327528
 20
144.0471857295
 30
0.0
 10
109.646535046
 20
144.0555418834
 30
0.0
 10
109.5972752005
 20
144.089037288
 30
0.0
 10
109.5465496726
 20
144.1203669247
 30
0.0
 10
109.5076251281
 20
144.142838861
 30
0.0
  0
SPLINE
  5
431
100
AcDbEntity
  8
0
100
AcDbSpline
 62
7
  6
BYLAYER
 70
0
 71
3
 72
9
 73
5
 74
0
 42
0.0000001
 43
0.0000001
 44
0.0000000001
 40
0.0
 40
0.0
 40
0.0
 40
0.0
 40
0.2379441331
 40
1.0
 40
1.0
 40
1.0
 40
1.0
 10
109.1431022882
 20
143.0111735491
 30
0.0
 10
109.1100232697
 20
142.9907830758
 30
0.0
 10
108.9703280982
 20
142.9061850997
 30
0.0
 10
108.8281626895
 20
142.8256968788
 30
0.0
 10
108.7188399859
 20
142.7662270567
 30
0.0
  0
SPLINE
  5
432
100
AcDbEntity
  8
0
100
AcDbSpline
 62
7
  6
BYLAYER
 70
0
 71
3
 72
9
 73
5
 74
0
 42
0.0000001
 43
0.0000001
 44
0.0000000001
 40
0.0
 40
0.0
 40
0.0
 40
0.0
 40
0.2425582917
 40
1.0
 40
1.0
 40
1.0
 40
1.0
 10
108.501340845
 20
143.6025356486
 30
0.0
 10
108.5570995336
 20
143.5592265925
 30
0.0
 10
108.7829879256
 20
143.3755670161
 30
0.0
 10
108.9930785264
 20
143.1727304786
 30
0.0
 10
109.1431022882
 20
143.0111735491
 30
0.0
  0
SPLINE
  5
433
100
AcDbEntity
  8
0
100
AcDbSpline
 62
7
  6
BYLAYER
 70
0
 71
3
 72
11
 73
7
 74
0
 42
0.0000001
 43
0.0000001
 44
0.0000000001
 40
0.0
 40
0.0
 40
0.0
 40
0.0
 40
0.2626459699
 40
0.511375355
 40
0.7539174086
 40
1.0
 40
1.0
 40
1.0
 40
1.0
 10
108.5013386039
 20
143.913307118
 30
0.0
 10
108.513457153
 20
143.8952816426
 30
0.0
 10
108.5338466801
 20
143.8578341659
 30
0.0
 10
108.551120651
 20
143.7973505424
 30
0.0
 10
108.5532766946
 20
143.7358062221
 30
0.0
 10
108.5447117662
 20
143.6958583582
 30
0.0
 10
108.538253542
 20
143.6765596338
 30
0.0
  0
SPLINE
  5
434
100
AcDbEntity
  8
0
100
AcDbSpline
 62
7
  6
BYLAYER
 70
0
 71
3
 72
15
 73
11
 74
0
 42
0.0000001
 43
0.0000001
 44
0.0000000001
 40
0.0
 40
0.0
 40
0.0
 40
0.0
 40
0.1570992752
 40
0.3072119218
 40
0.4481545347
 40
0.5783933075
 40
0.6973171076
 40
0.805539789
 40
0.9051914667
 40
1.0
 40
1.0
 40
1.0
 40
1.0
 10
108.4697768332
 20
141.5167495186
 30
0.0
 10
108.6082971363
 20
141.5373768181
 30
0.0
 10
108.8774486675
 20
141.5909126722
 30
0.0
 10
109.2596095964
 20
141.7100563639
 30
0.0
 10
109.6034333299
 20
141.863637594
 30
0.0
 10
109.8998783573
 20
142.047852413
 30
0.0
 10
110.1412122712
 20
142.2583596098
 30
0.0
 10
110.3207526922
 20
142.4906758946
 30
0.0
 10
110.4323416219
 20
142.7394518284
 30
0.0
 10
110.4579407101
 20
142.9136992082
 30
0.0
 10
110.4579347313
 20
142.9982172144
 30
0.0
  0
SPLINE
  5
435
100
AcDbEntity
  8
0
100
AcDbSpline
 62
7
  6
BYLAYER
 70
0
 71
3
 72
9
 73
5
 74
0
 42
0.0000001
 43
0.0000001
 44
0.0000000001
 40
0.0
 40
0.0
 40
0.0
 40
0.0
 40
0.2377545413
 40
1.0
 40
1.0
 40
1.0
 40
1.0
 10
106.8970316559
 20
144.3079136971
 30
0.0
 10
106.9492009433
 20
144.3038549886
 30
0.0
 10
107.1679129854
 20
144.2777725678
 30
0.0
 10
107.3818662746
 20
144.2175609919
 30
0.0
 10
107.5387930991
 20
144.1582502769
 30
0.0
  0
SPLINE
  5
436
100
AcDbEntity
  8
0
100
AcDbSpline
 62
7
  6
BYLAYER
 70
0
 71
3
 72
9
 73
5
 74
0
 42
0.0000001
 43
0.0000001
 44
0.0000000001
 40
0.0
 40
0.0
 40
0.0
 40
0.0
 40
0.2473863895
 40
1.0
 40
1.0
 40
1.0
 40
1.0
 10
106.4727693536
 20
144.0629672047
 30
0.0
 10
106.5053443923
 20
144.0869365403
 30
0.0
 10
106.6397230055
 20
144.1801167498
 30
0.0
 10
106.7844963151
 20
144.2581702328
 30
0.0
 10
106.8970316559
 20
144.3079136971
 30
0.0
  0
SPLINE
  5
437
100
AcDbEntity
  8
0
100
AcDbSpline
 62
7
  6
BYLAYER
 70
0
 71
3
 72
9
 73
5
 74
0
 42
0.0000001
 43
0.0000001
 44
0.0000000001
 40
0.0
 40
0.0
 40
0.0
 40
0.0
 40
0.5129412484
 40
1.0
 40
1.0
 40
1.0
 40
1.0
 10
106.1740867022
 20
142.6646072657
 30
0.0
 10
106.3162780818
 20
142.8421783307
 30
0.0
 10
106.6118434101
 20
143.1741380721
 30
0.0
 10
106.94394099
 20
143.4700276239
 30
0.0
 10
107.1145330378
 20
143.6025323151
 30
0.0
  0
SPLINE
  5
438
100
AcDbEntity
  8
0
100
AcDbSpline
 62
7
  6
BYLAYER
 70
0
 71
3
 72
11
 73
7
 74
0
 42
0.0000001
 43
0.0000001
 44
0.0000000001
 40
0.0
 40
0.0
 40
0.0
 40
0.0
 40
0.2741637279
 40
0.5305136483
 40
0.7712922971
 40
1.0
 40
1.0
 40
1.0
 40
1.0
 10
108.0770727689
 20
144.1582515707
 30
0.0
 10
108.182087219
 20
144.1979427658
 30
0.0
 10
108.3900875547
 20
144.2630096583
 30
0.0
 10
108.7028164962
 20
144.3147219253
 30
0.0
 10
109.001361206
 20
144.3163847431
 30
0.0
 10
109.1920348087
 20
144.2829046207
 30
0.0
 10
109.2822122008
 20
144.2576329775
 30
0.0
  0
SPLINE
  5
439
100
AcDbEntity
  8
0
100
AcDbSpline
 62
7
  6
BYLAYER
 70
0
 71
3
 72
9
 73
5
 74
0
 42
0.0000001
 43
0.0000001
 44
0.0000000001
 40
0.0
 40
0.0
 40
0.0
 40
0.0
 40
0.4999997431
 40
1.0
 40
1.0
 40
1.0
 40
1.0
 10
107.5387930991
 20
144.1582502769
 30
0.0
 10
107.6268454499
 20
144.1779822801
 30
0.0
 10
107.8079327976
 20
144.1967236288
 30
0.0
 10
107.9890202236
 20
144.1779831305
 30
0.0
 10
108.0770727689
 20
144.1582515707
 30
0.0
  0
SPLINE
  5
43A
100
AcDbEntity
  8
0
100
AcDbSpline
 62
7
  6
BYLAYER
 70
0
 71
3
 72
9
 73
5
 74
0
 42
0.0000001
 43
0.0000001
 44
0.0000000001
 40
0.0
 40
0.0
 40
0.0
 40
0.0
 40
0.5013280972
 40
1.0
 40
1.0
 40
1.0
 40
1.0
 10
107.7283320433
 20
143.3366597917
 30
0.0
 10
107.6946465412
 20
143.4734778091
 30
0.0
 10
107.6305345415
 20
143.7471444218
 30
0.0
 10
107.5690648747
 20
144.0214011789
 30
0.0
 10
107.5387930991
 20
144.1582502769
 30
0.0
  0
SPLINE
  5
43B
100
AcDbEntity
  8
0
100
AcDbSpline
 62
7
  6
BYLAYER
 70
0
 71
3
 72
11
 73
7
 74
0
 42
0.0000001
 43
0.0000001
 44
0.0000000001
 40
0.0
 40
0.0
 40
0.0
 40
0.0
 40
0.2460746161
 40
0.4886168313
 40
0.7373526693
 40
1.0
 40
1.0
 40
1.0
 40
1.0
 10
107.0776176774
 20
143.6765595867
 30
0.0
 10
107.0711597735
 20
143.6958573656
 30
0.0
 10
107.0625955624
 20
143.7358039449
 30
0.0
 10
107.064750302
 20
143.7973471546
 30
0.0
 10
107.0820241434
 20
143.8578304313
 30
0.0
 10
107.1024125927
 20
143.8952783773
 30
0.0
 10
107.1145307968
 20
143.9133037845
 30
0.0
  0
SPLINE
  5
43C
100
AcDbEntity
  8
0
100
AcDbSpline
 62
7
  6
BYLAYER
 70
0
 71
3
 72
12
 73
8
 74
0
 42
0.0000001
 43
0.0000001
 44
0.0000000001
 40
0.0
 40
0.0
 40
0.0
 40
0.0
 40
0.2895824624
 40
0.5486379431
 40
0.781640877
 40
0.8918401796
 40
1.0
 40
1.0
 40
1.0
 40
1.0
 10
71.9929851556
 20
140.9364857249
 30
0.0
 10
71.8766639868
 20
141.0036422638
 30
0.0
 10
71.6656685239
 20
141.1489554864
 30
0.0
 10
71.4136031499
 20
141.4137193894
 30
0.0
 10
71.2782445285
 20
141.6632024483
 30
0.0
 10
71.2255525603
 20
141.8666771811
 30
0.0
 10
71.2168120115
 20
141.9681655881
 30
0.0
 10
71.2168131109
 20
142.0183327312
 30
0.0
  0
SPLINE
  5
43D
100
AcDbEntity
  8
0
100
AcDbSpline
 62
7
  6
BYLAYER
 70
0
 71
3
 72
9
 73
5
 74
0
 42
0.0000001
 43
0.0000001
 44
0.0000000001
 40
0.0
 40
0.0
 40
0.0
 40
0.0
 40
0.2494000527
 40
1.0
 40
1.0
 40
1.0
 40
1.0
 10
73.2488591006
 20
143.5764842933
 30
0.0
 10
73.2569604577
 20
143.5408653616
 30
0.0
 10
73.2896164571
 20
143.3980865865
 30
0.0
 10
73.3230658222
 20
143.2554863027
 30
0.0
 10
73.3490050312
 20
143.1486528826
 30
0.0
  0
SPLINE
  5
43E
100
AcDbEntity
  8
0
100
AcDbSpline
 62
7
  6
BYLAYER
 70
0
 71
3
 72
9
 73
5
 74
0
 42
0.0000001
 43
0.0000001
 44
0.0000000001
 40
0.0
 40
0.0
 40
0.0
 40
0.0
 40
0.2377467811
 40
1.0
 40
1.0
 40
1.0
 40
1.0
 10
72.5316438569
 20
144.0628856203
 30
0.0
 10
72.5838114367
 20
144.0588270447
 30
0.0
 10
72.8025233964
 20
144.0327442751
 30
0.0
 10
73.0164768924
 20
143.9725335135
 30
0.0
 10
73.1734053001
 20
143.9132222001
 30
0.0
  0
SPLINE
  5
43F
100
AcDbEntity
  8
0
100
AcDbSpline
 62
7
  6
BYLAYER
 70
0
 71
3
 72
9
 73
5
 74
0
 42
0.0000001
 43
0.0000001
 44
0.0000000001
 40
0.0
 40
0.0
 40
0.0
 40
0.0
 40
0.2505562875
 40
1.0
 40
1.0
 40
1.0
 40
1.0
 10
74.4032852605
 20
143.2262217244
 30
0.0
 10
74.4110853643
 20
143.2588566784
 30
0.0
 10
74.44194744
 20
143.389171005
 30
0.0
 10
74.4719191703
 20
143.5196948001
 30
0.0
 10
74.4940887469
 20
143.6175801546
 30
0.0
  0
SPLINE
  5
440
100
AcDbEntity
  8
0
100
AcDbSpline
 62
7
  6
BYLAYER
 70
0
 71
3
 72
13
 73
9
 74
0
 42
0.0000001
 43
0.0000001
 44
0.0000000001
 40
0.0
 40
0.0
 40
0.0
 40
0.0
 40
0.296886349
 40
0.5589328918
 40
0.6776845721
 40
0.7894635571
 40
0.8961012398
 40
1.0
 40
1.0
 40
1.0
 40
1.0
 10
72.2891949139
 20
144.2274267016
 30
0.0
 10
72.1324791822
 20
144.160379646
 30
0.0
 10
71.8468571492
 20
144.0096168143
 30
0.0
 10
71.5463738992
 20
143.7552815985
 30
0.0
 10
71.374982178
 20
143.5289833796
 30
0.0
 10
71.2843939941
 20
143.3567758271
 30
0.0
 10
71.2292422243
 20
143.1790020741
 30
0.0
 10
71.2168109272
 20
143.0577885295
 30
0.0
 10
71.2168103243
 20
142.9981356333
 30
0.0
  0
SPLINE
  5
441
100
AcDbEntity
  8
0
100
AcDbSpline
 62
7
  6
BYLAYER
 70
0
 71
3
 72
11
 73
7
 74
0
 42
0.0000001
 43
0.0000001
 44
0.0000000001
 40
0.0
 40
0.0
 40
0.0
 40
0.0
 40
0.2290150475
 40
0.4700745561
 40
0.7264406442
 40
1.0
 40
1.0
 40
1.0
 40
1.0
 10
75.7330641611
 20
144.0212470114
 30
0.0
 10
75.6446599189
 20
144.0437968986
 30
0.0
 10
75.4584234209
 20
144.0727470025
 30
0.0
 10
75.167868152
 20
144.0675676292
 30
0.0
 10
74.8641656924
 20
144.0152359847
 30
0.0
 10
74.6621551487
 20
143.9517554831
 30
0.0
 10
74.5602131073
 20
143.9132255336
 30
0.0
  0
SPLINE
  5
442
100
AcDbEntity
  8
0
100
AcDbSpline
 62
7
  6
BYLAYER
 70
0
 71
3
 72
9
 73
5
 74
0
 42
0.0000001
 43
0.0000001
 44
0.0000000001
 40
0.0
 40
0.0
 40
0.0
 40
0.0
 40
0.4852230215
 40
1.0
 40
1.0
 40
1.0
 40
1.0
 10
73.5976733763
 20
143.357506278
 30
0.0
 10
73.371342529
 20
143.1817073506
 30
0.0
 10
72.9368187857
 20
142.7774254531
 30
0.0
 10
72.5663692999
 20
142.3147636786
 30
0.0
 10
72.3925339443
 20
142.0653208403
 30
0.0
  0
SPLINE
  5
443
100
AcDbEntity
  8
0
100
AcDbSpline
 62
7
  6
BYLAYER
 70
0
 71
3
 72
9
 73
5
 74
0
 42
0.0000001
 43
0.0000001
 44
0.0000000001
 40
0.0
 40
0.0
 40
0.0
 40
0.0
 40
0.5000363841
 40
1.0
 40
1.0
 40
1.0
 40
1.0
 10
74.135953046
 20
143.3575075719
 30
0.0
 10
74.0478943766
 20
143.3377741526
 30
0.0
 10
73.8668064338
 20
143.3190418601
 30
0.0
 10
73.6857193348
 20
143.3377761942
 30
0.0
 10
73.5976733763
 20
143.357506278
 30
0.0
  0
SPLINE
  5
444
100
AcDbEntity
  8
0
100
AcDbSpline
 62
7
  6
BYLAYER
 70
0
 71
3
 72
9
 73
5
 74
0
 42
0.0000001
 43
0.0000001
 44
0.0000000001
 40
0.0
 40
0.0
 40
0.0
 40
0.0
 40
0.2425594715
 40
1.0
 40
1.0
 40
1.0
 40
1.0
 10
74.135953046
 20
143.3575075718
 30
0.0
 10
74.1917120052
 20
143.3141983056
 30
0.0
 10
74.4176001404
 20
143.1305384193
 30
0.0
 10
74.6276909627
 20
142.9277021484
 30
0.0
 10
74.7777144892
 20
142.7661454723
 30
0.0
  0
SPLINE
  5
445
100
AcDbEntity
  8
0
100
AcDbSpline
 62
7
  6
BYLAYER
 70
0
 71
3
 72
9
 73
5
 74
0
 42
0.0000001
 43
0.0000001
 44
0.0000000001
 40
0.0
 40
0.0
 40
0.0
 40
0.0
 40
0.2508051503
 40
1.0
 40
1.0
 40
1.0
 40
1.0
 10
74.5602153484
 20
143.6024540642
 30
0.0
 10
74.5505413129
 20
143.5698911787
 30
0.0
 10
74.5117641594
 20
143.4401195112
 30
0.0
 10
74.4720529934
 20
143.3106215856
 30
0.0
 10
74.4412722958
 20
143.2139303797
 30
0.0
  0
SPLINE
  5
446
100
AcDbEntity
  8
0
100
AcDbSpline
 62
7
  6
BYLAYER
 70
0
 71
3
 72
9
 73
5
 74
0
 42
0.0000001
 43
0.0000001
 44
0.0000000001
 40
0.0
 40
0.0
 40
0.0
 40
0.0
 40
0.2487005055
 40
1.0
 40
1.0
 40
1.0
 40
1.0
 10
73.3215005191
 20
143.1235380896
 30
0.0
 10
73.3085811442
 20
143.1630365065
 30
0.0
 10
73.257573889
 20
143.3221633721
 30
0.0
 10
73.2091597189
 20
143.4821077672
 30
0.0
 10
73.1734075412
 20
143.6024507307
 30
0.0
  0
SPLINE
  5
447
100
AcDbEntity
  8
0
100
AcDbSpline
 62
7
  6
BYLAYER
 70
0
 71
3
 72
11
 73
7
 74
0
 42
0.0000001
 43
0.0000001
 44
0.0000000001
 40
0.0
 40
0.0
 40
0.0
 40
0.0
 40
0.2210164135
 40
0.45848363
 40
0.7174546163
 40
1.0
 40
1.0
 40
1.0
 40
1.0
 10
76.4910049322
 20
143.2111169607
 30
0.0
 10
76.4716841047
 20
143.2904987989
 30
0.0
 10
76.4094952608
 20
143.4503165225
 30
0.0
 10
76.2586609805
 20
143.6706846798
 30
0.0
 10
76.0524869385
 20
143.8738102633
 30
0.0
 10
75.8885209005
 20
143.9900841164
 30
0.0
 10
75.7995812421
 20
144.0448399761
 30
0.0
  0
SPLINE
  5
448
100
AcDbEntity
  8
0
100
AcDbSpline
 62
7
  6
BYLAYER
 70
0
 71
3
 72
10
 73
6
 74
0
 42
0.0000001
 43
0.0000001
 44
0.0000000001
 40
0.0
 40
0.0
 40
0.0
 40
0.0
 40
0.5224377119
 40
0.7680460993
 40
1.0
 40
1.0
 40
1.0
 40
1.0
 10
73.2011313149
 20
140.5374419037
 30
0.0
 10
72.9809352273
 20
140.5704440565
 30
0.0
 10
72.6597609373
 20
140.6439268303
 30
0.0
 10
72.2610052988
 20
140.7956648904
 30
0.0
 10
72.0785969543
 20
140.8870588481
 30
0.0
 10
71.9929851556
 20
140.9364857249
 30
0.0
  0
SPLINE
  5
449
100
AcDbEntity
  8
0
100
AcDbSpline
 62
7
  6
BYLAYER
 70
0
 71
3
 72
9
 73
5
 74
0
 42
0.0000001
 43
0.0000001
 44
0.0000000001
 40
0.0
 40
0.0
 40
0.0
 40
0.0
 40
0.2493306732
 40
1.0
 40
1.0
 40
1.0
 40
1.0
 10
74.1359472722
 20
144.1581699863
 30
0.0
 10
74.1232976152
 20
144.1009843613
 30
0.0
 10
74.0722790729
 20
143.8716918719
 30
0.0
 10
74.0200103071
 20
143.6426684509
 30
0.0
 10
73.9790194254
 20
143.4711661771
 30
0.0
  0
SPLINE
  5
44A
100
AcDbEntity
  8
0
100
AcDbSpline
 62
7
  6
BYLAYER
 70
0
 71
3
 72
9
 73
5
 74
0
 42
0.0000001
 43
0.0000001
 44
0.0000000001
 40
0.0
 40
0.0
 40
0.0
 40
0.0
 40
0.2581154612
 40
1.0
 40
1.0
 40
1.0
 40
1.0
 10
73.9790194254
 20
143.4711661771
 30
0.0
 10
73.9954469197
 20
143.4691824479
 30
0.0
 10
74.0588512232
 20
143.4597365526
 30
0.0
 10
74.1213364088
 20
143.4433545776
 30
0.0
 10
74.1658530394
 20
143.4266161429
 30
0.0
  0
SPLINE
  5
44B
100
AcDbEntity
  8
0
100
AcDbSpline
 62
7
  6
BYLAYER
 70
0
 71
3
 72
11
 73
7
 74
0
 42
0.0000001
 43
0.0000001
 44
0.0000000001
 40
0.0
 40
0.0
 40
0.0
 40
0.0
 40
0.2899049337
 40
0.552995559
 40
0.7886009954
 40
1.0
 40
1.0
 40
1.0
 40
1.0
 10
74.1658530394
 20
143.4266161429
 30
0.0
 10
74.1947482864
 20
143.4157514122
 30
0.0
 10
74.2485930217
 20
143.3912818928
 30
0.0
 10
74.3186378352
 20
143.3441160549
 30
0.0
 10
74.3718731519
 20
143.2895561933
 30
0.0
 10
74.3956174628
 20
143.2473862177
 30
0.0
 10
74.4032852605
 20
143.2262217244
 30
0.0
  0
SPLINE
  5
44C
100
AcDbEntity
  8
0
100
AcDbSpline
 62
7
  6
BYLAYER
 70
0
 71
3
 72
9
 73
5
 74
0
 42
0.0000001
 43
0.0000001
 44
0.0000000001
 40
0.0
 40
0.0
 40
0.0
 40
0.0
 40
0.2445233586
 40
1.0
 40
1.0
 40
1.0
 40
1.0
 10
75.5664996315
 20
144.1427572765
 30
0.0
 10
75.5486392277
 20
144.1530687522
 30
0.0
 10
75.475023412
 20
144.1942396421
 30
0.0
 10
75.3992285587
 20
144.2314851833
 30
0.0
 10
75.3410867042
 20
144.257551393
 30
0.0
  0
SPLINE
  5
44D
100
AcDbEntity
  8
0
100
AcDbSpline
 62
7
  6
BYLAYER
 70
0
 71
3
 72
9
 73
5
 74
0
 42
0.0000001
 43
0.0000001
 44
0.0000000001
 40
0.0
 40
0.0
 40
0.0
 40
0.0
 40
0.2454548372
 40
1.0
 40
1.0
 40
1.0
 40
1.0
 10
75.7174072561
 20
144.0471041451
 30
0.0
 10
75.7054095493
 20
144.055460299
 30
0.0
 10
75.6561497039
 20
144.0889557036
 30
0.0
 10
75.605424176
 20
144.1202853402
 30
0.0
 10
75.5664996315
 20
144.1427572765
 30
0.0
  0
SPLINE
  5
44E
100
AcDbEntity
  8
0
100
AcDbSpline
 62
7
  6
BYLAYER
 70
0
 71
3
 72
9
 73
5
 74
0
 42
0.0000001
 43
0.0000001
 44
0.0000000001
 40
0.0
 40
0.0
 40
0.0
 40
0.0
 40
0.2379441331
 40
1.0
 40
1.0
 40
1.0
 40
1.0
 10
75.2019767916
 20
143.0110919646
 30
0.0
 10
75.168897773
 20
142.9907014914
 30
0.0
 10
75.0292026015
 20
142.9061035153
 30
0.0
 10
74.8870371928
 20
142.8256152943
 30
0.0
 10
74.7777144892
 20
142.7661454723
 30
0.0
  0
SPLINE
  5
44F
100
AcDbEntity
  8
0
100
AcDbSpline
 62
7
  6
BYLAYER
 70
0
 71
3
 72
9
 73
5
 74
0
 42
0.0000001
 43
0.0000001
 44
0.0000000001
 40
0.0
 40
0.0
 40
0.0
 40
0.0
 40
0.2425582917
 40
1.0
 40
1.0
 40
1.0
 40
1.0
 10
74.5602153484
 20
143.6024540642
 30
0.0
 10
74.6159740369
 20
143.5591450081
 30
0.0
 10
74.841862429
 20
143.3754854316
 30
0.0
 10
75.0519530297
 20
143.1726488941
 30
0.0
 10
75.2019767916
 20
143.0110919646
 30
0.0
  0
SPLINE
  5
450
100
AcDbEntity
  8
0
100
AcDbSpline
 62
7
  6
BYLAYER
 70
0
 71
3
 72
11
 73
7
 74
0
 42
0.0000001
 43
0.0000001
 44
0.0000000001
 40
0.0
 40
0.0
 40
0.0
 40
0.0
 40
0.2626459699
 40
0.511375355
 40
0.7539174086
 40
1.0
 40
1.0
 40
1.0
 40
1.0
 10
74.5602131073
 20
143.9132255336
 30
0.0
 10
74.5723316563
 20
143.8952000582
 30
0.0
 10
74.5927211834
 20
143.8577525815
 30
0.0
 10
74.6099951543
 20
143.797268958
 30
0.0
 10
74.6121511979
 20
143.7357246377
 30
0.0
 10
74.6035862695
 20
143.6957767738
 30
0.0
 10
74.5971280454
 20
143.6764780494
 30
0.0
  0
SPLINE
  5
451
100
AcDbEntity
  8
0
100
AcDbSpline
 62
7
  6
BYLAYER
 70
0
 71
3
 72
9
 73
5
 74
0
 42
0.0000001
 43
0.0000001
 44
0.0000000001
 40
0.0
 40
0.0
 40
0.0
 40
0.0
 40
0.4770697198
 40
1.0
 40
1.0
 40
1.0
 40
1.0
 10
71.9929851556
 20
141.9162886255
 30
0.0
 10
72.1703704388
 20
141.8138791939
 30
0.0
 10
72.5684634828
 20
141.6439184421
 30
0.0
 10
72.9891924607
 20
141.5484606825
 30
0.0
 10
73.2113077054
 20
141.5157248291
 30
0.0
  0
SPLINE
  5
452
100
AcDbEntity
  8
0
100
AcDbSpline
 62
7
  6
BYLAYER
 70
0
 71
3
 72
9
 73
5
 74
0
 42
0.0000001
 43
0.0000001
 44
0.0000000001
 40
0.0
 40
0.0
 40
0.0
 40
0.0
 40
0.2377545413
 40
1.0
 40
1.0
 40
1.0
 40
1.0
 10
72.9559061592
 20
144.3078321126
 30
0.0
 10
73.0080754466
 20
144.3037734042
 30
0.0
 10
73.2267874887
 20
144.2776909834
 30
0.0
 10
73.4407407779
 20
144.2174794075
 30
0.0
 10
73.5976676024
 20
144.1581686924
 30
0.0
  0
SPLINE
  5
453
100
AcDbEntity
  8
0
100
AcDbSpline
 62
7
  6
BYLAYER
 70
0
 71
3
 72
9
 73
5
 74
0
 42
0.0000001
 43
0.0000001
 44
0.0000000001
 40
0.0
 40
0.0
 40
0.0
 40
0.0
 40
0.2473863895
 40
1.0
 40
1.0
 40
1.0
 40
1.0
 10
72.5316438569
 20
144.0628856203
 30
0.0
 10
72.5642188957
 20
144.0868549559
 30
0.0
 10
72.6985975089
 20
144.1800351654
 30
0.0
 10
72.8433708185
 20
144.2580886483
 30
0.0
 10
72.9559061592
 20
144.3078321126
 30
0.0
  0
SPLINE
  5
454
100
AcDbEntity
  8
0
100
AcDbSpline
 62
7
  6
BYLAYER
 70
0
 71
3
 72
12
 73
8
 74
0
 42
0.0000001
 43
0.0000001
 44
0.0000000001
 40
0.0
 40
0.0
 40
0.0
 40
0.0
 40
0.1081614105
 40
0.2183623375
 40
0.451364509
 40
0.7104183439
 40
1.0
 40
1.0
 40
1.0
 40
1.0
 10
71.2168103243
 20
142.9981356333
 30
0.0
 10
71.2168098173
 20
142.9479677073
 30
0.0
 10
71.2255515335
 20
142.8464778872
 30
0.0
 10
71.2782433591
 20
142.643001718
 30
0.0
 10
71.4136044995
 20
142.3935199806
 30
0.0
 10
71.6656693155
 20
142.1287575611
 30
0.0
 10
71.8766642057
 20
141.983445038
 30
0.0
 10
71.9929851556
 20
141.9162886255
 30
0.0
  0
SPLINE
  5
455
100
AcDbEntity
  8
0
100
AcDbSpline
 62
7
  6
BYLAYER
 70
0
 71
3
 72
9
 73
5
 74
0
 42
0.0000001
 43
0.0000001
 44
0.0000000001
 40
0.0
 40
0.0
 40
0.0
 40
0.0
 40
0.5148578188
 40
1.0
 40
1.0
 40
1.0
 40
1.0
 10
71.9682681092
 20
142.3102652931
 30
0.0
 10
72.1421308013
 20
142.5597473576
 30
0.0
 10
72.5125823546
 20
143.0224092484
 30
0.0
 10
72.9471143528
 20
143.4266810543
 30
0.0
 10
73.1734075412
 20
143.6024507307
 30
0.0
  0
SPLINE
  5
456
100
AcDbEntity
  8
0
100
AcDbSpline
 62
7
  6
BYLAYER
 70
0
 71
3
 72
9
 73
5
 74
0
 42
0.0000001
 43
0.0000001
 44
0.0000000001
 40
0.0
 40
0.0
 40
0.0
 40
0.0
 40
0.244523438
 40
1.0
 40
1.0
 40
1.0
 40
1.0
 10
72.167121017
 20
142.1801149568
 30
0.0
 10
72.1849814762
 20
142.1698035641
 30
0.0
 10
72.2585972081
 20
142.128632533
 30
0.0
 10
72.3343920963
 20
142.0913870472
 30
0.0
 10
72.3925339443
 20
142.0653208403
 30
0.0
  0
SPLINE
  5
457
100
AcDbEntity
  8
0
100
AcDbSpline
 62
7
  6
BYLAYER
 70
0
 71
3
 72
9
 73
5
 74
0
 42
0.0000001
 43
0.0000001
 44
0.0000000001
 40
0.0
 40
0.0
 40
0.0
 40
0.0
 40
0.2438302487
 40
1.0
 40
1.0
 40
1.0
 40
1.0
 10
71.9682681092
 20
142.3102652931
 30
0.0
 10
71.9837743097
 20
142.298736728
 30
0.0
 10
72.0481039801
 20
142.252448869
 30
0.0
 10
72.1152263269
 20
142.2100756923
 30
0.0
 10
72.167121017
 20
142.1801149568
 30
0.0
  0
SPLINE
  5
458
100
AcDbEntity
  8
0
100
AcDbSpline
 62
7
  6
BYLAYER
 70
0
 71
3
 72
11
 73
7
 74
0
 42
0.0000001
 43
0.0000001
 44
0.0000000001
 40
0.0
 40
0.0
 40
0.0
 40
0.0
 40
0.2741637279
 40
0.5305136483
 40
0.7712922971
 40
1.0
 40
1.0
 40
1.0
 40
1.0
 10
74.1359472722
 20
144.1581699863
 30
0.0
 10
74.2409617223
 20
144.1978611814
 30
0.0
 10
74.4489620581
 20
144.2629280738
 30
0.0
 10
74.7616909995
 20
144.3146403409
 30
0.0
 10
75.0602357094
 20
144.3163031587
 30
0.0
 10
75.2509093121
 20
144.2828230363
 30
0.0
 10
75.3410867042
 20
144.257551393
 30
0.0
  0
SPLINE
  5
459
100
AcDbEntity
  8
0
100
AcDbSpline
 62
7
  6
BYLAYER
 70
0
 71
3
 72
9
 73
5
 74
0
 42
0.0000001
 43
0.0000001
 44
0.0000000001
 40
0.0
 40
0.0
 40
0.0
 40
0.0
 40
0.4999997431
 40
1.0
 40
1.0
 40
1.0
 40
1.0
 10
73.5976676024
 20
144.1581686924
 30
0.0
 10
73.6857199533
 20
144.1779006957
 30
0.0
 10
73.8668073009
 20
144.1966420444
 30
0.0
 10
74.0478947269
 20
144.1779015461
 30
0.0
 10
74.1359472722
 20
144.1581699863
 30
0.0
  0
SPLINE
  5
45A
100
AcDbEntity
  8
0
100
AcDbSpline
 62
7
  6
BYLAYER
 70
0
 71
3
 72
9
 73
5
 74
0
 42
0.0000001
 43
0.0000001
 44
0.0000000001
 40
0.0
 40
0.0
 40
0.0
 40
0.0
 40
0.5013280972
 40
1.0
 40
1.0
 40
1.0
 40
1.0
 10
73.7872065466
 20
143.3365782072
 30
0.0
 10
73.7535210445
 20
143.4733962246
 30
0.0
 10
73.6894090448
 20
143.7470628374
 30
0.0
 10
73.627939378
 20
144.0213195945
 30
0.0
 10
73.5976676024
 20
144.1581686924
 30
0.0
  0
SPLINE
  5
45B
100
AcDbEntity
  8
0
100
AcDbSpline
 62
7
  6
BYLAYER
 70
0
 71
3
 72
11
 73
7
 74
0
 42
0.0000001
 43
0.0000001
 44
0.0000000001
 40
0.0
 40
0.0
 40
0.0
 40
0.0
 40
0.2460746161
 40
0.4886168313
 40
0.7373526693
 40
1.0
 40
1.0
 40
1.0
 40
1.0
 10
73.1364921808
 20
143.6764780023
 30
0.0
 10
73.1300342768
 20
143.6957757812
 30
0.0
 10
73.1214700657
 20
143.7357223605
 30
0.0
 10
73.1236248053
 20
143.7972655701
 30
0.0
 10
73.1408986467
 20
143.8577488468
 30
0.0
 10
73.161287096
 20
143.8951967928
 30
0.0
 10
73.1734053001
 20
143.9132222001
 30
0.0
  0
SPLINE
  5
45C
100
AcDbEntity
  8
0
100
AcDbSpline
 62
7
  6
BYLAYER
 70
0
 71
3
 72
12
 73
8
 74
0
 42
0.0000001
 43
0.0000001
 44
0.0000000001
 40
0.0
 40
0.0
 40
0.0
 40
0.0
 40
0.2895824624
 40
0.5486379431
 40
0.781640877
 40
0.8918401796
 40
1.0
 40
1.0
 40
1.0
 40
1.0
 10
88.9636185591
 20
131.1387076165
 30
0.0
 10
88.8472973904
 20
131.2058641553
 30
0.0
 10
88.6363019274
 20
131.3511773779
 30
0.0
 10
88.3842365535
 20
131.6159412809
 30
0.0
 10
88.248877932
 20
131.8654243399
 30
0.0
 10
88.1961859639
 20
132.0688990726
 30
0.0
 10
88.187445415
 20
132.1703874796
 30
0.0
 10
88.1874465145
 20
132.2205546227
 30
0.0
  0
SPLINE
  5
45D
100
AcDbEntity
  8
0
100
AcDbSpline
 62
7
  6
BYLAYER
 70
0
 71
3
 72
9
 73
5
 74
0
 42
0.0000001
 43
0.0000001
 44
0.0000000001
 40
0.0
 40
0.0
 40
0.0
 40
0.0
 40
0.2494000527
 40
1.0
 40
1.0
 40
1.0
 40
1.0
 10
90.2194925042
 20
133.7787061848
 30
0.0
 10
90.2275938612
 20
133.7430872531
 30
0.0
 10
90.2602498606
 20
133.600308478
 30
0.0
 10
90.2936992257
 20
133.4577081942
 30
0.0
 10
90.3196384347
 20
133.3508747741
 30
0.0
  0
SPLINE
  5
45E
100
AcDbEntity
  8
0
100
AcDbSpline
 62
7
  6
BYLAYER
 70
0
 71
3
 72
9
 73
5
 74
0
 42
0.0000001
 43
0.0000001
 44
0.0000000001
 40
0.0
 40
0.0
 40
0.0
 40
0.0
 40
0.2377467811
 40
1.0
 40
1.0
 40
1.0
 40
1.0
 10
89.5022772604
 20
134.2651075118
 30
0.0
 10
89.5544448402
 20
134.2610489362
 30
0.0
 10
89.7731567999
 20
134.2349661666
 30
0.0
 10
89.9871102959
 20
134.174755405
 30
0.0
 10
90.1440387036
 20
134.1154440916
 30
0.0
  0
SPLINE
  5
45F
100
AcDbEntity
  8
0
100
AcDbSpline
 62
7
  6
BYLAYER
 70
0
 71
3
 72
9
 73
5
 74
0
 42
0.0000001
 43
0.0000001
 44
0.0000000001
 40
0.0
 40
0.0
 40
0.0
 40
0.0
 40
0.2505562875
 40
1.0
 40
1.0
 40
1.0
 40
1.0
 10
91.3739186641
 20
133.4284436159
 30
0.0
 10
91.3817187679
 20
133.46107857
 30
0.0
 10
91.4125808436
 20
133.5913928965
 30
0.0
 10
91.4425525738
 20
133.7219166916
 30
0.0
 10
91.4647221505
 20
133.8198020461
 30
0.0
  0
SPLINE
  5
460
100
AcDbEntity
  8
0
100
AcDbSpline
 62
7
  6
BYLAYER
 70
0
 71
3
 72
13
 73
9
 74
0
 42
0.0000001
 43
0.0000001
 44
0.0000000001
 40
0.0
 40
0.0
 40
0.0
 40
0.0
 40
0.296886349
 40
0.5589328918
 40
0.6776845721
 40
0.7894635571
 40
0.8961012398
 40
1.0
 40
1.0
 40
1.0
 40
1.0
 10
89.2598283174
 20
134.4296485931
 30
0.0
 10
89.1031125858
 20
134.3626015375
 30
0.0
 10
88.8174905528
 20
134.2118387058
 30
0.0
 10
88.5170073028
 20
133.95750349
 30
0.0
 10
88.3456155815
 20
133.7312052711
 30
0.0
 10
88.2550273976
 20
133.5589977186
 30
0.0
 10
88.1998756278
 20
133.3812239657
 30
0.0
 10
88.1874443307
 20
133.260010421
 30
0.0
 10
88.1874437278
 20
133.2003575248
 30
0.0
  0
SPLINE
  5
461
100
AcDbEntity
  8
0
100
AcDbSpline
 62
7
  6
BYLAYER
 70
0
 71
3
 72
11
 73
7
 74
0
 42
0.0000001
 43
0.0000001
 44
0.0000000001
 40
0.0
 40
0.0
 40
0.0
 40
0.0
 40
0.2290150475
 40
0.4700745561
 40
0.7264406442
 40
1.0
 40
1.0
 40
1.0
 40
1.0
 10
92.7036975647
 20
134.2234689029
 30
0.0
 10
92.6152933224
 20
134.2460187902
 30
0.0
 10
92.4290568244
 20
134.274968894
 30
0.0
 10
92.1385015555
 20
134.2697895207
 30
0.0
 10
91.8347990959
 20
134.2174578762
 30
0.0
 10
91.6327885522
 20
134.1539773746
 30
0.0
 10
91.5308465108
 20
134.1154474251
 30
0.0
  0
SPLINE
  5
462
100
AcDbEntity
  8
0
100
AcDbSpline
 62
7
  6
BYLAYER
 70
0
 71
3
 72
9
 73
5
 74
0
 42
0.0000001
 43
0.0000001
 44
0.0000000001
 40
0.0
 40
0.0
 40
0.0
 40
0.0
 40
0.4852230215
 40
1.0
 40
1.0
 40
1.0
 40
1.0
 10
90.5683067798
 20
133.5597281695
 30
0.0
 10
90.3419759325
 20
133.3839292421
 30
0.0
 10
89.9074521892
 20
132.9796473446
 30
0.0
 10
89.5370027034
 20
132.5169855701
 30
0.0
 10
89.3631673478
 20
132.2675427319
 30
0.0
  0
SPLINE
  5
463
100
AcDbEntity
  8
0
100
AcDbSpline
 62
7
  6
BYLAYER
 70
0
 71
3
 72
9
 73
5
 74
0
 42
0.0000001
 43
0.0000001
 44
0.0000000001
 40
0.0
 40
0.0
 40
0.0
 40
0.0
 40
0.5000363841
 40
1.0
 40
1.0
 40
1.0
 40
1.0
 10
91.1065864496
 20
133.5597294634
 30
0.0
 10
91.0185277802
 20
133.5399960441
 30
0.0
 10
90.8374398373
 20
133.5212637516
 30
0.0
 10
90.6563527383
 20
133.5399980857
 30
0.0
 10
90.5683067798
 20
133.5597281695
 30
0.0
  0
SPLINE
  5
464
100
AcDbEntity
  8
0
100
AcDbSpline
 62
7
  6
BYLAYER
 70
0
 71
3
 72
9
 73
5
 74
0
 42
0.0000001
 43
0.0000001
 44
0.0000000001
 40
0.0
 40
0.0
 40
0.0
 40
0.0
 40
0.2425594715
 40
1.0
 40
1.0
 40
1.0
 40
1.0
 10
91.1065864496
 20
133.5597294634
 30
0.0
 10
91.1623454087
 20
133.5164201971
 30
0.0
 10
91.3882335439
 20
133.3327603108
 30
0.0
 10
91.5983243663
 20
133.1299240399
 30
0.0
 10
91.7483478928
 20
132.9683673638
 30
0.0
  0
SPLINE
  5
465
100
AcDbEntity
  8
0
100
AcDbSpline
 62
7
  6
BYLAYER
 70
0
 71
3
 72
9
 73
5
 74
0
 42
0.0000001
 43
0.0000001
 44
0.0000000001
 40
0.0
 40
0.0
 40
0.0
 40
0.0
 40
0.2508051503
 40
1.0
 40
1.0
 40
1.0
 40
1.0
 10
91.5308487519
 20
133.8046759557
 30
0.0
 10
91.5211747164
 20
133.7721130702
 30
0.0
 10
91.4823975629
 20
133.6423414027
 30
0.0
 10
91.442686397
 20
133.5128434771
 30
0.0
 10
91.4119056993
 20
133.4161522713
 30
0.0
  0
SPLINE
  5
466
100
AcDbEntity
  8
0
100
AcDbSpline
 62
7
  6
BYLAYER
 70
0
 71
3
 72
9
 73
5
 74
0
 42
0.0000001
 43
0.0000001
 44
0.0000000001
 40
0.0
 40
0.0
 40
0.0
 40
0.0
 40
0.2487005055
 40
1.0
 40
1.0
 40
1.0
 40
1.0
 10
90.2921339226
 20
133.3257599811
 30
0.0
 10
90.2792145477
 20
133.365258398
 30
0.0
 10
90.2282072925
 20
133.5243852636
 30
0.0
 10
90.1797931224
 20
133.6843296587
 30
0.0
 10
90.1440409447
 20
133.8046726222
 30
0.0
  0
SPLINE
  5
467
100
AcDbEntity
  8
0
100
AcDbSpline
 62
7
  6
BYLAYER
 70
0
 71
3
 72
12
 73
8
 74
0
 42
0.0000001
 43
0.0000001
 44
0.0000000001
 40
0.0
 40
0.0
 40
0.0
 40
0.0
 40
0.1090944872
 40
0.2200864812
 40
0.4538501306
 40
0.7122081188
 40
1.0
 40
1.0
 40
1.0
 40
1.0
 10
93.4874426382
 20
133.2003575215
 30
0.0
 10
93.4874392346
 20
133.2484725291
 30
0.0
 10
93.4794165924
 20
133.3457243687
 30
0.0
 10
93.4310429352
 20
133.5407129031
 30
0.0
 10
93.3068329224
 20
133.7804685926
 30
0.0
 10
93.0741448244
 20
134.0375577399
 30
0.0
 10
92.8783007559
 20
134.1805184606
 30
0.0
 10
92.7702146456
 20
134.2470618676
 30
0.0
  0
SPLINE
  5
468
100
AcDbEntity
  8
0
100
AcDbSpline
 62
7
  6
BYLAYER
 70
0
 71
3
 72
21
 73
17
 74
0
 42
0.0000001
 43
0.0000001
 44
0.0000000001
 40
0.0
 40
0.0
 40
0.0
 40
0.0
 40
0.0428257507
 40
0.0874198799
 40
0.1352153345
 40
0.1871382985
 40
0.2436005741
 40
0.3045743975
 40
0.369689217
 40
0.4383155604
 40
0.5825476661
 40
0.7295855639
 40
0.8015958877
 40
0.8712133952
 40
0.9375988567
 40
1.0
 40
1.0
 40
1.0
 40
1.0
 10
93.4874409411
 20
132.2205546257
 30
0.0
 10
93.4874392878
 20
132.1451158621
 30
0.0
 10
93.46726401
 20
131.9904680393
 30
0.0
 10
93.3785664563
 20
131.7671737176
 30
0.0
 10
93.2346542764
 20
131.5554896073
 30
0.0
 10
93.0395983498
 20
131.3596050996
 30
0.0
 10
92.7978874885
 20
131.1829938255
 30
0.0
 10
92.5146863263
 20
131.0289686281
 30
0.0
 10
92.1959091981
 20
130.9005303787
 30
0.0
 10
91.7247155199
 20
130.7647807739
 30
0.0
 10
91.0933927974
 20
130.6762453786
 30
0.0
 10
90.450507604
 20
130.6938936521
 30
0.0
 10
89.9477158004
 20
130.7735914229
 30
0.0
 10
89.5919940603
 20
130.8638793151
 30
0.0
 10
89.2628692421
 20
130.9831591504
 30
0.0
 10
89.0588137947
 20
131.083747865
 30
0.0
 10
88.9636185591
 20
131.1387076165
 30
0.0
  0
SPLINE
  5
469
100
AcDbEntity
  8
0
100
AcDbSpline
 62
7
  6
BYLAYER
 70
0
 71
3
 72
9
 73
5
 74
0
 42
0.0000001
 43
0.0000001
 44
0.0000000001
 40
0.0
 40
0.0
 40
0.0
 40
0.0
 40
0.2493306732
 40
1.0
 40
1.0
 40
1.0
 40
1.0
 10
91.1065806757
 20
134.3603918778
 30
0.0
 10
91.0939310187
 20
134.3032062529
 30
0.0
 10
91.0429124764
 20
134.0739137634
 30
0.0
 10
90.9906437107
 20
133.8448903424
 30
0.0
 10
90.949652829
 20
133.6733880686
 30
0.0
  0
SPLINE
  5
46A
100
AcDbEntity
  8
0
100
AcDbSpline
 62
7
  6
BYLAYER
 70
0
 71
3
 72
9
 73
5
 74
0
 42
0.0000001
 43
0.0000001
 44
0.0000000001
 40
0.0
 40
0.0
 40
0.0
 40
0.0
 40
0.2581154612
 40
1.0
 40
1.0
 40
1.0
 40
1.0
 10
90.949652829
 20
133.6733880686
 30
0.0
 10
90.9660803232
 20
133.6714043394
 30
0.0
 10
91.0294846268
 20
133.6619584441
 30
0.0
 10
91.0919698123
 20
133.6455764691
 30
0.0
 10
91.1364864429
 20
133.6288380345
 30
0.0
  0
SPLINE
  5
46B
100
AcDbEntity
  8
0
100
AcDbSpline
 62
7
  6
BYLAYER
 70
0
 71
3
 72
11
 73
7
 74
0
 42
0.0000001
 43
0.0000001
 44
0.0000000001
 40
0.0
 40
0.0
 40
0.0
 40
0.0
 40
0.2899049337
 40
0.552995559
 40
0.7886009954
 40
1.0
 40
1.0
 40
1.0
 40
1.0
 10
91.1364864429
 20
133.6288380345
 30
0.0
 10
91.1653816899
 20
133.6179733038
 30
0.0
 10
91.2192264252
 20
133.5935037843
 30
0.0
 10
91.2892712387
 20
133.5463379464
 30
0.0
 10
91.3425065554
 20
133.4917780848
 30
0.0
 10
91.3662508663
 20
133.4496081092
 30
0.0
 10
91.3739186641
 20
133.4284436159
 30
0.0
  0
SPLINE
  5
46C
100
AcDbEntity
  8
0
100
AcDbSpline
 62
7
  6
BYLAYER
 70
0
 71
3
 72
9
 73
5
 74
0
 42
0.0000001
 43
0.0000001
 44
0.0000000001
 40
0.0
 40
0.0
 40
0.0
 40
0.0
 40
0.2445233586
 40
1.0
 40
1.0
 40
1.0
 40
1.0
 10
92.537133035
 20
134.344979168
 30
0.0
 10
92.5192726312
 20
134.3552906437
 30
0.0
 10
92.4456568155
 20
134.3964615336
 30
0.0
 10
92.3698619623
 20
134.4337070748
 30
0.0
 10
92.3117201077
 20
134.4597732846
 30
0.0
  0
SPLINE
  5
46D
100
AcDbEntity
  8
0
100
AcDbSpline
 62
7
  6
BYLAYER
 70
0
 71
3
 72
9
 73
5
 74
0
 42
0.0000001
 43
0.0000001
 44
0.0000000001
 40
0.0
 40
0.0
 40
0.0
 40
0.0
 40
0.2454548372
 40
1.0
 40
1.0
 40
1.0
 40
1.0
 10
92.6880406596
 20
134.2493260366
 30
0.0
 10
92.6760429528
 20
134.2576821905
 30
0.0
 10
92.6267831074
 20
134.2911775951
 30
0.0
 10
92.5760575795
 20
134.3225072318
 30
0.0
 10
92.537133035
 20
134.344979168
 30
0.0
  0
SPLINE
  5
46E
100
AcDbEntity
  8
0
100
AcDbSpline
 62
7
  6
BYLAYER
 70
0
 71
3
 72
9
 73
5
 74
0
 42
0.0000001
 43
0.0000001
 44
0.0000000001
 40
0.0
 40
0.0
 40
0.0
 40
0.0
 40
0.2379441331
 40
1.0
 40
1.0
 40
1.0
 40
1.0
 10
92.1726101951
 20
133.2133138561
 30
0.0
 10
92.1395311765
 20
133.1929233829
 30
0.0
 10
91.999836005
 20
133.1083254068
 30
0.0
 10
91.8576705964
 20
133.0278371858
 30
0.0
 10
91.7483478928
 20
132.9683673638
 30
0.0
  0
SPLINE
  5
46F
100
AcDbEntity
  8
0
100
AcDbSpline
 62
7
  6
BYLAYER
 70
0
 71
3
 72
9
 73
5
 74
0
 42
0.0000001
 43
0.0000001
 44
0.0000000001
 40
0.0
 40
0.0
 40
0.0
 40
0.0
 40
0.2425582917
 40
1.0
 40
1.0
 40
1.0
 40
1.0
 10
91.5308487519
 20
133.8046759557
 30
0.0
 10
91.5866074405
 20
133.7613668996
 30
0.0
 10
91.8124958325
 20
133.5777073231
 30
0.0
 10
92.0225864333
 20
133.3748707856
 30
0.0
 10
92.1726101951
 20
133.2133138561
 30
0.0
  0
SPLINE
  5
470
100
AcDbEntity
  8
0
100
AcDbSpline
 62
7
  6
BYLAYER
 70
0
 71
3
 72
11
 73
7
 74
0
 42
0.0000001
 43
0.0000001
 44
0.0000000001
 40
0.0
 40
0.0
 40
0.0
 40
0.0
 40
0.2626459699
 40
0.511375355
 40
0.7539174086
 40
1.0
 40
1.0
 40
1.0
 40
1.0
 10
91.5308465108
 20
134.1154474251
 30
0.0
 10
91.5429650598
 20
134.0974219497
 30
0.0
 10
91.5633545869
 20
134.059974473
 30
0.0
 10
91.5806285578
 20
133.9994908495
 30
0.0
 10
91.5827846015
 20
133.9379465292
 30
0.0
 10
91.5742196731
 20
133.8979986653
 30
0.0
 10
91.5677614489
 20
133.8786999409
 30
0.0
  0
SPLINE
  5
471
100
AcDbEntity
  8
0
100
AcDbSpline
 62
7
  6
BYLAYER
 70
0
 71
3
 72
21
 73
17
 74
0
 42
0.0000001
 43
0.0000001
 44
0.0000000001
 40
0.0
 40
0.0
 40
0.0
 40
0.0
 40
0.0623443975
 40
0.1286472969
 40
0.1982101854
 40
0.2701675635
 40
0.4171573574
 40
0.5614211325
 40
0.6300879159
 40
0.6952481502
 40
0.7562642871
 40
0.8127630969
 40
0.8647167579
 40
0.9125379527
 40
0.957154098
 40
1.0
 40
1.0
 40
1.0
 40
1.0
 10
88.9636185591
 20
132.118510517
 30
0.0
 10
89.058727726
 20
132.0636013637
 30
0.0
 10
89.2625464976
 20
131.9630898986
 30
0.0
 10
89.5913402366
 20
131.8439016158
 30
0.0
 10
89.9467105849
 20
131.753596078
 30
0.0
 10
90.4492130642
 20
131.6738232484
 30
0.0
 10
91.091968115
 20
131.6559584756
 30
0.0
 10
91.7233593807
 20
131.7443127361
 30
0.0
 10
92.1948047855
 20
131.8799381311
 30
0.0
 10
92.5138340615
 20
132.0083591727
 30
0.0
 10
92.7972744513
 20
132.1624046117
 30
0.0
 10
93.039195631
 20
132.3390562404
 30
0.0
 10
93.2344304535
 20
132.5349958208
 30
0.0
 10
93.3784695088
 20
132.746765629
 30
0.0
 10
93.4672375587
 20
132.9701609471
 30
0.0
 10
93.4874479772
 20
133.1248831767
 30
0.0
 10
93.4874426382
 20
133.2003575215
 30
0.0
  0
SPLINE
  5
472
100
AcDbEntity
  8
0
100
AcDbSpline
 62
7
  6
BYLAYER
 70
0
 71
3
 72
9
 73
5
 74
0
 42
0.0000001
 43
0.0000001
 44
0.0000000001
 40
0.0
 40
0.0
 40
0.0
 40
0.0
 40
0.2377545413
 40
1.0
 40
1.0
 40
1.0
 40
1.0
 10
89.9265395628
 20
134.5100540041
 30
0.0
 10
89.9787088501
 20
134.5059952957
 30
0.0
 10
90.1974208923
 20
134.4799128749
 30
0.0
 10
90.4113741814
 20
134.419701299
 30
0.0
 10
90.568301006
 20
134.360390584
 30
0.0
  0
SPLINE
  5
473
100
AcDbEntity
  8
0
100
AcDbSpline
 62
7
  6
BYLAYER
 70
0
 71
3
 72
9
 73
5
 74
0
 42
0.0000001
 43
0.0000001
 44
0.0000000001
 40
0.0
 40
0.0
 40
0.0
 40
0.0
 40
0.2473863895
 40
1.0
 40
1.0
 40
1.0
 40
1.0
 10
89.5022772604
 20
134.2651075118
 30
0.0
 10
89.5348522992
 20
134.2890768474
 30
0.0
 10
89.6692309124
 20
134.3822570569
 30
0.0
 10
89.814004222
 20
134.4603105398
 30
0.0
 10
89.9265395628
 20
134.5100540041
 30
0.0
  0
SPLINE
  5
474
100
AcDbEntity
  8
0
100
AcDbSpline
 62
7
  6
BYLAYER
 70
0
 71
3
 72
12
 73
8
 74
0
 42
0.0000001
 43
0.0000001
 44
0.0000000001
 40
0.0
 40
0.0
 40
0.0
 40
0.0
 40
0.1081614105
 40
0.2183623375
 40
0.451364509
 40
0.7104183439
 40
1.0
 40
1.0
 40
1.0
 40
1.0
 10
88.1874437278
 20
133.2003575248
 30
0.0
 10
88.1874432208
 20
133.1501895988
 30
0.0
 10
88.196184937
 20
133.0486997787
 30
0.0
 10
88.2488767626
 20
132.8452236095
 30
0.0
 10
88.384237903
 20
132.5957418721
 30
0.0
 10
88.636302719
 20
132.3309794527
 30
0.0
 10
88.8472976092
 20
132.1856669295
 30
0.0
 10
88.9636185591
 20
132.118510517
 30
0.0
  0
SPLINE
  5
475
100
AcDbEntity
  8
0
100
AcDbSpline
 62
7
  6
BYLAYER
 70
0
 71
3
 72
9
 73
5
 74
0
 42
0.0000001
 43
0.0000001
 44
0.0000000001
 40
0.0
 40
0.0
 40
0.0
 40
0.0
 40
0.5148578188
 40
1.0
 40
1.0
 40
1.0
 40
1.0
 10
88.9389015127
 20
132.5124871846
 30
0.0
 10
89.1127642048
 20
132.7619692491
 30
0.0
 10
89.4832157581
 20
133.2246311399
 30
0.0
 10
89.9177477564
 20
133.6289029458
 30
0.0
 10
90.1440409447
 20
133.8046726222
 30
0.0
  0
SPLINE
  5
476
100
AcDbEntity
  8
0
100
AcDbSpline
 62
7
  6
BYLAYER
 70
0
 71
3
 72
9
 73
5
 74
0
 42
0.0000001
 43
0.0000001
 44
0.0000000001
 40
0.0
 40
0.0
 40
0.0
 40
0.0
 40
0.244523438
 40
1.0
 40
1.0
 40
1.0
 40
1.0
 10
89.1377544205
 20
132.3823368484
 30
0.0
 10
89.1556148798
 20
132.3720254556
 30
0.0
 10
89.2292306116
 20
132.3308544245
 30
0.0
 10
89.3050254998
 20
132.2936089387
 30
0.0
 10
89.3631673478
 20
132.2675427319
 30
0.0
  0
SPLINE
  5
477
100
AcDbEntity
  8
0
100
AcDbSpline
 62
7
  6
BYLAYER
 70
0
 71
3
 72
9
 73
5
 74
0
 42
0.0000001
 43
0.0000001
 44
0.0000000001
 40
0.0
 40
0.0
 40
0.0
 40
0.0
 40
0.2438302487
 40
1.0
 40
1.0
 40
1.0
 40
1.0
 10
88.9389015127
 20
132.5124871846
 30
0.0
 10
88.9544077133
 20
132.5009586195
 30
0.0
 10
89.0187373836
 20
132.4546707605
 30
0.0
 10
89.0858597304
 20
132.4122975839
 30
0.0
 10
89.1377544205
 20
132.3823368484
 30
0.0
  0
SPLINE
  5
478
100
AcDbEntity
  8
0
100
AcDbSpline
 62
7
  6
BYLAYER
 70
0
 71
3
 72
11
 73
7
 74
0
 42
0.0000001
 43
0.0000001
 44
0.0000000001
 40
0.0
 40
0.0
 40
0.0
 40
0.0
 40
0.2741637279
 40
0.5305136483
 40
0.7712922971
 40
1.0
 40
1.0
 40
1.0
 40
1.0
 10
91.1065806757
 20
134.3603918778
 30
0.0
 10
91.2115951258
 20
134.4000830729
 30
0.0
 10
91.4195954616
 20
134.4651499653
 30
0.0
 10
91.732324403
 20
134.5168622324
 30
0.0
 10
92.0308691129
 20
134.5185250502
 30
0.0
 10
92.2215427156
 20
134.4850449278
 30
0.0
 10
92.3117201077
 20
134.4597732846
 30
0.0
  0
SPLINE
  5
479
100
AcDbEntity
  8
0
100
AcDbSpline
 62
7
  6
BYLAYER
 70
0
 71
3
 72
9
 73
5
 74
0
 42
0.0000001
 43
0.0000001
 44
0.0000000001
 40
0.0
 40
0.0
 40
0.0
 40
0.0
 40
0.4999997431
 40
1.0
 40
1.0
 40
1.0
 40
1.0
 10
90.568301006
 20
134.360390584
 30
0.0
 10
90.6563533568
 20
134.3801225872
 30
0.0
 10
90.8374407044
 20
134.3988639359
 30
0.0
 10
91.0185281305
 20
134.3801234376
 30
0.0
 10
91.1065806757
 20
134.3603918778
 30
0.0
  0
SPLINE
  5
47A
100
AcDbEntity
  8
0
100
AcDbSpline
 62
7
  6
BYLAYER
 70
0
 71
3
 72
9
 73
5
 74
0
 42
0.0000001
 43
0.0000001
 44
0.0000000001
 40
0.0
 40
0.0
 40
0.0
 40
0.0
 40
0.5013280972
 40
1.0
 40
1.0
 40
1.0
 40
1.0
 10
90.7578399502
 20
133.5388000987
 30
0.0
 10
90.7241544481
 20
133.6756181161
 30
0.0
 10
90.6600424483
 20
133.9492847289
 30
0.0
 10
90.5985727815
 20
134.223541486
 30
0.0
 10
90.568301006
 20
134.360390584
 30
0.0
  0
SPLINE
  5
47B
100
AcDbEntity
  8
0
100
AcDbSpline
 62
7
  6
BYLAYER
 70
0
 71
3
 72
11
 73
7
 74
0
 42
0.0000001
 43
0.0000001
 44
0.0000000001
 40
0.0
 40
0.0
 40
0.0
 40
0.0
 40
0.2460746161
 40
0.4886168313
 40
0.7373526693
 40
1.0
 40
1.0
 40
1.0
 40
1.0
 10
90.1071255843
 20
133.8786998938
 30
0.0
 10
90.1006676804
 20
133.8979976727
 30
0.0
 10
90.0921034693
 20
133.937944252
 30
0.0
 10
90.0942582088
 20
133.9994874616
 30
0.0
 10
90.1115320502
 20
134.0599707383
 30
0.0
 10
90.1319204996
 20
134.0974186844
 30
0.0
 10
90.1440387036
 20
134.1154440916
 30
0.0
  0
SPLINE
  5
47C
100
AcDbEntity
  8
0
100
AcDbSpline
 62
7
  6
BYLAYER
 70
0
 71
3
 72
11
 73
7
 74
0
 42
0.0000001
 43
0.0000001
 44
0.0000000001
 40
0.0
 40
0.0
 40
0.0
 40
0.0
 40
0.2176891325
 40
0.4508844275
 40
0.7106194794
 40
1.0
 40
1.0
 40
1.0
 40
1.0
 10
72.5819566891
 20
119.7688737976
 30
0.0
 10
72.5819624539
 20
119.7764880135
 30
0.0
 10
72.579150398
 20
119.7923651245
 30
0.0
 10
72.5671149298
 20
119.814503107
 30
0.0
 10
72.5480609182
 20
119.8344803086
 30
0.0
 10
72.5321518315
 20
119.8454618046
 30
0.0
 10
72.5233860439
 20
119.8505226199
 30
0.0
  0
SPLINE
  5
47D
100
AcDbEntity
  8
0
100
AcDbSpline
 62
7
  6
BYLAYER
 70
0
 71
3
 72
11
 73
7
 74
0
 42
0.0000001
 43
0.0000001
 44
0.0000000001
 40
0.0
 40
0.0
 40
0.0
 40
0.0
 40
0.256563834
 40
0.5130276773
 40
0.7623032308
 40
1.0
 40
1.0
 40
1.0
 40
1.0
 10
70.7731839206
 20
121.213077013
 30
0.0
 10
70.697253233
 20
121.2248231677
 30
0.0
 10
70.5433170484
 20
121.236199982
 30
0.0
 10
70.3148520096
 20
121.2184613085
 30
0.0
 10
70.0974080524
 20
121.1664340612
 30
0.0
 10
69.9628210416
 20
121.1074025519
 30
0.0
 10
69.9011740692
 20
121.0718108682
 30
0.0
  0
SPLINE
  5
47E
100
AcDbEntity
  8
0
100
AcDbSpline
 62
7
  6
BYLAYER
 70
0
 71
3
 72
12
 73
8
 74
0
 42
0.0000001
 43
0.0000001
 44
0.0000000001
 40
0.0
 40
0.0
 40
0.0
 40
0.0
 40
0.1239877882
 40
0.2473350604
 40
0.4941409326
 40
0.7434999434
 40
1.0
 40
1.0
 40
1.0
 40
1.0
 10
69.3630223537
 20
120.4205060479
 30
0.0
 10
69.3630223537
 20
120.4486518096
 30
0.0
 10
69.3674820592
 20
120.5049087403
 30
0.0
 10
69.393816092
 20
120.6143257666
 30
0.0
 10
69.4576034428
 20
120.7420937102
 30
0.0
 10
69.5730244369
 20
120.8702641403
 30
0.0
 10
69.6676204129
 20
120.9369694068
 30
0.0
 10
69.7180462177
 20
120.966082585
 30
0.0
  0
SPLINE
  5
47F
100
AcDbEntity
  8
0
100
AcDbSpline
 62
7
  6
BYLAYER
 70
0
 71
3
 72
9
 73
5
 74
0
 42
0.0000001
 43
0.0000001
 44
0.0000000001
 40
0.0
 40
0.0
 40
0.0
 40
0.0
 40
0.5001683916
 40
1.0
 40
1.0
 40
1.0
 40
1.0
 10
75.379101644
 20
119.799235648
 30
0.0
 10
75.379101644
 20
119.8389210532
 30
0.0
 10
75.3701430339
 20
119.918513703
 30
0.0
 10
75.3440649943
 20
119.9941585293
 30
0.0
 10
75.3273692975
 20
120.0301316427
 30
0.0
  0
SPLINE
  5
480
100
AcDbEntity
  8
0
100
AcDbSpline
 62
7
  6
BYLAYER
 70
0
 71
3
 72
12
 73
8
 74
0
 42
0.0000001
 43
0.0000001
 44
0.0000000001
 40
0.0
 40
0.0
 40
0.0
 40
0.0
 40
0.267579971
 40
0.5219227878
 40
0.7639381206
 40
0.8822279346
 40
1.0
 40
1.0
 40
1.0
 40
1.0
 10
74.5391045927
 20
120.6305050882
 30
0.0
 10
74.6172058408
 20
120.618423157
 30
0.0
 10
74.7680299858
 20
120.5822479335
 30
0.0
 10
74.9749786152
 20
120.4887339784
 30
0.0
 10
75.1204495994
 20
120.3761728339
 30
0.0
 10
75.2105811589
 20
120.2668297999
 30
0.0
 10
75.2456949191
 20
120.2061100234
 30
0.0
 10
75.2603385312
 20
120.1745584011
 30
0.0
  0
SPLINE
  5
481
100
AcDbEntity
  8
0
100
AcDbSpline
 62
7
  6
BYLAYER
 70
0
 71
3
 72
9
 73
5
 74
0
 42
0.0000001
 43
0.0000001
 44
0.0000000001
 40
0.0
 40
0.0
 40
0.0
 40
0.0
 40
0.4778948658
 40
1.0
 40
1.0
 40
1.0
 40
1.0
 10
76.5576355006
 20
119.4424504369
 30
0.0
 10
76.4331522687
 20
119.5840481352
 30
0.0
 10
76.1424486152
 20
119.8543213443
 30
0.0
 10
75.8130237734
 20
120.0740982834
 30
0.0
 10
75.6346405725
 20
120.1770855426
 30
0.0
  0
SPLINE
  5
482
100
AcDbEntity
  8
0
100
AcDbSpline
 62
7
  6
BYLAYER
 70
0
 71
3
 72
9
 73
5
 74
0
 42
0.0000001
 43
0.0000001
 44
0.0000000001
 40
0.0
 40
0.0
 40
0.0
 40
0.0
 40
0.2437172385
 40
1.0
 40
1.0
 40
1.0
 40
1.0
 10
75.6346405725
 20
120.1770855426
 30
0.0
 10
75.5926070882
 20
120.2013530371
 30
0.0
 10
75.4185995376
 20
120.298246637
 30
0.0
 10
75.2388226023
 20
120.3846824416
 30
0.0
 10
75.1006312378
 20
120.444575617
 30
0.0
  0
SPLINE
  5
483
100
AcDbEntity
  8
0
100
AcDbSpline
 62
7
  6
BYLAYER
 70
0
 71
3
 72
9
 73
5
 74
0
 42
0.0000001
 43
0.0000001
 44
0.0000000001
 40
0.0
 40
0.0
 40
0.0
 40
0.0
 40
0.2458087454
 40
1.0
 40
1.0
 40
1.0
 40
1.0
 10
75.1006312378
 20
120.444575617
 30
0.0
 10
75.0615673326
 20
120.4615062069
 30
0.0
 10
74.9018821034
 20
120.5286088111
 30
0.0
 10
74.7392783964
 20
120.5887254562
 30
0.0
 10
74.6154615841
 20
120.63035836
 30
0.0
  0
SPLINE
  5
484
100
AcDbEntity
  8
0
100
AcDbSpline
 62
7
  6
BYLAYER
 70
0
 71
3
 72
10
 73
6
 74
0
 42
0.0000001
 43
0.0000001
 44
0.0000000001
 40
0.0
 40
0.0
 40
0.0
 40
0.0
 40
0.2407429962
 40
0.4892403358
 40
1.0
 40
1.0
 40
1.0
 40
1.0
 10
74.5554067832
 20
120.6502314953
 30
0.0
 10
74.3758425692
 20
120.7087028158
 30
0.0
 10
74.0057124075
 20
120.812082511
 30
0.0
 10
73.2357013067
 20
120.9642656217
 30
0.0
 10
72.6395698864
 20
121.0149634917
 30
0.0
 10
72.2389705566
 20
121.0214424842
 30
0.0
  0
SPLINE
  5
485
100
AcDbEntity
  8
0
100
AcDbSpline
 62
7
  6
BYLAYER
 70
0
 71
3
 72
11
 73
7
 74
0
 42
0.0000001
 43
0.0000001
 44
0.0000000001
 40
0.0
 40
0.0
 40
0.0
 40
0.0
 40
0.2738505182
 40
0.5323223661
 40
0.7744079441
 40
1.0
 40
1.0
 40
1.0
 40
1.0
 10
69.2972865779
 20
120.5267608093
 30
0.0
 10
69.129969287
 20
120.4614086546
 30
0.0
 10
68.810085254
 20
120.3199219665
 30
0.0
 10
68.3676606973
 20
120.0684249109
 30
0.0
 10
67.9820501077
 20
119.7869871175
 30
0.0
 10
67.7590439136
 20
119.5745700082
 30
0.0
 10
67.660178075
 20
119.4644719907
 30
0.0
  0
SPLINE
  5
486
100
AcDbEntity
  8
0
100
AcDbSpline
 62
7
  6
BYLAYER
 70
0
 71
3
 72
11
 73
7
 74
0
 42
0.0000001
 43
0.0000001
 44
0.0000000001
 40
0.0
 40
0.0
 40
0.0
 40
0.0
 40
0.2282592433
 40
0.4680160291
 40
0.7254995027
 40
1.0
 40
1.0
 40
1.0
 40
1.0
 10
75.3273713257
 20
120.0301325839
 30
0.0
 10
75.317217207
 20
120.0520167311
 30
0.0
 10
75.2871391048
 20
120.0930905405
 30
0.0
 10
75.2211435331
 20
120.1349879232
 30
0.0
 10
75.1408662678
 20
120.1550562602
 30
0.0
 10
75.0839203639
 20
120.1532224656
 30
0.0
 10
75.0552489681
 20
120.1487869748
 30
0.0
  0
SPLINE
  5
487
100
AcDbEntity
  8
0
100
AcDbSpline
 62
7
  6
BYLAYER
 70
0
 71
3
 72
11
 73
7
 74
0
 42
0.0000001
 43
0.0000001
 44
0.0000000001
 40
0.0
 40
0.0
 40
0.0
 40
0.0
 40
0.3455365562
 40
0.4787328046
 40
0.6324883247
 40
1.0
 40
1.0
 40
1.0
 40
1.0
 10
74.5391045521
 20
120.6305048257
 30
0.0
 10
74.5309799543
 20
120.6317718944
 30
0.0
 10
74.5200469128
 20
120.6227070685
 30
0.0
 10
74.5111051266
 20
120.6111250275
 30
0.0
 10
74.5025364394
 20
120.5979596254
 30
0.0
 10
74.4969231211
 20
120.5869152992
 30
0.0
 10
74.4932413941
 20
120.5789822614
 30
0.0
  0
SPLINE
  5
488
100
AcDbEntity
  8
0
100
AcDbSpline
 62
7
  6
BYLAYER
 70
0
 71
3
 72
16
 73
12
 74
0
 42
0.0000001
 43
0.0000001
 44
0.0000000001
 40
0.0
 40
0.0
 40
0.0
 40
0.0
 40
0.0428749549
 40
0.0875150781
 40
0.1869201666
 40
0.304237755
 40
0.4379614271
 40
0.5823655592
 40
0.729554774
 40
0.8712850923
 40
1.0
 40
1.0
 40
1.0
 40
1.0
 10
72.5819567535
 20
119.6055733115
 30
0.0
 10
72.5819527299
 20
119.5998804048
 30
0.0
 10
72.5804328811
 20
119.5882116803
 30
0.0
 10
72.5712027565
 20
119.5649388543
 30
0.0
 10
72.5477983691
 20
119.5380684911
 30
0.0
 10
72.5076297336
 20
119.5136923343
 30
0.0
 10
72.4574955869
 20
119.4969098337
 30
0.0
 10
72.4012957984
 20
119.4890321658
 30
0.0
 10
72.3435038097
 20
119.490610919
 30
0.0
 10
72.2888744855
 20
119.5015557648
 30
0.0
 10
72.2553455562
 20
119.5153792797
 30
0.0
 10
72.240544509
 20
119.5239244749
 30
0.0
  0
SPLINE
  5
489
100
AcDbEntity
  8
0
100
AcDbSpline
 62
7
  6
BYLAYER
 70
0
 71
3
 72
16
 73
12
 74
0
 42
0.0000001
 43
0.0000001
 44
0.0000000001
 40
0.0
 40
0.0
 40
0.0
 40
0.0
 40
0.1287139141
 40
0.2704310318
 40
0.4176110286
 40
0.562014042
 40
0.6957439753
 40
0.8130667104
 40
0.9124767648
 40
0.9571201908
 40
1.0
 40
1.0
 40
1.0
 40
1.0
 10
72.240544509
 20
119.6872249584
 30
0.0
 10
72.255345431
 20
119.6786798354
 30
0.0
 10
72.288872442
 20
119.6648567254
 30
0.0
 10
72.3434984947
 20
119.653912032
 30
0.0
 10
72.4012872815
 20
119.6523314913
 30
0.0
 10
72.4574864977
 20
119.6602085221
 30
0.0
 10
72.5076226781
 20
119.6769896869
 30
0.0
 10
72.5477932024
 20
119.7013658172
 30
0.0
 10
72.5712021156
 20
119.7282355717
 30
0.0
 10
72.5804305909
 20
119.7515107984
 30
0.0
 10
72.5819523784
 20
119.7631802507
 30
0.0
 10
72.5819566891
 20
119.7688737976
 30
0.0
  0
SPLINE
  5
48A
100
AcDbEntity
  8
0
100
AcDbSpline
 62
7
  6
BYLAYER
 70
0
 71
3
 72
11
 73
7
 74
0
 42
0.0000001
 43
0.0000001
 44
0.0000000001
 40
0.0
 40
0.0
 40
0.0
 40
0.0
 40
0.2674441259
 40
0.5242671998
 40
0.7681230778
 40
1.0
 40
1.0
 40
1.0
 40
1.0
 10
74.9882182017
 20
120.2932137331
 30
0.0
 10
75.0089660526
 20
120.2964234444
 30
0.0
 10
75.0503100055
 20
120.2991036172
 30
0.0
 10
75.1105184967
 20
120.2914065358
 30
0.0
 10
75.1651762252
 20
120.2721019009
 30
0.0
 10
75.1968598255
 20
120.2514822595
 30
0.0
 10
75.2106798437
 20
120.2396356808
 30
0.0
  0
SPLINE
  5
48B
100
AcDbEntity
  8
0
100
AcDbSpline
 62
7
  6
BYLAYER
 70
0
 71
3
 72
9
 73
5
 74
0
 42
0.0000001
 43
0.0000001
 44
0.0000000001
 40
0.0
 40
0.0
 40
0.0
 40
0.0
 40
0.5042379386
 40
1.0
 40
1.0
 40
1.0
 40
1.0
 10
75.2106798437
 20
120.2396356808
 30
0.0
 10
75.2211865448
 20
120.2306292916
 30
0.0
 10
75.240269708
 20
120.2105895085
 30
0.0
 10
75.2546139009
 20
120.1869014312
 30
0.0
 10
75.2603405593
 20
120.1745593423
 30
0.0
  0
SPLINE
  5
48C
100
AcDbEntity
  8
0
100
AcDbSpline
 62
7
  6
BYLAYER
 70
0
 71
3
 72
9
 73
5
 74
0
 42
0.0000001
 43
0.0000001
 44
0.0000000001
 40
0.0
 40
0.0
 40
0.0
 40
0.0
 40
0.7465452545
 40
1.0
 40
1.0
 40
1.0
 40
1.0
 10
69.9011810379
 20
121.0717987981
 30
0.0
 10
69.9076807315
 20
121.0755513763
 30
0.0
 10
69.9170011704
 20
121.0796097373
 30
0.0
 10
69.9267048796
 20
121.0822480471
 30
0.0
 10
69.9291856084
 20
121.0828298398
 30
0.0
  0
SPLINE
  5
48D
100
AcDbEntity
  8
0
100
AcDbSpline
 62
7
  6
BYLAYER
 70
0
 71
3
 72
10
 73
6
 74
0
 42
0.0000001
 43
0.0000001
 44
0.0000000001
 40
0.0
 40
0.0
 40
0.0
 40
0.0
 40
0.4564718751
 40
0.7170075913
 40
1.0
 40
1.0
 40
1.0
 40
1.0
 10
69.9291856084
 20
121.0828298398
 30
0.0
 10
69.9480144499
 20
121.0872456726
 30
0.0
 10
69.9796397053
 20
121.0860655512
 30
0.0
 10
70.0200368624
 20
121.0731985495
 30
0.0
 10
70.0407898902
 20
121.0629483697
 30
0.0
 10
70.0511733977
 20
121.0569535845
 30
0.0
  0
SPLINE
  5
48E
100
AcDbEntity
  8
0
100
AcDbSpline
 62
7
  6
BYLAYER
 70
0
 71
3
 72
11
 73
7
 74
0
 42
0.0000001
 43
0.0000001
 44
0.0000000001
 40
0.0
 40
0.0
 40
0.0
 40
0.0
 40
0.2372465045
 40
0.4999989083
 40
0.7627519059
 40
1.0
 40
1.0
 40
1.0
 40
1.0
 10
74.8740784515
 20
119.7584178449
 30
0.0
 10
74.904196161
 20
119.7410297705
 30
0.0
 10
74.961193443
 20
119.6930681178
 30
0.0
 10
75.027692228
 20
119.6021584611
 30
0.0
 10
75.0731734687
 20
119.4991139873
 30
0.0
 10
75.0862113691
 20
119.4257718651
 30
0.0
 10
75.0862113691
 20
119.3909948934
 30
0.0
  0
SPLINE
  5
48F
100
AcDbEntity
  8
0
100
AcDbSpline
 62
7
  6
BYLAYER
 70
0
 71
3
 72
12
 73
8
 74
0
 42
0.0000001
 43
0.0000001
 44
0.0000000001
 40
0.0
 40
0.0
 40
0.0
 40
0.0
 40
0.2895754303
 40
0.548648526
 40
0.7816490453
 40
0.8918418352
 40
1.0
 40
1.0
 40
1.0
 40
1.0
 10
75.0862113691
 20
119.3909948934
 30
0.0
 10
75.1301043533
 20
119.4163363684
 30
0.0
 10
75.2097220271
 20
119.4711750761
 30
0.0
 10
75.304850195
 20
119.5710809212
 30
0.0
 10
75.3559094755
 20
119.6652332638
 30
0.0
 10
75.3758119911
 20
119.7420085308
 30
0.0
 10
75.3791027697
 20
119.7803051766
 30
0.0
 10
75.3791032597
 20
119.7992356479
 30
0.0
  0
SPLINE
  5
490
100
AcDbEntity
  8
0
100
AcDbSpline
 62
7
  6
BYLAYER
 70
0
 71
3
 72
9
 73
5
 74
0
 42
0.0000001
 43
0.0000001
 44
0.0000000001
 40
0.0
 40
0.0
 40
0.0
 40
0.0
 40
0.2473756735
 40
1.0
 40
1.0
 40
1.0
 40
1.0
 10
70.6959649858
 20
118.3866367915
 30
0.0
 10
70.6897151131
 20
118.3856699305
 30
0.0
 10
70.6645602672
 20
118.3810762187
 30
0.0
 10
70.6398967916
 20
118.37383271
 30
0.0
 10
70.6218968203
 20
118.3670343392
 30
0.0
  0
SPLINE
  5
491
100
AcDbEntity
  8
0
100
AcDbSpline
 62
7
  6
BYLAYER
 70
0
 71
3
 72
11
 73
7
 74
0
 42
0.0000001
 43
0.0000001
 44
0.0000000001
 40
0.0
 40
0.0
 40
0.0
 40
0.0
 40
0.289534906
 40
0.5491059963
 40
0.7822491665
 40
1.0
 40
1.0
 40
1.0
 40
1.0
 10
69.8680455462
 20
120.9512253013
 30
0.0
 10
69.854889617
 20
120.9588207087
 30
0.0
 10
69.8286968711
 20
120.9712655049
 30
0.0
 10
69.7884535302
 20
120.9810064868
 30
0.0
 10
69.7506734334
 20
120.9800591603
 30
0.0
 10
69.7279473388
 20
120.9717828735
 30
0.0
 10
69.7180531864
 20
120.9660705148
 30
0.0
  0
SPLINE
  5
492
100
AcDbEntity
  8
0
100
AcDbSpline
 62
7
  6
BYLAYER
 70
0
 71
3
 72
11
 73
7
 74
0
 42
0.0000001
 43
0.0000001
 44
0.0000000001
 40
0.0
 40
0.0
 40
0.0
 40
0.0
 40
0.22590341
 40
0.4732107062
 40
0.7357630197
 40
1.0
 40
1.0
 40
1.0
 40
1.0
 10
69.397097605
 20
120.271076617
 30
0.0
 10
69.397097605
 20
120.3042884015
 30
0.0
 10
69.4143400451
 20
120.3743078546
 30
0.0
 10
69.4793451857
 20
120.4633781871
 30
0.0
 10
69.5734380172
 20
120.5304619506
 30
0.0
 10
69.6484842098
 20
120.5549170769
 30
0.0
 10
69.6868750296
 20
120.5608561714
 30
0.0
  0
SPLINE
  5
493
100
AcDbEntity
  8
0
100
AcDbSpline
 62
7
  6
BYLAYER
 70
0
 71
3
 72
11
 73
7
 74
0
 42
0.0000001
 43
0.0000001
 44
0.0000000001
 40
0.0
 40
0.0
 40
0.0
 40
0.0
 40
0.3675116753
 40
0.5212671954
 40
0.6544634438
 40
1.0
 40
1.0
 40
1.0
 40
1.0
 10
70.7273207219
 20
121.1615541862
 30
0.0
 10
70.7310024489
 20
121.169487224
 30
0.0
 10
70.7366157672
 20
121.1805315502
 30
0.0
 10
70.7451844544
 20
121.1936969522
 30
0.0
 10
70.7541262407
 20
121.2052789933
 30
0.0
 10
70.7650592822
 20
121.2143438192
 30
0.0
 10
70.7731838799
 20
121.2130767505
 30
0.0
  0
SPLINE
  5
494
100
AcDbEntity
  8
0
100
AcDbSpline
 62
7
  6
BYLAYER
 70
0
 71
3
 72
9
 73
5
 74
0
 42
0.0000001
 43
0.0000001
 44
0.0000000001
 40
0.0
 40
0.0
 40
0.0
 40
0.0
 40
0.2425125468
 40
1.0
 40
1.0
 40
1.0
 40
1.0
 10
70.6959639107
 20
118.3866391078
 30
0.0
 10
70.6983364846
 20
118.3815270798
 30
0.0
 10
70.7087579182
 20
118.3607459644
 30
0.0
 10
70.7216133461
 20
118.3412167383
 30
0.0
 10
70.7323421545
 20
118.3272607453
 30
0.0
  0
SPLINE
  5
495
100
AcDbEntity
  8
0
100
AcDbSpline
 62
7
  6
BYLAYER
 70
0
 71
3
 72
14
 73
10
 74
0
 42
0.0000001
 43
0.0000001
 44
0.0000000001
 40
0.0
 40
0.0
 40
0.0
 40
0.0
 40
0.1519170298
 40
0.2935019577
 40
0.5458806588
 40
0.6612208434
 40
0.7729437713
 40
0.8847379348
 40
1.0
 40
1.0
 40
1.0
 40
1.0
 10
69.8680484776
 20
120.9512269937
 30
0.0
 10
69.8472032027
 20
120.9391920405
 30
0.0
 10
69.808136485
 20
120.9136645478
 30
0.0
 10
69.7422764889
 20
120.8574830119
 30
0.0
 10
69.6924659698
 20
120.7914510481
 30
0.0
 10
69.6672028066
 20
120.7192427524
 30
0.0
 10
69.6609633857
 20
120.6654369657
 30
0.0
 10
69.6672218525
 20
120.6116765789
 30
0.0
 10
69.6791879404
 20
120.577419034
 30
0.0
 10
69.6868761026
 20
120.5608538594
 30
0.0
  0
SPLINE
  5
496
100
AcDbEntity
  8
0
100
AcDbSpline
 62
7
  6
BYLAYER
 70
0
 71
3
 72
11
 73
7
 74
0
 42
0.0000001
 43
0.0000001
 44
0.0000000001
 40
0.0
 40
0.0
 40
0.0
 40
0.0
 40
0.2573985467
 40
0.5159688123
 40
0.7661976683
 40
1.0
 40
1.0
 40
1.0
 40
1.0
 10
70.727324734
 20
121.1615535655
 30
0.0
 10
70.673750674
 20
121.1698412449
 30
0.0
 10
70.5650506325
 20
121.1788091826
 30
0.0
 10
70.4034217962
 20
121.1705333901
 30
0.0
 10
70.249294194
 20
121.1412018915
 30
0.0
 10
70.1526481222
 20
121.1070371393
 30
0.0
 10
70.1079684854
 20
121.0863376166
 30
0.0
  0
SPLINE
  5
497
100
AcDbEntity
  8
0
100
AcDbSpline
 62
7
  6
BYLAYER
 70
0
 71
3
 72
9
 73
5
 74
0
 42
0.0000001
 43
0.0000001
 44
0.0000000001
 40
0.0
 40
0.0
 40
0.0
 40
0.0
 40
0.255086188
 40
1.0
 40
1.0
 40
1.0
 40
1.0
 10
70.1079684854
 20
121.0863376166
 30
0.0
 10
70.1030337899
 20
121.0840514333
 30
0.0
 10
70.083783984
 20
121.0748853817
 30
0.0
 10
70.0649246086
 20
121.0648928025
 30
0.0
 10
70.0511704606
 20
121.0569518888
 30
0.0
  0
SPLINE
  5
498
100
AcDbEntity
  8
0
100
AcDbSpline
 62
7
  6
BYLAYER
 70
0
 71
3
 72
11
 73
7
 74
0
 42
0.0000001
 43
0.0000001
 44
0.0000000001
 40
0.0
 40
0.0
 40
0.0
 40
0.0
 40
0.4353232664
 40
0.5663914674
 40
0.7050693759
 40
1.0
 40
1.0
 40
1.0
 40
1.0
 10
74.9882192747
 20
120.2932114213
 30
0.0
 10
74.9522644202
 20
120.3706809681
 30
0.0
 10
74.8605164863
 20
120.449358596
 30
0.0
 10
74.7374747301
 20
120.5109699217
 30
0.0
 10
74.6337312655
 20
120.5507640895
 30
0.0
 10
74.5504199996
 20
120.5701369741
 30
0.0
 10
74.4932373896
 20
120.5789828809
 30
0.0
  0
SPLINE
  5
499
100
AcDbEntity
  8
0
100
AcDbSpline
 62
7
  6
BYLAYER
 70
0
 71
3
 72
14
 73
10
 74
0
 42
0.0000001
 43
0.0000001
 44
0.0000000001
 40
0.0
 40
0.0
 40
0.0
 40
0.0
 40
0.1519170298
 40
0.2935019579
 40
0.5458806592
 40
0.6612208436
 40
0.7729437713
 40
0.8847379348
 40
1.0
 40
1.0
 40
1.0
 40
1.0
 10
74.8740755145
 20
119.7584161492
 30
0.0
 10
74.8949207898
 20
119.7704511027
 30
0.0
 10
74.9339875084
 20
119.7959785958
 30
0.0
 10
74.9998475062
 20
119.8521601327
 30
0.0
 10
75.0496580268
 20
119.9181920976
 30
0.0
 10
75.0749211904
 20
119.9904003949
 30
0.0
 10
75.0811606109
 20
120.0442061828
 30
0.0
 10
75.0749021436
 20
120.0979665707
 30
0.0
 10
75.0629360554
 20
120.1322241163
 30
0.0
 10
75.055247893
 20
120.1487892912
 30
0.0
  0
SPLINE
  5
49A
100
AcDbEntity
  8
0
100
AcDbSpline
 62
7
  6
BYLAYER
 70
0
 71
3
 72
11
 73
7
 74
0
 42
0.0000001
 43
0.0000001
 44
0.0000000001
 40
0.0
 40
0.0
 40
0.0
 40
0.0
 40
0.287797419
 40
0.5473916959
 40
0.7820650333
 40
1.0
 40
1.0
 40
1.0
 40
1.0
 10
88.7159909057
 20
152.6327160068
 30
0.0
 10
88.593152315
 20
152.7036352959
 30
0.0
 10
88.3688838335
 20
152.8563149366
 30
0.0
 10
88.0950412595
 20
153.1315632383
 30
0.0
 10
87.9103427202
 20
153.434521449
 30
0.0
 10
87.8522712303
 20
153.6541560067
 30
0.0
 10
87.8419507199
 20
153.761068298
 30
0.0
  0
SPLINE
  5
49B
100
AcDbEntity
  8
0
100
AcDbSpline
 62
7
  6
BYLAYER
 70
0
 71
3
 72
12
 73
8
 74
0
 42
0.0000001
 43
0.0000001
 44
0.0000000001
 40
0.0
 40
0.0
 40
0.0
 40
0.0
 40
0.2895726992
 40
0.5486428521
 40
0.7816360446
 40
0.8918385616
 40
1.0
 40
1.0
 40
1.0
 40
1.0
 10
105.6866243093
 20
142.8349378983
 30
0.0
 10
105.5549447418
 20
142.9109614122
 30
0.0
 10
105.3160881577
 20
143.0754745703
 30
0.0
 10
105.0307131514
 20
143.3751926148
 30
0.0
 10
104.8775080242
 20
143.657641024
 30
0.0
 10
104.8178233394
 20
143.8879798624
 30
0.0
 10
104.8079546596
 20
144.0028766892
 30
0.0
 10
104.8079486149
 20
144.0596703863
 30
0.0
  0
SPLINE
  5
49C
100
AcDbEntity
  8
0
100
AcDbSpline
 62
7
  6
BYLAYER
 70
0
 71
3
 72
11
 73
7
 74
0
 42
0.0000001
 43
0.0000001
 44
0.0000000001
 40
0.0
 40
0.0
 40
0.0
 40
0.0
 40
0.2654497945
 40
0.5252097448
 40
0.7720461148
 40
1.0
 40
1.0
 40
1.0
 40
1.0
 10
107.9748735594
 20
142.3303279739
 30
0.0
 10
107.7652733415
 20
142.323583756
 30
0.0
 10
107.3493296991
 20
142.3352831722
 30
0.0
 10
106.744696558
 20
142.4266663663
 30
0.0
 10
106.1854646699
 20
142.587862873
 30
0.0
 10
105.8425846323
 20
142.7448962009
 30
0.0
 10
105.6866243093
 20
142.8349378983
 30
0.0
  0
SPLINE
  5
49D
100
AcDbEntity
  8
0
100
AcDbSpline
 62
7
  6
BYLAYER
 70
0
 71
3
 72
16
 73
12
 74
0
 42
0.0000001
 43
0.0000001
 44
0.0000000001
 40
0.0
 40
0.0
 40
0.0
 40
0.0
 40
0.0454911673
 40
0.0917825973
 40
0.1893248893
 40
0.2972228325
 40
0.4174314515
 40
0.5498790673
 40
0.6929722654
 40
0.8441238032
 40
1.0
 40
1.0
 40
1.0
 40
1.0
 10
76.8667975302
 20
144.0595887492
 30
0.0
 10
76.8668033598
 20
144.0048165045
 30
0.0
 10
76.8576208448
 20
143.8940937978
 30
0.0
 10
76.8022020765
 20
143.6721107031
 30
0.0
 10
76.6600063806
 20
143.3992462629
 30
0.0
 10
76.3936877582
 20
143.1070334347
 30
0.0
 10
76.0401885924
 20
142.8508347471
 30
0.0
 10
75.611777412
 20
142.638165224
 30
0.0
 10
75.1229431378
 20
142.4754478245
 30
0.0
 10
74.5905053058
 20
142.3681902115
 30
0.0
 10
74.2213289387
 20
142.3362821004
 30
0.0
 10
74.0337480628
 20
142.3302463895
 30
0.0
  0
SPLINE
  5
49E
100
AcDbEntity
  8
0
100
AcDbSpline
 62
7
  6
BYLAYER
 70
0
 71
3
 72
20
 73
16
 74
0
 42
0.0000001
 43
0.0000001
 44
0.0000000001
 40
0.0
 40
0.0
 40
0.0
 40
0.0
 40
0.0428529295
 40
0.0875388098
 40
0.1354683232
 40
0.187539192
 40
0.2441342236
 40
0.3052127584
 40
0.3703942197
 40
0.4390458604
 40
0.5832193319
 40
0.7300959543
 40
0.8713750869
 40
0.9376731669
 40
1.0
 40
1.0
 40
1.0
 40
1.0
 10
93.8371727854
 20
153.8426933311
 30
0.0
 10
93.83589685
 20
153.7574684752
 30
0.0
 10
93.8106313622
 20
153.5829809051
 30
0.0
 10
93.707187498
 20
153.3316794265
 30
0.0
 10
93.5419188738
 20
153.0937177695
 30
0.0
 10
93.3194327014
 20
152.8736640914
 30
0.0
 10
93.0447273195
 20
152.6754298638
 30
0.0
 10
92.7236264656
 20
152.5027336538
 30
0.0
 10
92.3627903172
 20
152.3589102671
 30
0.0
 10
91.8302628229
 20
152.2072067643
 30
0.0
 10
91.1174552163
 20
152.108819067
 30
0.0
 10
90.2543621498
 20
152.1339003396
 30
0.0
 10
89.5588254672
 20
152.2738110527
 30
0.0
 10
89.0534449244
 20
152.4572316159
 30
0.0
 10
88.8233509235
 20
152.5707330739
 30
0.0
 10
88.7159909057
 20
152.6327160068
 30
0.0
  0
SPLINE
  5
49F
100
AcDbEntity
  8
0
100
AcDbSpline
 62
7
  6
BYLAYER
 70
0
 71
3
 72
12
 73
8
 74
0
 42
0.0000001
 43
0.0000001
 44
0.0000000001
 40
0.0
 40
0.0
 40
0.0
 40
0.0
 40
0.2895726992
 40
0.5486428521
 40
0.7816360446
 40
0.8918385616
 40
1.0
 40
1.0
 40
1.0
 40
1.0
 10
75.9881218359
 20
145.2843212371
 30
0.0
 10
76.1198014033
 20
145.2082977233
 30
0.0
 10
76.3586579874
 20
145.0437845652
 30
0.0
 10
76.6440329937
 20
144.7440665207
 30
0.0
 10
76.7972381209
 20
144.4616181115
 30
0.0
 10
76.8569228057
 20
144.2312792731
 30
0.0
 10
76.8667914855
 20
144.1163824462
 30
0.0
 10
76.8667975302
 20
144.0595887492
 30
0.0
  0
SPLINE
  5
4A0
100
AcDbEntity
  8
0
100
AcDbSpline
 62
7
  6
BYLAYER
 70
0
 71
3
 72
15
 73
11
 74
0
 42
0.0000001
 43
0.0000001
 44
0.0000000001
 40
0.0
 40
0.0
 40
0.0
 40
0.0
 40
0.0870186155
 40
0.1867840211
 40
0.3043783114
 40
0.4382505843
 40
0.5826663653
 40
0.7297765296
 40
0.8713614306
 40
1.0
 40
1.0
 40
1.0
 40
1.0
 10
93.8373435225
 20
134.275966989
 30
0.0
 10
93.8377370367
 20
134.2481709419
 30
0.0
 10
93.8553435354
 20
134.1882352131
 30
0.0
 10
93.921502053
 20
134.1141537163
 30
0.0
 10
94.018627325
 20
134.0556501738
 30
0.0
 10
94.1394874698
 20
134.0156531268
 30
0.0
 10
94.2747610719
 20
133.9969599509
 30
0.0
 10
94.4137258436
 20
134.0009675423
 30
0.0
 10
94.5450382262
 20
134.0274017912
 30
0.0
 10
94.6256186658
 20
134.0606731319
 30
0.0
 10
94.6612077547
 20
134.0812203792
 30
0.0
  0
SPLINE
  5
4A1
100
AcDbEntity
  8
0
100
AcDbSpline
 62
7
  6
BYLAYER
 70
0
 71
3
 72
12
 73
8
 74
0
 42
0.0000001
 43
0.0000001
 44
0.0000000001
 40
0.0
 40
0.0
 40
0.0
 40
0.0
 40
0.2893148955
 40
0.5484435843
 40
0.7816715179
 40
0.8919666339
 40
1.0
 40
1.0
 40
1.0
 40
1.0
 10
92.9587552394
 20
135.4865431287
 30
0.0
 10
93.0891452615
 20
135.4112641173
 30
0.0
 10
93.3258858208
 20
135.248484958
 30
0.0
 10
93.609618336
 20
134.9524195666
 30
0.0
 10
93.7635958697
 20
134.6735863396
 30
0.0
 10
93.825209793
 20
134.4458753564
 30
0.0
 10
93.8365476707
 20
134.3321823324
 30
0.0
 10
93.8373435225
 20
134.275966989
 30
0.0
  0
SPLINE
  5
4A2
100
AcDbEntity
  8
0
100
AcDbSpline
 62
7
  6
BYLAYER
 70
0
 71
3
 72
20
 73
16
 74
0
 42
0.0000001
 43
0.0000001
 44
0.0000000001
 40
0.0
 40
0.0
 40
0.0
 40
0.0
 40
0.0428242043
 40
0.0875223172
 40
0.1354430121
 40
0.1875084081
 40
0.2440996507
 40
0.3051728106
 40
0.3703531924
 40
0.4390059254
 40
0.5831847126
 40
0.730072895
 40
0.8713628471
 40
0.9376728694
 40
1.0
 40
1.0
 40
1.0
 40
1.0
 10
87.837543729
 20
134.2759525673
 30
0.0
 10
87.8387483733
 20
134.3611299283
 30
0.0
 10
87.8640067609
 20
134.5356025328
 30
0.0
 10
87.9671975017
 20
134.7869725195
 30
0.0
 10
88.1323771674
 20
135.0250419389
 30
0.0
 10
88.3548009589
 20
135.2451511002
 30
0.0
 10
88.6294545774
 20
135.443465487
 30
0.0
 10
88.9505225436
 20
135.6162590373
 30
0.0
 10
89.3113623388
 20
135.760155271
 30
0.0
 10
89.8439382852
 20
135.9119296582
 30
0.0
 10
90.5568405033
 20
136.0104416663
 30
0.0
 10
91.4200780519
 20
135.9853819118
 30
0.0
 10
92.1157664811
 20
135.8455065973
 30
0.0
 10
92.6212387567
 20
135.6620438132
 30
0.0
 10
92.851383861
 20
135.5485326205
 30
0.0
 10
92.9587552394
 20
135.4865431287
 30
0.0
  0
SPLINE
  5
4A3
100
AcDbEntity
  8
0
100
AcDbSpline
 62
7
  6
BYLAYER
 70
0
 71
3
 72
15
 73
11
 74
0
 42
0.0000001
 43
0.0000001
 44
0.0000000001
 40
0.0
 40
0.0
 40
0.0
 40
0.0
 40
0.1286391484
 40
0.2702244649
 40
0.4173348212
 40
0.5617505558
 40
0.6956225706
 40
0.8132164711
 40
0.9129815067
 40
1.0
 40
1.0
 40
1.0
 40
1.0
 10
87.0136823056
 20
134.0812019969
 30
0.0
 10
87.0492716665
 20
134.0606549346
 30
0.0
 10
87.1298525106
 20
134.0273839977
 30
0.0
 10
87.2611652621
 20
134.0009503621
 30
0.0
 10
87.4001300897
 20
133.9969434204
 30
0.0
 10
87.5354034309
 20
134.015637228
 30
0.0
 10
87.656263025
 20
134.0556348451
 30
0.0
 10
87.753387513
 20
134.1141388641
 30
0.0
 10
87.8195450452
 20
134.1882207889
 30
0.0
 10
87.8371506166
 20
134.2481565819
 30
0.0
 10
87.837543729
 20
134.2759525673
 30
0.0
  0
SPLINE
  5
4A4
100
AcDbEntity
  8
0
100
AcDbSpline
 62
7
  6
BYLAYER
 70
0
 71
3
 72
11
 73
7
 74
0
 42
0.0000001
 43
0.0000001
 44
0.0000000001
 40
0.0
 40
0.0
 40
0.0
 40
0.0
 40
0.2654497945
 40
0.5252097448
 40
0.7720461148
 40
1.0
 40
1.0
 40
1.0
 40
1.0
 10
73.6998725857
 20
145.7889311616
 30
0.0
 10
73.9094728036
 20
145.7956753795
 30
0.0
 10
74.325416446
 20
145.7839759632
 30
0.0
 10
74.9300495871
 20
145.6925927692
 30
0.0
 10
75.4892814752
 20
145.5313962625
 30
0.0
 10
75.8321615128
 20
145.3743629346
 30
0.0
 10
75.9881218359
 20
145.2843212371
 30
0.0
  0
SPLINE
  5
4A5
100
AcDbEntity
  8
0
100
AcDbSpline
 62
7
  6
BYLAYER
 70
0
 71
3
 72
15
 73
11
 74
0
 42
0.0000001
 43
0.0000001
 44
0.0000000001
 40
0.0
 40
0.0
 40
0.0
 40
0.0
 40
0.0870184933
 40
0.1867835288
 40
0.3043774293
 40
0.4382494442
 40
0.5826651787
 40
0.729775535
 40
0.8713608515
 40
1.0
 40
1.0
 40
1.0
 40
1.0
 10
87.8375437291
 20
132.2346965248
 30
0.0
 10
87.8371506167
 20
132.2069005393
 30
0.0
 10
87.8195450453
 20
132.1469647463
 30
0.0
 10
87.7533875133
 20
132.0728828215
 30
0.0
 10
87.6562630252
 20
132.0143788024
 30
0.0
 10
87.5354034311
 20
131.9743811853
 30
0.0
 10
87.4001300899
 20
131.9556873776
 30
0.0
 10
87.2611652622
 20
131.9596943192
 30
0.0
 10
87.1298525106
 20
131.9861279548
 30
0.0
 10
87.0492716665
 20
132.0193988918
 30
0.0
 10
87.0136823056
 20
132.039945954
 30
0.0
  0
SPLINE
  5
4A6
100
AcDbEntity
  8
0
100
AcDbSpline
 62
7
  6
BYLAYER
 70
0
 71
3
 72
10
 73
6
 74
0
 42
0.0000001
 43
0.0000001
 44
0.0000000001
 40
0.0
 40
0.0
 40
0.0
 40
0.0
 40
0.5198942104
 40
0.7629915735
 40
1.0
 40
1.0
 40
1.0
 40
1.0
 10
88.1259096547
 20
132.9616148573
 30
0.0
 10
88.0385397585
 20
132.855077282
 30
0.0
 10
87.9292864425
 20
132.6796900572
 30
0.0
 10
87.8524536965
 20
132.4248775624
 30
0.0
 10
87.8384319706
 20
132.2975018433
 30
0.0
 10
87.8375437291
 20
132.2346965248
 30
0.0
  0
SPLINE
  5
4A7
100
AcDbEntity
  8
0
100
AcDbSpline
 62
7
  6
BYLAYER
 70
0
 71
3
 72
10
 73
6
 74
0
 42
0.0000001
 43
0.0000001
 44
0.0000000001
 40
0.0
 40
0.0
 40
0.0
 40
0.0
 40
0.2358376083
 40
0.4782719217
 40
1.0
 40
1.0
 40
1.0
 40
1.0
 10
93.837372971
 20
132.2344463946
 30
0.0
 10
93.8364512037
 20
132.3007963726
 30
0.0
 10
93.820924268
 20
132.4355434202
 30
0.0
 10
93.735156775
 20
132.7049205516
 30
0.0
 10
93.6137191486
 20
132.8884528939
 30
0.0
 10
93.5172650395
 20
132.9991128789
 30
0.0
  0
SPLINE
  5
4A8
100
AcDbEntity
  8
0
100
AcDbSpline
 62
7
  6
BYLAYER
 70
0
 71
3
 72
15
 73
11
 74
0
 42
0.0000001
 43
0.0000001
 44
0.0000000001
 40
0.0
 40
0.0
 40
0.0
 40
0.0
 40
0.1286133896
 40
0.2701699486
 40
0.417261115
 40
0.5616711781
 40
0.6955549816
 40
0.8131726843
 40
0.9129679543
 40
1.0
 40
1.0
 40
1.0
 40
1.0
 10
94.6612557127
 20
132.0399920248
 30
0.0
 10
94.6256819163
 20
132.0194536065
 30
0.0
 10
94.545145297
 20
131.9861789796
 30
0.0
 10
94.4138914632
 20
131.9597272173
 30
0.0
 10
94.2749776685
 20
131.9556880644
 30
0.0
 10
94.1397350151
 20
131.9743383183
 30
0.0
 10
94.0188805224
 20
132.0142826075
 30
0.0
 10
93.9217293955
 20
132.0727322361
 30
0.0
 10
93.8555196097
 20
132.1467532543
 30
0.0
 10
93.8378121835
 20
132.2066532478
 30
0.0
 10
93.837372971
 20
132.2344463946
 30
0.0
  0
SPLINE
  5
4A9
100
AcDbEntity
  8
0
100
AcDbSpline
 62
7
  6
BYLAYER
 70
0
 71
3
 72
16
 73
12
 74
0
 42
0.0000001
 43
0.0000001
 44
0.0000000001
 40
0.0
 40
0.0
 40
0.0
 40
0.0
 40
0.0454911673
 40
0.0917825973
 40
0.1893248893
 40
0.2972228325
 40
0.4174314515
 40
0.5498790673
 40
0.6929722654
 40
0.8441238032
 40
1.0
 40
1.0
 40
1.0
 40
1.0
 10
104.8079486149
 20
144.0596703863
 30
0.0
 10
104.8079427853
 20
144.114442631
 30
0.0
 10
104.8171253003
 20
144.2251653377
 30
0.0
 10
104.8725440686
 20
144.4471484324
 30
0.0
 10
105.0147397645
 20
144.7200128726
 30
0.0
 10
105.2810583869
 20
145.0122257008
 30
0.0
 10
105.6345575528
 20
145.2684243884
 30
0.0
 10
106.0629687331
 20
145.4810939115
 30
0.0
 10
106.5518030073
 20
145.643811311
 30
0.0
 10
107.0842408393
 20
145.751068924
 30
0.0
 10
107.4534172065
 20
145.7829770351
 30
0.0
 10
107.6409980823
 20
145.789012746
 30
0.0
  0
SPLINE
  5
4AA
100
AcDbEntity
  8
0
100
AcDbSpline
 62
7
  6
BYLAYER
 70
0
 71
3
 72
10
 73
6
 74
0
 42
0.0000001
 43
0.0000001
 44
0.0000000001
 40
0.0
 40
0.0
 40
0.0
 40
0.0
 40
0.2344472144
 40
0.4758267181
 40
1.0
 40
1.0
 40
1.0
 40
1.0
 10
101.3582707748
 20
101.0448586586
 30
0.0
 10
101.2960496662
 20
101.0807925429
 30
0.0
 10
101.1773814676
 20
101.1678621811
 30
0.0
 10
100.9722289484
 20
101.3978579314
 30
0.0
 10
100.8715703123
 20
101.6166901258
 30
0.0
 10
100.8250308875
 20
101.7704466639
 30
0.0
  0
SPLINE
  5
4AB
100
AcDbEntity
  8
0
100
AcDbSpline
 62
7
  6
BYLAYER
 70
0
 71
3
 72
9
 73
5
 74
0
 42
0.0000001
 43
0.0000001
 44
0.0000000001
 40
0.0
 40
0.0
 40
0.0
 40
0.0
 40
0.2354865896
 40
1.0
 40
1.0
 40
1.0
 40
1.0
 10
100.8250308875
 20
101.7704466639
 30
0.0
 10
100.8101340268
 20
101.8196627799
 30
0.0
 10
100.7561702819
 20
102.0314607792
 30
0.0
 10
100.7369268884
 20
102.2512648118
 30
0.0
 10
100.7369268884
 20
102.418205177
 30
0.0
  0
SPLINE
  5
4AC
100
AcDbEntity
  8
0
100
AcDbSpline
 62
7
  6
BYLAYER
 70
0
 71
3
 72
10
 73
6
 74
0
 42
0.0000001
 43
0.0000001
 44
0.0000000001
 40
0.0
 40
0.0
 40
0.0
 40
0.0
 40
0.2344421194
 40
0.4758170756
 40
1.0
 40
1.0
 40
1.0
 40
1.0
 10
83.8928065561
 20
109.740784691
 30
0.0
 10
83.8305546933
 20
109.7767250149
 30
0.0
 10
83.7118397623
 20
109.8638404065
 30
0.0
 10
83.5066417509
 20
110.0939760226
 30
0.0
 10
83.4059772183
 20
110.3129242028
 30
0.0
 10
83.3594508507
 20
110.4667611627
 30
0.0
  0
SPLINE
  5
4AD
100
AcDbEntity
  8
0
100
AcDbSpline
 62
7
  6
BYLAYER
 70
0
 71
3
 72
9
 73
5
 74
0
 42
0.0000001
 43
0.0000001
 44
0.0000000001
 40
0.0
 40
0.0
 40
0.0
 40
0.0
 40
0.2354891324
 40
1.0
 40
1.0
 40
1.0
 40
1.0
 10
83.3594508507
 20
110.4667611627
 30
0.0
 10
83.3445739803
 20
110.5159507432
 30
0.0
 10
83.2906815032
 20
110.7276272486
 30
0.0
 10
83.2714621092
 20
110.9472934131
 30
0.0
 10
83.2714621092
 20
111.1141301703
 30
0.0
  0
SPLINE
  5
4AE
100
AcDbEntity
  8
0
100
AcDbSpline
 62
7
  6
BYLAYER
 70
0
 71
3
 72
11
 73
7
 74
0
 42
0.0000001
 43
0.0000001
 44
0.0000000001
 40
0.0
 40
0.0
 40
0.0
 40
0.0
 40
0.2177731171
 40
0.4509285976
 40
0.710222822
 40
1.0
 40
1.0
 40
1.0
 40
1.0
 10
92.7265929075
 20
92.2180244578
 30
0.0
 10
92.5946510865
 20
92.2941993873
 30
0.0
 10
92.3477426606
 20
92.5017172866
 30
0.0
 10
92.0849907596
 20
92.93142285
 30
0.0
 10
91.9287815993
 20
93.4609727894
 30
0.0
 10
91.8981289233
 20
93.8464176524
 30
0.0
 10
91.8981289233
 20
94.0491435851
 30
0.0
  0
SPLINE
  5
4AF
100
AcDbEntity
  8
0
100
AcDbSpline
 62
7
  6
BYLAYER
 70
0
 71
3
 72
11
 73
7
 74
0
 42
0.0000001
 43
0.0000001
 44
0.0000000001
 40
0.0
 40
0.0
 40
0.0
 40
0.0
 40
0.2177731171
 40
0.4509285976
 40
0.710222822
 40
1.0
 40
1.0
 40
1.0
 40
1.0
 10
107.9293254076
 20
100.995273766
 30
0.0
 10
107.7973835866
 20
101.0714486955
 30
0.0
 10
107.5504751607
 20
101.2789665948
 30
0.0
 10
107.2877232597
 20
101.7086721582
 30
0.0
 10
107.1315140994
 20
102.2382220976
 30
0.0
 10
107.1008614233
 20
102.6236669607
 30
0.0
 10
107.1008614233
 20
102.8263928933
 30
0.0
  0
SPLINE
  5
4B0
100
AcDbEntity
  8
0
100
AcDbSpline
 62
7
  6
BYLAYER
 70
0
 71
3
 72
9
 73
5
 74
0
 42
0.0000001
 43
0.0000001
 44
0.0000000001
 40
0.0
 40
0.0
 40
0.0
 40
0.0
 40
0.5103236251
 40
1.0
 40
1.0
 40
1.0
 40
1.0
 10
33.2084780509
 20
85.0681062381
 30
0.0
 10
40.0446095175
 20
90.4793446624
 30
0.0
 10
53.7944024197
 20
100.6449658315
 30
0.0
 10
68.2482255143
 20
109.7889564053
 30
0.0
 10
75.4932875163
 20
113.9718699339
 30
0.0
  0
SPLINE
  5
4B1
100
AcDbEntity
  8
0
100
AcDbSpline
 62
7
  6
BYLAYER
 70
0
 71
3
 72
15
 73
11
 74
0
 42
0.0000001
 43
0.0000001
 44
0.0000000001
 40
0.0
 40
0.0
 40
0.0
 40
0.0
 40
0.1141462769
 40
0.2373347432
 40
0.3669750849
 40
0.4999983967
 40
0.6330219315
 40
0.7626629244
 40
0.8858524171
 40
1.0
 40
1.0
 40
1.0
 40
1.0
 10
91.8980965396
 20
95.2738009127
 30
0.0
 10
92.0917103054
 20
95.3855832053
 30
0.0
 10
92.474158211
 20
95.6537073195
 30
0.0
 10
93.0004172304
 20
96.1460071373
 30
0.0
 10
93.4853327679
 20
96.7280257406
 30
0.0
 10
93.9107549508
 20
97.3777692391
 30
0.0
 10
94.2607354068
 20
98.0710702547
 30
0.0
 10
94.5223188608
 20
98.7820332824
 30
0.0
 10
94.6855330414
 20
99.4839429344
 30
0.0
 10
94.7265118885
 20
99.9492190528
 30
0.0
 10
94.7265118885
 20
100.1727871967
 30
0.0
  0
SPLINE
  5
4B2
100
AcDbEntity
  8
0
100
AcDbSpline
 62
7
  6
BYLAYER
 70
0
 71
3
 72
13
 73
9
 74
0
 42
0.0000001
 43
0.0000001
 44
0.0000000001
 40
0.0
 40
0.0
 40
0.0
 40
0.0
 40
0.1142260229
 40
0.2375602528
 40
0.5000015383
 40
0.7624419778
 40
0.8857752456
 40
1.0
 40
1.0
 40
1.0
 40
1.0
 10
108.8686210164
 20
68.3291481328
 30
0.0
 10
108.8686210164
 20
68.4967895988
 30
0.0
 10
108.8993769325
 20
68.8457870785
 30
0.0
 10
109.0660907302
 20
69.5622206056
 30
0.0
 10
109.4535481883
 20
70.4409353011
 30
0.0
 10
110.0208038379
 20
71.2158426925
 30
0.0
 10
110.5578920416
 20
71.7184361452
 30
0.0
 10
110.8447521554
 20
71.919568419
 30
0.0
 10
110.989932528
 20
72.0033878458
 30
0.0
  0
SPLINE
  5
4B3
100
AcDbEntity
  8
0
100
AcDbSpline
 62
7
  6
BYLAYER
 70
0
 71
3
 72
9
 73
5
 74
0
 42
0.0000001
 43
0.0000001
 44
0.0000000001
 40
0.0
 40
0.0
 40
0.0
 40
0.0
 40
0.2415874967
 40
1.0
 40
1.0
 40
1.0
 40
1.0
 10
72.8063253185
 20
47.5086962854
 30
0.0
 10
72.8063253185
 20
47.5479536768
 30
0.0
 10
72.8097500184
 20
47.7104439692
 30
0.0
 10
72.826178823
 20
47.8725710287
 30
0.0
 10
72.8447040362
 20
47.9944109587
 30
0.0
  0
SPLINE
  5
4B4
100
AcDbEntity
  8
0
100
AcDbSpline
 62
7
  6
BYLAYER
 70
0
 71
3
 72
10
 73
6
 74
0
 42
0.0000001
 43
0.0000001
 44
0.0000000001
 40
0.0
 40
0.0
 40
0.0
 40
0.0
 40
0.2378027779
 40
0.4887044323
 40
1.0
 40
1.0
 40
1.0
 40
1.0
 10
72.8447040362
 20
47.9944109587
 30
0.0
 10
72.8743522514
 20
48.1894066344
 30
0.0
 10
72.9676045924
 20
48.5857410945
 30
0.0
 10
73.2643879652
 20
49.3616419817
 30
0.0
 10
73.5989040923
 20
49.9083020885
 30
0.0
 10
73.8643092648
 20
50.2390586458
 30
0.0
  0
SPLINE
  5
4B5
100
AcDbEntity
  8
0
100
AcDbSpline
 62
7
  6
BYLAYER
 70
0
 71
3
 72
11
 73
7
 74
0
 42
0.0000001
 43
0.0000001
 44
0.0000000001
 40
0.0
 40
0.0
 40
0.0
 40
0.0
 40
0.279476584
 40
0.5417569638
 40
0.7825940789
 40
1.0
 40
1.0
 40
1.0
 40
1.0
 10
73.972519627
 20
50.3691370934
 30
0.0
 10
74.089000025
 20
50.5041840463
 30
0.0
 10
74.3298372133
 20
50.7535599866
 30
0.0
 10
74.7210606497
 20
51.0664514598
 30
0.0
 10
75.1200932285
 20
51.2984764805
 30
0.0
 10
75.39729937
 20
51.3988424895
 30
0.0
 10
75.5323900332
 20
51.4304183277
 30
0.0
  0
SPLINE
  5
4B6
100
AcDbEntity
  8
0
100
AcDbSpline
 62
7
  6
BYLAYER
 70
0
 71
3
 72
10
 73
6
 74
0
 42
0.0000001
 43
0.0000001
 44
0.0000000001
 40
0.0
 40
0.0
 40
0.0
 40
0.0
 40
0.5241919432
 40
0.7655716518
 40
1.0
 40
1.0
 40
1.0
 40
1.0
 10
75.5323900332
 20
51.4304183277
 30
0.0
 10
75.6888628429
 20
51.4669919886
 30
0.0
 10
75.9287538895
 20
51.4893143248
 30
0.0
 10
76.2306049569
 20
51.4266998775
 30
0.0
 10
76.3653732356
 20
51.3674474506
 30
0.0
 10
76.4276044553
 20
51.331507727
 30
0.0
  0
SPLINE
  5
4B7
100
AcDbEntity
  8
0
100
AcDbSpline
 62
7
  6
BYLAYER
 70
0
 71
3
 72
9
 73
5
 74
0
 42
0.0000001
 43
0.0000001
 44
0.0000000001
 40
0.0
 40
0.0
 40
0.0
 40
0.0
 40
0.2649369584
 40
1.0
 40
1.0
 40
1.0
 40
1.0
 10
39.5724449694
 20
30.7707283048
 30
0.0
 10
39.6225019359
 20
30.7996285354
 30
0.0
 10
39.8146777759
 20
30.9027706141
 30
0.0
 10
40.0208650392
 20
30.9816423082
 30
0.0
 10
40.177011701
 20
31.0181912937
 30
0.0
  0
SPLINE
  5
4B8
100
AcDbEntity
  8
0
100
AcDbSpline
 62
7
  6
BYLAYER
 70
0
 71
3
 72
10
 73
6
 74
0
 42
0.0000001
 43
0.0000001
 44
0.0000000001
 40
0.0
 40
0.0
 40
0.0
 40
0.0
 40
0.5241831457
 40
0.7655580266
 40
1.0
 40
1.0
 40
1.0
 40
1.0
 10
40.177011701
 20
31.0181912937
 30
0.0
 10
40.3335019326
 20
31.0548206981
 30
0.0
 10
40.5734501877
 20
31.0771224671
 30
0.0
 10
40.8753560291
 20
31.0144896725
 30
0.0
 10
41.0101597631
 20
30.955239554
 30
0.0
 10
41.0724120342
 20
30.9192989944
 30
0.0
  0
SPLINE
  5
4B9
100
AcDbEntity
  8
0
100
AcDbSpline
 62
7
  6
BYLAYER
 70
0
 71
3
 72
9
 73
5
 74
0
 42
0.0000001
 43
0.0000001
 44
0.0000000001
 40
0.0
 40
0.0
 40
0.0
 40
0.0
 40
0.2415874967
 40
1.0
 40
1.0
 40
1.0
 40
1.0
 10
100.7369268884
 20
102.418205177
 30
0.0
 10
100.7369268884
 20
102.4574625684
 30
0.0
 10
100.7403515883
 20
102.6199528608
 30
0.0
 10
100.7567803929
 20
102.7820799202
 30
0.0
 10
100.7753056061
 20
102.9039198502
 30
0.0
  0
SPLINE
  5
4BA
100
AcDbEntity
  8
0
100
AcDbSpline
 62
7
  6
BYLAYER
 70
0
 71
3
 72
10
 73
6
 74
0
 42
0.0000001
 43
0.0000001
 44
0.0000000001
 40
0.0
 40
0.0
 40
0.0
 40
0.0
 40
0.2378027779
 40
0.4887044323
 40
1.0
 40
1.0
 40
1.0
 40
1.0
 10
100.7753056061
 20
102.9039198502
 30
0.0
 10
100.8049538213
 20
103.0989155259
 30
0.0
 10
100.8982061623
 20
103.495249986
 30
0.0
 10
101.1949895352
 20
104.2711508733
 30
0.0
 10
101.5295056623
 20
104.8178109801
 30
0.0
 10
101.7949108347
 20
105.1485675374
 30
0.0
  0
SPLINE
  5
4BB
100
AcDbEntity
  8
0
100
AcDbSpline
 62
7
  6
BYLAYER
 70
0
 71
3
 72
11
 73
7
 74
0
 42
0.0000001
 43
0.0000001
 44
0.0000000001
 40
0.0
 40
0.0
 40
0.0
 40
0.0
 40
0.279476584
 40
0.5417569638
 40
0.7825940789
 40
1.0
 40
1.0
 40
1.0
 40
1.0
 10
101.903121197
 20
105.278645985
 30
0.0
 10
102.0196015949
 20
105.4136929378
 30
0.0
 10
102.2604387833
 20
105.6630688782
 30
0.0
 10
102.6516622196
 20
105.9759603513
 30
0.0
 10
103.0506947985
 20
106.2079853721
 30
0.0
 10
103.3279009399
 20
106.3083513811
 30
0.0
 10
103.4629916032
 20
106.3399272193
 30
0.0
  0
SPLINE
  5
4BC
100
AcDbEntity
  8
0
100
AcDbSpline
 62
7
  6
BYLAYER
 70
0
 71
3
 72
10
 73
6
 74
0
 42
0.0000001
 43
0.0000001
 44
0.0000000001
 40
0.0
 40
0.0
 40
0.0
 40
0.0
 40
0.5241919432
 40
0.7655716518
 40
1.0
 40
1.0
 40
1.0
 40
1.0
 10
103.4629916032
 20
106.3399272193
 30
0.0
 10
103.6194644128
 20
106.3765008802
 30
0.0
 10
103.8593554594
 20
106.3988232164
 30
0.0
 10
104.1612065269
 20
106.3362087691
 30
0.0
 10
104.2959748056
 20
106.2769563422
 30
0.0
 10
104.3582060253
 20
106.2410166186
 30
0.0
  0
SPLINE
  5
4BD
100
AcDbEntity
  8
0
100
AcDbSpline
 62
7
  6
BYLAYER
 70
0
 71
3
 72
9
 73
5
 74
0
 42
0.0000001
 43
0.0000001
 44
0.0000000001
 40
0.0
 40
0.0
 40
0.0
 40
0.0
 40
0.2573363038
 40
1.0
 40
1.0
 40
1.0
 40
1.0
 10
40.7669908095
 20
30.8106685103
 30
0.0
 10
40.7575774867
 20
30.8326857447
 30
0.0
 10
40.7189779678
 20
30.9173546586
 30
0.0
 10
40.6720031512
 20
30.9982960839
 30
0.0
 10
40.6323032042
 20
31.054859237
 30
0.0
  0
SPLINE
  5
4BE
100
AcDbEntity
  8
0
100
AcDbSpline
 62
7
  6
BYLAYER
 70
0
 71
3
 72
11
 73
7
 74
0
 42
0.0000001
 43
0.0000001
 44
0.0000000001
 40
0.0
 40
0.0
 40
0.0
 40
0.0
 40
0.2177830968
 40
0.450915839
 40
0.7103069095
 40
1.0
 40
1.0
 40
1.0
 40
1.0
 10
76.4276044553
 20
51.331507727
 30
0.0
 10
76.5265569896
 20
51.2743607395
 30
0.0
 10
76.7117226764
 20
51.1187258325
 30
0.0
 10
76.9088358949
 20
50.7964212187
 30
0.0
 10
77.0259031425
 20
50.3992389887
 30
0.0
 10
77.0489483418
 20
50.110160662
 30
0.0
 10
77.0489483418
 20
49.9581612086
 30
0.0
  0
SPLINE
  5
4BF
100
AcDbEntity
  8
0
100
AcDbSpline
 62
7
  6
BYLAYER
 70
0
 71
3
 72
9
 73
5
 74
0
 42
0.0000001
 43
0.0000001
 44
0.0000000001
 40
0.0
 40
0.0
 40
0.0
 40
0.0
 40
0.2433520441
 40
1.0
 40
1.0
 40
1.0
 40
1.0
 10
83.5553284052
 20
110.0541450612
 30
0.0
 10
83.5778852307
 20
110.0521463593
 30
0.0
 10
83.6708014658
 20
110.0465482783
 30
0.0
 10
83.7642453433
 20
110.0511996393
 30
0.0
 10
83.8341525987
 20
110.0595996561
 30
0.0
  0
SPLINE
  5
4C0
100
AcDbEntity
  8
0
100
AcDbSpline
 62
7
  6
BYLAYER
 70
0
 71
3
 72
11
 73
7
 74
0
 42
0.0000001
 43
0.0000001
 44
0.0000000001
 40
0.0
 40
0.0
 40
0.0
 40
0.0
 40
0.2177825102
 40
0.4509091639
 40
0.7102957096
 40
1.0
 40
1.0
 40
1.0
 40
1.0
 10
41.0724120342
 20
30.9192989944
 30
0.0
 10
41.1713719582
 20
30.8621657367
 30
0.0
 10
41.3565221646
 20
30.7065117767
 30
0.0
 10
41.5536362416
 20
30.3842219412
 30
0.0
 10
41.6707103446
 20
29.9870398832
 30
0.0
 10
41.6937564811
 20
29.6979586344
 30
0.0
 10
41.6937564811
 20
29.545953515
 30
0.0
  0
SPLINE
  5
4C1
100
AcDbEntity
  8
0
100
AcDbSpline
 62
7
  6
BYLAYER
 70
0
 71
3
 72
9
 73
5
 74
0
 42
0.0000001
 43
0.0000001
 44
0.0000000001
 40
0.0
 40
0.0
 40
0.0
 40
0.0
 40
0.2573066942
 40
1.0
 40
1.0
 40
1.0
 40
1.0
 10
76.1221228224
 20
51.2230291726
 30
0.0
 10
76.1127467271
 20
51.244953419
 30
0.0
 10
76.0743039534
 20
51.3292778645
 30
0.0
 10
76.0275549593
 20
51.4099048854
 30
0.0
 10
75.9880599258
 20
51.4662717949
 30
0.0
  0
SPLINE
  5
4C2
100
AcDbEntity
  8
0
100
AcDbSpline
 62
7
  6
BYLAYER
 70
0
 71
3
 72
13
 73
9
 74
0
 42
0.0000001
 43
0.0000001
 44
0.0000000001
 40
0.0
 40
0.0
 40
0.0
 40
0.0
 40
0.1142260229
 40
0.2375602528
 40
0.5000015383
 40
0.7624419778
 40
0.8857752456
 40
1.0
 40
1.0
 40
1.0
 40
1.0
 10
41.6937564811
 20
83.026861837
 30
0.0
 10
41.6937564811
 20
82.8592203711
 30
0.0
 10
41.663000565
 20
82.5102228914
 30
0.0
 10
41.4962867673
 20
81.7937893643
 30
0.0
 10
41.1088293091
 20
80.9150746688
 30
0.0
 10
40.5415736595
 20
80.1401672774
 30
0.0
 10
40.0044854559
 20
79.6375738247
 30
0.0
 10
39.717625342
 20
79.4364415509
 30
0.0
 10
39.5724449694
 20
79.352622124
 30
0.0
  0
SPLINE
  5
4C3
100
AcDbEntity
  8
0
100
AcDbSpline
 62
7
  6
BYLAYER
 70
0
 71
3
 72
9
 73
5
 74
0
 42
0.0000001
 43
0.0000001
 44
0.0000000001
 40
0.0
 40
0.0
 40
0.0
 40
0.0
 40
0.4906911349
 40
1.0
 40
1.0
 40
1.0
 40
1.0
 10
79.3823910046
 20
111.726545784
 30
0.0
 10
72.9473692394
 20
108.0113064126
 30
0.0
 10
60.1026051366
 20
99.9660286584
 30
0.0
 10
47.8116155719
 20
91.1019174019
 30
0.0
 10
41.6937564811
 20
86.4057996974
 30
0.0
  0
SPLINE
  5
4C4
100
AcDbEntity
  8
0
100
AcDbSpline
 62
7
  6
BYLAYER
 70
0
 71
3
 72
11
 73
7
 74
0
 42
0.0000001
 43
0.0000001
 44
0.0000000001
 40
0.0
 40
0.0
 40
0.0
 40
0.0
 40
0.289702809
 40
0.549088757
 40
0.7822160314
 40
1.0
 40
1.0
 40
1.0
 40
1.0
 10
85.3927736209
 20
109.8893553806
 30
0.0
 10
85.2611390169
 20
109.8133565601
 30
0.0
 10
84.9992753787
 20
109.6887804228
 30
0.0
 10
84.5967853218
 20
109.5915827179
 30
0.0
 10
84.2191314728
 20
109.6011416171
 30
0.0
 10
83.991763223
 20
109.6836533137
 30
0.0
 10
83.8928065561
 20
109.740784691
 30
0.0
  0
SPLINE
  5
4C5
100
AcDbEntity
  8
0
100
AcDbSpline
 62
7
  6
BYLAYER
 70
0
 71
3
 72
11
 73
7
 74
0
 42
0.0000001
 43
0.0000001
 44
0.0000000001
 40
0.0
 40
0.0
 40
0.0
 40
0.0
 40
0.2897757032
 40
0.5490693955
 40
0.7822254653
 40
1.0
 40
1.0
 40
1.0
 40
1.0
 10
94.7265442721
 20
92.416110532
 30
0.0
 10
94.550986051
 20
92.3147525508
 30
0.0
 10
94.2018694482
 20
92.1485840851
 30
0.0
 10
93.6651834848
 20
92.0190957229
 30
0.0
 10
93.1616907679
 20
92.0317901826
 30
0.0
 10
92.8585303605
 20
92.1418520501
 30
0.0
 10
92.7265929075
 20
92.2180244578
 30
0.0
  0
SPLINE
  5
4C6
100
AcDbEntity
  8
0
100
AcDbSpline
 62
7
  6
BYLAYER
 70
0
 71
3
 72
15
 73
11
 74
0
 42
0.0000001
 43
0.0000001
 44
0.0000000001
 40
0.0
 40
0.0
 40
0.0
 40
0.0
 40
0.1141475829
 40
0.2373370756
 40
0.3669780685
 40
0.5000016033
 40
0.6330249151
 40
0.7626652568
 40
0.8858537231
 40
1.0
 40
1.0
 40
1.0
 40
1.0
 10
98.6156153768
 20
97.9274630468
 30
0.0
 10
98.6156153768
 20
97.703894903
 30
0.0
 10
98.5746365297
 20
97.2386187846
 30
0.0
 10
98.4114223491
 20
96.5367091325
 30
0.0
 10
98.1498388951
 20
95.8257461048
 30
0.0
 10
97.7998584391
 20
95.1324450892
 30
0.0
 10
97.3744362562
 20
94.4827015907
 30
0.0
 10
96.8895207187
 20
93.9006829874
 30
0.0
 10
96.3632616993
 20
93.4083831696
 30
0.0
 10
95.9808137938
 20
93.1402590554
 30
0.0
 10
95.7872000279
 20
93.0284767628
 30
0.0
  0
SPLINE
  5
4C7
100
AcDbEntity
  8
0
100
AcDbSpline
 62
7
  6
BYLAYER
 70
0
 71
3
 72
11
 73
7
 74
0
 42
0.0000001
 43
0.0000001
 44
0.0000000001
 40
0.0
 40
0.0
 40
0.0
 40
0.0
 40
0.2897757032
 40
0.5490693955
 40
0.7822254653
 40
1.0
 40
1.0
 40
1.0
 40
1.0
 10
109.9292767722
 20
101.1933598403
 30
0.0
 10
109.7537185511
 20
101.0920018591
 30
0.0
 10
109.4046019483
 20
100.9258333933
 30
0.0
 10
108.8679159849
 20
100.7963450311
 30
0.0
 10
108.364423268
 20
100.8090394909
 30
0.0
 10
108.0612628606
 20
100.9191013584
 30
0.0
 10
107.9293254076
 20
100.995273766
 30
0.0
  0
SPLINE
  5
4C8
100
AcDbEntity
  8
0
100
AcDbSpline
 62
7
  6
BYLAYER
 70
0
 71
3
 72
17
 73
13
 74
0
 42
0.0000001
 43
0.0000001
 44
0.0000000001
 40
0.0
 40
0.0
 40
0.0
 40
0.0
 40
0.1286933065
 40
0.2702801751
 40
0.4174384432
 40
0.5617797022
 40
0.6954488753
 40
0.8127120148
 40
0.8646745954
 40
0.9125103814
 40
0.9571382807
 40
1.0
 40
1.0
 40
1.0
 40
1.0
 10
104.9795499117
 20
104.8676701002
 30
0.0
 10
104.9795499117
 20
104.6112371069
 30
0.0
 10
104.9078207715
 20
104.0720628774
 30
0.0
 10
104.6400453289
 20
103.2804082948
 30
0.0
 10
104.2274709812
 20
102.5177928322
 30
0.0
 10
103.7032106495
 20
101.8467565665
 30
0.0
 10
103.1101381862
 20
101.3215037188
 30
0.0
 10
102.573337484
 20
101.0279464023
 30
0.0
 10
102.1534123635
 20
100.9162625899
 30
0.0
 10
101.8644014222
 20
100.8949449361
 30
0.0
 10
101.5952925858
 20
100.9344518037
 30
0.0
 10
101.4322289852
 20
101.0021463728
 30
0.0
 10
101.3582707748
 20
101.0448586586
 30
0.0
  0
SPLINE
  5
4C9
100
AcDbEntity
  8
0
100
AcDbSpline
 62
7
  6
BYLAYER
 70
0
 71
3
 72
11
 73
7
 74
0
 42
0.0000001
 43
0.0000001
 44
0.0000000001
 40
0.0
 40
0.0
 40
0.0
 40
0.0
 40
0.2177830968
 40
0.450915839
 40
0.7103069095
 40
1.0
 40
1.0
 40
1.0
 40
1.0
 10
104.3582060253
 20
106.2410166186
 30
0.0
 10
104.4571585595
 20
106.1838696311
 30
0.0
 10
104.6423242464
 20
106.028234724
 30
0.0
 10
104.8394374648
 20
105.7059301102
 30
0.0
 10
104.9565047124
 20
105.3087478803
 30
0.0
 10
104.9795499117
 20
105.0196695536
 30
0.0
 10
104.9795499117
 20
104.8676701002
 30
0.0
  0
SPLINE
  5
4CA
100
AcDbEntity
  8
0
100
AcDbSpline
 62
7
  6
BYLAYER
 70
0
 71
3
 72
9
 73
5
 74
0
 42
0.0000001
 43
0.0000001
 44
0.0000000001
 40
0.0
 40
0.0
 40
0.0
 40
0.0
 40
0.2433912448
 40
1.0
 40
1.0
 40
1.0
 40
1.0
 10
101.0226013003
 20
101.3580633066
 30
0.0
 10
101.0450266536
 20
101.3561146321
 30
0.0
 10
101.137380603
 20
101.3506903386
 30
0.0
 10
101.2302399397
 20
101.3553726165
 30
0.0
 10
101.2997140752
 20
101.3637249637
 30
0.0
  0
SPLINE
  5
4CB
100
AcDbEntity
  8
0
100
AcDbSpline
 62
7
  6
BYLAYER
 70
0
 71
3
 72
9
 73
5
 74
0
 42
0.0000001
 43
0.0000001
 44
0.0000000001
 40
0.0
 40
0.0
 40
0.0
 40
0.0
 40
0.2573066942
 40
1.0
 40
1.0
 40
1.0
 40
1.0
 10
104.0527243924
 20
106.1325380642
 30
0.0
 10
104.0433482971
 20
106.1544623105
 30
0.0
 10
104.0049055233
 20
106.238786756
 30
0.0
 10
103.9581565292
 20
106.319413777
 30
0.0
 10
103.9186614957
 20
106.3757806865
 30
0.0
  0
SPLINE
  5
4CC
100
AcDbEntity
  8
0
100
AcDbSpline
 62
7
  6
BYLAYER
 70
0
 71
3
 72
9
 73
5
 74
0
 42
0.0000001
 43
0.0000001
 44
0.0000000001
 40
0.0
 40
0.0
 40
0.0
 40
0.0
 40
0.5101931032
 40
1.0
 40
1.0
 40
1.0
 40
1.0
 10
15.0975387795
 20
96.1901840288
 30
0.0
 10
21.8358597798
 20
101.502895941
 30
0.0
 10
35.3867982342
 20
111.4893760573
 30
0.0
 10
49.6206247356
 20
120.4824844545
 30
0.0
 10
56.754879798
 20
124.6014239485
 30
0.0
  0
SPLINE
  5
4CD
100
AcDbEntity
  8
0
100
AcDbSpline
 62
7
  6
BYLAYER
 70
0
 71
3
 72
11
 73
7
 74
0
 42
0.0000001
 43
0.0000001
 44
0.0000000001
 40
0.0
 40
0.0
 40
0.0
 40
0.0
 40
0.2475162604
 40
0.5101959011
 40
0.7674329352
 40
1.0
 40
1.0
 40
1.0
 40
1.0
 10
15.0975387795
 20
96.1901840288
 30
0.0
 10
15.029476741
 20
96.1365216201
 30
0.0
 10
14.9035562063
 20
96.0072301188
 30
0.0
 10
14.7577526838
 20
95.7795811547
 30
0.0
 10
14.6605884946
 20
95.5329143857
 30
0.0
 10
14.6336158659
 20
95.3612365494
 30
0.0
 10
14.6335965796
 20
95.279798942
 30
0.0
  0
SPLINE
  5
4CE
100
AcDbEntity
  8
0
100
AcDbSpline
 62
7
  6
BYLAYER
 70
0
 71
3
 72
9
 73
5
 74
0
 42
0.0000001
 43
0.0000001
 44
0.0000000001
 40
0.0
 40
0.0
 40
0.0
 40
0.0
 40
0.2411354085
 40
1.0
 40
1.0
 40
1.0
 40
1.0
 10
97.6940423628
 20
130.654296719
 30
0.0
 10
97.5053066348
 20
130.7411627841
 30
0.0
 10
96.7134324373
 20
131.0813315147
 30
0.0
 10
95.8890133162
 20
131.3438823424
 30
0.0
 10
95.2551679663
 20
131.5043845841
 30
0.0
  0
SPLINE
  5
4CF
100
AcDbEntity
  8
0
100
AcDbSpline
 62
7
  6
BYLAYER
 70
0
 71
3
 72
12
 73
8
 74
0
 42
0.0000001
 43
0.0000001
 44
0.0000000001
 40
0.0
 40
0.0
 40
0.0
 40
0.0
 40
0.2902099467
 40
0.5493801434
 40
0.782022067
 40
0.8920149205
 40
1.0
 40
1.0
 40
1.0
 40
1.0
 10
68.2100381232
 20
119.0745812264
 30
0.0
 10
67.9688583162
 20
119.2113929462
 30
0.0
 10
67.5313701564
 20
119.5078152282
 30
0.0
 10
67.0078976207
 20
120.0497927612
 30
0.0
 10
66.7267902843
 20
120.5621398601
 30
0.0
 10
66.6172246384
 20
120.9803286302
 30
0.0
 10
66.5991845205
 20
121.1890450074
 30
0.0
 10
66.599186407
 20
121.2922195805
 30
0.0
  0
SPLINE
  5
4D0
100
AcDbEntity
  8
0
100
AcDbSpline
 62
7
  6
BYLAYER
 70
0
 71
3
 72
15
 73
11
 74
0
 42
0.0000001
 43
0.0000001
 44
0.0000000001
 40
0.0
 40
0.0
 40
0.0
 40
0.0
 40
0.1142603734
 40
0.237610052
 40
0.3674099937
 40
0.5005509206
 40
0.6336151769
 40
0.7631913472
 40
0.8861879257
 40
1.0
 40
1.0
 40
1.0
 40
1.0
 10
75.9880828327
 20
119.1137152326
 30
0.0
 10
75.7217669869
 20
118.9599586251
 30
0.0
 10
75.1394900736
 20
118.6883570523
 30
0.0
 10
74.1916172936
 20
118.3979751611
 30
0.0
 10
73.1653266883
 20
118.2170912954
 30
0.0
 10
72.099290659
 20
118.1523460626
 30
0.0
 10
71.0332536166
 20
118.2062987846
 30
0.0
 10
70.0069560512
 20
118.3767933063
 30
0.0
 10
69.0590541292
 20
118.6575858921
 30
0.0
 10
68.4764650711
 20
118.9234478069
 30
0.0
 10
68.2100381232
 20
119.0745812264
 30
0.0
  0
SPLINE
  5
4D1
100
AcDbEntity
  8
0
100
AcDbSpline
 62
7
  6
BYLAYER
 70
0
 71
3
 72
11
 73
7
 74
0
 42
0.0000001
 43
0.0000001
 44
0.0000000001
 40
0.0
 40
0.0
 40
0.0
 40
0.0
 40
0.2178162676
 40
0.4509258167
 40
0.7102895079
 40
1.0
 40
1.0
 40
1.0
 40
1.0
 10
92.9480722005
 20
101.9914677449
 30
0.0
 10
93.0173716697
 20
101.9514969479
 30
0.0
 10
93.1469781721
 20
101.8425102649
 30
0.0
 10
93.2849134703
 20
101.6168932468
 30
0.0
 10
93.3669020057
 20
101.3388895344
 30
0.0
 10
93.3830145978
 20
101.1365342687
 30
0.0
 10
93.3830145978
 20
101.0301281386
 30
0.0
  0
SPLINE
  5
4D2
100
AcDbEntity
  8
0
100
AcDbSpline
 62
7
  6
BYLAYER
 70
0
 71
3
 72
12
 73
8
 74
0
 42
0.0000001
 43
0.0000001
 44
0.0000000001
 40
0.0
 40
0.0
 40
0.0
 40
0.0
 40
0.107644834
 40
0.2174665307
 40
0.4501470522
 40
0.7095809748
 40
1.0
 40
1.0
 40
1.0
 40
1.0
 10
66.599186407
 20
121.2922195805
 30
0.0
 10
66.5991882949
 20
121.3954744598
 30
0.0
 10
66.6172762943
 20
121.6045157783
 30
0.0
 10
66.7269468909
 20
122.0239502786
 30
0.0
 10
67.008072381
 20
122.5388822597
 30
0.0
 10
67.5311804737
 20
123.0858108334
 30
0.0
 10
67.9686222943
 20
123.3866959598
 30
0.0
 10
68.2098758561
 20
123.5259829372
 30
0.0
  0
SPLINE
  5
4D3
100
AcDbEntity
  8
0
100
AcDbSpline
 62
7
  6
BYLAYER
 70
0
 71
3
 72
9
 73
5
 74
0
 42
0.0000001
 43
0.0000001
 44
0.0000000001
 40
0.0
 40
0.0
 40
0.0
 40
0.0
 40
0.2248687607
 40
1.0
 40
1.0
 40
1.0
 40
1.0
 10
108.0406741949
 20
111.967989438
 30
0.0
 10
108.0728413311
 20
111.9206940073
 30
0.0
 10
108.1947800524
 20
111.6958088529
 30
0.0
 10
108.2321951793
 20
111.4334230355
 30
0.0
 10
108.2321951793
 20
111.2362602042
 30
0.0
  0
SPLINE
  5
4D4
100
AcDbEntity
  8
0
100
AcDbSpline
 62
7
  6
BYLAYER
 70
0
 71
3
 72
9
 73
5
 74
0
 42
0.0000001
 43
0.0000001
 44
0.0000000001
 40
0.0
 40
0.0
 40
0.0
 40
0.0
 40
0.245924343
 40
1.0
 40
1.0
 40
1.0
 40
1.0
 10
75.4932875163
 20
113.9718699339
 30
0.0
 10
73.721338099
 20
112.9488405675
 30
0.0
 10
66.5575089281
 20
108.7174098784
 30
0.0
 10
59.5592128143
 20
104.2068585607
 30
0.0
 10
54.3783519511
 20
100.6685327405
 30
0.0
  0
SPLINE
  5
4D5
100
AcDbEntity
  8
0
100
AcDbSpline
 62
7
  6
BYLAYER
 70
0
 71
3
 72
11
 73
7
 74
0
 42
0.0000001
 43
0.0000001
 44
0.0000000001
 40
0.0
 40
0.0
 40
0.0
 40
0.0
 40
0.2312819665
 40
0.4867381048
 40
0.7492541754
 40
1.0
 40
1.0
 40
1.0
 40
1.0
 10
108.2321951793
 20
107.9702505356
 30
0.0
 10
108.2321951793
 20
107.7671100368
 30
0.0
 10
108.1680995027
 20
107.3391506145
 30
0.0
 10
107.9347293047
 20
106.7198267524
 30
0.0
 10
107.5816521479
 20
106.1399650979
 30
0.0
 10
107.2757417712
 20
105.8035300282
 30
0.0
 10
107.1094133145
 20
105.6591736217
 30
0.0
  0
SPLINE
  5
4D6
100
AcDbEntity
  8
0
100
AcDbSpline
 62
7
  6
BYLAYER
 70
0
 71
3
 72
11
 73
7
 74
0
 42
0.0000001
 43
0.0000001
 44
0.0000000001
 40
0.0
 40
0.0
 40
0.0
 40
0.0
 40
0.2278496403
 40
0.4769700311
 40
0.738023392
 40
1.0
 40
1.0
 40
1.0
 40
1.0
 10
93.3830145978
 20
101.0301281386
 30
0.0
 10
93.3830145978
 20
100.8759657091
 30
0.0
 10
93.3459053547
 20
100.5528913214
 30
0.0
 10
93.2036118107
 20
100.0722261579
 30
0.0
 10
92.980611034
 20
99.5977439347
 30
0.0
 10
92.7846444115
 20
99.301263956
 30
0.0
 10
92.6759107606
 20
99.1612800579
 30
0.0
  0
SPLINE
  5
4D7
100
AcDbEntity
  8
0
100
AcDbSpline
 62
7
  6
BYLAYER
 70
0
 71
3
 72
11
 73
7
 74
0
 42
0.0000001
 43
0.0000001
 44
0.0000000001
 40
0.0
 40
0.0
 40
0.0
 40
0.0
 40
0.2280005558
 40
0.4777172867
 40
0.7389646715
 40
1.0
 40
1.0
 40
1.0
 40
1.0
 10
92.6759107606
 20
98.9888791505
 30
0.0
 10
92.6759107606
 20
98.8292789066
 30
0.0
 10
92.6361246012
 20
98.4945059744
 30
0.0
 10
92.4845465547
 20
97.9977323364
 30
0.0
 10
92.2477541196
 20
97.5097371696
 30
0.0
 10
92.0400425483
 20
97.2068334148
 30
0.0
 10
91.9250108134
 20
97.0648617057
 30
0.0
  0
SPLINE
  5
4D8
100
AcDbEntity
  8
0
100
AcDbSpline
 62
7
  6
BYLAYER
 70
0
 71
3
 72
12
 73
8
 74
0
 42
0.0000001
 43
0.0000001
 44
0.0000000001
 40
0.0
 40
0.0
 40
0.0
 40
0.0
 40
0.1078215648
 40
0.218631087
 40
0.4537529631
 40
0.713282567
 40
1.0
 40
1.0
 40
1.0
 40
1.0
 10
102.3022167327
 20
119.4543806667
 30
0.0
 10
102.2755293107
 20
119.2577102648
 30
0.0
 10
102.1907563709
 20
118.862454632
 30
0.0
 10
101.8977770696
 20
118.0776668969
 30
0.0
 10
101.293459683
 20
117.1255843699
 30
0.0
 10
100.2629500108
 20
116.1092773593
 30
0.0
 10
99.4262029133
 20
115.541926344
 30
0.0
 10
98.9691349118
 20
115.2780395854
 30
0.0
  0
SPLINE
  5
4D9
100
AcDbEntity
  8
0
100
AcDbSpline
 62
7
  6
BYLAYER
 70
0
 71
3
 72
9
 73
5
 74
0
 42
0.0000001
 43
0.0000001
 44
0.0000000001
 40
0.0
 40
0.0
 40
0.0
 40
0.0
 40
0.2248687607
 40
1.0
 40
1.0
 40
1.0
 40
1.0
 10
92.4843897762
 20
102.9866180528
 30
0.0
 10
92.5165569124
 20
102.9393226221
 30
0.0
 10
92.6384956337
 20
102.7144374678
 30
0.0
 10
92.6759107606
 20
102.4520516503
 30
0.0
 10
92.6759107606
 20
102.254888819
 30
0.0
  0
LINE
  5
4DA
100
AcDbEntity
  8
0
100
AcDbLine
 62
7
  6
BYLAYER
 10
15.0975385032
 20
96.1901855472
 11
33.672091908
 21
85.4345252354
  0
SPLINE
  5
4DB
100
AcDbEntity
  8
0
100
AcDbSpline
 62
7
  6
BYLAYER
 70
0
 71
3
 72
9
 73
5
 74
0
 42
0.0000001
 43
0.0000001
 44
0.0000000001
 40
0.0
 40
0.0
 40
0.0
 40
0.0
 40
0.2560357013
 40
1.0
 40
1.0
 40
1.0
 40
1.0
 10
95.3003607625
 20
130.5954162328
 30
0.0
 10
95.4219127762
 20
130.5585657116
 30
0.0
 10
95.894538849
 20
130.4077973242
 30
0.0
 10
96.358418566
 20
130.2291376342
 30
0.0
 10
96.6956378064
 20
130.0791547956
 30
0.0
  0
ELLIPSE
  5
4DC
100
AcDbEntity
  8
0
100
AcDbEllipse
 62
7
  6
BYLAYER
 10
15.1993011896
 20
38.3613841026
 30
0.0
 11
0.400023676
 21
0.6928770029
 31
0.0
 40
0.5773080272
 41
-3.9269655424
 42
-3.1503187453
  0
ENDSEC
  0
SECTION
  2
OBJECTS
  0
DICTIONARY
  5
C
100
AcDbDictionary
280
0
281
1
  3
ACAD_GROUP
350
D
  3
ACAD_MLINESTYLE
350
17
  3
ACAD_LAYOUT
350
1A
  3
ACAD_PLOTSETTINGS
350
19
  3
ACAD_PLOTSTYLENAME
350
E
  0
DICTIONARY
  5
D
102
{ACAD_REACTORS
330
C
102
}
100
AcDbDictionary
280
0
281
1
  0
ACDBDICTIONARYWDFLT
  5
E
102
{ACAD_REACTORS
330
C
102
}
100
AcDbDictionary
281
1
  3
Normal
350
F
100
AcDbDictionaryWithDefault
340
F
  0
DICTIONARY
  5
17
102
{ACAD_REACTORS
330
C
102
}
100
AcDbDictionary
280
0
281
1
  3
Standard
350
18
  0
DICTIONARY
  5
19
102
{ACAD_REACTORS
330
C
102
}
100
AcDbDictionary
281
1
  0
DICTIONARY
  5
1A
102
{ACAD_REACTORS
330
C
102
}
100
AcDbDictionary
281
1
  3
Model
350
4DD
  3
Layout1
350
4DE
  0
ACDBPLACEHOLDER
  5
F
102
{ACAD_REACTORS
330
E
102
}
  0
MLINESTYLE
  5
18
102
{ACAD_REACTORS
330
17
102
}
100
AcDbMlineStyle
  2
STANDARD
 70
0
  3

 62
256
 51
90.0
 52
90.0
 71
2
 49
0.5
 62
256
  6
BYLAYER
 49
-0.5
 62
256
  6
BYLAYER
  0
LAYOUT
  5
4DD
102
{ACAD_REACTORS
330
1A
102
}
100
AcDbPlotSettings
  1

  2
none_device
  4

  6

 40
0.0
 41
0.0
 42
0.0
 43
0.0
 44
210.0
 45
297.0
 46
0.0
 47
0.0
 48
0.0
 49
0.0
140
0.0
141
0.0
142
1.0
143
1.0
 70
1024
 72
1
 73
0
 74
0
  7

 75
0
147
1.0
148
0.0
149
0.0
100
AcDbLayout
  1
Model
 70
0
 71
0
 10
0.0
 20
0.0
 11
210.0
 21
297.0
 12
0.0
 22
0.0
 32
0.0
 14
0.0
 24
0.0
 34
0.0
 15
0.0
 25
0.0
 35
0.0
146
0.0
 13
0.0
 23
0.0
 33
0.0
 16
1.0
 26
0.0
 36
0.0
 17
0.0
 27
1.0
 37
0.0
 76
0
330
210
345
0
346
0
  0
LAYOUT
  5
4DE
102
{ACAD_REACTORS
330
1A
102
}
100
AcDbPlotSettings
  1

  2
none_device
  4

  6

 40
0.0
 41
0.0
 42
0.0
 43
0.0
 44
210.0
 45
297.0
 46
0.0
 47
0.0
 48
0.0
 49
0.0
140
0.0
141
0.0
142
1.0
143
1.0
 70
0
 72
1
 73
0
 74
0
  7

 75
0
147
1.0
148
0.0
149
0.0
100
AcDbLayout
  1
Layout1
 70
0
 71
1
 10
0.0
 20
0.0
 11
210.0
 21
297.0
 12
0.0
 22
0.0
 32
0.0
 14
0.0
 24
0.0
 34
0.0
 15
0.0
 25
0.0
 35
0.0
146
0.0
 13
0.0
 23
0.0
 33
0.0
 16
1.0
 26
0.0
 36
0.0
 17
0.0
 27
1.0
 37
0.0
 76
0
330
211
345
0
346
0
  0
ENDSEC
  0
EOF
