999
DXF file: C:\Users\sesa63760\Dev\_Creo\CAD\MCADID0004760_3D-CAD\drw0001_1.dxf
999
Pro/ENGINEER 2019471 by Parametric Technology Corporation
  0
SECTION
  2
HEADER
  9
$ACADVER
  1
AC1024
  9
$DWGCODEPAGE
  3
ANSI_1252
  9
$EXTMAX
 10
56.1230602777
 20
79.3740423928
 30
0.0
  9
$EXTMIN
 10
0.0
 20
0.0
 30
0.0
  9
$LIMMIN
 10
0.0
 20
0.0
  9
$LIMMAX
 10
56.1230602777
 20
79.3740423928
  9
$VIEWCTR
 10
28.0615301389
 20
39.6870211964
  9
$VIEWSIZE
 40
79.3740423928
  9
$CLAYER
  8
0
  9
$LTSCALE
 40
5.1740116523
  9
$CELTYPE
  6
BYLAYER
  9
$DIMSCALE
 40
1.0
  9
$DIMASZ
 40
0.66813167
  9
$DIMEXO
 40
1.0
  9
$DIMDLI
 40
3.574771687
  9
$DIMEXE
 40
1.0
  9
$DIMCEN
 40
0.8466564522
  9
$DIMLFAC
 40
1.0
  9
$DIMBLK
  1
_FILLED
  9
$DIMALT
 70
0
  9
$DIMALTF
 40
0.0393700787
  9
$DIMTXT
 40
0.935384338
  9
$DIMTOL
 70
1
  9
$DIMLIM
 70
0
  9
$DIMTFAC
 40
1.0
  9
$DIMTP
 40
0.01
  9
$DIMTM
 40
0.01
  9
$DIMGAP
 40
0.625
  9
$DIMDSEP
 70
46
  9
$AUNITS
 70
0
  9
$PDMODE
 70
3
  9
$PDSIZE
 40
0.3125
  9
$HANDSEED
  5
444
  9
$TILEMODE
 70
1
  9
$MEASUREMENT
 70
1
  9
$INSUNITS
 70
4
  0
ENDSEC
  0
SECTION
  2
CLASSES
  0
CLASS
  1
ACDBDICTIONARYWDFLT
  2
AcDbDictionaryWithDefault
  3
AutoCAD 2000
 90
0
 91
1
280
0
281
0
  0
CLASS
  1
ACDBPLACEHOLDER
  2
AcDbPlaceHolder
  3
AutoCAD 2000
 90
0
 91
1
280
0
281
0
  0
CLASS
  1
LAYOUT
  2
AcDbLayout
  3
AutoCAD 2000
 90
0
 91
0
280
0
281
0
  0
ENDSEC
  0
SECTION
  2
TABLES
  0
TABLE
  2
VPORT
  5
8
100
AcDbSymbolTable
 70
2
  0
VPORT
  5
1F4
100
AcDbSymbolTableRecord
100
AcDbViewportTableRecord
  2
*ACTIVE
 70
0
 10
0.0
 20
0.0
 11
1.0
 21
1.0
 12
28.0615301389
 22
39.6870211964
 13
0.0
 23
0.0
 14
1.0
 24
1.0
 15
0.0
 25
0.0
 16
0.0
 26
0.0
 36
1.0
 17
0.0
 27
0.0
 37
0.0
 40
79.3740423928
 41
0.7070707071
 42
50.0
 43
0.0
 44
0.0
 50
0.0
 51
0.0
 71
0
 72
100
 73
1
 74
1
 75
0
 76
0
 77
0
 78
0
  0
ENDTAB
  0
TABLE
  2
LTYPE
  5
5
100
AcDbSymbolTable
 70
6
  0
LTYPE
  5
14
100
AcDbSymbolTableRecord
100
AcDbLinetypeTableRecord
  2
BYBLOCK
 70
0
  3

 72
65
 73
0
 40
0.0
  0
LTYPE
  5
15
100
AcDbSymbolTableRecord
100
AcDbLinetypeTableRecord
  2
BYLAYER
 70
0
  3

 72
65
 73
0
 40
0.0
  0
LTYPE
  5
16
100
AcDbSymbolTableRecord
100
AcDbLinetypeTableRecord
  2
CONTINUOUS
 70
64
  3
Solid line
 72
65
 73
0
 40
0.0
  0
LTYPE
  5
1F5
100
AcDbSymbolTableRecord
100
AcDbLinetypeTableRecord
  2
CENTER
 70
64
  3
____ _ ____ _ ____ _ ____ _ ____ _ ____ _ ____
 72
65
 73
4
 40
0.6
 49
0.375
 74
0
 49
-0.075
 74
0
 49
0.075
 74
0
 49
-0.075
 74
0
  0
LTYPE
  5
1F6
100
AcDbSymbolTableRecord
100
AcDbLinetypeTableRecord
  2
HIDDEN
 70
64
  3
- - - - - - - - - - - - - - - - - - - -
 72
65
 73
2
 40
0.2
 49
0.1
 74
0
 49
-0.1
 74
0
  0
LTYPE
  5
1F7
100
AcDbSymbolTableRecord
100
AcDbLinetypeTableRecord
  2
PHANTOM
 70
64
  3
_____ _ _ _____ _ _ _____ _ _ _____
 72
65
 73
6
 40
0.8
 49
0.45
 74
0
 49
-0.05
 74
0
 49
0.1
 74
0
 49
-0.05
 74
0
 49
0.1
 74
0
 49
-0.05
 74
0
  0
LTYPE
  5
1F8
100
AcDbSymbolTableRecord
100
AcDbLinetypeTableRecord
  2
DOT
 70
64
  3
. . . . . . . . . . . . . . . . . . . .
 72
65
 73
2
 40
0.2
 49
0.1
 74
0
 49
-0.1
 74
0
  0
LTYPE
  5
1F9
100
AcDbSymbolTableRecord
100
AcDbLinetypeTableRecord
  2
DASHED
 70
64
  3
- - - - - - - - - - - - - - - - - - - -
 72
65
 73
2
 40
0.2
 49
0.1
 74
0
 49
-0.1
 74
0
  0
ENDTAB
  0
TABLE
  2
LAYER
  5
2
100
AcDbSymbolTable
 70
36
  0
LAYER
  5
10
100
AcDbSymbolTableRecord
100
AcDbLayerTableRecord
  2
0
 70
0
 62
7
  6
CONTINUOUS
370
-3
390
F
  0
LAYER
  5
1FA
100
AcDbSymbolTableRecord
100
AcDbLayerTableRecord
  2
DEFAULT_1
 70
0
 62
7
  6
CENTER
370
-3
390
F
  0
LAYER
  5
1FB
100
AcDbSymbolTableRecord
100
AcDbLayerTableRecord
  2
DEFAULT_2
 70
0
 62
7
  6
HIDDEN
370
-3
390
F
  0
LAYER
  5
1FC
100
AcDbSymbolTableRecord
100
AcDbLayerTableRecord
  2
DEFAULT_3
 70
0
 62
7
  6
PHANTOM
370
-3
390
F
  0
LAYER
  5
1FD
100
AcDbSymbolTableRecord
100
AcDbLayerTableRecord
  2
00_COMPONENTS
 70
0
 62
7
  6
CONTINUOUS
370
-3
390
F
  0
LAYER
  5
1FE
100
AcDbSymbolTableRecord
100
AcDbLayerTableRecord
  2
01_1_DEFAULT_DATUMS
 70
0
 62
7
  6
CONTINUOUS
370
-3
390
F
  0
LAYER
  5
1FF
100
AcDbSymbolTableRecord
100
AcDbLayerTableRecord
  2
01_PLANES
 70
0
 62
7
  6
CONTINUOUS
370
-3
390
F
  0
LAYER
  5
200
100
AcDbSymbolTableRecord
100
AcDbLayerTableRecord
  2
02_COORD_SYS
 70
0
 62
7
  6
CONTINUOUS
370
-3
390
F
  0
LAYER
  5
201
100
AcDbSymbolTableRecord
100
AcDbLayerTableRecord
  2
03_AXES
 70
0
 62
7
  6
CONTINUOUS
370
-3
390
F
  0
LAYER
  5
202
100
AcDbSymbolTableRecord
100
AcDbLayerTableRecord
  2
04_POINTS
 70
0
 62
7
  6
CONTINUOUS
370
-3
390
F
  0
LAYER
  5
203
100
AcDbSymbolTableRecord
100
AcDbLayerTableRecord
  2
05_CURVES
 70
0
 62
7
  6
CONTINUOUS
370
-3
390
F
  0
LAYER
  5
204
100
AcDbSymbolTableRecord
100
AcDbLayerTableRecord
  2
06_SURFS
 70
0
 62
7
  6
CONTINUOUS
370
-3
390
F
  0
LAYER
  5
205
100
AcDbSymbolTableRecord
100
AcDbLayerTableRecord
  2
07_COSMETICS
 70
0
 62
7
  6
CONTINUOUS
370
-3
390
F
  0
LAYER
  5
206
100
AcDbSymbolTableRecord
100
AcDbLayerTableRecord
  2
10_NOTES
 70
0
 62
7
  6
CONTINUOUS
370
-3
390
F
  0
LAYER
  5
207
100
AcDbSymbolTableRecord
100
AcDbLayerTableRecord
  2
11_NOTES_PUB
 70
0
 62
7
  6
CONTINUOUS
370
-3
390
F
  0
LAYER
  5
208
100
AcDbSymbolTableRecord
100
AcDbLayerTableRecord
  2
13_REF_GTOL
 70
0
 62
7
  6
CONTINUOUS
370
-3
390
F
  0
LAYER
  5
209
100
AcDbSymbolTableRecord
100
AcDbLayerTableRecord
  2
16_MISC
 70
0
 62
7
  6
CONTINUOUS
370
-3
390
F
  0
LAYER
  5
20A
100
AcDbSymbolTableRecord
100
AcDbLayerTableRecord
  2
17_NO_PRINT
 70
0
 62
7
  6
CONTINUOUS
370
-3
390
F
  0
LAYER
  5
20B
100
AcDbSymbolTableRecord
100
AcDbLayerTableRecord
  2
18_DATUM_CAMS_JOINTS
 70
0
 62
7
  6
CONTINUOUS
370
-3
390
F
  0
LAYER
  5
20C
100
AcDbSymbolTableRecord
100
AcDbLayerTableRecord
  2
19_DATUM_FUNCTIONAL
 70
0
 62
7
  6
CONTINUOUS
370
-3
390
F
  0
LAYER
  5
20D
100
AcDbSymbolTableRecord
100
AcDbLayerTableRecord
  2
20_DATUM_KINEMATIC_SCHEME
 70
0
 62
7
  6
CONTINUOUS
370
-3
390
F
  0
ENDTAB
  0
TABLE
  2
STYLE
  5
3
100
AcDbSymbolTable
 70
1
  0
STYLE
  5
11
100
AcDbSymbolTableRecord
100
AcDbTextStyleTableRecord
  2
STANDARD
 70
0
 40
0.0
 41
1.0
 50
0.0
 71
0
 42
0.2
  3
ARIAL.TTF
  4

  0
STYLE
  5
20E
100
AcDbSymbolTableRecord
100
AcDbTextStyleTableRecord
  2
TEXTSTYLE_1
 70
0
 40
0.0
 41
0.8
 50
0.0
 71
0
 42
0.2
  3
gdt
  4

  0
ENDTAB
  0
TABLE
  2
VIEW
  5
6
100
AcDbSymbolTable
 70
0
  0
ENDTAB
  0
TABLE
  2
UCS
  5
7
100
AcDbSymbolTable
 70
0
  0
ENDTAB
  0
TABLE
  2
APPID
  5
9
100
AcDbSymbolTable
 70
1
  0
APPID
  5
20F
100
AcDbSymbolTableRecord
100
AcDbRegAppTableRecord
  2
ACAD
 70
0
  0
ENDTAB
  0
TABLE
  2
BLOCK_RECORD
  5
1
100
AcDbSymbolTable
 70
0
  0
BLOCK_RECORD
  5
210
100
AcDbSymbolTableRecord
100
AcDbBlockTableRecord
  2
*Model_Space
  0
BLOCK_RECORD
  5
211
100
AcDbSymbolTableRecord
100
AcDbBlockTableRecord
  2
*Paper_Space
  0
BLOCK_RECORD
  5
212
100
AcDbSymbolTableRecord
100
AcDbBlockTableRecord
  2
_FILLED
  0
ENDTAB
  0
TABLE
  2
DIMSTYLE
  5
A
100
AcDbSymbolTable
 70
1
100
AcDbDimStyleTable
 71
0
  0
DIMSTYLE
105
213
100
AcDbSymbolTableRecord
100
AcDbDimStyleTableRecord
  2
STANDARD
 70
0
  3

  4

 40
1.0
 41
0.66813167
 42
1.0
 43
0.38
 44
1.0
 45
0.0
 46
0.0
 47
0.01
 48
0.01
140
0.935384338
141
0.09
142
0.0
143
25.4
144
1.0
145
0.0
146
1.0
147
0.625
 71
1
 72
0
 73
0
 74
0
 75
0
 76
0
 77
1
 78
8
 79
2
170
0
171
1
172
0
173
0
174
0
175
0
176
0
177
0
178
0
270
2
179
2
271
2
272
2
273
2
274
2
275
0
280
0
281
0
282
0
283
1
284
8
285
0
286
0
287
3
288
0
340
11
278
46
341
212
342
212
343
212
344
212
  0
ENDTAB
  0
ENDSEC
  0
SECTION
  2
BLOCKS
  0
BLOCK
  5
20
100
AcDbEntity
  8
0
100
AcDbBlockBegin
  2
*Model_Space
 70
0
 10
0.0
 20
0.0
 30
0.0
  3
*Model_Space
  1

  0
ENDBLK
  5
21
100
AcDbEntity
  8
0
100
AcDbBlockEnd
  0
BLOCK
  5
1C
100
AcDbEntity
  8
0
100
AcDbBlockBegin
  2
*Paper_Space
 70
0
 10
0.0
 20
0.0
 30
0.0
  3
*Paper_Space
  1

  0
ENDBLK
  5
1D
100
AcDbEntity
  8
0
100
AcDbBlockEnd
  0
BLOCK
  5
214
100
AcDbEntity
  8
0
100
AcDbBlockBegin
  2
_FILLED
 70
64
 10
0.0
 20
0.0
  3
_FILLED
  1

  0
SOLID
  5
215
100
AcDbEntity
  8
0
  6
BYBLOCK
 62
0
100
AcDbTrace
 10
0.0
 20
0.0
 11
-1.0
 21
0.25
 12
-1.0
 22
-0.25
 13
-1.0
 23
-0.25
  0
ENDBLK
  5
216
100
AcDbEntity
  8
0
  6
BYBLOCK
 62
0
100
AcDbBlockEnd
  0
ENDSEC
  0
SECTION
  2
ENTITIES
  0
LINE
  5
217
100
AcDbEntity
  8
0
100
AcDbLine
 62
7
  6
BYLAYER
 10
10.2202729301
 20
21.3132603212
 11
7.8514568889
 21
22.6808659609
  0
LINE
  5
218
100
AcDbEntity
  8
0
100
AcDbLine
 62
7
  6
BYLAYER
 10
14.103023222
 20
24.8133200622
 11
14.4565776479
 21
24.609199937
  0
LINE
  5
219
100
AcDbEntity
  8
0
100
AcDbLine
 62
7
  6
BYLAYER
 10
15.6029977714
 20
27.4114109673
 11
15.9565521974
 21
27.2072908421
  0
LINE
  5
21A
100
AcDbEntity
  8
0
100
AcDbLine
 62
7
  6
BYLAYER
 10
12.4488233002
 20
34.0923714579
 11
12.4488233002
 21
35.5819401192
  0
LINE
  5
21B
100
AcDbEntity
  8
0
100
AcDbLine
 62
7
  6
BYLAYER
 10
24.2609484551
 20
56.1531118415
 11
22.8467407806
 21
55.3366235337
  0
LINE
  5
21C
100
AcDbEntity
  8
0
100
AcDbLine
 62
7
  6
BYLAYER
 10
23.1967392137
 20
55.3019565384
 11
24.6109468882
 21
56.1184448462
  0
LINE
  5
21D
100
AcDbEntity
  8
0
100
AcDbLine
 62
7
  6
BYLAYER
 10
27.4692308754
 20
57.9587342572
 11
24.2317217002
 21
56.2178364369
  0
LINE
  5
21E
100
AcDbEntity
  8
0
100
AcDbLine
 62
7
  6
BYLAYER
 10
27.8130251897
 20
57.920623349
 11
24.5755160145
 21
56.1797255287
  0
LINE
  5
21F
100
AcDbEntity
  8
0
100
AcDbLine
 62
7
  6
BYLAYER
 10
28.068126892
 20
57.7733436444
 11
29.5070198588
 21
58.547076009
  0
LWPOLYLINE
  5
220
100
AcDbEntity
  8
0
100
AcDbPolyline
 62
7
  6
BYLAYER
 90
3
 70
0
 10
26.9313468529
 20
24.4924020389
 10
24.780771643
 20
24.511922635
 10
23.6697706337
 20
24.9452857695
  0
LINE
  5
221
100
AcDbEntity
  8
0
100
AcDbLine
 62
7
  6
BYLAYER
 10
22.41084297
 20
53.0693601432
 11
23.5513723558
 21
53.9018877576
  0
LINE
  5
222
100
AcDbEntity
  8
0
100
AcDbLine
 62
7
  6
BYLAYER
 10
22.6752072086
 20
51.9701600076
 11
23.0195426449
 21
52.1689678484
  0
LINE
  5
223
100
AcDbEntity
  8
0
100
AcDbLine
 62
7
  6
BYLAYER
 10
26.9313468529
 20
24.4924020389
 11
29.081131342
 21
24.9305198344
  0
LINE
  5
224
100
AcDbEntity
  8
0
100
AcDbLine
 62
7
  6
BYLAYER
 10
15.4893951183
 20
21.5823973655
 11
15.4893951183
 21
23.9289551525
  0
LINE
  5
225
100
AcDbEntity
  8
0
100
AcDbLine
 62
7
  6
BYLAYER
 10
15.4893951183
 20
31.254185858
 11
15.4893951183
 21
33.8266165711
  0
LINE
  5
226
100
AcDbEntity
  8
0
100
AcDbLine
 62
7
  6
BYLAYER
 10
15.7015009514
 20
34.8328065346
 11
15.7015009514
 21
34.1186773644
  0
LINE
  5
227
100
AcDbEntity
  8
0
100
AcDbLine
 62
7
  6
BYLAYER
 10
16.2672206785
 20
26.520611586
 11
16.2672219143
 21
26.3573142002
  0
LWPOLYLINE
  5
228
100
AcDbEntity
  8
0
100
AcDbPolyline
 62
7
  6
BYLAYER
 90
3
 70
0
 10
15.6743404415
 20
38.8043305941
 10
15.8287583108
 20
39.916266914
 10
16.9084015149
 20
41.8527562325
  0
LINE
  5
229
100
AcDbEntity
  8
0
100
AcDbLine
 62
7
  6
BYLAYER
 10
32.0463525875
 20
57.081024741
 11
34.1493272691
 21
58.295170492
  0
LINE
  5
22A
100
AcDbEntity
  8
0
100
AcDbLine
 62
7
  6
BYLAYER
 10
23.2432788585
 20
51.7814475102
 11
23.1019954721
 21
51.6998751768
  0
LINE
  5
22B
100
AcDbEntity
  8
0
100
AcDbLine
 62
7
  6
BYLAYER
 10
22.248201115
 20
50.208325708
 11
23.3036037999
 21
50.8176801541
  0
LINE
  5
22C
100
AcDbEntity
  8
0
100
AcDbLine
 62
7
  6
BYLAYER
 10
23.7034262466
 20
51.0485243513
 11
24.7588289315
 21
51.6578787974
  0
LINE
  5
22D
100
AcDbEntity
  8
0
100
AcDbLine
 62
7
  6
BYLAYER
 10
25.5114142419
 20
52.0681955735
 11
24.6115648112
 21
51.5486524084
  0
LINE
  5
22E
100
AcDbEntity
  8
0
100
AcDbLine
 62
7
  6
BYLAYER
 10
23.5477801993
 20
50.9344585162
 11
22.6479307686
 21
50.4149153511
  0
LINE
  5
22F
100
AcDbEntity
  8
0
100
AcDbLine
 62
7
  6
BYLAYER
 10
24.3815404765
 20
51.389827948
 11
24.5370689814
 21
51.4796249395
  0
LINE
  5
230
100
AcDbEntity
  8
0
100
AcDbLine
 62
7
  6
BYLAYER
 10
27.828309091
 20
52.4646826146
 11
27.2626260213
 21
52.1380872915
  0
LINE
  5
231
100
AcDbEntity
  8
0
100
AcDbLine
 62
7
  6
BYLAYER
 10
22.5603416387
 20
49.4231332282
 11
21.9946585689
 21
49.0965379051
  0
LINE
  5
232
100
AcDbEntity
  8
0
100
AcDbLine
 62
7
  6
BYLAYER
 10
23.6159279709
 20
51.1358660935
 11
23.2690343721
 21
50.9416268991
  0
LINE
  5
233
100
AcDbEntity
  8
0
100
AcDbLine
 62
7
  6
BYLAYER
 10
23.5477801993
 20
50.9344585162
 11
24.3815404765
 21
51.389827948
  0
LINE
  5
234
100
AcDbEntity
  8
0
100
AcDbLine
 62
7
  6
BYLAYER
 10
24.5370689814
 20
51.4796249395
 11
23.3036037999
 21
50.8176801541
  0
LINE
  5
235
100
AcDbEntity
  8
0
100
AcDbLine
 62
7
  6
BYLAYER
 10
23.7034262466
 20
51.0485243513
 11
24.6178783416
 21
51.5368290087
  0
LINE
  5
236
100
AcDbEntity
  8
0
100
AcDbLine
 62
7
  6
BYLAYER
 10
24.6105479808
 20
51.4547813801
 11
24.5523702002
 21
51.4247632773
  0
LINE
  5
237
100
AcDbEntity
  8
0
100
AcDbLine
 62
7
  6
BYLAYER
 10
11.9444750608
 20
22.1629287166
 11
12.8191784296
 21
22.3873140309
  0
LINE
  5
238
100
AcDbEntity
  8
0
100
AcDbLine
 62
7
  6
BYLAYER
 10
41.5815932451
 20
28.643427926
 11
41.6815893792
 21
28.6533297456
  0
LINE
  5
239
100
AcDbEntity
  8
0
100
AcDbLine
 62
7
  6
BYLAYER
 10
37.4335049663
 20
27.203391359
 11
37.244189975
 21
27.2050117438
  0
LINE
  5
23A
100
AcDbEntity
  8
0
100
AcDbLine
 62
7
  6
BYLAYER
 10
39.0430701562
 20
26.3262740438
 11
38.8707758504
 21
26.3493766216
  0
LINE
  5
23B
100
AcDbEntity
  8
0
100
AcDbLine
 62
7
  6
BYLAYER
 10
15.4893951183
 20
33.21871396
 11
14.3238470698
 21
33.8916282162
  0
LINE
  5
23C
100
AcDbEntity
  8
0
100
AcDbLine
 62
7
  6
BYLAYER
 10
16.9084015149
 20
41.8527562325
 11
18.3623739375
 21
43.4950630772
  0
LINE
  5
23D
100
AcDbEntity
  8
0
100
AcDbLine
 62
7
  6
BYLAYER
 10
24.9559611125
 20
50.8565116074
 11
24.9008756532
 21
50.8211374768
  0
LINE
  5
23E
100
AcDbEntity
  8
0
100
AcDbLine
 62
7
  6
BYLAYER
 10
25.030676582
 20
50.8218465738
 11
24.1505627671
 21
50.2740654792
  0
LINE
  5
23F
100
AcDbEntity
  8
0
100
AcDbLine
 62
7
  6
BYLAYER
 10
23.7507403203
 20
50.043221282
 11
24.940736691
 21
50.7804558382
  0
LINE
  5
240
100
AcDbEntity
  8
0
100
AcDbLine
 62
7
  6
BYLAYER
 10
23.9739678953
 20
50.1962838711
 11
24.7852081862
 21
50.6906588467
  0
LINE
  5
241
100
AcDbEntity
  8
0
100
AcDbLine
 62
7
  6
BYLAYER
 10
24.1824605977
 20
50.154608642
 11
23.8407967585
 21
49.9513108934
  0
LINE
  5
242
100
AcDbEntity
  8
0
100
AcDbLine
 62
7
  6
BYLAYER
 10
24.7852081862
 20
50.6906588467
 11
24.940736691
 21
50.7804558382
  0
LINE
  5
243
100
AcDbEntity
  8
0
100
AcDbLine
 62
7
  6
BYLAYER
 10
23.0741184646
 20
49.676740706
 11
23.9739678953
 21
50.1962838711
  0
LINE
  5
244
100
AcDbEntity
  8
0
100
AcDbLine
 62
7
  6
BYLAYER
 10
25.0377525071
 20
50.8104777633
 11
25.9376019378
 21
51.3300209284
  0
LINE
  5
245
100
AcDbEntity
  8
0
100
AcDbLine
 62
7
  6
BYLAYER
 10
25.2059654519
 20
50.8834199253
 11
24.1505627671
 21
50.2740654792
  0
LINE
  5
246
100
AcDbEntity
  8
0
100
AcDbLine
 62
7
  6
BYLAYER
 10
23.7507403203
 20
50.043221282
 11
22.6953376354
 21
49.4338668359
  0
LINE
  5
247
100
AcDbEntity
  8
0
100
AcDbLine
 62
7
  6
BYLAYER
 10
24.5552265282
 20
49.5091001037
 11
24.4139431418
 21
49.4275277704
  0
LINE
  5
248
100
AcDbEntity
  8
0
100
AcDbLine
 62
7
  6
BYLAYER
 10
35.0463909987
 20
55.3489909406
 11
35.6493205538
 21
55.6970904036
  0
LINE
  5
249
100
AcDbEntity
  8
0
100
AcDbLine
 62
7
  6
BYLAYER
 10
24.7789593583
 20
49.1215856257
 11
24.434623922
 21
48.9227777849
  0
LINE
  5
24A
100
AcDbEntity
  8
0
100
AcDbLine
 62
7
  6
BYLAYER
 10
19.5198616723
 20
37.0920626412
 11
19.5198616723
 21
39.8340955187
  0
LINE
  5
24B
100
AcDbEntity
  8
0
100
AcDbLine
 62
7
  6
BYLAYER
 10
24.4862326128
 20
51.263998046
 11
24.5523702002
 21
51.4247632773
  0
LINE
  5
24C
100
AcDbEntity
  8
0
100
AcDbLine
 62
7
  6
BYLAYER
 10
24.4139431418
 20
49.4275277704
 11
24.5071972775
 21
49.5922887444
  0
LINE
  5
24D
100
AcDbEntity
  8
0
100
AcDbLine
 62
7
  6
BYLAYER
 10
27.8868828074
 20
52.5463307655
 11
27.828309091
 21
52.4646826146
  0
LINE
  5
24E
100
AcDbEntity
  8
0
100
AcDbLine
 62
7
  6
BYLAYER
 10
17.4854942677
 20
42.3781414003
 11
16.9084015149
 21
41.8527562325
  0
LINE
  5
24F
100
AcDbEntity
  8
0
100
AcDbLine
 62
7
  6
BYLAYER
 10
23.6618118632
 20
47.5624912204
 11
23.700533923
 21
47.5963757032
  0
LINE
  5
250
100
AcDbEntity
  8
0
100
AcDbLine
 62
7
  6
BYLAYER
 10
20.2677134446
 20
45.6029192818
 11
26.7676533352
 21
49.3557008993
  0
LINE
  5
251
100
AcDbEntity
  8
0
100
AcDbLine
 62
7
  6
BYLAYER
 10
22.4813612237
 20
46.5606494747
 11
19.6528978851
 21
44.9276451525
  0
LINE
  5
252
100
AcDbEntity
  8
0
100
AcDbLine
 62
7
  6
BYLAYER
 10
37.484896317
 20
53.9411510882
 11
37.6341682301
 21
54.0231248284
  0
LINE
  5
253
100
AcDbEntity
  8
0
100
AcDbLine
 62
7
  6
BYLAYER
 10
37.652982882
 20
54.0326808469
 11
37.6341682301
 21
54.0231248284
  0
LINE
  5
254
100
AcDbEntity
  8
0
100
AcDbLine
 62
7
  6
BYLAYER
 10
35.4979469648
 20
25.2505192742
 11
33.439336032
 21
26.4390319627
  0
LINE
  5
255
100
AcDbEntity
  8
0
100
AcDbLine
 62
7
  6
BYLAYER
 10
35.3943908044
 20
25.4794123481
 11
33.5857884336
 21
26.5235857915
  0
LINE
  5
256
100
AcDbEntity
  8
0
100
AcDbLine
 62
7
  6
BYLAYER
 10
41.228037205
 20
22.9279022774
 11
39.7259243202
 21
23.7951279365
  0
LINE
  5
257
100
AcDbEntity
  8
0
100
AcDbLine
 62
7
  6
BYLAYER
 10
37.1506932349
 20
25.2819046614
 11
36.5964685053
 21
25.6018792195
  0
LINE
  5
258
100
AcDbEntity
  8
0
100
AcDbLine
 62
7
  6
BYLAYER
 10
21.8482134315
 20
46.5154159278
 11
21.8482134315
 21
48.8924175278
  0
LINE
  5
259
100
AcDbEntity
  8
0
100
AcDbLine
 62
7
  6
BYLAYER
 10
21.9946615129
 20
46.5999672623
 11
21.9946615129
 21
48.6882954509
  0
LINE
  5
25A
100
AcDbEntity
  8
0
100
AcDbLine
 62
7
  6
BYLAYER
 10
22.7017624061
 20
49.6680825424
 11
22.7017624061
 21
50.3080443328
  0
LINE
  5
25B
100
AcDbEntity
  8
0
100
AcDbLine
 62
7
  6
BYLAYER
 10
22.7017624061
 20
53.2817163237
 11
22.7017624061
 21
55.0161733746
  0
LINE
  5
25C
100
AcDbEntity
  8
0
100
AcDbLine
 62
7
  6
BYLAYER
 10
18.1008212447
 20
40.2052515767
 11
10.1105478842
 21
35.5920926379
  0
LINE
  5
25D
100
AcDbEntity
  8
0
100
AcDbLine
 62
7
  6
BYLAYER
 10
12.5902440676
 20
35.8333028108
 11
19.5198616723
 21
39.8340955187
  0
LINE
  5
25E
100
AcDbEntity
  8
0
100
AcDbLine
 62
7
  6
BYLAYER
 10
38.6630842705
 20
29.2669657874
 11
40.3088033942
 21
28.3168309033
  0
LINE
  5
25F
100
AcDbEntity
  8
0
100
AcDbLine
 62
7
  6
BYLAYER
 10
36.3136257928
 20
47.5657935604
 11
35.747942723
 21
47.2391982373
  0
LINE
  5
260
100
AcDbEntity
  8
0
100
AcDbLine
 62
7
  6
BYLAYER
 10
8.2134107229
 20
30.7902033284
 11
8.0291998739
 21
30.6838497799
  0
LINE
  5
261
100
AcDbEntity
  8
0
100
AcDbLine
 62
7
  6
BYLAYER
 10
19.5198616723
 20
37.0920626412
 11
14.0975211722
 21
33.9614915808
  0
LINE
  5
262
100
AcDbEntity
  8
0
100
AcDbLine
 62
7
  6
BYLAYER
 10
14.1592996716
 20
33.9424215254
 11
15.7015009514
 21
34.8328065346
  0
LINE
  5
263
100
AcDbEntity
  8
0
100
AcDbLine
 62
7
  6
BYLAYER
 10
41.5815914345
 20
28.6434247898
 11
41.7230140126
 21
28.5617762734
  0
LINE
  5
264
100
AcDbEntity
  8
0
100
AcDbLine
 62
7
  6
BYLAYER
 10
37.9829912615
 20
25.4564474604
 11
37.8929348232
 21
25.548357849
  0
LINE
  5
265
100
AcDbEntity
  8
0
100
AcDbLine
 62
7
  6
BYLAYER
 10
37.7555643113
 20
26.6455713069
 11
37.8456207496
 21
26.5536609183
  0
LINE
  5
266
100
AcDbEntity
  8
0
100
AcDbLine
 62
7
  6
BYLAYER
 10
39.082931194
 20
26.2855924052
 11
39.0430701562
 21
26.3262740438
  0
LINE
  5
267
100
AcDbEntity
  8
0
100
AcDbLine
 62
7
  6
BYLAYER
 10
23.3036037999
 20
50.8176801541
 11
23.2690343721
 21
50.9416268991
  0
LINE
  5
268
100
AcDbEntity
  8
0
100
AcDbLine
 62
7
  6
BYLAYER
 10
26.9090741027
 20
49.6253930743
 11
26.9090741027
 21
51.525714006
  0
LINE
  5
269
100
AcDbEntity
  8
0
100
AcDbLine
 62
7
  6
BYLAYER
 10
27.8283079134
 20
52.6279795963
 11
27.8283079134
 21
52.4646826146
  0
LINE
  5
26A
100
AcDbEntity
  8
0
100
AcDbLine
 62
7
  6
BYLAYER
 10
22.5604334904
 20
38.0786602743
 11
15.6308158857
 21
34.0778675664
  0
LINE
  5
26B
100
AcDbEntity
  8
0
100
AcDbLine
 62
7
  6
BYLAYER
 10
31.8588716183
 20
42.4972399064
 11
35.252970037
 21
44.456811845
  0
LINE
  5
26C
100
AcDbEntity
  8
0
100
AcDbLine
 62
7
  6
BYLAYER
 10
36.3136257928
 20
44.7488602213
 11
30.9666534874
 21
41.6618027487
  0
LINE
  5
26D
100
AcDbEntity
  8
0
100
AcDbLine
 62
7
  6
BYLAYER
 10
24.1505627671
 20
50.2740654792
 11
24.1851321948
 21
50.1501187343
  0
LINE
  5
26E
100
AcDbEntity
  8
0
100
AcDbLine
 62
7
  6
BYLAYER
 10
24.5523702002
 20
51.4247632773
 11
24.5370689814
 21
51.4796249395
  0
LINE
  5
26F
100
AcDbEntity
  8
0
100
AcDbLine
 62
7
  6
BYLAYER
 10
36.553037473
 20
44.9045450528
 11
37.6935668588
 21
45.7370726672
  0
LINE
  5
270
100
AcDbEntity
  8
0
100
AcDbLine
 62
7
  6
BYLAYER
 10
36.8174017115
 20
43.8053449172
 11
37.1617371478
 21
44.004152758
  0
LINE
  5
271
100
AcDbEntity
  8
0
100
AcDbLine
 62
7
  6
BYLAYER
 10
15.5130971564
 20
31.2131324787
 11
11.9444750608
 21
29.1527998497
  0
LINE
  5
272
100
AcDbEntity
  8
0
100
AcDbLine
 62
7
  6
BYLAYER
 10
46.1885470905
 20
48.9162096506
 11
48.291521772
 21
50.1303554016
  0
LINE
  5
273
100
AcDbEntity
  8
0
100
AcDbLine
 62
7
  6
BYLAYER
 10
37.3854733614
 20
43.6166324198
 11
37.244189975
 21
43.5350600864
  0
LINE
  5
274
100
AcDbEntity
  8
0
100
AcDbLine
 62
7
  6
BYLAYER
 10
49.4845966153
 20
50.2417657838
 11
49.1022349594
 21
50.0210132672
  0
LINE
  5
275
100
AcDbEntity
  8
0
100
AcDbLine
 62
7
  6
BYLAYER
 10
45.5489994105
 20
47.6809855099
 11
46.9385217926
 21
48.48322135
  0
LINE
  5
276
100
AcDbEntity
  8
0
100
AcDbLine
 62
7
  6
BYLAYER
 10
42.6422448794
 20
45.7083056059
 11
41.228037205
 21
44.8918172982
  0
LINE
  5
277
100
AcDbEntity
  8
0
100
AcDbLine
 62
7
  6
BYLAYER
 10
42.677675753
 20
45.7286751651
 11
45.8041011128
 21
47.5337058053
  0
LINE
  5
278
100
AcDbEntity
  8
0
100
AcDbLine
 62
7
  6
BYLAYER
 10
36.3903956179
 20
42.0435106176
 11
37.4457983028
 21
42.6528650637
  0
LINE
  5
279
100
AcDbEntity
  8
0
100
AcDbLine
 62
7
  6
BYLAYER
 10
37.8456207496
 20
42.8837092609
 11
38.9010234345
 21
43.493063707
  0
LINE
  5
27A
100
AcDbEntity
  8
0
100
AcDbLine
 62
7
  6
BYLAYER
 10
39.6536087448
 20
43.9033804831
 11
38.7537593141
 21
43.383837318
  0
LINE
  5
27B
100
AcDbEntity
  8
0
100
AcDbLine
 62
7
  6
BYLAYER
 10
37.6899747023
 20
42.7696434258
 11
36.7901252716
 21
42.2501002607
  0
LINE
  5
27C
100
AcDbEntity
  8
0
100
AcDbLine
 62
7
  6
BYLAYER
 10
38.5237349795
 20
43.2250128576
 11
38.6792634843
 21
43.3148098491
  0
LINE
  5
27D
100
AcDbEntity
  8
0
100
AcDbLine
 62
7
  6
BYLAYER
 10
37.7581224738
 20
42.9710510031
 11
37.411228875
 21
42.7768118086
  0
LINE
  5
27E
100
AcDbEntity
  8
0
100
AcDbLine
 62
7
  6
BYLAYER
 10
37.6899747023
 20
42.7696434258
 11
38.5237349795
 21
43.2250128576
  0
LINE
  5
27F
100
AcDbEntity
  8
0
100
AcDbLine
 62
7
  6
BYLAYER
 10
38.6792634843
 20
43.3148098491
 11
37.4457983028
 21
42.6528650637
  0
LINE
  5
280
100
AcDbEntity
  8
0
100
AcDbLine
 62
7
  6
BYLAYER
 10
37.8456207496
 20
42.8837092609
 11
38.7600728446
 21
43.3720139183
  0
LINE
  5
281
100
AcDbEntity
  8
0
100
AcDbLine
 62
7
  6
BYLAYER
 10
38.7527424837
 20
43.2899662897
 11
38.6945647032
 21
43.2599481869
  0
LINE
  5
282
100
AcDbEntity
  8
0
100
AcDbLine
 62
7
  6
BYLAYER
 10
22.6752072086
 20
51.9701600076
 11
23.2690343721
 21
50.9416268991
  0
LINE
  5
283
100
AcDbEntity
  8
0
100
AcDbLine
 62
7
  6
BYLAYER
 10
23.8407967585
 20
49.9513108934
 11
24.434623922
 21
48.9227777849
  0
LINE
  5
284
100
AcDbEntity
  8
0
100
AcDbLine
 62
7
  6
BYLAYER
 10
36.8174017115
 20
27.4752965746
 11
37.411228875
 21
26.4467634661
  0
LINE
  5
285
100
AcDbEntity
  8
0
100
AcDbLine
 62
7
  6
BYLAYER
 10
37.9829912615
 20
25.4564474604
 11
38.576818425
 21
24.4279143519
  0
LINE
  5
286
100
AcDbEntity
  8
0
100
AcDbLine
 62
7
  6
BYLAYER
 10
38.1161623982
 20
25.7014204381
 11
37.6899747023
 21
26.4395950832
  0
LINE
  5
287
100
AcDbEntity
  8
0
100
AcDbLine
 62
7
  6
BYLAYER
 10
23.9739678953
 20
50.1962838711
 11
23.5477801993
 21
50.9344585162
  0
LINE
  5
288
100
AcDbEntity
  8
0
100
AcDbLine
 62
7
  6
BYLAYER
 10
38.9211538613
 20
24.6267221928
 11
38.3273266978
 21
25.6552553013
  0
LINE
  5
289
100
AcDbEntity
  8
0
100
AcDbLine
 62
7
  6
BYLAYER
 10
37.7555643113
 20
26.6455713069
 11
37.1617371478
 21
27.6741044154
  0
LINE
  5
28A
100
AcDbEntity
  8
0
100
AcDbLine
 62
7
  6
BYLAYER
 10
24.7789593583
 20
49.1215856257
 11
24.1851321948
 21
50.1501187343
  0
LINE
  5
28B
100
AcDbEntity
  8
0
100
AcDbLine
 62
7
  6
BYLAYER
 10
23.6133698084
 20
51.1404347399
 11
23.0195426449
 21
52.1689678484
  0
LINE
  5
28C
100
AcDbEntity
  8
0
100
AcDbLine
 62
7
  6
BYLAYER
 10
39.0981556154
 20
42.691696517
 11
39.0430701562
 21
42.6563223864
  0
LINE
  5
28D
100
AcDbEntity
  8
0
100
AcDbLine
 62
7
  6
BYLAYER
 10
39.1728710849
 20
42.6570314834
 11
38.29275727
 21
42.1092503888
  0
LINE
  5
28E
100
AcDbEntity
  8
0
100
AcDbLine
 62
7
  6
BYLAYER
 10
37.8929348232
 20
41.8784061916
 11
39.082931194
 21
42.6156407478
  0
LINE
  5
28F
100
AcDbEntity
  8
0
100
AcDbLine
 62
7
  6
BYLAYER
 10
38.1161623982
 20
42.0314687807
 11
38.9274026891
 21
42.5258437563
  0
LINE
  5
290
100
AcDbEntity
  8
0
100
AcDbLine
 62
7
  6
BYLAYER
 10
38.3246551006
 20
41.9897935516
 11
37.9829912615
 21
41.786495803
  0
LINE
  5
291
100
AcDbEntity
  8
0
100
AcDbLine
 62
7
  6
BYLAYER
 10
38.9274026891
 20
42.5258437563
 11
39.082931194
 21
42.6156407478
  0
LINE
  5
292
100
AcDbEntity
  8
0
100
AcDbLine
 62
7
  6
BYLAYER
 10
37.2163129675
 20
41.5119256156
 11
38.1161623982
 21
42.0314687807
  0
LINE
  5
293
100
AcDbEntity
  8
0
100
AcDbLine
 62
7
  6
BYLAYER
 10
39.1799470101
 20
42.6456626729
 11
40.0797964408
 21
43.165205838
  0
LINE
  5
294
100
AcDbEntity
  8
0
100
AcDbLine
 62
7
  6
BYLAYER
 10
39.3481599549
 20
42.7186048349
 11
38.29275727
 21
42.1092503888
  0
LINE
  5
295
100
AcDbEntity
  8
0
100
AcDbLine
 62
7
  6
BYLAYER
 10
37.8929348232
 20
41.8784061916
 11
36.8375321383
 21
41.2690517455
  0
LINE
  5
296
100
AcDbEntity
  8
0
100
AcDbLine
 62
7
  6
BYLAYER
 10
46.299002533
 20
46.6765161592
 11
43.1725771733
 21
44.871485519
  0
LINE
  5
297
100
AcDbEntity
  8
0
100
AcDbLine
 62
7
  6
BYLAYER
 10
41.7230140126
 20
44.034497078
 11
43.137221687
 21
44.8509853857
  0
LINE
  5
298
100
AcDbEntity
  8
0
100
AcDbLine
 62
7
  6
BYLAYER
 10
46.299002533
 20
46.381949207
 11
47.6885249151
 21
47.1841850471
  0
LINE
  5
299
100
AcDbEntity
  8
0
100
AcDbLine
 62
7
  6
BYLAYER
 10
50.1021824975
 20
48.2889321712
 11
50.4846044798
 21
48.5097195169
  0
LINE
  5
29A
100
AcDbEntity
  8
0
100
AcDbLine
 62
7
  6
BYLAYER
 10
38.6974210311
 20
41.3442850133
 11
38.5561376447
 21
41.26271268
  0
LINE
  5
29B
100
AcDbEntity
  8
0
100
AcDbLine
 62
7
  6
BYLAYER
 10
47.6885249151
 20
46.3181206364
 11
49.7915150567
 21
47.5322753132
  0
LINE
  5
29C
100
AcDbEntity
  8
0
100
AcDbLine
 62
7
  6
BYLAYER
 10
37.4335049663
 20
43.5334397016
 11
37.244189975
 21
43.5350600864
  0
LINE
  5
29D
100
AcDbEntity
  8
0
100
AcDbLine
 62
7
  6
BYLAYER
 10
23.8407967585
 20
49.9513108934
 11
23.7507403203
 21
50.043221282
  0
LINE
  5
29E
100
AcDbEntity
  8
0
100
AcDbLine
 62
7
  6
BYLAYER
 10
38.9274026891
 20
26.1957954137
 11
38.5237349795
 21
26.894964515
  0
LINE
  5
29F
100
AcDbEntity
  8
0
100
AcDbLine
 62
7
  6
BYLAYER
 10
24.7852081862
 20
50.6906588467
 11
24.3815404765
 21
51.389827948
  0
LINE
  5
2A0
100
AcDbEntity
  8
0
100
AcDbLine
 62
7
  6
BYLAYER
 10
39.1799470101
 20
26.3156143303
 11
38.7537593141
 21
27.0537889754
  0
LINE
  5
2A1
100
AcDbEntity
  8
0
100
AcDbLine
 62
7
  6
BYLAYER
 10
25.0377525071
 20
50.8104777633
 11
24.6115648112
 21
51.5486524084
  0
LINE
  5
2A2
100
AcDbEntity
  8
0
100
AcDbLine
 62
7
  6
BYLAYER
 10
38.9211538613
 20
40.9567705353
 11
38.576818425
 21
40.7579626945
  0
LINE
  5
2A3
100
AcDbEntity
  8
0
100
AcDbLine
 62
7
  6
BYLAYER
 10
33.795092388
 20
36.7628300621
 11
39.1420646934
 21
39.8498875347
  0
LINE
  5
2A4
100
AcDbEntity
  8
0
100
AcDbLine
 62
7
  6
BYLAYER
 10
38.358811509
 20
39.0773664778
 11
34.9647130903
 21
37.1177945392
  0
LINE
  5
2A5
100
AcDbEntity
  8
0
100
AcDbLine
 62
7
  6
BYLAYER
 10
39.3965493454
 20
39.9794086189
 11
40.6878070559
 21
40.5508655585
  0
LINE
  5
2A6
100
AcDbEntity
  8
0
100
AcDbLine
 62
7
  6
BYLAYER
 10
39.0430701562
 20
42.6563223864
 11
38.8707758504
 21
42.6794249642
  0
LINE
  5
2A7
100
AcDbEntity
  8
0
100
AcDbLine
 62
7
  6
BYLAYER
 10
23.6403771682
 20
47.7381625692
 11
21.9946615129
 21
48.6882954509
  0
LINE
  5
2A8
100
AcDbEntity
  8
0
100
AcDbLine
 62
7
  6
BYLAYER
 10
38.6630867262
 20
39.0649933752
 11
40.3088033942
 21
38.1148599088
  0
LINE
  5
2A9
100
AcDbEntity
  8
0
100
AcDbLine
 62
7
  6
BYLAYER
 10
49.1829391818
 20
33.6443689879
 11
49.0415184144
 21
33.7260206405
  0
LINE
  5
2AA
100
AcDbEntity
  8
0
100
AcDbLine
 62
7
  6
BYLAYER
 10
22.5603416387
 20
49.4231332282
 11
22.7018073043
 21
49.3414598357
  0
LINE
  5
2AB
100
AcDbEntity
  8
0
100
AcDbLine
 62
7
  6
BYLAYER
 10
39.1420646934
 20
39.8498875347
 11
41.5815932451
 21
38.4414569316
  0
LINE
  5
2AC
100
AcDbEntity
  8
0
100
AcDbLine
 62
7
  6
BYLAYER
 10
41.7230140126
 20
38.6864062458
 11
39.4457232436
 21
40.0011709403
  0
LINE
  5
2AD
100
AcDbEntity
  8
0
100
AcDbLine
 62
7
  6
BYLAYER
 10
22.8879683645
 20
49.5605789143
 11
22.7017624061
 21
49.6680825424
  0
LINE
  5
2AE
100
AcDbEntity
  8
0
100
AcDbLine
 62
7
  6
BYLAYER
 10
23.6133698084
 20
51.1404347399
 11
23.7034262466
 21
51.0485243513
  0
LINE
  5
2AF
100
AcDbEntity
  8
0
100
AcDbLine
 62
7
  6
BYLAYER
 10
24.940736691
 20
50.7804558382
 11
24.9008756532
 21
50.8211374768
  0
LINE
  5
2B0
100
AcDbEntity
  8
0
100
AcDbLine
 62
7
  6
BYLAYER
 10
37.4457983028
 20
26.3228167211
 11
37.411228875
 21
26.4467634661
  0
LINE
  5
2B1
100
AcDbEntity
  8
0
100
AcDbLine
 62
7
  6
BYLAYER
 10
38.29275727
 20
25.7792020462
 11
38.3273266978
 21
25.6552553013
  0
LINE
  5
2B2
100
AcDbEntity
  8
0
100
AcDbLine
 62
7
  6
BYLAYER
 10
35.3943908044
 20
27.3797672839
 11
35.3943908044
 21
25.4794123481
  0
LINE
  5
2B3
100
AcDbEntity
  8
0
100
AcDbLine
 62
7
  6
BYLAYER
 10
35.3943908044
 20
44.7265085044
 11
35.3943908044
 21
46.6268249518
  0
LINE
  5
2B4
100
AcDbEntity
  8
0
100
AcDbLine
 62
7
  6
BYLAYER
 10
35.9599873215
 20
56.5470751365
 11
35.9599884991
 21
56.3837795146
  0
LINE
  5
2B5
100
AcDbEntity
  8
0
100
AcDbLine
 62
7
  6
BYLAYER
 10
36.3136257928
 20
47.5657935604
 11
36.3136257928
 21
44.7488602213
  0
LINE
  5
2B6
100
AcDbEntity
  8
0
100
AcDbLine
 62
7
  6
BYLAYER
 10
36.3136257928
 20
25.7683226939
 11
36.3136257928
 21
25.6018785396
  0
LINE
  5
2B7
100
AcDbEntity
  8
0
100
AcDbLine
 62
7
  6
BYLAYER
 10
15.2065649522
 20
24.6834917809
 11
15.3479872763
 21
24.7651442651
  0
LINE
  5
2B8
100
AcDbEntity
  8
0
100
AcDbLine
 62
7
  6
BYLAYER
 10
16.5906634762
 20
24.5647689401
 11
12.8191784296
 21
22.3873140309
  0
LINE
  5
2B9
100
AcDbEntity
  8
0
100
AcDbLine
 62
7
  6
BYLAYER
 10
41.5815932451
 20
38.4414569316
 11
41.0159101754
 21
38.1148616085
  0
LINE
  5
2BA
100
AcDbEntity
  8
0
100
AcDbLine
 62
7
  6
BYLAYER
 10
27.8283079134
 20
52.6279795963
 11
27.8868828074
 21
52.5463307655
  0
LINE
  5
2BB
100
AcDbEntity
  8
0
100
AcDbLine
 62
7
  6
BYLAYER
 10
41.6815893792
 20
28.6533297456
 11
41.7230140126
 21
28.5617762734
  0
LINE
  5
2BC
100
AcDbEntity
  8
0
100
AcDbLine
 62
7
  6
BYLAYER
 10
38.6945647032
 20
26.9298998443
 11
38.6792634843
 21
26.9847615065
  0
LINE
  5
2BD
100
AcDbEntity
  8
0
100
AcDbLine
 62
7
  6
BYLAYER
 10
36.5964685053
 20
25.6018792195
 11
36.5964685053
 21
25.8169331368
  0
LINE
  5
2BE
100
AcDbEntity
  8
0
100
AcDbLine
 62
7
  6
BYLAYER
 10
36.5964685053
 20
44.9362474658
 11
36.5964685053
 21
47.5657942403
  0
LINE
  5
2BF
100
AcDbEntity
  8
0
100
AcDbLine
 62
7
  6
BYLAYER
 10
38.6284271157
 20
43.0991829556
 11
38.6945647032
 21
43.2599481869
  0
LINE
  5
2C0
100
AcDbEntity
  8
0
100
AcDbLine
 62
7
  6
BYLAYER
 10
38.5561376447
 20
41.26271268
 11
38.6493917804
 21
41.427473654
  0
LINE
  5
2C1
100
AcDbEntity
  8
0
100
AcDbLine
 62
7
  6
BYLAYER
 10
13.4564682148
 20
21.6338296662
 11
13.6332460334
 21
21.7358952712
  0
LINE
  5
2C2
100
AcDbEntity
  8
0
100
AcDbLine
 62
7
  6
BYLAYER
 10
26.9090741027
 20
51.525714006
 11
35.3943908044
 21
46.6268249518
  0
LINE
  5
2C3
100
AcDbEntity
  8
0
100
AcDbLine
 62
7
  6
BYLAYER
 10
37.9829912615
 20
41.786495803
 11
37.8929348232
 21
41.8784061916
  0
LINE
  5
2C4
100
AcDbEntity
  8
0
100
AcDbLine
 62
7
  6
BYLAYER
 10
37.7555643113
 20
42.9756196495
 11
37.8456207496
 21
42.8837092609
  0
LINE
  5
2C5
100
AcDbEntity
  8
0
100
AcDbLine
 62
7
  6
BYLAYER
 10
39.082931194
 20
42.6156407478
 11
39.0430701562
 21
42.6563223864
  0
LINE
  5
2C6
100
AcDbEntity
  8
0
100
AcDbLine
 62
7
  6
BYLAYER
 10
36.8174017115
 20
43.8053449171
 11
37.411228875
 21
42.7768118086
  0
LINE
  5
2C7
100
AcDbEntity
  8
0
100
AcDbLine
 62
7
  6
BYLAYER
 10
37.9829912615
 20
41.786495803
 11
38.576818425
 21
40.7579626945
  0
LINE
  5
2C8
100
AcDbEntity
  8
0
100
AcDbLine
 62
7
  6
BYLAYER
 10
38.1161623982
 20
42.0314687807
 11
37.6899747023
 21
42.7696434258
  0
LINE
  5
2C9
100
AcDbEntity
  8
0
100
AcDbLine
 62
7
  6
BYLAYER
 10
38.9211538613
 20
40.9567705353
 11
38.3273266978
 21
41.9853036438
  0
LINE
  5
2CA
100
AcDbEntity
  8
0
100
AcDbLine
 62
7
  6
BYLAYER
 10
37.7555643113
 20
42.9756196495
 11
37.1617371478
 21
44.004152758
  0
LINE
  5
2CB
100
AcDbEntity
  8
0
100
AcDbLine
 62
7
  6
BYLAYER
 10
37.4457983028
 20
42.6528650637
 11
37.411228875
 21
42.7768118086
  0
LINE
  5
2CC
100
AcDbEntity
  8
0
100
AcDbLine
 62
7
  6
BYLAYER
 10
40.3088033942
 20
38.1148599088
 11
40.3088033942
 21
28.3168309033
  0
LINE
  5
2CD
100
AcDbEntity
  8
0
100
AcDbLine
 62
7
  6
BYLAYER
 10
26.1007854297
 20
26.3488244384
 11
18.1105120692
 21
21.7356654996
  0
LINE
  5
2CE
100
AcDbEntity
  8
0
100
AcDbLine
 62
7
  6
BYLAYER
 10
24.9008756532
 20
50.8211374768
 11
24.7285813475
 21
50.8442400546
  0
LINE
  5
2CF
100
AcDbEntity
  8
0
100
AcDbLine
 62
7
  6
BYLAYER
 10
35.747942723
 20
47.2391982373
 11
27.2626260213
 21
52.1380872915
  0
LINE
  5
2D0
100
AcDbEntity
  8
0
100
AcDbLine
 62
7
  6
BYLAYER
 10
23.1967392137
 20
55.3019565384
 11
27.8283079134
 21
52.6279795963
  0
LINE
  5
2D1
100
AcDbEntity
  8
0
100
AcDbLine
 62
7
  6
BYLAYER
 10
36.5964685053
 20
47.5657942403
 11
41.228037205
 21
44.8918172982
  0
LINE
  5
2D2
100
AcDbEntity
  8
0
100
AcDbLine
 62
7
  6
BYLAYER
 10
38.9274026891
 20
42.5258437563
 11
38.5237349795
 21
43.2250128576
  0
LINE
  5
2D3
100
AcDbEntity
  8
0
100
AcDbLine
 62
7
  6
BYLAYER
 10
39.1799470101
 20
42.6456626729
 11
38.7537593141
 21
43.383837318
  0
LINE
  5
2D4
100
AcDbEntity
  8
0
100
AcDbLine
 62
7
  6
BYLAYER
 10
38.29275727
 20
42.1092503888
 11
38.3273266978
 21
41.9853036438
  0
LINE
  5
2D5
100
AcDbEntity
  8
0
100
AcDbLine
 62
7
  6
BYLAYER
 10
38.6945647032
 20
43.2599481869
 11
38.6792634843
 21
43.3148098491
  0
LINE
  5
2D6
100
AcDbEntity
  8
0
100
AcDbLine
 62
7
  6
BYLAYER
 10
41.0159101754
 20
28.3168326029
 11
41.0159101754
 21
38.1148616085
  0
LINE
  5
2D7
100
AcDbEntity
  8
0
100
AcDbLine
 62
7
  6
BYLAYER
 10
41.7230140126
 20
44.034497078
 11
41.7230140126
 21
38.6864062458
  0
LINE
  5
2D8
100
AcDbEntity
  8
0
100
AcDbLine
 62
7
  6
BYLAYER
 10
41.7230140126
 20
28.5617762734
 11
41.7230140126
 21
23.2136854412
  0
LINE
  5
2D9
100
AcDbEntity
  8
0
100
AcDbLine
 62
7
  6
BYLAYER
 10
47.8519145533
 20
36.3677307683
 11
47.8342237284
 21
36.3562085384
  0
LINE
  5
2DA
100
AcDbEntity
  8
0
100
AcDbLine
 62
7
  6
BYLAYER
 10
47.8342237284
 20
36.3562085384
 11
47.6885249151
 21
36.2678798126
  0
LINE
  5
2DB
100
AcDbEntity
  8
0
100
AcDbLine
 62
7
  6
BYLAYER
 10
23.2913104634
 20
51.698254792
 11
23.1019954721
 21
51.6998751768
  0
LINE
  5
2DC
100
AcDbEntity
  8
0
100
AcDbLine
 62
7
  6
BYLAYER
 10
24.6109468882
 20
56.1184448462
 11
42.6422448794
 21
45.7083056059
  0
LINE
  5
2DD
100
AcDbEntity
  8
0
100
AcDbLine
 62
7
  6
BYLAYER
 10
24.5755160145
 20
56.1797255287
 11
42.677675753
 21
45.7286751651
  0
LINE
  5
2DE
100
AcDbEntity
  8
0
100
AcDbLine
 62
7
  6
BYLAYER
 10
43.137221687
 20
44.8509853857
 11
43.137221687
 21
24.0301737489
  0
LINE
  5
2DF
100
AcDbEntity
  8
0
100
AcDbLine
 62
7
  6
BYLAYER
 10
43.1725771733
 20
44.871485519
 11
43.1725771733
 21
23.9688495403
  0
LINE
  5
2E0
100
AcDbEntity
  8
0
100
AcDbLine
 62
7
  6
BYLAYER
 10
38.6284271157
 20
26.769134613
 11
38.6945647032
 21
26.9298998443
  0
LINE
  5
2E1
100
AcDbEntity
  8
0
100
AcDbLine
 62
7
  6
BYLAYER
 10
49.7268139889
 20
39.1854996368
 11
49.6865927379
 21
39.1489490289
  0
LINE
  5
2E2
100
AcDbEntity
  8
0
100
AcDbLine
 62
7
  6
BYLAYER
 10
30.9666534874
 20
25.3317544061
 11
33.795116826
 21
26.9647587283
  0
LINE
  5
2E3
100
AcDbEntity
  8
0
100
AcDbLine
 62
7
  6
BYLAYER
 10
38.358811509
 20
29.2793374722
 11
31.8588716183
 21
25.5265558548
  0
LINE
  5
2E4
100
AcDbEntity
  8
0
100
AcDbLine
 62
7
  6
BYLAYER
 10
36.8174017115
 20
27.4752965746
 11
37.1617371478
 21
27.6741044154
  0
LINE
  5
2E5
100
AcDbEntity
  8
0
100
AcDbLine
 62
7
  6
BYLAYER
 10
47.6885249151
 20
33.4521687395
 11
48.291521772
 21
33.800307059
  0
LINE
  5
2E6
100
AcDbEntity
  8
0
100
AcDbLine
 62
7
  6
BYLAYER
 10
37.3854733614
 20
27.2865840772
 11
37.244189975
 21
27.2050117438
  0
LINE
  5
2E7
100
AcDbEntity
  8
0
100
AcDbLine
 62
7
  6
BYLAYER
 10
35.3016796392
 20
27.5027390035
 11
35.252970037
 21
27.4861277934
  0
LINE
  5
2E8
100
AcDbEntity
  8
0
100
AcDbLine
 62
7
  6
BYLAYER
 10
26.9313468529
 20
24.4924020389
 11
27.6749846968
 21
24.7295242454
  0
LINE
  5
2E9
100
AcDbEntity
  8
0
100
AcDbLine
 62
7
  6
BYLAYER
 10
27.8130329766
 20
57.9206188533
 11
28.068126892
 21
57.7733436444
  0
LINE
  5
2EA
100
AcDbEntity
  8
0
100
AcDbLine
 62
7
  6
BYLAYER
 10
45.5489994104
 20
47.6809855099
 11
45.804094873
 21
47.5337094077
  0
LINE
  5
2EB
100
AcDbEntity
  8
0
100
AcDbLine
 62
7
  6
BYLAYER
 10
38.5561376447
 20
24.9326643374
 11
38.6493917804
 21
25.0974253114
  0
LINE
  5
2EC
100
AcDbEntity
  8
0
100
AcDbLine
 62
7
  6
BYLAYER
 10
39.0981556154
 20
26.3616481745
 11
39.0430701562
 21
26.3262740438
  0
LINE
  5
2ED
100
AcDbEntity
  8
0
100
AcDbLine
 62
7
  6
BYLAYER
 10
39.1728710849
 20
26.3269831408
 11
38.29275727
 21
25.7792020462
  0
LINE
  5
2EE
100
AcDbEntity
  8
0
100
AcDbLine
 62
7
  6
BYLAYER
 10
37.8929348232
 20
25.548357849
 11
39.082931194
 21
26.2855924052
  0
LINE
  5
2EF
100
AcDbEntity
  8
0
100
AcDbLine
 62
7
  6
BYLAYER
 10
38.1161623982
 20
25.7014204381
 11
38.9274026891
 21
26.1957954137
  0
LINE
  5
2F0
100
AcDbEntity
  8
0
100
AcDbLine
 62
7
  6
BYLAYER
 10
38.3246551006
 20
25.659745209
 11
37.9829912615
 21
25.4564474604
  0
LINE
  5
2F1
100
AcDbEntity
  8
0
100
AcDbLine
 62
7
  6
BYLAYER
 10
36.3903956179
 20
25.713462275
 11
37.4457983028
 21
26.3228167211
  0
LINE
  5
2F2
100
AcDbEntity
  8
0
100
AcDbLine
 62
7
  6
BYLAYER
 10
37.8456207496
 20
26.5536609183
 11
38.9010234345
 21
27.1630153644
  0
LINE
  5
2F3
100
AcDbEntity
  8
0
100
AcDbLine
 62
7
  6
BYLAYER
 10
39.6536087448
 20
27.5733321405
 11
38.7537593141
 21
27.0537889754
  0
LINE
  5
2F4
100
AcDbEntity
  8
0
100
AcDbLine
 62
7
  6
BYLAYER
 10
37.6899747023
 20
26.4395950832
 11
36.7901252716
 21
25.9200519181
  0
LINE
  5
2F5
100
AcDbEntity
  8
0
100
AcDbLine
 62
7
  6
BYLAYER
 10
38.5237349795
 20
26.894964515
 11
38.6792634843
 21
26.9847615065
  0
LINE
  5
2F6
100
AcDbEntity
  8
0
100
AcDbLine
 62
7
  6
BYLAYER
 10
41.5815932451
 20
28.643427926
 11
41.0159101754
 21
28.3168326029
  0
LINE
  5
2F7
100
AcDbEntity
  8
0
100
AcDbLine
 62
7
  6
BYLAYER
 10
36.3136257928
 20
25.6018785396
 11
35.747942723
 21
25.2752832165
  0
LINE
  5
2F8
100
AcDbEntity
  8
0
100
AcDbLine
 62
7
  6
BYLAYER
 10
38.9274026891
 20
26.1957954137
 11
39.082931194
 21
26.2855924052
  0
LINE
  5
2F9
100
AcDbEntity
  8
0
100
AcDbLine
 62
7
  6
BYLAYER
 10
37.2163129675
 20
25.181877273
 11
38.1161623982
 21
25.7014204381
  0
LINE
  5
2FA
100
AcDbEntity
  8
0
100
AcDbLine
 62
7
  6
BYLAYER
 10
39.1799470101
 20
26.3156143303
 11
40.0797964408
 21
26.8351574954
  0
LINE
  5
2FB
100
AcDbEntity
  8
0
100
AcDbLine
 62
7
  6
BYLAYER
 10
39.3481599549
 20
26.3885564923
 11
38.29275727
 21
25.7792020462
  0
LINE
  5
2FC
100
AcDbEntity
  8
0
100
AcDbLine
 62
7
  6
BYLAYER
 10
37.8929348232
 20
25.548357849
 11
36.8375321383
 21
24.9390034029
  0
LINE
  5
2FD
100
AcDbEntity
  8
0
100
AcDbLine
 62
7
  6
BYLAYER
 10
37.7581224738
 20
26.6410026605
 11
37.411228875
 21
26.4467634661
  0
LINE
  5
2FE
100
AcDbEntity
  8
0
100
AcDbLine
 62
7
  6
BYLAYER
 10
37.6899747023
 20
26.4395950832
 11
38.5237349795
 21
26.894964515
  0
LINE
  5
2FF
100
AcDbEntity
  8
0
100
AcDbLine
 62
7
  6
BYLAYER
 10
38.6792634843
 20
26.9847615065
 11
37.4457983028
 21
26.3228167211
  0
LINE
  5
300
100
AcDbEntity
  8
0
100
AcDbLine
 62
7
  6
BYLAYER
 10
37.8456207496
 20
26.5536609183
 11
38.7600728446
 21
27.0419655757
  0
LINE
  5
301
100
AcDbEntity
  8
0
100
AcDbLine
 62
7
  6
BYLAYER
 10
38.7527424837
 20
26.9599179471
 11
38.6945647032
 21
26.9298998443
  0
LINE
  5
302
100
AcDbEntity
  8
0
100
AcDbLine
 62
7
  6
BYLAYER
 10
40.9326496813
 20
54.2459228607
 11
40.0951121665
 21
54.360080066
  0
LINE
  5
303
100
AcDbEntity
  8
0
100
AcDbLine
 62
7
  6
BYLAYER
 10
29.5070198588
 20
58.547076009
 11
46.9385217926
 21
48.48322135
  0
LINE
  5
304
100
AcDbEntity
  8
0
100
AcDbLine
 62
7
  6
BYLAYER
 10
46.299002533
 20
46.6765089541
 11
46.299002533
 21
46.381949207
  0
LINE
  5
305
100
AcDbEntity
  8
0
100
AcDbLine
 62
7
  6
BYLAYER
 10
46.299002533
 20
26.1967160569
 11
46.299002533
 21
25.9021563099
  0
LINE
  5
306
100
AcDbEntity
  8
0
100
AcDbLine
 62
7
  6
BYLAYER
 10
47.6885249151
 20
47.1841850471
 11
47.6885249151
 21
27.0559603078
  0
LINE
  5
307
100
AcDbEntity
  8
0
100
AcDbLine
 62
7
  6
BYLAYER
 10
38.6974210311
 20
25.0142366708
 11
38.5561376447
 21
24.9326643374
  0
LINE
  5
308
100
AcDbEntity
  8
0
100
AcDbLine
 62
7
  6
BYLAYER
 10
47.6885249151
 20
29.9880722938
 11
49.7915150567
 21
31.2022269706
  0
LINE
  5
309
100
AcDbEntity
  8
0
100
AcDbLine
 62
7
  6
BYLAYER
 10
38.9211538613
 20
24.6267221928
 11
38.576818425
 21
24.4279143519
  0
LINE
  5
30A
100
AcDbEntity
  8
0
100
AcDbLine
 62
7
  6
BYLAYER
 10
39.3965493454
 20
23.6493602763
 11
40.6878070559
 21
24.2208172159
  0
LINE
  5
30B
100
AcDbEntity
  8
0
100
AcDbLine
 62
7
  6
BYLAYER
 10
35.0407446789
 20
58.1392324209
 11
34.8993239114
 21
58.2208840735
  0
LINE
  5
30C
100
AcDbEntity
  8
0
100
AcDbLine
 62
7
  6
BYLAYER
 10
49.1829391818
 20
49.9744173305
 11
49.0415184144
 21
50.0560689831
  0
LINE
  5
30D
100
AcDbEntity
  8
0
100
AcDbLine
 62
7
  6
BYLAYER
 10
42.3856660058
 20
54.2472094073
 11
42.6965920472
 21
53.7086726959
  0
LINE
  5
30E
100
AcDbEntity
  8
0
100
AcDbLine
 62
7
  6
BYLAYER
 10
50.071030872
 20
40.935840879
 11
50.4040330768
 21
40.3590673429
  0
LWPOLYLINE
  5
30F
100
AcDbEntity
  8
0
100
AcDbPolyline
 62
7
  6
BYLAYER
 90
3
 70
0
 10
50.118086675
 20
41.9091234387
 10
49.8724978575
 20
39.6747167249
 10
49.6763435898
 20
39.1013103648
  0
LINE
  5
310
100
AcDbEntity
  8
0
100
AcDbLine
 62
7
  6
BYLAYER
 10
49.6763435898
 20
39.1013103648
 11
49.3564338276
 21
38.3189046514
  0
LINE
  5
311
100
AcDbEntity
  8
0
100
AcDbLine
 62
7
  6
BYLAYER
 10
46.299002533
 20
26.1967160569
 11
47.6885249151
 21
27.0559603078
  0
LINE
  5
312
100
AcDbEntity
  8
0
100
AcDbLine
 62
7
  6
BYLAYER
 10
43.1725771733
 20
23.9688495403
 11
46.299002533
 21
25.9021491048
  0
LINE
  5
313
100
AcDbEntity
  8
0
100
AcDbLine
 62
7
  6
BYLAYER
 10
46.1601087557
 20
25.5853498855
 11
43.033683396
 21
23.6520503209
  0
LINE
  5
314
100
AcDbEntity
  8
0
100
AcDbLine
 62
7
  6
BYLAYER
 10
43.137221687
 20
24.0301737489
 11
41.7230140126
 21
23.2136854412
  0
LINE
  5
315
100
AcDbEntity
  8
0
100
AcDbLine
 62
7
  6
BYLAYER
 10
42.9922433125
 20
23.7097235898
 11
41.5780356381
 21
22.8932352821
  0
LWPOLYLINE
  5
316
100
AcDbEntity
  8
0
100
AcDbPolyline
 62
7
  6
BYLAYER
 90
4
 70
0
 10
43.3492736455
 20
53.3654898649
 10
44.3854943047
 20
52.6751678897
 10
46.3609147595
 20
50.8110549822
 10
47.2725732893
 20
49.5420687324
  0
LWPOLYLINE
  5
317
100
AcDbEntity
  8
0
100
AcDbPolyline
 62
7
  6
BYLAYER
 90
4
 70
0
 10
48.7735058945
 20
46.9445309577
 10
49.3072637669
 20
45.8242938319
 10
49.7299146415
 20
44.4839345203
 10
50.118086675
 20
41.9091234387
  0
LINE
  5
318
100
AcDbEntity
  8
0
100
AcDbLine
 62
7
  6
BYLAYER
 10
50.1021818245
 20
32.0522117035
 11
50.1021830021
 21
31.8889160816
  0
LINE
  5
319
100
AcDbEntity
  8
0
100
AcDbLine
 62
7
  6
BYLAYER
 10
50.1021818245
 20
48.3822600461
 11
50.1021830021
 21
48.2189644242
  0
ARC
  5
31A
100
AcDbEntity
  8
0
100
AcDbCircle
 62
7
  6
BYLAYER
 10
-26.4873735105
 20
290.6199508108
 40
271.4383767449
100
AcDbArc
 50
282.2199483282
 51
282.4127162746
  0
ARC
  5
31B
100
AcDbEntity
  8
0
100
AcDbCircle
 62
7
  6
BYLAYER
 10
217.4046914785
 20
-134.5015343526
 40
267.0217263207
100
AcDbArc
 50
137.5851599508
 51
137.7811154841
  0
ARC
  5
31C
100
AcDbEntity
  8
0
100
AcDbCircle
 62
7
  6
BYLAYER
 10
34.2396701067
 20
40.2992915653
 40
16.0875403584
100
AcDbArc
 50
33.5601191029
 51
35.3313641467
  0
ARC
  5
31D
100
AcDbEntity
  8
0
100
AcDbCircle
 62
7
  6
BYLAYER
 10
37.066143275
 20
41.9172293252
 40
14.8067532026
100
AcDbArc
 50
26.1276192364
 51
33.8726562131
  0
ARC
  5
31E
100
AcDbEntity
  8
0
100
AcDbCircle
 62
7
  6
BYLAYER
 10
37.496751041
 20
42.1658393526
 40
14.454347685
100
AcDbArc
 50
26.0330556359
 51
33.9672198133
  0
ARC
  5
31F
100
AcDbEntity
  8
0
100
AcDbCircle
 62
7
  6
BYLAYER
 10
37.6930279902
 20
45.0850108615
 40
9.5824242928
100
AcDbArc
 50
60.0003120593
 51
60.3150267177
  0
ARC
  5
320
100
AcDbEntity
  8
0
100
AcDbCircle
 62
7
  6
BYLAYER
 10
37.8950255372
 20
45.1832494496
 40
9.5196398617
100
AcDbArc
 50
60.0003120593
 51
60.3150267177
  0
ARC
  5
321
100
AcDbEntity
  8
0
100
AcDbCircle
 62
7
  6
BYLAYER
 10
38.8656990258
 20
45.5997058163
 40
8.9671535762
100
AcDbArc
 50
60.0000159988
 51
60.4656800193
  0
ARC
  5
322
100
AcDbEntity
  8
0
100
AcDbCircle
 62
7
  6
BYLAYER
 10
16.0646358775
 20
31.7660050567
 40
7.6109680463
100
AcDbArc
 50
179.3526807714
 51
183.6753934917
  0
ARC
  5
323
100
AcDbEntity
  8
0
100
AcDbCircle
 62
7
  6
BYLAYER
 10
9.8034439136
 20
26.3029995418
 40
7.5395150401
100
AcDbArc
 50
40.7024221127
 51
41.0485458765
  0
ARC
  5
324
100
AcDbEntity
  8
0
100
AcDbCircle
 62
7
  6
BYLAYER
 10
12.3136077656
 20
25.3977309062
 40
7.4538000156
100
AcDbArc
 50
359.3277562899
 51
0.0017074387
  0
ARC
  5
325
100
AcDbEntity
  8
0
100
AcDbCircle
 62
7
  6
BYLAYER
 10
14.2341850302
 20
28.1238048777
 40
6.2907274943
100
AcDbArc
 50
120.0123023885
 51
121.7598666486
  0
ARC
  5
326
100
AcDbEntity
  8
0
100
AcDbCircle
 62
7
  6
BYLAYER
 10
12.7431146586
 20
25.6434291074
 40
6.2321926699
100
AcDbArc
 50
178.2318577391
 51
179.9957901136
  0
ARC
  5
327
100
AcDbEntity
  8
0
100
AcDbCircle
 62
7
  6
BYLAYER
 10
12.9791638371
 20
28.0106884226
 40
6.0
100
AcDbArc
 50
167.5242456595
 51
179.8602577669
  0
ARC
  5
328
100
AcDbEntity
  8
0
100
AcDbCircle
 62
7
  6
BYLAYER
 10
10.8087047676
 20
26.6249190975
 40
5.6462898844
100
AcDbArc
 50
297.8441269824
 51
300.016364736
  0
ARC
  5
329
100
AcDbEntity
  8
0
100
AcDbCircle
 62
7
  6
BYLAYER
 10
42.8679806151
 20
46.9875319969
 40
5.4680668283
100
AcDbArc
 50
59.9918307634
 51
61.5830062748
  0
ARC
  5
32A
100
AcDbEntity
  8
0
100
AcDbCircle
 62
7
  6
BYLAYER
 10
27.9331963485
 20
44.8183010436
 40
5.1917844532
100
AcDbArc
 50
147.3239639793
 51
149.0895717879
  0
ARC
  5
32B
100
AcDbEntity
  8
0
100
AcDbCircle
 62
7
  6
BYLAYER
 10
35.0128671287
 20
32.5299135719
 40
5.1643443549
100
AcDbArc
 50
270.9046624223
 51
272.6820368147
  0
ARC
  5
32C
100
AcDbEntity
  8
0
100
AcDbCircle
 62
7
  6
BYLAYER
 10
27.8023377055
 20
44.9016863199
 40
5.0366172206
100
AcDbArc
 50
145.7246285416
 51
147.3187241806
  0
ARC
  5
32D
100
AcDbEntity
  8
0
100
AcDbCircle
 62
7
  6
BYLAYER
 10
35.0202080988
 20
32.379192367
 40
5.0134447506
100
AcDbArc
 50
272.6788346933
 51
274.2802993494
  0
ARC
  5
32E
100
AcDbEntity
  8
0
100
AcDbCircle
 62
7
  6
BYLAYER
 10
27.1718811008
 20
52.5347159964
 40
4.9959665114
100
AcDbArc
 50
205.1065164074
 51
214.893759042
  0
ARC
  5
32F
100
AcDbEntity
  8
0
100
AcDbCircle
 62
7
  6
BYLAYER
 10
21.4136516057
 20
49.2102202831
 40
4.9959665114
100
AcDbArc
 50
25.1065164074
 51
34.893759042
  0
ARC
  5
330
100
AcDbEntity
  8
0
100
AcDbCircle
 62
7
  6
BYLAYER
 10
41.3140756037
 20
28.0398525634
 40
4.9959665114
100
AcDbArc
 50
205.1065164074
 51
214.893759042
  0
ARC
  5
331
100
AcDbEntity
  8
0
100
AcDbCircle
 62
7
  6
BYLAYER
 10
35.5558461086
 20
24.7153568501
 40
4.9959665114
100
AcDbArc
 50
25.1065164074
 51
34.893759042
  0
ARC
  5
332
100
AcDbEntity
  8
0
100
AcDbCircle
 62
7
  6
BYLAYER
 10
41.3140756037
 20
44.369900906
 40
4.9959665114
100
AcDbArc
 50
205.1065164074
 51
214.893759042
  0
ARC
  5
333
100
AcDbEntity
  8
0
100
AcDbCircle
 62
7
  6
BYLAYER
 10
35.5558461086
 20
41.0454051927
 40
4.9959665114
100
AcDbArc
 50
25.1065164074
 51
34.893759042
  0
ARC
  5
334
100
AcDbEntity
  8
0
100
AcDbCircle
 62
7
  6
BYLAYER
 10
16.5817992712
 20
26.0186099724
 40
4.5686127971
100
AcDbArc
 50
256.1659415471
 51
257.0372012522
  0
ARC
  5
335
100
AcDbEntity
  8
0
100
AcDbCircle
 62
7
  6
BYLAYER
 10
21.3626952004
 20
49.1613352068
 40
4.2114489198
100
AcDbArc
 50
21.6929634841
 51
24.1360999226
  0
ARC
  5
336
100
AcDbEntity
  8
0
100
AcDbCircle
 62
7
  6
BYLAYER
 10
35.5048897033
 20
24.6664717738
 40
4.2114489198
100
AcDbArc
 50
21.6929634841
 51
24.1360999225
  0
ARC
  5
337
100
AcDbEntity
  8
0
100
AcDbCircle
 62
7
  6
BYLAYER
 10
35.5048897033
 20
40.9965201164
 40
4.2114489198
100
AcDbArc
 50
21.6929634841
 51
24.1360999226
  0
ARC
  5
338
100
AcDbEntity
  8
0
100
AcDbCircle
 62
7
  6
BYLAYER
 10
41.0680383087
 20
43.1847552476
 40
3.8510669988
100
AcDbArc
 50
238.6079714209
 51
239.9924387338
  0
ARC
  5
339
100
AcDbEntity
  8
0
100
AcDbCircle
 62
7
  6
BYLAYER
 10
40.1446569272
 20
44.7490930987
 40
3.8310311415
100
AcDbArc
 50
180.003482847
 51
181.5774107979
  0
ARC
  5
33A
100
AcDbEntity
  8
0
100
AcDbCircle
 62
7
  6
BYLAYER
 10
45.8801750564
 20
39.1620997358
 40
3.4192589291
100
AcDbArc
 50
304.8537112928
 51
305.180000819
  0
ARC
  5
33B
100
AcDbEntity
  8
0
100
AcDbCircle
 62
7
  6
BYLAYER
 10
39.0870056756
 20
50.9283585461
 40
3.4188177759
100
AcDbArc
 50
114.8220815441
 51
115.1476991513
  0
ARC
  5
33C
100
AcDbEntity
  8
0
100
AcDbCircle
 62
7
  6
BYLAYER
 10
44.469024003
 20
46.2521921715
 40
1.9128718884
100
AcDbArc
 50
43.4475011253
 51
44.0887850817
  0
ARC
  5
33D
100
AcDbEntity
  8
0
100
AcDbCircle
 62
7
  6
BYLAYER
 10
15.5824292851
 20
25.7881249944
 40
1.6235728464
100
AcDbArc
 50
292.479124654
 51
299.9951982839
  0
ARC
  5
33E
100
AcDbEntity
  8
0
100
AcDbCircle
 62
7
  6
BYLAYER
 10
8.8295801732
 20
29.2973081586
 40
1.6009712294
100
AcDbArc
 50
115.1449677722
 51
119.9956646695
  0
SPLINE
  5
33F
100
AcDbEntity
  8
0
100
AcDbSpline
 62
7
  6
BYLAYER
 70
0
 71
3
 72
25
 73
21
 74
0
 42
0.0000001
 43
0.0000001
 44
0.0000000001
 40
0.0
 40
0.0
 40
0.0
 40
0.0
 40
0.0213322708
 40
0.0428927932
 40
0.0648987336
 40
0.0875435252
 40
0.1353195007
 40
0.1872207392
 40
0.2436581613
 40
0.3046057665
 40
0.3696936126
 40
0.4382908318
 40
0.5095768749
 40
0.5826009069
 40
0.6563320638
 40
0.7297075433
 40
0.8016850484
 40
0.8712728492
 40
0.9376232645
 40
1.0
 40
1.0
 40
1.0
 40
1.0
 10
14.8979962169
 20
25.0471719067
 30
0.0
 10
14.8869394689
 20
25.0535567433
 30
0.0
 10
14.8655052915
 20
25.0678348766
 30
0.0
 10
14.8360831131
 20
25.0933419164
 30
0.0
 10
14.8094845532
 20
25.1228503403
 30
0.0
 10
14.7774026196
 20
25.1680484047
 30
0.0
 10
14.7452957699
 20
25.2344722412
 30
0.0
 10
14.7208178632
 20
25.3250916353
 30
0.0
 10
14.7099090775
 20
25.4261804284
 30
0.0
 10
14.7126949036
 20
25.5356335464
 30
0.0
 10
14.7290540058
 20
25.6512009601
 30
0.0
 10
14.758620027
 20
25.7704648947
 30
0.0
 10
14.8007575673
 20
25.8909101131
 30
0.0
 10
14.8545697076
 20
26.009979098
 30
0.0
 10
14.9189094374
 20
26.1251342787
 30
0.0
 10
14.9924060243
 20
26.2339206391
 30
0.0
 10
15.0734921594
 20
26.3340111999
 30
0.0
 10
15.1604467099
 20
26.423299421
 30
0.0
 10
15.2514183857
 20
26.4998494776
 30
0.0
 10
15.3156551705
 20
26.5427823073
 30
0.0
 10
15.3479873043
 20
26.561449162
 30
0.0
  0
SPLINE
  5
340
100
AcDbEntity
  8
0
100
AcDbSpline
 62
7
  6
BYLAYER
 70
0
 71
3
 72
15
 73
11
 74
0
 42
0.0000001
 43
0.0000001
 44
0.0000000001
 40
0.0
 40
0.0
 40
0.0
 40
0.0
 40
0.1080135834
 40
0.2180622801
 40
0.3320002473
 40
0.4513622059
 40
0.5772759524
 40
0.7104919664
 40
0.8514277313
 40
1.0
 40
1.0
 40
1.0
 40
1.0
 10
14.4565777074
 20
24.6091999027
 30
0.0
 10
14.4811704154
 20
24.5950016188
 30
0.0
 10
14.5333862922
 20
24.5705541149
 30
0.0
 10
14.6178706422
 20
24.5471904301
 30
0.0
 10
14.7079348689
 20
24.5371433268
 30
0.0
 10
14.8026163797
 20
24.5404437558
 30
0.0
 10
14.9010043255
 20
24.5569434559
 30
0.0
 10
15.0021876897
 20
24.5864414009
 30
0.0
 10
15.1052009976
 20
24.6286098803
 30
0.0
 10
15.1727379484
 20
24.6639617991
 30
0.0
 10
15.206564982
 20
24.6834917295
 30
0.0
  0
SPLINE
  5
341
100
AcDbEntity
  8
0
100
AcDbSpline
 62
7
  6
BYLAYER
 70
0
 71
3
 72
19
 73
15
 74
0
 42
0.0000001
 43
0.0000001
 44
0.0000000001
 40
0.0
 40
0.0
 40
0.0
 40
0.0
 40
0.0558336538
 40
0.1142079052
 40
0.1748258026
 40
0.2374049624
 40
0.3670159581
 40
0.4999983896
 40
0.6329810455
 40
0.7625926967
 40
0.8251723288
 40
0.8857907846
 40
0.9441656659
 40
1.0
 40
1.0
 40
1.0
 40
1.0
 10
15.3479873043
 20
24.7651442491
 30
0.0
 10
15.3787757687
 20
24.7829198712
 30
0.0
 10
15.4401934773
 20
24.8220347671
 30
0.0
 10
15.5292874444
 20
24.8889293829
 30
0.0
 10
15.6166375745
 20
24.9648141372
 30
0.0
 10
15.7309605728
 20
25.0782747884
 30
0.0
 10
15.8638501823
 20
25.2377648875
 30
0.0
 10
16.0020995821
 20
25.4489345142
 30
0.0
 10
16.1158522295
 20
25.6742477469
 30
0.0
 10
16.1875293909
 20
25.8690796696
 30
0.0
 10
16.2286275328
 20
26.0248177673
 30
0.0
 10
16.2506705999
 20
26.1384086493
 30
0.0
 10
16.2640561604
 20
26.2490147786
 30
0.0
 10
16.2672219421
 20
26.3217623477
 30
0.0
 10
16.2672219421
 20
26.3573141842
 30
0.0
  0
SPLINE
  5
342
100
AcDbEntity
  8
0
100
AcDbSpline
 62
7
  6
BYLAYER
 70
0
 71
3
 72
15
 73
11
 74
0
 42
0.0000001
 43
0.0000001
 44
0.0000000001
 40
0.0
 40
0.0
 40
0.0
 40
0.0
 40
0.1485416216
 40
0.2895054072
 40
0.4227354106
 40
0.5486409387
 40
0.6679986644
 40
0.7819402175
 40
0.8919881222
 40
1.0
 40
1.0
 40
1.0
 40
1.0
 10
15.3479873043
 20
26.561449162
 30
0.0
 10
15.3682792933
 20
26.5731646773
 30
0.0
 10
15.4088027677
 20
26.5943718205
 30
0.0
 10
15.4706096924
 20
26.6196800199
 30
0.0
 10
15.5313256022
 20
26.6373770422
 30
0.0
 10
15.5903580981
 20
26.6472806824
 30
0.0
 10
15.6471656043
 20
26.6492524705
 30
0.0
 10
15.7012043159
 20
26.6432308809
 30
0.0
 10
15.7518947331
 20
26.6292106829
 30
0.0
 10
15.7832238212
 20
26.6145422498
 30
0.0
 10
15.7979783917
 20
26.6060220664
 30
0.0
  0
SPLINE
  5
343
100
AcDbEntity
  8
0
100
AcDbSpline
 62
7
  6
BYLAYER
 70
0
 71
3
 72
15
 73
11
 74
0
 42
0.0000001
 43
0.0000001
 44
0.0000000001
 40
0.0
 40
0.0
 40
0.0
 40
0.0
 40
0.1485730788
 40
0.2895094781
 40
0.4227258942
 40
0.5486397716
 40
0.6680015705
 40
0.7819391103
 40
0.8919871696
 40
1.0
 40
1.0
 40
1.0
 40
1.0
 10
16.2672207379
 20
26.520611586
 30
0.0
 10
16.2672207379
 20
26.5596733855
 30
0.0
 10
16.2640679582
 20
26.6358414733
 30
0.0
 10
16.2490797899
 20
26.7461427424
 30
0.0
 10
16.2240330593
 20
26.8485234596
 30
0.0
 10
16.1891267181
 20
26.9419835417
 30
0.0
 10
16.1446422055
 20
27.0256334176
 30
0.0
 10
16.0909065894
 20
27.0986100561
 30
0.0
 10
16.0284280111
 20
27.1600952112
 30
0.0
 10
15.9811457699
 20
27.1930920591
 30
0.0
 10
15.9565522568
 20
27.2072908078
 30
0.0
  0
SPLINE
  5
344
100
AcDbEntity
  8
0
100
AcDbSpline
 62
7
  6
BYLAYER
 70
0
 71
3
 72
19
 73
15
 74
0
 42
0.0000001
 43
0.0000001
 44
0.0000000001
 40
0.0
 40
0.0
 40
0.0
 40
0.0
 40
0.0558396297
 40
0.1142079958
 40
0.1748223425
 40
0.2374047749
 40
0.3670153055
 40
0.4999983995
 40
0.6329817164
 40
0.7625928982
 40
0.8251758009
 40
0.8857907014
 40
0.944159692
 40
1.0
 40
1.0
 40
1.0
 40
1.0
 10
15.2065649821
 20
27.1329989809
 30
0.0
 10
15.1710359947
 20
27.1124864329
 30
0.0
 10
15.1001671589
 20
27.0673569473
 30
0.0
 10
14.9973720005
 20
26.9901673578
 30
0.0
 10
14.8965849695
 20
26.9026131536
 30
0.0
 10
14.7646744118
 20
26.7716967643
 30
0.0
 10
14.6113374878
 20
26.5876686666
 30
0.0
 10
14.451816102
 20
26.3440119996
 30
0.0
 10
14.3205649915
 20
26.0840330245
 30
0.0
 10
14.2378610417
 20
25.8592240443
 30
0.0
 10
14.1904395959
 20
25.6795266345
 30
0.0
 10
14.1650089419
 20
25.5484641732
 30
0.0
 10
14.1495582522
 20
25.4208448043
 30
0.0
 10
14.1459092263
 20
25.3369049024
 30
0.0
 10
14.1459092263
 20
25.2958791244
 30
0.0
  0
SPLINE
  5
345
100
AcDbEntity
  8
0
100
AcDbSpline
 62
7
  6
BYLAYER
 70
0
 71
3
 72
15
 73
11
 74
0
 42
0.0000001
 43
0.0000001
 44
0.0000000001
 40
0.0
 40
0.0
 40
0.0
 40
0.0
 40
0.1485730788
 40
0.2895094781
 40
0.4227258942
 40
0.5486397716
 40
0.6680015705
 40
0.7819391103
 40
0.8919871696
 40
1.0
 40
1.0
 40
1.0
 40
1.0
 10
14.1459092263
 20
25.2958791244
 30
0.0
 10
14.1459092263
 20
25.2568173249
 30
0.0
 10
14.149062006
 20
25.1806492372
 30
0.0
 10
14.1640501743
 20
25.0703479681
 30
0.0
 10
14.1890969049
 20
24.9679672509
 30
0.0
 10
14.2240032461
 20
24.8745071687
 30
0.0
 10
14.2684877587
 20
24.7908572928
 30
0.0
 10
14.3222233748
 20
24.7178806544
 30
0.0
 10
14.3847019531
 20
24.6563954992
 30
0.0
 10
14.4319841943
 20
24.6233986513
 30
0.0
 10
14.4565777074
 20
24.6091999027
 30
0.0
  0
SPLINE
  5
346
100
AcDbEntity
  8
0
100
AcDbSpline
 62
7
  6
BYLAYER
 70
0
 71
3
 72
19
 73
15
 74
0
 42
0.0000001
 43
0.0000001
 44
0.0000000001
 40
0.0
 40
0.0
 40
0.0
 40
0.0
 40
0.0558336538
 40
0.1142079052
 40
0.1748258026
 40
0.2374049624
 40
0.3670159581
 40
0.4999983896
 40
0.6329810455
 40
0.7625926967
 40
0.8251723288
 40
0.8857907846
 40
0.9441656659
 40
1.0
 40
1.0
 40
1.0
 40
1.0
 10
15.3479873043
 20
26.888049724
 30
0.0
 10
15.31719884
 20
26.8702741019
 30
0.0
 10
15.2557811313
 20
26.831159206
 30
0.0
 10
15.1666871642
 20
26.7642645902
 30
0.0
 10
15.0793370341
 20
26.6883798359
 30
0.0
 10
14.9650140358
 20
26.5749191848
 30
0.0
 10
14.8321244264
 20
26.4154290856
 30
0.0
 10
14.6938750265
 20
26.2042594589
 30
0.0
 10
14.5801223791
 20
25.9789462262
 30
0.0
 10
14.5084452177
 20
25.7841143035
 30
0.0
 10
14.4673470758
 20
25.6283762058
 30
0.0
 10
14.4453040087
 20
25.5147853238
 30
0.0
 10
14.4319184482
 20
25.4041791946
 30
0.0
 10
14.4287526665
 20
25.3314316254
 30
0.0
 10
14.4287526665
 20
25.2958797889
 30
0.0
  0
SPLINE
  5
347
100
AcDbEntity
  8
0
100
AcDbSpline
 62
7
  6
BYLAYER
 70
0
 71
3
 72
9
 73
5
 74
0
 42
0.0000001
 43
0.0000001
 44
0.0000000001
 40
0.0
 40
0.0
 40
0.0
 40
0.0
 40
0.258296178
 40
1.0
 40
1.0
 40
1.0
 40
1.0
 10
16.2672219421
 20
26.3573141842
 30
0.0
 10
16.2672219421
 20
26.3719558312
 30
0.0
 10
16.2662005044
 20
26.428632015
 30
0.0
 10
16.2610008362
 20
26.4852693391
 30
0.0
 10
16.254366357
 20
26.5267864312
 30
0.0
  0
SPLINE
  5
348
100
AcDbEntity
  8
0
100
AcDbSpline
 62
7
  6
BYLAYER
 70
0
 71
3
 72
22
 73
18
 74
0
 42
0.0000001
 43
0.0000001
 44
0.0000000001
 40
0.0
 40
0.0
 40
0.0
 40
0.0
 40
0.1350605736
 40
0.1977760447
 40
0.2576839352
 40
0.3152944724
 40
0.3712677977
 40
0.4263713227
 40
0.4814364565
 40
0.5372971083
 40
0.5947288319
 40
0.6544034523
 40
0.7168450701
 40
0.7824410859
 40
0.851452581
 40
0.9240033553
 40
1.0
 40
1.0
 40
1.0
 40
1.0
 10
16.254366357
 20
26.5267864312
 30
0.0
 10
16.2458625378
 20
26.5800014371
 30
0.0
 10
16.2266227037
 20
26.6572817596
 30
0.0
 10
16.1851696401
 20
26.7515833029
 30
0.0
 10
16.1483207587
 20
26.813577224
 30
0.0
 10
16.1051853854
 20
26.8680008085
 30
0.0
 10
16.0561010574
 20
26.914411401
 30
0.0
 10
16.0014358368
 20
26.9523628111
 30
0.0
 10
15.9416763001
 20
26.9815434171
 30
0.0
 10
15.8773319539
 20
27.0016780372
 30
0.0
 10
15.8089692698
 20
27.0126619359
 30
0.0
 10
15.7371506575
 20
27.0144164481
 30
0.0
 10
15.6624454936
 20
27.0070144451
 30
0.0
 10
15.5854194198
 20
26.9905193908
 30
0.0
 10
15.5066325246
 20
26.9650996551
 30
0.0
 10
15.4267084611
 20
26.9309527209
 30
0.0
 10
15.3742480325
 20
26.9032112719
 30
0.0
 10
15.3479873043
 20
26.888049724
 30
0.0
  0
SPLINE
  5
349
100
AcDbEntity
  8
0
100
AcDbSpline
 62
7
  6
BYLAYER
 70
0
 71
3
 72
22
 73
18
 74
0
 42
0.0000001
 43
0.0000001
 44
0.0000000001
 40
0.0
 40
0.0
 40
0.0
 40
0.0
 40
0.0759975634
 40
0.1485492904
 40
0.2175617438
 40
0.2831586867
 40
0.3456011541
 40
0.4052764954
 40
0.4627087607
 40
0.5185697282
 40
0.5736349155
 40
0.6287382139
 40
0.6847110356
 40
0.7423208149
 40
0.8022277303
 40
0.8649420541
 40
1.0
 40
1.0
 40
1.0
 40
1.0
 10
14.4287526665
 20
25.2958797889
 30
0.0
 10
14.4287526665
 20
25.2655562861
 30
0.0
 10
14.430957883
 20
25.2062529335
 30
0.0
 10
14.4413473546
 20
25.1199622869
 30
0.0
 10
14.4587260743
 20
25.039019955
 30
0.0
 10
14.482953246
 20
24.964064778
 30
0.0
 10
14.5138946408
 20
24.8956659918
 30
0.0
 10
14.5513224092
 20
24.8343451904
 30
0.0
 10
14.5950149808
 20
24.7806319009
 30
0.0
 10
14.6446230446
 20
24.7349738551
 30
0.0
 10
14.6997726839
 20
24.6978092696
 30
0.0
 10
14.7599708544
 20
24.6694418179
 30
0.0
 10
14.8247044134
 20
24.6501370974
 30
0.0
 10
14.8934029281
 20
24.6399907872
 30
0.0
 10
14.965514288
 20
24.6390738925
 30
0.0
 10
15.0679063967
 20
24.6503228058
 30
0.0
 10
15.1444517358
 20
24.6722990624
 30
0.0
 10
15.1947883137
 20
24.6915409296
 30
0.0
  0
SPLINE
  5
34A
100
AcDbEntity
  8
0
100
AcDbSpline
 62
7
  6
BYLAYER
 70
0
 71
3
 72
9
 73
5
 74
0
 42
0.0000001
 43
0.0000001
 44
0.0000000001
 40
0.0
 40
0.0
 40
0.0
 40
0.0
 40
0.2417682239
 40
1.0
 40
1.0
 40
1.0
 40
1.0
 10
15.1947883137
 20
24.6915409296
 30
0.0
 10
15.2075902599
 20
24.6964346542
 30
0.0
 10
15.2600935564
 20
24.717840465
 30
0.0
 10
15.310763034
 20
24.743652935
 30
0.0
 10
15.3479873043
 20
24.7651442491
 30
0.0
  0
SPLINE
  5
34B
100
AcDbEntity
  8
0
100
AcDbSpline
 62
7
  6
BYLAYER
 70
0
 71
3
 72
15
 73
11
 74
0
 42
0.0000001
 43
0.0000001
 44
0.0000000001
 40
0.0
 40
0.0
 40
0.0
 40
0.0
 40
0.1485416216
 40
0.2895054072
 40
0.4227354106
 40
0.5486409387
 40
0.6679986644
 40
0.7819402175
 40
0.8919881222
 40
1.0
 40
1.0
 40
1.0
 40
1.0
 10
15.3479873043
 20
25.0917448111
 30
0.0
 10
15.3276953154
 20
25.0800292958
 30
0.0
 10
15.2871718409
 20
25.0588221526
 30
0.0
 10
15.2253649162
 20
25.0335139532
 30
0.0
 10
15.1646490065
 20
25.0158169309
 30
0.0
 10
15.1056165105
 20
25.0059132907
 30
0.0
 10
15.0488090043
 20
25.0039415026
 30
0.0
 10
14.9947702927
 20
25.0099630922
 30
0.0
 10
14.9440798755
 20
25.0239832902
 30
0.0
 10
14.9127507874
 20
25.0386517233
 30
0.0
 10
14.8979962169
 20
25.0471719067
 30
0.0
  0
SPLINE
  5
34C
100
AcDbEntity
  8
0
100
AcDbSpline
 62
7
  6
BYLAYER
 70
0
 71
3
 72
15
 73
11
 74
0
 42
0.0000001
 43
0.0000001
 44
0.0000000001
 40
0.0
 40
0.0
 40
0.0
 40
0.0
 40
0.1080135834
 40
0.2180622801
 40
0.3320002473
 40
0.4513622059
 40
0.5772759524
 40
0.7104919664
 40
0.8514277313
 40
1.0
 40
1.0
 40
1.0
 40
1.0
 10
15.9565522568
 20
27.2072908078
 30
0.0
 10
15.9319595488
 20
27.2214890916
 30
0.0
 10
15.879743672
 20
27.2459365956
 30
0.0
 10
15.795259322
 20
27.2693002803
 30
0.0
 10
15.7051950952
 20
27.2793473836
 30
0.0
 10
15.6105135844
 20
27.2760469547
 30
0.0
 10
15.5121256386
 20
27.2595472545
 30
0.0
 10
15.4109422745
 20
27.2300493096
 30
0.0
 10
15.3079289665
 20
27.1878808301
 30
0.0
 10
15.2403920157
 20
27.1525289113
 30
0.0
 10
15.2065649821
 20
27.1329989809
 30
0.0
  0
SPLINE
  5
34D
100
AcDbEntity
  8
0
100
AcDbSpline
 62
7
  6
BYLAYER
 70
0
 71
3
 72
25
 73
21
 74
0
 42
0.0000001
 43
0.0000001
 44
0.0000000001
 40
0.0
 40
0.0
 40
0.0
 40
0.0
 40
0.0213322708
 40
0.0428927932
 40
0.0648987336
 40
0.0875435252
 40
0.1353195007
 40
0.1872207392
 40
0.2436581613
 40
0.3046057665
 40
0.3696936126
 40
0.4382908318
 40
0.5095768749
 40
0.5826009069
 40
0.6563320638
 40
0.7297075433
 40
0.8016850484
 40
0.8712728492
 40
0.9376232645
 40
1.0
 40
1.0
 40
1.0
 40
1.0
 10
15.7979783917
 20
26.6060220664
 30
0.0
 10
15.8090351397
 20
26.5996372298
 30
0.0
 10
15.8304693171
 20
26.5853590966
 30
0.0
 10
15.8598914955
 20
26.5598520567
 30
0.0
 10
15.8864900555
 20
26.5303436328
 30
0.0
 10
15.918571989
 20
26.4851455684
 30
0.0
 10
15.9506788387
 20
26.4187217319
 30
0.0
 10
15.9751567454
 20
26.3281023378
 30
0.0
 10
15.9860655311
 20
26.2270135447
 30
0.0
 10
15.983279705
 20
26.1175604267
 30
0.0
 10
15.9669206028
 20
26.001993013
 30
0.0
 10
15.9373545816
 20
25.8827290784
 30
0.0
 10
15.8952170413
 20
25.76228386
 30
0.0
 10
15.841404901
 20
25.6432148751
 30
0.0
 10
15.7770651712
 20
25.5280596945
 30
0.0
 10
15.7035685844
 20
25.419273334
 30
0.0
 10
15.6224824492
 20
25.3191827732
 30
0.0
 10
15.5355278987
 20
25.2298945522
 30
0.0
 10
15.4445562229
 20
25.1533444955
 30
0.0
 10
15.3803194381
 20
25.1104116659
 30
0.0
 10
15.3479873043
 20
25.0917448111
 30
0.0
  0
LINE
  5
34E
100
AcDbEntity
  8
0
100
AcDbLine
 62
7
  6
BYLAYER
 10
22.6479307686
 20
50.4149153511
 11
22.293334774
 21
50.2260999867
  0
LINE
  5
34F
100
AcDbEntity
  8
0
100
AcDbLine
 62
7
  6
BYLAYER
 10
22.7333001642
 20
49.4640618077
 11
23.0741184646
 21
49.676740706
  0
SPLINE
  5
350
100
AcDbEntity
  8
0
100
AcDbSpline
 62
7
  6
BYLAYER
 70
0
 71
3
 72
20
 73
16
 74
0
 42
0.0000001
 43
0.0000001
 44
0.0000000001
 40
0.0
 40
0.0
 40
0.0
 40
0.0
 40
0.2236473966
 40
0.4231256012
 40
0.5955855492
 40
0.7390767461
 40
0.7995047386
 40
0.8521552992
 40
0.8969119242
 40
0.9336819433
 40
0.962376335
 40
0.9829158418
 40
0.9952943136
 40
0.998503461
 40
1.0
 40
1.0
 40
1.0
 40
1.0
 10
22.293334774
 20
50.2260999867
 30
0.0
 10
22.286431607
 20
50.2224242207
 30
0.0
 10
22.2733618356
 20
50.2154876372
 30
0.0
 10
22.2549317522
 20
50.2057867298
 30
0.0
 10
22.2389447827
 20
50.1974624655
 30
0.0
 10
22.2272347204
 20
50.1914535803
 30
0.0
 10
22.2192227492
 20
50.1874149631
 30
0.0
 10
22.214279729
 20
50.1849601656
 30
0.0
 10
22.2100593068
 20
50.1829068352
 30
0.0
 10
22.2065788918
 20
50.1812586431
 30
0.0
 10
22.2038285438
 20
50.1800188728
 30
0.0
 10
22.2018640257
 20
50.1791854004
 30
0.0
 10
22.2006324554
 20
50.1787641883
 30
0.0
 10
22.2000848026
 20
50.1786386328
 30
0.0
 10
22.199882567
 20
50.1786691011
 30
0.0
 10
22.1998611494
 20
50.1787168507
 30
0.0
  0
SPLINE
  5
351
100
AcDbEntity
  8
0
100
AcDbSpline
 62
7
  6
BYLAYER
 70
0
 71
3
 72
15
 73
11
 74
0
 42
0.0000001
 43
0.0000001
 44
0.0000000001
 40
0.0
 40
0.0
 40
0.0
 40
0.0
 40
0.1486025686
 40
0.2895002298
 40
0.4227203136
 40
0.5486432717
 40
0.6679991312
 40
0.7819389813
 40
0.8919869929
 40
1.0
 40
1.0
 40
1.0
 40
1.0
 10
35.9599884991
 20
56.3837795146
 30
0.0
 10
35.9599887818
 20
56.3447095809
 30
0.0
 10
35.9568342289
 20
56.2685434474
 30
0.0
 10
35.9418502812
 20
56.1582414277
 30
0.0
 10
35.9167930702
 20
56.0558702226
 30
0.0
 10
35.8819060865
 20
55.9623991326
 30
0.0
 10
35.837401654
 20
55.8787574883
 30
0.0
 10
35.7836814448
 20
55.8057697856
 30
0.0
 10
35.7211914729
 20
55.7442934525
 30
0.0
 10
35.6739141013
 20
55.7112897392
 30
0.0
 10
35.6493205538
 20
55.6970904035
 30
0.0
  0
SPLINE
  5
352
100
AcDbEntity
  8
0
100
AcDbSpline
 62
7
  6
BYLAYER
 70
0
 71
3
 72
14
 73
10
 74
0
 42
0.0000001
 43
0.0000001
 44
0.0000000001
 40
0.0
 40
0.0
 40
0.0
 40
0.0
 40
0.1080615955
 40
0.2181606062
 40
0.3321565038
 40
0.4515612425
 40
0.7103718436
 40
0.8514086464
 40
1.0
 40
1.0
 40
1.0
 40
1.0
 10
34.1493272691
 20
58.2951704921
 30
0.0
 10
34.1739198568
 20
58.3093692736
 30
0.0
 10
34.2261389011
 20
58.3338110203
 30
0.0
 10
34.3106209356
 20
58.3571892024
 30
0.0
 10
34.400694314
 20
58.3672152691
 30
0.0
 10
34.530336836
 20
58.3627254267
 30
0.0
 10
34.6644895772
 20
58.3304157698
 30
0.0
 10
34.7979440375
 20
58.2757572629
 30
0.0
 10
34.865507251
 20
58.2404076899
 30
0.0
 10
34.8993239114
 20
58.2208840735
 30
0.0
  0
SPLINE
  5
353
100
AcDbEntity
  8
0
100
AcDbSpline
 62
7
  6
BYLAYER
 70
0
 71
3
 72
18
 73
14
 74
0
 42
0.0000001
 43
0.0000001
 44
0.0000000001
 40
0.0
 40
0.0
 40
0.0
 40
0.0
 40
0.0521720292
 40
0.1047113292
 40
0.158054559
 40
0.2124844475
 40
0.3254461779
 40
0.38460846
 40
0.4457208574
 40
0.5739270793
 40
0.7099377458
 40
0.8525816509
 40
1.0
 40
1.0
 40
1.0
 40
1.0
 10
22.41084297
 20
53.0693601432
 30
0.0
 10
22.367080269
 20
53.037415629
 30
0.0
 10
22.2836469154
 20
52.9670301454
 30
0.0
 10
22.1734008045
 20
52.8448075733
 30
0.0
 10
22.0785110691
 20
52.7074615741
 30
0.0
 10
21.9715170905
 20
52.5042190912
 30
0.0
 10
21.8979689631
 20
52.2786622977
 30
0.0
 10
21.855029483
 20
52.0400995589
 30
0.0
 10
21.8309553477
 20
51.7828768678
 30
0.0
 10
21.8393455681
 20
51.4438443159
 30
0.0
 10
21.9053900484
 20
51.0254707079
 30
0.0
 10
22.0247463854
 20
50.5984807756
 30
0.0
 10
22.1362945152
 20
50.3179922273
 30
0.0
 10
22.1998588222
 20
50.1787155243
 30
0.0
  0
SPLINE
  5
354
100
AcDbEntity
  8
0
100
AcDbSpline
 62
7
  6
BYLAYER
 70
0
 71
3
 72
16
 73
12
 74
0
 42
0.0000001
 43
0.0000001
 44
0.0000000001
 40
0.0
 40
0.0
 40
0.0
 40
0.0
 40
0.1088553946
 40
0.2187157698
 40
0.3318920909
 40
0.4503672366
 40
0.5121191294
 40
0.5757124816
 40
0.7087830318
 40
0.8502270303
 40
1.0
 40
1.0
 40
1.0
 40
1.0
 10
23.551373849
 20
53.9018853735
 30
0.0
 10
23.600743341
 20
53.9379264602
 30
0.0
 10
23.7068355066
 20
54.0014102637
 30
0.0
 10
23.8825102728
 20
54.0665017607
 30
0.0
 10
24.0721641111
 20
54.100625339
 30
0.0
 10
24.2375999242
 20
54.1030530278
 30
0.0
 10
24.3739979578
 20
54.0902290643
 30
0.0
 10
24.517288332
 20
54.0666780002
 30
0.0
 10
24.7011772774
 20
54.0173505272
 30
0.0
 10
24.9230724559
 20
53.9294344848
 30
0.0
 10
25.0684563426
 20
53.8539185092
 30
0.0
 10
25.1412909579
 20
53.8118683758
 30
0.0
  0
SPLINE
  5
355
100
AcDbEntity
  8
0
100
AcDbSpline
 62
7
  6
BYLAYER
 70
0
 71
3
 72
20
 73
16
 74
0
 42
0.0000001
 43
0.0000001
 44
0.0000000001
 40
0.0
 40
0.0
 40
0.0
 40
0.0
 40
0.0014964202
 40
0.00470617
 40
0.0170857863
 40
0.0376263814
 40
0.0663235513
 40
0.1030971474
 40
0.1478571194
 40
0.200509813
 40
0.2609399708
 40
0.4044340018
 40
0.5768858388
 40
0.7763556334
 40
1.0
 40
1.0
 40
1.0
 40
1.0
 10
22.6455270319
 20
49.4068052973
 30
0.0
 10
22.6454964297
 20
49.4068477448
 30
0.0
 10
22.6455714004
 20
49.4070380506
 30
0.0
 10
22.6459540029
 20
49.4074494747
 30
0.0
 10
22.6469348886
 20
49.4083053395
 30
0.0
 10
22.6486391405
 20
49.4095898672
 30
0.0
 10
22.6510883527
 20
49.4113518081
 30
0.0
 10
22.6542563125
 20
49.4135418446
 30
0.0
 10
22.6581451264
 20
49.4161701635
 30
0.0
 10
22.6627428597
 20
49.4192235207
 30
0.0
 10
22.6702467115
 20
49.4241426744
 30
0.0
 10
22.6813056115
 20
49.4312790981
 30
0.0
 10
22.6965077958
 20
49.4409615549
 30
0.0
 10
22.7141235468
 20
49.4520713925
 30
0.0
 10
22.7266653637
 20
49.4599214956
 30
0.0
 10
22.7333001642
 20
49.4640618077
 30
0.0
  0
SPLINE
  5
356
100
AcDbEntity
  8
0
100
AcDbSpline
 62
7
  6
BYLAYER
 70
0
 71
3
 72
11
 73
7
 74
0
 42
0.0000001
 43
0.0000001
 44
0.0000000001
 40
0.0
 40
0.0
 40
0.0
 40
0.0
 40
0.263813573
 40
0.5201794326
 40
0.766247277
 40
1.0
 40
1.0
 40
1.0
 40
1.0
 10
22.6455246101
 20
49.406803869
 30
0.0
 10
22.7263665916
 20
49.2933358903
 30
0.0
 10
22.896005831
 20
49.0766705692
 30
0.0
 10
23.1752482171
 20
48.7829001982
 30
0.0
 10
23.4713379791
 20
48.5298368843
 30
0.0
 10
23.6823090388
 20
48.388077049
 30
0.0
 10
23.7892169797
 20
48.3263551169
 30
0.0
  0
SPLINE
  5
357
100
AcDbEntity
  8
0
100
AcDbSpline
 62
7
  6
BYLAYER
 70
0
 71
3
 72
15
 73
11
 74
0
 42
0.0000001
 43
0.0000001
 44
0.0000000001
 40
0.0
 40
0.0
 40
0.0
 40
0.0
 40
0.1108347067
 40
0.2279412802
 40
0.3503773324
 40
0.4770768924
 40
0.6067700569
 40
0.738100921
 40
0.8696523797
 40
1.0
 40
1.0
 40
1.0
 40
1.0
 10
25.1412909579
 20
53.8118683758
 30
0.0
 10
25.2342917946
 20
53.7581755324
 30
0.0
 10
25.4193909516
 20
53.636832833
 30
0.0
 10
25.6841979329
 20
53.4236927884
 30
0.0
 10
25.9402302414
 20
53.1773695012
 30
0.0
 10
26.1833720242
 20
52.9018980236
 30
0.0
 10
26.4097365179
 20
52.6016452505
 30
0.0
 10
26.6156890791
 20
52.2814462421
 30
0.0
 10
26.7979097997
 20
51.9464782858
 30
0.0
 10
26.90249622
 20
51.7149697056
 30
0.0
 10
26.9500254817
 20
51.5979610533
 30
0.0
  0
SPLINE
  5
358
100
AcDbEntity
  8
0
100
AcDbSpline
 62
7
  6
BYLAYER
 70
0
 71
3
 72
10
 73
6
 74
0
 42
0.0000001
 43
0.0000001
 44
0.0000000001
 40
0.0
 40
0.0
 40
0.0
 40
0.0
 40
0.2630400059
 40
0.5172781904
 40
1.0
 40
1.0
 40
1.0
 40
1.0
 10
23.7892169797
 20
48.3263551169
 30
0.0
 10
23.8493408349
 20
48.2916433783
 30
0.0
 10
23.9703097482
 20
48.2278927121
 30
0.0
 10
24.2135555492
 20
48.125116768
 30
0.0
 10
24.4032712503
 20
48.0745072866
 30
0.0
 10
24.5293682151
 20
48.0562928131
 30
0.0
  0
SPLINE
  5
359
100
AcDbEntity
  8
0
100
AcDbSpline
 62
7
  6
BYLAYER
 70
0
 71
3
 72
16
 73
12
 74
0
 42
0.0000001
 43
0.0000001
 44
0.0000000001
 40
0.0
 40
0.0
 40
0.0
 40
0.0
 40
0.0558365412
 40
0.1142297772
 40
0.237390973
 40
0.3670297887
 40
0.5000402866
 40
0.6330538215
 40
0.7626938317
 40
0.885855409
 40
1.0
 40
1.0
 40
1.0
 40
1.0
 10
35.0407446789
 20
58.1392324209
 30
0.0
 10
35.0715279002
 20
58.1214601218
 30
0.0
 10
35.1329437591
 20
58.0823434092
 30
0.0
 10
35.2538846407
 20
57.9915372241
 30
0.0
 10
35.399021296
 20
57.8557391607
 30
0.0
 10
35.5565977337
 20
57.6666359277
 30
0.0
 10
35.6948636617
 20
57.4554493683
 30
0.0
 10
35.8086195335
 20
57.2301299894
 30
0.0
 10
35.8936169688
 20
56.999064558
 30
0.0
 10
35.9466751324
 20
56.7709486157
 30
0.0
 10
35.9599851002
 20
56.6197399069
 30
0.0
 10
35.9599855533
 20
56.5470761571
 30
0.0
  0
SPLINE
  5
35A
100
AcDbEntity
  8
0
100
AcDbSpline
 62
7
  6
BYLAYER
 70
0
 71
3
 72
27
 73
23
 74
0
 42
0.0000001
 43
0.0000001
 44
0.0000000001
 40
0.0
 40
0.0
 40
0.0
 40
0.0
 40
0.0666260611
 40
0.1284149881
 40
0.1855374834
 40
0.238651189
 40
0.2640708739
 40
0.2889455434
 40
0.3134805221
 40
0.3378963402
 40
0.3624184509
 40
0.3872678879
 40
0.4126507065
 40
0.4387520748
 40
0.4936455513
 40
0.5529128834
 40
0.6169774723
 40
0.6858578234
 40
0.7592501363
 40
0.8365871038
 40
0.9171446132
 40
1.0
 40
1.0
 40
1.0
 40
1.0
 10
23.7270832835
 20
52.628054672
 30
0.0
 10
23.6480874028
 20
52.6736619332
 30
0.0
 10
23.4906293418
 20
52.7530642601
 30
0.0
 10
23.2496236364
 20
52.8360781039
 30
0.0
 10
23.0165417285
 20
52.8768806721
 30
0.0
 10
22.8294565015
 20
52.8745216823
 30
0.0
 10
22.6897844993
 20
52.8498924949
 30
0.0
 10
22.5912816024
 20
52.8209242598
 30
0.0
 10
22.4980608947
 20
52.7812730589
 30
0.0
 10
22.4105654882
 20
52.7311705905
 30
0.0
 10
22.3292558487
 20
52.6708300535
 30
0.0
 10
22.2545214981
 20
52.6005844645
 30
0.0
 10
22.1867092042
 20
52.5207867912
 30
0.0
 10
22.1046087549
 20
52.4002089656
 30
0.0
 10
22.0213688162
 20
52.2257737843
 30
0.0
 10
21.9554489264
 20
51.98982511
 30
0.0
 10
21.9223859054
 20
51.7279310995
 30
0.0
 10
21.9225596703
 20
51.4447944284
 30
0.0
 10
21.9558255806
 20
51.1454389369
 30
0.0
 10
22.0215100597
 20
50.835203849
 30
0.0
 10
22.1184251674
 20
50.5197610732
 30
0.0
 10
22.2018291214
 20
50.3118495713
 30
0.0
 10
22.248201115
 20
50.208325708
 30
0.0
  0
SPLINE
  5
35B
100
AcDbEntity
  8
0
100
AcDbSpline
 62
7
  6
BYLAYER
 70
0
 71
3
 72
11
 73
7
 74
0
 42
0.0000001
 43
0.0000001
 44
0.0000000001
 40
0.0
 40
0.0
 40
0.0
 40
0.0
 40
0.266402162
 40
0.5240762057
 40
0.769543547
 40
1.0
 40
1.0
 40
1.0
 40
1.0
 10
24.7588289315
 20
51.6578787974
 30
0.0
 10
24.6846412891
 20
51.7604743108
 30
0.0
 10
24.5296775651
 20
51.9559813334
 30
0.0
 10
24.2762531249
 20
52.220458968
 30
0.0
 10
24.0102689908
 20
52.446815381
 30
0.0
 10
23.8219352146
 20
52.5732931229
 30
0.0
 10
23.7270832835
 20
52.628054672
 30
0.0
  0
SPLINE
  5
35C
100
AcDbEntity
  8
0
100
AcDbSpline
 62
7
  6
BYLAYER
 70
0
 71
3
 72
17
 73
13
 74
0
 42
0.0000001
 43
0.0000001
 44
0.0000000001
 40
0.0
 40
0.0
 40
0.0
 40
0.0
 40
0.1497624263
 40
0.2911795142
 40
0.4242329862
 40
0.4878208256
 40
0.5495673782
 40
0.6680285123
 40
0.7811941285
 40
0.8910430185
 40
0.9454957046
 40
1.0
 40
1.0
 40
1.0
 40
1.0
 10
23.9207259866
 20
52.9838722851
 30
0.0
 10
23.8515546981
 20
53.0238074437
 30
0.0
 10
23.71349292
 20
53.0955248838
 30
0.0
 10
23.5027681304
 20
53.1790079685
 30
0.0
 10
23.328142389
 20
53.2258540736
 30
0.0
 10
23.1920637552
 20
53.2482179391
 30
0.0
 10
23.0625320124
 20
53.2604067385
 30
0.0
 10
22.905413953
 20
53.258083907
 30
0.0
 10
22.7253364429
 20
53.2257095423
 30
0.0
 10
22.5857516865
 20
53.1739544195
 30
0.0
 10
22.4828488301
 20
53.1186455288
 30
0.0
 10
22.4343233255
 20
53.0864956678
 30
0.0
 10
22.4108451132
 20
53.06935672
 30
0.0
  0
SPLINE
  5
35D
100
AcDbEntity
  8
0
100
AcDbSpline
 62
7
  6
BYLAYER
 70
0
 71
3
 72
11
 73
7
 74
0
 42
0.0000001
 43
0.0000001
 44
0.0000000001
 40
0.0
 40
0.0
 40
0.0
 40
0.0
 40
0.266484399
 40
0.5243674196
 40
0.7698850276
 40
1.0
 40
1.0
 40
1.0
 40
1.0
 10
25.108151809
 20
51.8512818245
 30
0.0
 10
25.0236225354
 20
51.9713021376
 30
0.0
 10
24.8464187545
 20
52.2000514364
 30
0.0
 10
24.5551494574
 20
52.5092789679
 30
0.0
 10
24.2483663828
 20
52.7734259606
 30
0.0
 10
24.0305078391
 20
52.9204911369
 30
0.0
 10
23.9207259866
 20
52.9838722851
 30
0.0
  0
SPLINE
  5
35E
100
AcDbEntity
  8
0
100
AcDbSpline
 62
7
  6
BYLAYER
 70
0
 71
3
 72
11
 73
7
 74
0
 42
0.0000001
 43
0.0000001
 44
0.0000000001
 40
0.0
 40
0.0
 40
0.0
 40
0.0
 40
0.200035402
 40
0.4565736369
 40
0.7359215102
 40
1.0
 40
1.0
 40
1.0
 40
1.0
 10
24.7588289315
 20
51.6578787974
 30
0.0
 10
24.7818863532
 20
51.6711913866
 30
0.0
 10
24.8347699289
 20
51.7011325615
 30
0.0
 10
24.9203317593
 20
51.748814407
 30
0.0
 10
25.0136313047
 20
51.8001195601
 30
0.0
 10
25.0771971471
 20
51.8346312791
 30
0.0
 10
25.108151809
 20
51.8512818245
 30
0.0
  0
LINE
  5
35F
100
AcDbEntity
  8
0
100
AcDbLine
 62
7
  6
BYLAYER
 10
25.108151809
 20
51.8512818245
 11
25.5114142419
 21
52.0681955735
  0
LINE
  5
360
100
AcDbEntity
  8
0
100
AcDbLine
 62
7
  6
BYLAYER
 10
25.9376019378
 20
51.3300209284
 11
25.5481171991
 21
51.0892436455
  0
SPLINE
  5
361
100
AcDbEntity
  8
0
100
AcDbSpline
 62
7
  6
BYLAYER
 70
0
 71
3
 72
18
 73
14
 74
0
 42
0.0000001
 43
0.0000001
 44
0.0000000001
 40
0.0
 40
0.0
 40
0.0
 40
0.0
 40
0.2269621152
 40
0.427032797
 40
0.598784706
 40
0.7408655221
 40
0.8524576274
 40
0.8966432236
 40
0.9329980091
 40
0.9614615129
 40
0.9820061275
 40
0.994696456
 40
1.0
 40
1.0
 40
1.0
 40
1.0
 10
22.6953376354
 20
49.4338668359
 30
0.0
 10
22.6916181022
 20
49.431719301
 30
0.0
 10
22.6846131606
 20
49.4276899883
 30
0.0
 10
22.6747668672
 20
49.4220823129
 30
0.0
 10
22.6662892428
 20
49.4173164085
 30
0.0
 10
22.6592414519
 20
49.4134271313
 30
0.0
 10
22.6542733266
 20
49.4107591101
 30
0.0
 10
22.6510456515
 20
49.4090928356
 30
0.0
 10
22.6491918451
 20
49.408170882
 30
0.0
 10
22.6477474165
 20
49.4074921834
 30
0.0
 10
22.6466314646
 20
49.4070162715
 30
0.0
 10
22.6460158948
 20
49.4068158204
 30
0.0
 10
22.6455857249
 20
49.4067238856
 30
0.0
 10
22.6455270319
 20
49.4068052973
 30
0.0
  0
SPLINE
  5
362
100
AcDbEntity
  8
0
100
AcDbSpline
 62
7
  6
BYLAYER
 70
0
 71
3
 72
11
 73
7
 74
0
 42
0.0000001
 43
0.0000001
 44
0.0000000001
 40
0.0
 40
0.0
 40
0.0
 40
0.0
 40
0.2640879629
 40
0.5434327433
 40
0.7999655683
 40
1.0
 40
1.0
 40
1.0
 40
1.0
 10
25.5481171991
 20
51.0892436455
 30
0.0
 10
25.5182189387
 20
51.0707608307
 30
0.0
 10
25.4565472767
 20
51.0329665985
 30
0.0
 10
25.36546611
 20
50.9778188654
 30
0.0
 10
25.2813931153
 20
50.927560832
 30
0.0
 10
25.2290227621
 20
50.8967324501
 30
0.0
 10
25.2059654519
 20
50.8834199253
 30
0.0
  0
SPLINE
  5
363
100
AcDbEntity
  8
0
100
AcDbSpline
 62
7
  6
BYLAYER
 70
0
 71
3
 72
27
 73
23
 74
0
 42
0.0000001
 43
0.0000001
 44
0.0000000001
 40
0.0
 40
0.0
 40
0.0
 40
0.0
 40
0.0674649784
 40
0.1302007419
 40
0.1883426632
 40
0.2424804782
 40
0.2683769787
 40
0.2936850904
 40
0.3185927212
 40
0.3433050049
 40
0.3680342559
 40
0.3929929164
 40
0.4183828494
 40
0.4443898425
 40
0.4988155004
 40
0.557313378
 40
0.6204166577
 40
0.6882649317
 40
0.760677783
 40
0.8372147618
 40
0.9172384097
 40
1.0
 40
1.0
 40
1.0
 40
1.0
 10
23.7270832835
 20
48.4636909613
 30
0.0
 10
23.80358035
 20
48.4195263584
 30
0.0
 10
23.9560892849
 20
48.3422851635
 30
0.0
 10
24.1894365686
 20
48.2601274585
 30
0.0
 10
24.4155617412
 20
48.2173837619
 30
0.0
 10
24.5976810396
 20
48.2156032745
 30
0.0
 10
24.7343895626
 20
48.2354875079
 30
0.0
 10
24.8311209462
 20
48.2602629945
 30
0.0
 10
24.9230617566
 20
48.295068526
 30
0.0
 10
25.009796938
 20
48.3397243387
 30
0.0
 10
25.0909195201
 20
48.3940332245
 30
0.0
 10
25.1660374332
 20
48.4577518872
 30
0.0
 10
25.2348420649
 20
48.5305530251
 30
0.0
 10
25.3189717456
 20
48.6409173362
 30
0.0
 10
25.406565618
 20
48.8017014757
 30
0.0
 10
25.4801742811
 20
49.0211140439
 30
0.0
 10
25.523246277
 20
49.266204799
 30
0.0
 10
25.5352911033
 20
49.5328274632
 30
0.0
 10
25.516263636
 20
49.8165633913
 30
0.0
 10
25.4665512943
 20
50.1126574078
 30
0.0
 10
25.3870298371
 20
50.4161252228
 30
0.0
 10
25.3159286834
 20
50.6173381567
 30
0.0
 10
25.2758807722
 20
50.7180242203
 30
0.0
  0
SPLINE
  5
364
100
AcDbEntity
  8
0
100
AcDbSpline
 62
7
  6
BYLAYER
 70
0
 71
3
 72
11
 73
7
 74
0
 42
0.0000001
 43
0.0000001
 44
0.0000000001
 40
0.0
 40
0.0
 40
0.0
 40
0.0
 40
0.266402162
 40
0.5240762057
 40
0.769543547
 40
1.0
 40
1.0
 40
1.0
 40
1.0
 10
22.6953376354
 20
49.4338668359
 30
0.0
 10
22.7695252778
 20
49.3312713225
 30
0.0
 10
22.9244890019
 20
49.1357643
 30
0.0
 10
23.1779134421
 20
48.8712866653
 30
0.0
 10
23.4438975761
 20
48.6449302523
 30
0.0
 10
23.6322313523
 20
48.5184525104
 30
0.0
 10
23.7270832835
 20
48.4636909613
 30
0.0
  0
SPLINE
  5
365
100
AcDbEntity
  8
0
100
AcDbSpline
 62
7
  6
BYLAYER
 70
0
 71
3
 72
18
 73
14
 74
0
 42
0.0000001
 43
0.0000001
 44
0.0000000001
 40
0.0
 40
0.0
 40
0.0
 40
0.0
 40
0.0053076201
 40
0.0180009278
 40
0.0385472668
 40
0.0670112999
 40
0.1033661367
 40
0.1475514415
 40
0.2591423241
 40
0.4012216705
 40
0.572972001
 40
0.7730406532
 40
1.0
 40
1.0
 40
1.0
 40
1.0
 10
22.1998611494
 20
50.1787168507
 30
0.0
 10
22.1998200436
 20
50.1788084947
 30
0.0
 10
22.2001146398
 20
50.1791351372
 30
0.0
 10
22.2005961993
 20
50.1795683098
 30
0.0
 10
22.2015662422
 20
50.1802969215
 30
0.0
 10
22.2028762116
 20
50.1812086708
 30
0.0
 10
22.2046014565
 20
50.1823532723
 30
0.0
 10
22.2076581938
 20
50.1843155865
 30
0.0
 10
22.2124526418
 20
50.1872843294
 30
0.0
 10
22.219344534
 20
50.191443524
 30
0.0
 10
22.2277105151
 20
50.1964026753
 30
0.0
 10
22.2374898123
 20
50.2021262356
 30
0.0
 10
22.2444816125
 20
50.2061781909
 30
0.0
 10
22.248201115
 20
50.208325708
 30
0.0
  0
SPLINE
  5
366
100
AcDbEntity
  8
0
100
AcDbSpline
 62
7
  6
BYLAYER
 70
0
 71
3
 72
9
 73
5
 74
0
 42
0.0000001
 43
0.0000001
 44
0.0000000001
 40
0.0
 40
0.0
 40
0.0
 40
0.0
 40
0.4936126244
 40
1.0
 40
1.0
 40
1.0
 40
1.0
 10
24.7285813475
 20
50.8442400546
 30
0.0
 10
24.7009534081
 20
50.8734467898
 30
0.0
 10
24.6487010516
 20
50.9362124063
 30
0.0
 10
24.6039964984
 20
51.0045249545
 30
0.0
 10
24.5833743313
 20
51.0402433975
 30
0.0
  0
SPLINE
  5
367
100
AcDbEntity
  8
0
100
AcDbSpline
 62
7
  6
BYLAYER
 70
0
 71
3
 72
9
 73
5
 74
0
 42
0.0000001
 43
0.0000001
 44
0.0000000001
 40
0.0
 40
0.0
 40
0.0
 40
0.0
 40
0.5063868124
 40
1.0
 40
1.0
 40
1.0
 40
1.0
 10
24.5833743313
 20
51.0402433975
 30
0.0
 10
24.5627521409
 20
51.0759618808
 30
0.0
 10
24.5259435876
 20
51.1488334217
 30
0.0
 10
24.4977126832
 20
51.2254681183
 30
0.0
 10
24.4862326128
 20
51.263998046
 30
0.0
  0
SPLINE
  5
368
100
AcDbEntity
  8
0
100
AcDbSpline
 62
7
  6
BYLAYER
 70
0
 71
3
 72
9
 73
5
 74
0
 42
0.0000001
 43
0.0000001
 44
0.0000000001
 40
0.0
 40
0.0
 40
0.0
 40
0.0
 40
0.5122662822
 40
1.0
 40
1.0
 40
1.0
 40
1.0
 10
24.4862326128
 20
51.263998046
 30
0.0
 10
24.5085915876
 20
51.2958201905
 30
0.0
 10
24.5515467117
 20
51.358428356
 30
0.0
 10
24.5920069891
 20
51.4227283252
 30
0.0
 10
24.6105479808
 20
51.4547813801
 30
0.0
  0
SPLINE
  5
369
100
AcDbEntity
  8
0
100
AcDbSpline
 62
7
  6
BYLAYER
 70
0
 71
3
 72
9
 73
5
 74
0
 42
0.0000001
 43
0.0000001
 44
0.0000000001
 40
0.0
 40
0.0
 40
0.0
 40
0.0
 40
0.251467096
 40
1.0
 40
1.0
 40
1.0
 40
1.0
 10
24.6105479808
 20
51.4547813801
 30
0.0
 10
24.6080432303
 20
51.4599957298
 30
0.0
 10
24.5979098689
 20
51.48064825
 30
0.0
 10
24.5871203278
 20
51.5009767216
 30
0.0
 10
24.5787378589
 20
51.5160178618
 30
0.0
  0
SPLINE
  5
36A
100
AcDbEntity
  8
0
100
AcDbSpline
 62
7
  6
BYLAYER
 70
0
 71
3
 72
9
 73
5
 74
0
 42
0.0000001
 43
0.0000001
 44
0.0000000001
 40
0.0
 40
0.0
 40
0.0
 40
0.0
 40
0.4877344174
 40
1.0
 40
1.0
 40
1.0
 40
1.0
 10
24.9559611125
 20
50.8565116074
 30
0.0
 10
24.9189319635
 20
50.8564806252
 30
0.0
 10
24.8430167963
 20
50.8535897265
 30
0.0
 10
24.7673193586
 20
50.8476928772
 30
0.0
 10
24.7285813475
 20
50.8442400546
 30
0.0
  0
SPLINE
  5
36B
100
AcDbEntity
  8
0
100
AcDbSpline
 62
7
  6
BYLAYER
 70
0
 71
3
 72
15
 73
11
 74
0
 42
0.0000001
 43
0.0000001
 44
0.0000000001
 40
0.0
 40
0.0
 40
0.0
 40
0.0
 40
0.1021664204
 40
0.2115812216
 40
0.3282981563
 40
0.4519824316
 40
0.5819853842
 40
0.7173933518
 40
0.8571645286
 40
1.0
 40
1.0
 40
1.0
 40
1.0
 10
25.8273821355
 20
48.8058486608
 30
0.0
 10
25.8542715895
 20
48.8813364988
 30
0.0
 10
25.8979218862
 20
49.0421168569
 30
0.0
 10
25.932764286
 20
49.2978316897
 30
0.0
 10
25.9388813762
 20
49.5726699346
 30
0.0
 10
25.9162434577
 20
49.8627433306
 30
0.0
 10
25.8652126812
 20
50.1640113256
 30
0.0
 10
25.7865452091
 20
50.4722692335
 30
0.0
 10
25.6813409437
 20
50.7831054645
 30
0.0
 10
25.5951868708
 20
50.9875786865
 30
0.0
 10
25.5481171991
 20
51.0892436455
 30
0.0
  0
SPLINE
  5
36C
100
AcDbEntity
  8
0
100
AcDbSpline
 62
7
  6
BYLAYER
 70
0
 71
3
 72
9
 73
5
 74
0
 42
0.0000001
 43
0.0000001
 44
0.0000000001
 40
0.0
 40
0.0
 40
0.0
 40
0.0
 40
0.2486057772
 40
1.0
 40
1.0
 40
1.0
 40
1.0
 10
24.9930820546
 20
50.7983567894
 30
0.0
 10
24.9901483066
 20
50.8032645467
 30
0.0
 10
24.9782137561
 20
50.8229251478
 30
0.0
 10
24.9657103684
 20
50.8422425697
 30
0.0
 10
24.9559611125
 20
50.8565116074
 30
0.0
  0
SPLINE
  5
36D
100
AcDbEntity
  8
0
100
AcDbSpline
 62
7
  6
BYLAYER
 70
0
 71
3
 72
9
 73
5
 74
0
 42
0.0000001
 43
0.0000001
 44
0.0000000001
 40
0.0
 40
0.0
 40
0.0
 40
0.0
 40
0.2444947162
 40
1.0
 40
1.0
 40
1.0
 40
1.0
 10
34.8993239114
 20
58.2208840735
 30
0.0
 10
34.9100570198
 20
58.2146874507
 30
0.0
 10
34.9536196574
 20
58.1887624662
 30
0.0
 10
34.9958432379
 20
58.1606031222
 30
0.0
 10
35.0269627809
 20
58.1382826115
 30
0.0
  0
SPLINE
  5
36E
100
AcDbEntity
  8
0
100
AcDbSpline
 62
7
  6
BYLAYER
 70
0
 71
3
 72
15
 73
11
 74
0
 42
0.0000001
 43
0.0000001
 44
0.0000000001
 40
0.0
 40
0.0
 40
0.0
 40
0.0
 40
0.1171646068
 40
0.2408880771
 40
0.369259863
 40
0.5000140568
 40
0.6307684757
 40
0.759137295
 40
0.8828710072
 40
1.0
 40
1.0
 40
1.0
 40
1.0
 10
35.0269627809
 20
58.1382826115
 30
0.0
 10
35.0872572312
 20
58.0950363813
 30
0.0
 10
35.2054389399
 20
57.9978760584
 30
0.0
 10
35.3685936746
 20
57.8297723166
 30
0.0
 10
35.5190669144
 20
57.6391389724
 30
0.0
 10
35.6527580344
 20
57.4311072352
 30
0.0
 10
35.7660669582
 20
57.2113108857
 30
0.0
 10
35.8559288507
 20
56.9856769202
 30
0.0
 10
35.91991014
 20
56.7603412302
 30
0.0
 10
35.944971315
 20
56.6094310949
 30
0.0
 10
35.9522760737
 20
56.5356140839
 30
0.0
  0
SPLINE
  5
36F
100
AcDbEntity
  8
0
100
AcDbSpline
 62
7
  6
BYLAYER
 70
0
 71
3
 72
9
 73
5
 74
0
 42
0.0000001
 43
0.0000001
 44
0.0000000001
 40
0.0
 40
0.0
 40
0.0
 40
0.0
 40
0.2552882458
 40
1.0
 40
1.0
 40
1.0
 40
1.0
 10
35.9522760737
 20
56.5356140839
 30
0.0
 10
35.95355037
 20
56.5227368968
 30
0.0
 10
35.9579577755
 20
56.472240096
 30
0.0
 10
35.959988226
 20
56.4215275618
 30
0.0
 10
35.9599884991
 20
56.3837795146
 30
0.0
  0
LINE
  5
370
100
AcDbEntity
  8
0
100
AcDbLine
 62
7
  6
BYLAYER
 10
36.7901252716
 20
25.9200519181
 11
36.435529277
 21
25.7312365537
  0
LINE
  5
371
100
AcDbEntity
  8
0
100
AcDbLine
 62
7
  6
BYLAYER
 10
36.8754946671
 20
24.9691983747
 11
37.2163129675
 21
25.181877273
  0
SPLINE
  5
372
100
AcDbEntity
  8
0
100
AcDbSpline
 62
7
  6
BYLAYER
 70
0
 71
3
 72
20
 73
16
 74
0
 42
0.0000001
 43
0.0000001
 44
0.0000000001
 40
0.0
 40
0.0
 40
0.0
 40
0.0
 40
0.2236473966
 40
0.4231256012
 40
0.5955855492
 40
0.7390767461
 40
0.7995047386
 40
0.8521552992
 40
0.8969119242
 40
0.9336819433
 40
0.962376335
 40
0.9829158418
 40
0.9952943136
 40
0.998503461
 40
1.0
 40
1.0
 40
1.0
 40
1.0
 10
36.435529277
 20
25.7312365537
 30
0.0
 10
36.4286261099
 20
25.7275607877
 30
0.0
 10
36.4155563386
 20
25.7206242042
 30
0.0
 10
36.3971262551
 20
25.7109232968
 30
0.0
 10
36.3811392856
 20
25.7025990325
 30
0.0
 10
36.3694292233
 20
25.6965901473
 30
0.0
 10
36.3614172522
 20
25.6925515301
 30
0.0
 10
36.356474232
 20
25.6900967326
 30
0.0
 10
36.3522538097
 20
25.6880434022
 30
0.0
 10
36.3487733948
 20
25.6863952101
 30
0.0
 10
36.3460230467
 20
25.6851554398
 30
0.0
 10
36.3440585286
 20
25.6843219674
 30
0.0
 10
36.3428269584
 20
25.6839007554
 30
0.0
 10
36.3422793056
 20
25.6837751998
 30
0.0
 10
36.3420770699
 20
25.6838056681
 30
0.0
 10
36.3420556524
 20
25.6838534177
 30
0.0
  0
SPLINE
  5
373
100
AcDbEntity
  8
0
100
AcDbSpline
 62
7
  6
BYLAYER
 70
0
 71
3
 72
15
 73
11
 74
0
 42
0.0000001
 43
0.0000001
 44
0.0000000001
 40
0.0
 40
0.0
 40
0.0
 40
0.0
 40
0.1486025686
 40
0.2895002298
 40
0.4227203136
 40
0.5486432717
 40
0.6679991312
 40
0.7819389813
 40
0.8919869929
 40
1.0
 40
1.0
 40
1.0
 40
1.0
 10
50.1021830021
 20
31.8889160816
 30
0.0
 10
50.1021832847
 20
31.8498461479
 30
0.0
 10
50.0990287318
 20
31.7736800144
 30
0.0
 10
50.0840447841
 20
31.6633779947
 30
0.0
 10
50.0589875731
 20
31.5610067896
 30
0.0
 10
50.0241005894
 20
31.4675356996
 30
0.0
 10
49.9795961569
 20
31.3838940553
 30
0.0
 10
49.9258759477
 20
31.3109063526
 30
0.0
 10
49.8633859758
 20
31.2494300195
 30
0.0
 10
49.8161086042
 20
31.2164263062
 30
0.0
 10
49.7915150568
 20
31.2022269705
 30
0.0
  0
SPLINE
  5
374
100
AcDbEntity
  8
0
100
AcDbSpline
 62
7
  6
BYLAYER
 70
0
 71
3
 72
14
 73
10
 74
0
 42
0.0000001
 43
0.0000001
 44
0.0000000001
 40
0.0
 40
0.0
 40
0.0
 40
0.0
 40
0.1080615955
 40
0.2181606062
 40
0.3321565038
 40
0.4515612425
 40
0.7103718436
 40
0.8514086464
 40
1.0
 40
1.0
 40
1.0
 40
1.0
 10
48.291521772
 20
33.8003070591
 30
0.0
 10
48.3161143597
 20
33.8145058406
 30
0.0
 10
48.368333404
 20
33.8389475873
 30
0.0
 10
48.4528154385
 20
33.8623257694
 30
0.0
 10
48.5428888169
 20
33.8723518361
 30
0.0
 10
48.6725313389
 20
33.8678619937
 30
0.0
 10
48.8066840801
 20
33.8355523368
 30
0.0
 10
48.9401385404
 20
33.7808938299
 30
0.0
 10
49.0077017539
 20
33.7455442569
 30
0.0
 10
49.0415184144
 20
33.7260206405
 30
0.0
  0
SPLINE
  5
375
100
AcDbEntity
  8
0
100
AcDbSpline
 62
7
  6
BYLAYER
 70
0
 71
3
 72
15
 73
11
 74
0
 42
0.0000001
 43
0.0000001
 44
0.0000000001
 40
0.0
 40
0.0
 40
0.0
 40
0.0
 40
0.1073220804
 40
0.219530395
 40
0.3371830235
 40
0.4604287591
 40
0.5890379174
 40
0.7224212951
 40
0.8597865606
 40
1.0
 40
1.0
 40
1.0
 40
1.0
 10
36.1213951734
 20
28.0078716043
 30
0.0
 10
36.0886770403
 20
27.9286742231
 30
0.0
 10
36.0347184557
 20
27.7611024317
 30
0.0
 10
35.9880698446
 20
27.4952594718
 30
0.0
 10
35.9730617434
 20
27.2131110613
 30
0.0
 10
35.9888249513
 20
26.9180128632
 30
0.0
 10
36.034436172
 20
26.613400675
 30
0.0
 10
36.1088640004
 20
26.3029653486
 30
0.0
 10
36.2108657163
 20
25.9907613834
 30
0.0
 10
36.2955720927
 20
25.7856978143
 30
0.0
 10
36.3420533251
 20
25.6838520913
 30
0.0
  0
SPLINE
  5
376
100
AcDbEntity
  8
0
100
AcDbSpline
 62
7
  6
BYLAYER
 70
0
 71
3
 72
20
 73
16
 74
0
 42
0.0000001
 43
0.0000001
 44
0.0000000001
 40
0.0
 40
0.0
 40
0.0
 40
0.0
 40
0.0014964202
 40
0.00470617
 40
0.0170857863
 40
0.0376263814
 40
0.0663235513
 40
0.1030971474
 40
0.1478571194
 40
0.200509813
 40
0.2609399708
 40
0.4044340018
 40
0.5768858388
 40
0.7763556334
 40
1.0
 40
1.0
 40
1.0
 40
1.0
 10
36.7877215348
 20
24.9119418643
 30
0.0
 10
36.7876909327
 20
24.9119843118
 30
0.0
 10
36.7877659034
 20
24.9121746176
 30
0.0
 10
36.7881485059
 20
24.9125860417
 30
0.0
 10
36.7891293916
 20
24.9134419065
 30
0.0
 10
36.7908336435
 20
24.9147264342
 30
0.0
 10
36.7932828557
 20
24.9164883751
 30
0.0
 10
36.7964508154
 20
24.9186784116
 30
0.0
 10
36.8003396294
 20
24.9213067306
 30
0.0
 10
36.8049373626
 20
24.9243600877
 30
0.0
 10
36.8124412145
 20
24.9292792414
 30
0.0
 10
36.8235001145
 20
24.9364156651
 30
0.0
 10
36.8387022987
 20
24.9460981219
 30
0.0
 10
36.8563180497
 20
24.9572079595
 30
0.0
 10
36.8688598667
 20
24.9650580626
 30
0.0
 10
36.8754946671
 20
24.9691983747
 30
0.0
  0
SPLINE
  5
377
100
AcDbEntity
  8
0
100
AcDbSpline
 62
7
  6
BYLAYER
 70
0
 71
3
 72
11
 73
7
 74
0
 42
0.0000001
 43
0.0000001
 44
0.0000000001
 40
0.0
 40
0.0
 40
0.0
 40
0.0
 40
0.263813573
 40
0.5201794326
 40
0.766247277
 40
1.0
 40
1.0
 40
1.0
 40
1.0
 10
36.787719113
 20
24.911940436
 30
0.0
 10
36.8685610946
 20
24.7984724573
 30
0.0
 10
37.038200334
 20
24.5818071362
 30
0.0
 10
37.31744272
 20
24.2880367652
 30
0.0
 10
37.6135324821
 20
24.0349734513
 30
0.0
 10
37.8245035418
 20
23.893213616
 30
0.0
 10
37.9314114826
 20
23.8314916839
 30
0.0
  0
SPLINE
  5
378
100
AcDbEntity
  8
0
100
AcDbSpline
 62
7
  6
BYLAYER
 70
0
 71
3
 72
25
 73
21
 74
0
 42
0.0000001
 43
0.0000001
 44
0.0000000001
 40
0.0
 40
0.0
 40
0.0
 40
0.0
 40
0.0755446288
 40
0.1517623394
 40
0.2279648452
 40
0.3034664168
 40
0.3776011321
 40
0.4497407468
 40
0.5193177071
 40
0.5858455696
 40
0.6489438451
 40
0.7083703198
 40
0.7640526773
 40
0.8161251816
 40
0.8649689336
 40
0.9112360807
 40
0.9337061832
 40
0.9558936485
 40
0.9779420326
 40
1.0
 40
1.0
 40
1.0
 40
1.0
 10
40.401439821
 20
28.3037978701
 30
0.0
 10
40.4719199537
 20
28.2126376112
 30
0.0
 10
40.6071468866
 20
28.0244941105
 30
0.0
 10
40.7906814118
 20
27.7288697298
 30
0.0
 10
40.9540006459
 20
27.4216695391
 30
0.0
 10
41.0949009227
 20
27.1070373831
 30
0.0
 10
41.2114884232
 20
26.7891847623
 30
0.0
 10
41.3021966646
 20
26.4723677833
 30
0.0
 10
41.3658201959
 20
26.1608194134
 30
0.0
 10
41.4014952529
 20
25.8586813339
 30
0.0
 10
41.4087074989
 20
25.5699502605
 30
0.0
 10
41.3873149736
 20
25.298422519
 30
0.0
 10
41.3374963585
 20
25.047654548
 30
0.0
 10
41.2596834093
 20
24.8209439086
 30
0.0
 10
41.1546726762
 20
24.6214197458
 30
0.0
 10
41.0441782639
 20
24.4787395265
 30
0.0
 10
40.9441577631
 20
24.3823896844
 30
0.0
 10
40.8641686738
 20
24.3192236949
 30
0.0
 10
40.7787740261
 20
24.2647655193
 30
0.0
 10
40.7185698795
 20
24.2344410214
 30
0.0
 10
40.6878036199
 20
24.2208236463
 30
0.0
  0
SPLINE
  5
379
100
AcDbEntity
  8
0
100
AcDbSpline
 62
7
  6
BYLAYER
 70
0
 71
3
 72
15
 73
11
 74
0
 42
0.0000001
 43
0.0000001
 44
0.0000000001
 40
0.0
 40
0.0
 40
0.0
 40
0.0
 40
0.1386299036
 40
0.2725248589
 40
0.401767773
 40
0.526883361
 40
0.648519509
 40
0.7674228777
 40
0.8842462244
 40
1.0
 40
1.0
 40
1.0
 40
1.0
 10
37.9314114826
 20
23.8314916839
 30
0.0
 10
37.9927112679
 20
23.7961010371
 30
0.0
 10
38.1160215594
 20
23.731223972
 30
0.0
 10
38.3054563783
 20
23.651792904
 30
0.0
 10
38.49513839
 20
23.593019963
 30
0.0
 10
38.6839103733
 20
23.5559499125
 30
0.0
 10
38.8705353324
 20
23.5416770476
 30
0.0
 10
39.0533013008
 20
23.551332676
 30
0.0
 10
39.2300477118
 20
23.5856542259
 30
0.0
 10
39.342503251
 20
23.6254417235
 30
0.0
 10
39.3965493454
 20
23.6493602763
 30
0.0
  0
SPLINE
  5
37A
100
AcDbEntity
  8
0
100
AcDbSpline
 62
7
  6
BYLAYER
 70
0
 71
3
 72
16
 73
12
 74
0
 42
0.0000001
 43
0.0000001
 44
0.0000000001
 40
0.0
 40
0.0
 40
0.0
 40
0.0
 40
0.0558365412
 40
0.1142297772
 40
0.237390973
 40
0.3670297887
 40
0.5000402866
 40
0.6330538215
 40
0.7626938317
 40
0.885855409
 40
1.0
 40
1.0
 40
1.0
 40
1.0
 10
49.1829391818
 20
33.6443689879
 30
0.0
 10
49.2137224032
 20
33.6265966888
 30
0.0
 10
49.275138262
 20
33.5874799762
 30
0.0
 10
49.3960791436
 20
33.4966737911
 30
0.0
 10
49.5412157989
 20
33.3608757277
 30
0.0
 10
49.6987922366
 20
33.1717724947
 30
0.0
 10
49.8370581646
 20
32.9605859353
 30
0.0
 10
49.9508140365
 20
32.7352665564
 30
0.0
 10
50.0358114717
 20
32.504201125
 30
0.0
 10
50.0888696354
 20
32.2760851827
 30
0.0
 10
50.1021796031
 20
32.1248764739
 30
0.0
 10
50.1021800562
 20
32.0522127241
 30
0.0
  0
SPLINE
  5
37B
100
AcDbEntity
  8
0
100
AcDbSpline
 62
7
  6
BYLAYER
 70
0
 71
3
 72
27
 73
23
 74
0
 42
0.0000001
 43
0.0000001
 44
0.0000000001
 40
0.0
 40
0.0
 40
0.0
 40
0.0
 40
0.0666260611
 40
0.1284149881
 40
0.1855374834
 40
0.238651189
 40
0.2640708739
 40
0.2889455434
 40
0.3134805221
 40
0.3378963402
 40
0.3624184509
 40
0.3872678879
 40
0.4126507065
 40
0.4387520748
 40
0.4936455513
 40
0.5529128834
 40
0.6169774723
 40
0.6858578234
 40
0.7592501363
 40
0.8365871038
 40
0.9171446132
 40
1.0
 40
1.0
 40
1.0
 40
1.0
 10
37.8692777864
 20
28.133191239
 30
0.0
 10
37.7902819058
 20
28.1787985002
 30
0.0
 10
37.6328238447
 20
28.2582008271
 30
0.0
 10
37.3918181393
 20
28.3412146709
 30
0.0
 10
37.1587362314
 20
28.3820172391
 30
0.0
 10
36.9716510045
 20
28.3796582493
 30
0.0
 10
36.8319790023
 20
28.3550290619
 30
0.0
 10
36.7334761054
 20
28.3260608268
 30
0.0
 10
36.6402553976
 20
28.2864096259
 30
0.0
 10
36.5527599912
 20
28.2363071575
 30
0.0
 10
36.4714503516
 20
28.1759666205
 30
0.0
 10
36.3967160011
 20
28.1057210315
 30
0.0
 10
36.3289037071
 20
28.0259233582
 30
0.0
 10
36.2468032579
 20
27.9053455326
 30
0.0
 10
36.1635633191
 20
27.7309103513
 30
0.0
 10
36.0976434293
 20
27.494961677
 30
0.0
 10
36.0645804083
 20
27.2330676665
 30
0.0
 10
36.0647541733
 20
26.9499309954
 30
0.0
 10
36.0980200835
 20
26.6505755039
 30
0.0
 10
36.1637045627
 20
26.340340416
 30
0.0
 10
36.2606196704
 20
26.0248976402
 30
0.0
 10
36.3440236243
 20
25.8169861383
 30
0.0
 10
36.3903956179
 20
25.713462275
 30
0.0
  0
SPLINE
  5
37C
100
AcDbEntity
  8
0
100
AcDbSpline
 62
7
  6
BYLAYER
 70
0
 71
3
 72
11
 73
7
 74
0
 42
0.0000001
 43
0.0000001
 44
0.0000000001
 40
0.0
 40
0.0
 40
0.0
 40
0.0
 40
0.266402162
 40
0.5240762057
 40
0.769543547
 40
1.0
 40
1.0
 40
1.0
 40
1.0
 10
38.9010234345
 20
27.1630153644
 30
0.0
 10
38.8268357921
 20
27.2656108778
 30
0.0
 10
38.671872068
 20
27.4611179004
 30
0.0
 10
38.4184476278
 20
27.725595535
 30
0.0
 10
38.1524634937
 20
27.951951948
 30
0.0
 10
37.9641297175
 20
28.0784296899
 30
0.0
 10
37.8692777864
 20
28.133191239
 30
0.0
  0
SPLINE
  5
37D
100
AcDbEntity
  8
0
100
AcDbSpline
 62
7
  6
BYLAYER
 70
0
 71
3
 72
10
 73
6
 74
0
 42
0.0000001
 43
0.0000001
 44
0.0000000001
 40
0.0
 40
0.0
 40
0.0
 40
0.0
 40
0.2672848096
 40
0.5232267607
 40
1.0
 40
1.0
 40
1.0
 40
1.0
 10
38.0629204895
 20
28.4890088521
 30
0.0
 10
38.0089974476
 20
28.5201406306
 30
0.0
 10
37.9012434537
 20
28.5774440072
 30
0.0
 10
37.6876884576
 20
28.670737179
 30
0.0
 10
37.5228037251
 20
28.7196347337
 30
0.0
 10
37.4135740515
 20
28.7397446169
 30
0.0
  0
SPLINE
  5
37E
100
AcDbEntity
  8
0
100
AcDbSpline
 62
7
  6
BYLAYER
 70
0
 71
3
 72
11
 73
7
 74
0
 42
0.0000001
 43
0.0000001
 44
0.0000000001
 40
0.0
 40
0.0
 40
0.0
 40
0.0
 40
0.266484399
 40
0.5243674196
 40
0.7698850276
 40
1.0
 40
1.0
 40
1.0
 40
1.0
 10
39.2503463119
 20
27.3564183915
 30
0.0
 10
39.1658170383
 20
27.4764387046
 30
0.0
 10
38.9886132574
 20
27.7051880034
 30
0.0
 10
38.6973439604
 20
28.0144155349
 30
0.0
 10
38.3905608857
 20
28.2785625276
 30
0.0
 10
38.1727023421
 20
28.4256277039
 30
0.0
 10
38.0629204895
 20
28.4890088521
 30
0.0
  0
SPLINE
  5
37F
100
AcDbEntity
  8
0
100
AcDbSpline
 62
7
  6
BYLAYER
 70
0
 71
3
 72
11
 73
7
 74
0
 42
0.0000001
 43
0.0000001
 44
0.0000000001
 40
0.0
 40
0.0
 40
0.0
 40
0.0
 40
0.200035402
 40
0.4565736369
 40
0.7359215102
 40
1.0
 40
1.0
 40
1.0
 40
1.0
 10
38.9010234345
 20
27.1630153644
 30
0.0
 10
38.9240808562
 20
27.1763279536
 30
0.0
 10
38.9769644318
 20
27.2062691285
 30
0.0
 10
39.0625262623
 20
27.253950974
 30
0.0
 10
39.1558258077
 20
27.3052561271
 30
0.0
 10
39.2193916501
 20
27.3397678461
 30
0.0
 10
39.2503463119
 20
27.3564183915
 30
0.0
  0
LINE
  5
380
100
AcDbEntity
  8
0
100
AcDbLine
 62
7
  6
BYLAYER
 10
39.2503463119
 20
27.3564183915
 11
39.6536087448
 21
27.5733321405
  0
LINE
  5
381
100
AcDbEntity
  8
0
100
AcDbLine
 62
7
  6
BYLAYER
 10
40.0797964408
 20
26.8351574954
 11
39.6903117021
 21
26.5943802125
  0
SPLINE
  5
382
100
AcDbEntity
  8
0
100
AcDbSpline
 62
7
  6
BYLAYER
 70
0
 71
3
 72
18
 73
14
 74
0
 42
0.0000001
 43
0.0000001
 44
0.0000000001
 40
0.0
 40
0.0
 40
0.0
 40
0.0
 40
0.2269621152
 40
0.427032797
 40
0.598784706
 40
0.7408655221
 40
0.8524576274
 40
0.8966432236
 40
0.9329980091
 40
0.9614615129
 40
0.9820061275
 40
0.994696456
 40
1.0
 40
1.0
 40
1.0
 40
1.0
 10
36.8375321383
 20
24.9390034029
 30
0.0
 10
36.8338126051
 20
24.9368558681
 30
0.0
 10
36.8268076635
 20
24.9328265553
 30
0.0
 10
36.8169613702
 20
24.9272188799
 30
0.0
 10
36.8084837457
 20
24.9224529755
 30
0.0
 10
36.8014359549
 20
24.9185636983
 30
0.0
 10
36.7964678296
 20
24.9158956771
 30
0.0
 10
36.7932401545
 20
24.9142294026
 30
0.0
 10
36.7913863481
 20
24.913307449
 30
0.0
 10
36.7899419195
 20
24.9126287504
 30
0.0
 10
36.7888259675
 20
24.9121528385
 30
0.0
 10
36.7882103977
 20
24.9119523874
 30
0.0
 10
36.7877802279
 20
24.9118604526
 30
0.0
 10
36.7877215348
 20
24.9119418643
 30
0.0
  0
SPLINE
  5
383
100
AcDbEntity
  8
0
100
AcDbSpline
 62
7
  6
BYLAYER
 70
0
 71
3
 72
11
 73
7
 74
0
 42
0.0000001
 43
0.0000001
 44
0.0000000001
 40
0.0
 40
0.0
 40
0.0
 40
0.0
 40
0.2640879629
 40
0.5434327433
 40
0.7999655683
 40
1.0
 40
1.0
 40
1.0
 40
1.0
 10
39.6903117021
 20
26.5943802125
 30
0.0
 10
39.6604134417
 20
26.5758973977
 30
0.0
 10
39.5987417797
 20
26.5381031655
 30
0.0
 10
39.5076606129
 20
26.4829554324
 30
0.0
 10
39.4235876183
 20
26.432697399
 30
0.0
 10
39.371217265
 20
26.4018690171
 30
0.0
 10
39.3481599549
 20
26.3885564923
 30
0.0
  0
SPLINE
  5
384
100
AcDbEntity
  8
0
100
AcDbSpline
 62
7
  6
BYLAYER
 70
0
 71
3
 72
27
 73
23
 74
0
 42
0.0000001
 43
0.0000001
 44
0.0000000001
 40
0.0
 40
0.0
 40
0.0
 40
0.0
 40
0.0674649784
 40
0.1302007419
 40
0.1883426632
 40
0.2424804782
 40
0.2683769787
 40
0.2936850904
 40
0.3185927212
 40
0.3433050049
 40
0.3680342559
 40
0.3929929164
 40
0.4183828494
 40
0.4443898425
 40
0.4988155004
 40
0.557313378
 40
0.6204166577
 40
0.6882649317
 40
0.760677783
 40
0.8372147618
 40
0.9172384097
 40
1.0
 40
1.0
 40
1.0
 40
1.0
 10
37.8692777864
 20
23.9688275283
 30
0.0
 10
37.945774853
 20
23.9246629254
 30
0.0
 10
38.0982837878
 20
23.8474217305
 30
0.0
 10
38.3316310715
 20
23.7652640255
 30
0.0
 10
38.5577562442
 20
23.7225203289
 30
0.0
 10
38.7398755426
 20
23.7207398415
 30
0.0
 10
38.8765840655
 20
23.7406240749
 30
0.0
 10
38.9733154491
 20
23.7653995615
 30
0.0
 10
39.0652562595
 20
23.800205093
 30
0.0
 10
39.1519914409
 20
23.8448609057
 30
0.0
 10
39.233114023
 20
23.8991697916
 30
0.0
 10
39.3082319362
 20
23.9628884542
 30
0.0
 10
39.3770365678
 20
24.0356895921
 30
0.0
 10
39.4611662486
 20
24.1460539032
 30
0.0
 10
39.548760121
 20
24.3068380427
 30
0.0
 10
39.622368784
 20
24.5262506109
 30
0.0
 10
39.6654407799
 20
24.771341366
 30
0.0
 10
39.6774856062
 20
25.0379640302
 30
0.0
 10
39.6584581389
 20
25.3216999583
 30
0.0
 10
39.6087457972
 20
25.6177939748
 30
0.0
 10
39.52922434
 20
25.9212617898
 30
0.0
 10
39.4581231863
 20
26.1224747237
 30
0.0
 10
39.4180752751
 20
26.2231607873
 30
0.0
  0
SPLINE
  5
385
100
AcDbEntity
  8
0
100
AcDbSpline
 62
7
  6
BYLAYER
 70
0
 71
3
 72
11
 73
7
 74
0
 42
0.0000001
 43
0.0000001
 44
0.0000000001
 40
0.0
 40
0.0
 40
0.0
 40
0.0
 40
0.266402162
 40
0.5240762057
 40
0.769543547
 40
1.0
 40
1.0
 40
1.0
 40
1.0
 10
36.8375321383
 20
24.9390034029
 30
0.0
 10
36.9117197807
 20
24.8364078895
 30
0.0
 10
37.0666835048
 20
24.640900867
 30
0.0
 10
37.320107945
 20
24.3764232323
 30
0.0
 10
37.5860920791
 20
24.1500668193
 30
0.0
 10
37.7744258553
 20
24.0235890774
 30
0.0
 10
37.8692777864
 20
23.9688275283
 30
0.0
  0
SPLINE
  5
386
100
AcDbEntity
  8
0
100
AcDbSpline
 62
7
  6
BYLAYER
 70
0
 71
3
 72
18
 73
14
 74
0
 42
0.0000001
 43
0.0000001
 44
0.0000000001
 40
0.0
 40
0.0
 40
0.0
 40
0.0
 40
0.0053076201
 40
0.0180009278
 40
0.0385472668
 40
0.0670112999
 40
0.1033661367
 40
0.1475514415
 40
0.2591423241
 40
0.4012216705
 40
0.572972001
 40
0.7730406532
 40
1.0
 40
1.0
 40
1.0
 40
1.0
 10
36.3420556524
 20
25.6838534177
 30
0.0
 10
36.3420145465
 20
25.6839450617
 30
0.0
 10
36.3423091427
 20
25.6842717042
 30
0.0
 10
36.3427907023
 20
25.6847048768
 30
0.0
 10
36.3437607451
 20
25.6854334885
 30
0.0
 10
36.3450707145
 20
25.6863452378
 30
0.0
 10
36.3467959595
 20
25.6874898393
 30
0.0
 10
36.3498526968
 20
25.6894521535
 30
0.0
 10
36.3546471447
 20
25.6924208964
 30
0.0
 10
36.361539037
 20
25.696580091
 30
0.0
 10
36.369905018
 20
25.7015392423
 30
0.0
 10
36.3796843153
 20
25.7072628026
 30
0.0
 10
36.3866761155
 20
25.7113147579
 30
0.0
 10
36.3903956179
 20
25.713462275
 30
0.0
  0
SPLINE
  5
387
100
AcDbEntity
  8
0
100
AcDbSpline
 62
7
  6
BYLAYER
 70
0
 71
3
 72
9
 73
5
 74
0
 42
0.0000001
 43
0.0000001
 44
0.0000000001
 40
0.0
 40
0.0
 40
0.0
 40
0.0
 40
0.4936126244
 40
1.0
 40
1.0
 40
1.0
 40
1.0
 10
38.8707758504
 20
26.3493766216
 30
0.0
 10
38.8431479111
 20
26.3785833568
 30
0.0
 10
38.7908955545
 20
26.4413489733
 30
0.0
 10
38.7461910014
 20
26.5096615215
 30
0.0
 10
38.7255688342
 20
26.5453799645
 30
0.0
  0
SPLINE
  5
388
100
AcDbEntity
  8
0
100
AcDbSpline
 62
7
  6
BYLAYER
 70
0
 71
3
 72
9
 73
5
 74
0
 42
0.0000001
 43
0.0000001
 44
0.0000000001
 40
0.0
 40
0.0
 40
0.0
 40
0.0
 40
0.5063868124
 40
1.0
 40
1.0
 40
1.0
 40
1.0
 10
38.7255688342
 20
26.5453799645
 30
0.0
 10
38.7049466438
 20
26.5810984478
 30
0.0
 10
38.6681380905
 20
26.6539699887
 30
0.0
 10
38.6399071861
 20
26.7306046853
 30
0.0
 10
38.6284271157
 20
26.769134613
 30
0.0
  0
SPLINE
  5
389
100
AcDbEntity
  8
0
100
AcDbSpline
 62
7
  6
BYLAYER
 70
0
 71
3
 72
9
 73
5
 74
0
 42
0.0000001
 43
0.0000001
 44
0.0000000001
 40
0.0
 40
0.0
 40
0.0
 40
0.0
 40
0.5122662822
 40
1.0
 40
1.0
 40
1.0
 40
1.0
 10
38.6284271157
 20
26.769134613
 30
0.0
 10
38.6507860905
 20
26.8009567575
 30
0.0
 10
38.6937412146
 20
26.8635649231
 30
0.0
 10
38.734201492
 20
26.9278648922
 30
0.0
 10
38.7527424837
 20
26.9599179471
 30
0.0
  0
SPLINE
  5
38A
100
AcDbEntity
  8
0
100
AcDbSpline
 62
7
  6
BYLAYER
 70
0
 71
3
 72
9
 73
5
 74
0
 42
0.0000001
 43
0.0000001
 44
0.0000000001
 40
0.0
 40
0.0
 40
0.0
 40
0.0
 40
0.251467096
 40
1.0
 40
1.0
 40
1.0
 40
1.0
 10
38.7527424837
 20
26.9599179471
 30
0.0
 10
38.7502377332
 20
26.9651322968
 30
0.0
 10
38.7401043719
 20
26.985784817
 30
0.0
 10
38.7293148307
 20
27.0061132886
 30
0.0
 10
38.7209323619
 20
27.0211544288
 30
0.0
  0
SPLINE
  5
38B
100
AcDbEntity
  8
0
100
AcDbSpline
 62
7
  6
BYLAYER
 70
0
 71
3
 72
9
 73
5
 74
0
 42
0.0000001
 43
0.0000001
 44
0.0000000001
 40
0.0
 40
0.0
 40
0.0
 40
0.0
 40
0.4877344174
 40
1.0
 40
1.0
 40
1.0
 40
1.0
 10
39.0981556154
 20
26.3616481745
 30
0.0
 10
39.0611264665
 20
26.3616171922
 30
0.0
 10
38.9852112992
 20
26.3587262935
 30
0.0
 10
38.9095138615
 20
26.3528294442
 30
0.0
 10
38.8707758504
 20
26.3493766216
 30
0.0
  0
SPLINE
  5
38C
100
AcDbEntity
  8
0
100
AcDbSpline
 62
7
  6
BYLAYER
 70
0
 71
3
 72
20
 73
16
 74
0
 42
0.0000001
 43
0.0000001
 44
0.0000000001
 40
0.0
 40
0.0
 40
0.0
 40
0.0
 40
0.0467061978
 40
0.0936737749
 40
0.1416709184
 40
0.1913846754
 40
0.2978777442
 40
0.3555573403
 40
0.4163606268
 40
0.4803116425
 40
0.5473317818
 40
0.6172545503
 40
0.6898422045
 40
0.8416772037
 40
1.0
 40
1.0
 40
1.0
 40
1.0
 10
39.3965472847
 20
23.6493641601
 30
0.0
 10
39.4428477949
 20
23.6698532393
 30
0.0
 10
39.5326072312
 20
23.7184310019
 30
0.0
 10
39.6547052225
 20
23.8125987913
 30
0.0
 10
39.7629109808
 20
23.9269926228
 30
0.0
 10
39.8902136695
 20
24.1089023151
 30
0.0
 10
39.9822659826
 20
24.3247691507
 30
0.0
 10
40.0407327313
 20
24.5617582911
 30
0.0
 10
40.0689688848
 20
24.7578425932
 30
0.0
 10
40.0801235875
 20
24.9656707802
 30
0.0
 10
40.0741522465
 20
25.1835859283
 30
0.0
 10
40.0511367523
 20
25.4097517163
 30
0.0
 10
39.9971415475
 20
25.7244460516
 30
0.0
 10
39.887575092
 20
26.1257462009
 30
0.0
 10
39.7624200355
 20
26.4386346866
 30
0.0
 10
39.6903117021
 20
26.5943802125
 30
0.0
  0
SPLINE
  5
38D
100
AcDbEntity
  8
0
100
AcDbSpline
 62
7
  6
BYLAYER
 70
0
 71
3
 72
9
 73
5
 74
0
 42
0.0000001
 43
0.0000001
 44
0.0000000001
 40
0.0
 40
0.0
 40
0.0
 40
0.0
 40
0.2486057772
 40
1.0
 40
1.0
 40
1.0
 40
1.0
 10
39.1352765575
 20
26.3034933564
 30
0.0
 10
39.1323428095
 20
26.3084011138
 30
0.0
 10
39.1204082591
 20
26.3280617148
 30
0.0
 10
39.1079048713
 20
26.3473791367
 30
0.0
 10
39.0981556154
 20
26.3616481745
 30
0.0
  0
SPLINE
  5
38E
100
AcDbEntity
  8
0
100
AcDbSpline
 62
7
  6
BYLAYER
 70
0
 71
3
 72
9
 73
5
 74
0
 42
0.0000001
 43
0.0000001
 44
0.0000000001
 40
0.0
 40
0.0
 40
0.0
 40
0.0
 40
0.2444947162
 40
1.0
 40
1.0
 40
1.0
 40
1.0
 10
49.0415184144
 20
33.7260206405
 30
0.0
 10
49.0522515227
 20
33.7198240177
 30
0.0
 10
49.0958141604
 20
33.6938990332
 30
0.0
 10
49.1380377409
 20
33.6657396892
 30
0.0
 10
49.1691572838
 20
33.6434191785
 30
0.0
  0
SPLINE
  5
38F
100
AcDbEntity
  8
0
100
AcDbSpline
 62
7
  6
BYLAYER
 70
0
 71
3
 72
15
 73
11
 74
0
 42
0.0000001
 43
0.0000001
 44
0.0000000001
 40
0.0
 40
0.0
 40
0.0
 40
0.0
 40
0.1171646068
 40
0.2408880771
 40
0.369259863
 40
0.5000140568
 40
0.6307684757
 40
0.759137295
 40
0.8828710072
 40
1.0
 40
1.0
 40
1.0
 40
1.0
 10
49.1691572838
 20
33.6434191785
 30
0.0
 10
49.2294517341
 20
33.6001729483
 30
0.0
 10
49.3476334428
 20
33.5030126254
 30
0.0
 10
49.5107881776
 20
33.3349088836
 30
0.0
 10
49.6612614173
 20
33.1442755394
 30
0.0
 10
49.7949525373
 20
32.9362438022
 30
0.0
 10
49.9082614611
 20
32.7164474527
 30
0.0
 10
49.9981233537
 20
32.4908134872
 30
0.0
 10
50.062104643
 20
32.2654777972
 30
0.0
 10
50.087165818
 20
32.1145676619
 30
0.0
 10
50.0944705766
 20
32.0407506509
 30
0.0
  0
SPLINE
  5
390
100
AcDbEntity
  8
0
100
AcDbSpline
 62
7
  6
BYLAYER
 70
0
 71
3
 72
9
 73
5
 74
0
 42
0.0000001
 43
0.0000001
 44
0.0000000001
 40
0.0
 40
0.0
 40
0.0
 40
0.0
 40
0.2552882458
 40
1.0
 40
1.0
 40
1.0
 40
1.0
 10
50.0944705766
 20
32.0407506509
 30
0.0
 10
50.0957448729
 20
32.0278734638
 30
0.0
 10
50.1001522784
 20
31.977376663
 30
0.0
 10
50.102182729
 20
31.9266641288
 30
0.0
 10
50.1021830021
 20
31.8889160816
 30
0.0
  0
LINE
  5
391
100
AcDbEntity
  8
0
100
AcDbLine
 62
7
  6
BYLAYER
 10
36.7901252716
 20
42.2501002607
 11
36.435529277
 21
42.0612848963
  0
LINE
  5
392
100
AcDbEntity
  8
0
100
AcDbLine
 62
7
  6
BYLAYER
 10
36.8754946671
 20
41.2992467173
 11
37.2163129675
 21
41.5119256156
  0
SPLINE
  5
393
100
AcDbEntity
  8
0
100
AcDbSpline
 62
7
  6
BYLAYER
 70
0
 71
3
 72
20
 73
16
 74
0
 42
0.0000001
 43
0.0000001
 44
0.0000000001
 40
0.0
 40
0.0
 40
0.0
 40
0.0
 40
0.2236473966
 40
0.4231256012
 40
0.5955855492
 40
0.7390767461
 40
0.7995047386
 40
0.8521552992
 40
0.8969119242
 40
0.9336819433
 40
0.962376335
 40
0.9829158418
 40
0.9952943136
 40
0.998503461
 40
1.0
 40
1.0
 40
1.0
 40
1.0
 10
36.435529277
 20
42.0612848963
 30
0.0
 10
36.4286261099
 20
42.0576091302
 30
0.0
 10
36.4155563386
 20
42.0506725468
 30
0.0
 10
36.3971262551
 20
42.0409716394
 30
0.0
 10
36.3811392856
 20
42.0326473751
 30
0.0
 10
36.3694292233
 20
42.0266384899
 30
0.0
 10
36.3614172522
 20
42.0225998727
 30
0.0
 10
36.356474232
 20
42.0201450752
 30
0.0
 10
36.3522538097
 20
42.0180917448
 30
0.0
 10
36.3487733948
 20
42.0164435527
 30
0.0
 10
36.3460230467
 20
42.0152037824
 30
0.0
 10
36.3440585286
 20
42.0143703099
 30
0.0
 10
36.3428269584
 20
42.0139490979
 30
0.0
 10
36.3422793056
 20
42.0138235424
 30
0.0
 10
36.3420770699
 20
42.0138540106
 30
0.0
 10
36.3420556524
 20
42.0139017603
 30
0.0
  0
SPLINE
  5
394
100
AcDbEntity
  8
0
100
AcDbSpline
 62
7
  6
BYLAYER
 70
0
 71
3
 72
15
 73
11
 74
0
 42
0.0000001
 43
0.0000001
 44
0.0000000001
 40
0.0
 40
0.0
 40
0.0
 40
0.0
 40
0.1486025686
 40
0.2895002298
 40
0.4227203136
 40
0.5486432717
 40
0.6679991312
 40
0.7819389813
 40
0.8919869929
 40
1.0
 40
1.0
 40
1.0
 40
1.0
 10
50.1021830021
 20
48.2189644242
 30
0.0
 10
50.1021832847
 20
48.1798944905
 30
0.0
 10
50.0990287318
 20
48.103728357
 30
0.0
 10
50.0840447841
 20
47.9934263373
 30
0.0
 10
50.0589875731
 20
47.8910551322
 30
0.0
 10
50.0241005894
 20
47.7975840422
 30
0.0
 10
49.9795961569
 20
47.7139423979
 30
0.0
 10
49.9258759477
 20
47.6409546952
 30
0.0
 10
49.8633859758
 20
47.5794783621
 30
0.0
 10
49.8161086042
 20
47.5464746488
 30
0.0
 10
49.7915150568
 20
47.5322753131
 30
0.0
  0
SPLINE
  5
395
100
AcDbEntity
  8
0
100
AcDbSpline
 62
7
  6
BYLAYER
 70
0
 71
3
 72
14
 73
10
 74
0
 42
0.0000001
 43
0.0000001
 44
0.0000000001
 40
0.0
 40
0.0
 40
0.0
 40
0.0
 40
0.1080615955
 40
0.2181606062
 40
0.3321565038
 40
0.4515612425
 40
0.7103718436
 40
0.8514086464
 40
1.0
 40
1.0
 40
1.0
 40
1.0
 10
48.291521772
 20
50.1303554017
 30
0.0
 10
48.3161143597
 20
50.1445541832
 30
0.0
 10
48.368333404
 20
50.1689959299
 30
0.0
 10
48.4528154385
 20
50.192374112
 30
0.0
 10
48.5428888169
 20
50.2024001787
 30
0.0
 10
48.6725313389
 20
50.1979103363
 30
0.0
 10
48.8066840801
 20
50.1656006794
 30
0.0
 10
48.9401385404
 20
50.1109421724
 30
0.0
 10
49.0077017539
 20
50.0755925994
 30
0.0
 10
49.0415184144
 20
50.0560689831
 30
0.0
  0
SPLINE
  5
396
100
AcDbEntity
  8
0
100
AcDbSpline
 62
7
  6
BYLAYER
 70
0
 71
3
 72
18
 73
14
 74
0
 42
0.0000001
 43
0.0000001
 44
0.0000000001
 40
0.0
 40
0.0
 40
0.0
 40
0.0
 40
0.0521720292
 40
0.1047113292
 40
0.158054559
 40
0.2124844475
 40
0.3254461779
 40
0.38460846
 40
0.4457208574
 40
0.5739270793
 40
0.7099377458
 40
0.8525816509
 40
1.0
 40
1.0
 40
1.0
 40
1.0
 10
36.553037473
 20
44.9045450528
 30
0.0
 10
36.5092747719
 20
44.8726005386
 30
0.0
 10
36.4258414183
 20
44.802215055
 30
0.0
 10
36.3155953074
 20
44.6799924829
 30
0.0
 10
36.220705572
 20
44.5426464837
 30
0.0
 10
36.1137115934
 20
44.3394040008
 30
0.0
 10
36.0401634661
 20
44.1138472073
 30
0.0
 10
35.997223986
 20
43.8752844685
 30
0.0
 10
35.9731498506
 20
43.6180617774
 30
0.0
 10
35.9815400711
 20
43.2790292255
 30
0.0
 10
36.0475845514
 20
42.8606556175
 30
0.0
 10
36.1669408884
 20
42.4336656852
 30
0.0
 10
36.2784890181
 20
42.1531771369
 30
0.0
 10
36.3420533251
 20
42.0139004339
 30
0.0
  0
SPLINE
  5
397
100
AcDbEntity
  8
0
100
AcDbSpline
 62
7
  6
BYLAYER
 70
0
 71
3
 72
16
 73
12
 74
0
 42
0.0000001
 43
0.0000001
 44
0.0000000001
 40
0.0
 40
0.0
 40
0.0
 40
0.0
 40
0.1088553946
 40
0.2187157698
 40
0.3318920909
 40
0.4503672366
 40
0.5121191294
 40
0.5757124816
 40
0.7087830318
 40
0.8502270303
 40
1.0
 40
1.0
 40
1.0
 40
1.0
 10
37.6935683519
 20
45.7370702831
 30
0.0
 10
37.742937844
 20
45.7731113698
 30
0.0
 10
37.8490300095
 20
45.8365951733
 30
0.0
 10
38.0247047758
 20
45.9016866703
 30
0.0
 10
38.2143586141
 20
45.9358102486
 30
0.0
 10
38.3797944272
 20
45.9382379374
 30
0.0
 10
38.5161924608
 20
45.9254139739
 30
0.0
 10
38.659482835
 20
45.9018629098
 30
0.0
 10
38.8433717803
 20
45.8525354368
 30
0.0
 10
39.0652669589
 20
45.7646193944
 30
0.0
 10
39.2106508455
 20
45.6891034188
 30
0.0
 10
39.2834854608
 20
45.6470532854
 30
0.0
  0
SPLINE
  5
398
100
AcDbEntity
  8
0
100
AcDbSpline
 62
7
  6
BYLAYER
 70
0
 71
3
 72
20
 73
16
 74
0
 42
0.0000001
 43
0.0000001
 44
0.0000000001
 40
0.0
 40
0.0
 40
0.0
 40
0.0
 40
0.0014964202
 40
0.00470617
 40
0.0170857863
 40
0.0376263814
 40
0.0663235513
 40
0.1030971474
 40
0.1478571194
 40
0.200509813
 40
0.2609399708
 40
0.4044340018
 40
0.5768858388
 40
0.7763556334
 40
1.0
 40
1.0
 40
1.0
 40
1.0
 10
36.7877215348
 20
41.2419902069
 30
0.0
 10
36.7876909327
 20
41.2420326544
 30
0.0
 10
36.7877659034
 20
41.2422229602
 30
0.0
 10
36.7881485059
 20
41.2426343843
 30
0.0
 10
36.7891293916
 20
41.2434902491
 30
0.0
 10
36.7908336435
 20
41.2447747768
 30
0.0
 10
36.7932828557
 20
41.2465367177
 30
0.0
 10
36.7964508154
 20
41.2487267541
 30
0.0
 10
36.8003396294
 20
41.2513550731
 30
0.0
 10
36.8049373626
 20
41.2544084303
 30
0.0
 10
36.8124412145
 20
41.259327584
 30
0.0
 10
36.8235001145
 20
41.2664640077
 30
0.0
 10
36.8387022987
 20
41.2761464645
 30
0.0
 10
36.8563180497
 20
41.2872563021
 30
0.0
 10
36.8688598667
 20
41.2951064052
 30
0.0
 10
36.8754946671
 20
41.2992467173
 30
0.0
  0
SPLINE
  5
399
100
AcDbEntity
  8
0
100
AcDbSpline
 62
7
  6
BYLAYER
 70
0
 71
3
 72
11
 73
7
 74
0
 42
0.0000001
 43
0.0000001
 44
0.0000000001
 40
0.0
 40
0.0
 40
0.0
 40
0.0
 40
0.263813573
 40
0.5201794326
 40
0.766247277
 40
1.0
 40
1.0
 40
1.0
 40
1.0
 10
36.787719113
 20
41.2419887786
 30
0.0
 10
36.8685610946
 20
41.1285207999
 30
0.0
 10
37.038200334
 20
40.9118554787
 30
0.0
 10
37.31744272
 20
40.6180851078
 30
0.0
 10
37.6135324821
 20
40.3650217939
 30
0.0
 10
37.8245035418
 20
40.2232619586
 30
0.0
 10
37.9314114826
 20
40.1615400265
 30
0.0
  0
SPLINE
  5
39A
100
AcDbEntity
  8
0
100
AcDbSpline
 62
7
  6
BYLAYER
 70
0
 71
3
 72
29
 73
25
 74
0
 42
0.0000001
 43
0.0000001
 44
0.0000000001
 40
0.0
 40
0.0
 40
0.0
 40
0.0
 40
0.0629366101
 40
0.1299530592
 40
0.2002875398
 40
0.2730124509
 40
0.3470749728
 40
0.4213608629
 40
0.4947432404
 40
0.5661392493
 40
0.6345618126
 40
0.6991796241
 40
0.7298764619
 40
0.759418593
 40
0.7877776203
 40
0.8149531159
 40
0.8409701703
 40
0.865888796
 40
0.8898010844
 40
0.9128378656
 40
0.9351646828
 40
0.956981182
 40
0.9785126204
 40
1.0
 40
1.0
 40
1.0
 40
1.0
 10
39.2834854608
 20
45.6470532854
 30
0.0
 10
39.3941924005
 20
45.5831380499
 30
0.0
 10
39.6140412313
 20
45.4356591492
 30
0.0
 10
39.9247288753
 20
45.1719473685
 30
0.0
 10
40.2209795977
 20
44.8639140112
 30
0.0
 10
40.4961371276
 20
44.5185147117
 30
0.0
 10
40.744062251
 20
44.1434473517
 30
0.0
 10
40.9591943235
 20
43.7471420793
 30
0.0
 10
41.1366978623
 20
43.3384945942
 30
0.0
 10
41.2725976707
 20
42.9266510486
 30
0.0
 10
41.3638320642
 20
42.5208566344
 30
0.0
 10
41.4015810281
 20
42.1896031785
 30
0.0
 10
41.4065949945
 20
41.9358974304
 30
0.0
 10
41.3982173774
 20
41.7559918146
 30
0.0
 10
41.3777704686
 20
41.5842424129
 30
0.0
 10
41.345399957
 20
41.4216066757
 30
0.0
 10
41.3012166074
 20
41.2690110802
 30
0.0
 10
41.2454878094
 20
41.12731101
 30
0.0
 10
41.1784515909
 20
40.997336329
 30
0.0
 10
41.1004814103
 20
40.879840776
 30
0.0
 10
41.01197128
 20
40.7755508402
 30
0.0
 10
40.9134139443
 20
40.6851194501
 30
0.0
 10
40.8054182798
 20
40.6091354665
 30
0.0
 10
40.7277129272
 20
40.5685361448
 30
0.0
 10
40.6878036199
 20
40.5508719889
 30
0.0
  0
SPLINE
  5
39B
100
AcDbEntity
  8
0
100
AcDbSpline
 62
7
  6
BYLAYER
 70
0
 71
3
 72
15
 73
11
 74
0
 42
0.0000001
 43
0.0000001
 44
0.0000000001
 40
0.0
 40
0.0
 40
0.0
 40
0.0
 40
0.1386299036
 40
0.2725248589
 40
0.401767773
 40
0.526883361
 40
0.648519509
 40
0.7674228777
 40
0.8842462244
 40
1.0
 40
1.0
 40
1.0
 40
1.0
 10
37.9314114826
 20
40.1615400265
 30
0.0
 10
37.9927112679
 20
40.1261493797
 30
0.0
 10
38.1160215594
 20
40.0612723146
 30
0.0
 10
38.3054563783
 20
39.9818412466
 30
0.0
 10
38.49513839
 20
39.9230683056
 30
0.0
 10
38.6839103733
 20
39.8859982551
 30
0.0
 10
38.8705353324
 20
39.8717253901
 30
0.0
 10
39.0533013008
 20
39.8813810186
 30
0.0
 10
39.2300477118
 20
39.9157025685
 30
0.0
 10
39.342503251
 20
39.9554900661
 30
0.0
 10
39.3965493454
 20
39.9794086189
 30
0.0
  0
SPLINE
  5
39C
100
AcDbEntity
  8
0
100
AcDbSpline
 62
7
  6
BYLAYER
 70
0
 71
3
 72
16
 73
12
 74
0
 42
0.0000001
 43
0.0000001
 44
0.0000000001
 40
0.0
 40
0.0
 40
0.0
 40
0.0
 40
0.0558365412
 40
0.1142297772
 40
0.237390973
 40
0.3670297887
 40
0.5000402866
 40
0.6330538215
 40
0.7626938317
 40
0.885855409
 40
1.0
 40
1.0
 40
1.0
 40
1.0
 10
49.1829391818
 20
49.9744173305
 30
0.0
 10
49.2137224032
 20
49.9566450314
 30
0.0
 10
49.275138262
 20
49.9175283188
 30
0.0
 10
49.3960791436
 20
49.8267221337
 30
0.0
 10
49.5412157989
 20
49.6909240703
 30
0.0
 10
49.6987922366
 20
49.5018208373
 30
0.0
 10
49.8370581646
 20
49.2906342779
 30
0.0
 10
49.9508140365
 20
49.065314899
 30
0.0
 10
50.0358114717
 20
48.8342494676
 30
0.0
 10
50.0888696354
 20
48.6061335253
 30
0.0
 10
50.1021796031
 20
48.4549248165
 30
0.0
 10
50.1021800562
 20
48.3822610667
 30
0.0
  0
SPLINE
  5
39D
100
AcDbEntity
  8
0
100
AcDbSpline
 62
7
  6
BYLAYER
 70
0
 71
3
 72
15
 73
11
 74
0
 42
0.0000001
 43
0.0000001
 44
0.0000000001
 40
0.0
 40
0.0
 40
0.0
 40
0.0
 40
0.1198745062
 40
0.2440886927
 40
0.371287407
 40
0.5000068797
 40
0.6287255446
 40
0.755926161
 40
0.8801365332
 40
1.0
 40
1.0
 40
1.0
 40
1.0
 10
46.6747527792
 20
46.583238068
 30
0.0
 10
46.6627560932
 20
46.6440984193
 30
0.0
 10
46.6324514584
 20
46.7669229813
 30
0.0
 10
46.5706200966
 20
46.9490480527
 30
0.0
 10
46.4925559275
 20
47.1298274124
 30
0.0
 10
46.3996300517
 20
47.3060629725
 30
0.0
 10
46.2934663056
 20
47.4746568202
 30
0.0
 10
46.1759339318
 20
47.6326467213
 30
0.0
 10
46.049127319
 20
47.7772497321
 30
0.0
 10
45.9579182731
 20
47.8649038705
 30
0.0
 10
45.9112127831
 20
47.9057179777
 30
0.0
  0
SPLINE
  5
39E
100
AcDbEntity
  8
0
100
AcDbSpline
 62
7
  6
BYLAYER
 70
0
 71
3
 72
27
 73
23
 74
0
 42
0.0000001
 43
0.0000001
 44
0.0000000001
 40
0.0
 40
0.0
 40
0.0
 40
0.0
 40
0.0666260611
 40
0.1284149881
 40
0.1855374834
 40
0.238651189
 40
0.2640708739
 40
0.2889455434
 40
0.3134805221
 40
0.3378963402
 40
0.3624184509
 40
0.3872678879
 40
0.4126507065
 40
0.4387520748
 40
0.4936455513
 40
0.5529128834
 40
0.6169774723
 40
0.6858578234
 40
0.7592501363
 40
0.8365871038
 40
0.9171446132
 40
1.0
 40
1.0
 40
1.0
 40
1.0
 10
37.8692777864
 20
44.4632395816
 30
0.0
 10
37.7902819058
 20
44.5088468428
 30
0.0
 10
37.6328238447
 20
44.5882491697
 30
0.0
 10
37.3918181393
 20
44.6712630135
 30
0.0
 10
37.1587362314
 20
44.7120655817
 30
0.0
 10
36.9716510045
 20
44.7097065919
 30
0.0
 10
36.8319790023
 20
44.6850774045
 30
0.0
 10
36.7334761054
 20
44.6561091693
 30
0.0
 10
36.6402553976
 20
44.6164579685
 30
0.0
 10
36.5527599912
 20
44.5663555001
 30
0.0
 10
36.4714503516
 20
44.5060149631
 30
0.0
 10
36.3967160011
 20
44.4357693741
 30
0.0
 10
36.3289037071
 20
44.3559717008
 30
0.0
 10
36.2468032579
 20
44.2353938752
 30
0.0
 10
36.1635633191
 20
44.0609586939
 30
0.0
 10
36.0976434293
 20
43.8250100196
 30
0.0
 10
36.0645804083
 20
43.5631160091
 30
0.0
 10
36.0647541733
 20
43.279979338
 30
0.0
 10
36.0980200835
 20
42.9806238465
 30
0.0
 10
36.1637045627
 20
42.6703887586
 30
0.0
 10
36.2606196704
 20
42.3549459828
 30
0.0
 10
36.3440236243
 20
42.1470344809
 30
0.0
 10
36.3903956179
 20
42.0435106176
 30
0.0
  0
SPLINE
  5
39F
100
AcDbEntity
  8
0
100
AcDbSpline
 62
7
  6
BYLAYER
 70
0
 71
3
 72
11
 73
7
 74
0
 42
0.0000001
 43
0.0000001
 44
0.0000000001
 40
0.0
 40
0.0
 40
0.0
 40
0.0
 40
0.266402162
 40
0.5240762057
 40
0.769543547
 40
1.0
 40
1.0
 40
1.0
 40
1.0
 10
38.9010234345
 20
43.493063707
 30
0.0
 10
38.8268357921
 20
43.5956592204
 30
0.0
 10
38.671872068
 20
43.7911662429
 30
0.0
 10
38.4184476278
 20
44.0556438776
 30
0.0
 10
38.1524634937
 20
44.2820002906
 30
0.0
 10
37.9641297175
 20
44.4084780325
 30
0.0
 10
37.8692777864
 20
44.4632395816
 30
0.0
  0
SPLINE
  5
3A0
100
AcDbEntity
  8
0
100
AcDbSpline
 62
7
  6
BYLAYER
 70
0
 71
3
 72
17
 73
13
 74
0
 42
0.0000001
 43
0.0000001
 44
0.0000000001
 40
0.0
 40
0.0
 40
0.0
 40
0.0
 40
0.1497624263
 40
0.2911795142
 40
0.4242329862
 40
0.4878208256
 40
0.5495673782
 40
0.6680285123
 40
0.7811941285
 40
0.8910430185
 40
0.9454957046
 40
1.0
 40
1.0
 40
1.0
 40
1.0
 10
38.0629204895
 20
44.8190571947
 30
0.0
 10
37.993749201
 20
44.8589923533
 30
0.0
 10
37.8556874229
 20
44.9307097934
 30
0.0
 10
37.6449626333
 20
45.0141928781
 30
0.0
 10
37.470336892
 20
45.0610389832
 30
0.0
 10
37.3342582581
 20
45.0834028487
 30
0.0
 10
37.2047265153
 20
45.0955916481
 30
0.0
 10
37.0476084559
 20
45.0932688166
 30
0.0
 10
36.8675309458
 20
45.0608944519
 30
0.0
 10
36.7279461894
 20
45.0091393291
 30
0.0
 10
36.6250433331
 20
44.9538304384
 30
0.0
 10
36.5765178284
 20
44.9216805774
 30
0.0
 10
36.5530396161
 20
44.9045416296
 30
0.0
  0
SPLINE
  5
3A1
100
AcDbEntity
  8
0
100
AcDbSpline
 62
7
  6
BYLAYER
 70
0
 71
3
 72
11
 73
7
 74
0
 42
0.0000001
 43
0.0000001
 44
0.0000000001
 40
0.0
 40
0.0
 40
0.0
 40
0.0
 40
0.266484399
 40
0.5243674196
 40
0.7698850276
 40
1.0
 40
1.0
 40
1.0
 40
1.0
 10
39.2503463119
 20
43.6864667341
 30
0.0
 10
39.1658170383
 20
43.8064870472
 30
0.0
 10
38.9886132574
 20
44.0352363459
 30
0.0
 10
38.6973439604
 20
44.3444638775
 30
0.0
 10
38.3905608857
 20
44.6086108702
 30
0.0
 10
38.1727023421
 20
44.7556760465
 30
0.0
 10
38.0629204895
 20
44.8190571947
 30
0.0
  0
SPLINE
  5
3A2
100
AcDbEntity
  8
0
100
AcDbSpline
 62
7
  6
BYLAYER
 70
0
 71
3
 72
11
 73
7
 74
0
 42
0.0000001
 43
0.0000001
 44
0.0000000001
 40
0.0
 40
0.0
 40
0.0
 40
0.0
 40
0.200035402
 40
0.4565736369
 40
0.7359215102
 40
1.0
 40
1.0
 40
1.0
 40
1.0
 10
38.9010234345
 20
43.493063707
 30
0.0
 10
38.9240808562
 20
43.5063762962
 30
0.0
 10
38.9769644318
 20
43.5363174711
 30
0.0
 10
39.0625262623
 20
43.5839993166
 30
0.0
 10
39.1558258077
 20
43.6353044697
 30
0.0
 10
39.2193916501
 20
43.6698161887
 30
0.0
 10
39.2503463119
 20
43.6864667341
 30
0.0
  0
LINE
  5
3A3
100
AcDbEntity
  8
0
100
AcDbLine
 62
7
  6
BYLAYER
 10
39.2503463119
 20
43.6864667341
 11
39.6536087448
 21
43.9033804831
  0
LINE
  5
3A4
100
AcDbEntity
  8
0
100
AcDbLine
 62
7
  6
BYLAYER
 10
40.0797964408
 20
43.165205838
 11
39.6903117021
 21
42.9244285551
  0
SPLINE
  5
3A5
100
AcDbEntity
  8
0
100
AcDbSpline
 62
7
  6
BYLAYER
 70
0
 71
3
 72
18
 73
14
 74
0
 42
0.0000001
 43
0.0000001
 44
0.0000000001
 40
0.0
 40
0.0
 40
0.0
 40
0.0
 40
0.2269621152
 40
0.427032797
 40
0.598784706
 40
0.7408655221
 40
0.8524576274
 40
0.8966432236
 40
0.9329980091
 40
0.9614615129
 40
0.9820061275
 40
0.994696456
 40
1.0
 40
1.0
 40
1.0
 40
1.0
 10
36.8375321383
 20
41.2690517455
 30
0.0
 10
36.8338126051
 20
41.2669042106
 30
0.0
 10
36.8268076635
 20
41.2628748979
 30
0.0
 10
36.8169613702
 20
41.2572672225
 30
0.0
 10
36.8084837457
 20
41.2525013181
 30
0.0
 10
36.8014359549
 20
41.2486120409
 30
0.0
 10
36.7964678296
 20
41.2459440197
 30
0.0
 10
36.7932401545
 20
41.2442777452
 30
0.0
 10
36.7913863481
 20
41.2433557916
 30
0.0
 10
36.7899419195
 20
41.2426770929
 30
0.0
 10
36.7888259675
 20
41.2422011811
 30
0.0
 10
36.7882103977
 20
41.24200073
 30
0.0
 10
36.7877802279
 20
41.2419087952
 30
0.0
 10
36.7877215348
 20
41.2419902069
 30
0.0
  0
SPLINE
  5
3A6
100
AcDbEntity
  8
0
100
AcDbSpline
 62
7
  6
BYLAYER
 70
0
 71
3
 72
11
 73
7
 74
0
 42
0.0000001
 43
0.0000001
 44
0.0000000001
 40
0.0
 40
0.0
 40
0.0
 40
0.0
 40
0.2640879629
 40
0.5434327433
 40
0.7999655683
 40
1.0
 40
1.0
 40
1.0
 40
1.0
 10
39.6903117021
 20
42.9244285551
 30
0.0
 10
39.6604134417
 20
42.9059457403
 30
0.0
 10
39.5987417797
 20
42.8681515081
 30
0.0
 10
39.5076606129
 20
42.813003775
 30
0.0
 10
39.4235876183
 20
42.7627457416
 30
0.0
 10
39.371217265
 20
42.7319173597
 30
0.0
 10
39.3481599549
 20
42.7186048349
 30
0.0
  0
SPLINE
  5
3A7
100
AcDbEntity
  8
0
100
AcDbSpline
 62
7
  6
BYLAYER
 70
0
 71
3
 72
27
 73
23
 74
0
 42
0.0000001
 43
0.0000001
 44
0.0000000001
 40
0.0
 40
0.0
 40
0.0
 40
0.0
 40
0.0674649784
 40
0.1302007419
 40
0.1883426632
 40
0.2424804782
 40
0.2683769787
 40
0.2936850904
 40
0.3185927212
 40
0.3433050049
 40
0.3680342559
 40
0.3929929164
 40
0.4183828494
 40
0.4443898425
 40
0.4988155004
 40
0.557313378
 40
0.6204166577
 40
0.6882649317
 40
0.760677783
 40
0.8372147618
 40
0.9172384097
 40
1.0
 40
1.0
 40
1.0
 40
1.0
 10
37.8692777864
 20
40.2988758709
 30
0.0
 10
37.945774853
 20
40.254711268
 30
0.0
 10
38.0982837878
 20
40.1774700731
 30
0.0
 10
38.3316310715
 20
40.0953123681
 30
0.0
 10
38.5577562442
 20
40.0525686715
 30
0.0
 10
38.7398755426
 20
40.050788184
 30
0.0
 10
38.8765840655
 20
40.0706724175
 30
0.0
 10
38.9733154491
 20
40.0954479041
 30
0.0
 10
39.0652562595
 20
40.1302534356
 30
0.0
 10
39.1519914409
 20
40.1749092483
 30
0.0
 10
39.233114023
 20
40.2292181341
 30
0.0
 10
39.3082319362
 20
40.2929367968
 30
0.0
 10
39.3770365678
 20
40.3657379347
 30
0.0
 10
39.4611662486
 20
40.4761022458
 30
0.0
 10
39.548760121
 20
40.6368863853
 30
0.0
 10
39.622368784
 20
40.8562989535
 30
0.0
 10
39.6654407799
 20
41.1013897086
 30
0.0
 10
39.6774856062
 20
41.3680123728
 30
0.0
 10
39.6584581389
 20
41.6517483009
 30
0.0
 10
39.6087457972
 20
41.9478423174
 30
0.0
 10
39.52922434
 20
42.2513101324
 30
0.0
 10
39.4581231863
 20
42.4525230663
 30
0.0
 10
39.4180752751
 20
42.5532091299
 30
0.0
  0
SPLINE
  5
3A8
100
AcDbEntity
  8
0
100
AcDbSpline
 62
7
  6
BYLAYER
 70
0
 71
3
 72
11
 73
7
 74
0
 42
0.0000001
 43
0.0000001
 44
0.0000000001
 40
0.0
 40
0.0
 40
0.0
 40
0.0
 40
0.266402162
 40
0.5240762057
 40
0.769543547
 40
1.0
 40
1.0
 40
1.0
 40
1.0
 10
36.8375321383
 20
41.2690517455
 30
0.0
 10
36.9117197807
 20
41.1664562321
 30
0.0
 10
37.0666835048
 20
40.9709492095
 30
0.0
 10
37.320107945
 20
40.7064715749
 30
0.0
 10
37.5860920791
 20
40.4801151619
 30
0.0
 10
37.7744258553
 20
40.35363742
 30
0.0
 10
37.8692777864
 20
40.2988758709
 30
0.0
  0
SPLINE
  5
3A9
100
AcDbEntity
  8
0
100
AcDbSpline
 62
7
  6
BYLAYER
 70
0
 71
3
 72
18
 73
14
 74
0
 42
0.0000001
 43
0.0000001
 44
0.0000000001
 40
0.0
 40
0.0
 40
0.0
 40
0.0
 40
0.0053076201
 40
0.0180009278
 40
0.0385472668
 40
0.0670112999
 40
0.1033661367
 40
0.1475514415
 40
0.2591423241
 40
0.4012216705
 40
0.572972001
 40
0.7730406532
 40
1.0
 40
1.0
 40
1.0
 40
1.0
 10
36.3420556524
 20
42.0139017603
 30
0.0
 10
36.3420145465
 20
42.0139934043
 30
0.0
 10
36.3423091427
 20
42.0143200468
 30
0.0
 10
36.3427907023
 20
42.0147532194
 30
0.0
 10
36.3437607451
 20
42.0154818311
 30
0.0
 10
36.3450707145
 20
42.0163935804
 30
0.0
 10
36.3467959595
 20
42.0175381819
 30
0.0
 10
36.3498526968
 20
42.0195004961
 30
0.0
 10
36.3546471447
 20
42.022469239
 30
0.0
 10
36.361539037
 20
42.0266284336
 30
0.0
 10
36.369905018
 20
42.0315875848
 30
0.0
 10
36.3796843153
 20
42.0373111452
 30
0.0
 10
36.3866761155
 20
42.0413631005
 30
0.0
 10
36.3903956179
 20
42.0435106176
 30
0.0
  0
SPLINE
  5
3AA
100
AcDbEntity
  8
0
100
AcDbSpline
 62
7
  6
BYLAYER
 70
0
 71
3
 72
9
 73
5
 74
0
 42
0.0000001
 43
0.0000001
 44
0.0000000001
 40
0.0
 40
0.0
 40
0.0
 40
0.0
 40
0.4936126244
 40
1.0
 40
1.0
 40
1.0
 40
1.0
 10
38.8707758504
 20
42.6794249642
 30
0.0
 10
38.8431479111
 20
42.7086316994
 30
0.0
 10
38.7908955545
 20
42.7713973159
 30
0.0
 10
38.7461910014
 20
42.8397098641
 30
0.0
 10
38.7255688342
 20
42.8754283071
 30
0.0
  0
SPLINE
  5
3AB
100
AcDbEntity
  8
0
100
AcDbSpline
 62
7
  6
BYLAYER
 70
0
 71
3
 72
9
 73
5
 74
0
 42
0.0000001
 43
0.0000001
 44
0.0000000001
 40
0.0
 40
0.0
 40
0.0
 40
0.0
 40
0.5063868124
 40
1.0
 40
1.0
 40
1.0
 40
1.0
 10
38.7255688342
 20
42.8754283071
 30
0.0
 10
38.7049466438
 20
42.9111467904
 30
0.0
 10
38.6681380905
 20
42.9840183313
 30
0.0
 10
38.6399071861
 20
43.0606530279
 30
0.0
 10
38.6284271157
 20
43.0991829556
 30
0.0
  0
SPLINE
  5
3AC
100
AcDbEntity
  8
0
100
AcDbSpline
 62
7
  6
BYLAYER
 70
0
 71
3
 72
9
 73
5
 74
0
 42
0.0000001
 43
0.0000001
 44
0.0000000001
 40
0.0
 40
0.0
 40
0.0
 40
0.0
 40
0.5122662822
 40
1.0
 40
1.0
 40
1.0
 40
1.0
 10
38.6284271157
 20
43.0991829556
 30
0.0
 10
38.6507860905
 20
43.1310051001
 30
0.0
 10
38.6937412146
 20
43.1936132656
 30
0.0
 10
38.734201492
 20
43.2579132348
 30
0.0
 10
38.7527424837
 20
43.2899662897
 30
0.0
  0
SPLINE
  5
3AD
100
AcDbEntity
  8
0
100
AcDbSpline
 62
7
  6
BYLAYER
 70
0
 71
3
 72
9
 73
5
 74
0
 42
0.0000001
 43
0.0000001
 44
0.0000000001
 40
0.0
 40
0.0
 40
0.0
 40
0.0
 40
0.251467096
 40
1.0
 40
1.0
 40
1.0
 40
1.0
 10
38.7527424837
 20
43.2899662897
 30
0.0
 10
38.7502377332
 20
43.2951806394
 30
0.0
 10
38.7401043719
 20
43.3158331596
 30
0.0
 10
38.7293148307
 20
43.3361616312
 30
0.0
 10
38.7209323619
 20
43.3512027714
 30
0.0
  0
SPLINE
  5
3AE
100
AcDbEntity
  8
0
100
AcDbSpline
 62
7
  6
BYLAYER
 70
0
 71
3
 72
9
 73
5
 74
0
 42
0.0000001
 43
0.0000001
 44
0.0000000001
 40
0.0
 40
0.0
 40
0.0
 40
0.0
 40
0.4877344174
 40
1.0
 40
1.0
 40
1.0
 40
1.0
 10
39.0981556154
 20
42.691696517
 30
0.0
 10
39.0611264665
 20
42.6916655348
 30
0.0
 10
38.9852112992
 20
42.6887746361
 30
0.0
 10
38.9095138615
 20
42.6828777868
 30
0.0
 10
38.8707758504
 20
42.6794249642
 30
0.0
  0
SPLINE
  5
3AF
100
AcDbEntity
  8
0
100
AcDbSpline
 62
7
  6
BYLAYER
 70
0
 71
3
 72
20
 73
16
 74
0
 42
0.0000001
 43
0.0000001
 44
0.0000000001
 40
0.0
 40
0.0
 40
0.0
 40
0.0
 40
0.0467061978
 40
0.0936737749
 40
0.1416709184
 40
0.1913846754
 40
0.2978777442
 40
0.3555573403
 40
0.4163606268
 40
0.4803116425
 40
0.5473317818
 40
0.6172545503
 40
0.6898422045
 40
0.8416772037
 40
1.0
 40
1.0
 40
1.0
 40
1.0
 10
39.3965472847
 20
39.9794125027
 30
0.0
 10
39.4428477949
 20
39.9999015819
 30
0.0
 10
39.5326072312
 20
40.0484793445
 30
0.0
 10
39.6547052225
 20
40.1426471339
 30
0.0
 10
39.7629109808
 20
40.2570409654
 30
0.0
 10
39.8902136695
 20
40.4389506577
 30
0.0
 10
39.9822659826
 20
40.6548174933
 30
0.0
 10
40.0407327313
 20
40.8918066337
 30
0.0
 10
40.0689688848
 20
41.0878909358
 30
0.0
 10
40.0801235875
 20
41.2957191227
 30
0.0
 10
40.0741522465
 20
41.5136342709
 30
0.0
 10
40.0511367523
 20
41.7398000589
 30
0.0
 10
39.9971415475
 20
42.0544943942
 30
0.0
 10
39.887575092
 20
42.4557945435
 30
0.0
 10
39.7624200355
 20
42.7686830292
 30
0.0
 10
39.6903117021
 20
42.9244285551
 30
0.0
  0
SPLINE
  5
3B0
100
AcDbEntity
  8
0
100
AcDbSpline
 62
7
  6
BYLAYER
 70
0
 71
3
 72
9
 73
5
 74
0
 42
0.0000001
 43
0.0000001
 44
0.0000000001
 40
0.0
 40
0.0
 40
0.0
 40
0.0
 40
0.2486057772
 40
1.0
 40
1.0
 40
1.0
 40
1.0
 10
39.1352765575
 20
42.633541699
 30
0.0
 10
39.1323428095
 20
42.6384494563
 30
0.0
 10
39.1204082591
 20
42.6581100574
 30
0.0
 10
39.1079048713
 20
42.6774274793
 30
0.0
 10
39.0981556154
 20
42.691696517
 30
0.0
  0
SPLINE
  5
3B1
100
AcDbEntity
  8
0
100
AcDbSpline
 62
7
  6
BYLAYER
 70
0
 71
3
 72
9
 73
5
 74
0
 42
0.0000001
 43
0.0000001
 44
0.0000000001
 40
0.0
 40
0.0
 40
0.0
 40
0.0
 40
0.2429537373
 40
1.0
 40
1.0
 40
1.0
 40
1.0
 10
45.649789232
 20
47.7554610022
 30
0.0
 10
45.6664899488
 20
47.7427675474
 30
0.0
 10
45.7341442493
 20
47.6890994452
 30
0.0
 10
45.7974885887
 20
47.6300638156
 30
0.0
 10
45.8429681478
 20
47.5831152903
 30
0.0
  0
SPLINE
  5
3B2
100
AcDbEntity
  8
0
100
AcDbSpline
 62
7
  6
BYLAYER
 70
0
 71
3
 72
9
 73
5
 74
0
 42
0.0000001
 43
0.0000001
 44
0.0000000001
 40
0.0
 40
0.0
 40
0.0
 40
0.0
 40
0.2457848012
 40
1.0
 40
1.0
 40
1.0
 40
1.0
 10
45.857778158
 20
47.5676543558
 30
0.0
 10
45.8743702374
 20
47.5501382529
 30
0.0
 10
45.9405325441
 20
47.4776073368
 30
0.0
 10
46.0014025727
 20
47.4002772321
 30
0.0
 10
46.0442045167
 20
47.339867565
 30
0.0
  0
SPLINE
  5
3B3
100
AcDbEntity
  8
0
100
AcDbSpline
 62
7
  6
BYLAYER
 70
0
 71
3
 72
9
 73
5
 74
0
 42
0.0000001
 43
0.0000001
 44
0.0000000001
 40
0.0
 40
0.0
 40
0.0
 40
0.0
 40
0.2538255534
 40
1.0
 40
1.0
 40
1.0
 40
1.0
 10
46.2511734939
 20
46.9814044014
 30
0.0
 10
46.2615820611
 20
46.9587582326
 30
0.0
 10
46.3010605068
 20
46.8688477903
 30
0.0
 10
46.3343974181
 20
46.7762130015
 30
0.0
 10
46.3552686913
 20
46.7059802592
 30
0.0
  0
SPLINE
  5
3B4
100
AcDbEntity
  8
0
100
AcDbSpline
 62
7
  6
BYLAYER
 70
0
 71
3
 72
9
 73
5
 74
0
 42
0.0000001
 43
0.0000001
 44
0.0000000001
 40
0.0
 40
0.0
 40
0.0
 40
0.0
 40
0.2573260865
 40
1.0
 40
1.0
 40
1.0
 40
1.0
 10
46.3552686913
 20
46.7059802592
 30
0.0
 10
46.3621187121
 20
46.6829296411
 30
0.0
 10
46.3870534406
 20
46.5928677735
 30
0.0
 10
46.4051678764
 20
46.5008571171
 30
0.0
 10
46.4139173533
 20
46.4320085882
 30
0.0
  0
SPLINE
  5
3B5
100
AcDbEntity
  8
0
100
AcDbSpline
 62
7
  6
BYLAYER
 70
0
 71
3
 72
9
 73
5
 74
0
 42
0.0000001
 43
0.0000001
 44
0.0000000001
 40
0.0
 40
0.0
 40
0.0
 40
0.0
 40
0.2444947162
 40
1.0
 40
1.0
 40
1.0
 40
1.0
 10
49.0415184144
 20
50.0560689831
 30
0.0
 10
49.0522515227
 20
50.0498723603
 30
0.0
 10
49.0958141604
 20
50.0239473758
 30
0.0
 10
49.1380377409
 20
49.9957880318
 30
0.0
 10
49.1691572838
 20
49.9734675211
 30
0.0
  0
SPLINE
  5
3B6
100
AcDbEntity
  8
0
100
AcDbSpline
 62
7
  6
BYLAYER
 70
0
 71
3
 72
15
 73
11
 74
0
 42
0.0000001
 43
0.0000001
 44
0.0000000001
 40
0.0
 40
0.0
 40
0.0
 40
0.0
 40
0.1171646068
 40
0.2408880771
 40
0.369259863
 40
0.5000140568
 40
0.6307684757
 40
0.759137295
 40
0.8828710072
 40
1.0
 40
1.0
 40
1.0
 40
1.0
 10
49.1691572838
 20
49.9734675211
 30
0.0
 10
49.2294517341
 20
49.9302212909
 30
0.0
 10
49.3476334428
 20
49.833060968
 30
0.0
 10
49.5107881776
 20
49.6649572262
 30
0.0
 10
49.6612614173
 20
49.474323882
 30
0.0
 10
49.7949525373
 20
49.2662921448
 30
0.0
 10
49.9082614611
 20
49.0464957953
 30
0.0
 10
49.9981233537
 20
48.8208618298
 30
0.0
 10
50.062104643
 20
48.5955261398
 30
0.0
 10
50.087165818
 20
48.4446160044
 30
0.0
 10
50.0944705766
 20
48.3707989935
 30
0.0
  0
SPLINE
  5
3B7
100
AcDbEntity
  8
0
100
AcDbSpline
 62
7
  6
BYLAYER
 70
0
 71
3
 72
9
 73
5
 74
0
 42
0.0000001
 43
0.0000001
 44
0.0000000001
 40
0.0
 40
0.0
 40
0.0
 40
0.0
 40
0.2552882458
 40
1.0
 40
1.0
 40
1.0
 40
1.0
 10
50.0944705766
 20
48.3707989935
 30
0.0
 10
50.0957448729
 20
48.3579218064
 30
0.0
 10
50.1001522784
 20
48.3074250056
 30
0.0
 10
50.102182729
 20
48.2567124714
 30
0.0
 10
50.1021830021
 20
48.2189644242
 30
0.0
  0
SPLINE
  5
3B8
100
AcDbEntity
  8
0
100
AcDbSpline
 62
7
  6
BYLAYER
 70
0
 71
3
 72
15
 73
11
 74
0
 42
0.0000001
 43
0.0000001
 44
0.0000000001
 40
0.0
 40
0.0
 40
0.0
 40
0.0
 40
0.1485924623
 40
0.2895042418
 40
0.4227196051
 40
0.5486413184
 40
0.6679995708
 40
0.7819371455
 40
0.8919867455
 40
1.0
 40
1.0
 40
1.0
 40
1.0
 10
11.0876515914
 20
33.5710592069
 30
0.0
 10
11.2336352018
 20
33.6553423805
 30
0.0
 10
11.5250457856
 20
33.8078998048
 30
0.0
 10
11.9695549376
 20
33.9898310506
 30
0.0
 10
12.4061431522
 20
34.1171013679
 30
0.0
 10
12.8306866175
 20
34.1883358624
 30
0.0
 10
13.2392443036
 20
34.202545146
 30
0.0
 10
13.6278664272
 20
34.1591975902
 30
0.0
 10
13.9924220643
 20
34.058396283
 30
0.0
 10
14.217729383
 20
33.9528939008
 30
0.0
 10
14.3238466823
 20
33.8916284399
 30
0.0
  0
SPLINE
  5
3B9
100
AcDbEntity
  8
0
100
AcDbSpline
 62
7
  6
BYLAYER
 70
0
 71
3
 72
23
 73
19
 74
0
 42
0.0000001
 43
0.0000001
 44
0.0000000001
 40
0.0
 40
0.0
 40
0.0
 40
0.0
 40
0.0558345048
 40
0.1141823374
 40
0.1747835038
 40
0.2373545223
 40
0.3015502048
 40
0.3669940159
 40
0.4332841729
 40
0.5000015971
 40
0.5667189655
 40
0.6330089561
 40
0.6984524935
 40
0.7626478006
 40
0.8252183497
 40
0.885818963
 40
0.9441661727
 40
1.0
 40
1.0
 40
1.0
 40
1.0
 10
6.5109207034
 20
25.8480087921
 30
0.0
 10
6.5109207034
 20
26.0182180701
 30
0.0
 10
6.5260427315
 20
26.3664252771
 30
0.0
 10
6.5901606276
 20
26.8958301778
 30
0.0
 10
6.6956548345
 20
27.4394886059
 30
0.0
 10
6.8414597929
 20
27.9921536338
 30
0.0
 10
7.0262142655
 20
28.5485956506
 30
0.0
 10
7.2481363233
 20
29.1034921158
 30
0.0
 10
7.5051019342
 20
29.6515436412
 30
0.0
 10
7.7946570052
 20
30.1875074344
 30
0.0
 10
8.114034956
 20
30.7062524916
 30
0.0
 10
8.4601755248
 20
31.2028173708
 30
0.0
 10
8.8297653966
 20
31.6724553667
 30
0.0
 10
9.2192772174
 20
32.1106773237
 30
0.0
 10
9.6249925356
 20
32.5132787867
 30
0.0
 10
10.043063038
 20
32.8764661035
 30
0.0
 10
10.4694775753
 20
33.1966930306
 30
0.0
 10
10.763469789
 20
33.3838901497
 30
0.0
 10
10.910873779
 20
33.468993375
 30
0.0
  0
SPLINE
  5
3BA
100
AcDbEntity
  8
0
100
AcDbSpline
 62
7
  6
BYLAYER
 70
0
 71
3
 72
15
 73
11
 74
0
 42
0.0000001
 43
0.0000001
 44
0.0000000001
 40
0.0
 40
0.0
 40
0.0
 40
0.0
 40
0.1080125016
 40
0.2180614641
 40
0.3319986113
 40
0.4513567042
 40
0.5772785473
 40
0.7104943145
 40
0.8514067285
 40
1.0
 40
1.0
 40
1.0
 40
1.0
 10
7.8514565014
 20
22.6808661846
 30
0.0
 10
7.7453357284
 20
22.7421336509
 30
0.0
 10
7.5413050732
 20
22.8845057133
 30
0.0
 10
7.2717184343
 20
23.1498255699
 30
0.0
 10
7.0398566782
 20
23.46471826
 30
0.0
 10
6.84787476
 20
23.8256574784
 30
0.0
 10
6.6972873163
 20
24.2289564266
 30
0.0
 10
6.5892081412
 20
24.6707069732
 30
0.0
 10
6.5245085378
 20
25.1466499057
 30
0.0
 10
6.5109220055
 20
25.4753123133
 30
0.0
 10
6.5109220055
 20
25.6438870263
 30
0.0
  0
SPLINE
  5
3BB
100
AcDbEntity
  8
0
100
AcDbSpline
 62
7
  6
BYLAYER
 70
0
 71
3
 72
15
 73
11
 74
0
 42
0.0000001
 43
0.0000001
 44
0.0000000001
 40
0.0
 40
0.0
 40
0.0
 40
0.0
 40
0.1080132545
 40
0.2180628545
 40
0.3320004292
 40
0.4513586816
 40
0.5772803949
 40
0.7104957582
 40
0.8514075377
 40
1.0
 40
1.0
 40
1.0
 40
1.0
 10
10.2202733175
 20
21.3132600975
 30
0.0
 10
10.3263906168
 20
21.2519946367
 30
0.0
 10
10.5516979355
 20
21.1464922544
 30
0.0
 10
10.9162535725
 20
21.0456909473
 30
0.0
 10
11.3048756961
 20
21.0023433914
 30
0.0
 10
11.7134333821
 20
21.0165526751
 30
0.0
 10
12.1379768474
 20
21.0877871694
 30
0.0
 10
12.5745650619
 20
21.2150574867
 30
0.0
 10
13.0190742138
 20
21.3969887325
 30
0.0
 10
13.3104847976
 20
21.5495461567
 30
0.0
 10
13.456468408
 20
21.6338293303
 30
0.0
  0
SPLINE
  5
3BC
100
AcDbEntity
  8
0
100
AcDbSpline
 62
7
  6
BYLAYER
 70
0
 71
3
 72
11
 73
7
 74
0
 42
0.0000001
 43
0.0000001
 44
0.0000000001
 40
0.0
 40
0.0
 40
0.0
 40
0.0
 40
0.2340156972
 40
0.4796308994
 40
0.7354882638
 40
1.0
 40
1.0
 40
1.0
 40
1.0
 10
13.6332462208
 20
21.7358951624
 30
0.0
 10
13.7984738364
 20
21.8312888013
 30
0.0
 10
14.1277527267
 20
22.043365343
 30
0.0
 10
14.6028710048
 20
22.4101943555
 30
0.0
 10
15.0663410544
 20
22.8296027588
 30
0.0
 10
15.3597580939
 20
23.1365843839
 30
0.0
 10
15.5034146302
 20
23.2974200709
 30
0.0
  0
SPLINE
  5
3BD
100
AcDbEntity
  8
0
100
AcDbSpline
 62
7
  6
BYLAYER
 70
0
 71
3
 72
11
 73
7
 74
0
 42
0.0000001
 43
0.0000001
 44
0.0000000001
 40
0.0
 40
0.0
 40
0.0
 40
0.0
 40
0.2260544902
 40
0.4673228687
 40
0.7252099819
 40
1.0
 40
1.0
 40
1.0
 40
1.0
 10
15.501827374
 20
32.8272160173
 30
0.0
 10
15.3389960017
 20
32.8271358078
 30
0.0
 10
15.0019742079
 20
32.7979141933
 30
0.0
 10
14.4923210849
 20
32.6764824714
 30
0.0
 10
13.9698095202
 20
32.4783468236
 30
0.0
 10
13.6278867259
 20
32.3024209413
 30
0.0
 10
13.4564684075
 20
32.2034531198
 30
0.0
  0
SPLINE
  5
3BE
100
AcDbEntity
  8
0
100
AcDbSpline
 62
7
  6
BYLAYER
 70
0
 71
3
 72
24
 73
20
 74
0
 42
0.0000001
 43
0.0000001
 44
0.0000000001
 40
0.0
 40
0.0
 40
0.0
 40
0.0
 40
0.074773349
 40
0.1457924387
 40
0.2130394323
 40
0.2453136306
 40
0.2767249337
 40
0.337121973
 40
0.3947791354
 40
0.4503998273
 40
0.5048423606
 40
0.559065219
 40
0.6140462185
 40
0.6706972424
 40
0.7297959641
 40
0.7919462711
 40
0.8575601839
 40
0.9268820052
 40
1.0
 40
1.0
 40
1.0
 40
1.0
 10
9.2332931452
 20
24.2762818872
 30
0.0
 10
9.2332931452
 20
24.118504986
 30
0.0
 10
9.2456869508
 20
23.8106669127
 30
0.0
 10
9.3045915243
 20
23.364373567
 30
0.0
 10
9.3877243112
 20
23.0134629643
 30
0.0
 10
9.4743543828
 20
22.7509625136
 30
0.0
 10
9.5711717236
 20
22.5075628376
 30
0.0
 10
9.7150789993
 20
22.2258096647
 30
0.0
 10
9.9264164838
 20
21.9248423196
 30
0.0
 10
10.1724589759
 20
21.6684149191
 30
0.0
 10
10.4509519191
 20
21.459357095
 30
0.0
 10
10.7590705312
 20
21.299973497
 30
0.0
 10
11.0935286366
 20
21.1918850659
 30
0.0
 10
11.4508179436
 20
21.1359632467
 30
0.0
 10
11.827395232
 20
21.1324247974
 30
0.0
 10
12.2197316158
 20
21.1809613459
 30
0.0
 10
12.6243332963
 20
21.2808385684
 30
0.0
 10
13.0376267252
 20
21.430988362
 30
0.0
 10
13.3094764282
 20
21.5603005327
 30
0.0
 10
13.4459048031
 20
21.6323480733
 30
0.0
  0
SPLINE
  5
3BF
100
AcDbEntity
  8
0
100
AcDbSpline
 62
7
  6
BYLAYER
 70
0
 71
3
 72
23
 73
19
 74
0
 42
0.0000001
 43
0.0000001
 44
0.0000000001
 40
0.0
 40
0.0
 40
0.0
 40
0.0
 40
0.0558338266
 40
0.1141810349
 40
0.1747816475
 40
0.2373521959
 40
0.3015475023
 40
0.3669910394
 40
0.4332810297
 40
0.499998398
 40
0.5667158223
 40
0.6330059796
 40
0.6984497911
 40
0.7626454743
 40
0.8252164935
 40
0.8858176606
 40
0.9441654945
 40
1.0
 40
1.0
 40
1.0
 40
1.0
 10
13.6332462208
 20
31.8972664701
 30
0.0
 10
13.4858422326
 20
31.8121632458
 30
0.0
 10
13.1918500235
 20
31.6249661308
 30
0.0
 10
12.765435493
 20
31.3047392089
 30
0.0
 10
12.347364996
 20
30.9415518988
 30
0.0
 10
11.9416496808
 20
30.5389504418
 30
0.0
 10
11.5521378618
 20
30.1007284905
 30
0.0
 10
11.1825479908
 20
29.631090499
 30
0.0
 10
10.8364074219
 20
29.1345256228
 30
0.0
 10
10.5170294691
 20
28.6157805678
 30
0.0
 10
10.2274743952
 20
28.0798167752
 30
0.0
 10
9.9705087816
 20
27.5317652484
 30
0.0
 10
9.7485867205
 20
26.9768687802
 30
0.0
 10
9.5638322439
 20
26.4204267591
 30
0.0
 10
9.4180272818
 20
25.8677617256
 30
0.0
 10
9.3125330718
 20
25.3241032893
 30
0.0
 10
9.2484151746
 20
24.7946983803
 30
0.0
 10
9.2332931452
 20
24.4464911672
 30
0.0
 10
9.2332931452
 20
24.2762818872
 30
0.0
  0
SPLINE
  5
3C0
100
AcDbEntity
  8
0
100
AcDbSpline
 62
7
  6
BYLAYER
 70
0
 71
3
 72
11
 73
7
 74
0
 42
0.0000001
 43
0.0000001
 44
0.0000000001
 40
0.0
 40
0.0
 40
0.0
 40
0.0
 40
0.2272092372
 40
0.4690168528
 40
0.7265605326
 40
1.0
 40
1.0
 40
1.0
 40
1.0
 10
15.5034151374
 20
32.4952131581
 30
0.0
 10
15.3534335113
 20
32.4899475169
 30
0.0
 10
15.0443691375
 20
32.4543902946
 30
0.0
 10
14.5783522717
 20
32.3347637955
 30
0.0
 10
14.1017316117
 20
32.1490971181
 30
0.0
 10
13.7896589331
 20
31.9875708526
 30
0.0
 10
13.6332462208
 20
31.8972664701
 30
0.0
  0
SPLINE
  5
3C1
100
AcDbEntity
  8
0
100
AcDbSpline
 62
7
  6
BYLAYER
 70
0
 71
3
 72
23
 73
19
 74
0
 42
0.0000001
 43
0.0000001
 44
0.0000000001
 40
0.0
 40
0.0
 40
0.0
 40
0.0
 40
0.0564058547
 40
0.1151130707
 40
0.1758910275
 40
0.2384666626
 40
0.3025201714
 40
0.3677069348
 40
0.4336607316
 40
0.5000014508
 40
0.5663421197
 40
0.632295767
 40
0.697482284
 40
0.7615354543
 40
0.8241106649
 40
0.88488812
 40
0.9435947672
 40
1.0
 40
1.0
 40
1.0
 40
1.0
 10
6.5138893167
 20
25.8357234507
 30
0.0
 10
6.5191488139
 20
26.0072920706
 30
0.0
 10
6.5438421195
 20
26.3571146033
 30
0.0
 10
6.619748121
 20
26.8873616115
 30
0.0
 10
6.7346066531
 20
27.4297538804
 30
0.0
 10
6.8873923081
 20
27.9795685305
 30
0.0
 10
7.0768024351
 20
28.5320462501
 30
0.0
 10
7.3011762467
 20
29.082370723
 30
0.0
 10
7.5585531353
 20
29.6257552285
 30
0.0
 10
7.8466937616
 20
30.1574631967
 30
0.0
 10
8.1630929148
 20
30.6728556784
 30
0.0
 10
8.5049857795
 20
31.1674436107
 30
0.0
 10
8.8693900667
 20
31.6369193777
 30
0.0
 10
9.2531406922
 20
32.0771916824
 30
0.0
 10
9.6528970339
 20
32.4844140889
 30
0.0
 10
10.0651887716
 20
32.8550788229
 30
0.0
 10
10.4864385166
 20
33.1859364324
 30
0.0
 10
10.7770440131
 20
33.382230796
 30
0.0
 10
10.9229954971
 20
33.4725688736
 30
0.0
  0
SPLINE
  5
3C2
100
AcDbEntity
  8
0
100
AcDbSpline
 62
7
  6
BYLAYER
 70
0
 71
3
 72
15
 73
11
 74
0
 42
0.0000001
 43
0.0000001
 44
0.0000000001
 40
0.0
 40
0.0
 40
0.0
 40
0.0
 40
0.1485932715
 40
0.2895056855
 40
0.4227214527
 40
0.5486432958
 40
0.6680013887
 40
0.7819385359
 40
0.8919874984
 40
1.0
 40
1.0
 40
1.0
 40
1.0
 10
8.8797388216
 20
24.2762809393
 30
0.0
 10
8.8797388216
 20
24.1077062262
 30
0.0
 10
8.8933253539
 20
23.7790438186
 30
0.0
 10
8.9580249573
 20
23.3031008861
 30
0.0
 10
9.0661041323
 20
22.8613503395
 30
0.0
 10
9.2166915761
 20
22.4580513913
 30
0.0
 10
9.4086734943
 20
22.097112173
 30
0.0
 10
9.6405352504
 20
21.7822194829
 30
0.0
 10
9.9101218893
 20
21.5168996263
 30
0.0
 10
10.1141525445
 20
21.3745275639
 30
0.0
 10
10.2202733175
 20
21.3132600975
 30
0.0
  0
SPLINE
  5
3C3
100
AcDbEntity
  8
0
100
AcDbSpline
 62
7
  6
BYLAYER
 70
0
 71
3
 72
23
 73
19
 74
0
 42
0.0000001
 43
0.0000001
 44
0.0000000001
 40
0.0
 40
0.0
 40
0.0
 40
0.0
 40
0.0558337662
 40
0.1141808696
 40
0.1747814546
 40
0.2373519962
 40
0.3015473215
 40
0.3669909056
 40
0.4332809595
 40
0.4999984004
 40
0.5667158973
 40
0.6330061178
 40
0.6984499761
 40
0.7626456774
 40
0.8252166891
 40
0.8858178279
 40
0.9441655556
 40
1.0
 40
1.0
 40
1.0
 40
1.0
 10
13.4564684075
 20
32.2034531198
 30
0.0
 10
13.3031423367
 20
32.1149308
 30
0.0
 10
12.9973387595
 20
31.920213097
 30
0.0
 10
12.5537925506
 20
31.5871209441
 30
0.0
 10
12.1189253196
 20
31.2093424494
 30
0.0
 10
11.6969093354
 20
30.7905659974
 30
0.0
 10
11.2917477266
 20
30.3347376899
 30
0.0
 10
10.9073084071
 20
29.8462308796
 30
0.0
 10
10.5472604885
 20
29.3297151348
 30
0.0
 10
10.215050481
 20
28.7901279379
 30
0.0
 10
9.9138617074
 20
28.2326301143
 30
0.0
 10
9.6465718888
 20
27.6625589336
 30
0.0
 10
9.4157337366
 20
27.0853679285
 30
0.0
 10
9.2235566459
 20
26.506569461
 30
0.0
 10
9.0718940844
 20
25.9316999602
 30
0.0
 10
8.9621619073
 20
25.3661993364
 30
0.0
 10
8.895468213
 20
24.8155251256
 30
0.0
 10
8.8797388216
 20
24.453328522
 30
0.0
 10
8.8797388216
 20
24.2762809393
 30
0.0
  0
SPLINE
  5
3C4
100
AcDbEntity
  8
0
100
AcDbSpline
 62
7
  6
BYLAYER
 70
0
 71
3
 72
23
 73
19
 74
0
 42
0.0000001
 43
0.0000001
 44
0.0000000001
 40
0.0
 40
0.0
 40
0.0
 40
0.0
 40
0.1557639584
 40
0.2328458239
 40
0.3085844355
 40
0.3824165789
 40
0.4538400536
 40
0.5224048325
 40
0.5877599711
 40
0.649657807
 40
0.7079890816
 40
0.7628022588
 40
0.7889693273
 40
0.8143623612
 40
0.8630614143
 40
0.9096202168
 40
0.9549289438
 40
1.0
 40
1.0
 40
1.0
 40
1.0
 10
11.9444750608
 20
29.1527998497
 30
0.0
 10
11.7249765755
 20
28.8121155954
 30
0.0
 10
11.4282730391
 20
28.2814868713
 30
0.0
 10
11.1045252596
 20
27.5463603659
 30
0.0
 10
10.9022511233
 20
26.9919250548
 30
0.0
 10
10.7422012538
 20
26.4391856226
 30
0.0
 10
10.6259946194
 20
25.8946046168
 30
0.0
 10
10.5553272556
 20
25.3644412942
 30
0.0
 10
10.5308352827
 20
24.8548785078
 30
0.0
 10
10.5529576042
 20
24.3717250821
 30
0.0
 10
10.6214411561
 20
23.9205640025
 30
0.0
 10
10.7181272029
 20
23.5701119305
 30
0.0
 10
10.8188232371
 20
23.3120805756
 30
0.0
 10
10.9309416844
 20
23.0763459454
 30
0.0
 10
11.097608845
 20
22.8086359206
 30
0.0
 10
11.3417055569
 20
22.5337343001
 30
0.0
 10
11.6244555924
 20
22.3136475523
 30
0.0
 10
11.8354979325
 20
22.2062372452
 30
0.0
 10
11.9444750608
 20
22.1629287166
 30
0.0
  0
SPLINE
  5
3C5
100
AcDbEntity
  8
0
100
AcDbSpline
 62
7
  6
BYLAYER
 70
0
 71
3
 72
9
 73
5
 74
0
 42
0.0000001
 43
0.0000001
 44
0.0000000001
 40
0.0
 40
0.0
 40
0.0
 40
0.0
 40
0.2539851683
 40
1.0
 40
1.0
 40
1.0
 40
1.0
 10
13.8045605735
 20
24.8295550204
 30
0.0
 10
13.8025397181
 20
24.8083753519
 30
0.0
 10
13.7955288665
 20
24.7248995829
 30
0.0
 10
13.7923613854
 20
24.6410919418
 30
0.0
 10
13.7923613854
 20
24.5785996825
 30
0.0
  0
SPLINE
  5
3C6
100
AcDbEntity
  8
0
100
AcDbSpline
 62
7
  6
BYLAYER
 70
0
 71
3
 72
13
 73
9
 74
0
 42
0.0000001
 43
0.0000001
 44
0.0000000001
 40
0.0
 40
0.0
 40
0.0
 40
0.0
 40
0.1147113164
 40
0.2305518978
 40
0.3485846208
 40
0.4697756419
 40
0.7244865285
 40
1.0
 40
1.0
 40
1.0
 40
1.0
 10
8.02919947
 20
30.6838504794
 30
0.0
 10
7.9730006991
 20
30.6514037337
 30
0.0
 10
7.8639359715
 20
30.5791875327
 30
0.0
 10
7.7135104763
 20
30.4509923333
 30
0.0
 10
7.5766693996
 20
30.3033289609
 30
0.0
 10
7.4105924514
 20
30.077984423
 30
0.0
 10
7.2411641471
 20
29.7478055703
 30
0.0
 10
7.1545109643
 20
29.4590186353
 30
0.0
 10
7.120850988
 20
29.3068369332
 30
0.0
  0
SPLINE
  5
3C7
100
AcDbEntity
  8
0
100
AcDbSpline
 62
7
  6
BYLAYER
 70
0
 71
3
 72
11
 73
7
 74
0
 42
0.0000001
 43
0.0000001
 44
0.0000000001
 40
0.0
 40
0.0
 40
0.0
 40
0.0
 40
0.2330583739
 40
0.4735113922
 40
0.7276086779
 40
1.0
 40
1.0
 40
1.0
 40
1.0
 10
14.1030261086
 20
24.8133250627
 30
0.0
 10
14.070818323
 20
24.8319122434
 30
0.0
 10
14.0094666369
 20
24.8772521467
 30
0.0
 10
13.9326789903
 20
24.9653968742
 30
0.0
 10
13.8716509094
 20
25.0722628142
 30
0.0
 10
13.8430653165
 20
25.1517015136
 30
0.0
 10
13.8313248155
 20
25.1935479844
 30
0.0
  0
SPLINE
  5
3C8
100
AcDbEntity
  8
0
100
AcDbSpline
 62
7
  6
BYLAYER
 70
0
 71
3
 72
15
 73
11
 74
0
 42
0.0000001
 43
0.0000001
 44
0.0000000001
 40
0.0
 40
0.0
 40
0.0
 40
0.0
 40
0.1115355252
 40
0.2276506541
 40
0.3488720763
 40
0.4752469671
 40
0.6061496742
 40
0.7399090085
 40
0.873132415
 40
1.0
 40
1.0
 40
1.0
 40
1.0
 10
15.3033568814
 20
27.5971330946
 30
0.0
 10
15.198564029
 20
27.536632503
 30
0.0
 10
14.9955288986
 20
27.3935122508
 30
0.0
 10
14.7245394842
 20
27.1273155315
 30
0.0
 10
14.4843712081
 20
26.8127682993
 30
0.0
 10
14.2763739064
 20
26.4577105916
 30
0.0
 10
14.1013120564
 20
26.0705314579
 30
0.0
 10
13.9609091462
 20
25.6617026144
 30
0.0
 10
13.8585551391
 20
25.2463238425
 30
0.0
 10
13.816797787
 20
24.9666470783
 30
0.0
 10
13.8045605735
 20
24.8295550204
 30
0.0
  0
SPLINE
  5
3C9
100
AcDbEntity
  8
0
100
AcDbSpline
 62
7
  6
BYLAYER
 70
0
 71
3
 72
11
 73
7
 74
0
 42
0.0000001
 43
0.0000001
 44
0.0000000001
 40
0.0
 40
0.0
 40
0.0
 40
0.0
 40
0.2789204725
 40
0.5347070073
 40
0.7723910469
 40
1.0
 40
1.0
 40
1.0
 40
1.0
 10
15.0370938022
 20
27.4248069135
 30
0.0
 10
15.0879501336
 20
27.4438126924
 30
0.0
 10
15.1884835221
 20
27.4729842125
 30
0.0
 10
15.3392339849
 20
27.4869744719
 30
0.0
 10
15.479677069
 20
27.4683847944
 30
0.0
 10
15.5646224379
 20
27.4335507864
 30
0.0
 10
15.6029948848
 20
27.4114059667
 30
0.0
  0
SPLINE
  5
3CA
100
AcDbEntity
  8
0
100
AcDbSpline
 62
7
  6
BYLAYER
 70
0
 71
3
 72
15
 73
11
 74
0
 42
0.0000001
 43
0.0000001
 44
0.0000000001
 40
0.0
 40
0.0
 40
0.0
 40
0.0
 40
0.1098704495
 40
0.2215089112
 40
0.3365333284
 40
0.4563142063
 40
0.581929464
 40
0.7141726199
 40
0.8535280233
 40
1.0
 40
1.0
 40
1.0
 40
1.0
 10
12.8191788421
 20
22.3873133165
 30
0.0
 10
12.8914048388
 20
22.4290115642
 30
0.0
 10
13.0306098126
 20
22.5247498117
 30
0.0
 10
13.2169462752
 20
22.7008476886
 30
0.0
 10
13.379949508
 20
22.9083609734
 30
0.0
 10
13.5183798513
 20
23.1452400536
 30
0.0
 10
13.6312164925
 20
23.409485922
 30
0.0
 10
13.7177514661
 20
23.6989204229
 30
0.0
 10
13.7772868551
 20
24.011111862
 30
0.0
 10
13.7983156333
 20
24.2273743535
 30
0.0
 10
13.8045605735
 20
24.3383803927
 30
0.0
  0
SPLINE
  5
3CB
100
AcDbEntity
  8
0
100
AcDbSpline
 62
7
  6
BYLAYER
 70
0
 71
3
 72
15
 73
11
 74
0
 42
0.0000001
 43
0.0000001
 44
0.0000000001
 40
0.0
 40
0.0
 40
0.0
 40
0.0
 40
0.1129586704
 40
0.2318373465
 40
0.3555248854
 40
0.4828358083
 40
0.6123929384
 40
0.7427371749
 40
0.8724497769
 40
1.0
 40
1.0
 40
1.0
 40
1.0
 10
13.8045605735
 20
24.8295550204
 30
0.0
 10
13.795056443
 20
25.0094685054
 30
0.0
 10
13.7554280833
 20
25.3778528894
 30
0.0
 10
13.6418393678
 20
25.9341309189
 30
0.0
 10
13.4742472594
 20
26.5004877618
 30
0.0
 10
13.2555728477
 20
27.0673626095
 30
0.0
 10
12.989397655
 20
27.6253010813
 30
0.0
 10
12.6802216277
 20
28.1650273386
 30
0.0
 10
12.333221735
 20
28.6773481751
 30
0.0
 10
12.077482424
 20
28.9988655802
 30
0.0
 10
11.9444750608
 20
29.1527998497
 30
0.0
  0
SPLINE
  5
3CC
100
AcDbEntity
  8
0
100
AcDbSpline
 62
7
  6
BYLAYER
 70
0
 71
3
 72
15
 73
11
 74
0
 42
0.0000001
 43
0.0000001
 44
0.0000000001
 40
0.0
 40
0.0
 40
0.0
 40
0.0
 40
0.119743547
 40
0.2399523667
 40
0.3615354946
 40
0.4848445108
 40
0.6100438975
 40
0.7373468044
 40
0.8671386807
 40
1.0
 40
1.0
 40
1.0
 40
1.0
 10
17.290920328
 20
27.3909014026
 30
0.0
 10
17.2359675549
 20
27.4573794864
 30
0.0
 10
17.1090106259
 20
27.5773851323
 30
0.0
 10
16.8841148355
 20
27.7119656392
 30
0.0
 10
16.6355309152
 20
27.8021745244
 30
0.0
 10
16.3717877363
 20
27.8486795125
 30
0.0
 10
16.0999600659
 20
27.8518264617
 30
0.0
 10
15.8264138185
 20
27.8115566168
 30
0.0
 10
15.5571400771
 20
27.7280045781
 30
0.0
 10
15.3862352851
 20
27.6449817058
 30
0.0
 10
15.3033568814
 20
27.5971330946
 30
0.0
  0
SPLINE
  5
3CD
100
AcDbEntity
  8
0
100
AcDbSpline
 62
7
  6
BYLAYER
 70
0
 71
3
 72
30
 73
26
 74
0
 42
0.0000001
 43
0.0000001
 44
0.0000000001
 40
0.0
 40
0.0
 40
0.0
 40
0.0
 40
0.0286393547
 40
0.0541862405
 40
0.0768691723
 40
0.0971228575
 40
0.1155572657
 40
0.1329061749
 40
0.1499403564
 40
0.1673672346
 40
0.1857583687
 40
0.2055288504
 40
0.226955994
 40
0.2502116322
 40
0.2753885827
 40
0.3025214195
 40
0.3625569257
 40
0.4298042146
 40
0.5032715343
 40
0.5816797831
 40
0.6636402357
 40
0.747783504
 40
0.8327930002
 40
0.9173439777
 40
1.0
 40
1.0
 40
1.0
 40
1.0
 10
13.8045605735
 20
24.3383803927
 30
0.0
 10
13.8095811443
 20
24.2942481126
 30
0.0
 10
13.8224041365
 20
24.2110545533
 30
0.0
 10
13.8525184983
 20
24.0954522667
 30
0.0
 10
13.8920218543
 20
23.9964971643
 30
0.0
 10
13.9405512106
 20
23.9141071904
 30
0.0
 10
13.9977710815
 20
23.847977978
 30
0.0
 10
14.0632123401
 20
23.7977341846
 30
0.0
 10
14.1361840836
 20
23.7627942516
 30
0.0
 10
14.2159901219
 20
23.742211372
 30
0.0
 10
14.3022188115
 20
23.7348514716
 30
0.0
 10
14.3947400274
 20
23.7396691749
 30
0.0
 10
14.4935510414
 20
23.755797149
 30
0.0
 10
14.59865771
 20
23.7825333555
 30
0.0
 10
14.7100233451
 20
23.8192770376
 30
0.0
 10
14.8722229092
 20
23.8831095193
 30
0.0
 10
15.0886411488
 20
23.9862886265
 30
0.0
 10
15.3607601006
 20
24.1378534647
 30
0.0
 10
15.648948385
 20
24.3182170327
 30
0.0
 10
15.9471200725
 20
24.5248808163
 30
0.0
 10
16.2479512577
 20
24.756042441
 30
0.0
 10
16.5430729079
 20
25.0105310952
 30
0.0
 10
16.8229842177
 20
25.2876373128
 30
0.0
 10
17.0763989934
 20
25.5863315402
 30
0.0
 10
17.2213183605
 20
25.802481322
 30
0.0
 10
17.2843858201
 20
25.9140860048
 30
0.0
  0
SPLINE
  5
3CE
100
AcDbEntity
  8
0
100
AcDbSpline
 62
7
  6
BYLAYER
 70
0
 71
3
 72
9
 73
5
 74
0
 42
0.0000001
 43
0.0000001
 44
0.0000000001
 40
0.0
 40
0.0
 40
0.0
 40
0.0
 40
0.2542313643
 40
1.0
 40
1.0
 40
1.0
 40
1.0
 10
13.7923613854
 20
24.5785996825
 30
0.0
 10
13.7923613854
 20
24.5582112699
 30
0.0
 10
13.7933507117
 20
24.4780193943
 30
0.0
 10
13.7983643796
 20
24.3978664379
 30
0.0
 10
13.8045605735
 20
24.3383803927
 30
0.0
  0
SPLINE
  5
3CF
100
AcDbEntity
  8
0
100
AcDbSpline
 62
7
  6
BYLAYER
 70
0
 71
3
 72
9
 73
5
 74
0
 42
0.0000001
 43
0.0000001
 44
0.0000000001
 40
0.0
 40
0.0
 40
0.0
 40
0.0
 40
0.5203738276
 40
1.0
 40
1.0
 40
1.0
 40
1.0
 10
16.6204710061
 20
34.6562362801
 30
0.0
 10
16.4675902113
 20
34.7126582741
 30
0.0
 10
16.1653927486
 20
34.8002215668
 30
0.0
 10
15.8516999531
 20
34.8332063694
 30
0.0
 10
15.7015009514
 20
34.8328065346
 30
0.0
  0
SPLINE
  5
3D0
100
AcDbEntity
  8
0
100
AcDbSpline
 62
7
  6
BYLAYER
 70
0
 71
3
 72
11
 73
7
 74
0
 42
0.0000001
 43
0.0000001
 44
0.0000000001
 40
0.0
 40
0.0
 40
0.0
 40
0.0
 40
0.261014391
 40
0.5131652856
 40
0.7586028844
 40
1.0
 40
1.0
 40
1.0
 40
1.0
 10
40.0951121665
 20
54.360080066
 30
0.0
 10
39.8798985086
 20
54.389413904
 30
0.0
 10
39.4527652817
 20
54.4220043816
 30
0.0
 10
38.8205343742
 20
54.3854319664
 30
0.0
 10
38.2160554712
 20
54.260896448
 30
0.0
 10
37.8348168712
 20
54.1180544041
 30
0.0
 10
37.6529773637
 20
54.0326917891
 30
0.0
  0
SPLINE
  5
3D1
100
AcDbEntity
  8
0
100
AcDbSpline
 62
7
  6
BYLAYER
 70
0
 71
3
 72
11
 73
7
 74
0
 42
0.0000001
 43
0.0000001
 44
0.0000000001
 40
0.0
 40
0.0
 40
0.0
 40
0.0
 40
0.2413970646
 40
0.4868347603
 40
0.7389858216
 40
1.0
 40
1.0
 40
1.0
 40
1.0
 10
47.851921726
 20
36.3677198241
 30
0.0
 10
48.0167574336
 20
36.4825150466
 30
0.0
 10
48.3310621148
 20
36.7412510472
 30
0.0
 10
48.741128306
 20
37.2024618238
 30
0.0
 10
49.0888985856
 20
37.7316812229
 30
0.0
 10
49.2742335542
 20
38.1178668241
 30
0.0
 10
49.3564338276
 20
38.3189046514
 30
0.0
  0
SPLINE
  5
3D2
100
AcDbEntity
  8
0
100
AcDbSpline
 62
7
  6
BYLAYER
 70
0
 71
3
 72
15
 73
11
 74
0
 42
0.0000001
 43
0.0000001
 44
0.0000000001
 40
0.0
 40
0.0
 40
0.0
 40
0.0
 40
0.1042458812
 40
0.2146490789
 40
0.3315518504
 40
0.4549270936
 40
0.5843277537
 40
0.7190051532
 40
0.8579578519
 40
1.0
 40
1.0
 40
1.0
 40
1.0
 10
49.6763435898
 20
39.1013103648
 30
0.0
 10
49.7833847599
 20
39.3631017603
 30
0.0
 10
49.9599252347
 20
39.9207668347
 30
0.0
 10
50.1109142053
 20
40.8098698164
 30
0.0
 10
50.1563656476
 20
41.7622852049
 30
0.0
 10
50.0978298259
 20
42.7652062851
 30
0.0
 10
49.9373569635
 20
43.8055249821
 30
0.0
 10
49.678014265
 20
44.8690822207
 30
0.0
 10
49.3239766705
 20
45.9409664299
 30
0.0
 10
49.030636762
 20
46.6455292856
 30
0.0
 10
48.8697525265
 20
46.9957147315
 30
0.0
  0
SPLINE
  5
3D3
100
AcDbEntity
  8
0
100
AcDbSpline
 62
7
  6
BYLAYER
 70
0
 71
3
 72
12
 73
8
 74
0
 42
0.0000001
 43
0.0000001
 44
0.0000000001
 40
0.0
 40
0.0
 40
0.0
 40
0.0
 40
0.2654767777
 40
0.5227417353
 40
0.7683850048
 40
0.8861153351
 40
1.0
 40
1.0
 40
1.0
 40
1.0
 10
47.3642256883
 20
49.6027852943
 30
0.0
 10
47.080377961
 20
50.0031641702
 30
0.0
 10
46.4847250924
 20
50.7663676866
 30
0.0
 10
45.5043804074
 20
51.7974090403
 30
0.0
 10
44.6283542336
 20
52.5426186699
 30
0.0
 10
43.9069903086
 20
53.0514585314
 30
0.0
 10
43.5417457923
 20
53.2756702434
 30
0.0
 10
43.3585631107
 20
53.3794526052
 30
0.0
  0
SPLINE
  5
3D4
100
AcDbEntity
  8
0
100
AcDbSpline
 62
7
  6
BYLAYER
 70
0
 71
3
 72
11
 73
7
 74
0
 42
0.0000001
 43
0.0000001
 44
0.0000000001
 40
0.0
 40
0.0
 40
0.0
 40
0.0
 40
0.2297833224
 40
0.4742500625
 40
0.731872076
 40
1.0
 40
1.0
 40
1.0
 40
1.0
 10
49.8862032286
 20
44.0032142846
 30
0.0
 10
49.9141769904
 20
44.2574177199
 30
0.0
 10
49.930040841
 20
44.7871631202
 30
0.0
 10
49.8471193627
 20
45.5993601242
 30
0.0
 10
49.6625093697
 20
46.4381695118
 30
0.0
 10
49.4778441597
 20
46.9945952204
 30
0.0
 10
49.3704703924
 20
47.2730222683
 30
0.0
  0
SPLINE
  5
3D5
100
AcDbEntity
  8
0
100
AcDbSpline
 62
7
  6
BYLAYER
 70
0
 71
3
 72
11
 73
7
 74
0
 42
0.0000001
 43
0.0000001
 44
0.0000000001
 40
0.0
 40
0.0
 40
0.0
 40
0.0
 40
0.267327113
 40
0.5246129272
 40
0.7693486062
 40
1.0
 40
1.0
 40
1.0
 40
1.0
 10
47.8564142516
 20
49.8953678988
 30
0.0
 10
47.6749131913
 20
50.1202027361
 30
0.0
 10
47.2980774448
 20
50.5453005134
 30
0.0
 10
46.6858442736
 20
51.1102801629
 30
0.0
 10
46.0468639182
 20
51.580961906
 30
0.0
 10
45.5965462477
 20
51.8323747278
 30
0.0
 10
45.370328078
 20
51.9371631475
 30
0.0
  0
SPLINE
  5
3D6
100
AcDbEntity
  8
0
100
AcDbSpline
 62
7
  6
BYLAYER
 70
0
 71
3
 72
9
 73
5
 74
0
 42
0.0000001
 43
0.0000001
 44
0.0000000001
 40
0.0
 40
0.0
 40
0.0
 40
0.0
 40
0.2663221427
 40
1.0
 40
1.0
 40
1.0
 40
1.0
 10
43.3585631107
 20
53.3794526052
 30
0.0
 10
43.158960006
 20
53.4925379768
 30
0.0
 10
42.3943917981
 20
53.8881607208
 30
0.0
 10
41.5588545611
 20
54.160570506
 30
0.0
 10
40.9326496813
 20
54.2459228607
 30
0.0
  0
LINE
  5
3D7
100
AcDbEntity
  8
0
100
AcDbLine
 62
7
  6
BYLAYER
 10
40.9886328395
 20
54.2340510212
 11
41.8455082099
 21
54.5080781478
  0
SPLINE
  5
3D8
100
AcDbEntity
  8
0
100
AcDbSpline
 62
7
  6
BYLAYER
 70
0
 71
3
 72
13
 73
9
 74
0
 42
0.0000001
 43
0.0000001
 44
0.0000000001
 40
0.0
 40
0.0
 40
0.0
 40
0.0
 40
0.1125767342
 40
0.2283609295
 40
0.3480079423
 40
0.4719816016
 40
0.7309587548
 40
1.0
 40
1.0
 40
1.0
 40
1.0
 10
41.8455082099
 20
54.5080781478
 30
0.0
 10
41.8685629892
 20
54.5154502176
 30
0.0
 10
41.917086442
 20
54.5253526223
 30
0.0
 10
41.9923701554
 20
54.5251982301
 30
0.0
 10
42.0686468276
 20
54.5102427649
 30
0.0
 10
42.1698101921
 20
54.4709181874
 30
0.0
 10
42.2859704941
 20
54.3882614384
 30
0.0
 10
42.3567430484
 20
54.297305161
 30
0.0
 10
42.3856660098
 20
54.2472094005
 30
0.0
  0
LINE
  5
3D9
100
AcDbEntity
  8
0
100
AcDbLine
 62
7
  6
BYLAYER
 10
50.3598743279
 20
39.7608453025
 11
49.7268145633
 21
39.1854989081
  0
SPLINE
  5
3DA
100
AcDbEntity
  8
0
100
AcDbSpline
 62
7
  6
BYLAYER
 70
0
 71
3
 72
13
 73
9
 74
0
 42
0.0000001
 43
0.0000001
 44
0.0000000001
 40
0.0
 40
0.0
 40
0.0
 40
0.0
 40
0.2690388694
 40
0.5280184282
 40
0.6519934527
 40
0.7716411708
 40
0.8874242008
 40
1.0
 40
1.0
 40
1.0
 40
1.0
 10
50.4040326645
 20
40.359068057
 30
0.0
 10
50.4329553081
 20
40.308972847
 30
0.0
 10
50.4763401738
 20
40.2022044746
 30
0.0
 10
50.4898437854
 20
40.060278351
 30
0.0
 10
50.4733183112
 20
39.9530051981
 30
0.0
 10
50.4481312734
 20
39.8794701015
 30
0.0
 10
50.4106236241
 20
39.81419552
 30
0.0
 10
50.3777860067
 20
39.7771250373
 30
0.0
 10
50.3598743279
 20
39.7608453025
 30
0.0
  0
SPLINE
  5
3DB
100
AcDbEntity
  8
0
100
AcDbSpline
 62
7
  6
BYLAYER
 70
0
 71
3
 72
9
 73
5
 74
0
 42
0.0000001
 43
0.0000001
 44
0.0000000001
 40
0.0
 40
0.0
 40
0.0
 40
0.0
 40
0.516788194
 40
1.0
 40
1.0
 40
1.0
 40
1.0
 10
42.6094447742
 20
53.4535453545
 30
0.0
 10
42.3273913329
 20
53.6143261428
 30
0.0
 10
41.7651708345
 20
53.8978057197
 30
0.0
 10
41.1724334632
 20
54.1120488262
 30
0.0
 10
40.8803041184
 20
54.194592446
 30
0.0
  0
SPLINE
  5
3DC
100
AcDbEntity
  8
0
100
AcDbSpline
 62
7
  6
BYLAYER
 70
0
 71
3
 72
9
 73
5
 74
0
 42
0.0000001
 43
0.0000001
 44
0.0000000001
 40
0.0
 40
0.0
 40
0.0
 40
0.0
 40
0.2562922003
 40
1.0
 40
1.0
 40
1.0
 40
1.0
 10
40.8803041184
 20
54.194592446
 30
0.0
 10
40.8143049007
 20
54.2132410838
 30
0.0
 10
40.5556392395
 20
54.2818249813
 30
0.0
 10
40.2923095993
 20
54.3331844695
 30
0.0
 10
40.09511782
 20
54.3600597107
 30
0.0
  0
SPLINE
  5
3DD
100
AcDbEntity
  8
0
100
AcDbSpline
 62
7
  6
BYLAYER
 70
0
 71
3
 72
11
 73
7
 74
0
 42
0.0000001
 43
0.0000001
 44
0.0000000001
 40
0.0
 40
0.0
 40
0.0
 40
0.0
 40
0.2364834464
 40
0.4796975973
 40
0.7332132586
 40
1.0
 40
1.0
 40
1.0
 40
1.0
 10
37.6517794612
 20
54.0313314268
 30
0.0
 10
37.8290051719
 20
54.1133042464
 30
0.0
 10
38.2034944076
 20
54.2489011463
 30
0.0
 10
38.8011501411
 20
54.3597156919
 30
0.0
 10
39.4334750209
 20
54.3792335996
 30
0.0
 10
39.8620202711
 20
54.3329032168
 30
0.0
 10
40.0792114251
 20
54.2961031475
 30
0.0
  0
SPLINE
  5
3DE
100
AcDbEntity
  8
0
100
AcDbSpline
 62
7
  6
BYLAYER
 70
0
 71
3
 72
10
 73
6
 74
0
 42
0.0000001
 43
0.0000001
 44
0.0000000001
 40
0.0
 40
0.0
 40
0.0
 40
0.0
 40
0.4763234555
 40
0.7323448954
 40
1.0
 40
1.0
 40
1.0
 40
1.0
 10
40.0792114251
 20
54.2961031475
 30
0.0
 10
40.4754050687
 20
54.2289735553
 30
0.0
 10
41.0744109536
 20
54.0585796365
 30
0.0
 10
41.8505023895
 20
53.7269590962
 30
0.0
 10
42.242371693
 20
53.5216745834
 30
0.0
 10
42.4385400138
 20
53.4098514583
 30
0.0
  0
SPLINE
  5
3DF
100
AcDbEntity
  8
0
100
AcDbSpline
 62
7
  6
BYLAYER
 70
0
 71
3
 72
13
 73
9
 74
0
 42
0.0000001
 43
0.0000001
 44
0.0000000001
 40
0.0
 40
0.0
 40
0.0
 40
0.0
 40
0.1129222539
 40
0.2300854923
 40
0.3511132776
 40
0.4756603744
 40
0.7335547525
 40
1.0
 40
1.0
 40
1.0
 40
1.0
 10
42.4841949384
 20
53.383659824
 30
0.0
 10
42.6795216885
 20
53.2708904234
 30
0.0
 10
43.0695350825
 20
53.0270653177
 30
0.0
 10
43.6396862528
 20
52.6180314007
 30
0.0
 10
44.2025167802
 20
52.1611511239
 30
0.0
 10
44.9469189493
 20
51.4844165194
 30
0.0
 10
45.8346433997
 20
50.5368859304
 30
0.0
 10
46.4742261215
 20
49.7053579158
 30
0.0
 10
46.7789731512
 20
49.2690748889
 30
0.0
  0
SPLINE
  5
3E0
100
AcDbEntity
  8
0
100
AcDbSpline
 62
7
  6
BYLAYER
 70
0
 71
3
 72
21
 73
17
 74
0
 42
0.0000001
 43
0.0000001
 44
0.0000000001
 40
0.0
 40
0.0
 40
0.0
 40
0.0
 40
0.1551774461
 40
0.2308800316
 40
0.3048557427
 40
0.3767983401
 40
0.4464389928
 40
0.513549692
 40
0.5779566841
 40
0.6395462468
 40
0.6982764851
 40
0.8072808373
 40
0.8580815702
 40
0.9068055693
 40
0.9539327757
 40
1.0
 40
1.0
 40
1.0
 40
1.0
 10
48.2898042907
 20
46.6520862141
 30
0.0
 10
48.5319694027
 20
46.1342262724
 30
0.0
 10
48.8546418643
 20
45.3450788851
 30
0.0
 10
49.195810981
 20
44.274632694
 30
0.0
 10
49.4007049351
 20
43.4838165149
 30
0.0
 10
49.5551414076
 20
42.7043724859
 30
0.0
 10
49.6580548308
 20
41.9419270146
 30
0.0
 10
49.708607171
 20
41.2019829438
 30
0.0
 10
49.7064748496
 20
40.4899476279
 30
0.0
 10
49.6515394439
 20
39.8107450608
 30
0.0
 10
49.51199406
 20
38.9769485145
 30
0.0
 10
49.2697513219
 20
38.2018145308
 30
0.0
 10
48.9156686016
 20
37.5181999888
 30
0.0
 10
48.608268513
 20
37.0719611288
 30
0.0
 10
48.2551150383
 20
36.6842461839
 30
0.0
 10
47.9888867892
 20
36.4651625212
 30
0.0
 10
47.8501710199
 20
36.3673819454
 30
0.0
  0
SPLINE
  5
3E1
100
AcDbEntity
  8
0
100
AcDbSpline
 62
7
  6
BYLAYER
 70
0
 71
3
 72
11
 73
7
 74
0
 42
0.0000001
 43
0.0000001
 44
0.0000000001
 40
0.0
 40
0.0
 40
0.0
 40
0.0
 40
0.2680510652
 40
0.5258852902
 40
0.7706330883
 40
1.0
 40
1.0
 40
1.0
 40
1.0
 10
49.2488213225
 20
47.201967536
 30
0.0
 10
49.3501573179
 20
46.9433050076
 30
0.0
 10
49.5273451847
 20
46.4269950116
 30
0.0
 10
49.7160075106
 20
45.6496713034
 30
0.0
 10
49.8198721674
 20
44.8968842689
 30
0.0
 10
49.8314300731
 20
44.4041791719
 30
0.0
 10
49.8208687284
 20
44.1667012177
 30
0.0
  0
SPLINE
  5
3E2
100
AcDbEntity
  8
0
100
AcDbSpline
 62
7
  6
BYLAYER
 70
0
 71
3
 72
11
 73
7
 74
0
 42
0.0000001
 43
0.0000001
 44
0.0000000001
 40
0.0
 40
0.0
 40
0.0
 40
0.0
 40
0.2319316923
 40
0.4773546471
 40
0.7341676218
 40
1.0
 40
1.0
 40
1.0
 40
1.0
 10
45.6026891872
 20
51.722626913
 30
0.0
 10
45.7947494552
 20
51.611743374
 30
0.0
 10
46.176840262
 20
51.3601386827
 30
0.0
 10
46.722177148
 20
50.9165038814
 30
0.0
 10
47.2481524994
 20
50.4026325703
 30
0.0
 10
47.575476188
 20
50.0241428146
 30
0.0
 10
47.734083666
 20
49.8255115791
 30
0.0
  0
SPLINE
  5
3E3
100
AcDbEntity
  8
0
100
AcDbSpline
 62
7
  6
BYLAYER
 70
0
 71
3
 72
9
 73
5
 74
0
 42
0.0000001
 43
0.0000001
 44
0.0000000001
 40
0.0
 40
0.0
 40
0.0
 40
0.0
 40
0.2438316364
 40
1.0
 40
1.0
 40
1.0
 40
1.0
 10
49.3564235054
 20
38.3189151637
 30
0.0
 10
49.3816244686
 20
38.3805461553
 30
0.0
 10
49.4801342293
 20
38.6352743307
 30
0.0
 10
49.55951432
 20
38.8972864459
 30
0.0
 10
49.609725605
 20
39.0975791875
 30
0.0
  0
SPLINE
  5
3E4
100
AcDbEntity
  8
0
100
AcDbSpline
 62
7
  6
BYLAYER
 70
0
 71
3
 72
15
 73
11
 74
0
 42
0.0000001
 43
0.0000001
 44
0.0000000001
 40
0.0
 40
0.0
 40
0.0
 40
0.0
 40
0.1048108475
 40
0.2162572745
 40
0.3341933196
 40
0.458203995
 40
0.5876578869
 40
0.721751052
 40
0.859544808
 40
1.0
 40
1.0
 40
1.0
 40
1.0
 10
49.609725605
 20
39.0975791875
 30
0.0
 10
49.6765241471
 20
39.3640384733
 30
0.0
 10
49.7789510513
 20
39.923103813
 30
0.0
 10
49.8411919402
 20
40.7982478772
 30
0.0
 10
49.8163823369
 20
41.7254958308
 30
0.0
 10
49.704929195
 20
42.693652822
 30
0.0
 10
49.508261275
 20
43.6912221131
 30
0.0
 10
49.2287568555
 20
44.7062473414
 30
0.0
 10
48.8698121026
 20
45.7264689813
 30
0.0
 10
48.5823751733
 20
46.3973803746
 30
0.0
 10
48.4266319924
 20
46.7309390694
 30
0.0
  0
SPLINE
  5
3E5
100
AcDbEntity
  8
0
100
AcDbSpline
 62
7
  6
BYLAYER
 70
0
 71
3
 72
13
 73
9
 74
0
 42
0.0000001
 43
0.0000001
 44
0.0000000001
 40
0.0
 40
0.0
 40
0.0
 40
0.0
 40
0.2664428661
 40
0.5243279102
 40
0.6488718992
 40
0.7698998806
 40
0.8870677197
 40
1.0
 40
1.0
 40
1.0
 40
1.0
 10
46.9158151533
 20
49.3479459685
 30
0.0
 10
46.613319541
 20
49.7804797028
 30
0.0
 10
45.978571561
 20
50.6048530568
 30
0.0
 10
45.097773463
 20
51.5442540839
 30
0.0
 10
44.3592889571
 20
52.2152126983
 30
0.0
 10
43.8009647939
 20
52.6682284061
 30
0.0
 10
43.2354011454
 20
53.0738474108
 30
0.0
 10
42.8485449363
 20
53.315669495
 30
0.0
 10
42.654800566
 20
53.4275253288
 30
0.0
  0
SPLINE
  5
3E6
100
AcDbEntity
  8
0
100
AcDbSpline
 62
7
  6
BYLAYER
 70
0
 71
3
 72
10
 73
6
 74
0
 42
0.0000001
 43
0.0000001
 44
0.0000000001
 40
0.0
 40
0.0
 40
0.0
 40
0.0
 40
0.4746090938
 40
0.7310275345
 40
1.0
 40
1.0
 40
1.0
 40
1.0
 10
40.9326548459
 20
54.2459042656
 30
0.0
 10
41.3265076489
 20
54.192226081
 30
0.0
 10
41.9244971206
 20
54.035934165
 30
0.0
 10
42.6985945394
 20
53.7152491502
 30
0.0
 10
43.0900117718
 20
53.5127161666
 30
0.0
 10
43.2860108586
 20
53.4016726555
 30
0.0
  0
SPLINE
  5
3E7
100
AcDbEntity
  8
0
100
AcDbSpline
 62
7
  6
BYLAYER
 70
0
 71
3
 72
11
 73
7
 74
0
 42
0.0000001
 43
0.0000001
 44
0.0000000001
 40
0.0
 40
0.0
 40
0.0
 40
0.0
 40
0.2897033281
 40
0.5490895198
 40
0.7822165953
 40
1.0
 40
1.0
 40
1.0
 40
1.0
 10
43.137221687
 20
24.0301737489
 30
0.0
 10
43.137221687
 20
23.9947060479
 30
0.0
 10
43.1318442617
 20
23.9272539975
 30
0.0
 10
43.1045269905
 20
23.8345784149
 30
0.0
 10
43.0585337783
 20
23.7593774207
 30
0.0
 10
43.0153321917
 20
23.7230579039
 30
0.0
 10
42.9922415661
 20
23.7097266148
 30
0.0
  0
SPLINE
  5
3E8
100
AcDbEntity
  8
0
100
AcDbSpline
 62
7
  6
BYLAYER
 70
0
 71
3
 72
15
 73
11
 74
0
 42
0.0000001
 43
0.0000001
 44
0.0000000001
 40
0.0
 40
0.0
 40
0.0
 40
0.0
 40
0.1141232787
 40
0.2373467935
 40
0.3669716251
 40
0.4999988493
 40
0.6330262331
 40
0.7626515288
 40
0.885875802
 40
1.0
 40
1.0
 40
1.0
 40
1.0
 10
42.6422448794
 20
45.7083056059
 30
0.0
 10
42.6761205441
 20
45.6887479242
 30
0.0
 10
42.7430460679
 20
45.6418158737
 30
0.0
 10
42.8351511772
 20
45.5556762777
 30
0.0
 10
42.9200120251
 20
45.4538129315
 30
0.0
 10
42.9944659804
 20
45.3401146649
 30
0.0
 10
43.0557052509
 20
45.2187866714
 30
0.0
 10
43.1014919033
 20
45.094363152
 30
0.0
 10
43.1300393702
 20
44.9715274603
 30
0.0
 10
43.137221687
 20
44.8901017279
 30
0.0
 10
43.137221687
 20
44.8509853857
 30
0.0
  0
SPLINE
  5
3E9
100
AcDbEntity
  8
0
100
AcDbSpline
 62
7
  6
BYLAYER
 70
0
 71
3
 72
10
 73
6
 74
0
 42
0.0000001
 43
0.0000001
 44
0.0000000001
 40
0.0
 40
0.0
 40
0.0
 40
0.0
 40
0.2019543839
 40
0.4373926053
 40
1.0
 40
1.0
 40
1.0
 40
1.0
 10
17.6798963543
 20
42.4357533948
 30
0.0
 10
17.7098399864
 20
42.4530412348
 30
0.0
 10
17.7732859167
 20
42.4929186028
 30
0.0
 10
17.913801018
 20
42.5907904093
 30
0.0
 10
18.0221507169
 20
42.6740951516
 30
0.0
 10
18.0988976695
 20
42.7323001451
 30
0.0
  0
SPLINE
  5
3EA
100
AcDbEntity
  8
0
100
AcDbSpline
 62
7
  6
BYLAYER
 70
0
 71
3
 72
10
 73
6
 74
0
 42
0.0000001
 43
0.0000001
 44
0.0000000001
 40
0.0
 40
0.0
 40
0.0
 40
0.0
 40
0.2019619638
 40
0.4374024064
 40
1.0
 40
1.0
 40
1.0
 40
1.0
 10
27.8221087648
 20
24.8691035309
 30
0.0
 10
27.8520511595
 20
24.8863906797
 30
0.0
 10
27.9183051225
 20
24.9213959661
 30
0.0
 10
28.0733093915
 20
24.9941452252
 30
0.0
 10
28.1996164649
 20
25.0463234806
 30
0.0
 10
28.2883880986
 20
25.0836829902
 30
0.0
  0
SPLINE
  5
3EB
100
AcDbEntity
  8
0
100
AcDbSpline
 62
7
  6
BYLAYER
 70
0
 71
3
 72
13
 73
9
 74
0
 42
0.0000001
 43
0.0000001
 44
0.0000000001
 40
0.0
 40
0.0
 40
0.0
 40
0.0
 40
0.1175666455
 40
0.2358832764
 40
0.3557408409
 40
0.4778488682
 40
0.7310433823
 40
1.0
 40
1.0
 40
1.0
 40
1.0
 10
18.1105120692
 20
21.7356654996
 30
0.0
 10
18.0210086432
 20
21.683990981
 30
0.0
 10
17.8355042806
 20
21.5902179092
 30
0.0
 10
17.5420692283
 20
21.4804101661
 30
0.0
 10
17.2346429729
 20
21.4017781447
 30
0.0
 10
16.8034060986
 20
21.3378282522
 30
0.0
 10
16.2335300319
 20
21.3391971188
 30
0.0
 10
15.7794486759
 20
21.4200226753
 30
0.0
 10
15.5502712882
 20
21.4781421657
 30
0.0
  0
SPLINE
  5
3EC
100
AcDbEntity
  8
0
100
AcDbSpline
 62
7
  6
BYLAYER
 70
0
 71
3
 72
16
 73
12
 74
0
 42
0.0000001
 43
0.0000001
 44
0.0000000001
 40
0.0
 40
0.0
 40
0.0
 40
0.0
 40
0.1456358752
 40
0.2843925993
 40
0.4162754714
 40
0.4798170405
 40
0.5418559079
 40
0.6617897262
 40
0.7772004774
 40
0.889408645
 40
1.0
 40
1.0
 40
1.0
 40
1.0
 10
8.3955881204
 20
31.9359881671
 30
0.0
 10
8.3979955827
 20
32.1409936074
 30
0.0
 10
8.4193312348
 20
32.5414073641
 30
0.0
 10
8.5052184689
 20
33.121984771
 30
0.0
 10
8.622600447
 20
33.5786603147
 30
0.0
 10
8.7436660327
 20
33.9205086865
 30
0.0
 10
8.8790037341
 20
34.2387268818
 30
0.0
 10
9.0798931281
 20
34.6076084482
 30
0.0
 10
9.3742625776
 20
35.0007224527
 30
0.0
 10
9.7167793944
 20
35.3342454952
 30
0.0
 10
9.9757200932
 20
35.5142502411
 30
0.0
 10
10.1105478842
 20
35.5920926379
 30
0.0
  0
SPLINE
  5
3ED
100
AcDbEntity
  8
0
100
AcDbSpline
 62
7
  6
BYLAYER
 70
0
 71
3
 72
9
 73
5
 74
0
 42
0.0000001
 43
0.0000001
 44
0.0000000001
 40
0.0
 40
0.0
 40
0.0
 40
0.0
 40
0.2547027001
 40
1.0
 40
1.0
 40
1.0
 40
1.0
 10
8.4201539298
 20
31.2194351148
 30
0.0
 10
8.4154137716
 20
31.2801333442
 30
0.0
 10
8.3993276079
 20
31.5186301555
 30
0.0
 10
8.3934961455
 20
31.757847793
 30
0.0
 10
8.3955881204
 20
31.9359881671
 30
0.0
  0
SPLINE
  5
3EE
100
AcDbEntity
  8
0
100
AcDbSpline
 62
7
  6
BYLAYER
 70
0
 71
3
 72
10
 73
6
 74
0
 42
0.0000001
 43
0.0000001
 44
0.0000000001
 40
0.0
 40
0.0
 40
0.0
 40
0.0
 40
0.2372960702
 40
0.484261621
 40
1.0
 40
1.0
 40
1.0
 40
1.0
 10
29.0811293358
 20
24.9305188461
 30
0.0
 10
29.2305408514
 20
24.9609682661
 30
0.0
 10
29.5352005121
 20
25.0243423496
 30
0.0
 10
30.1637340176
 20
25.1579865218
 30
0.0
 10
30.6427537551
 20
25.2616229291
 30
0.0
 10
30.9666534874
 20
25.3317544061
 30
0.0
  0
SPLINE
  5
3EF
100
AcDbEntity
  8
0
100
AcDbSpline
 62
7
  6
BYLAYER
 70
0
 71
3
 72
11
 73
7
 74
0
 42
0.0000001
 43
0.0000001
 44
0.0000000001
 40
0.0
 40
0.0
 40
0.0
 40
0.0
 40
0.2372423294
 40
0.4999983821
 40
0.7627553152
 40
1.0
 40
1.0
 40
1.0
 40
1.0
 10
22.5603416387
 20
49.4231332282
 30
0.0
 10
22.5804196135
 20
49.4347251832
 30
0.0
 10
22.6184127018
 20
49.4667042715
 30
0.0
 10
22.6627567975
 20
49.5273027494
 30
0.0
 10
22.6930643055
 20
49.5960054717
 30
0.0
 10
22.7017624061
 20
49.6448982985
 30
0.0
 10
22.7017624061
 20
49.6680825424
 30
0.0
  0
SPLINE
  5
3F0
100
AcDbEntity
  8
0
100
AcDbSpline
 62
7
  6
BYLAYER
 70
0
 71
3
 72
11
 73
7
 74
0
 42
0.0000001
 43
0.0000001
 44
0.0000000001
 40
0.0
 40
0.0
 40
0.0
 40
0.0
 40
0.2177456295
 40
0.4508837762
 40
0.7104602913
 40
1.0
 40
1.0
 40
1.0
 40
1.0
 10
35.4979609526
 20
25.2505435028
 30
0.0
 10
35.5144505069
 20
25.2410234725
 30
0.0
 10
35.5523253797
 20
25.2272302235
 30
0.0
 10
35.6152903213
 20
25.2256490835
 30
0.0
 10
35.682361521
 20
25.2418839592
 30
0.0
 10
35.7260164024
 20
25.2626241249
 30
0.0
 10
35.747942723
 20
25.2752832165
 30
0.0
  0
SPLINE
  5
3F1
100
AcDbEntity
  8
0
100
AcDbSpline
 62
7
  6
BYLAYER
 70
0
 71
3
 72
13
 73
9
 74
0
 42
0.0000001
 43
0.0000001
 44
0.0000000001
 40
0.0
 40
0.0
 40
0.0
 40
0.0
 40
0.114176888
 40
0.2375715548
 40
0.5000017735
 40
0.762431024
 40
0.8858245003
 40
1.0
 40
1.0
 40
1.0
 40
1.0
 10
26.9090741027
 20
51.525714006
 30
0.0
 10
26.9090741027
 20
51.5536419997
 30
0.0
 10
26.9142214682
 20
51.6118076093
 30
0.0
 10
26.9419613017
 20
51.7312231552
 30
0.0
 10
27.006596051
 20
51.8776590251
 30
0.0
 10
27.101095069
 20
52.0068525379
 30
0.0
 10
27.1906411993
 20
52.0905833631
 30
0.0
 10
27.2384399272
 20
52.124123527
 30
0.0
 10
27.2626260213
 20
52.1380872915
 30
0.0
  0
SPLINE
  5
3F2
100
AcDbEntity
  8
0
100
AcDbSpline
 62
7
  6
BYLAYER
 70
0
 71
3
 72
9
 73
5
 74
0
 42
0.0000001
 43
0.0000001
 44
0.0000000001
 40
0.0
 40
0.0
 40
0.0
 40
0.0
 40
0.249916211
 40
1.0
 40
1.0
 40
1.0
 40
1.0
 10
23.3735549166
 20
47.3961289607
 30
0.0
 10
23.2991636474
 20
47.3266016565
 30
0.0
 10
23.0015605056
 20
47.0483331937
 30
0.0
 10
22.7042146942
 20
46.7697894965
 30
0.0
 10
22.4813367856
 20
46.5606918029
 30
0.0
  0
SPLINE
  5
3F3
100
AcDbEntity
  8
0
100
AcDbSpline
 62
7
  6
BYLAYER
 70
0
 71
3
 72
11
 73
7
 74
0
 42
0.0000001
 43
0.0000001
 44
0.0000000001
 40
0.0
 40
0.0
 40
0.0
 40
0.0
 40
0.2372436391
 40
0.5000005261
 40
0.7627571268
 40
1.0
 40
1.0
 40
1.0
 40
1.0
 10
36.5964685053
 20
25.6018792195
 30
0.0
 10
36.5763903597
 20
25.61347108
 30
0.0
 10
36.5296988765
 20
25.6303841937
 30
0.0
 10
36.4550469267
 20
25.6384879531
 30
0.0
 10
36.3803950895
 20
25.630383853
 30
0.0
 10
36.3337037899
 20
25.6134705075
 30
0.0
 10
36.3136257928
 20
25.6018785396
 30
0.0
  0
SPLINE
  5
3F4
100
AcDbEntity
  8
0
100
AcDbSpline
 62
7
  6
BYLAYER
 70
0
 71
3
 72
11
 73
7
 74
0
 42
0.0000001
 43
0.0000001
 44
0.0000000001
 40
0.0
 40
0.0
 40
0.0
 40
0.0
 40
0.2895416688
 40
0.549118971
 40
0.7822562702
 40
1.0
 40
1.0
 40
1.0
 40
1.0
 10
21.9946585689
 20
49.0965379051
 30
0.0
 10
21.9727320458
 20
49.0838786966
 30
0.0
 10
21.9329426562
 20
49.0564425528
 30
0.0
 10
21.8853466797
 20
49.0064746877
 30
0.0
 10
21.8552333539
 20
48.9511549552
 30
0.0
 10
21.848241402
 20
48.9114577969
 30
0.0
 10
21.848241408
 20
48.892417528
 30
0.0
  0
SPLINE
  5
3F5
100
AcDbEntity
  8
0
100
AcDbSpline
 62
7
  6
BYLAYER
 70
0
 71
3
 72
11
 73
7
 74
0
 42
0.0000001
 43
0.0000001
 44
0.0000000001
 40
0.0
 40
0.0
 40
0.0
 40
0.0
 40
0.2177833598
 40
0.4509104088
 40
0.7102966711
 40
1.0
 40
1.0
 40
1.0
 40
1.0
 10
22.8467425271
 20
55.3366205088
 30
0.0
 10
22.8236519124
 20
55.3232892116
 30
0.0
 10
22.7804503215
 20
55.2869697203
 30
0.0
 10
22.7344571077
 20
55.2117687216
 30
0.0
 10
22.7071398435
 20
55.1190931336
 30
0.0
 10
22.7017624061
 20
55.0516410757
 30
0.0
 10
22.7017624061
 20
55.0161733746
 30
0.0
  0
SPLINE
  5
3F6
100
AcDbEntity
  8
0
100
AcDbSpline
 62
7
  6
BYLAYER
 70
0
 71
3
 72
9
 73
5
 74
0
 42
0.0000001
 43
0.0000001
 44
0.0000000001
 40
0.0
 40
0.0
 40
0.0
 40
0.0
 40
0.2500850657
 40
1.0
 40
1.0
 40
1.0
 40
1.0
 10
33.795092388
 20
26.9648010565
 30
0.0
 10
33.8926224458
 20
26.9942974493
 30
0.0
 10
34.2825801893
 20
27.1123413721
 30
0.0
 10
34.6724236723
 20
27.2307626984
 30
0.0
 10
34.9647130903
 20
27.3197655337
 30
0.0
  0
SPLINE
  5
3F7
100
AcDbEntity
  8
0
100
AcDbSpline
 62
7
  6
BYLAYER
 70
0
 71
3
 72
13
 73
9
 74
0
 42
0.0000001
 43
0.0000001
 44
0.0000000001
 40
0.0
 40
0.0
 40
0.0
 40
0.0
 40
0.1141757996
 40
0.2375697486
 40
0.4999996443
 40
0.7624297362
 40
0.885823858
 40
1.0
 40
1.0
 40
1.0
 40
1.0
 10
41.0159101754
 20
28.3168326029
 30
0.0
 10
40.9917240471
 20
28.3028688187
 30
0.0
 10
40.9387778492
 20
28.2782441604
 30
0.0
 10
40.8214915587
 20
28.2425603816
 30
0.0
 10
40.6623572341
 20
28.2253181705
 30
0.0
 10
40.50322281
 20
28.2425596949
 30
0.0
 10
40.3859361519
 20
28.2782428583
 30
0.0
 10
40.3329896956
 20
28.3028672515
 30
0.0
 10
40.3088033942
 20
28.3168309033
 30
0.0
  0
SPLINE
  5
3F8
100
AcDbEntity
  8
0
100
AcDbSpline
 62
7
  6
BYLAYER
 70
0
 71
3
 72
12
 73
8
 74
0
 42
0.0000001
 43
0.0000001
 44
0.0000000001
 40
0.0
 40
0.0
 40
0.0
 40
0.0
 40
0.1154336919
 40
0.2415739217
 40
0.5066781959
 40
0.7658512524
 40
1.0
 40
1.0
 40
1.0
 40
1.0
 10
38.358811509
 20
29.2793374722
 30
0.0
 10
38.369332153
 20
29.2854115327
 30
0.0
 10
38.3928009577
 20
29.2956491499
 30
0.0
 10
38.444601167
 20
29.3089288377
 30
0.0
 10
38.5137566703
 20
29.312068633
 30
0.0
 10
38.5929261473
 20
29.2987915016
 30
0.0
 10
38.6417126576
 20
29.2793044147
 30
0.0
 10
38.6630530985
 20
29.2669837842
 30
0.0
  0
SPLINE
  5
3F9
100
AcDbEntity
  8
0
100
AcDbSpline
 62
7
  6
BYLAYER
 70
0
 71
3
 72
11
 73
7
 74
0
 42
0.0000001
 43
0.0000001
 44
0.0000000001
 40
0.0
 40
0.0
 40
0.0
 40
0.0
 40
0.2177843137
 40
0.4509117637
 40
0.7102976701
 40
1.0
 40
1.0
 40
1.0
 40
1.0
 10
24.2609502015
 20
56.1531088165
 30
0.0
 10
24.2840403062
 20
56.1664398049
 30
0.0
 10
24.3370934116
 20
56.1856932114
 30
0.0
 10
24.4252137156
 20
56.1879244005
 30
0.0
 10
24.5191293077
 20
56.1652454592
 30
0.0
 10
24.5802317113
 20
56.1361778606
 30
0.0
 10
24.6109468882
 20
56.1184448462
 30
0.0
  0
SPLINE
  5
3FA
100
AcDbEntity
  8
0
100
AcDbSpline
 62
7
  6
BYLAYER
 70
0
 71
3
 72
11
 73
7
 74
0
 42
0.0000001
 43
0.0000001
 44
0.0000000001
 40
0.0
 40
0.0
 40
0.0
 40
0.0
 40
0.289702329
 40
0.5490881649
 40
0.7822156415
 40
1.0
 40
1.0
 40
1.0
 40
1.0
 10
41.228037205
 20
22.9279022774
 30
0.0
 10
41.2587523818
 20
22.9101692629
 30
0.0
 10
41.3198547729
 20
22.8811016576
 30
0.0
 10
41.4137703637
 20
22.8584227251
 30
0.0
 10
41.501890663
 20
22.8606539151
 30
0.0
 10
41.5549437883
 20
22.8799073051
 30
0.0
 10
41.5780338916
 20
22.893238307
 30
0.0
  0
SPLINE
  5
3FB
100
AcDbEntity
  8
0
100
AcDbSpline
 62
7
  6
BYLAYER
 70
0
 71
3
 72
12
 73
8
 74
0
 42
0.0000001
 43
0.0000001
 44
0.0000000001
 40
0.0
 40
0.0
 40
0.0
 40
0.0
 40
0.2340761431
 40
0.4932858091
 40
0.7585273247
 40
0.8846067147
 40
1.0
 40
1.0
 40
1.0
 40
1.0
 10
26.9090741027
 20
49.6253930743
 30
0.0
 10
26.9090741027
 20
49.6007563152
 30
0.0
 10
26.9015694063
 20
49.5487599235
 30
0.0
 10
26.8734848815
 20
49.4735341053
 30
0.0
 10
26.8361694283
 20
49.4152041219
 30
0.0
 10
26.798772764
 20
49.3769650712
 30
0.0
 10
26.7781714581
 20
49.3617735041
 30
0.0
 10
26.7676533352
 20
49.3557008993
 30
0.0
  0
SPLINE
  5
3FC
100
AcDbEntity
  8
0
100
AcDbSpline
 62
7
  6
BYLAYER
 70
0
 71
3
 72
9
 73
5
 74
0
 42
0.0000001
 43
0.0000001
 44
0.0000000001
 40
0.0
 40
0.0
 40
0.0
 40
0.0
 40
0.4786358668
 40
1.0
 40
1.0
 40
1.0
 40
1.0
 10
19.5198616723
 20
37.0920626412
 30
0.0
 10
19.6795780339
 20
37.0910593294
 30
0.0
 10
20.0135191026
 20
37.0514770078
 30
0.0
 10
20.3338328162
 20
36.952230913
 30
0.0
 10
20.4958230975
 20
36.8887688684
 30
0.0
  0
SPLINE
  5
3FD
100
AcDbEntity
  8
0
100
AcDbSpline
 62
7
  6
BYLAYER
 70
0
 71
3
 72
22
 73
18
 74
0
 42
0.0000001
 43
0.0000001
 44
0.0000000001
 40
0.0
 40
0.0
 40
0.0
 40
0.0
 40
0.0732863724
 40
0.1477584957
 40
0.2972832773
 40
0.37107782
 40
0.443302202
 40
0.5133425041
 40
0.580653913
 40
0.6447799242
 40
0.7053853775
 40
0.7622889207
 40
0.8154933019
 40
0.8652333939
 40
0.9120076203
 40
0.9565905467
 40
1.0
 40
1.0
 40
1.0
 40
1.0
 10
15.5192012991
 20
31.2197468965
 30
0.0
 10
15.6407525282
 20
31.0784437694
 30
0.0
 10
15.8754512515
 20
30.7844351594
 30
0.0
 10
16.3051683052
 20
30.1618437709
 30
0.0
 10
16.6711772384
 20
29.4955294188
 30
0.0
 10
16.9635135995
 20
28.8025457681
 30
0.0
 10
17.1406325098
 20
28.2818195637
 30
0.0
 10
17.2740615746
 20
27.7652291221
 30
0.0
 10
17.3620268504
 20
27.2598032284
 30
0.0
 10
17.4032418359
 20
26.7724225042
 30
0.0
 10
17.3970916966
 20
26.3096871267
 30
0.0
 10
17.3435755176
 20
25.8778182137
 30
0.0
 10
17.2430921169
 20
25.4826240528
 30
0.0
 10
17.0966687769
 20
25.1295002254
 30
0.0
 10
16.9057084968
 20
24.8234715181
 30
0.0
 10
16.6724211228
 20
24.569585151
 30
0.0
 10
16.4897114138
 20
24.4372016935
 30
0.0
 10
16.3940978699
 20
24.382001637
 30
0.0
  0
SPLINE
  5
3FE
100
AcDbEntity
  8
0
100
AcDbSpline
 62
7
  6
BYLAYER
 70
0
 71
3
 72
12
 73
8
 74
0
 42
0.0000001
 43
0.0000001
 44
0.0000000001
 40
0.0
 40
0.0
 40
0.0
 40
0.0
 40
0.1144235474
 40
0.2386294211
 40
0.5020387119
 40
0.7637937891
 40
1.0
 40
1.0
 40
1.0
 40
1.0
 10
15.6308158857
 20
34.0778675664
 30
0.0
 10
15.6209384932
 20
34.0721648852
 30
0.0
 10
15.6014486407
 20
34.058307426
 30
0.0
 10
15.5651722078
 20
34.0236620029
 30
0.0
 10
15.5274247336
 20
33.9702303731
 30
0.0
 10
15.4977502827
 20
33.8998504768
 30
0.0
 10
15.4893951183
 20
33.8501609337
 30
0.0
 10
15.4893951183
 20
33.8266165711
 30
0.0
  0
SPLINE
  5
3FF
100
AcDbEntity
  8
0
100
AcDbSpline
 62
7
  6
BYLAYER
 70
0
 71
3
 72
11
 73
7
 74
0
 42
0.0000001
 43
0.0000001
 44
0.0000000001
 40
0.0
 40
0.0
 40
0.0
 40
0.0
 40
0.29279897
 40
0.5502986873
 40
0.7794152936
 40
1.0
 40
1.0
 40
1.0
 40
1.0
 10
15.4893951183
 20
21.5823973655
 30
0.0
 10
15.4893951183
 20
21.5697350591
 30
0.0
 10
15.4916177117
 20
21.5458229155
 30
0.0
 10
15.5031042898
 20
21.5136357947
 30
0.0
 10
15.5229173654
 20
21.4893472149
 30
0.0
 10
15.5410281925
 20
21.4804956088
 30
0.0
 10
15.5502748735
 20
21.4781508185
 30
0.0
  0
SPLINE
  5
400
100
AcDbEntity
  8
0
100
AcDbSpline
 62
7
  6
BYLAYER
 70
0
 71
3
 72
10
 73
6
 74
0
 42
0.0000001
 43
0.0000001
 44
0.0000000001
 40
0.0
 40
0.0
 40
0.0
 40
0.0
 40
0.5157442248
 40
0.7627089948
 40
1.0
 40
1.0
 40
1.0
 40
1.0
 10
19.6528978851
 20
44.9276451525
 30
0.0
 10
19.4301608288
 20
44.6821532479
 30
0.0
 10
19.1008243086
 20
44.3190528099
 30
0.0
 10
18.6707236199
 20
43.84145264
 30
0.0
 10
18.4634674445
 20
43.6092523241
 30
0.0
 10
18.3623720849
 20
43.4950618382
 30
0.0
  0
SPLINE
  5
401
100
AcDbEntity
  8
0
100
AcDbSpline
 62
7
  6
BYLAYER
 70
0
 71
3
 72
15
 73
11
 74
0
 42
0.0000001
 43
0.0000001
 44
0.0000000001
 40
0.0
 40
0.0
 40
0.0
 40
0.0
 40
0.0637908778
 40
0.128613463
 40
0.2577798603
 40
0.3852000805
 40
0.5108643446
 40
0.6349929083
 40
0.7577905861
 40
1.0
 40
1.0
 40
1.0
 40
1.0
 10
18.0988976695
 20
42.7323001451
 30
0.0
 10
18.1975196012
 20
42.8070951526
 30
0.0
 10
18.3942544837
 20
42.9606689353
 30
0.0
 10
18.7835673906
 20
43.2747175186
 30
0.0
 10
19.2624693728
 20
43.6742597911
 30
0.0
 10
19.825478607
 20
44.1571227306
 30
0.0
 10
20.3760021207
 20
44.6394643613
 30
0.0
 10
20.9155526973
 20
45.1206712542
 30
0.0
 10
21.6188825057
 20
45.7579431542
 30
0.0
 10
22.1385911281
 20
46.2391376079
 30
0.0
 10
22.4813367856
 20
46.5606918029
 30
0.0
  0
SPLINE
  5
402
100
AcDbEntity
  8
0
100
AcDbSpline
 62
7
  6
BYLAYER
 70
0
 71
3
 72
15
 73
11
 74
0
 42
0.0000001
 43
0.0000001
 44
0.0000000001
 40
0.0
 40
0.0
 40
0.0
 40
0.0
 40
0.2422094539
 40
0.3650071272
 40
0.4891356713
 40
0.6147998802
 40
0.7422200054
 40
0.8713862347
 40
0.9362088326
 40
1.0
 40
1.0
 40
1.0
 40
1.0
 10
33.795092388
 20
26.9648010565
 30
0.0
 10
33.3452449677
 20
26.8287519605
 30
0.0
 10
32.6686634001
 20
26.6192685063
 30
0.0
 10
31.765104219
 20
26.3288027083
 30
0.0
 10
31.0785913503
 20
26.1021411408
 30
0.0
 10
30.3856096069
 20
25.8665437374
 30
0.0
 10
29.6859340165
 20
25.6203935441
 30
0.0
 10
29.100470075
 20
25.4054213635
 30
0.0
 10
28.6338398792
 20
25.2252883178
 30
0.0
 10
28.4024736141
 20
25.1316958377
 30
0.0
 10
28.2883880986
 20
25.0836829902
 30
0.0
  0
SPLINE
  5
403
100
AcDbEntity
  8
0
100
AcDbSpline
 62
7
  6
BYLAYER
 70
0
 71
3
 72
11
 73
7
 74
0
 42
0.0000001
 43
0.0000001
 44
0.0000000001
 40
0.0
 40
0.0
 40
0.0
 40
0.0
 40
0.2372428732
 40
0.4999994739
 40
0.7627563609
 40
1.0
 40
1.0
 40
1.0
 40
1.0
 10
36.3136257928
 20
47.5657935604
 30
0.0
 10
36.3337037899
 20
47.5773855283
 30
0.0
 10
36.3803950895
 20
47.5942988738
 30
0.0
 10
36.4550469267
 20
47.6024029739
 30
0.0
 10
36.5296988765
 20
47.5942992144
 30
0.0
 10
36.5763903597
 20
47.5773861008
 30
0.0
 10
36.5964685053
 20
47.5657942403
 30
0.0
  0
SPLINE
  5
404
100
AcDbEntity
  8
0
100
AcDbSpline
 62
7
  6
BYLAYER
 70
0
 71
3
 72
15
 73
11
 74
0
 42
0.0000001
 43
0.0000001
 44
0.0000000001
 40
0.0
 40
0.0
 40
0.0
 40
0.0
 40
0.1471280366
 40
0.2872971932
 40
0.4204122388
 40
0.5467725788
 40
0.6669179503
 40
0.781683825
 40
0.8922567642
 40
1.0
 40
1.0
 40
1.0
 40
1.0
 10
22.8736779669
 20
42.073326052
 30
0.0
 10
22.661191835
 20
42.1955513564
 30
0.0
 10
22.236889164
 20
42.4184640072
 30
0.0
 10
21.5903193908
 20
42.690243172
 30
0.0
 10
20.9536862567
 20
42.8891185204
 30
0.0
 10
20.3321731605
 20
43.0132628533
 30
0.0
 10
19.7306778005
 20
43.0615480677
 30
0.0
 10
19.1539777554
 20
43.0330703695
 30
0.0
 10
18.6072246684
 20
42.9276606757
 30
0.0
 10
18.2628286479
 20
42.8054519452
 30
0.0
 10
18.0988976695
 20
42.7323001451
 30
0.0
  0
SPLINE
  5
405
100
AcDbEntity
  8
0
100
AcDbSpline
 62
7
  6
BYLAYER
 70
0
 71
3
 72
13
 73
9
 74
0
 42
0.0000001
 43
0.0000001
 44
0.0000000001
 40
0.0
 40
0.0
 40
0.0
 40
0.0
 40
0.2664450226
 40
0.5251807221
 40
0.6500636598
 40
0.771136137
 40
0.8879392202
 40
1.0
 40
1.0
 40
1.0
 40
1.0
 10
27.6749846968
 20
37.2036687964
 30
0.0
 10
27.3502238763
 20
37.7235815708
 30
0.0
 10
26.6563337909
 20
38.7158820424
 30
0.0
 10
25.6698070376
 20
39.8444548954
 30
0.0
 10
24.8304552792
 20
40.6476988768
 30
0.0
 10
24.1921791117
 20
41.1863670179
 30
0.0
 10
23.5431566468
 20
41.6637662954
 30
0.0
 10
23.0971606819
 20
41.944775343
 30
0.0
 10
22.8736779669
 20
42.073326052
 30
0.0
  0
SPLINE
  5
406
100
AcDbEntity
  8
0
100
AcDbSpline
 62
7
  6
BYLAYER
 70
0
 71
3
 72
15
 73
11
 74
0
 42
0.0000001
 43
0.0000001
 44
0.0000000001
 40
0.0
 40
0.0
 40
0.0
 40
0.0
 40
0.123140143
 40
0.2481079192
 40
0.3739000418
 40
0.5000004557
 40
0.6261008605
 40
0.751892734
 40
0.8768603283
 40
1.0
 40
1.0
 40
1.0
 40
1.0
 10
28.2883880986
 20
36.1412288368
 30
0.0
 10
28.2393590359
 20
36.1623681413
 30
0.0
 10
28.1450954953
 20
36.2159007071
 30
0.0
 10
28.0197027617
 20
36.3196451818
 30
0.0
 10
27.9104661024
 20
36.4419380294
 30
0.0
 10
27.8189049122
 20
36.5784670943
 30
0.0
 10
27.7464472461
 20
36.726025517
 30
0.0
 10
27.695156215
 20
36.8817732492
 30
0.0
 10
27.6680066537
 20
37.0422382886
 30
0.0
 10
27.6687774981
 20
37.1506389176
 30
0.0
 10
27.6749846968
 20
37.2036687964
 30
0.0
  0
SPLINE
  5
407
100
AcDbEntity
  8
0
100
AcDbSpline
 62
7
  6
BYLAYER
 70
0
 71
3
 72
13
 73
9
 74
0
 42
0.0000001
 43
0.0000001
 44
0.0000000001
 40
0.0
 40
0.0
 40
0.0
 40
0.0
 40
0.1121184642
 40
0.2289595229
 40
0.3500510173
 40
0.4749353133
 40
0.7336311486
 40
1.0
 40
1.0
 40
1.0
 40
1.0
 10
30.1050426973
 20
29.5636336194
 30
0.0
 10
30.1050426973
 20
29.821013582
 30
0.0
 10
30.0839681963
 20
30.3467829155
 30
0.0
 10
29.9942982026
 20
31.1459384747
 30
0.0
 10
29.8465035864
 20
31.966214574
 30
0.0
 10
29.5703947093
 20
33.0920044973
 30
0.0
 10
29.0868564309
 20
34.5070429009
 30
0.0
 10
28.5755495572
 20
35.6013733226
 30
0.0
 10
28.2883880986
 20
36.1412288368
 30
0.0
  0
SPLINE
  5
408
100
AcDbEntity
  8
0
100
AcDbSpline
 62
7
  6
BYLAYER
 70
0
 71
3
 72
15
 73
11
 74
0
 42
0.0000001
 43
0.0000001
 44
0.0000000001
 40
0.0
 40
0.0
 40
0.0
 40
0.0
 40
0.1076892312
 40
0.2182181615
 40
0.3329552075
 40
0.4530903407
 40
0.5794599752
 40
0.7126028834
 40
0.8528160997
 40
1.0
 40
1.0
 40
1.0
 40
1.0
 10
28.2883880986
 20
25.0836829902
 30
0.0
 10
28.4340749734
 20
25.1893493349
 30
0.0
 10
28.7127886585
 20
25.4271904139
 30
0.0
 10
29.0781876689
 20
25.8493404539
 30
0.0
 10
29.3916528635
 20
26.3361964906
 30
0.0
 10
29.6507415102
 20
26.883173598
 30
0.0
 10
29.853841291
 20
27.4856438694
 30
0.0
 10
29.9994748596
 20
28.1387611773
 30
0.0
 10
30.0866321988
 20
28.8370772608
 30
0.0
 10
30.1050426973
 20
29.3176570241
 30
0.0
 10
30.1050426973
 20
29.5636336194
 30
0.0
  0
SPLINE
  5
409
100
AcDbEntity
  8
0
100
AcDbSpline
 62
7
  6
BYLAYER
 70
0
 71
3
 72
17
 73
13
 74
0
 42
0.0000001
 43
0.0000001
 44
0.0000000001
 40
0.0
 40
0.0
 40
0.0
 40
0.0
 40
0.0235365915
 40
0.0464360381
 40
0.0727658982
 40
0.1048304762
 40
0.189204518
 40
0.3013711638
 40
0.4400810857
 40
0.6037069036
 40
0.7907428304
 40
1.0
 40
1.0
 40
1.0
 40
1.0
 10
27.6749846968
 20
24.7295242454
 30
0.0
 10
27.6735730827
 20
24.7304543874
 30
0.0
 10
27.6710733156
 20
24.7328768469
 30
0.0
 10
27.6695173301
 20
24.738061119
 30
0.0
 10
27.6701737154
 20
24.7439652599
 30
0.0
 10
27.673840012
 20
24.7536077573
 30
0.0
 10
27.6834378755
 20
24.7671595484
 30
0.0
 10
27.7001274754
 20
24.784535165
 30
0.0
 10
27.7228157155
 20
24.8038865818
 30
0.0
 10
27.7510915692
 20
24.8247915624
 30
0.0
 10
27.7846774595
 20
24.8469421007
 30
0.0
 10
27.8090925305
 20
24.8615886483
 30
0.0
 10
27.8221087648
 20
24.8691035309
 30
0.0
  0
SPLINE
  5
40A
100
AcDbEntity
  8
0
100
AcDbSpline
 62
7
  6
BYLAYER
 70
0
 71
3
 72
9
 73
5
 74
0
 42
0.0000001
 43
0.0000001
 44
0.0000000001
 40
0.0
 40
0.0
 40
0.0
 40
0.0
 40
0.2499162107
 40
1.0
 40
1.0
 40
1.0
 40
1.0
 10
34.9647130903
 20
37.1177945392
 30
0.0
 10
34.8673048908
 20
37.0881335067
 30
0.0
 10
34.4775151485
 20
36.9695360324
 30
0.0
 10
34.0876157138
 20
36.8512990234
 30
0.0
 10
33.795092388
 20
36.7628300621
 30
0.0
  0
SPLINE
  5
40B
100
AcDbEntity
  8
0
100
AcDbSpline
 62
7
  6
BYLAYER
 70
0
 71
3
 72
11
 73
7
 74
0
 42
0.0000001
 43
0.0000001
 44
0.0000000001
 40
0.0
 40
0.0
 40
0.0
 40
0.0
 40
0.232066631
 40
0.4774820097
 40
0.7342762047
 40
1.0
 40
1.0
 40
1.0
 40
1.0
 10
36.1015299692
 20
31.5624533535
 30
0.0
 10
36.1015299692
 20
32.0033878475
 30
0.0
 10
36.0487174907
 20
32.9111312389
 30
0.0
 10
35.8291154564
 20
34.2908543023
 30
0.0
 10
35.4706208378
 20
35.7070684517
 30
0.0
 10
35.1473415596
 20
36.6470983002
 30
0.0
 10
34.9647130903
 20
37.1177945392
 30
0.0
  0
SPLINE
  5
40C
100
AcDbEntity
  8
0
100
AcDbSpline
 62
7
  6
BYLAYER
 70
0
 71
3
 72
12
 73
8
 74
0
 42
0.0000001
 43
0.0000001
 44
0.0000000001
 40
0.0
 40
0.0
 40
0.0
 40
0.0
 40
0.2233591699
 40
0.3411491406
 40
0.4633940588
 40
0.7219829994
 40
1.0
 40
1.0
 40
1.0
 40
1.0
 10
34.9647130903
 20
27.3197655337
 30
0.0
 10
35.1555373435
 20
27.5912452375
 30
0.0
 10
35.404663222
 20
28.0370874508
 30
0.0
 10
35.6602535531
 20
28.6767903092
 30
0.0
 10
35.8785956924
 20
29.3855130318
 30
0.0
 10
36.0580918788
 20
30.3512414277
 30
0.0
 10
36.1015299692
 20
31.1494143587
 30
0.0
 10
36.1015299692
 20
31.5624533535
 30
0.0
  0
SPLINE
  5
40D
100
AcDbEntity
  8
0
100
AcDbSpline
 62
7
  6
BYLAYER
 70
0
 71
3
 72
11
 73
7
 74
0
 42
0.0000001
 43
0.0000001
 44
0.0000000001
 40
0.0
 40
0.0
 40
0.0
 40
0.0
 40
0.289702329
 40
0.5490881649
 40
0.7822156415
 40
1.0
 40
1.0
 40
1.0
 40
1.0
 10
23.1967392137
 20
55.3019565384
 30
0.0
 10
23.1660240369
 20
55.3196895529
 30
0.0
 10
23.1049216458
 20
55.3487571582
 30
0.0
 10
23.011006055
 20
55.3714360907
 30
0.0
 10
22.9228857557
 20
55.3692049007
 30
0.0
 10
22.8698326304
 20
55.3499515107
 30
0.0
 10
22.8467425271
 20
55.3366205088
 30
0.0
  0
SPLINE
  5
40E
100
AcDbEntity
  8
0
100
AcDbSpline
 62
7
  6
BYLAYER
 70
0
 71
3
 72
13
 73
9
 74
0
 42
0.0000001
 43
0.0000001
 44
0.0000000001
 40
0.0
 40
0.0
 40
0.0
 40
0.0
 40
0.1141762243
 40
0.2375705078
 40
0.5000006893
 40
0.7624304955
 40
0.8858242827
 40
1.0
 40
1.0
 40
1.0
 40
1.0
 10
40.3088033942
 20
38.1148599088
 30
0.0
 10
40.3329897131
 20
38.100896247
 30
0.0
 10
40.3859362352
 20
38.0762718532
 30
0.0
 10
40.5032229656
 20
38.0405886515
 30
0.0
 10
40.6623574429
 20
38.023347176
 30
0.0
 10
40.8214917143
 20
38.0405894361
 30
0.0
 10
40.9387779325
 20
38.0762731767
 30
0.0
 10
40.9917240646
 20
38.1008978343
 30
0.0
 10
41.0159101754
 20
38.1148616085
 30
0.0
  0
SPLINE
  5
40F
100
AcDbEntity
  8
0
100
AcDbSpline
 62
7
  6
BYLAYER
 70
0
 71
3
 72
12
 73
8
 74
0
 42
0.0000001
 43
0.0000001
 44
0.0000000001
 40
0.0
 40
0.0
 40
0.0
 40
0.0
 40
0.2780170006
 40
0.5366059412
 40
0.6588508594
 40
0.7766408301
 40
1.0
 40
1.0
 40
1.0
 40
1.0
 10
39.4956283879
 20
33.5220252921
 30
0.0
 10
39.4956283879
 20
33.1089862972
 30
0.0
 10
39.4521902974
 20
32.3108133662
 30
0.0
 10
39.272694111
 20
31.3450849704
 30
0.0
 10
39.0543519717
 20
30.6363622478
 30
0.0
 10
38.7987616407
 20
29.9966593893
 30
0.0
 10
38.5496357622
 20
29.5508171761
 30
0.0
 10
38.358811509
 20
29.2793374722
 30
0.0
  0
SPLINE
  5
410
100
AcDbEntity
  8
0
100
AcDbSpline
 62
7
  6
BYLAYER
 70
0
 71
3
 72
11
 73
7
 74
0
 42
0.0000001
 43
0.0000001
 44
0.0000000001
 40
0.0
 40
0.0
 40
0.0
 40
0.0
 40
0.2657237953
 40
0.5225179903
 40
0.767933369
 40
1.0
 40
1.0
 40
1.0
 40
1.0
 10
38.358811509
 20
39.0773664778
 30
0.0
 10
38.5414399782
 20
38.6066702388
 30
0.0
 10
38.8647192565
 20
37.6666403903
 30
0.0
 10
39.223213875
 20
36.2504262409
 30
0.0
 10
39.4428159093
 20
34.8707031775
 30
0.0
 10
39.4956283879
 20
33.9629597861
 30
0.0
 10
39.4956283879
 20
33.5220252921
 30
0.0
  0
SPLINE
  5
411
100
AcDbEntity
  8
0
100
AcDbSpline
 62
7
  6
BYLAYER
 70
0
 71
3
 72
12
 73
8
 74
0
 42
0.0000001
 43
0.0000001
 44
0.0000000001
 40
0.0
 40
0.0
 40
0.0
 40
0.0
 40
0.2340737329
 40
0.4932828523
 40
0.7585258517
 40
0.8846060687
 40
1.0
 40
1.0
 40
1.0
 40
1.0
 10
38.6630867262
 20
39.0649933752
 30
0.0
 10
38.641750442
 20
39.0773116059
 30
0.0
 10
38.5929678897
 20
39.0968116125
 30
0.0
 10
38.5137769806
 20
39.1101027335
 30
0.0
 10
38.4446028112
 20
39.1069517539
 30
0.0
 10
38.3927873337
 20
39.0936847845
 30
0.0
 10
38.3693298505
 20
39.0834392089
 30
0.0
 10
38.358811509
 20
39.0773664778
 30
0.0
  0
SPLINE
  5
412
100
AcDbEntity
  8
0
100
AcDbSpline
 62
7
  6
BYLAYER
 70
0
 71
3
 72
15
 73
11
 74
0
 42
0.0000001
 43
0.0000001
 44
0.0000000001
 40
0.0
 40
0.0
 40
0.0
 40
0.0
 40
0.1488165165
 40
0.29264968
 40
0.4301545265
 40
0.5602937379
 40
0.682342317
 40
0.7960176825
 40
0.9015996616
 40
1.0
 40
1.0
 40
1.0
 40
1.0
 10
38.6630882959
 20
39.0649924689
 30
0.0
 10
38.8423953955
 20
38.594908969
 30
0.0
 10
39.1597205124
 20
37.6564849048
 30
0.0
 10
39.5114508818
 20
36.2436534978
 30
0.0
 10
39.7267410953
 20
34.8672414127
 30
0.0
 10
39.80203879
 20
33.5495476615
 30
0.0
 10
39.735758936
 20
32.3115656057
 30
0.0
 10
39.528317408
 20
31.1727679544
 30
0.0
 10
39.1820311441
 20
30.151799889
 30
0.0
 10
38.8504625195
 20
29.5418482458
 30
0.0
 10
38.6630842705
 20
29.2669657874
 30
0.0
  0
SPLINE
  5
413
100
AcDbEntity
  8
0
100
AcDbSpline
 62
7
  6
BYLAYER
 70
0
 71
3
 72
11
 73
7
 74
0
 42
0.0000001
 43
0.0000001
 44
0.0000000001
 40
0.0
 40
0.0
 40
0.0
 40
0.0
 40
0.2895411595
 40
0.5491183966
 40
0.7822559144
 40
1.0
 40
1.0
 40
1.0
 40
1.0
 10
35.3943908044
 20
25.4794123481
 30
0.0
 10
35.3943908044
 20
25.4540929222
 30
0.0
 10
35.3982568251
 20
25.405914496
 30
0.0
 10
35.4177333792
 20
25.3397089144
 30
0.0
 10
35.4505866615
 20
25.2859683459
 30
0.0
 10
35.4814708623
 20
25.2600638426
 30
0.0
 10
35.4979609526
 20
25.2505435028
 30
0.0
  0
SPLINE
  5
414
100
AcDbEntity
  8
0
100
AcDbSpline
 62
7
  6
BYLAYER
 70
0
 71
3
 72
15
 73
11
 74
0
 42
0.0000001
 43
0.0000001
 44
0.0000000001
 40
0.0
 40
0.0
 40
0.0
 40
0.0
 40
0.0984003098
 40
0.2039820566
 40
0.3176571048
 40
0.4397054657
 40
0.569844571
 40
0.707349487
 40
0.8511829322
 40
1.0
 40
1.0
 40
1.0
 40
1.0
 10
26.9090741027
 20
49.6253995857
 30
0.0
 10
27.2408153954
 20
49.6502394423
 30
0.0
 10
27.9348278707
 20
49.6324190281
 30
0.0
 10
28.9921489757
 20
49.4218473542
 30
0.0
 10
30.0820925065
 20
49.0321161554
 30
0.0
 10
31.1873522793
 20
48.4705416682
 30
0.0
 10
32.2908572792
 20
47.7465002797
 30
0.0
 10
33.3752192644
 20
46.8718612594
 30
0.0
 10
34.422903024
 20
45.8608498625
 30
0.0
 10
35.0769391621
 20
45.1168316908
 30
0.0
 10
35.3943908044
 20
44.7265085044
 30
0.0
  0
SPLINE
  5
415
100
AcDbEntity
  8
0
100
AcDbSpline
 62
7
  6
BYLAYER
 70
0
 71
3
 72
15
 73
11
 74
0
 42
0.0000001
 43
0.0000001
 44
0.0000000001
 40
0.0
 40
0.0
 40
0.0
 40
0.0
 40
0.0980158572
 40
0.2032722626
 40
0.3167494773
 40
0.4387557014
 40
0.5690029141
 40
0.7067357109
 40
0.8508698844
 40
1.0
 40
1.0
 40
1.0
 40
1.0
 10
26.7676533352
 20
49.3557008993
 30
0.0
 10
27.0981573536
 20
49.3852253019
 30
0.0
 10
27.7911061527
 20
49.3754824291
 30
0.0
 10
28.8485056818
 20
49.1726499648
 30
0.0
 10
29.9396601088
 20
48.786874295
 30
0.0
 10
31.0466449988
 20
48.225723331
 30
0.0
 10
32.1517740104
 20
47.4989271858
 30
0.0
 10
33.2370152502
 20
46.6188350292
 30
0.0
 10
34.2841845859
 20
45.6002811706
 30
0.0
 10
34.9366619261
 20
44.8503009899
 30
0.0
 10
35.252970037
 20
44.456811845
 30
0.0
  0
SPLINE
  5
416
100
AcDbEntity
  8
0
100
AcDbSpline
 62
7
  6
BYLAYER
 70
0
 71
3
 72
12
 73
8
 74
0
 42
0.0000001
 43
0.0000001
 44
0.0000000001
 40
0.0
 40
0.0
 40
0.0
 40
0.0
 40
0.1154346571
 40
0.2415761217
 40
0.5066826583
 40
0.7658543731
 40
1.0
 40
1.0
 40
1.0
 40
1.0
 10
35.252970037
 20
44.456811845
 30
0.0
 10
35.2634913327
 20
44.4628862817
 30
0.0
 10
35.2840930411
 20
44.4780930761
 30
0.0
 10
35.3214955077
 20
44.5163164746
 30
0.0
 10
35.3587929042
 20
44.5746413092
 30
0.0
 10
35.3868786659
 20
44.6498476795
 30
0.0
 10
35.3943908044
 20
44.7018444155
 30
0.0
 10
35.3943908044
 20
44.7264870866
 30
0.0
  0
SPLINE
  5
417
100
AcDbEntity
  8
0
100
AcDbSpline
 62
7
  6
BYLAYER
 70
0
 71
3
 72
27
 73
23
 74
0
 42
0.0000001
 43
0.0000001
 44
0.0000000001
 40
0.0
 40
0.0
 40
0.0
 40
0.0
 40
0.0214741789
 40
0.0430138709
 40
0.064840512
 40
0.0871779149
 40
0.1102303207
 40
0.1341632672
 40
0.1591045423
 40
0.1851461931
 40
0.2406889315
 40
0.3009432515
 40
0.3656028276
 40
0.4340570916
 40
0.5054726177
 40
0.5788612219
 40
0.6531392901
 40
0.7271811484
 40
0.7998731365
 40
0.8701633192
 40
0.9371243694
 40
1.0
 40
1.0
 40
1.0
 40
1.0
 10
26.2096046372
 20
25.5534517776
 30
0.0
 10
26.3259135796
 20
25.6053529411
 30
0.0
 10
26.5523723141
 20
25.7246909537
 30
0.0
 10
26.8670713192
 20
25.9475405374
 30
0.0
 10
27.1541452615
 20
26.212641966
 30
0.0
 10
27.4118325178
 20
26.5181003348
 30
0.0
 10
27.6386815764
 20
26.8620738128
 30
0.0
 10
27.833598639
 20
27.2424189958
 30
0.0
 10
27.9955183823
 20
27.6569533526
 30
0.0
 10
28.1700521495
 20
28.2649666692
 30
0.0
 10
28.2961243502
 20
29.100606866
 30
0.0
 10
28.3039693311
 20
30.1737655986
 30
0.0
 10
28.1722883056
 20
31.3156070171
 30
0.0
 10
27.9042502959
 20
32.5008321388
 30
0.0
 10
27.5059383366
 20
33.7032773788
 30
0.0
 10
26.9862789621
 20
34.8960881631
 30
0.0
 10
26.3569241989
 20
36.052537674
 30
0.0
 10
25.6320033692
 20
37.1466781536
 30
0.0
 10
24.8277849287
 20
38.1539275266
 30
0.0
 10
23.9621992458
 20
39.0518136785
 30
0.0
 10
23.0547088572
 20
39.8200831068
 30
0.0
 10
22.412676022
 20
40.2494055178
 30
0.0
 10
22.0894226761
 20
40.4353458344
 30
0.0
  0
SPLINE
  5
418
100
AcDbEntity
  8
0
100
AcDbSpline
 62
7
  6
BYLAYER
 70
0
 71
3
 72
11
 73
7
 74
0
 42
0.0000001
 43
0.0000001
 44
0.0000000001
 40
0.0
 40
0.0
 40
0.0
 40
0.0
 40
0.2645761393
 40
0.5176835256
 40
0.7618607144
 40
1.0
 40
1.0
 40
1.0
 40
1.0
 10
24.3512617931
 20
25.3148482552
 30
0.0
 10
24.5171302858
 20
25.2937824426
 30
0.0
 10
24.8444128401
 20
25.2708314835
 30
0.0
 10
25.3264757472
 20
25.2984856411
 30
0.0
 10
25.7838449079
 20
25.3891738094
 30
0.0
 10
26.0721730853
 20
25.4921249588
 30
0.0
 10
26.2096046372
 20
25.5534517776
 30
0.0
  0
SPLINE
  5
419
100
AcDbEntity
  8
0
100
AcDbSpline
 62
7
  6
BYLAYER
 70
0
 71
3
 72
11
 73
7
 74
0
 42
0.0000001
 43
0.0000001
 44
0.0000000001
 40
0.0
 40
0.0
 40
0.0
 40
0.0
 40
0.2391008021
 40
0.4815529148
 40
0.7334756156
 40
1.0
 40
1.0
 40
1.0
 40
1.0
 10
17.9920020372
 20
41.0006242374
 30
0.0
 10
17.8093710558
 20
40.9190983049
 30
0.0
 10
17.4573533825
 20
40.7164304901
 30
0.0
 10
16.9967684609
 20
40.3050550489
 30
0.0
 10
16.6110931893
 20
39.7942200549
 30
0.0
 10
16.4134595298
 20
39.4056286598
 30
0.0
 10
16.3275655054
 20
39.1998990555
 30
0.0
  0
SPLINE
  5
41A
100
AcDbEntity
  8
0
100
AcDbSpline
 62
7
  6
BYLAYER
 70
0
 71
3
 72
15
 73
11
 74
0
 42
0.0000001
 43
0.0000001
 44
0.0000000001
 40
0.0
 40
0.0
 40
0.0
 40
0.0
 40
0.1471299182
 40
0.2873000213
 40
0.4204151917
 40
0.5467750244
 40
0.666919496
 40
0.7816843881
 40
0.8922566591
 40
1.0
 40
1.0
 40
1.0
 40
1.0
 10
22.0894226761
 20
40.4353458344
 30
0.0
 10
21.9070772759
 20
40.5402337246
 30
0.0
 10
21.5429610759
 20
40.7315243404
 30
0.0
 10
20.988105181
 20
40.9647419639
 30
0.0
 10
20.4417783114
 20
41.1353898646
 30
0.0
 10
19.9084294108
 20
41.241900295
 30
0.0
 10
19.3922621766
 20
41.2833052818
 30
0.0
 10
18.8973772996
 20
41.258829104
 30
0.0
 10
18.4281967171
 20
41.1683264163
 30
0.0
 10
18.132669608
 20
41.063417827
 30
0.0
 10
17.9920020372
 20
41.0006242374
 30
0.0
  0
SPLINE
  5
41B
100
AcDbEntity
  8
0
100
AcDbSpline
 62
7
  6
BYLAYER
 70
0
 71
3
 72
15
 73
11
 74
0
 42
0.0000001
 43
0.0000001
 44
0.0000000001
 40
0.0
 40
0.0
 40
0.0
 40
0.0
 40
0.1485639553
 40
0.2895079037
 40
0.4227268581
 40
0.5486378095
 40
0.6680001335
 40
0.7819367969
 40
0.891985195
 40
1.0
 40
1.0
 40
1.0
 40
1.0
 10
27.7576811384
 20
30.0111119714
 30
0.0
 10
27.7576811384
 20
29.8027955848
 30
0.0
 10
27.7408570589
 20
29.3965695309
 30
0.0
 10
27.6609357907
 20
28.8082940597
 30
0.0
 10
27.5273466789
 20
28.2622549753
 30
0.0
 10
27.3411740879
 20
27.7638054608
 30
0.0
 10
27.1039354632
 20
27.3176709699
 30
0.0
 10
26.817331102
 20
26.9284770361
 30
0.0
 10
26.4841379808
 20
26.6005244717
 30
0.0
 10
26.2319401215
 20
26.424574412
 30
0.0
 10
26.1007780963
 20
26.348836973
 30
0.0
  0
SPLINE
  5
41C
100
AcDbEntity
  8
0
100
AcDbSpline
 62
7
  6
BYLAYER
 70
0
 71
3
 72
22
 73
18
 74
0
 42
0.0000001
 43
0.0000001
 44
0.0000000001
 40
0.0
 40
0.0
 40
0.0
 40
0.0
 40
0.0658707703
 40
0.1289056632
 40
0.1893697049
 40
0.2477125954
 40
0.3044959206
 40
0.3603543143
 40
0.4159739782
 40
0.4720602878
 40
0.5292911229
 40
0.5882749999
 40
0.713264285
 40
0.7801495012
 40
0.8501988473
 40
0.9235079077
 40
1.0
 40
1.0
 40
1.0
 40
1.0
 10
12.4488233002
 20
35.5819401192
 30
0.0
 10
12.3109448298
 20
35.615889463
 30
0.0
 10
12.0378395214
 20
35.6699398631
 30
0.0
 10
11.6306139506
 20
35.7077874866
 30
0.0
 10
11.2377943278
 20
35.6999178542
 30
0.0
 10
10.8620799178
 20
35.646324906
 30
0.0
 10
10.505964799
 20
35.5471083479
 30
0.0
 10
10.171875588
 20
35.4029433125
 30
0.0
 10
9.8622769401
 20
35.2146089244
 30
0.0
 10
9.5792868278
 20
34.9836079592
 30
0.0
 10
9.3248879373
 20
34.711484182
 30
0.0
 10
9.0201422764
 20
34.2887571754
 30
0.0
 10
8.7861387704
 20
33.795476706
 30
0.0
 10
8.6212033177
 20
33.255007012
 30
0.0
 10
8.5286861645
 20
32.8106531842
 30
0.0
 10
8.4709933433
 20
32.339792047
 30
0.0
 10
8.4560898334
 20
32.0168722518
 30
0.0
 10
8.4541535636
 20
31.8519908169
 30
0.0
  0
SPLINE
  5
41D
100
AcDbEntity
  8
0
100
AcDbSpline
 62
7
  6
BYLAYER
 70
0
 71
3
 72
13
 73
9
 74
0
 42
0.0000001
 43
0.0000001
 44
0.0000000001
 40
0.0
 40
0.0
 40
0.0
 40
0.0
 40
0.2721544298
 40
0.5261549112
 40
0.6477936934
 40
0.7667442152
 40
0.8838461278
 40
1.0
 40
1.0
 40
1.0
 40
1.0
 10
12.5902440676
 20
35.8333028108
 30
0.0
 10
12.3657765331
 20
35.890577388
 30
0.0
 10
11.9228769964
 20
35.9702831323
 30
0.0
 10
11.3680391817
 20
35.9727835243
 30
0.0
 10
10.9508453787
 20
35.9116036783
 30
0.0
 10
10.6552296708
 20
35.8362953828
 30
0.0
 10
10.3738210031
 20
35.7312802435
 30
0.0
 10
10.1961721025
 20
35.6415287673
 30
0.0
 10
10.1105499204
 20
35.5920891113
 30
0.0
  0
SPLINE
  5
41E
100
AcDbEntity
  8
0
100
AcDbSpline
 62
7
  6
BYLAYER
 70
0
 71
3
 72
12
 73
8
 74
0
 42
0.0000001
 43
0.0000001
 44
0.0000000001
 40
0.0
 40
0.0
 40
0.0
 40
0.0
 40
0.2361848552
 40
0.4979610915
 40
0.7613960648
 40
0.8855867911
 40
1.0
 40
1.0
 40
1.0
 40
1.0
 10
12.4488233002
 20
35.5820391157
 30
0.0
 10
12.4488233002
 20
35.6055823564
 30
0.0
 10
12.4571738071
 20
35.6552744585
 30
0.0
 10
12.4868493955
 20
35.7256610528
 30
0.0
 10
12.5246008681
 20
35.7790967609
 30
0.0
 10
12.5608772944
 20
35.8137455546
 30
0.0
 10
12.5803671452
 20
35.827600401
 30
0.0
 10
12.5902440676
 20
35.8333028108
 30
0.0
  0
SPLINE
  5
41F
100
AcDbEntity
  8
0
100
AcDbSpline
 62
7
  6
BYLAYER
 70
0
 71
3
 72
13
 73
9
 74
0
 42
0.0000001
 43
0.0000001
 44
0.0000000001
 40
0.0
 40
0.0
 40
0.0
 40
0.0
 40
0.114175582
 40
0.23756922
 40
0.49999856
 40
0.7624286893
 40
0.8858231943
 40
1.0
 40
1.0
 40
1.0
 40
1.0
 10
35.747942723
 20
47.2391982373
 30
0.0
 10
35.7237566116
 20
47.2252344627
 30
0.0
 10
35.6759578502
 20
47.1916942421
 30
0.0
 10
35.5864116505
 20
47.1079633733
 30
0.0
 10
35.4919126484
 20
46.97876979
 30
0.0
 10
35.427277968
 20
46.8323339416
 30
0.0
 10
35.3995381376
 20
46.7129184776
 30
0.0
 10
35.3943908044
 20
46.6547529254
 30
0.0
 10
35.3943908044
 20
46.6268249518
 30
0.0
  0
SPLINE
  5
420
100
AcDbEntity
  8
0
100
AcDbSpline
 62
7
  6
BYLAYER
 70
0
 71
3
 72
11
 73
7
 74
0
 42
0.0000001
 43
0.0000001
 44
0.0000000001
 40
0.0
 40
0.0
 40
0.0
 40
0.0
 40
0.2744473463
 40
0.5335050737
 40
0.7755526085
 40
1.0
 40
1.0
 40
1.0
 40
1.0
 10
22.5604334904
 20
38.0786602743
 30
0.0
 10
22.3195244432
 20
38.2953620352
 30
0.0
 10
21.8316934167
 20
38.6956779805
 30
0.0
 10
21.0662776625
 20
39.2015625564
 30
0.0
 10
20.2995961764
 20
39.5883191878
 30
0.0
 10
19.7766334691
 20
39.7685782665
 30
0.0
 10
19.5198616723
 20
39.8340955187
 30
0.0
  0
SPLINE
  5
421
100
AcDbEntity
  8
0
100
AcDbSpline
 62
7
  6
BYLAYER
 70
0
 71
3
 72
13
 73
9
 74
0
 42
0.0000001
 43
0.0000001
 44
0.0000000001
 40
0.0
 40
0.0
 40
0.0
 40
0.0
 40
0.1196908954
 40
0.23194902
 40
0.3425999326
 40
0.4568235548
 40
0.7085423375
 40
1.0
 40
1.0
 40
1.0
 40
1.0
 10
23.7005098969
 20
47.5963813516
 30
0.0
 10
23.7045220113
 20
47.6020698397
 30
0.0
 10
23.7110055117
 20
47.6141145992
 30
0.0
 10
23.7152917809
 20
47.6338370303
 30
0.0
 10
23.7139530465
 20
47.6536453953
 30
0.0
 10
23.7049767009
 20
47.6801455724
 30
0.0
 10
23.6809885595
 20
47.7111085614
 30
0.0
 10
23.6550626645
 20
47.7296840858
 30
0.0
 10
23.640382834
 20
47.7381592981
 30
0.0
  0
SPLINE
  5
422
100
AcDbEntity
  8
0
100
AcDbSpline
 62
7
  6
BYLAYER
 70
0
 71
3
 72
15
 73
11
 74
0
 42
0.0000001
 43
0.0000001
 44
0.0000000001
 40
0.0
 40
0.0
 40
0.0
 40
0.0
 40
0.1491301156
 40
0.2932642891
 40
0.4309970859
 40
0.5612442986
 40
0.6832505227
 40
0.7967277374
 40
0.9019841428
 40
1.0
 40
1.0
 40
1.0
 40
1.0
 10
31.8588716183
 20
42.4972399064
 30
0.0
 10
31.5425635075
 20
42.8907290513
 30
0.0
 10
30.8900861672
 20
43.640709232
 30
0.0
 10
29.8429168316
 20
44.6592630906
 30
0.0
 10
28.7576755918
 20
45.5393552473
 30
0.0
 10
27.6525465802
 20
46.2661513924
 30
0.0
 10
26.5455616901
 20
46.8273023564
 30
0.0
 10
25.4544072632
 20
47.2130780262
 30
0.0
 10
24.3970077341
 20
47.4159104906
 30
0.0
 10
23.704058935
 20
47.4256533633
 30
0.0
 10
23.3735549166
 20
47.3961289607
 30
0.0
  0
SPLINE
  5
423
100
AcDbEntity
  8
0
100
AcDbSpline
 62
7
  6
BYLAYER
 70
0
 71
3
 72
16
 73
12
 74
0
 42
0.0000001
 43
0.0000001
 44
0.0000000001
 40
0.0
 40
0.0
 40
0.0
 40
0.0
 40
0.0545088174
 40
0.1111555246
 40
0.2300483129
 40
0.3551758031
 40
0.4845814347
 40
0.6160629422
 40
0.7473049557
 40
0.8760050656
 40
1.0
 40
1.0
 40
1.0
 40
1.0
 10
19.4840648549
 20
25.3124696591
 30
0.0
 10
19.4861244046
 20
25.4878488923
 30
0.0
 10
19.4772521499
 20
25.8457445428
 30
0.0
 10
19.4102393377
 20
26.583340766
 30
0.0
 10
19.2328705575
 20
27.5368447233
 30
0.0
 10
18.8862740389
 20
28.6894545991
 30
0.0
 10
18.41138204
 20
29.839286444
 30
0.0
 10
17.8206364232
 20
30.9562664853
 30
0.0
 10
17.1293794872
 20
32.0113599839
 30
0.0
 10
16.355787937
 20
32.976902587
 30
0.0
 10
15.7847069534
 20
33.5582334819
 30
0.0
 10
15.4893951183
 20
33.8265088724
 30
0.0
  0
SPLINE
  5
424
100
AcDbEntity
  8
0
100
AcDbSpline
 62
7
  6
BYLAYER
 70
0
 71
3
 72
23
 73
19
 74
0
 42
0.0000001
 43
0.0000001
 44
0.0000000001
 40
0.0
 40
0.0
 40
0.0
 40
0.0
 40
0.0654553532
 40
0.1281314478
 40
0.1883126837
 40
0.246460093
 40
0.3031348596
 40
0.3589659151
 40
0.4146304109
 40
0.4708192521
 40
0.5281931473
 40
0.5873425757
 40
0.6487678112
 40
0.7128529742
 40
0.7798829793
 40
0.8500518974
 40
0.9234501331
 40
1.0
 40
1.0
 40
1.0
 40
1.0
 10
15.556975524
 20
21.5664240849
 30
0.0
 10
15.6930321125
 20
21.5351097023
 30
0.0
 10
15.9624241284
 20
21.4860805362
 30
0.0
 10
16.3636500268
 20
21.4551629035
 30
0.0
 10
16.750367554
 20
21.4690907213
 30
0.0
 10
17.1199890856
 20
21.5278152356
 30
0.0
 10
17.4701076812
 20
21.6311927052
 30
0.0
 10
17.7983748005
 20
21.7785372919
 30
0.0
 10
18.1024164412
 20
21.9690402117
 30
0.0
 10
18.3802126401
 20
22.2012245238
 30
0.0
 10
18.6298459136
 20
22.473529806
 30
0.0
 10
18.8498718796
 20
22.7839503128
 30
0.0
 10
19.0388828384
 20
23.1304535076
 30
0.0
 10
19.1959671134
 20
23.5106913128
 30
0.0
 10
19.320157117
 20
23.9223304542
 30
0.0
 10
19.4108710297
 20
24.3628400755
 30
0.0
 10
19.4674963089
 20
24.8293811574
 30
0.0
 10
19.4821475487
 20
25.1492030517
 30
0.0
 10
19.4840648549
 20
25.3124696591
 30
0.0
  0
SPLINE
  5
425
100
AcDbEntity
  8
0
100
AcDbSpline
 62
7
  6
BYLAYER
 70
0
 71
3
 72
9
 73
5
 74
0
 42
0.0000001
 43
0.0000001
 44
0.0000000001
 40
0.0
 40
0.0
 40
0.0
 40
0.0
 40
0.2500850654
 40
1.0
 40
1.0
 40
1.0
 40
1.0
 10
30.9666534874
 20
41.6618027487
 30
0.0
 10
31.0409631009
 20
41.7315179075
 30
0.0
 10
31.3381708468
 20
42.0102086476
 30
0.0
 10
31.6356483082
 20
42.2886117279
 30
0.0
 10
31.8588716183
 20
42.4972399064
 30
0.0
  0
SPLINE
  5
426
100
AcDbEntity
  8
0
100
AcDbSpline
 62
7
  6
BYLAYER
 70
0
 71
3
 72
16
 73
12
 74
0
 42
0.0000001
 43
0.0000001
 44
0.0000000001
 40
0.0
 40
0.0
 40
0.0
 40
0.0
 40
0.0547880349
 40
0.1116802117
 40
0.2309491827
 40
0.3562847635
 40
0.4857297791
 40
0.6170945284
 40
0.7480859268
 40
0.8764307528
 40
1.0
 40
1.0
 40
1.0
 40
1.0
 10
19.7674077779
 20
25.3979530326
 30
0.0
 10
19.7674077779
 20
25.5781228611
 30
0.0
 10
19.7542327939
 20
25.9454867978
 30
0.0
 10
19.677940581
 20
26.7015325173
 30
0.0
 10
19.4878593632
 20
27.6770600966
 30
0.0
 10
19.1245333948
 20
28.8543698534
 30
0.0
 10
18.631618311
 20
30.0267858453
 30
0.0
 10
18.0219068317
 20
31.1639272804
 30
0.0
 10
17.3110860808
 20
32.2365105954
 30
0.0
 10
16.5176697394
 20
33.2166788985
 30
0.0
 10
15.9329305285
 20
33.8061103376
 30
0.0
 10
15.6308158857
 20
34.0778675664
 30
0.0
  0
SPLINE
  5
427
100
AcDbEntity
  8
0
100
AcDbSpline
 62
7
  6
BYLAYER
 70
0
 71
3
 72
18
 73
14
 74
0
 42
0.0000001
 43
0.0000001
 44
0.0000000001
 40
0.0
 40
0.0
 40
0.0
 40
0.0
 40
0.0642474432
 40
0.1277118454
 40
0.1906993154
 40
0.2533874288
 40
0.3158805031
 40
0.3782436092
 40
0.5027245094
 40
0.6270543201
 40
0.7513391016
 40
0.8756411777
 40
1.0
 40
1.0
 40
1.0
 40
1.0
 10
28.2883880986
 20
36.1412288368
 30
0.0
 10
28.3989007329
 20
36.0935803587
 30
0.0
 10
28.6293447382
 20
36.0235724223
 30
0.0
 10
28.9827734861
 20
35.9681234607
 30
0.0
 10
29.336771603
 20
35.9459432303
 30
0.0
 10
29.6894227934
 20
35.9475411672
 30
0.0
 10
30.0403094142
 20
35.9670066329
 30
0.0
 10
30.50531455
 20
36.0116969721
 30
0.0
 10
31.0824314602
 20
36.0959099068
 30
0.0
 10
31.7686587491
 20
36.2291702025
 30
0.0
 10
32.4492095323
 20
36.3872499637
 30
0.0
 10
33.1247913203
 20
36.565395588
 30
0.0
 10
33.5721199635
 20
36.6953956489
 30
0.0
 10
33.795092388
 20
36.7628300621
 30
0.0
  0
SPLINE
  5
428
100
AcDbEntity
  8
0
100
AcDbSpline
 62
7
  6
BYLAYER
 70
0
 71
3
 72
18
 73
14
 74
0
 42
0.0000001
 43
0.0000001
 44
0.0000000001
 40
0.0
 40
0.0
 40
0.0
 40
0.0
 40
0.1243588722
 40
0.2486609777
 40
0.3729457675
 40
0.4972755622
 40
0.6217564081
 40
0.6841194718
 40
0.7466124823
 40
0.8093005021
 40
0.8722878751
 40
0.9357522597
 40
1.0
 40
1.0
 40
1.0
 40
1.0
 10
30.9666534874
 20
41.6618027487
 30
0.0
 10
30.7967675236
 20
41.5024205854
 30
0.0
 10
30.4605201918
 20
41.1800235051
 30
0.0
 10
29.9684511889
 20
40.684026668
 30
0.0
 10
29.491275251
 20
40.1736937517
 30
0.0
 10
29.0327555842
 20
39.646035083
 30
0.0
 10
28.6712670881
 20
39.188345105
 30
0.0
 10
28.4000620634
 20
38.8079852332
 30
0.0
 10
28.2077616956
 20
38.5138422418
 30
0.0
 10
28.0300526221
 20
38.2092374951
 30
0.0
 10
27.8722633788
 20
37.8915767503
 30
0.0
 10
27.7435683977
 20
37.5577747367
 30
0.0
 10
27.6889759536
 20
37.3232001179
 30
0.0
 10
27.6749846968
 20
37.2036687964
 30
0.0
  0
SPLINE
  5
429
100
AcDbEntity
  8
0
100
AcDbSpline
 62
7
  6
BYLAYER
 70
0
 71
3
 72
9
 73
5
 74
0
 42
0.0000001
 43
0.0000001
 44
0.0000000001
 40
0.0
 40
0.0
 40
0.0
 40
0.0
 40
0.5255708413
 40
1.0
 40
1.0
 40
1.0
 40
1.0
 10
36.4524463651
 20
44.782670626
 30
0.0
 10
36.4272191842
 20
44.7824796839
 30
0.0
 10
36.3791305052
 20
44.7769888793
 30
0.0
 10
36.3333478653
 20
44.7602466972
 30
0.0
 10
36.3136257928
 20
44.7488602213
 30
0.0
  0
SPLINE
  5
42A
100
AcDbEntity
  8
0
100
AcDbSpline
 62
7
  6
BYLAYER
 70
0
 71
3
 72
17
 73
13
 74
0
 42
0.0000001
 43
0.0000001
 44
0.0000000001
 40
0.0
 40
0.0
 40
0.0
 40
0.0
 40
0.0235364042
 40
0.0464350191
 40
0.0727634556
 40
0.1048270126
 40
0.1892002003
 40
0.3013661372
 40
0.4400763097
 40
0.6037026396
 40
0.7907403057
 40
1.0
 40
1.0
 40
1.0
 40
1.0
 10
17.4854942677
 20
42.3781414003
 30
0.0
 10
17.4855938959
 20
42.3764541822
 30
0.0
 10
17.4864415549
 20
42.3730787997
 30
0.0
 10
17.4901522084
 20
42.3691398561
 30
0.0
 10
17.495592191
 20
42.3667566696
 30
0.0
 10
17.5057737096
 20
42.3651108367
 30
0.0
 10
17.5223053571
 20
42.3666465439
 30
0.0
 10
17.5456930985
 20
42.372411256
 30
0.0
 10
17.5737904276
 20
42.3823821237
 30
0.0
 10
17.6060263367
 20
42.3964144674
 30
0.0
 10
17.641995387
 20
42.4144218617
 30
0.0
 10
17.6668825603
 20
42.4282399312
 30
0.0
 10
17.6798963543
 20
42.4357533948
 30
0.0
  0
SPLINE
  5
42B
100
AcDbEntity
  8
0
100
AcDbSpline
 62
7
  6
BYLAYER
 70
0
 71
3
 72
9
 73
5
 74
0
 42
0.0000001
 43
0.0000001
 44
0.0000000001
 40
0.0
 40
0.0
 40
0.0
 40
0.0
 40
0.4744881526
 40
1.0
 40
1.0
 40
1.0
 40
1.0
 10
39.1420646934
 20
39.8498875347
 30
0.0
 10
39.1607202534
 20
39.860658263
 30
0.0
 10
39.1962921313
 20
39.8898960223
 30
0.0
 10
39.224147933
 20
39.9261862142
 30
0.0
 10
39.2366988269
 20
39.9464761014
 30
0.0
  0
SPLINE
  5
42C
100
AcDbEntity
  8
0
100
AcDbSpline
 62
7
  6
BYLAYER
 70
0
 71
3
 72
13
 73
9
 74
0
 42
0.0000001
 43
0.0000001
 44
0.0000000001
 40
0.0
 40
0.0
 40
0.0
 40
0.0
 40
0.2913579514
 40
0.5430576236
 40
0.6573142007
 40
0.7680214964
 40
0.8803446291
 40
1.0
 40
1.0
 40
1.0
 40
1.0
 10
35.3943908044
 20
27.3797672839
 30
0.0
 10
35.3943908044
 20
27.3967091527
 30
0.0
 10
35.3912658464
 20
27.4284373629
 30
0.0
 10
35.3764455975
 20
27.464678365
 30
0.0
 10
35.3579889503
 20
27.4857058598
 30
0.0
 10
35.3414941661
 20
27.4967668425
 30
0.0
 10
35.3222685583
 20
27.5029089277
 30
0.0
 10
35.3085978512
 20
27.5033271034
 30
0.0
 10
35.3016683204
 20
27.5027014828
 30
0.0
  0
SPLINE
  5
42D
100
AcDbEntity
  8
0
100
AcDbSpline
 62
7
  6
BYLAYER
 70
0
 71
3
 72
15
 73
11
 74
0
 42
0.0000001
 43
0.0000001
 44
0.0000000001
 40
0.0
 40
0.0
 40
0.0
 40
0.0
 40
0.1141241598
 40
0.2373483675
 40
0.3669736385
 40
0.5000010132
 40
0.6330282465
 40
0.7626531028
 40
0.8858766831
 40
1.0
 40
1.0
 40
1.0
 40
1.0
 10
41.7230140126
 20
44.034497078
 30
0.0
 10
41.7230140126
 20
44.073613407
 30
0.0
 10
41.7158317112
 20
44.1550391049
 30
0.0
 10
41.6872842525
 20
44.2778747535
 30
0.0
 10
41.6414976267
 20
44.4022982457
 30
0.0
 10
41.5802583742
 20
44.523626239
 30
0.0
 10
41.5058044277
 20
44.6373245213
 30
0.0
 10
41.4209435695
 20
44.7391879042
 30
0.0
 10
41.328838427
 20
44.8253275288
 30
0.0
 10
41.261912881
 20
44.8722596099
 30
0.0
 10
41.228037205
 20
44.8918172982
 30
0.0
  0
SPLINE
  5
42E
100
AcDbEntity
  8
0
100
AcDbSpline
 62
7
  6
BYLAYER
 70
0
 71
3
 72
21
 73
17
 74
0
 42
0.0000001
 43
0.0000001
 44
0.0000000001
 40
0.0
 40
0.0
 40
0.0
 40
0.0
 40
0.010360365
 40
0.0234322632
 40
0.0390989215
 40
0.057149244
 40
0.0994155984
 40
0.1485549961
 40
0.2032574401
 40
0.2625277028
 40
0.325622584
 40
0.3919660524
 40
0.5326703474
 40
0.6819989715
 40
0.8381869052
 40
1.0
 40
1.0
 40
1.0
 40
1.0
 10
27.6749846968
 20
24.7295242454
 30
0.0
 10
27.6790994782
 20
24.7268129302
 30
0.0
 10
27.6895543393
 20
24.7225051646
 30
0.0
 10
27.707744912
 20
24.7185536911
 30
0.0
 10
27.7298977086
 20
24.7160845739
 30
0.0
 10
27.766019247
 20
24.7145556096
 30
0.0
 10
27.8181118799
 20
24.7160414299
 30
0.0
 10
27.8874074423
 20
24.7214028791
 30
0.0
 10
27.964537948
 20
24.729861892
 30
0.0
 10
28.0480393285
 20
24.7408650446
 30
0.0
 10
28.1368310669
 20
24.7540091196
 30
0.0
 10
28.2637005905
 20
24.77435929
 30
0.0
 10
28.4306781486
 20
24.8035639234
 30
0.0
 10
28.6392992272
 20
24.8425930525
 30
0.0
 10
28.8574464442
 20
24.8852557588
 30
0.0
 10
29.0057156351
 20
24.9151498604
 30
0.0
 10
29.0811293358
 20
24.9305188461
 30
0.0
  0
SPLINE
  5
42F
100
AcDbEntity
  8
0
100
AcDbSpline
 62
7
  6
BYLAYER
 70
0
 71
3
 72
16
 73
12
 74
0
 42
0.0000001
 43
0.0000001
 44
0.0000000001
 40
0.0
 40
0.0
 40
0.0
 40
0.0
 40
0.1084033959
 40
0.218781572
 40
0.3329390809
 40
0.4523796551
 40
0.514474481
 40
0.5782768608
 40
0.7112747806
 40
0.8518703781
 40
1.0
 40
1.0
 40
1.0
 40
1.0
 10
18.110510033
 20
21.7356690263
 30
0.0
 10
18.2394131515
 20
21.8100998066
 30
0.0
 10
18.4873933833
 20
21.9825719949
 30
0.0
 10
18.815940004
 20
22.3031738982
 30
0.0
 10
19.0996117663
 20
22.6830413228
 30
0.0
 10
19.2939036474
 20
23.0410883747
 30
0.0
 10
19.4254677407
 20
23.3513954733
 30
0.0
 10
19.5438347846
 20
23.6868160851
 30
0.0
 10
19.6589779139
 20
24.1366443762
 30
0.0
 10
19.7434756805
 20
24.710388693
 30
0.0
 10
19.7645063339
 20
25.1068956292
 30
0.0
 10
19.7668947414
 20
25.310278475
 30
0.0
  0
SPLINE
  5
430
100
AcDbEntity
  8
0
100
AcDbSpline
 62
7
  6
BYLAYER
 70
0
 71
3
 72
11
 73
7
 74
0
 42
0.0000001
 43
0.0000001
 44
0.0000000001
 40
0.0
 40
0.0
 40
0.0
 40
0.0
 40
0.2372446848
 40
0.5000016179
 40
0.7627576706
 40
1.0
 40
1.0
 40
1.0
 40
1.0
 10
41.7230140126
 20
38.6864062458
 30
0.0
 10
41.7230140126
 20
38.6632220019
 30
0.0
 10
41.714315912
 20
38.6143291751
 30
0.0
 10
41.684008404
 20
38.5456264528
 30
0.0
 10
41.6396643083
 20
38.4850279749
 30
0.0
 10
41.60167122
 20
38.4530488866
 30
0.0
 10
41.5815932451
 20
38.4414569316
 30
0.0
  0
SPLINE
  5
431
100
AcDbEntity
  8
0
100
AcDbSpline
 62
7
  6
BYLAYER
 70
0
 71
3
 72
19
 73
15
 74
0
 42
0.0000001
 43
0.0000001
 44
0.0000000001
 40
0.0
 40
0.0
 40
0.0
 40
0.0
 40
0.0492625565
 40
0.099008217
 40
0.1496957205
 40
0.2017437576
 40
0.2555096491
 40
0.3112892217
 40
0.4296175404
 40
0.4925279589
 40
0.5579691001
 40
0.6962877933
 40
0.844029118
 40
1.0
 40
1.0
 40
1.0
 40
1.0
 10
18.1008285781
 20
40.2052390421
 30
0.0
 10
18.1948116336
 20
40.2595080725
 30
0.0
 10
18.3905970337
 20
40.3570945898
 30
0.0
 10
18.7020925064
 20
40.4676406034
 30
0.0
 10
19.0303917489
 20
40.5422665065
 30
0.0
 10
19.373722
 20
40.5805057954
 30
0.0
 10
19.7303464082
 20
40.5824131736
 30
0.0
 10
20.2308279357
 20
40.5355593524
 30
0.0
 10
20.7418343293
 20
40.4145929522
 30
0.0
 10
21.2532875265
 20
40.2300625316
 30
0.0
 10
21.7906918608
 20
39.9915458567
 30
0.0
 10
22.4651319361
 20
39.6066419793
 30
0.0
 10
23.2518074812
 20
39.0297913108
 30
0.0
 10
23.7495091708
 20
38.5807705453
 30
0.0
 10
23.9940085694
 20
38.3393467899
 30
0.0
  0
SPLINE
  5
432
100
AcDbEntity
  8
0
100
AcDbSpline
 62
7
  6
BYLAYER
 70
0
 71
3
 72
15
 73
11
 74
0
 42
0.0000001
 43
0.0000001
 44
0.0000000001
 40
0.0
 40
0.0
 40
0.0
 40
0.0
 40
0.1255576496
 40
0.254905063
 40
0.3860786956
 40
0.5170240466
 40
0.6457001526
 40
0.7701752651
 40
0.8887414775
 40
1.0
 40
1.0
 40
1.0
 40
1.0
 10
23.9940085694
 20
38.3393467899
 30
0.0
 10
24.2725478405
 20
38.0643113615
 30
0.0
 10
24.8096345085
 20
37.4765572091
 30
0.0
 10
25.5363090669
 20
36.5150609304
 30
0.0
 10
26.1833331995
 20
35.478325737
 30
0.0
 10
26.7355956715
 20
34.3905298948
 30
0.0
 10
27.1802867355
 20
33.2768838397
 30
0.0
 10
27.5071512946
 20
32.1630684183
 30
0.0
 10
27.7085304104
 20
31.0749936893
 30
0.0
 10
27.7576811384
 20
30.3579766243
 30
0.0
 10
27.7576811384
 20
30.0111119714
 30
0.0
  0
SPLINE
  5
433
100
AcDbEntity
  8
0
100
AcDbSpline
 62
7
  6
BYLAYER
 70
0
 71
3
 72
21
 73
17
 74
0
 42
0.0000001
 43
0.0000001
 44
0.0000000001
 40
0.0
 40
0.0
 40
0.0
 40
0.0
 40
0.1618165444
 40
0.3180070709
 40
0.4673372708
 40
0.6080420125
 40
0.6743849658
 40
0.7374794904
 40
0.7967485195
 40
0.8514497418
 40
0.9005879007
 40
0.9428526795
 40
0.9609021518
 40
0.976568245
 40
0.9896399205
 40
1.0
 40
1.0
 40
1.0
 40
1.0
 10
18.3623720849
 20
43.4950618382
 30
0.0
 10
18.3113692992
 20
43.4374525384
 30
0.0
 10
18.2113733156
 20
43.324027237
 30
0.0
 10
18.0653936325
 20
43.1564859311
 30
0.0
 10
17.9273225791
 20
42.9953766434
 30
0.0
 10
17.8185737703
 20
42.8654110941
 30
0.0
 10
17.7375398754
 20
42.7657440782
 30
0.0
 10
17.6817781272
 20
42.6954423476
 30
0.0
 10
17.6305149156
 20
42.6286506238
 30
0.0
 10
17.5846389013
 20
42.5661033548
 30
0.0
 10
17.5453609913
 20
42.5087911467
 30
0.0
 10
17.5180372407
 20
42.464435262
 30
0.0
 10
17.5013065449
 20
42.4323993794
 30
0.0
 10
17.4923717388
 20
42.4119867135
 30
0.0
 10
17.4867001277
 20
42.3942633614
 30
0.0
 10
17.4852038916
 20
42.3830589576
 30
0.0
 10
17.4854942677
 20
42.3781414003
 30
0.0
  0
SPLINE
  5
434
100
AcDbEntity
  8
0
100
AcDbSpline
 62
7
  6
BYLAYER
 70
0
 71
3
 72
11
 73
7
 74
0
 42
0.0000001
 43
0.0000001
 44
0.0000000001
 40
0.0
 40
0.0
 40
0.0
 40
0.0
 40
0.2177434119
 40
0.4508805377
 40
0.710457812
 40
1.0
 40
1.0
 40
1.0
 40
1.0
 10
21.848241408
 20
48.892417528
 30
0.0
 10
21.8482414139
 20
48.8733770414
 30
0.0
 10
21.8552335125
 20
48.8336794079
 30
0.0
 10
21.8853475169
 20
48.7783591562
 30
0.0
 10
21.9329444231
 20
48.7283909054
 30
0.0
 10
21.9727345763
 20
48.7009546872
 30
0.0
 10
21.9946615129
 20
48.6882954509
 30
0.0
  0
SPLINE
  5
435
100
AcDbEntity
  8
0
100
AcDbSpline
 62
7
  6
BYLAYER
 70
0
 71
3
 72
11
 73
7
 74
0
 42
0.0000001
 43
0.0000001
 44
0.0000000001
 40
0.0
 40
0.0
 40
0.0
 40
0.0
 40
0.2177833598
 40
0.4509104088
 40
0.7102966711
 40
1.0
 40
1.0
 40
1.0
 40
1.0
 10
41.5780338916
 20
22.893238307
 30
0.0
 10
41.6011245063
 20
22.9065696041
 30
0.0
 10
41.6443260972
 20
22.9428890955
 30
0.0
 10
41.690319311
 20
23.0180900942
 30
0.0
 10
41.7176365752
 20
23.1107656822
 30
0.0
 10
41.7230140126
 20
23.1782177401
 30
0.0
 10
41.7230140126
 20
23.2136854412
 30
0.0
  0
ELLIPSE
  5
436
100
AcDbEntity
  8
0
100
AcDbEllipse
 62
7
  6
BYLAYER
 10
24.80127784
 20
49.1344645209
 30
0.0
 11
-0.2500059265
 21
0.4330092802
 31
0.0
 40
0.8467499508
 41
0.4624989267
 42
1.5707830018
  0
ELLIPSE
  5
437
100
AcDbEntity
  8
0
100
AcDbEllipse
 62
7
  6
BYLAYER
 10
23.0418611265
 20
52.1818467436
 30
0.0
 11
-0.2500059265
 21
0.4330092802
 31
0.0
 40
0.8467499508
 41
1.5707830018
 42
2.6790670768
  0
ELLIPSE
  5
438
100
AcDbEntity
  8
0
100
AcDbEllipse
 62
7
  6
BYLAYER
 10
38.943472343
 20
24.6396010879
 30
0.0
 11
-0.2500059265
 21
0.4330092802
 31
0.0
 40
0.8467499508
 41
0.4624989267
 42
1.5707830018
  0
ELLIPSE
  5
439
100
AcDbEntity
  8
0
100
AcDbEllipse
 62
7
  6
BYLAYER
 10
37.1840556295
 20
27.6869833106
 30
0.0
 11
-0.2500059265
 21
0.4330092802
 31
0.0
 40
0.8467499508
 41
1.5707830018
 42
2.6790670768
  0
ELLIPSE
  5
43A
100
AcDbEntity
  8
0
100
AcDbEllipse
 62
7
  6
BYLAYER
 10
38.943472343
 20
40.9696494305
 30
0.0
 11
-0.2500059265
 21
0.4330092802
 31
0.0
 40
0.8467499508
 41
0.4624989267
 42
1.5707830018
  0
ELLIPSE
  5
43B
100
AcDbEntity
  8
0
100
AcDbEllipse
 62
7
  6
BYLAYER
 10
37.1840556295
 20
44.0170316532
 30
0.0
 11
-0.2500059265
 21
0.4330092802
 31
0.0
 40
0.8467499508
 41
1.5707830018
 42
2.6790670768
  0
ELLIPSE
  5
43C
100
AcDbEntity
  8
0
100
AcDbEllipse
 62
7
  6
BYLAYER
 10
45.8039503265
 20
26.188135277
 30
0.0
 11
-0.3501050569
 21
0.6064033599
 31
0.0
 40
0.5771809715
 41
-3.1241443842
 42
-2.3563255443
  0
ELLIPSE
  5
43D
100
AcDbEntity
  8
0
100
AcDbEllipse
 62
7
  6
BYLAYER
 10
45.8039503265
 20
46.9621541044
 30
0.0
 11
-0.3499984303
 21
0.6062186889
 31
0.0
 40
0.5775326816
 41
-2.3560461557
 42
-0.785529207
  0
ELLIPSE
  5
43E
100
AcDbEntity
  8
0
100
AcDbEllipse
 62
7
  6
BYLAYER
 10
27.8131759759
 20
57.3488975391
 30
0.0
 11
-0.3501050569
 21
0.6064033599
 31
0.0
 40
0.5771809715
 41
-0.7852529646
 42
-0.0174482693
  0
ELLIPSE
  5
43F
100
AcDbEntity
  8
0
100
AcDbEllipse
 62
7
  6
BYLAYER
 10
42.6775249668
 20
24.2548357124
 30
0.0
 11
-0.3501050569
 21
0.6064033599
 31
0.0
 40
0.5771809715
 41
2.746505313
 42
3.9268597629
  0
ELLIPSE
  5
440
100
AcDbEntity
  8
0
100
AcDbEllipse
 62
7
  6
BYLAYER
 10
42.6775249668
 20
45.1571234642
 30
0.0
 11
-0.3499984303
 21
0.6062186889
 31
0.0
 40
0.5775326816
 41
-2.3560461557
 42
-0.785529207
  0
ELLIPSE
  5
441
100
AcDbEntity
  8
0
100
AcDbEllipse
 62
7
  6
BYLAYER
 10
24.5756668007
 20
55.6079997188
 30
0.0
 11
-0.3501050569
 21
0.6064033599
 31
0.0
 40
0.5771809715
 41
-0.7852529647
 42
0.3950909287
  0
ENDSEC
  0
SECTION
  2
OBJECTS
  0
DICTIONARY
  5
C
100
AcDbDictionary
280
0
281
1
  3
ACAD_GROUP
350
D
  3
ACAD_MLINESTYLE
350
17
  3
ACAD_LAYOUT
350
1A
  3
ACAD_PLOTSETTINGS
350
19
  3
ACAD_PLOTSTYLENAME
350
E
  0
DICTIONARY
  5
D
102
{ACAD_REACTORS
330
C
102
}
100
AcDbDictionary
280
0
281
1
  0
ACDBDICTIONARYWDFLT
  5
E
102
{ACAD_REACTORS
330
C
102
}
100
AcDbDictionary
281
1
  3
Normal
350
F
100
AcDbDictionaryWithDefault
340
F
  0
DICTIONARY
  5
17
102
{ACAD_REACTORS
330
C
102
}
100
AcDbDictionary
280
0
281
1
  3
Standard
350
18
  0
DICTIONARY
  5
19
102
{ACAD_REACTORS
330
C
102
}
100
AcDbDictionary
281
1
  0
DICTIONARY
  5
1A
102
{ACAD_REACTORS
330
C
102
}
100
AcDbDictionary
281
1
  3
Model
350
442
  3
Layout1
350
443
  0
ACDBPLACEHOLDER
  5
F
102
{ACAD_REACTORS
330
E
102
}
  0
MLINESTYLE
  5
18
102
{ACAD_REACTORS
330
17
102
}
100
AcDbMlineStyle
  2
STANDARD
 70
0
  3

 62
256
 51
90.0
 52
90.0
 71
2
 49
0.5
 62
256
  6
BYLAYER
 49
-0.5
 62
256
  6
BYLAYER
  0
LAYOUT
  5
442
102
{ACAD_REACTORS
330
1A
102
}
100
AcDbPlotSettings
  1

  2
none_device
  4

  6

 40
0.0
 41
0.0
 42
0.0
 43
0.0
 44
210.0
 45
297.0
 46
0.0
 47
0.0
 48
0.0
 49
0.0
140
0.0
141
0.0
142
1.0
143
1.0
 70
1024
 72
1
 73
0
 74
0
  7

 75
0
147
1.0
148
0.0
149
0.0
100
AcDbLayout
  1
Model
 70
0
 71
0
 10
0.0
 20
0.0
 11
210.0
 21
297.0
 12
0.0
 22
0.0
 32
0.0
 14
0.0
 24
0.0
 34
0.0
 15
0.0
 25
0.0
 35
0.0
146
0.0
 13
0.0
 23
0.0
 33
0.0
 16
1.0
 26
0.0
 36
0.0
 17
0.0
 27
1.0
 37
0.0
 76
0
330
210
345
0
346
0
  0
LAYOUT
  5
443
102
{ACAD_REACTORS
330
1A
102
}
100
AcDbPlotSettings
  1

  2
none_device
  4

  6

 40
0.0
 41
0.0
 42
0.0
 43
0.0
 44
210.0
 45
297.0
 46
0.0
 47
0.0
 48
0.0
 49
0.0
140
0.0
141
0.0
142
1.0
143
1.0
 70
0
 72
1
 73
0
 74
0
  7

 75
0
147
1.0
148
0.0
149
0.0
100
AcDbLayout
  1
Layout1
 70
0
 71
1
 10
0.0
 20
0.0
 11
210.0
 21
297.0
 12
0.0
 22
0.0
 32
0.0
 14
0.0
 24
0.0
 34
0.0
 15
0.0
 25
0.0
 35
0.0
146
0.0
 13
0.0
 23
0.0
 33
0.0
 16
1.0
 26
0.0
 36
0.0
 17
0.0
 27
1.0
 37
0.0
 76
0
330
211
345
0
346
0
  0
ENDSEC
  0
EOF
