999
DXF file: C:\Users\sesa63760\Dev\_Creo\CAD\MCADID0004322_3D-CAD\drw0001_1.dxf
999
Pro/ENGINEER 2019471 by Parametric Technology Corporation
  0
SECTION
  2
HEADER
  9
$ACADVER
  1
AC1024
  9
$DWGCODEPAGE
  3
ANSI_1252
  9
$EXTMAX
 10
64.3624704974
 20
91.0269225607
 30
0.0
  9
$EXTMIN
 10
0.0
 20
0.0
 30
0.0
  9
$LIMMIN
 10
0.0
 20
0.0
  9
$LIMMAX
 10
64.3624704974
 20
91.0269225607
  9
$VIEWCTR
 10
32.1812352487
 20
45.5134612803
  9
$VIEWSIZE
 40
91.0269225607
  9
$CLAYER
  8
0
  9
$LTSCALE
 40
5.933606804
  9
$CELTYPE
  6
BYLAYER
  9
$DIMSCALE
 40
1.0
  9
$DIMASZ
 40
0.7662198869
  9
$DIMEXO
 40
1.0
  9
$DIMDLI
 40
4.0995828827
  9
$DIMEXE
 40
1.0
  9
$DIMCEN
 40
0.9709538406
  9
$DIMLFAC
 40
1.0
  9
$DIMBLK
  1
_FILLED
  9
$DIMALT
 70
0
  9
$DIMALTF
 40
0.0393700787
  9
$DIMTXT
 40
1.0727078416
  9
$DIMTOL
 70
1
  9
$DIMLIM
 70
0
  9
$DIMTFAC
 40
1.0
  9
$DIMTP
 40
0.01
  9
$DIMTM
 40
0.01
  9
$DIMGAP
 40
0.625
  9
$DIMDSEP
 70
46
  9
$AUNITS
 70
0
  9
$PDMODE
 70
3
  9
$PDSIZE
 40
0.3125
  9
$HANDSEED
  5
44E
  9
$TILEMODE
 70
1
  9
$MEASUREMENT
 70
1
  9
$INSUNITS
 70
4
  0
ENDSEC
  0
SECTION
  2
CLASSES
  0
CLASS
  1
ACDBDICTIONARYWDFLT
  2
AcDbDictionaryWithDefault
  3
AutoCAD 2000
 90
0
 91
1
280
0
281
0
  0
CLASS
  1
ACDBPLACEHOLDER
  2
AcDbPlaceHolder
  3
AutoCAD 2000
 90
0
 91
1
280
0
281
0
  0
CLASS
  1
LAYOUT
  2
AcDbLayout
  3
AutoCAD 2000
 90
0
 91
0
280
0
281
0
  0
ENDSEC
  0
SECTION
  2
TABLES
  0
TABLE
  2
VPORT
  5
8
100
AcDbSymbolTable
 70
2
  0
VPORT
  5
1F4
100
AcDbSymbolTableRecord
100
AcDbViewportTableRecord
  2
*ACTIVE
 70
0
 10
0.0
 20
0.0
 11
1.0
 21
1.0
 12
32.1812352487
 22
45.5134612803
 13
0.0
 23
0.0
 14
1.0
 24
1.0
 15
0.0
 25
0.0
 16
0.0
 26
0.0
 36
1.0
 17
0.0
 27
0.0
 37
0.0
 40
91.0269225607
 41
0.7070707071
 42
50.0
 43
0.0
 44
0.0
 50
0.0
 51
0.0
 71
0
 72
100
 73
1
 74
1
 75
0
 76
0
 77
0
 78
0
  0
ENDTAB
  0
TABLE
  2
LTYPE
  5
5
100
AcDbSymbolTable
 70
6
  0
LTYPE
  5
14
100
AcDbSymbolTableRecord
100
AcDbLinetypeTableRecord
  2
BYBLOCK
 70
0
  3

 72
65
 73
0
 40
0.0
  0
LTYPE
  5
15
100
AcDbSymbolTableRecord
100
AcDbLinetypeTableRecord
  2
BYLAYER
 70
0
  3

 72
65
 73
0
 40
0.0
  0
LTYPE
  5
16
100
AcDbSymbolTableRecord
100
AcDbLinetypeTableRecord
  2
CONTINUOUS
 70
64
  3
Solid line
 72
65
 73
0
 40
0.0
  0
LTYPE
  5
1F5
100
AcDbSymbolTableRecord
100
AcDbLinetypeTableRecord
  2
CENTER
 70
64
  3
____ _ ____ _ ____ _ ____ _ ____ _ ____ _ ____
 72
65
 73
4
 40
0.6
 49
0.375
 74
0
 49
-0.075
 74
0
 49
0.075
 74
0
 49
-0.075
 74
0
  0
LTYPE
  5
1F6
100
AcDbSymbolTableRecord
100
AcDbLinetypeTableRecord
  2
HIDDEN
 70
64
  3
- - - - - - - - - - - - - - - - - - - -
 72
65
 73
2
 40
0.2
 49
0.1
 74
0
 49
-0.1
 74
0
  0
LTYPE
  5
1F7
100
AcDbSymbolTableRecord
100
AcDbLinetypeTableRecord
  2
PHANTOM
 70
64
  3
_____ _ _ _____ _ _ _____ _ _ _____
 72
65
 73
6
 40
0.8
 49
0.45
 74
0
 49
-0.05
 74
0
 49
0.1
 74
0
 49
-0.05
 74
0
 49
0.1
 74
0
 49
-0.05
 74
0
  0
LTYPE
  5
1F8
100
AcDbSymbolTableRecord
100
AcDbLinetypeTableRecord
  2
DOT
 70
64
  3
. . . . . . . . . . . . . . . . . . . .
 72
65
 73
2
 40
0.2
 49
0.1
 74
0
 49
-0.1
 74
0
  0
LTYPE
  5
1F9
100
AcDbSymbolTableRecord
100
AcDbLinetypeTableRecord
  2
DASHED
 70
64
  3
- - - - - - - - - - - - - - - - - - - -
 72
65
 73
2
 40
0.2
 49
0.1
 74
0
 49
-0.1
 74
0
  0
ENDTAB
  0
TABLE
  2
LAYER
  5
2
100
AcDbSymbolTable
 70
36
  0
LAYER
  5
10
100
AcDbSymbolTableRecord
100
AcDbLayerTableRecord
  2
0
 70
0
 62
7
  6
CONTINUOUS
370
-3
390
F
  0
LAYER
  5
1FA
100
AcDbSymbolTableRecord
100
AcDbLayerTableRecord
  2
DEFAULT_1
 70
0
 62
7
  6
CENTER
370
-3
390
F
  0
LAYER
  5
1FB
100
AcDbSymbolTableRecord
100
AcDbLayerTableRecord
  2
DEFAULT_2
 70
0
 62
7
  6
HIDDEN
370
-3
390
F
  0
LAYER
  5
1FC
100
AcDbSymbolTableRecord
100
AcDbLayerTableRecord
  2
DEFAULT_3
 70
0
 62
7
  6
PHANTOM
370
-3
390
F
  0
LAYER
  5
1FD
100
AcDbSymbolTableRecord
100
AcDbLayerTableRecord
  2
00_COMPONENTS
 70
0
 62
7
  6
CONTINUOUS
370
-3
390
F
  0
LAYER
  5
1FE
100
AcDbSymbolTableRecord
100
AcDbLayerTableRecord
  2
01_1_DEFAULT_DATUMS
 70
0
 62
7
  6
CONTINUOUS
370
-3
390
F
  0
LAYER
  5
1FF
100
AcDbSymbolTableRecord
100
AcDbLayerTableRecord
  2
01_PLANES
 70
0
 62
7
  6
CONTINUOUS
370
-3
390
F
  0
LAYER
  5
200
100
AcDbSymbolTableRecord
100
AcDbLayerTableRecord
  2
02_COORD_SYS
 70
0
 62
7
  6
CONTINUOUS
370
-3
390
F
  0
LAYER
  5
201
100
AcDbSymbolTableRecord
100
AcDbLayerTableRecord
  2
03_AXES
 70
0
 62
7
  6
CONTINUOUS
370
-3
390
F
  0
LAYER
  5
202
100
AcDbSymbolTableRecord
100
AcDbLayerTableRecord
  2
04_POINTS
 70
0
 62
7
  6
CONTINUOUS
370
-3
390
F
  0
LAYER
  5
203
100
AcDbSymbolTableRecord
100
AcDbLayerTableRecord
  2
05_CURVES
 70
0
 62
7
  6
CONTINUOUS
370
-3
390
F
  0
LAYER
  5
204
100
AcDbSymbolTableRecord
100
AcDbLayerTableRecord
  2
06_SURFS
 70
0
 62
7
  6
CONTINUOUS
370
-3
390
F
  0
LAYER
  5
205
100
AcDbSymbolTableRecord
100
AcDbLayerTableRecord
  2
07_COSMETICS
 70
0
 62
7
  6
CONTINUOUS
370
-3
390
F
  0
LAYER
  5
206
100
AcDbSymbolTableRecord
100
AcDbLayerTableRecord
  2
10_NOTES
 70
0
 62
7
  6
CONTINUOUS
370
-3
390
F
  0
LAYER
  5
207
100
AcDbSymbolTableRecord
100
AcDbLayerTableRecord
  2
11_NOTES_PUB
 70
0
 62
7
  6
CONTINUOUS
370
-3
390
F
  0
LAYER
  5
208
100
AcDbSymbolTableRecord
100
AcDbLayerTableRecord
  2
13_REF_GTOL
 70
0
 62
7
  6
CONTINUOUS
370
-3
390
F
  0
LAYER
  5
209
100
AcDbSymbolTableRecord
100
AcDbLayerTableRecord
  2
16_MISC
 70
0
 62
7
  6
CONTINUOUS
370
-3
390
F
  0
LAYER
  5
20A
100
AcDbSymbolTableRecord
100
AcDbLayerTableRecord
  2
17_NO_PRINT
 70
0
 62
7
  6
CONTINUOUS
370
-3
390
F
  0
LAYER
  5
20B
100
AcDbSymbolTableRecord
100
AcDbLayerTableRecord
  2
18_DATUM_CAMS_JOINTS
 70
0
 62
7
  6
CONTINUOUS
370
-3
390
F
  0
LAYER
  5
20C
100
AcDbSymbolTableRecord
100
AcDbLayerTableRecord
  2
19_DATUM_FUNCTIONAL
 70
0
 62
7
  6
CONTINUOUS
370
-3
390
F
  0
LAYER
  5
20D
100
AcDbSymbolTableRecord
100
AcDbLayerTableRecord
  2
20_DATUM_KINEMATIC_SCHEME
 70
0
 62
7
  6
CONTINUOUS
370
-3
390
F
  0
LAYER
  5
20E
100
AcDbSymbolTableRecord
100
AcDbLayerTableRecord
  2
_1
 70
0
 62
7
  6
CONTINUOUS
370
-3
390
F
  0
ENDTAB
  0
TABLE
  2
STYLE
  5
3
100
AcDbSymbolTable
 70
1
  0
STYLE
  5
11
100
AcDbSymbolTableRecord
100
AcDbTextStyleTableRecord
  2
STANDARD
 70
0
 40
0.0
 41
1.0
 50
0.0
 71
0
 42
0.2
  3
ARIAL.TTF
  4

  0
STYLE
  5
20F
100
AcDbSymbolTableRecord
100
AcDbTextStyleTableRecord
  2
TEXTSTYLE_1
 70
0
 40
0.0
 41
0.8
 50
0.0
 71
0
 42
0.2
  3
gdt
  4

  0
ENDTAB
  0
TABLE
  2
VIEW
  5
6
100
AcDbSymbolTable
 70
0
  0
ENDTAB
  0
TABLE
  2
UCS
  5
7
100
AcDbSymbolTable
 70
0
  0
ENDTAB
  0
TABLE
  2
APPID
  5
9
100
AcDbSymbolTable
 70
1
  0
APPID
  5
210
100
AcDbSymbolTableRecord
100
AcDbRegAppTableRecord
  2
ACAD
 70
0
  0
ENDTAB
  0
TABLE
  2
BLOCK_RECORD
  5
1
100
AcDbSymbolTable
 70
0
  0
BLOCK_RECORD
  5
211
100
AcDbSymbolTableRecord
100
AcDbBlockTableRecord
  2
*Model_Space
  0
BLOCK_RECORD
  5
212
100
AcDbSymbolTableRecord
100
AcDbBlockTableRecord
  2
*Paper_Space
  0
BLOCK_RECORD
  5
213
100
AcDbSymbolTableRecord
100
AcDbBlockTableRecord
  2
_FILLED
  0
ENDTAB
  0
TABLE
  2
DIMSTYLE
  5
A
100
AcDbSymbolTable
 70
1
100
AcDbDimStyleTable
 71
0
  0
DIMSTYLE
105
214
100
AcDbSymbolTableRecord
100
AcDbDimStyleTableRecord
  2
STANDARD
 70
0
  3

  4

 40
1.0
 41
0.7662198869
 42
1.0
 43
0.38
 44
1.0
 45
0.0
 46
0.0
 47
0.01
 48
0.01
140
1.0727078416
141
0.09
142
0.0
143
25.4
144
1.0
145
0.0
146
1.0
147
0.625
 71
1
 72
0
 73
0
 74
0
 75
0
 76
0
 77
1
 78
8
 79
2
170
0
171
1
172
0
173
0
174
0
175
0
176
0
177
0
178
0
270
2
179
2
271
2
272
2
273
2
274
2
275
0
280
0
281
0
282
0
283
1
284
8
285
0
286
0
287
3
288
0
340
11
278
46
341
213
342
213
343
213
344
213
  0
ENDTAB
  0
ENDSEC
  0
SECTION
  2
BLOCKS
  0
BLOCK
  5
20
100
AcDbEntity
  8
0
100
AcDbBlockBegin
  2
*Model_Space
 70
0
 10
0.0
 20
0.0
 30
0.0
  3
*Model_Space
  1

  0
ENDBLK
  5
21
100
AcDbEntity
  8
0
100
AcDbBlockEnd
  0
BLOCK
  5
1C
100
AcDbEntity
  8
0
100
AcDbBlockBegin
  2
*Paper_Space
 70
0
 10
0.0
 20
0.0
 30
0.0
  3
*Paper_Space
  1

  0
ENDBLK
  5
1D
100
AcDbEntity
  8
0
100
AcDbBlockEnd
  0
BLOCK
  5
215
100
AcDbEntity
  8
0
100
AcDbBlockBegin
  2
_FILLED
 70
64
 10
0.0
 20
0.0
  3
_FILLED
  1

  0
SOLID
  5
216
100
AcDbEntity
  8
0
  6
BYBLOCK
 62
0
100
AcDbTrace
 10
0.0
 20
0.0
 11
-1.0
 21
0.25
 12
-1.0
 22
-0.25
 13
-1.0
 23
-0.25
  0
ENDBLK
  5
217
100
AcDbEntity
  8
0
  6
BYBLOCK
 62
0
100
AcDbBlockEnd
  0
ENDSEC
  0
SECTION
  2
ENTITIES
  0
LINE
  5
218
100
AcDbEntity
  8
_1
100
AcDbLine
 62
7
  6
BYLAYER
 10
7.6284124486
 20
64.1210588408
 11
7.556337884
 21
64.0527265944
  0
LINE
  5
219
100
AcDbEntity
  8
_1
100
AcDbLine
 62
7
  6
BYLAYER
 10
7.9381101503
 20
64.7468363082
 11
13.594940848
 21
68.0127895391
  0
LWPOLYLINE
  5
21A
100
AcDbEntity
  8
_1
100
AcDbPolyline
 62
7
  6
BYLAYER
 90
4
 70
0
 10
7.4639372831
 20
56.673335046
 10
7.472528248
 20
56.3862557896
 10
7.5091201939
 20
56.0307545641
 10
7.5558136628
 20
55.7755152716
  0
LINE
  5
21B
100
AcDbEntity
  8
_1
100
AcDbLine
 62
7
  6
BYLAYER
 10
7.4639372812
 20
44.9615707693
 11
7.4639372812
 21
45.0460875798
  0
LINE
  5
21C
100
AcDbEntity
  8
_1
100
AcDbLine
 62
7
  6
BYLAYER
 10
7.4639372812
 20
56.673310233
 11
7.4639372812
 21
63.7631373418
  0
LINE
  5
21D
100
AcDbEntity
  8
_1
100
AcDbLine
 62
7
  6
BYLAYER
 10
7.6103853626
 20
44.7574486923
 11
7.6103853626
 21
44.8419655029
  0
LINE
  5
21E
100
AcDbEntity
  8
_1
100
AcDbLine
 62
7
  6
BYLAYER
 10
7.6103853626
 20
56.4691881561
 11
7.6103853626
 21
63.5590152649
  0
LINE
  5
21F
100
AcDbEntity
  8
_1
100
AcDbLine
 62
7
  6
BYLAYER
 10
7.7330869579
 20
64.46106778
 11
7.7330869579
 21
64.0528165714
  0
LINE
  5
220
100
AcDbEntity
  8
_1
100
AcDbLine
 62
7
  6
BYLAYER
 10
7.9381142718
 20
63.7670456637
 11
7.9381142718
 21
64.1752968723
  0
LINE
  5
221
100
AcDbEntity
  8
_1
100
AcDbLine
 62
7
  6
BYLAYER
 10
15.2920124314
 20
65.9715830983
 11
13.7363839896
 21
65.0734459597
  0
LINE
  5
222
100
AcDbEntity
  8
_1
100
AcDbLine
 62
7
  6
BYLAYER
 10
13.1707009198
 20
64.7468506366
 11
11.6150724779
 21
63.8487134981
  0
LINE
  5
223
100
AcDbEntity
  8
_1
100
AcDbLine
 62
7
  6
BYLAYER
 10
10.4494417379
 20
49.4124514165
 11
10.4614702412
 21
51.8388525148
  0
LINE
  5
224
100
AcDbEntity
  8
_1
100
AcDbLine
 62
7
  6
BYLAYER
 10
13.7364016534
 20
62.6239912346
 11
15.2920300952
 21
63.5221283731
  0
LINE
  5
225
100
AcDbEntity
  8
_1
100
AcDbLine
 62
7
  6
BYLAYER
 10
15.857713165
 20
63.8487236962
 11
17.4133416069
 21
64.7468608347
  0
LINE
  5
226
100
AcDbEntity
  8
_1
100
AcDbLine
 62
7
  6
BYLAYER
 10
13.7364016534
 20
62.5423409928
 11
15.2920300952
 21
63.4404781314
  0
LINE
  5
227
100
AcDbEntity
  8
_1
100
AcDbLine
 62
7
  6
BYLAYER
 10
15.857713165
 20
63.7670734545
 11
17.4133416069
 21
64.665210593
  0
LINE
  5
228
100
AcDbEntity
  8
0
100
AcDbLine
 62
7
  6
BYLAYER
 10
19.1103967041
 20
65.0326372582
 11
13.4535660064
 21
61.7666840272
  0
LINE
  5
229
100
AcDbEntity
  8
_1
100
AcDbLine
 62
7
  6
BYLAYER
 10
19.6053693902
 20
65.1142825616
 11
19.4639562043
 21
65.032638108
  0
LINE
  5
22A
100
AcDbEntity
  8
_1
100
AcDbLine
 62
7
  6
BYLAYER
 10
13.4535674784
 20
61.5625592728
 11
12.9585933204
 21
61.2767875152
  0
LINE
  5
22B
100
AcDbEntity
  8
_1
100
AcDbLine
 62
7
  6
BYLAYER
 10
13.4535689504
 20
61.3176093975
 11
12.9585933204
 21
61.0318367901
  0
LINE
  5
22C
100
AcDbEntity
  8
_1
100
AcDbLine
 62
7
  6
BYLAYER
 10
13.807123813
 20
60.9501955914
 11
13.6657030455
 21
60.8685467607
  0
LINE
  5
22D
100
AcDbEntity
  8
_1
100
AcDbLine
 62
7
  6
BYLAYER
 10
8.7241714683
 20
50.4738068497
 11
7.5558060977
 21
55.7755495883
  0
LINE
  5
22E
100
AcDbEntity
  8
_1
100
AcDbLine
 62
7
  6
BYLAYER
 10
7.6999364884
 20
55.5909530637
 11
8.8683018589
 21
50.2892103251
  0
LINE
  5
22F
100
AcDbEntity
  8
_1
100
AcDbLine
 62
7
  6
BYLAYER
 10
10.9786875619
 20
51.1929577695
 11
10.9786875619
 21
54.5245419684
  0
LINE
  5
230
100
AcDbEntity
  8
_1
100
AcDbLine
 62
7
  6
BYLAYER
 10
11.6150724779
 20
63.7670632564
 11
11.6150724779
 21
63.8487134981
  0
LINE
  5
231
100
AcDbEntity
  8
_1
100
AcDbLine
 62
7
  6
BYLAYER
 10
11.6857678474
 20
48.1718217365
 11
11.6857678474
 21
48.3351222199
  0
LINE
  5
232
100
AcDbEntity
  8
_1
100
AcDbLine
 62
7
  6
BYLAYER
 10
10.7347729729
 20
51.9846813898
 11
10.7220761257
 21
49.4234613223
  0
LINE
  5
233
100
AcDbEntity
  8
_1
100
AcDbLine
 62
7
  6
BYLAYER
 10
10.7413863797
 20
51.989899689
 11
10.7286854149
 21
49.4278490346
  0
LINE
  5
234
100
AcDbEntity
  8
_1
100
AcDbLine
 62
7
  6
BYLAYER
 10
10.7305339693
 20
49.4192572115
 11
10.6968125999
 21
49.2964610393
  0
LINE
  5
235
100
AcDbEntity
  8
_1
100
AcDbLine
 62
7
  6
BYLAYER
 10
10.6740805909
 20
49.2839940355
 11
10.7305339166
 21
49.4192594921
  0
LINE
  5
236
100
AcDbEntity
  8
0
100
AcDbLine
 62
7
  6
BYLAYER
 10
16.953748842
 20
61.1829059062
 11
20.1357161095
 21
63.0200045986
  0
LWPOLYLINE
  5
237
100
AcDbEntity
  8
_1
100
AcDbPolyline
 62
7
  6
BYLAYER
 90
5
 70
0
 10
10.1845799785
 20
49.5871320608
 10
10.1874311396
 20
49.5761413043
 10
10.1917043594
 20
49.5619892555
 10
10.1975548843
 20
49.5454302041
 10
10.2048783497
 20
49.5275440202
  0
LINE
  5
238
100
AcDbEntity
  8
_1
100
AcDbLine
 62
7
  6
BYLAYER
 10
12.9585933204
 20
61.2767875152
 11
12.9585933204
 21
61.0318367901
  0
LINE
  5
239
100
AcDbEntity
  8
0
100
AcDbLine
 62
7
  6
BYLAYER
 10
13.4535689504
 20
61.358441573
 11
13.4535689504
 21
61.1543159687
  0
LINE
  5
23A
100
AcDbEntity
  8
0
100
AcDbLine
 62
7
  6
BYLAYER
 10
13.4535689504
 20
61.358441573
 11
13.4535660064
 21
61.7666840272
  0
LINE
  5
23B
100
AcDbEntity
  8
_1
100
AcDbLine
 62
7
  6
BYLAYER
 10
13.7363839896
 20
64.991795718
 11
13.7363839896
 21
65.0734459597
  0
LINE
  5
23C
100
AcDbEntity
  8
_1
100
AcDbLine
 62
7
  6
BYLAYER
 10
13.7364016534
 20
62.5423409928
 11
13.7364016534
 21
62.6239912346
  0
LWPOLYLINE
  5
23D
100
AcDbEntity
  8
_1
100
AcDbPolyline
 62
7
  6
BYLAYER
 90
4
 70
0
 10
8.6290909222
 20
47.289039842
 10
8.0584659492
 20
46.7178493661
 10
7.6165137062
 20
45.8809358351
 10
7.4639568328
 20
45.0454022893
  0
LWPOLYLINE
  5
23E
100
AcDbEntity
  8
_1
100
AcDbPolyline
 62
7
  6
BYLAYER
 90
13
 70
0
 10
10.2048783497
 20
49.5275440202
 10
10.2137443983
 20
49.5085309051
 10
10.2245619713
 20
49.4880321762
 10
10.23778647
 20
49.465870031
 10
10.2540002488
 20
49.4418228324
 10
10.2740493939
 20
49.4156193309
 10
10.2991249945
 20
49.3870910443
 10
10.3309279805
 20
49.3559898853
 10
10.372293978
 20
49.3223840786
 10
10.4282121648
 20
49.288263176
 10
10.5078335857
 20
49.260600646
 10
10.6396105557
 20
49.2686250279
 10
10.6737938701
 20
49.283837128
  0
LINE
  5
23F
100
AcDbEntity
  8
_1
100
AcDbLine
 62
7
  6
BYLAYER
 10
10.186101485
 20
49.5850709236
 11
8.8399043433
 21
52.8651027559
  0
LINE
  5
240
100
AcDbEntity
  8
_1
100
AcDbLine
 62
7
  6
BYLAYER
 10
8.9283917823
 20
52.723955752
 11
10.237219465
 21
49.5349752311
  0
LINE
  5
241
100
AcDbEntity
  8
_1
100
AcDbLine
 62
7
  6
BYLAYER
 10
15.2920300952
 20
63.4404781314
 11
15.2920300952
 21
63.5221283731
  0
LINE
  5
242
100
AcDbEntity
  8
_1
100
AcDbLine
 62
7
  6
BYLAYER
 10
15.857713165
 20
63.7670734545
 11
15.857713165
 21
63.8487236962
  0
LINE
  5
243
100
AcDbEntity
  8
_1
100
AcDbLine
 62
7
  6
BYLAYER
 10
15.928455638
 20
48.3352724879
 11
15.928455638
 21
51.6668566868
  0
LINE
  5
244
100
AcDbEntity
  8
0
100
AcDbLine
 62
7
  6
BYLAYER
 10
16.7340811359
 20
60.8685603161
 11
16.7340811359
 21
60.8767253403
  0
LINE
  5
245
100
AcDbEntity
  8
0
100
AcDbLine
 62
7
  6
BYLAYER
 10
16.953753258
 20
60.5705422249
 11
16.953753258
 21
60.5623772007
  0
LINE
  5
246
100
AcDbEntity
  8
0
100
AcDbLine
 62
7
  6
BYLAYER
 10
24.3783744604
 20
60.5705600715
 11
21.1964071929
 21
58.733461379
  0
LINE
  5
247
100
AcDbEntity
  8
0
100
AcDbLine
 62
7
  6
BYLAYER
 10
24.3783744604
 20
60.5623950473
 11
21.1964071929
 21
58.7252963549
  0
LINE
  5
248
100
AcDbEntity
  8
0
100
AcDbLine
 62
7
  6
BYLAYER
 10
22.7520485882
 20
57.8353317191
 11
25.9340158557
 21
59.6724304115
  0
LINE
  5
249
100
AcDbEntity
  8
_1
100
AcDbLine
 62
7
  6
BYLAYER
 10
8.9624596082
 20
50.1483966932
 11
8.8683018589
 21
50.2892103251
  0
LINE
  5
24A
100
AcDbEntity
  8
_1
100
AcDbLine
 62
7
  6
BYLAYER
 10
8.8838150805
 20
52.7827528964
 11
8.8399046306
 21
52.8651020559
  0
LINE
  5
24B
100
AcDbEntity
  8
_1
100
AcDbLine
 62
7
  6
BYLAYER
 10
17.4133416069
 20
64.665210593
 11
17.4133416069
 21
64.7468608347
  0
LINE
  5
24C
100
AcDbEntity
  8
_1
100
AcDbLine
 62
7
  6
BYLAYER
 10
10.7157517306
 20
48.760346942
 11
8.6282843129
 21
47.2885330474
  0
LINE
  5
24D
100
AcDbEntity
  8
_1
100
AcDbLine
 62
7
  6
BYLAYER
 10
10.9781735876
 20
48.7436427143
 11
8.8979012532
 21
47.2769018682
  0
LINE
  5
24E
100
AcDbEntity
  8
_1
100
AcDbLine
 62
7
  6
BYLAYER
 10
9.4521225579
 20
46.9569292875
 11
11.6857678474
 21
48.3351222199
  0
LINE
  5
24F
100
AcDbEntity
  8
_1
100
AcDbLine
 62
7
  6
BYLAYER
 10
10.7418441048
 20
48.7754106582
 11
10.7157467612
 21
48.7603434382
  0
LINE
  5
250
100
AcDbEntity
  8
_1
100
AcDbLine
 62
7
  6
BYLAYER
 10
10.6740247067
 20
49.2839308051
 11
10.6968199252
 21
49.2964517325
  0
LINE
  5
251
100
AcDbEntity
  8
_1
100
AcDbLine
 62
7
  6
BYLAYER
 10
10.6737938701
 20
49.283837128
 11
10.6740805909
 21
49.2839940355
  0
LINE
  5
252
100
AcDbEntity
  8
_1
100
AcDbLine
 62
7
  6
BYLAYER
 10
43.9628459416
 20
23.6007143455
 11
7.713941523
 21
44.5285556184
  0
LINE
  5
253
100
AcDbEntity
  8
_1
100
AcDbLine
 62
7
  6
BYLAYER
 10
43.8592897813
 20
23.8296074194
 11
7.6103853626
 21
44.7574486923
  0
LINE
  5
254
100
AcDbEntity
  8
_1
100
AcDbLine
 62
7
  6
BYLAYER
 10
9.4545564596
 20
49.911446644
 11
9.534488528
 21
49.8181915811
  0
LINE
  5
255
100
AcDbEntity
  8
_1
100
AcDbLine
 62
7
  6
BYLAYER
 10
11.7296313367
 20
48.5508539606
 11
11.652441858
 21
48.6425256245
  0
LINE
  5
256
100
AcDbEntity
  8
_1
100
AcDbLine
 62
7
  6
BYLAYER
 10
10.2415404284
 20
49.5170001381
 11
10.1845799785
 21
49.5871320608
  0
LINE
  5
257
100
AcDbEntity
  8
_1
100
AcDbLine
 62
7
  6
BYLAYER
 10
16.5107764451
 20
48.6714735558
 11
16.0224397493
 21
50.7860622668
  0
LINE
  5
258
100
AcDbEntity
  8
_1
100
AcDbLine
 62
7
  6
BYLAYER
 10
19.6053693902
 20
65.1142825616
 11
19.6053693902
 21
65.0326384479
  0
LINE
  5
259
100
AcDbEntity
  8
0
100
AcDbLine
 62
7
  6
BYLAYER
 10
20.1357470211
 20
58.7252938054
 11
20.1357470211
 21
58.7334588295
  0
LINE
  5
25A
100
AcDbEntity
  8
0
100
AcDbLine
 62
7
  6
BYLAYER
 10
21.1964071929
 20
58.733461379
 11
21.1964071929
 21
58.7252963549
  0
LINE
  5
25B
100
AcDbEntity
  8
_1
100
AcDbLine
 62
7
  6
BYLAYER
 10
13.4896593134
 20
46.9010652779
 11
11.6500914671
 21
45.687960054
  0
LINE
  5
25C
100
AcDbEntity
  8
_1
100
AcDbLine
 62
7
  6
BYLAYER
 10
9.0705851515
 20
46.6619534205
 11
11.9995614903
 21
48.352989388
  0
LINE
  5
25D
100
AcDbEntity
  8
0
100
AcDbLine
 62
7
  6
BYLAYER
 10
30.1766742066
 20
57.2229858844
 11
26.9947069391
 21
55.385887192
  0
LINE
  5
25E
100
AcDbEntity
  8
0
100
AcDbLine
 62
7
  6
BYLAYER
 10
30.1766742066
 20
57.2148208602
 11
26.9947069391
 21
55.3777221678
  0
LINE
  5
25F
100
AcDbEntity
  8
_1
100
AcDbLine
 62
7
  6
BYLAYER
 10
11.9021884086
 20
48.451181875
 11
11.6857678474
 21
48.3351222199
  0
LINE
  5
260
100
AcDbEntity
  8
_1
100
AcDbLine
 62
7
  6
BYLAYER
 10
10.7418491015
 20
48.7754141776
 11
11.1196869222
 21
48.9501048717
  0
LINE
  5
261
100
AcDbEntity
  8
_1
100
AcDbLine
 62
7
  6
BYLAYER
 10
11.2553386736
 20
48.8717880682
 11
10.9781735876
 21
48.7436427143
  0
LINE
  5
262
100
AcDbEntity
  8
_1
100
AcDbLine
 62
7
  6
BYLAYER
 10
7.6103853626
 20
44.8419655029
 11
40.3285931515
 21
25.9525267648
  0
LINE
  5
263
100
AcDbEntity
  8
_1
100
AcDbLine
 62
7
  6
BYLAYER
 10
10.237219465
 20
49.5349752311
 11
10.1861052844
 21
49.5850616663
  0
LINE
  5
264
100
AcDbEntity
  8
0
100
AcDbLine
 62
7
  6
BYLAYER
 10
22.5323808821
 20
57.520986129
 11
22.5323808821
 21
57.5291511532
  0
LINE
  5
265
100
AcDbEntity
  8
0
100
AcDbLine
 62
7
  6
BYLAYER
 10
22.7520530042
 20
57.2229680378
 11
22.7520530042
 21
57.2148030136
  0
LINE
  5
266
100
AcDbEntity
  8
_1
100
AcDbLine
 62
7
  6
BYLAYER
 10
16.5107764451
 20
48.6714735558
 11
15.928455638
 21
48.3352724879
  0
LINE
  5
267
100
AcDbEntity
  8
_1
100
AcDbLine
 62
7
  6
BYLAYER
 10
15.2035637654
 20
46.7330216922
 11
16.1976511218
 21
47.306954869
  0
LINE
  5
268
100
AcDbEntity
  8
0
100
AcDbLine
 62
7
  6
BYLAYER
 10
29.0278125486
 20
54.7091264575
 11
31.34889187
 21
56.0491942295
  0
LINE
  5
269
100
AcDbEntity
  8
0
100
AcDbLine
 62
7
  6
BYLAYER
 10
31.7602258078
 20
55.8117158423
 11
30.8200417788
 21
55.2689035802
  0
LINE
  5
26A
100
AcDbEntity
  8
0
100
AcDbLine
 62
7
  6
BYLAYER
 10
30.3793305153
 20
55.0144603324
 11
29.4391464863
 21
54.4716480703
  0
LINE
  5
26B
100
AcDbEntity
  8
0
100
AcDbLine
 62
7
  6
BYLAYER
 10
31.7602258078
 20
55.8035508181
 11
30.8271129983
 21
55.2648211021
  0
LINE
  5
26C
100
AcDbEntity
  8
0
100
AcDbLine
 62
7
  6
BYLAYER
 10
30.3793305153
 20
55.0062953082
 11
29.4391464863
 21
54.4634830462
  0
LINE
  5
26D
100
AcDbEntity
  8
0
100
AcDbLine
 62
7
  6
BYLAYER
 10
31.5692553306
 20
55.0907958492
 11
31.7749205869
 21
55.2095360315
  0
LINE
  5
26E
100
AcDbEntity
  8
_1
100
AcDbLine
 62
7
  6
BYLAYER
 10
11.2816451837
 20
45.3854261946
 11
9.0705851515
 21
46.6619534205
  0
LINE
  5
26F
100
AcDbEntity
  8
_1
100
AcDbLine
 62
7
  6
BYLAYER
 10
38.8641123376
 20
29.9762932241
 11
11.6500914671
 21
45.687960054
  0
LINE
  5
270
100
AcDbEntity
  8
_1
100
AcDbLine
 62
7
  6
BYLAYER
 10
9.4521225579
 20
46.9569292875
 11
8.8979012532
 21
47.2769018682
  0
LINE
  5
271
100
AcDbEntity
  8
0
100
AcDbLine
 62
7
  6
BYLAYER
 10
24.3783744604
 20
60.5623950473
 11
24.3783744604
 21
60.5705600715
  0
LINE
  5
272
100
AcDbEntity
  8
0
100
AcDbLine
 62
7
  6
BYLAYER
 10
24.5980421665
 20
60.8685756132
 11
24.5980421665
 21
60.8767406374
  0
LINE
  5
273
100
AcDbEntity
  8
0
100
AcDbLine
 62
7
  6
BYLAYER
 10
25.9340467673
 20
55.3777196183
 11
25.9340467673
 21
55.3858846425
  0
LINE
  5
274
100
AcDbEntity
  8
0
100
AcDbLine
 62
7
  6
BYLAYER
 10
32.4800644802
 20
54.8024302248
 11
32.2743992238
 21
54.6836900425
  0
LINE
  5
275
100
AcDbEntity
  8
0
100
AcDbLine
 62
7
  6
BYLAYER
 10
32.0540435921
 20
54.5564684186
 11
31.6133323285
 21
54.3020251708
  0
LINE
  5
276
100
AcDbEntity
  8
0
100
AcDbLine
 62
7
  6
BYLAYER
 10
32.4800644802
 20
54.7942652007
 11
32.2743992238
 21
54.6755250184
  0
LINE
  5
277
100
AcDbEntity
  8
0
100
AcDbLine
 62
7
  6
BYLAYER
 10
32.0540435921
 20
54.5483033944
 11
31.6133323285
 21
54.2938601466
  0
LINE
  5
278
100
AcDbEntity
  8
0
100
AcDbLine
 62
7
  6
BYLAYER
 10
31.7749357551
 20
53.1061472733
 11
34.0960150766
 21
54.4462150452
  0
LINE
  5
279
100
AcDbEntity
  8
0
100
AcDbLine
 62
7
  6
BYLAYER
 10
34.5073490143
 20
54.208736658
 11
33.5671649854
 21
53.665924396
  0
LINE
  5
27A
100
AcDbEntity
  8
0
100
AcDbLine
 62
7
  6
BYLAYER
 10
33.1264537218
 20
53.4114811481
 11
32.1862696928
 21
52.8686688861
  0
LINE
  5
27B
100
AcDbEntity
  8
0
100
AcDbLine
 62
7
  6
BYLAYER
 10
34.5073490143
 20
54.2005716338
 11
33.5742362048
 21
53.6618419179
  0
LINE
  5
27C
100
AcDbEntity
  8
0
100
AcDbLine
 62
7
  6
BYLAYER
 10
33.1264537218
 20
53.403316124
 11
32.1862696928
 21
52.8605038619
  0
LINE
  5
27D
100
AcDbEntity
  8
_1
100
AcDbLine
 62
7
  6
BYLAYER
 10
11.9965622
 20
47.9923885927
 11
11.6857678474
 21
48.1718217365
  0
LINE
  5
27E
100
AcDbEntity
  8
_1
100
AcDbLine
 62
7
  6
BYLAYER
 10
10.9781735876
 20
48.7436427143
 11
11.6857678474
 21
48.3351222199
  0
LINE
  5
27F
100
AcDbEntity
  8
_1
100
AcDbLine
 62
7
  6
BYLAYER
 10
14.7183646917
 20
46.5842912246
 11
38.8641123376
 21
32.6440526918
  0
LINE
  5
280
100
AcDbEntity
  8
_1
100
AcDbLine
 62
7
  6
BYLAYER
 10
38.8641123376
 20
32.8850599895
 11
14.9910372848
 21
46.6678744887
  0
LINE
  5
281
100
AcDbEntity
  8
_1
100
AcDbLine
 62
7
  6
BYLAYER
 10
11.9592397192
 20
48.4182440307
 11
11.7296107344
 21
48.5508173877
  0
LINE
  5
282
100
AcDbEntity
  8
_1
100
AcDbLine
 62
7
  6
BYLAYER
 10
9.5344671936
 20
49.8181554308
 11
8.9624596082
 21
50.1483966932
  0
LINE
  5
283
100
AcDbEntity
  8
_1
100
AcDbLine
 62
7
  6
BYLAYER
 10
9.4545564596
 20
49.911446644
 11
10.2450852573
 21
49.4550449551
  0
LINE
  5
284
100
AcDbEntity
  8
_1
100
AcDbLine
 62
7
  6
BYLAYER
 10
10.574815496
 20
49.2646794196
 11
11.652441858
 21
48.6425256245
  0
LINE
  5
285
100
AcDbEntity
  8
_1
100
AcDbLine
 62
7
  6
BYLAYER
 10
38.8641123376
 20
32.9715128493
 11
15.0888489515
 21
46.697857034
  0
LINE
  5
286
100
AcDbEntity
  8
_1
100
AcDbLine
 62
7
  6
BYLAYER
 10
11.7670451129
 20
48.6156579879
 11
10.6363873954
 21
49.2684287579
  0
LINE
  5
287
100
AcDbEntity
  8
_1
100
AcDbLine
 62
7
  6
BYLAYER
 10
10.2112523686
 20
49.5138750273
 11
8.8683018589
 21
50.2892103251
  0
LINE
  5
288
100
AcDbEntity
  8
0
100
AcDbLine
 62
7
  6
BYLAYER
 10
26.9947069391
 20
55.385887192
 11
26.9947069391
 21
55.3777221678
  0
LINE
  5
289
100
AcDbEntity
  8
0
100
AcDbLine
 62
7
  6
BYLAYER
 10
34.8011604377
 20
53.8355554878
 11
35.0068256941
 21
53.9542956701
  0
LINE
  5
28A
100
AcDbEntity
  8
0
100
AcDbLine
 62
7
  6
BYLAYER
 10
34.3898301697
 20
53.564149498
 11
34.595495426
 21
53.6828896803
  0
LINE
  5
28B
100
AcDbEntity
  8
0
100
AcDbLine
 62
7
  6
BYLAYER
 10
35.7119695873
 20
53.5471898635
 11
35.506304331
 21
53.4284496812
  0
LINE
  5
28C
100
AcDbEntity
  8
0
100
AcDbLine
 62
7
  6
BYLAYER
 10
35.7119695873
 20
53.5390248393
 11
35.506304331
 21
53.420284657
  0
LINE
  5
28D
100
AcDbEntity
  8
0
100
AcDbLine
 62
7
  6
BYLAYER
 10
35.3006393193
 20
53.2757838737
 11
35.094974063
 21
53.1570436914
  0
LINE
  5
28E
100
AcDbEntity
  8
0
100
AcDbLine
 62
7
  6
BYLAYER
 10
35.3006393193
 20
53.2676188495
 11
35.094974063
 21
53.1488786672
  0
LINE
  5
28F
100
AcDbEntity
  8
0
100
AcDbLine
 62
7
  6
BYLAYER
 10
34.8011667986
 20
52.9534892344
 11
34.360455535
 21
52.6990459865
  0
LINE
  5
290
100
AcDbEntity
  8
0
100
AcDbLine
 62
7
  6
BYLAYER
 10
34.8011667986
 20
52.9453242102
 11
34.360455535
 21
52.6908809624
  0
LINE
  5
291
100
AcDbEntity
  8
_1
100
AcDbLine
 62
7
  6
BYLAYER
 10
8.9283917823
 20
52.723955752
 11
10.4614702412
 21
51.8388525148
  0
LINE
  5
292
100
AcDbEntity
  8
_1
100
AcDbLine
 62
7
  6
BYLAYER
 10
10.7413863797
 20
51.989899689
 11
8.8517206463
 21
53.0808740277
  0
LINE
  5
293
100
AcDbEntity
  8
0
100
AcDbLine
 62
7
  6
BYLAYER
 10
29.0278125486
 20
54.7009614334
 11
29.0278125486
 21
54.7091264575
  0
LINE
  5
294
100
AcDbEntity
  8
0
100
AcDbLine
 62
7
  6
BYLAYER
 10
29.4391464863
 20
54.4634830462
 11
29.4391464863
 21
54.4716480703
  0
LINE
  5
295
100
AcDbEntity
  8
0
100
AcDbLine
 62
7
  6
BYLAYER
 10
30.1766742066
 20
57.2148208602
 11
30.1766742066
 21
57.2229858844
  0
LINE
  5
296
100
AcDbEntity
  8
0
100
AcDbLine
 62
7
  6
BYLAYER
 10
30.3793305153
 20
55.0062953082
 11
30.3793305153
 21
55.0144603324
  0
LINE
  5
297
100
AcDbEntity
  8
0
100
AcDbLine
 62
7
  6
BYLAYER
 10
30.3963419127
 20
57.5210014261
 11
30.3963419127
 21
57.5291664503
  0
LINE
  5
298
100
AcDbEntity
  8
0
100
AcDbLine
 62
7
  6
BYLAYER
 10
36.2408505042
 20
50.0528517461
 11
38.7529047066
 21
51.5031782587
  0
LINE
  5
299
100
AcDbEntity
  8
_1
100
AcDbLine
 62
7
  6
BYLAYER
 10
54.0417044137
 20
33.1459640591
 11
52.982649804
 21
33.5846893873
  0
LINE
  5
29A
100
AcDbEntity
  8
_1
100
AcDbLine
 62
7
  6
BYLAYER
 10
48.8836528788
 20
34.4491469448
 11
48.131391498
 21
34.7820604489
  0
LINE
  5
29B
100
AcDbEntity
  8
_1
100
AcDbLine
 62
7
  6
BYLAYER
 10
7.6999364884
 20
55.5909530637
 11
10.9786875619
 21
53.6980080729
  0
LINE
  5
29C
100
AcDbEntity
  8
_1
100
AcDbLine
 62
7
  6
BYLAYER
 10
16.0224397493
 20
50.7860622668
 11
39.6127975613
 21
37.1664709501
  0
LINE
  5
29D
100
AcDbEntity
  8
_1
100
AcDbLine
 62
7
  6
BYLAYER
 10
40.3285931515
 20
37.579749418
 11
15.928455638
 21
51.6668566868
  0
LINE
  5
29E
100
AcDbEntity
  8
_1
100
AcDbLine
 62
7
  6
BYLAYER
 10
10.9786875619
 20
54.5245419684
 11
7.6103853626
 21
56.4691881561
  0
LINE
  5
29F
100
AcDbEntity
  8
0
100
AcDbLine
 62
7
  6
BYLAYER
 10
31.5692553306
 20
55.082630825
 11
31.5692553306
 21
55.0907958492
  0
LINE
  5
2A0
100
AcDbEntity
  8
0
100
AcDbLine
 62
7
  6
BYLAYER
 10
31.6133323285
 20
54.2938601466
 11
31.6133323285
 21
54.3020251708
  0
LINE
  5
2A1
100
AcDbEntity
  8
0
100
AcDbLine
 62
7
  6
BYLAYER
 10
31.7602258078
 20
55.8035508181
 11
31.7602258078
 21
55.8117158423
  0
LINE
  5
2A2
100
AcDbEntity
  8
0
100
AcDbLine
 62
7
  6
BYLAYER
 10
31.7749357551
 20
53.0979822491
 11
31.7749357551
 21
53.1061472733
  0
LINE
  5
2A3
100
AcDbEntity
  8
0
100
AcDbLine
 62
7
  6
BYLAYER
 10
32.0540435921
 20
54.5483033944
 11
32.0540435921
 21
54.5564684186
  0
LINE
  5
2A4
100
AcDbEntity
  8
0
100
AcDbLine
 62
7
  6
BYLAYER
 10
32.1862696928
 20
52.8605038619
 11
32.1862696928
 21
52.8686688861
  0
LINE
  5
2A5
100
AcDbEntity
  8
0
100
AcDbLine
 62
7
  6
BYLAYER
 10
32.2743992238
 20
54.6755250184
 11
32.2743992238
 21
54.6836900425
  0
LINE
  5
2A6
100
AcDbEntity
  8
0
100
AcDbLine
 62
7
  6
BYLAYER
 10
32.4800644802
 20
54.7942652007
 11
32.4800644802
 21
54.8024302248
  0
LINE
  5
2A7
100
AcDbEntity
  8
0
100
AcDbLine
 62
7
  6
BYLAYER
 10
39.9644129573
 20
50.1421825319
 11
39.2592749355
 21
49.7350733354
  0
LINE
  5
2A8
100
AcDbEntity
  8
0
100
AcDbLine
 62
7
  6
BYLAYER
 10
42.5864896264
 20
44.3347968825
 11
43.2935964076
 21
44.3347985821
  0
LINE
  5
2A9
100
AcDbEntity
  8
0
100
AcDbLine
 62
7
  6
BYLAYER
 10
43.2935964076
 20
44.5389241864
 11
42.5864896264
 21
44.5389224868
  0
LINE
  5
2AA
100
AcDbEntity
  8
_1
100
AcDbLine
 62
7
  6
BYLAYER
 10
52.8470019457
 20
33.6515545915
 11
52.982649804
 21
33.5846893873
  0
LINE
  5
2AB
100
AcDbEntity
  8
_1
100
AcDbLine
 62
7
  6
BYLAYER
 10
49.4304021066
 20
35.1463687708
 11
49.5515054049
 21
35.0764513307
  0
LINE
  5
2AC
100
AcDbEntity
  8
_1
100
AcDbLine
 62
7
  6
BYLAYER
 10
49.2407423475
 20
35.7335824396
 11
49.3008199516
 21
35.6988974033
  0
LINE
  5
2AD
100
AcDbEntity
  8
_1
100
AcDbLine
 62
7
  6
BYLAYER
 10
52.5641580557
 20
33.8148508933
 11
52.8470019457
 21
33.6515545915
  0
LINE
  5
2AE
100
AcDbEntity
  8
0
100
AcDbLine
 62
7
  6
BYLAYER
 10
33.1264537218
 20
53.403316124
 11
33.1264537218
 21
53.4114811481
  0
LINE
  5
2AF
100
AcDbEntity
  8
0
100
AcDbLine
 62
7
  6
BYLAYER
 10
34.360455535
 20
52.6908809624
 11
34.360455535
 21
52.6990459865
  0
LINE
  5
2B0
100
AcDbEntity
  8
0
100
AcDbLine
 62
7
  6
BYLAYER
 10
34.3898301697
 20
53.5559844738
 11
34.3898301697
 21
53.564149498
  0
LINE
  5
2B1
100
AcDbEntity
  8
0
100
AcDbLine
 62
7
  6
BYLAYER
 10
34.5073490143
 20
54.2005716338
 11
34.5073490143
 21
54.208736658
  0
LINE
  5
2B2
100
AcDbEntity
  8
0
100
AcDbLine
 62
7
  6
BYLAYER
 10
34.8011604377
 20
53.8273904636
 11
34.8011604377
 21
53.8355554878
  0
LINE
  5
2B3
100
AcDbEntity
  8
0
100
AcDbLine
 62
7
  6
BYLAYER
 10
34.8011667986
 20
52.9453242102
 11
34.8011667986
 21
52.9534892344
  0
LINE
  5
2B4
100
AcDbEntity
  8
0
100
AcDbLine
 62
7
  6
BYLAYER
 10
35.094974063
 20
53.1488786672
 11
35.094974063
 21
53.1570436914
  0
LINE
  5
2B5
100
AcDbEntity
  8
0
100
AcDbLine
 62
7
  6
BYLAYER
 10
35.1332068156
 20
51.2176434745
 11
35.1332068156
 21
51.2258084987
  0
LINE
  5
2B6
100
AcDbEntity
  8
0
100
AcDbLine
 62
7
  6
BYLAYER
 10
35.2125139473
 20
50.88402709
 11
35.2125139473
 21
50.8758620659
  0
LINE
  5
2B7
100
AcDbEntity
  8
_1
100
AcDbLine
 62
7
  6
BYLAYER
 10
53.4442300573
 20
34.8189106479
 11
53.9087175196
 21
34.5507447532
  0
LINE
  5
2B8
100
AcDbEntity
  8
_1
100
AcDbLine
 62
7
  6
BYLAYER
 10
53.619201885
 20
35.8725869093
 11
54.4087090361
 21
35.4167750549
  0
LINE
  5
2B9
100
AcDbEntity
  8
0
100
AcDbLine
 62
7
  6
BYLAYER
 10
35.3006393193
 20
53.2676188495
 11
35.3006393193
 21
53.2757838737
  0
LINE
  5
2BA
100
AcDbEntity
  8
0
100
AcDbLine
 62
7
  6
BYLAYER
 10
35.506304331
 20
53.420284657
 11
35.506304331
 21
53.4284496812
  0
LINE
  5
2BB
100
AcDbEntity
  8
0
100
AcDbLine
 62
7
  6
BYLAYER
 10
35.7119695873
 20
53.5390248393
 11
35.7119695873
 21
53.5471898635
  0
LINE
  5
2BC
100
AcDbEntity
  8
0
100
AcDbLine
 62
7
  6
BYLAYER
 10
35.9812066902
 20
50.9969436304
 11
35.9812066902
 21
51.0051086545
  0
LINE
  5
2BD
100
AcDbEntity
  8
0
100
AcDbLine
 62
7
  6
BYLAYER
 10
36.2408505042
 20
50.0446867219
 11
36.2408505042
 21
50.0528517461
  0
LINE
  5
2BE
100
AcDbEntity
  8
0
100
AcDbLine
 62
7
  6
BYLAYER
 10
37.0341373842
 20
49.5866926895
 11
37.0341373842
 21
49.5948577136
  0
LINE
  5
2BF
100
AcDbEntity
  8
0
100
AcDbLine
 62
7
  6
BYLAYER
 10
35.2125139473
 20
50.8758620659
 11
35.9812066902
 21
50.9969436304
  0
LINE
  5
2C0
100
AcDbEntity
  8
0
100
AcDbLine
 62
7
  6
BYLAYER
 10
35.9812066902
 20
51.0051086545
 11
35.2125139473
 21
50.88402709
  0
LINE
  5
2C1
100
AcDbEntity
  8
_1
100
AcDbLine
 62
7
  6
BYLAYER
 10
53.9650065284
 20
36.7227889046
 11
54.4036902057
 21
36.4695204952
  0
LINE
  5
2C2
100
AcDbEntity
  8
_1
100
AcDbLine
 62
7
  6
BYLAYER
 10
7.6103853626
 20
63.5590152649
 11
45.2735092316
 21
41.814692483
  0
LINE
  5
2C3
100
AcDbEntity
  8
_1
100
AcDbLine
 62
7
  6
BYLAYER
 10
45.1034349617
 20
42.1545672509
 11
7.6524440103
 21
63.7764178065
  0
LINE
  5
2C4
100
AcDbEntity
  8
_1
100
AcDbLine
 62
7
  6
BYLAYER
 10
45.061374842
 20
42.3344060514
 11
7.9381142718
 21
63.7670456637
  0
LINE
  5
2C5
100
AcDbEntity
  8
_1
100
AcDbLine
 62
7
  6
BYLAYER
 10
55.0487625019
 20
36.6685914969
 11
56.3128705662
 21
35.9387748764
  0
LINE
  5
2C6
100
AcDbEntity
  8
_1
100
AcDbLine
 62
7
  6
BYLAYER
 10
45.6085576724
 20
42.4158233503
 11
45.3964247549
 21
42.5382955766
  0
LINE
  5
2C7
100
AcDbEntity
  8
_1
100
AcDbLine
 62
7
  6
BYLAYER
 10
45.061374842
 20
42.74265726
 11
42.9400456666
 21
43.9673795235
  0
LINE
  5
2C8
100
AcDbEntity
  8
_1
100
AcDbLine
 62
7
  6
BYLAYER
 10
42.2329359415
 20
44.3756202781
 11
13.6657030455
 21
60.8685467607
  0
LINE
  5
2C9
100
AcDbEntity
  8
_1
100
AcDbLine
 62
7
  6
BYLAYER
 10
12.9585933204
 20
61.2767875152
 11
7.9381142718
 21
64.1752968723
  0
LINE
  5
2CA
100
AcDbEntity
  8
0
100
AcDbLine
 62
7
  6
BYLAYER
 10
13.4535689504
 20
61.1543159687
 11
42.5864896264
 21
44.3347968825
  0
LINE
  5
2CB
100
AcDbEntity
  8
_1
100
AcDbLine
 62
7
  6
BYLAYER
 10
54.5134228107
 20
37.5608617872
 11
54.9036817222
 21
37.3355507968
  0
LINE
  5
2CC
100
AcDbEntity
  8
0
100
AcDbLine
 62
7
  6
BYLAYER
 10
13.4535689504
 20
61.358441573
 11
42.5864896264
 21
44.5389224868
  0
LINE
  5
2CD
100
AcDbEntity
  8
_1
100
AcDbLine
 62
7
  6
BYLAYER
 10
54.7882071399
 20
37.88048758
 11
55.8178978801
 21
37.2860088029
  0
LINE
  5
2CE
100
AcDbEntity
  8
_1
100
AcDbLine
 62
7
  6
BYLAYER
 10
56.0752702999
 20
37.2306443586
 11
56.8128620826
 21
36.804805178
  0
LINE
  5
2CF
100
AcDbEntity
  8
0
100
AcDbLine
 62
7
  6
BYLAYER
 10
35.9300074554
 20
51.2258084939
 11
35.9812066902
 21
51.0051086545
  0
LINE
  5
2D0
100
AcDbEntity
  8
0
100
AcDbLine
 62
7
  6
BYLAYER
 10
35.2125139473
 20
50.88402709
 11
35.1332538504
 21
51.2258084786
  0
LINE
  5
2D1
100
AcDbEntity
  8
_1
100
AcDbLine
 62
7
  6
BYLAYER
 10
38.8641123376
 20
29.56712443
 11
38.8641123376
 21
34.0651979196
  0
LINE
  5
2D2
100
AcDbEntity
  8
0
100
AcDbLine
 62
7
  6
BYLAYER
 10
39.4190176733
 20
50.4570595225
 11
39.4190176733
 21
50.4488944983
  0
LINE
  5
2D3
100
AcDbEntity
  8
0
100
AcDbLine
 62
7
  6
BYLAYER
 10
39.4190176733
 20
50.4570595225
 11
39.4243905645
 21
50.5108534249
  0
LINE
  5
2D4
100
AcDbEntity
  8
_1
100
AcDbLine
 62
7
  6
BYLAYER
 10
42.3743567089
 20
44.4572691088
 11
42.2329359415
 21
44.3756202781
  0
LINE
  5
2D5
100
AcDbEntity
  8
0
100
AcDbLine
 62
7
  6
BYLAYER
 10
43.2935964076
 20
44.5389241864
 11
48.9504271053
 21
47.8048774174
  0
LINE
  5
2D6
100
AcDbEntity
  8
0
100
AcDbLine
 62
7
  6
BYLAYER
 10
43.2935964076
 20
44.3347985821
 11
48.9504271053
 21
47.6007518131
  0
LINE
  5
2D7
100
AcDbEntity
  8
_1
100
AcDbLine
 62
7
  6
BYLAYER
 10
49.5868217364
 20
47.8048745699
 11
42.9400456666
 21
43.9673795235
  0
LINE
  5
2D8
100
AcDbEntity
  8
0
100
AcDbLine
 62
7
  6
BYLAYER
 10
25.9340467673
 20
55.3777196183
 11
22.7520530042
 21
57.2148030136
  0
LINE
  5
2D9
100
AcDbEntity
  8
0
100
AcDbLine
 62
7
  6
BYLAYER
 10
20.1357470211
 20
58.7252938054
 11
16.953753258
 21
60.5623772007
  0
LINE
  5
2DA
100
AcDbEntity
  8
0
100
AcDbLine
 62
7
  6
BYLAYER
 10
25.9340467673
 20
55.3858846425
 11
22.7520530042
 21
57.2229680378
  0
LINE
  5
2DB
100
AcDbEntity
  8
0
100
AcDbLine
 62
7
  6
BYLAYER
 10
20.1357470211
 20
58.7334588295
 11
16.953753258
 21
60.5705422249
  0
LINE
  5
2DC
100
AcDbEntity
  8
_1
100
AcDbLine
 62
7
  6
BYLAYER
 10
11.6150724779
 20
63.7670632564
 11
13.7364016534
 21
62.5423409928
  0
LINE
  5
2DD
100
AcDbEntity
  8
_1
100
AcDbLine
 62
7
  6
BYLAYER
 10
11.6150724779
 20
63.8487134981
 11
13.7364016534
 21
62.6239912346
  0
LINE
  5
2DE
100
AcDbEntity
  8
_1
100
AcDbLine
 62
7
  6
BYLAYER
 10
55.6343855789
 20
38.5466512904
 11
56.3178893966
 21
38.1520391046
  0
LINE
  5
2DF
100
AcDbEntity
  8
0
100
AcDbLine
 62
7
  6
BYLAYER
 10
37.0341373842
 20
49.5866926895
 11
36.2408505042
 21
50.0446867219
  0
LINE
  5
2E0
100
AcDbEntity
  8
0
100
AcDbLine
 62
7
  6
BYLAYER
 10
37.0341373842
 20
49.5948577136
 11
36.2408505042
 21
50.0528517461
  0
LINE
  5
2E1
100
AcDbEntity
  8
0
100
AcDbLine
 62
7
  6
BYLAYER
 10
32.1862696928
 20
52.8605038619
 11
31.7749357551
 21
53.0979822491
  0
LINE
  5
2E2
100
AcDbEntity
  8
0
100
AcDbLine
 62
7
  6
BYLAYER
 10
32.1862696928
 20
52.8686688861
 11
31.7749357551
 21
53.1061472733
  0
LINE
  5
2E3
100
AcDbEntity
  8
0
100
AcDbLine
 62
7
  6
BYLAYER
 10
29.4391464863
 20
54.4634830462
 11
29.0278125486
 21
54.7009614334
  0
LINE
  5
2E4
100
AcDbEntity
  8
0
100
AcDbLine
 62
7
  6
BYLAYER
 10
29.4391464863
 20
54.4716480703
 11
29.0278125486
 21
54.7091264575
  0
LINE
  5
2E5
100
AcDbEntity
  8
_1
100
AcDbLine
 62
7
  6
BYLAYER
 10
56.0140995194
 20
39.790459975
 11
56.2969434095
 21
39.6271636731
  0
LINE
  5
2E6
100
AcDbEntity
  8
_1
100
AcDbLine
 62
7
  6
BYLAYER
 10
15.2920300952
 20
63.5221283731
 11
13.1707009198
 21
64.7468506366
  0
LINE
  5
2E7
100
AcDbEntity
  8
0
100
AcDbLine
 62
7
  6
BYLAYER
 10
39.2592749355
 20
49.7350733354
 11
38.7138796516
 21
50.0499503259
  0
LINE
  5
2E8
100
AcDbEntity
  8
0
100
AcDbLine
 62
7
  6
BYLAYER
 10
34.360455535
 20
52.6908809624
 11
33.1264537218
 21
53.403316124
  0
LINE
  5
2E9
100
AcDbEntity
  8
0
100
AcDbLine
 62
7
  6
BYLAYER
 10
34.360455535
 20
52.6990459865
 11
33.1264537218
 21
53.4114811481
  0
LINE
  5
2EA
100
AcDbEntity
  8
0
100
AcDbLine
 62
7
  6
BYLAYER
 10
31.6133323285
 20
54.2938601466
 11
30.3793305153
 21
55.0062953082
  0
LINE
  5
2EB
100
AcDbEntity
  8
0
100
AcDbLine
 62
7
  6
BYLAYER
 10
31.6133323285
 20
54.3020251708
 11
30.3793305153
 21
55.0144603324
  0
LINE
  5
2EC
100
AcDbEntity
  8
_1
100
AcDbLine
 62
7
  6
BYLAYER
 10
48.5968955001
 20
44.5797568022
 11
48.8090284176
 21
44.4572845759
  0
LINE
  5
2ED
100
AcDbEntity
  8
_1
100
AcDbLine
 62
7
  6
BYLAYER
 10
42.9400456666
 20
43.7224287984
 11
42.2329359415
 21
44.3756202781
  0
LINE
  5
2EE
100
AcDbEntity
  8
_1
100
AcDbLine
 62
7
  6
BYLAYER
 10
40.3285931515
 20
25.9525267648
 11
40.3285931515
 21
37.579749418
  0
LINE
  5
2EF
100
AcDbEntity
  8
0
100
AcDbLine
 62
7
  6
BYLAYER
 10
40.8644427203
 20
50.5026883817
 11
40.8644427203
 21
50.5108534058
  0
LINE
  5
2F0
100
AcDbEntity
  8
_1
100
AcDbLine
 62
7
  6
BYLAYER
 10
51.7081509119
 20
46.5801523064
 11
45.061374842
 21
42.74265726
  0
LINE
  5
2F1
100
AcDbEntity
  8
_1
100
AcDbLine
 62
7
  6
BYLAYER
 10
45.3565772678
 20
42.504840234
 11
45.061374842
 21
42.3344060514
  0
LINE
  5
2F2
100
AcDbEntity
  8
_1
100
AcDbLine
 62
7
  6
BYLAYER
 10
48.5968955001
 20
44.5797568022
 11
51.7973662453
 21
46.2338588097
  0
LINE
  5
2F3
100
AcDbEntity
  8
_1
100
AcDbLine
 62
7
  6
BYLAYER
 10
52.0094991628
 20
46.1113865833
 11
48.8090284176
 21
44.4572845759
  0
LINE
  5
2F4
100
AcDbEntity
  8
_1
100
AcDbLine
 62
7
  6
BYLAYER
 10
13.7363839896
 20
64.991795718
 11
15.857713165
 21
63.7670734545
  0
LINE
  5
2F5
100
AcDbEntity
  8
_1
100
AcDbLine
 62
7
  6
BYLAYER
 10
13.7363839896
 20
65.0734459597
 11
15.857713165
 21
63.8487236962
  0
LINE
  5
2F6
100
AcDbEntity
  8
0
100
AcDbLine
 62
7
  6
BYLAYER
 10
33.5671649854
 20
53.665924396
 11
34.8011667986
 21
52.9534892344
  0
LINE
  5
2F7
100
AcDbEntity
  8
0
100
AcDbLine
 62
7
  6
BYLAYER
 10
30.8200417788
 20
55.2689035802
 11
32.0540435921
 21
54.5564684186
  0
LINE
  5
2F8
100
AcDbEntity
  8
0
100
AcDbLine
 62
7
  6
BYLAYER
 10
39.4190176733
 20
50.4488944983
 11
39.9573417378
 21
50.1380999859
  0
LINE
  5
2F9
100
AcDbEntity
  8
0
100
AcDbLine
 62
7
  6
BYLAYER
 10
39.4190176733
 20
50.4570595225
 11
39.9644129573
 21
50.1421825319
  0
LINE
  5
2FA
100
AcDbEntity
  8
0
100
AcDbLine
 62
7
  6
BYLAYER
 10
32.2743992238
 20
54.6755250184
 11
31.5692553306
 21
55.082630825
  0
LINE
  5
2FB
100
AcDbEntity
  8
0
100
AcDbLine
 62
7
  6
BYLAYER
 10
32.2743992238
 20
54.6836900425
 11
31.5692553306
 21
55.0907958492
  0
LINE
  5
2FC
100
AcDbEntity
  8
0
100
AcDbLine
 62
7
  6
BYLAYER
 10
35.094974063
 20
53.1488786672
 11
34.3898301697
 21
53.5559844738
  0
LINE
  5
2FD
100
AcDbEntity
  8
0
100
AcDbLine
 62
7
  6
BYLAYER
 10
35.094974063
 20
53.1570436914
 11
34.3898301697
 21
53.564149498
  0
LINE
  5
2FE
100
AcDbEntity
  8
0
100
AcDbLine
 62
7
  6
BYLAYER
 10
31.7749205869
 20
55.2095360315
 11
32.4800644802
 21
54.8024302248
  0
LINE
  5
2FF
100
AcDbEntity
  8
0
100
AcDbLine
 62
7
  6
BYLAYER
 10
34.595495426
 20
53.6828896803
 11
35.3006393193
 21
53.2757838737
  0
LINE
  5
300
100
AcDbEntity
  8
0
100
AcDbLine
 62
7
  6
BYLAYER
 10
35.506304331
 20
53.420284657
 11
34.8011604377
 21
53.8273904636
  0
LINE
  5
301
100
AcDbEntity
  8
0
100
AcDbLine
 62
7
  6
BYLAYER
 10
35.506304331
 20
53.4284496812
 11
34.8011604377
 21
53.8355554878
  0
LINE
  5
302
100
AcDbEntity
  8
0
100
AcDbLine
 62
7
  6
BYLAYER
 10
34.0960150766
 20
54.4462150452
 11
34.5073490143
 21
54.208736658
  0
LINE
  5
303
100
AcDbEntity
  8
0
100
AcDbLine
 62
7
  6
BYLAYER
 10
31.34889187
 20
56.0491942295
 11
31.7602258078
 21
55.8117158423
  0
LINE
  5
304
100
AcDbEntity
  8
0
100
AcDbLine
 62
7
  6
BYLAYER
 10
35.0068256941
 20
53.9542956701
 11
35.7119695873
 21
53.5471898635
  0
LINE
  5
305
100
AcDbEntity
  8
0
100
AcDbLine
 62
7
  6
BYLAYER
 10
39.0788255399
 20
52.0783354222
 11
40.2072584819
 21
51.426849098
  0
LINE
  5
306
100
AcDbEntity
  8
_1
100
AcDbLine
 62
7
  6
BYLAYER
 10
17.4133416069
 20
64.7468608347
 11
15.2920124314
 21
65.9715830983
  0
LINE
  5
307
100
AcDbEntity
  8
_1
100
AcDbLine
 62
7
  6
BYLAYER
 10
52.4198322483
 20
43.5044291494
 11
52.6843455441
 21
43.3468654875
  0
LINE
  5
308
100
AcDbEntity
  8
_1
100
AcDbLine
 62
7
  6
BYLAYER
 10
56.4226759505
 20
39.5431242473
 11
56.2969434095
 21
39.6271636731
  0
LINE
  5
309
100
AcDbEntity
  8
_1
100
AcDbLine
 62
7
  6
BYLAYER
 10
49.6374472976
 20
34.8518105881
 11
48.1677595709
 21
36.9426997501
  0
LINE
  5
30A
100
AcDbEntity
  8
_1
100
AcDbLine
 62
7
  6
BYLAYER
 10
48.1933526043
 20
37.0086624524
 11
49.5515054049
 21
35.0764513307
  0
LINE
  5
30B
100
AcDbEntity
  8
_1
100
AcDbLine
 62
7
  6
BYLAYER
 10
42.3126461276
 20
33.1026976132
 11
42.3126461276
 21
34.7357024474
  0
LINE
  5
30C
100
AcDbEntity
  8
0
100
AcDbLine
 62
7
  6
BYLAYER
 10
42.5864896264
 20
44.5389224868
 11
42.5864896264
 21
44.3347968825
  0
LINE
  5
30D
100
AcDbEntity
  8
_1
100
AcDbLine
 62
7
  6
BYLAYER
 10
42.9400456666
 20
43.7224287984
 11
42.9400456666
 21
43.9673795235
  0
LINE
  5
30E
100
AcDbEntity
  8
0
100
AcDbLine
 62
7
  6
BYLAYER
 10
43.2935964076
 20
44.5389241864
 11
43.2935964076
 21
44.3347985821
  0
LINE
  5
30F
100
AcDbEntity
  8
_1
100
AcDbLine
 62
7
  6
BYLAYER
 10
45.3964247549
 20
42.5382955766
 11
48.5968955001
 21
44.5797568022
  0
LINE
  5
310
100
AcDbEntity
  8
_1
100
AcDbLine
 62
7
  6
BYLAYER
 10
48.8090284176
 20
44.4572845759
 11
45.6085576724
 21
42.4158233503
  0
LINE
  5
311
100
AcDbEntity
  8
_1
100
AcDbLine
 62
7
  6
BYLAYER
 10
39.6127975613
 20
37.1664709501
 11
40.3285931515
 21
37.579749418
  0
LINE
  5
312
100
AcDbEntity
  8
_1
100
AcDbLine
 62
7
  6
BYLAYER
 10
47.7792043624
 20
40.8251773833
 11
46.8529959814
 21
40.3405552963
  0
LINE
  5
313
100
AcDbEntity
  8
_1
100
AcDbLine
 62
7
  6
BYLAYER
 10
13.6657030455
 20
60.8685467607
 11
12.9585933204
 21
61.0318367901
  0
LINE
  5
314
100
AcDbEntity
  8
0
100
AcDbLine
 62
7
  6
BYLAYER
 10
21.1963762812
 20
63.0200071481
 11
24.3783700444
 21
61.1829237528
  0
LINE
  5
315
100
AcDbEntity
  8
0
100
AcDbLine
 62
7
  6
BYLAYER
 10
26.9946760275
 20
59.672432961
 11
30.1766697906
 21
57.8353495657
  0
LINE
  5
316
100
AcDbEntity
  8
_1
100
AcDbLine
 62
7
  6
BYLAYER
 10
51.7973662453
 20
46.2338588097
 11
52.0094991628
 21
46.1113865833
  0
LINE
  5
317
100
AcDbEntity
  8
_1
100
AcDbLine
 62
7
  6
BYLAYER
 10
49.3734810682
 20
47.7569969464
 11
49.4386884595
 21
47.7193502932
  0
LINE
  5
318
100
AcDbEntity
  8
_1
100
AcDbLine
 62
7
  6
BYLAYER
 10
51.7081509119
 20
46.4091051771
 11
52.0903560385
 21
46.1884439364
  0
LINE
  5
319
100
AcDbEntity
  8
_1
100
AcDbLine
 62
7
  6
BYLAYER
 10
52.0288585258
 20
46.2484993219
 11
52.2409914433
 21
46.1260270956
  0
LINE
  5
31A
100
AcDbEntity
  8
_1
100
AcDbLine
 62
7
  6
BYLAYER
 10
14.5848903416
 20
68.0127919187
 11
19.6053693902
 21
65.1142825616
  0
LINE
  5
31B
100
AcDbEntity
  8
_1
100
AcDbLine
 62
7
  6
BYLAYER
 10
49.5868217364
 20
47.8048745699
 11
51.7081509119
 21
46.5801523064
  0
LINE
  5
31C
100
AcDbEntity
  8
0
100
AcDbLine
 62
7
  6
BYLAYER
 10
48.9504241614
 20
48.2131198716
 11
19.8175034853
 21
65.0326389578
  0
LINE
  5
31D
100
AcDbEntity
  8
_1
100
AcDbLine
 62
7
  6
BYLAYER
 10
53.6244742038
 20
42.6606761147
 11
52.6843630284
 21
43.346897739
  0
LINE
  5
31E
100
AcDbEntity
  8
_1
100
AcDbLine
 62
7
  6
BYLAYER
 10
57.332164206
 20
38.8453365338
 11
56.4226759505
 21
39.5431242473
  0
LINE
  5
31F
100
AcDbEntity
  8
_1
100
AcDbLine
 62
7
  6
BYLAYER
 10
46.8690785681
 20
25.7726618166
 11
46.1654579302
 21
40.3272482065
  0
LINE
  5
320
100
AcDbEntity
  8
_1
100
AcDbLine
 62
7
  6
BYLAYER
 10
45.061374842
 20
42.74265726
 11
45.061374842
 21
42.3344060514
  0
LINE
  5
321
100
AcDbEntity
  8
_1
100
AcDbLine
 62
7
  6
BYLAYER
 10
45.4059334349
 20
32.9498325897
 11
45.4059334349
 21
31.3168277554
  0
LINE
  5
322
100
AcDbEntity
  8
_1
100
AcDbLine
 62
7
  6
BYLAYER
 10
53.2539374718
 20
44.0361185293
 11
52.4198322483
 21
43.5044291494
  0
LINE
  5
323
100
AcDbEntity
  8
_1
100
AcDbLine
 62
7
  6
BYLAYER
 10
49.6374472976
 20
40.7306279915
 11
52.5768227511
 21
42.4276670708
  0
LINE
  5
324
100
AcDbEntity
  8
_1
100
AcDbLine
 62
7
  6
BYLAYER
 10
48.9504246324
 20
48.1477946535
 11
49.4236404
 21
47.7106623438
  0
LINE
  5
325
100
AcDbEntity
  8
_1
100
AcDbLine
 62
7
  6
BYLAYER
 10
46.8529959814
 20
40.3405552963
 11
46.9260893003
 21
38.8285998941
  0
LINE
  5
326
100
AcDbEntity
  8
_1
100
AcDbLine
 62
7
  6
BYLAYER
 10
47.0703680374
 20
35.844154541
 11
47.5566166193
 21
25.7859689064
  0
LINE
  5
327
100
AcDbEntity
  8
_1
100
AcDbLine
 62
7
  6
BYLAYER
 10
52.5941563648
 20
41.1374858336
 11
52.2474417618
 21
40.9335654531
  0
LINE
  5
328
100
AcDbEntity
  8
_1
100
AcDbLine
 62
7
  6
BYLAYER
 10
53.3012660899
 20
40.7292450791
 11
52.954551487
 21
40.5253246985
  0
LINE
  5
329
100
AcDbEntity
  8
_1
100
AcDbLine
 62
7
  6
BYLAYER
 10
42.3126461276
 20
34.7357024474
 11
43.8749942263
 21
35.6067698644
  0
LINE
  5
32A
100
AcDbEntity
  8
_1
100
AcDbLine
 62
7
  6
BYLAYER
 10
44.8809599561
 20
34.5346284962
 11
42.3126461276
 21
33.1026976132
  0
LINE
  5
32B
100
AcDbEntity
  8
_1
100
AcDbLine
 62
7
  6
BYLAYER
 10
52.7783980417
 20
41.7994186358
 11
52.4060886087
 21
42.3290942561
  0
LINE
  5
32C
100
AcDbEntity
  8
_1
100
AcDbLine
 62
7
  6
BYLAYER
 10
52.5768227511
 20
42.4276670708
 11
53.0304581053
 21
41.7822910304
  0
LINE
  5
32D
100
AcDbEntity
  8
_1
100
AcDbLine
 62
7
  6
BYLAYER
 10
50.5953515942
 20
34.3575796161
 11
50.9245424476
 21
27.5481762855
  0
LINE
  5
32E
100
AcDbEntity
  8
_1
100
AcDbLine
 62
7
  6
BYLAYER
 10
49.8732521057
 20
36.0861793125
 11
49.8731401457
 21
36.0893840516
  0
LINE
  5
32F
100
AcDbEntity
  8
_1
100
AcDbLine
 62
7
  6
BYLAYER
 10
50.5803618309
 20
35.677938558
 11
50.5802498708
 21
35.6811432971
  0
LINE
  5
330
100
AcDbEntity
  8
_1
100
AcDbLine
 62
7
  6
BYLAYER
 10
49.1661423806
 20
36.4944200671
 11
49.1660115071
 21
36.4981738757
  0
LINE
  5
331
100
AcDbEntity
  8
_1
100
AcDbLine
 62
7
  6
BYLAYER
 10
49.1567259403
 20
36.6712804575
 11
49.1590712833
 21
36.4985024746
  0
LINE
  5
332
100
AcDbEntity
  8
_1
100
AcDbLine
 62
7
  6
BYLAYER
 10
49.8638325318
 20
36.2630413485
 11
49.8661810085
 21
36.0902617201
  0
LINE
  5
333
100
AcDbEntity
  8
_1
100
AcDbLine
 62
7
  6
BYLAYER
 10
50.570942257
 20
35.854800594
 11
50.5732907336
 21
35.6820209656
  0
LINE
  5
334
100
AcDbEntity
  8
0
100
AcDbLine
 62
7
  6
BYLAYER
 10
48.9504241614
 20
48.2131198716
 11
48.9504271053
 21
47.6007518131
  0
LINE
  5
335
100
AcDbEntity
  8
_1
100
AcDbLine
 62
7
  6
BYLAYER
 10
49.8670244778
 20
36.6652146067
 11
49.8638638726
 21
36.2630248335
  0
LINE
  5
336
100
AcDbEntity
  8
_1
100
AcDbLine
 62
7
  6
BYLAYER
 10
50.5741342029
 20
36.2569738522
 11
50.5709735978
 21
35.854784079
  0
LINE
  5
337
100
AcDbEntity
  8
_1
100
AcDbLine
 62
7
  6
BYLAYER
 10
49.1582730871
 20
36.8630581692
 11
49.1567541472
 21
36.6712655936
  0
LINE
  5
338
100
AcDbEntity
  8
_1
100
AcDbLine
 62
7
  6
BYLAYER
 10
49.1661423806
 20
36.4944200671
 11
49.1662469866
 21
36.4983094838
  0
LINE
  5
339
100
AcDbEntity
  8
_1
100
AcDbLine
 62
7
  6
BYLAYER
 10
49.8732521057
 20
36.0861793125
 11
49.8735513233
 21
36.0896209394
  0
LINE
  5
33A
100
AcDbEntity
  8
_1
100
AcDbLine
 62
7
  6
BYLAYER
 10
48.1677595709
 20
36.9426997501
 11
49.6374472976
 21
40.7306279915
  0
LINE
  5
33B
100
AcDbEntity
  8
_1
100
AcDbLine
 62
7
  6
BYLAYER
 10
49.7215875869
 20
34.9003887168
 11
49.6374472976
 21
34.8518105881
  0
LINE
  5
33C
100
AcDbEntity
  8
_1
100
AcDbLine
 62
7
  6
BYLAYER
 10
53.9575581097
 20
29.4815321394
 11
53.7750664727
 21
33.2564218363
  0
LINE
  5
33D
100
AcDbEntity
  8
_1
100
AcDbLine
 62
7
  6
BYLAYER
 10
53.3093098262
 20
42.8907261522
 11
53.2539374718
 21
44.0361185293
  0
LINE
  5
33E
100
AcDbEntity
  8
_1
100
AcDbLine
 62
7
  6
BYLAYER
 10
51.7081509119
 20
46.5801523064
 11
51.7081509119
 21
46.1877495733
  0
LINE
  5
33F
100
AcDbEntity
  8
_1
100
AcDbLine
 62
7
  6
BYLAYER
 10
50.5803618309
 20
35.677938558
 11
50.5806610485
 21
35.6813801849
  0
LINE
  5
340
100
AcDbEntity
  8
0
100
AcDbLine
 62
7
  6
BYLAYER
 10
19.1103967041
 20
65.0326372582
 11
19.8175034853
 21
65.0326389578
  0
LINE
  5
341
100
AcDbEntity
  8
_1
100
AcDbLine
 62
7
  6
BYLAYER
 10
53.3823611308
 20
44.2297112558
 11
53.4521323322
 21
42.7864747672
  0
LINE
  5
342
100
AcDbEntity
  8
_1
100
AcDbLine
 62
7
  6
BYLAYER
 10
53.9156648398
 20
33.1981773755
 11
54.0859817686
 21
29.6751248658
  0
LINE
  5
343
100
AcDbEntity
  8
_1
100
AcDbLine
 62
7
  6
BYLAYER
 10
50.9245424476
 20
27.5481762855
 11
53.9575581097
 21
29.4815321394
  0
LINE
  5
344
100
AcDbEntity
  8
_1
100
AcDbLine
 62
7
  6
BYLAYER
 10
47.5566166193
 20
25.7859689064
 11
50.9245424476
 21
27.5481762855
  0
LINE
  5
345
100
AcDbEntity
  8
_1
100
AcDbLine
 62
7
  6
BYLAYER
 10
53.063282246
 20
27.1288295628
 11
49.9857280236
 21
25.0782995909
  0
LINE
  5
346
100
AcDbEntity
  8
_1
100
AcDbLine
 62
7
  6
BYLAYER
 10
49.9857280236
 20
25.0782995909
 11
49.8004330268
 21
24.9713201132
  0
LINE
  5
347
100
AcDbEntity
  8
_1
100
AcDbLine
 62
7
  6
BYLAYER
 10
46.4858363911
 20
23.3313620957
 11
49.8004330268
 21
24.9713201132
  0
ARC
  5
348
100
AcDbEntity
  8
_1
100
AcDbCircle
 62
7
  6
BYLAYER
 10
53.9214288148
 20
38.1206157233
 40
3.9768775121
100
AcDbArc
 50
123.5278685094
 51
125.4593316712
  0
ARC
  5
349
100
AcDbEntity
  8
_1
100
AcDbCircle
 62
7
  6
BYLAYER
 10
54.340792994
 20
35.8104897911
 40
3.7627665835
100
AcDbArc
 50
182.0187799822
 51
183.4394124899
  0
ARC
  5
34A
100
AcDbEntity
  8
_1
100
AcDbCircle
 62
7
  6
BYLAYER
 10
55.5836994157
 20
37.1740412607
 40
3.5111210542
100
AcDbArc
 50
118.6848383431
 51
120.4373999067
  0
ARC
  5
34B
100
AcDbEntity
  8
_1
100
AcDbCircle
 62
7
  6
BYLAYER
 10
52.2411090649
 20
36.1406693815
 40
2.5602640323
100
AcDbArc
 50
283.3196167214
 51
283.638162266
  0
ARC
  5
34C
100
AcDbEntity
  8
_1
100
AcDbCircle
 62
7
  6
BYLAYER
 10
54.4376887638
 20
38.8772047362
 40
2.0529458139
100
AcDbArc
 50
20.3181726499
 51
22.2708430343
  0
ARC
  5
34D
100
AcDbEntity
  8
_1
100
AcDbCircle
 62
7
  6
BYLAYER
 10
50.9080533622
 20
35.9928847017
 40
1.6112259169
100
AcDbArc
 50
221.4891602886
 51
222.3266256489
  0
ARC
  5
34E
100
AcDbEntity
  8
_1
100
AcDbCircle
 62
7
  6
BYLAYER
 10
51.6149980816
 20
35.5844965819
 40
1.6110046879
100
AcDbArc
 50
221.4891220282
 51
222.3502227392
  0
ARC
  5
34F
100
AcDbEntity
  8
_1
100
AcDbCircle
 62
7
  6
BYLAYER
 10
52.2361454694
 20
35.0774542516
 40
1.47945194
100
AcDbArc
 50
239.6957730238
 51
239.9884524112
  0
ARC
  5
350
100
AcDbEntity
  8
_1
100
AcDbCircle
 62
7
  6
BYLAYER
 10
50.8219123635
 20
35.893912215
 40
1.4794247211
100
AcDbArc
 50
239.6793436785
 51
239.9884542495
  0
ARC
  5
351
100
AcDbEntity
  8
_1
100
AcDbCircle
 62
7
  6
BYLAYER
 10
51.5290220872
 20
35.4856714578
 40
1.4794247181
100
AcDbArc
 50
239.6793436781
 51
239.9884542497
  0
ARC
  5
352
100
AcDbEntity
  8
_1
100
AcDbCircle
 62
7
  6
BYLAYER
 10
12.7464324351
 20
46.5469976075
 40
1.34
100
AcDbArc
 50
107.2512151433
 51
125.517845224
  0
ARC
  5
353
100
AcDbEntity
  8
_1
100
AcDbCircle
 62
7
  6
BYLAYER
 10
53.8460273107
 20
40.3166259538
 40
1.1783447133
100
AcDbArc
 50
59.9869895634
 51
60.3802165473
  0
ARC
  5
354
100
AcDbEntity
  8
_1
100
AcDbCircle
 62
7
  6
BYLAYER
 10
54.5531370361
 20
39.9083851997
 40
1.1783447128
100
AcDbArc
 50
59.9869895634
 51
60.3802165474
  0
ARC
  5
355
100
AcDbEntity
  8
_1
100
AcDbCircle
 62
7
  6
BYLAYER
 10
12.3416762101
 20
47.0995429713
 40
0.6534374981
100
AcDbArc
 50
131.8606426778
 51
133.2513345379
  0
ARC
  5
356
100
AcDbEntity
  8
_1
100
AcDbCircle
 62
7
  6
BYLAYER
 10
9.3530805368
 20
53.0922273314
 40
0.5621249811
100
AcDbArc
 50
213.4043293692
 51
220.9304038592
  0
ARC
  5
357
100
AcDbEntity
  8
_1
100
AcDbCircle
 62
7
  6
BYLAYER
 10
7.9639372812
 20
44.9615707693
 40
0.5
100
AcDbArc
 50
179.9716298687
 51
240.0005612632
  0
ARC
  5
358
100
AcDbEntity
  8
_1
100
AcDbCircle
 62
7
  6
BYLAYER
 10
7.9639372812
 20
63.7631373418
 40
0.5
100
AcDbArc
 50
144.6071877353
 51
180.0012215308
  0
ARC
  5
359
100
AcDbEntity
  8
_1
100
AcDbCircle
 62
7
  6
BYLAYER
 10
9.2124553664
 20
50.581411844
 40
0.5
100
AcDbArc
 50
192.4134299343
 51
240.0005612632
  0
ARC
  5
35A
100
AcDbEntity
  8
_1
100
AcDbCircle
 62
7
  6
BYLAYER
 10
10.4488321465
 20
49.3631430613
 40
0.2872363397
100
AcDbArc
 50
11.2656851574
 51
13.0188053826
  0
ARC
  5
35B
100
AcDbEntity
  8
_1
100
AcDbCircle
 62
7
  6
BYLAYER
 10
8.9635338754
 20
50.5264237972
 40
0.2450712394
100
AcDbArc
 50
192.3976498835
 51
196.7294712749
  0
ARC
  5
35C
100
AcDbEntity
  8
_1
100
AcDbCircle
 62
7
  6
BYLAYER
 10
10.8141166945
 20
48.6189330349
 40
0.1723434201
100
AcDbArc
 50
104.6403624038
 51
114.7885835798
  0
ARC
  5
35D
100
AcDbEntity
  8
_1
100
AcDbCircle
 62
7
  6
BYLAYER
 10
51.945415781
 20
46.1044330279
 40
0.1664639607
100
AcDbArc
 50
59.920707028
 51
64.8118200552
  0
SPLINE
  5
35E
100
AcDbEntity
  8
_1
100
AcDbSpline
 62
7
  6
BYLAYER
 70
0
 71
3
 72
15
 73
11
 74
0
 42
0.0000001
 43
0.0000001
 44
0.0000000001
 40
0.0
 40
0.0
 40
0.0
 40
0.0
 40
0.1467762925
 40
0.2867829798
 40
0.4198817327
 40
0.5463383971
 40
0.6666656295
 40
0.7816260486
 40
0.8922905447
 40
1.0
 40
1.0
 40
1.0
 40
1.0
 10
57.8953689556
 20
37.4150277838
 30
0.0
 10
57.8953689556
 20
37.4928600157
 30
0.0
 10
57.889657538
 20
37.6450175649
 30
0.0
 10
57.8626822168
 20
37.8663106099
 30
0.0
 10
57.8175885197
 20
38.0736820441
 30
0.0
 10
57.7547037117
 20
38.265470231
 30
0.0
 10
57.6744491539
 20
38.4402007728
 30
0.0
 10
57.5773188812
 20
38.5964581773
 30
0.0
 10
57.4640562307
 20
38.7328940118
 30
0.0
 10
57.3774753191
 20
38.810562921
 30
0.0
 10
57.3321602767
 20
38.8453304147
 30
0.0
  0
SPLINE
  5
35F
100
AcDbEntity
  8
_1
100
AcDbSpline
 62
7
  6
BYLAYER
 70
0
 71
3
 72
26
 73
22
 74
0
 42
0.0000001
 43
0.0000001
 44
0.0000000001
 40
0.0
 40
0.0
 40
0.0
 40
0.0
 40
0.0623793645
 40
0.1287166996
 40
0.1983052863
 40
0.2702780856
 40
0.3436521159
 40
0.4173812564
 40
0.4904027312
 40
0.5616861895
 40
0.6302802112
 40
0.6953645594
 40
0.7563090636
 40
0.8127435181
 40
0.8392675897
 40
0.8646893306
 40
0.9124618618
 40
0.9351052627
 40
0.9571096104
 40
0.9786689114
 40
1.0
 40
1.0
 40
1.0
 40
1.0
 10
53.4406147812
 20
34.8430896144
 30
0.0
 10
53.4406147812
 20
34.9675459099
 30
0.0
 10
53.4574770823
 20
35.2245265109
 30
0.0
 10
53.5268545212
 20
35.6147154746
 30
0.0
 10
53.6396580888
 20
36.0145333987
 30
0.0
 10
53.7934610761
 20
36.4154295649
 30
0.0
 10
53.9850021644
 20
36.8089083694
 30
0.0
 10
54.2101891502
 20
37.1865750456
 30
0.0
 10
54.4642210717
 20
37.5403710954
 30
0.0
 10
54.74168497
 20
37.8627567013
 30
0.0
 10
55.036689132
 20
38.1468756216
 30
0.0
 10
55.3430447589
 20
38.3867158831
 30
0.0
 10
55.654323199
 20
38.5771617942
 30
0.0
 10
55.9179458381
 20
38.6936806745
 30
0.0
 10
56.1250160724
 20
38.7568419118
 30
0.0
 10
56.3197261188
 20
38.7984422413
 30
0.0
 10
56.5119933034
 20
38.8125569697
 30
0.0
 10
56.6959187634
 20
38.79528554
 30
0.0
 10
56.8254315122
 20
38.7676761002
 30
0.0
 10
56.9480985405
 20
38.7252606163
 30
0.0
 10
57.0250430192
 20
38.6871908744
 30
0.0
 10
57.0619001835
 20
38.6659118402
 30
0.0
  0
SPLINE
  5
360
100
AcDbEntity
  8
_1
100
AcDbSpline
 62
7
  6
BYLAYER
 70
0
 71
3
 72
27
 73
23
 74
0
 42
0.0000001
 43
0.0000001
 44
0.0000000001
 40
0.0
 40
0.0
 40
0.0
 40
0.0
 40
0.0623775152
 40
0.1287102509
 40
0.1982961259
 40
0.2702654503
 40
0.3436354443
 40
0.4173599177
 40
0.4903770096
 40
0.5616563171
 40
0.6302466828
 40
0.6953278872
 40
0.7562696316
 40
0.7850774255
 40
0.8127387744
 40
0.8646344505
 40
0.8890187998
 40
0.912466068
 40
0.9351084831
 40
0.9571117233
 40
0.9786700105
 40
1.0
 40
1.0
 40
1.0
 40
1.0
 10
51.8496205491
 20
35.3942131033
 30
0.0
 10
51.8496205491
 20
35.5373409067
 30
0.0
 10
51.8690106662
 20
35.8328691
 30
0.0
 10
51.9487990288
 20
36.2815878099
 30
0.0
 10
52.0785190914
 20
36.7413791211
 30
0.0
 10
52.2553960375
 20
37.2024102811
 30
0.0
 10
52.4756654878
 20
37.6549097176
 30
0.0
 10
52.734628681
 20
38.0892222447
 30
0.0
 10
53.026762804
 20
38.4960851111
 30
0.0
 10
53.3458400906
 20
38.8668241175
 30
0.0
 10
53.6851067431
 20
39.1935696427
 30
0.0
 10
54.0373701549
 20
39.4693563209
 30
0.0
 10
54.3412754405
 20
39.6552994586
 30
0.0
 10
54.5843888065
 20
39.7719036171
 30
0.0
 10
54.8158962628
 20
39.8629786181
 30
0.0
 10
55.0477711225
 20
39.9245477374
 30
0.0
 10
55.2753486754
 20
39.9513097085
 30
0.0
 10
55.4373411191
 20
39.9538659732
 30
0.0
 10
55.5932284218
 20
39.9392453397
 30
0.0
 10
55.742155628
 20
39.9074814849
 30
0.0
 10
55.8832306263
 20
39.8587175157
 30
0.0
 10
55.9717107888
 20
39.8149256308
 30
0.0
 10
56.0140976509
 20
39.7904567335
 30
0.0
  0
SPLINE
  5
361
100
AcDbEntity
  8
_1
100
AcDbSpline
 62
7
  6
BYLAYER
 70
0
 71
3
 72
21
 73
17
 74
0
 42
0.0000001
 43
0.0000001
 44
0.0000000001
 40
0.0
 40
0.0
 40
0.0
 40
0.0
 40
0.1242466414
 40
0.1833324108
 40
0.240866122
 40
0.2973502278
 40
0.3533553177
 40
0.409500735
 40
0.4663962395
 40
0.5245997722
 40
0.5846143634
 40
0.6468705199
 40
0.7116856237
 40
0.8497282996
 40
0.9233492393
 40
1.0
 40
1.0
 40
1.0
 40
1.0
 10
56.3374903591
 20
39.6552409906
 30
0.0
 10
56.2920172115
 20
39.7662162712
 30
0.0
 10
56.2097812018
 20
39.9247164277
 30
0.0
 10
56.0701751658
 20
40.111116642
 30
0.0
 10
55.9549088881
 20
40.2326636944
 30
0.0
 10
55.8278074728
 20
40.3371692756
 30
0.0
 10
55.6894862203
 20
40.423850518
 30
0.0
 10
55.5406958821
 20
40.4919372627
 30
0.0
 10
55.3824839668
 20
40.5412601398
 30
0.0
 10
55.2158018709
 20
40.5716481304
 30
0.0
 10
55.0415946432
 20
40.582899441
 30
0.0
 10
54.8608493175
 20
40.5749038169
 30
0.0
 10
54.6072469087
 20
40.5382419587
 30
0.0
 10
54.3495080449
 20
40.4632702214
 30
0.0
 10
54.0928442119
 20
40.3553545817
 30
0.0
 10
53.9633010511
 20
40.2897641389
 30
0.0
 10
53.8983916125
 20
40.254253699
 30
0.0
  0
SPLINE
  5
362
100
AcDbEntity
  8
_1
100
AcDbSpline
 62
7
  6
BYLAYER
 70
0
 71
3
 72
20
 73
16
 74
0
 42
0.0000001
 43
0.0000001
 44
0.0000000001
 40
0.0
 40
0.0
 40
0.0
 40
0.0
 40
0.0572186866
 40
0.1166467417
 40
0.1779979051
 40
0.2410203554
 40
0.3053974568
 40
0.370777311
 40
0.5030916893
 40
0.5693307981
 40
0.6351170328
 40
0.763791951
 40
0.88621309
 40
0.944310716
 40
1.0
 40
1.0
 40
1.0
 40
1.0
 10
51.7172265175
 20
41.4395726541
 30
0.0
 10
51.6308779291
 20
41.3826064647
 30
0.0
 10
51.459235311
 20
41.2597121688
 30
0.0
 10
51.2107631273
 20
41.0548747207
 30
0.0
 10
50.9681348959
 20
40.827500581
 30
0.0
 10
50.7336105789
 20
40.5793481648
 30
0.0
 10
50.5089598848
 20
40.3126310889
 30
0.0
 10
50.2239075351
 20
39.9339435876
 30
0.0
 10
49.9682098374
 20
39.5297776634
 30
0.0
 10
49.7453673008
 20
39.1068109853
 30
0.0
 10
49.548027889
 20
38.6785765669
 30
0.0
 10
49.3505164509
 20
38.1394616113
 30
0.0
 10
49.2225148959
 20
37.5935152142
 30
0.0
 10
49.1693835381
 20
37.1694741222
 30
0.0
 10
49.1591251812
 20
36.963756451
 30
0.0
 10
49.1583082165
 20
36.8630780734
 30
0.0
  0
SPLINE
  5
363
100
AcDbEntity
  8
_1
100
AcDbSpline
 62
7
  6
BYLAYER
 70
0
 71
3
 72
20
 73
16
 74
0
 42
0.0000001
 43
0.0000001
 44
0.0000000001
 40
0.0
 40
0.0
 40
0.0
 40
0.0
 40
0.150538197
 40
0.2929350884
 40
0.36095338
 40
0.4268181073
 40
0.4904932075
 40
0.551923288
 40
0.6111543682
 40
0.6685838124
 40
0.7246903383
 40
0.7799327513
 40
0.834764464
 40
0.889635705
 40
1.0
 40
1.0
 40
1.0
 40
1.0
 10
50.5732907336
 20
35.6820209656
 30
0.0
 10
50.5771634839
 20
35.5724786427
 30
0.0
 10
50.593781375
 20
35.3595008206
 30
0.0
 10
50.6391957545
 20
35.1001507793
 30
0.0
 10
50.6897013974
 20
34.9053348817
 30
0.0
 10
50.7335324914
 20
34.7682445691
 30
0.0
 10
50.7834977562
 20
34.6383962962
 30
0.0
 10
50.8391414641
 20
34.5161618448
 30
0.0
 10
50.9002105766
 20
34.4016675556
 30
0.0
 10
50.9666898466
 20
34.2947606842
 30
0.0
 10
51.0385990139
 20
34.1949828478
 30
0.0
 10
51.1161571407
 20
34.1019724262
 30
0.0
 10
51.1998590891
 20
34.015664274
 30
0.0
 10
51.3200226924
 20
33.9095062027
 30
0.0
 10
51.4195051701
 20
33.8406364743
 30
0.0
 10
51.4890900793
 20
33.8004428729
 30
0.0
  0
SPLINE
  5
364
100
AcDbEntity
  8
_1
100
AcDbSpline
 62
7
  6
BYLAYER
 70
0
 71
3
 72
20
 73
16
 74
0
 42
0.0000001
 43
0.0000001
 44
0.0000000001
 40
0.0
 40
0.0
 40
0.0
 40
0.0
 40
0.150538197
 40
0.2929350884
 40
0.36095338
 40
0.4268181073
 40
0.4904932075
 40
0.551923288
 40
0.6111543682
 40
0.6685838124
 40
0.7246903383
 40
0.7799327513
 40
0.834764464
 40
0.889635705
 40
1.0
 40
1.0
 40
1.0
 40
1.0
 10
49.8661810085
 20
36.0902617201
 30
0.0
 10
49.8700537588
 20
35.9807193972
 30
0.0
 10
49.8866716499
 20
35.7677415752
 30
0.0
 10
49.9320860293
 20
35.5083915338
 30
0.0
 10
49.9825916723
 20
35.3135756363
 30
0.0
 10
50.0264227662
 20
35.1764853237
 30
0.0
 10
50.0763880311
 20
35.0466370508
 30
0.0
 10
50.1320317389
 20
34.9244025994
 30
0.0
 10
50.1931008514
 20
34.8099083102
 30
0.0
 10
50.2595801214
 20
34.7030014388
 30
0.0
 10
50.3314892887
 20
34.6032236024
 30
0.0
 10
50.4090474155
 20
34.5102131808
 30
0.0
 10
50.4927493638
 20
34.4239050286
 30
0.0
 10
50.6129129671
 20
34.3177469573
 30
0.0
 10
50.7123954448
 20
34.2488772289
 30
0.0
 10
50.781980354
 20
34.2086836275
 30
0.0
  0
SPLINE
  5
365
100
AcDbEntity
  8
_1
100
AcDbSpline
 62
7
  6
BYLAYER
 70
0
 71
3
 72
14
 73
10
 74
0
 42
0.0000001
 43
0.0000001
 44
0.0000000001
 40
0.0
 40
0.0
 40
0.0
 40
0.0
 40
0.1461245673
 40
0.286388798
 40
0.4204171561
 40
0.5481115011
 40
0.669332696
 40
0.7840316846
 40
1.0
 40
1.0
 40
1.0
 40
1.0
 10
49.1590712833
 20
36.4985024746
 30
0.0
 10
49.1620465091
 20
36.414347005
 30
0.0
 10
49.173292374
 20
36.2495375718
 30
0.0
 10
49.2069873664
 20
36.0094028843
 30
0.0
 10
49.2567704623
 20
35.7829005004
 30
0.0
 10
49.32197047
 20
35.5717983878
 30
0.0
 10
49.4014189965
 20
35.3775427167
 30
0.0
 10
49.5222511923
 20
35.1466152563
 30
0.0
 10
49.6359671142
 20
34.9913278811
 30
0.0
 10
49.7206968287
 20
34.9001659576
 30
0.0
  0
SPLINE
  5
366
100
AcDbEntity
  8
_1
100
AcDbSpline
 62
7
  6
BYLAYER
 70
0
 71
3
 72
9
 73
5
 74
0
 42
0.0000001
 43
0.0000001
 44
0.0000000001
 40
0.0
 40
0.0
 40
0.0
 40
0.0
 40
0.4982476973
 40
1.0
 40
1.0
 40
1.0
 40
1.0
 10
49.7206968287
 20
34.9001659576
 30
0.0
 10
49.7721163067
 20
34.8448429986
 30
0.0
 10
49.8834301298
 20
34.7410623736
 30
0.0
 10
50.0090084065
 20
34.6549676869
 30
0.0
 10
50.0748706288
 20
34.616924382
 30
0.0
  0
SPLINE
  5
367
100
AcDbEntity
  8
_1
100
AcDbSpline
 62
7
  6
BYLAYER
 70
0
 71
3
 72
9
 73
5
 74
0
 42
0.0000001
 43
0.0000001
 44
0.0000000001
 40
0.0
 40
0.0
 40
0.0
 40
0.0
 40
0.2532198019
 40
1.0
 40
1.0
 40
1.0
 40
1.0
 10
51.7172265175
 20
41.4395726541
 30
0.0
 10
51.7333226081
 20
41.4495035925
 30
0.0
 10
51.7971677057
 20
41.4882669334
 30
0.0
 10
51.8621371877
 20
41.5251832962
 30
0.0
 10
51.9112629815
 20
41.5515989901
 30
0.0
  0
SPLINE
  5
368
100
AcDbEntity
  8
_1
100
AcDbSpline
 62
7
  6
BYLAYER
 70
0
 71
3
 72
9
 73
5
 74
0
 42
0.0000001
 43
0.0000001
 44
0.0000000001
 40
0.0
 40
0.0
 40
0.0
 40
0.0
 40
0.4990989734
 40
1.0
 40
1.0
 40
1.0
 40
1.0
 10
54.4354313768
 20
41.3369685973
 30
0.0
 10
54.4998814213
 20
41.2997388033
 30
0.0
 10
54.6221512481
 20
41.2126511264
 30
0.0
 10
54.7266694325
 20
41.1051168633
 30
0.0
 10
54.774110872
 20
41.0474171886
 30
0.0
  0
SPLINE
  5
369
100
AcDbEntity
  8
_1
100
AcDbSpline
 62
7
  6
BYLAYER
 70
0
 71
3
 72
15
 73
11
 74
0
 42
0.0000001
 43
0.0000001
 44
0.0000000001
 40
0.0
 40
0.0
 40
0.0
 40
0.0
 40
0.1073553389
 40
0.2176778326
 40
0.3326524184
 40
0.4535005516
 40
0.7145461271
 40
0.783976763
 40
0.8547156745
 40
1.0
 40
1.0
 40
1.0
 40
1.0
 10
54.4283603792
 20
41.3410509473
 30
0.0
 10
54.3685054998
 20
41.3756263359
 30
0.0
 10
54.2406641687
 20
41.4351157994
 30
0.0
 10
54.0328380635
 20
41.4908100613
 30
0.0
 10
53.8100812684
 20
41.5126878117
 30
0.0
 10
53.4896425024
 20
41.4960267281
 30
0.0
 10
53.2051796555
 20
41.42174545
 30
0.0
 10
52.9650978061
 20
41.3265349627
 30
0.0
 10
52.7975545157
 20
41.2507748625
 30
0.0
 10
52.6747973759
 20
41.1849243293
 30
0.0
 10
52.5941687823
 20
41.1374931384
 30
0.0
  0
SPLINE
  5
36A
100
AcDbEntity
  8
_1
100
AcDbSpline
 62
7
  6
BYLAYER
 70
0
 71
3
 72
15
 73
11
 74
0
 42
0.0000001
 43
0.0000001
 44
0.0000000001
 40
0.0
 40
0.0
 40
0.0
 40
0.0
 40
0.1080132897
 40
0.2180605512
 40
0.3319959959
 40
0.4513568549
 40
0.5772706676
 40
0.7104878302
 40
0.8514260434
 40
1.0
 40
1.0
 40
1.0
 40
1.0
 10
54.0619524021
 20
33.4697323118
 30
0.0
 10
54.0127652007
 20
33.4981299424
 30
0.0
 10
53.9182011952
 20
33.5641238433
 30
0.0
 10
53.7932439787
 20
33.6870921229
 30
0.0
 10
53.6857739828
 20
33.8330437803
 30
0.0
 10
53.5968054224
 20
34.00034178
 30
0.0
 10
53.5269917145
 20
34.1872613244
 30
0.0
 10
53.4768972239
 20
34.3920238132
 30
0.0
 10
53.446920812
 20
34.6126280776
 30
0.0
 10
53.4406147812
 20
34.7649655854
 30
0.0
 10
53.4406147812
 20
34.8430896144
 30
0.0
  0
SPLINE
  5
36B
100
AcDbEntity
  8
_1
100
AcDbSpline
 62
7
  6
BYLAYER
 70
0
 71
3
 72
27
 73
23
 74
0
 42
0.0000001
 43
0.0000001
 44
0.0000000001
 40
0.0
 40
0.0
 40
0.0
 40
0.0
 40
0.0213374079
 40
0.0431006339
 40
0.0654699944
 40
0.0886005839
 40
0.1126177184
 40
0.1376164236
 40
0.1907544226
 40
0.2189851039
 40
0.2483041903
 40
0.3100498783
 40
0.3755898971
 40
0.4442795451
 40
0.5153200442
 40
0.5878074885
 40
0.6607774953
 40
0.7332437728
 40
0.8042431349
 40
0.872872522
 40
0.9383418022
 40
1.0
 40
1.0
 40
1.0
 40
1.0
 10
54.0417076054
 20
33.1459702
 30
0.0
 10
54.0840244544
 20
33.1284403906
 30
0.0
 10
54.1717677699
 20
33.0982594264
 30
0.0
 10
54.3094457132
 20
33.0685800534
 30
0.0
 10
54.453416562
 20
33.0542205607
 30
0.0
 10
54.6029010207
 20
33.0552575897
 30
0.0
 10
54.7571483214
 20
33.0716219019
 30
0.0
 10
54.9724350743
 20
33.1145992817
 30
0.0
 10
55.1898373515
 20
33.1879365712
 30
0.0
 10
55.4059065266
 20
33.2870414697
 30
0.0
 10
55.6312796864
 20
33.4090184527
 30
0.0
 10
55.911396867
 20
33.5963616093
 30
0.0
 10
56.2346308812
 20
33.8666926782
 30
0.0
 10
56.544342226
 20
34.1810250559
 30
0.0
 10
56.8343600769
 20
34.53307044
 30
0.0
 10
57.0989194244
 20
34.9158158147
 30
0.0
 10
57.3327258811
 20
35.3216073438
 30
0.0
 10
57.5311106034
 20
35.7423277206
 30
0.0
 10
57.6900934438
 20
36.1695629533
 30
0.0
 10
57.8065237577
 20
36.5948290755
 30
0.0
 10
57.8780371744
 20
37.0095962158
 30
0.0
 10
57.8953689556
 20
37.2826689489
 30
0.0
 10
57.8953689556
 20
37.4150277838
 30
0.0
  0
SPLINE
  5
36C
100
AcDbEntity
  8
_1
100
AcDbSpline
 62
7
  6
BYLAYER
 70
0
 71
3
 72
15
 73
11
 74
0
 42
0.0000001
 43
0.0000001
 44
0.0000000001
 40
0.0
 40
0.0
 40
0.0
 40
0.0
 40
0.1080121247
 40
0.2180599653
 40
0.3319969376
 40
0.4513573625
 40
0.5772745718
 40
0.7104904128
 40
0.8514202712
 40
1.0
 40
1.0
 40
1.0
 40
1.0
 10
52.5641599241
 20
33.8148541347
 30
0.0
 10
52.5075937132
 20
33.8475084228
 30
0.0
 10
52.398845545
 20
33.9234017245
 30
0.0
 10
52.2551413466
 20
34.0648130275
 30
0.0
 10
52.131556968
 20
34.232663129
 30
0.0
 10
52.0292343583
 20
34.4250540205
 30
0.0
 10
51.9489539105
 20
34.6400151724
 30
0.0
 10
51.8913468055
 20
34.875488036
 30
0.0
 10
51.8568688393
 20
35.1291800992
 30
0.0
 10
51.8496205491
 20
35.3043669578
 30
0.0
 10
51.8496205491
 20
35.3942131033
 30
0.0
  0
SPLINE
  5
36D
100
AcDbEntity
  8
_1
100
AcDbSpline
 62
7
  6
BYLAYER
 70
0
 71
3
 72
11
 73
7
 74
0
 42
0.0000001
 43
0.0000001
 44
0.0000000001
 40
0.0
 40
0.0
 40
0.0
 40
0.0
 40
0.2472969853
 40
0.4944920265
 40
0.743921663
 40
1.0
 40
1.0
 40
1.0
 40
1.0
 10
55.142541102
 20
40.9287278428
 30
0.0
 10
55.1897985091
 20
40.901429436
 30
0.0
 10
55.2805921332
 20
40.8401616938
 30
0.0
 10
55.4035397764
 20
40.7306847173
 30
0.0
 10
55.5127008047
 20
40.6049221376
 30
0.0
 10
55.5754023026
 20
40.5123071427
 30
0.0
 10
55.6045135734
 20
40.4638687105
 30
0.0
  0
SPLINE
  5
36E
100
AcDbEntity
  8
_1
100
AcDbSpline
 62
7
  6
BYLAYER
 70
0
 71
3
 72
15
 73
11
 74
0
 42
0.0000001
 43
0.0000001
 44
0.0000000001
 40
0.0
 40
0.0
 40
0.0
 40
0.0
 40
0.1073553389
 40
0.2176778326
 40
0.3326524184
 40
0.4535005516
 40
0.7145461271
 40
0.783976763
 40
0.8547156745
 40
1.0
 40
1.0
 40
1.0
 40
1.0
 10
55.1354701044
 20
40.9328101928
 30
0.0
 10
55.075615225
 20
40.9673855814
 30
0.0
 10
54.9477738938
 20
41.0268750449
 30
0.0
 10
54.7399477886
 20
41.0825693068
 30
0.0
 10
54.5171909936
 20
41.1044470571
 30
0.0
 10
54.1967522276
 20
41.0877859736
 30
0.0
 10
53.9122893806
 20
41.0135046955
 30
0.0
 10
53.6722075312
 20
40.9182942082
 30
0.0
 10
53.5046642408
 20
40.842534108
 30
0.0
 10
53.381907101
 20
40.7766835748
 30
0.0
 10
53.3012785074
 20
40.7292523839
 30
0.0
  0
SPLINE
  5
36F
100
AcDbEntity
  8
_1
100
AcDbSpline
 62
7
  6
BYLAYER
 70
0
 71
3
 72
14
 73
10
 74
0
 42
0.0000001
 43
0.0000001
 44
0.0000000001
 40
0.0
 40
0.0
 40
0.0
 40
0.0
 40
0.2690179168
 40
0.3982544136
 40
0.5240606968
 40
0.6466848429
 40
0.7665268941
 40
0.8840839533
 40
1.0
 40
1.0
 40
1.0
 40
1.0
 10
52.8309501613
 20
33.6492763182
 30
0.0
 10
52.7109518902
 20
33.6208670097
 30
0.0
 10
52.5297084585
 20
33.5915442716
 30
0.0
 10
52.2893506699
 20
33.584236495
 30
0.0
 10
52.1162801418
 20
33.5947269217
 30
0.0
 10
51.9492926737
 20
33.6212783854
 30
0.0
 10
51.7894603848
 20
33.6635506025
 30
0.0
 10
51.6378095712
 20
33.7212156165
 30
0.0
 10
51.5421720567
 20
33.7697836884
 30
0.0
 10
51.4961612883
 20
33.7963604008
 30
0.0
  0
SPLINE
  5
370
100
AcDbEntity
  8
_1
100
AcDbSpline
 62
7
  6
BYLAYER
 70
0
 71
3
 72
15
 73
11
 74
0
 42
0.0000001
 43
0.0000001
 44
0.0000000001
 40
0.0
 40
0.0
 40
0.0
 40
0.0
 40
0.1122980445
 40
0.2242545433
 40
0.3382453881
 40
0.4564525539
 40
0.580701877
 40
0.7122204065
 40
0.8518759956
 40
1.0
 40
1.0
 40
1.0
 40
1.0
 10
53.8914176362
 20
41.4813722819
 30
0.0
 10
53.8325535208
 20
41.5338044637
 30
0.0
 10
53.7055105625
 20
41.6284453572
 30
0.0
 10
53.4914491471
 20
41.7340117716
 30
0.0
 10
53.2581046475
 20
41.8011775758
 30
0.0
 10
53.0083294043
 20
41.8290284204
 30
0.0
 10
52.745140165
 20
41.8172823514
 30
0.0
 10
52.4713519357
 20
41.7671205359
 30
0.0
 10
52.1898795713
 20
41.6789173943
 30
0.0
 10
52.0044458577
 20
41.5977341425
 30
0.0
 10
51.9112629815
 20
41.5515989901
 30
0.0
  0
SPLINE
  5
371
100
AcDbEntity
  8
_1
100
AcDbSpline
 62
7
  6
BYLAYER
 70
0
 71
3
 72
9
 73
5
 74
0
 42
0.0000001
 43
0.0000001
 44
0.0000000001
 40
0.0
 40
0.0
 40
0.0
 40
0.0
 40
0.5043418642
 40
1.0
 40
1.0
 40
1.0
 40
1.0
 10
50.4257501684
 20
34.4677086245
 30
0.0
 10
50.3653033447
 20
34.4849476011
 30
0.0
 10
50.2473717692
 20
34.5263240901
 30
0.0
 10
50.1354340789
 20
34.5819437538
 30
0.0
 10
50.0819418378
 20
34.61284191
 30
0.0
  0
SPLINE
  5
372
100
AcDbEntity
  8
_1
100
AcDbSpline
 62
7
  6
BYLAYER
 70
0
 71
3
 72
9
 73
5
 74
0
 42
0.0000001
 43
0.0000001
 44
0.0000000001
 40
0.0
 40
0.0
 40
0.0
 40
0.0
 40
0.504596144
 40
1.0
 40
1.0
 40
1.0
 40
1.0
 10
51.1478474848
 20
34.0552726789
 30
0.0
 10
51.0846850237
 20
34.0726204744
 30
0.0
 10
50.9615026938
 20
34.1147908125
 30
0.0
 10
50.8447376257
 20
34.1724358054
 30
0.0
 10
50.7890515629
 20
34.2046011554
 30
0.0
  0
SPLINE
  5
373
100
AcDbEntity
  8
_1
100
AcDbSpline
 62
7
  6
BYLAYER
 70
0
 71
3
 72
26
 73
22
 74
0
 42
0.0000001
 43
0.0000001
 44
0.0000000001
 40
0.0
 40
0.0
 40
0.0
 40
0.0
 40
0.0623793645
 40
0.1287166996
 40
0.1983052863
 40
0.2702780856
 40
0.3436521159
 40
0.4173812564
 40
0.4904027312
 40
0.5616861895
 40
0.6302802112
 40
0.6953645594
 40
0.7563090636
 40
0.8127435181
 40
0.8392675897
 40
0.8646893306
 40
0.9124618618
 40
0.9351052627
 40
0.9571096104
 40
0.9786689114
 40
1.0
 40
1.0
 40
1.0
 40
1.0
 10
57.6832378044
 20
37.2925545376
 30
0.0
 10
57.6832378044
 20
37.1680982421
 30
0.0
 10
57.6663755033
 20
36.9111176411
 30
0.0
 10
57.5969980643
 20
36.5209286774
 30
0.0
 10
57.4841944967
 20
36.1211107533
 30
0.0
 10
57.3303915095
 20
35.7202145871
 30
0.0
 10
57.1388504212
 20
35.3267357826
 30
0.0
 10
56.9136634354
 20
34.9490691064
 30
0.0
 10
56.6596315139
 20
34.5952730566
 30
0.0
 10
56.3821676156
 20
34.2728874506
 30
0.0
 10
56.0871634536
 20
33.9887685304
 30
0.0
 10
55.7808078267
 20
33.7489282688
 30
0.0
 10
55.4695293866
 20
33.5584823578
 30
0.0
 10
55.2059067475
 20
33.4419634775
 30
0.0
 10
54.9988365131
 20
33.3788022402
 30
0.0
 10
54.8041264668
 20
33.3372019107
 30
0.0
 10
54.6118592822
 20
33.3230871823
 30
0.0
 10
54.4279338222
 20
33.340358612
 30
0.0
 10
54.2984210734
 20
33.3679680518
 30
0.0
 10
54.1757540451
 20
33.4103835357
 30
0.0
 10
54.0988095664
 20
33.4484532776
 30
0.0
 10
54.0619524021
 20
33.4697323118
 30
0.0
  0
SPLINE
  5
374
100
AcDbEntity
  8
_1
100
AcDbSpline
 62
7
  6
BYLAYER
 70
0
 71
3
 72
23
 73
19
 74
0
 42
0.0000001
 43
0.0000001
 44
0.0000000001
 40
0.0
 40
0.0
 40
0.0
 40
0.0
 40
0.0825008689
 40
0.162321843
 40
0.2390674793
 40
0.3125657579
 40
0.3825994982
 40
0.44903992
 40
0.511936217
 40
0.57154378
 40
0.6282579898
 40
0.6825676794
 40
0.7351531684
 40
0.7868004609
 40
0.8383069145
 40
0.8905117611
 40
0.9441890459
 40
1.0
 40
1.0
 40
1.0
 40
1.0
 10
51.3625717631
 20
36.6235352183
 30
0.0
 10
51.3357889727
 20
36.5235809709
 30
0.0
 10
51.2890073925
 20
36.3252645622
 30
0.0
 10
51.2395810837
 20
36.0292707796
 30
0.0
 10
51.2125326043
 20
35.7417130238
 30
0.0
 10
51.2072630884
 20
35.4651903182
 30
0.0
 10
51.224175383
 20
35.2020209732
 30
0.0
 10
51.2636855096
 20
34.95467538
 30
0.0
 10
51.3254662608
 20
34.7253810093
 30
0.0
 10
51.4087242324
 20
34.5159996749
 30
0.0
 10
51.5122445354
 20
34.3279770359
 30
0.0
 10
51.6355812409
 20
34.1630553614
 30
0.0
 10
51.777636845
 20
34.0228197132
 30
0.0
 10
51.9363958958
 20
33.9076946876
 30
0.0
 10
52.1107272569
 20
33.8188327221
 30
0.0
 10
52.2992189331
 20
33.7575754426
 30
0.0
 10
52.4999119621
 20
33.7240172982
 30
0.0
 10
52.6376678569
 20
33.72029394
 30
0.0
 10
52.7076272996
 20
33.7227716443
 30
0.0
  0
SPLINE
  5
375
100
AcDbEntity
  8
_1
100
AcDbSpline
 62
7
  6
BYLAYER
 70
0
 71
3
 72
15
 73
11
 74
0
 42
0.0000001
 43
0.0000001
 44
0.0000000001
 40
0.0
 40
0.0
 40
0.0
 40
0.0
 40
0.1080121247
 40
0.2180599653
 40
0.3319969376
 40
0.4513573625
 40
0.5772745718
 40
0.7104904128
 40
0.8514202712
 40
1.0
 40
1.0
 40
1.0
 40
1.0
 10
49.240744216
 20
35.733585681
 30
0.0
 10
49.184178005
 20
35.766239969
 30
0.0
 10
49.0754298368
 20
35.8421332707
 30
0.0
 10
48.9317256384
 20
35.9835445738
 30
0.0
 10
48.8081412598
 20
36.1513946752
 30
0.0
 10
48.7058186501
 20
36.3437855667
 30
0.0
 10
48.6255382023
 20
36.5587467186
 30
0.0
 10
48.5679310973
 20
36.7942195823
 30
0.0
 10
48.5334531312
 20
37.0479116455
 30
0.0
 10
48.526204841
 20
37.223098504
 30
0.0
 10
48.526204841
 20
37.3129446495
 30
0.0
  0
SPLINE
  5
376
100
AcDbEntity
  8
_1
100
AcDbSpline
 62
7
  6
BYLAYER
 70
0
 71
3
 72
26
 73
22
 74
0
 42
0.0000001
 43
0.0000001
 44
0.0000000001
 40
0.0
 40
0.0
 40
0.0
 40
0.0
 40
0.0623785802
 40
0.1287150911
 40
0.1983027091
 40
0.2702744873
 40
0.3436477185
 40
0.4173759353
 40
0.4903963639
 40
0.5616788299
 40
0.6302719045
 40
0.6953553762
 40
0.7562990642
 40
0.8127327541
 40
0.8646300269
 40
0.889015107
 40
0.9124631389
 40
0.9351062116
 40
0.957110234
 40
0.9786692093
 40
1.0
 40
1.0
 40
1.0
 40
1.0
 10
51.3899983446
 20
35.78204233
 30
0.0
 10
51.3899983446
 20
35.9189443756
 30
0.0
 10
51.4085469363
 20
36.2016233048
 30
0.0
 10
51.4848621823
 20
36.6308313578
 30
0.0
 10
51.6089462099
 20
37.0706310037
 30
0.0
 10
51.7781295004
 20
37.5116170226
 30
0.0
 10
51.9888251777
 20
37.9444440014
 30
0.0
 10
52.2365309219
 20
38.359877679
 30
0.0
 10
52.5159666542
 20
38.7490533119
 30
0.0
 10
52.8211751685
 20
39.1036766265
 30
0.0
 10
53.1456855508
 20
39.4162093738
 30
0.0
 10
53.4826567871
 20
39.6800262282
 30
0.0
 10
53.8251307038
 20
39.8895413623
 30
0.0
 10
54.1660227199
 20
40.04022949
 30
0.0
 10
54.4490917912
 20
40.1154064572
 30
0.0
 10
54.6667869139
 20
40.141001726
 30
0.0
 10
54.8217328613
 20
40.1434525058
 30
0.0
 10
54.9708410878
 20
40.1294586926
 30
0.0
 10
55.1132949932
 20
40.099087145
 30
0.0
 10
55.2482312039
 20
40.0524305228
 30
0.0
 10
55.332869442
 20
40.01055373
 30
0.0
 10
55.3734122894
 20
39.9871467822
 30
0.0
  0
SPLINE
  5
377
100
AcDbEntity
  8
_1
100
AcDbSpline
 62
7
  6
BYLAYER
 70
0
 71
3
 72
9
 73
5
 74
0
 42
0.0000001
 43
0.0000001
 44
0.0000000001
 40
0.0
 40
0.0
 40
0.0
 40
0.0
 40
0.4856327013
 40
1.0
 40
1.0
 40
1.0
 40
1.0
 10
48.526204841
 20
37.3129446495
 30
0.0
 10
48.526204841
 20
37.4439819264
 30
0.0
 10
48.5424348153
 20
37.7139491128
 30
0.0
 10
48.5861973705
 20
37.9806691693
 30
0.0
 10
48.6148259074
 20
38.1164751271
 30
0.0
  0
SPLINE
  5
378
100
AcDbEntity
  8
_1
100
AcDbSpline
 62
7
  6
BYLAYER
 70
0
 71
3
 72
11
 73
7
 74
0
 42
0.0000001
 43
0.0000001
 44
0.0000000001
 40
0.0
 40
0.0
 40
0.0
 40
0.0
 40
0.260952862
 40
0.517829619
 40
0.7656430136
 40
1.0
 40
1.0
 40
1.0
 40
1.0
 10
49.1754874351
 20
39.6013891076
 30
0.0
 10
49.2715354116
 20
39.7766538213
 30
0.0
 10
49.4796834809
 20
40.1151515352
 30
0.0
 10
49.8362309135
 20
40.5819640742
 30
0.0
 10
50.2262498157
 20
40.993645778
 30
0.0
 10
50.5104936478
 20
41.2311786402
 30
0.0
 10
50.6557907581
 20
41.3365577248
 30
0.0
  0
SPLINE
  5
379
100
AcDbEntity
  8
_1
100
AcDbSpline
 62
7
  6
BYLAYER
 70
0
 71
3
 72
14
 73
10
 74
0
 42
0.0000001
 43
0.0000001
 44
0.0000000001
 40
0.0
 40
0.0
 40
0.0
 40
0.0
 40
0.2796516265
 40
0.4109116559
 40
0.5368087596
 40
0.6578761482
 40
0.7748186557
 40
0.8885174672
 40
1.0
 40
1.0
 40
1.0
 40
1.0
 10
51.2744875581
 20
41.6939297501
 30
0.0
 10
51.3888868667
 20
41.7431196883
 30
0.0
 10
51.562592738
 20
41.8038726411
 30
0.0
 10
51.796921854
 20
41.8523926992
 30
0.0
 10
51.9646096167
 20
41.870874542
 30
0.0
 10
52.1269516088
 20
41.8720762932
 30
0.0
 10
52.2830772318
 20
41.8559180556
 30
0.0
 10
52.4320653427
 20
41.8224687824
 30
0.0
 10
52.5267332501
 20
41.7884778734
 30
0.0
 10
52.5722844138
 20
41.7687435722
 30
0.0
  0
SPLINE
  5
37A
100
AcDbEntity
  8
_1
100
AcDbSpline
 62
7
  6
BYLAYER
 70
0
 71
3
 72
9
 73
5
 74
0
 42
0.0000001
 43
0.0000001
 44
0.0000000001
 40
0.0
 40
0.0
 40
0.0
 40
0.0
 40
0.5016659366
 40
1.0
 40
1.0
 40
1.0
 40
1.0
 10
50.0750412693
 20
34.6168526729
 30
0.0
 10
50.0082229536
 20
34.6559304948
 30
0.0
 10
49.8809666806
 20
34.744426635
 30
0.0
 10
49.7686212712
 20
34.8511085169
 30
0.0
 10
49.7168446166
 20
34.9079558195
 30
0.0
  0
SPLINE
  5
37B
100
AcDbEntity
  8
_1
100
AcDbSpline
 62
7
  6
BYLAYER
 70
0
 71
3
 72
14
 73
10
 74
0
 42
0.0000001
 43
0.0000001
 44
0.0000000001
 40
0.0
 40
0.0
 40
0.0
 40
0.0
 40
0.2162356532
 40
0.3313652853
 40
0.452869925
 40
0.5806222995
 40
0.7145056002
 40
0.8544207041
 40
1.0
 40
1.0
 40
1.0
 40
1.0
 10
49.7011145323
 20
34.925482427
 30
0.0
 10
49.6204511297
 20
35.0166883586
 30
0.0
 10
49.5122395164
 20
35.1708119789
 30
0.0
 10
49.3972045403
 20
35.3986162843
 30
0.0
 10
49.3214901561
 20
35.5896404688
 30
0.0
 10
49.2594281308
 20
35.7965096432
 30
0.0
 10
49.2120084184
 20
36.0178236742
 30
0.0
 10
49.1798542774
 20
36.251963912
 30
0.0
 10
49.1690386405
 20
36.4124981739
 30
0.0
 10
49.1661423806
 20
36.4944200671
 30
0.0
  0
SPLINE
  5
37C
100
AcDbEntity
  8
_1
100
AcDbSpline
 62
7
  6
BYLAYER
 70
0
 71
3
 72
9
 73
5
 74
0
 42
0.0000001
 43
0.0000001
 44
0.0000000001
 40
0.0
 40
0.0
 40
0.0
 40
0.0
 40
0.2497044132
 40
1.0
 40
1.0
 40
1.0
 40
1.0
 10
51.3626228934
 20
36.6237379949
 30
0.0
 10
51.3704879958
 20
36.663905852
 30
0.0
 10
51.4040461427
 20
36.8243590432
 30
0.0
 10
51.4456001735
 20
36.9831247852
 30
0.0
 10
51.4808897682
 20
37.1009387354
 30
0.0
  0
SPLINE
  5
37D
100
AcDbEntity
  8
_1
100
AcDbSpline
 62
7
  6
BYLAYER
 70
0
 71
3
 72
20
 73
16
 74
0
 42
0.0000001
 43
0.0000001
 44
0.0000000001
 40
0.0
 40
0.0
 40
0.0
 40
0.0
 40
0.0628314812
 40
0.1263189545
 40
0.1909644794
 40
0.2569884
 40
0.3238929777
 40
0.3911655723
 40
0.4584234357
 40
0.5252583301
 40
0.6559008475
 40
0.7800072867
 40
0.8388584695
 40
0.8950990518
 40
1.0
 40
1.0
 40
1.0
 40
1.0
 10
51.4808897682
 20
37.1009387354
 30
0.0
 10
51.503728993
 20
37.1771872533
 30
0.0
 10
51.5531164865
 20
37.3294598962
 30
0.0
 10
51.6373208313
 20
37.5563175029
 30
0.0
 10
51.7323744204
 20
37.7832424019
 30
0.0
 10
51.8382283194
 20
38.0101183238
 30
0.0
 10
51.9547225243
 20
38.2354787822
 30
0.0
 10
52.0812590607
 20
38.4571605491
 30
0.0
 10
52.2169345386
 20
38.6732739933
 30
0.0
 10
52.4072703624
 20
38.9495010741
 30
0.0
 10
52.6601676531
 20
39.2696203966
 30
0.0
 10
52.9348234638
 20
39.5576009517
 30
0.0
 10
53.1604673374
 20
39.760059961
 30
0.0
 10
53.3775477728
 20
39.9349557056
 30
0.0
 10
53.5471084142
 20
40.049725045
 30
0.0
 10
53.6616615876
 20
40.1170841648
 30
0.0
  0
SPLINE
  5
37E
100
AcDbEntity
  8
_1
100
AcDbSpline
 62
7
  6
BYLAYER
 70
0
 71
3
 72
14
 73
10
 74
0
 42
0.0000001
 43
0.0000001
 44
0.0000000001
 40
0.0
 40
0.0
 40
0.0
 40
0.0
 40
0.1444845832
 40
0.283140361
 40
0.5423881727
 40
0.6636789425
 40
0.7799042614
 40
0.8917228495
 40
1.0
 40
1.0
 40
1.0
 40
1.0
 10
52.1324644392
 20
35.2309168015
 30
0.0
 10
52.1324644392
 20
35.1590856062
 30
0.0
 10
52.1371364783
 20
35.0182403745
 30
0.0
 10
52.1657069059
 20
34.7499845151
 30
0.0
 10
52.2230702756
 20
34.4966855189
 30
0.0
 10
52.3121668324
 20
34.265963502
 30
0.0
 10
52.3914101845
 20
34.1110206432
 30
0.0
 10
52.4841038299
 20
33.9714284802
 30
0.0
 10
52.55548753
 20
33.8880463569
 30
0.0
 10
52.5930921262
 20
33.8495286088
 30
0.0
  0
SPLINE
  5
37F
100
AcDbEntity
  8
_1
100
AcDbSpline
 62
7
  6
BYLAYER
 70
0
 71
3
 72
9
 73
5
 74
0
 42
0.0000001
 43
0.0000001
 44
0.0000000001
 40
0.0
 40
0.0
 40
0.0
 40
0.0
 40
0.5031634514
 40
1.0
 40
1.0
 40
1.0
 40
1.0
 10
52.5930921262
 20
33.8495286088
 30
0.0
 10
52.6309048619
 20
33.8107976668
 30
0.0
 10
52.7112116962
 20
33.7386671387
 30
0.0
 10
52.8007145429
 20
33.6782781042
 30
0.0
 10
52.8470031825
 20
33.6515567338
 30
0.0
  0
SPLINE
  5
380
100
AcDbEntity
  8
_1
100
AcDbSpline
 62
7
  6
BYLAYER
 70
0
 71
3
 72
27
 73
23
 74
0
 42
0.0000001
 43
0.0000001
 44
0.0000000001
 40
0.0
 40
0.0
 40
0.0
 40
0.0
 40
0.0215457717
 40
0.0430919647
 40
0.0648840681
 40
0.0871544285
 40
0.1101093468
 40
0.1339235296
 40
0.1587335285
 40
0.1846400568
 40
0.2399208416
 40
0.2999574005
 40
0.3644659935
 40
0.4328458034
 40
0.504263868
 40
0.5777256723
 40
0.652136478
 40
0.7263561635
 40
0.7992527213
 40
0.8697599633
 40
0.9369315866
 40
1.0
 40
1.0
 40
1.0
 40
1.0
 10
57.3321602767
 20
38.8453304147
 30
0.0
 10
57.2938195695
 20
38.8747469223
 30
0.0
 10
57.2132108487
 20
38.928669399
 30
0.0
 10
57.0822559462
 20
38.9930664673
 30
0.0
 10
56.9424871845
 20
39.0404023702
 30
0.0
 10
56.7947983037
 20
39.0703444967
 30
0.0
 10
56.6401048746
 20
39.0828263808
 30
0.0
 10
56.4793303085
 20
39.0777792161
 30
0.0
 10
56.3133982124
 20
39.0553357992
 30
0.0
 10
56.0815868531
 20
39.001225227
 30
0.0
 10
55.7839198699
 20
38.8886063662
 30
0.0
 10
55.4302901924
 20
38.6922980435
 30
0.0
 10
55.0800512792
 20
38.436507853
 30
0.0
 10
54.7409933045
 20
38.1270458047
 30
0.0
 10
54.4206447298
 20
37.7708761231
 30
0.0
 10
54.1262326326
 20
37.3760510181
 30
0.0
 10
53.8644251118
 20
36.9515194546
 30
0.0
 10
53.6411648393
 20
36.5069201962
 30
0.0
 10
53.461523321
 20
36.0523492778
 30
0.0
 10
53.3295633924
 20
35.5980614381
 30
0.0
 10
53.2482946358
 20
35.1543942535
 30
0.0
 10
53.22848363
 20
34.8620735431
 30
0.0
 10
53.22848363
 20
34.7206163682
 30
0.0
  0
SPLINE
  5
381
100
AcDbEntity
  8
_1
100
AcDbSpline
 62
7
  6
BYLAYER
 70
0
 71
3
 72
9
 73
5
 74
0
 42
0.0000001
 43
0.0000001
 44
0.0000000001
 40
0.0
 40
0.0
 40
0.0
 40
0.0
 40
0.2480278198
 40
1.0
 40
1.0
 40
1.0
 40
1.0
 10
50.5802498708
 20
35.6811432971
 30
0.0
 10
50.5797865791
 20
35.6945650881
 30
0.0
 10
50.5782023579
 20
35.7486886379
 30
0.0
 10
50.5777399421
 20
35.8028444149
 30
0.0
 10
50.5779939687
 20
35.8435601209
 30
0.0
  0
SPLINE
  5
382
100
AcDbEntity
  8
_1
100
AcDbSpline
 62
7
  6
BYLAYER
 70
0
 71
3
 72
21
 73
17
 74
0
 42
0.0000001
 43
0.0000001
 44
0.0000000001
 40
0.0
 40
0.0
 40
0.0
 40
0.0
 40
0.1185701963
 40
0.1799889699
 40
0.2419604188
 40
0.303984122
 40
0.3666004461
 40
0.4305487092
 40
0.4961215282
 40
0.5625729559
 40
0.6292294785
 40
0.7606765572
 40
0.8242454391
 40
0.8856268401
 40
0.9443862409
 40
1.0
 40
1.0
 40
1.0
 40
1.0
 10
50.5779939687
 20
35.8435601209
 30
0.0
 10
50.5793280848
 20
36.0573939379
 30
0.0
 10
50.6063936122
 20
36.3822577829
 30
0.0
 10
50.6839463256
 20
36.8118169291
 30
0.0
 10
50.7630171394
 20
37.1369513926
 30
0.0
 10
50.8612109071
 20
37.4590257339
 30
0.0
 10
50.9775125974
 20
37.7787988639
 30
0.0
 10
51.1124292798
 20
38.0981254779
 30
0.0
 10
51.2659440721
 20
38.4166335517
 30
0.0
 10
51.4377316181
 20
38.7312787501
 30
0.0
 10
51.6877337207
 20
39.1378223658
 30
0.0
 10
51.9661879408
 20
39.5202237211
 30
0.0
 10
52.2692672392
 20
39.8697238496
 30
0.0
 10
52.5008429922
 20
40.1069700948
 30
0.0
 10
52.7360682818
 20
40.319723044
 30
0.0
 10
52.8978876489
 20
40.4479380198
 30
0.0
 10
52.9787049683
 20
40.5073368104
 30
0.0
  0
SPLINE
  5
383
100
AcDbEntity
  8
_1
100
AcDbSpline
 62
7
  6
BYLAYER
 70
0
 71
3
 72
9
 73
5
 74
0
 42
0.0000001
 43
0.0000001
 44
0.0000000001
 40
0.0
 40
0.0
 40
0.0
 40
0.0
 40
0.2569506976
 40
1.0
 40
1.0
 40
1.0
 40
1.0
 10
52.9787049683
 20
40.5073368104
 30
0.0
 10
53.0060177617
 20
40.5274110581
 30
0.0
 10
53.1132661093
 20
40.6042282322
 30
0.0
 10
53.2243219532
 20
40.6757564283
 30
0.0
 10
53.3088163251
 20
40.7254444853
 30
0.0
  0
SPLINE
  5
384
100
AcDbEntity
  8
_1
100
AcDbSpline
 62
7
  6
BYLAYER
 70
0
 71
3
 72
15
 73
11
 74
0
 42
0.0000001
 43
0.0000001
 44
0.0000000001
 40
0.0
 40
0.0
 40
0.0
 40
0.0
 40
0.1451862758
 40
0.2158868164
 40
0.2852891894
 40
0.5463404986
 40
0.6672385276
 40
0.782275024
 40
0.8926443816
 40
1.0
 40
1.0
 40
1.0
 40
1.0
 10
53.3088163251
 20
40.7254444853
 30
0.0
 10
53.3890393723
 20
40.772620732
 30
0.0
 10
53.5111690885
 20
40.8381406908
 30
0.0
 10
53.6778392491
 20
40.9135883945
 30
0.0
 10
53.9167533343
 20
41.0085255289
 30
0.0
 10
54.1998163978
 20
41.0828762262
 30
0.0
 10
54.5188403426
 20
41.100407848
 30
0.0
 10
54.7407818687
 20
41.0795337542
 30
0.0
 10
54.9480311577
 20
41.0251755072
 30
0.0
 10
55.0757008383
 20
40.9667608768
 30
0.0
 10
55.1355245566
 20
40.9327489232
 30
0.0
  0
SPLINE
  5
385
100
AcDbEntity
  8
_1
100
AcDbSpline
 62
7
  6
BYLAYER
 70
0
 71
3
 72
9
 73
5
 74
0
 42
0.0000001
 43
0.0000001
 44
0.0000000001
 40
0.0
 40
0.0
 40
0.0
 40
0.0
 40
0.5016677566
 40
1.0
 40
1.0
 40
1.0
 40
1.0
 10
50.7821509945
 20
34.2086119184
 30
0.0
 10
50.7154276325
 20
34.2476342078
 30
0.0
 10
50.5883445529
 20
34.3359890807
 30
0.0
 10
50.476125872
 20
34.442481458
 30
0.0
 10
50.4243997588
 20
34.4992262293
 30
0.0
  0
SPLINE
  5
386
100
AcDbEntity
  8
_1
100
AcDbSpline
 62
7
  6
BYLAYER
 70
0
 71
3
 72
14
 73
10
 74
0
 42
0.0000001
 43
0.0000001
 44
0.0000000001
 40
0.0
 40
0.0
 40
0.0
 40
0.0
 40
0.2162356532
 40
0.3313652853
 40
0.452869925
 40
0.5806222995
 40
0.7145056002
 40
0.8544207041
 40
1.0
 40
1.0
 40
1.0
 40
1.0
 10
50.4082242574
 20
34.5172416725
 30
0.0
 10
50.3275608548
 20
34.6084476041
 30
0.0
 10
50.2193492415
 20
34.7625712244
 30
0.0
 10
50.1043142654
 20
34.9903755297
 30
0.0
 10
50.0285998813
 20
35.1813997143
 30
0.0
 10
49.9665378559
 20
35.3882688886
 30
0.0
 10
49.9191181435
 20
35.6095829197
 30
0.0
 10
49.8869640025
 20
35.8437231575
 30
0.0
 10
49.8761483656
 20
36.0042574194
 30
0.0
 10
49.8732521057
 20
36.0861793125
 30
0.0
  0
SPLINE
  5
387
100
AcDbEntity
  8
_1
100
AcDbSpline
 62
7
  6
BYLAYER
 70
0
 71
3
 72
27
 73
23
 74
0
 42
0.0000001
 43
0.0000001
 44
0.0000000001
 40
0.0
 40
0.0
 40
0.0
 40
0.0
 40
0.0213300079
 40
0.042888328
 40
0.0648915966
 40
0.0875340532
 40
0.1109813507
 40
0.1353657356
 40
0.1872614419
 40
0.2149227855
 40
0.2437305757
 40
0.3046722914
 40
0.3697534983
 40
0.438343961
 40
0.5096234111
 40
0.58264052
 40
0.6563648404
 40
0.7297347694
 40
0.8017043799
 40
0.8712900895
 40
0.9376226044
 40
1.0
 40
1.0
 40
1.0
 40
1.0
 10
56.2969421727
 20
39.6271615309
 30
0.0
 10
56.254555287
 20
39.6516305083
 30
0.0
 10
56.1660751925
 20
39.6954229163
 30
0.0
 10
56.0249998199
 20
39.7441865405
 30
0.0
 10
55.8760724546
 20
39.7759510206
 30
0.0
 10
55.7201848137
 20
39.7905712567
 30
0.0
 10
55.5581920732
 20
39.7880153451
 30
0.0
 10
55.3306142413
 20
39.7612529594
 30
0.0
 10
55.0987391953
 20
39.6996837971
 30
0.0
 10
54.8672315811
 20
39.6086087845
 30
0.0
 10
54.6241183256
 20
39.4920043648
 30
0.0
 10
54.3202130165
 20
39.306061164
 30
0.0
 10
53.9679494626
 20
39.0302741229
 30
0.0
 10
53.6286824221
 20
38.7035279495
 30
0.0
 10
53.3096048359
 20
38.3327881786
 30
0.0
 10
53.017470885
 20
37.9259249419
 30
0.0
 10
52.7585081047
 20
37.4916124879
 30
0.0
 10
52.5382388097
 20
37.0391126006
 30
0.0
 10
52.3613619514
 20
36.5780810648
 30
0.0
 10
52.2316423871
 20
36.1182896701
 30
0.0
 10
52.1518544178
 20
35.6695719072
 30
0.0
 10
52.1324644392
 20
35.3740443835
 30
0.0
 10
52.1324644392
 20
35.2309168015
 30
0.0
  0
SPLINE
  5
388
100
AcDbEntity
  8
_1
100
AcDbSpline
 62
7
  6
BYLAYER
 70
0
 71
3
 72
16
 73
12
 74
0
 42
0.0000001
 43
0.0000001
 44
0.0000000001
 40
0.0
 40
0.0
 40
0.0
 40
0.0
 40
0.1500139348
 40
0.2915217357
 40
0.4245233558
 40
0.5496256201
 40
0.6678859898
 40
0.7809021586
 40
0.8907631554
 40
0.9453170861
 40
1.0
 40
1.0
 40
1.0
 40
1.0
 10
53.22848363
 20
34.7206163682
 30
0.0
 10
53.22848363
 20
34.6266201702
 30
0.0
 10
53.2367503598
 20
34.4438026713
 30
0.0
 10
53.2763050348
 20
34.1802358233
 30
0.0
 10
53.3423983343
 20
33.9380469467
 30
0.0
 10
53.4344226769
 20
33.7200698741
 30
0.0
 10
53.5515888635
 20
33.5288668639
 30
0.0
 10
53.6927241833
 20
33.3669278222
 30
0.0
 10
53.8295343247
 20
33.2579314868
 30
0.0
 10
53.9479783611
 20
33.1882077144
 30
0.0
 10
54.0100527827
 20
33.1590832512
 30
0.0
 10
54.0417076054
 20
33.1459702
 30
0.0
  0
SPLINE
  5
389
100
AcDbEntity
  8
_1
100
AcDbSpline
 62
7
  6
BYLAYER
 70
0
 71
3
 72
15
 73
11
 74
0
 42
0.0000001
 43
0.0000001
 44
0.0000000001
 40
0.0
 40
0.0
 40
0.0
 40
0.0
 40
0.1080135107
 40
0.2180608722
 40
0.3319961239
 40
0.4513567333
 40
0.5772703682
 40
0.7104875104
 40
0.8514259286
 40
1.0
 40
1.0
 40
1.0
 40
1.0
 10
52.0734697254
 20
34.2713492933
 30
0.0
 10
52.0193637102
 20
34.3025867803
 30
0.0
 10
51.9153432409
 20
34.3751802865
 30
0.0
 10
51.777890096
 20
34.510445293
 30
0.0
 10
51.6596733991
 20
34.6709921007
 30
0.0
 10
51.5618081119
 20
34.8550195477
 30
0.0
 10
51.4850131245
 20
35.0606308055
 30
0.0
 10
51.4299090781
 20
35.2858695209
 30
0.0
 10
51.3969350518
 20
35.5285343924
 30
0.0
 10
51.3899983446
 20
35.6961058317
 30
0.0
 10
51.3899983446
 20
35.78204233
 30
0.0
  0
SPLINE
  5
38A
100
AcDbEntity
  8
_1
100
AcDbSpline
 62
7
  6
BYLAYER
 70
0
 71
3
 72
9
 73
5
 74
0
 42
0.0000001
 43
0.0000001
 44
0.0000000001
 40
0.0
 40
0.0
 40
0.0
 40
0.0
 40
0.2480278198
 40
1.0
 40
1.0
 40
1.0
 40
1.0
 10
49.8731401457
 20
36.0893840516
 30
0.0
 10
49.872676854
 20
36.1028058426
 30
0.0
 10
49.8710926328
 20
36.1569293924
 30
0.0
 10
49.870630217
 20
36.2110851694
 30
0.0
 10
49.8708842436
 20
36.2518008754
 30
0.0
  0
SPLINE
  5
38B
100
AcDbEntity
  8
_1
100
AcDbSpline
 62
7
  6
BYLAYER
 70
0
 71
3
 72
21
 73
17
 74
0
 42
0.0000001
 43
0.0000001
 44
0.0000000001
 40
0.0
 40
0.0
 40
0.0
 40
0.0
 40
0.1185701963
 40
0.1799889699
 40
0.2419604188
 40
0.303984122
 40
0.3666004461
 40
0.4305487092
 40
0.4961215282
 40
0.5625729559
 40
0.6292294785
 40
0.7606765572
 40
0.8242454391
 40
0.8856268401
 40
0.9443862409
 40
1.0
 40
1.0
 40
1.0
 40
1.0
 10
49.8708842436
 20
36.2518008754
 30
0.0
 10
49.8722183597
 20
36.4656346924
 30
0.0
 10
49.8992838871
 20
36.7904985375
 30
0.0
 10
49.9768366004
 20
37.2200576836
 30
0.0
 10
50.0559074142
 20
37.5451921471
 30
0.0
 10
50.154101182
 20
37.8672664884
 30
0.0
 10
50.2704028723
 20
38.1870396184
 30
0.0
 10
50.4053195546
 20
38.5063662325
 30
0.0
 10
50.5588343469
 20
38.8248743062
 30
0.0
 10
50.730621893
 20
39.1395195046
 30
0.0
 10
50.9806239955
 20
39.5460631203
 30
0.0
 10
51.2590782157
 20
39.9284644756
 30
0.0
 10
51.5621575141
 20
40.2779646041
 30
0.0
 10
51.793733267
 20
40.5152108493
 30
0.0
 10
52.0289585567
 20
40.7279637985
 30
0.0
 10
52.1907779237
 20
40.8561787743
 30
0.0
 10
52.2715952432
 20
40.9155775649
 30
0.0
  0
SPLINE
  5
38C
100
AcDbEntity
  8
_1
100
AcDbSpline
 62
7
  6
BYLAYER
 70
0
 71
3
 72
9
 73
5
 74
0
 42
0.0000001
 43
0.0000001
 44
0.0000000001
 40
0.0
 40
0.0
 40
0.0
 40
0.0
 40
0.2569506976
 40
1.0
 40
1.0
 40
1.0
 40
1.0
 10
52.2715952432
 20
40.9155775649
 30
0.0
 10
52.2989080366
 20
40.9356518127
 30
0.0
 10
52.4061563842
 20
41.0124689867
 30
0.0
 10
52.517212228
 20
41.0839971828
 30
0.0
 10
52.6017066
 20
41.1336852398
 30
0.0
  0
SPLINE
  5
38D
100
AcDbEntity
  8
_1
100
AcDbSpline
 62
7
  6
BYLAYER
 70
0
 71
3
 72
15
 73
11
 74
0
 42
0.0000001
 43
0.0000001
 44
0.0000000001
 40
0.0
 40
0.0
 40
0.0
 40
0.0
 40
0.1451862758
 40
0.2158868164
 40
0.2852891894
 40
0.5463404986
 40
0.6672385276
 40
0.782275024
 40
0.8926443816
 40
1.0
 40
1.0
 40
1.0
 40
1.0
 10
52.6017066
 20
41.1336852398
 30
0.0
 10
52.6819296471
 20
41.1808614865
 30
0.0
 10
52.8040593633
 20
41.2463814453
 30
0.0
 10
52.970729524
 20
41.321829149
 30
0.0
 10
53.2096436092
 20
41.4167662834
 30
0.0
 10
53.4927066726
 20
41.4911169808
 30
0.0
 10
53.8117306174
 20
41.5086486025
 30
0.0
 10
54.0336721436
 20
41.4877745088
 30
0.0
 10
54.2409214325
 20
41.4334162618
 30
0.0
 10
54.3685911132
 20
41.3750016313
 30
0.0
 10
54.4284148315
 20
41.3409896778
 30
0.0
  0
SPLINE
  5
38E
100
AcDbEntity
  8
_1
100
AcDbSpline
 62
7
  6
BYLAYER
 70
0
 71
3
 72
24
 73
20
 74
0
 42
0.0000001
 43
0.0000001
 44
0.0000000001
 40
0.0
 40
0.0
 40
0.0
 40
0.0
 40
0.052217308
 40
0.1076575463
 40
0.1666491594
 40
0.2286087071
 40
0.2930049438
 40
0.3592096816
 40
0.4264797773
 40
0.4940415629
 40
0.5611888956
 40
0.5943383002
 40
0.6270265953
 40
0.6910778589
 40
0.7541114179
 40
0.816938626
 40
0.8793989223
 40
0.9406090043
 40
1.0
 40
1.0
 40
1.0
 40
1.0
 10
52.5941687823
 20
41.1374931384
 30
0.0
 10
52.5071697496
 20
41.0863144246
 30
0.0
 10
52.3321381317
 20
40.9732667622
 30
0.0
 10
52.0757341563
 20
40.7777932754
 30
0.0
 10
51.8199523635
 20
40.5519054692
 30
0.0
 10
51.5679513387
 20
40.2968687265
 30
0.0
 10
51.323692424
 20
40.0156820977
 30
0.0
 10
51.0908013189
 20
39.7119863064
 30
0.0
 10
50.8727115604
 20
39.3900884971
 30
0.0
 10
50.6722886885
 20
39.0547968131
 30
0.0
 10
50.5215312922
 20
38.7672729464
 30
0.0
 10
50.4115844259
 20
38.5348827069
 30
0.0
 10
50.3103194782
 20
38.3051056705
 30
0.0
 10
50.1973488309
 20
38.0174886042
 30
0.0
 10
50.0823415496
 20
37.6686550847
 30
0.0
 10
49.9895654851
 20
37.3164061831
 30
0.0
 10
49.9201899231
 20
36.9623688519
 30
0.0
 10
49.876304451
 20
36.6109541074
 30
0.0
 10
49.8647787005
 20
36.37783311
 30
0.0
 10
49.8638639451
 20
36.2630339318
 30
0.0
  0
SPLINE
  5
38F
100
AcDbEntity
  8
_1
100
AcDbSpline
 62
7
  6
BYLAYER
 70
0
 71
3
 72
11
 73
7
 74
0
 42
0.0000001
 43
0.0000001
 44
0.0000000001
 40
0.0
 40
0.0
 40
0.0
 40
0.0
 40
0.249984985
 40
0.4983316012
 40
0.7468372452
 40
1.0
 40
1.0
 40
1.0
 40
1.0
 10
51.4896268634
 20
33.8001570999
 30
0.0
 10
51.4371731763
 20
33.8308137714
 30
0.0
 10
51.3362838136
 20
33.8984547738
 30
0.0
 10
51.1983501283
 20
34.0170604424
 30
0.0
 10
51.0746818574
 20
34.1514945979
 30
0.0
 10
51.0023160593
 20
34.2499468464
 30
0.0
 10
50.9683985588
 20
34.3012816773
 30
0.0
  0
SPLINE
  5
390
100
AcDbEntity
  8
_1
100
AcDbSpline
 62
7
  6
BYLAYER
 70
0
 71
3
 72
9
 73
5
 74
0
 42
0.0000001
 43
0.0000001
 44
0.0000000001
 40
0.0
 40
0.0
 40
0.0
 40
0.0
 40
0.4900585148
 40
1.0
 40
1.0
 40
1.0
 40
1.0
 10
50.9683985588
 20
34.3012816773
 30
0.0
 10
50.9404236302
 20
34.3436223041
 30
0.0
 10
50.8869363292
 20
34.4324435059
 30
0.0
 10
50.840620559
 20
34.5251871763
 30
0.0
 10
50.8187440987
 20
34.5732492264
 30
0.0
  0
SPLINE
  5
391
100
AcDbEntity
  8
_1
100
AcDbSpline
 62
7
  6
BYLAYER
 70
0
 71
3
 72
9
 73
5
 74
0
 42
0.0000001
 43
0.0000001
 44
0.0000000001
 40
0.0
 40
0.0
 40
0.0
 40
0.0
 40
0.4854580191
 40
1.0
 40
1.0
 40
1.0
 40
1.0
 10
50.8187440987
 20
34.5732492264
 30
0.0
 10
50.7854637692
 20
34.6463652992
 30
0.0
 10
50.7251109286
 20
34.8008098651
 30
0.0
 10
50.6804743514
 20
34.9604477131
 30
0.0
 10
50.6612377717
 20
35.04339303
 30
0.0
  0
SPLINE
  5
392
100
AcDbEntity
  8
_1
100
AcDbSpline
 62
7
  6
BYLAYER
 70
0
 71
3
 72
9
 73
5
 74
0
 42
0.0000001
 43
0.0000001
 44
0.0000000001
 40
0.0
 40
0.0
 40
0.0
 40
0.0
 40
0.2408407448
 40
1.0
 40
1.0
 40
1.0
 40
1.0
 10
50.6612377717
 20
35.04339303
 30
0.0
 10
50.6513150709
 20
35.086178264
 30
0.0
 10
50.6142148287
 20
35.2647691459
 30
0.0
 10
50.5931145463
 20
35.446556024
 30
0.0
 10
50.5848039199
 20
35.584750036
 30
0.0
  0
SPLINE
  5
393
100
AcDbEntity
  8
_1
100
AcDbSpline
 62
7
  6
BYLAYER
 70
0
 71
3
 72
15
 73
11
 74
0
 42
0.0000001
 43
0.0000001
 44
0.0000000001
 40
0.0
 40
0.0
 40
0.0
 40
0.0
 40
0.1080132897
 40
0.2180605512
 40
0.3319959959
 40
0.4513568549
 40
0.5772706676
 40
0.7104878302
 40
0.8514260434
 40
1.0
 40
1.0
 40
1.0
 40
1.0
 10
57.0619001835
 20
38.6659118402
 30
0.0
 10
57.1110873849
 20
38.6375142096
 30
0.0
 10
57.2056513904
 20
38.5715203087
 30
0.0
 10
57.3306086069
 20
38.4485520291
 30
0.0
 10
57.4380786027
 20
38.3026003716
 30
0.0
 10
57.5270471632
 20
38.135302372
 30
0.0
 10
57.596860871
 20
37.9483828276
 30
0.0
 10
57.6469553617
 20
37.7436203388
 30
0.0
 10
57.6769317736
 20
37.5230160744
 30
0.0
 10
57.6832378044
 20
37.3706785665
 30
0.0
 10
57.6832378044
 20
37.2925545376
 30
0.0
  0
SPLINE
  5
394
100
AcDbEntity
  8
_1
100
AcDbSpline
 62
7
  6
BYLAYER
 70
0
 71
3
 72
23
 73
19
 74
0
 42
0.0000001
 43
0.0000001
 44
0.0000000001
 40
0.0
 40
0.0
 40
0.0
 40
0.0
 40
0.0596860808
 40
0.1211368633
 40
0.183772661
 40
0.2467035096
 40
0.3098561172
 40
0.3740637178
 40
0.4400561824
 40
0.5072904538
 40
0.5748786502
 40
0.6421123762
 40
0.7082150149
 40
0.7724471932
 40
0.8341913105
 40
0.8929135909
 40
0.9480508034
 40
1.0
 40
1.0
 40
1.0
 40
1.0
 10
49.8670244778
 20
36.6652146067
 30
0.0
 10
49.8678048485
 20
36.7661319071
 30
0.0
 10
49.8778399959
 20
36.9709581689
 30
0.0
 10
49.9161639882
 20
37.2795700645
 30
0.0
 10
49.9767431209
 20
37.590173746
 30
0.0
 10
50.0578121667
 20
37.8990137767
 30
0.0
 10
50.1583225179
 20
38.2048567309
 30
0.0
 10
50.2775991844
 20
38.5094249333
 30
0.0
 10
50.416042012
 20
38.8133746136
 30
0.0
 10
50.5733415065
 20
39.1144828407
 30
0.0
 10
50.7482874782
 20
39.4081496619
 30
0.0
 10
50.9385165761
 20
39.6898583389
 30
0.0
 10
51.141537431
 20
39.9553992394
 30
0.0
 10
51.3543371625
 20
40.2010309741
 30
0.0
 10
51.5737558957
 20
40.4235789798
 30
0.0
 10
51.7963272403
 20
40.620483325
 30
0.0
 10
52.0194318351
 20
40.790675354
 30
0.0
 10
52.1717236025
 20
40.8890419356
 30
0.0
 10
52.2474417618
 20
40.9335654531
 30
0.0
  0
SPLINE
  5
395
100
AcDbEntity
  8
_1
100
AcDbSpline
 62
7
  6
BYLAYER
 70
0
 71
3
 72
24
 73
20
 74
0
 42
0.0000001
 43
0.0000001
 44
0.0000000001
 40
0.0
 40
0.0
 40
0.0
 40
0.0
 40
0.052217308
 40
0.1076575463
 40
0.1666491594
 40
0.2286087071
 40
0.2930049438
 40
0.3592096816
 40
0.4264797773
 40
0.4940415629
 40
0.5611888956
 40
0.5943383002
 40
0.6270265953
 40
0.6910778589
 40
0.7541114179
 40
0.816938626
 40
0.8793989223
 40
0.9406090043
 40
1.0
 40
1.0
 40
1.0
 40
1.0
 10
53.3012785074
 20
40.7292523839
 30
0.0
 10
53.2142794748
 20
40.6780736701
 30
0.0
 10
53.0392478569
 20
40.5650260077
 30
0.0
 10
52.7828438814
 20
40.3695525209
 30
0.0
 10
52.5270620886
 20
40.1436647147
 30
0.0
 10
52.2750610639
 20
39.8886279719
 30
0.0
 10
52.0308021491
 20
39.6074413432
 30
0.0
 10
51.7979110441
 20
39.3037455519
 30
0.0
 10
51.5798212855
 20
38.9818477425
 30
0.0
 10
51.3793984137
 20
38.6465560585
 30
0.0
 10
51.2286410173
 20
38.3590321919
 30
0.0
 10
51.1186941511
 20
38.1266419524
 30
0.0
 10
51.0174292034
 20
37.8968649159
 30
0.0
 10
50.9044585561
 20
37.6092478497
 30
0.0
 10
50.7894512748
 20
37.2604143302
 30
0.0
 10
50.6966752103
 20
36.9081654286
 30
0.0
 10
50.6272996483
 20
36.5541280974
 30
0.0
 10
50.5834141762
 20
36.2027133529
 30
0.0
 10
50.5718884257
 20
35.9695923555
 30
0.0
 10
50.5709736703
 20
35.8547931773
 30
0.0
  0
SPLINE
  5
396
100
AcDbEntity
  8
_1
100
AcDbSpline
 62
7
  6
BYLAYER
 70
0
 71
3
 72
23
 73
19
 74
0
 42
0.0000001
 43
0.0000001
 44
0.0000000001
 40
0.0
 40
0.0
 40
0.0
 40
0.0
 40
0.0596860808
 40
0.1211368633
 40
0.183772661
 40
0.2467035096
 40
0.3098561172
 40
0.3740637178
 40
0.4400561824
 40
0.5072904538
 40
0.5748786502
 40
0.6421123762
 40
0.7082150149
 40
0.7724471932
 40
0.8341913105
 40
0.8929135909
 40
0.9480508034
 40
1.0
 40
1.0
 40
1.0
 40
1.0
 10
50.5741342029
 20
36.2569738522
 30
0.0
 10
50.5749145736
 20
36.3578911526
 30
0.0
 10
50.584949721
 20
36.5627174144
 30
0.0
 10
50.6232737133
 20
36.8713293099
 30
0.0
 10
50.6838528461
 20
37.1819329914
 30
0.0
 10
50.7649218918
 20
37.4907730222
 30
0.0
 10
50.865432243
 20
37.7966159763
 30
0.0
 10
50.9847089096
 20
38.1011841787
 30
0.0
 10
51.1231517372
 20
38.4051338591
 30
0.0
 10
51.2804512317
 20
38.7062420862
 30
0.0
 10
51.4553972033
 20
38.9999089074
 30
0.0
 10
51.6456263013
 20
39.2816175843
 30
0.0
 10
51.8486471561
 20
39.5471584848
 30
0.0
 10
52.0614468876
 20
39.7927902196
 30
0.0
 10
52.2808656209
 20
40.0153382253
 30
0.0
 10
52.5034369655
 20
40.2122425705
 30
0.0
 10
52.7265415603
 20
40.3824345995
 30
0.0
 10
52.8788333277
 20
40.4808011811
 30
0.0
 10
52.954551487
 20
40.5253246985
 30
0.0
  0
SPLINE
  5
397
100
AcDbEntity
  8
_1
100
AcDbSpline
 62
7
  6
BYLAYER
 70
0
 71
3
 72
23
 73
19
 74
0
 42
0.0000001
 43
0.0000001
 44
0.0000000001
 40
0.0
 40
0.0
 40
0.0
 40
0.0
 40
0.0538059963
 40
0.1110198575
 40
0.1713213589
 40
0.2341678341
 40
0.2990080136
 40
0.365268834
 40
0.4322501712
 40
0.4992453089
 40
0.5655993108
 40
0.6304401351
 40
0.6937015326
 40
0.7561695008
 40
0.8185278103
 40
0.8804327983
 40
0.9410916919
 40
1.0
 40
1.0
 40
1.0
 40
1.0
 10
51.717263724
 20
41.4395631195
 30
0.0
 10
51.6335555139
 20
41.3840978394
 30
0.0
 10
51.4652551648
 20
41.2628715251
 30
0.0
 10
51.2195669052
 20
41.0578876016
 30
0.0
 10
50.9759623775
 20
40.82524446
 30
0.0
 10
50.7378890183
 20
40.5672554457
 30
0.0
 10
50.5084224302
 20
40.2870625667
 30
0.0
 10
50.291040827
 20
39.9878090638
 30
0.0
 10
50.0884090645
 20
39.6736003521
 30
0.0
 10
49.9028878086
 20
39.3487989141
 30
0.0
 10
49.7367458201
 20
39.018148922
 30
0.0
 10
49.5905994522
 20
38.6857924192
 30
0.0
 10
49.4647302533
 20
38.3529776979
 30
0.0
 10
49.3584489148
 20
38.0182359618
 30
0.0
 10
49.2727540417
 20
37.6802272307
 30
0.0
 10
49.2087203969
 20
37.3408596807
 30
0.0
 10
49.1682713122
 20
37.0043510186
 30
0.0
 10
49.1576302177
 20
36.7812099278
 30
0.0
 10
49.1567542197
 20
36.671274692
 30
0.0
  0
SPLINE
  5
398
100
AcDbEntity
  8
_1
100
AcDbSpline
 62
7
  6
BYLAYER
 70
0
 71
3
 72
20
 73
16
 74
0
 42
0.0000001
 43
0.0000001
 44
0.0000000001
 40
0.0
 40
0.0
 40
0.0
 40
0.0
 40
0.0549661622
 40
0.1119693949
 40
0.1708795237
 40
0.2314987643
 40
0.3569440819
 40
0.4864078323
 40
0.5519903203
 40
0.6177500369
 40
0.6833966635
 40
0.7486495228
 40
0.8132341899
 40
0.8768598737
 40
1.0
 40
1.0
 40
1.0
 40
1.0
 10
53.8049772049
 20
40.2012707455
 30
0.0
 10
53.7347524161
 20
40.1600220279
 30
0.0
 10
53.5945129885
 20
40.0711150815
 30
0.0
 10
53.3897203225
 20
39.9219706344
 30
0.0
 10
53.1878012163
 20
39.755457417
 30
0.0
 10
52.9210969316
 20
39.5090077253
 30
0.0
 10
52.6038379043
 20
39.1644078255
 30
0.0
 10
52.3175062069
 20
38.784623926
 30
0.0
 10
52.1069956222
 20
38.4604228456
 30
0.0
 10
51.9595851662
 20
38.2083762058
 30
0.0
 10
51.8243816506
 20
37.9501313443
 30
0.0
 10
51.702255129
 20
37.687375174
 30
0.0
 10
51.5937682965
 20
37.4219094521
 30
0.0
 10
51.4700043384
 20
37.0705561035
 30
0.0
 10
51.398775786
 20
36.8023633658
 30
0.0
 10
51.3625717631
 20
36.6235352183
 30
0.0
  0
SPLINE
  5
399
100
AcDbEntity
  8
_1
100
AcDbSpline
 62
7
  6
BYLAYER
 70
0
 71
3
 72
9
 73
5
 74
0
 42
0.0000001
 43
0.0000001
 44
0.0000000001
 40
0.0
 40
0.0
 40
0.0
 40
0.0
 40
0.2479533948
 40
1.0
 40
1.0
 40
1.0
 40
1.0
 10
49.1660115071
 20
36.4981738757
 30
0.0
 10
49.1655313856
 20
36.5121411391
 30
0.0
 10
49.1639022673
 20
36.5684815644
 30
0.0
 10
49.163487453
 20
36.6248563933
 30
0.0
 10
49.1638257217
 20
36.6672429976
 30
0.0
  0
SPLINE
  5
39A
100
AcDbEntity
  8
_1
100
AcDbSpline
 62
7
  6
BYLAYER
 70
0
 71
3
 72
9
 73
5
 74
0
 42
0.0000001
 43
0.0000001
 44
0.0000000001
 40
0.0
 40
0.0
 40
0.0
 40
0.0
 40
0.2480140742
 40
1.0
 40
1.0
 40
1.0
 40
1.0
 10
49.1638257217
 20
36.6672429976
 30
0.0
 10
49.1639528051
 20
36.6831671284
 30
0.0
 10
49.1648355757
 20
36.747370303
 30
0.0
 10
49.1671830951
 20
36.8115525065
 30
0.0
 10
49.1697344519
 20
36.8597690197
 30
0.0
  0
SPLINE
  5
39B
100
AcDbEntity
  8
_1
100
AcDbSpline
 62
7
  6
BYLAYER
 70
0
 71
3
 72
20
 73
16
 74
0
 42
0.0000001
 43
0.0000001
 44
0.0000000001
 40
0.0
 40
0.0
 40
0.0
 40
0.0
 40
0.1192506751
 40
0.180450254
 40
0.2418740216
 40
0.3034069427
 40
0.3656027574
 40
0.4290771549
 40
0.4940318638
 40
0.6258495067
 40
0.691695949
 40
0.7567946647
 40
0.8206211744
 40
0.882692075
 40
1.0
 40
1.0
 40
1.0
 40
1.0
 10
49.1697344519
 20
36.8597690197
 30
0.0
 10
49.1801975536
 20
37.0575047019
 30
0.0
 10
49.2160010745
 20
37.3559797543
 30
0.0
 10
49.2974028087
 20
37.7493742537
 30
0.0
 10
49.3753211216
 20
38.0452337572
 30
0.0
 10
49.4688835614
 20
38.3382173731
 30
0.0
 10
49.5774095456
 20
38.6296217221
 30
0.0
 10
49.7015911244
 20
38.9208994749
 30
0.0
 10
49.8888175982
 20
39.3104850374
 30
0.0
 10
50.1048775545
 20
39.6901560554
 30
0.0
 10
50.3472517546
 20
40.0531102077
 30
0.0
 10
50.5398761655
 20
40.3130712148
 30
0.0
 10
50.7414392631
 20
40.5581274178
 30
0.0
 10
51.0140532946
 20
40.8562011255
 30
0.0
 10
51.23274951
 20
41.0596866092
 30
0.0
 10
51.3834235989
 20
41.1831332518
 30
0.0
  0
SPLINE
  5
39C
100
AcDbEntity
  8
_1
100
AcDbSpline
 62
7
  6
BYLAYER
 70
0
 71
3
 72
9
 73
5
 74
0
 42
0.0000001
 43
0.0000001
 44
0.0000000001
 40
0.0
 40
0.0
 40
0.0
 40
0.0
 40
0.255691773
 40
1.0
 40
1.0
 40
1.0
 40
1.0
 10
51.3834235989
 20
41.1831332518
 30
0.0
 10
51.4025980479
 20
41.1988427967
 30
0.0
 10
51.4780832271
 20
41.2596749189
 30
0.0
 10
51.5555662524
 20
41.3180355036
 30
0.0
 10
51.6143429337
 20
41.3598917973
 30
0.0
  0
SPLINE
  5
39D
100
AcDbEntity
  8
_1
100
AcDbSpline
 62
7
  6
BYLAYER
 70
0
 71
3
 72
9
 73
5
 74
0
 42
0.0000001
 43
0.0000001
 44
0.0000000001
 40
0.0
 40
0.0
 40
0.0
 40
0.0
 40
0.2534980182
 40
1.0
 40
1.0
 40
1.0
 40
1.0
 10
51.724830269
 20
41.4358094695
 30
0.0
 10
51.7402914602
 20
41.4460496979
 30
0.0
 10
51.8015724716
 20
41.4860058024
 30
0.0
 10
51.8639960874
 20
41.5242139425
 30
0.0
 10
51.9112200672
 20
41.551641027
 30
0.0
  0
SPLINE
  5
39E
100
AcDbEntity
  8
_1
100
AcDbSpline
 62
7
  6
BYLAYER
 70
0
 71
3
 72
9
 73
5
 74
0
 42
0.0000001
 43
0.0000001
 44
0.0000000001
 40
0.0
 40
0.0
 40
0.0
 40
0.0
 40
0.2477041954
 40
1.0
 40
1.0
 40
1.0
 40
1.0
 10
11.7513097151
 20
47.3305579418
 30
0.0
 10
11.7521140655
 20
47.335243349
 30
0.0
 10
11.7557525749
 20
47.3540899486
 30
0.0
 10
11.7609478216
 20
47.3726317407
 30
0.0
 10
11.7656459848
 20
47.386284054
 30
0.0
  0
SPLINE
  5
39F
100
AcDbEntity
  8
_1
100
AcDbSpline
 62
7
  6
BYLAYER
 70
0
 71
3
 72
9
 73
5
 74
0
 42
0.0000001
 43
0.0000001
 44
0.0000000001
 40
0.0
 40
0.0
 40
0.0
 40
0.0
 40
0.4818912566
 40
1.0
 40
1.0
 40
1.0
 40
1.0
 10
11.7656459848
 20
47.386284054
 30
0.0
 10
11.7751283852
 20
47.4138388012
 30
0.0
 10
11.8016448174
 20
47.4687974184
 30
0.0
 10
11.8385677079
 20
47.5171636325
 30
0.0
 10
11.8595563667
 20
47.5404251125
 30
0.0
  0
SPLINE
  5
3A0
100
AcDbEntity
  8
_1
100
AcDbSpline
 62
7
  6
BYLAYER
 70
0
 71
3
 72
9
 73
5
 74
0
 42
0.0000001
 43
0.0000001
 44
0.0000000001
 40
0.0
 40
0.0
 40
0.0
 40
0.0
 40
0.2461906814
 40
1.0
 40
1.0
 40
1.0
 40
1.0
 10
11.8595563667
 20
47.5404251125
 30
0.0
 10
11.8622561383
 20
47.5434172371
 30
0.0
 10
11.8733516738
 20
47.5554537921
 30
0.0
 10
11.8849539023
 20
47.5670215466
 30
0.0
 10
11.8939408656
 20
47.5754774469
 30
0.0
  0
SPLINE
  5
3A1
100
AcDbEntity
  8
_1
100
AcDbSpline
 62
7
  6
BYLAYER
 70
0
 71
3
 72
9
 73
5
 74
0
 42
0.0000001
 43
0.0000001
 44
0.0000000001
 40
0.0
 40
0.0
 40
0.0
 40
0.0
 40
0.2444137314
 40
1.0
 40
1.0
 40
1.0
 40
1.0
 10
11.9056235675
 20
47.5862036916
 30
0.0
 10
11.9105671504
 20
47.5906339253
 30
0.0
 10
11.9310634999
 20
47.6084573219
 30
0.0
 10
11.952590335
 20
47.625086875
 30
0.0
 10
11.9692976048
 20
47.6370033003
 30
0.0
  0
SPLINE
  5
3A2
100
AcDbEntity
  8
0
100
AcDbSpline
 62
7
  6
BYLAYER
 70
0
 71
3
 72
11
 73
7
 74
0
 42
0.0000001
 43
0.0000001
 44
0.0000000001
 40
0.0
 40
0.0
 40
0.0
 40
0.0
 40
0.2177643494
 40
0.4508943819
 40
0.7103680107
 40
1.0
 40
1.0
 40
1.0
 40
1.0
 10
37.8169760148
 20
50.5108534601
 30
0.0
 10
37.8169881745
 20
50.480242869
 30
0.0
 10
37.8282524608
 20
50.4164326858
 30
0.0
 10
37.8766525006
 20
50.3275208926
 30
0.0
 10
37.9531350849
 20
50.2471702726
 30
0.0
 10
38.0171126075
 20
50.2030878331
 30
0.0
 10
38.0523711685
 20
50.182731754
 30
0.0
  0
SPLINE
  5
3A3
100
AcDbEntity
  8
0
100
AcDbSpline
 62
7
  6
BYLAYER
 70
0
 71
3
 72
23
 73
19
 74
0
 42
0.0000001
 43
0.0000001
 44
0.0000000001
 40
0.0
 40
0.0
 40
0.0
 40
0.0
 40
0.0428110491
 40
0.0873913103
 40
0.1351739648
 40
0.1870825018
 40
0.2435298321
 40
0.3044863898
 40
0.3695840951
 40
0.4381930554
 40
0.5094905973
 40
0.5825269383
 40
0.6562704357
 40
0.7296613431
 40
0.801649937
 40
0.8712463811
 40
0.9376240075
 40
1.0
 40
1.0
 40
1.0
 40
1.0
 10
35.1332041234
 20
51.2258084792
 30
0.0
 10
35.1332065388
 20
51.2898309431
 30
0.0
 10
35.1503159924
 20
51.4210807613
 30
0.0
 10
35.2256212866
 20
51.6105796794
 30
0.0
 10
35.3477381
 20
51.7902531196
 30
0.0
 10
35.5132917066
 20
51.9565063128
 30
0.0
 10
35.7184404657
 20
52.1063940951
 30
0.0
 10
35.9587971639
 20
52.237134411
 30
0.0
 10
36.2293438318
 20
52.3461386517
 30
0.0
 10
36.5244005742
 20
52.4311621943
 30
0.0
 10
36.8377190862
 20
52.4904681341
 30
0.0
 10
37.1626471583
 20
52.5227921342
 30
0.0
 10
37.4922654286
 20
52.5274242011
 30
0.0
 10
37.8195386617
 20
52.5042865788
 30
0.0
 10
38.1374754585
 20
52.4538856953
 30
0.0
 10
38.4393829556
 20
52.377257951
 30
0.0
 10
38.7187160642
 20
52.2760011145
 30
0.0
 10
38.8919116569
 20
52.1906402436
 30
0.0
 10
38.9726959763
 20
52.1440004502
 30
0.0
  0
SPLINE
  5
3A4
100
AcDbEntity
  8
0
100
AcDbSpline
 62
7
  6
BYLAYER
 70
0
 71
3
 72
11
 73
7
 74
0
 42
0.0000001
 43
0.0000001
 44
0.0000000001
 40
0.0
 40
0.0
 40
0.0
 40
0.0
 40
0.2177821605
 40
0.4509085882
 40
0.7102951949
 40
1.0
 40
1.0
 40
1.0
 40
1.0
 10
16.7340848783
 20
60.8767253403
 30
0.0
 10
16.7340848863
 20
60.9052913429
 30
0.0
 10
16.7446413047
 20
60.9648318894
 30
0.0
 10
16.7897787554
 20
61.0477910742
 30
0.0
 10
16.8611347343
 20
61.1227829441
 30
0.0
 10
16.9208398827
 20
61.1639060231
 30
0.0
 10
16.953748842
 20
61.1829059062
 30
0.0
  0
SPLINE
  5
3A5
100
AcDbEntity
  8
0
100
AcDbSpline
 62
7
  6
BYLAYER
 70
0
 71
3
 72
11
 73
7
 74
0
 42
0.0000001
 43
0.0000001
 44
0.0000000001
 40
0.0
 40
0.0
 40
0.0
 40
0.0
 40
0.2177821605
 40
0.4509085882
 40
0.7102951949
 40
1.0
 40
1.0
 40
1.0
 40
1.0
 10
22.5323846245
 20
57.5291511532
 30
0.0
 10
22.5323846325
 20
57.5577171558
 30
0.0
 10
22.5429410509
 20
57.6172577023
 30
0.0
 10
22.5880785016
 20
57.7002168872
 30
0.0
 10
22.6594344805
 20
57.775208757
 30
0.0
 10
22.7191396289
 20
57.816331836
 30
0.0
 10
22.7520485882
 20
57.8353317191
 30
0.0
  0
SPLINE
  5
3A6
100
AcDbEntity
  8
0
100
AcDbSpline
 62
7
  6
BYLAYER
 70
0
 71
3
 72
11
 73
7
 74
0
 42
0.0000001
 43
0.0000001
 44
0.0000000001
 40
0.0
 40
0.0
 40
0.0
 40
0.0
 40
0.227742604
 40
0.4752336816
 40
0.7354642569
 40
1.0
 40
1.0
 40
1.0
 40
1.0
 10
38.0523711685
 20
50.182731754
 30
0.0
 10
38.0972988417
 20
50.1567933366
 30
0.0
 10
38.1966379775
 20
50.1121210998
 30
0.0
 10
38.3588376318
 20
50.0680686316
 30
0.0
 10
38.5338285523
 20
50.0456559401
 30
0.0
 10
38.6537571515
 20
50.0458987455
 30
0.0
 10
38.7138796516
 20
50.0499503259
 30
0.0
  0
SPLINE
  5
3A7
100
AcDbEntity
  8
0
100
AcDbSpline
 62
7
  6
BYLAYER
 70
0
 71
3
 72
9
 73
5
 74
0
 42
0.0000001
 43
0.0000001
 44
0.0000000001
 40
0.0
 40
0.0
 40
0.0
 40
0.0
 40
0.2533573255
 40
1.0
 40
1.0
 40
1.0
 40
1.0
 10
38.9726959763
 20
52.1440004502
 30
0.0
 10
38.9818245617
 20
52.1387301782
 30
0.0
 10
39.017699253
 20
52.1176601747
 30
0.0
 10
39.052939042
 20
52.09550596
 30
0.0
 10
39.0788255399
 20
52.0783354222
 30
0.0
  0
SPLINE
  5
3A8
100
AcDbEntity
  8
0
100
AcDbSpline
 62
7
  6
BYLAYER
 70
0
 71
3
 72
14
 73
10
 74
0
 42
0.0000001
 43
0.0000001
 44
0.0000000001
 40
0.0
 40
0.0
 40
0.0
 40
0.0
 40
0.2892655541
 40
0.4225655928
 40
0.5485104898
 40
0.6678928648
 40
0.7818722044
 40
0.8919561714
 40
1.0
 40
1.0
 40
1.0
 40
1.0
 10
40.2072584819
 20
51.426849098
 30
0.0
 10
40.3057440391
 20
51.3699897214
 30
0.0
 10
40.44367919
 20
51.2750165283
 30
0.0
 10
40.5997345555
 20
51.1256659303
 30
0.0
 10
40.6947210925
 20
51.0105441374
 30
0.0
 10
40.7697724204
 20
50.8903489243
 30
0.0
 10
40.8241346783
 20
50.7661754558
 30
0.0
 10
40.8570594395
 20
50.6392552383
 30
0.0
 10
40.8644308636
 20
50.5533293151
 30
0.0
 10
40.8644351451
 20
50.5108534042
 30
0.0
  0
SPLINE
  5
3A9
100
AcDbEntity
  8
0
100
AcDbSpline
 62
7
  6
BYLAYER
 70
0
 71
3
 72
15
 73
11
 74
0
 42
0.0000001
 43
0.0000001
 44
0.0000000001
 40
0.0
 40
0.0
 40
0.0
 40
0.0
 40
0.1141231812
 40
0.2373468278
 40
0.366971913
 40
0.4999994099
 40
0.6330269884
 40
0.76265231
 40
0.885876356
 40
1.0
 40
1.0
 40
1.0
 40
1.0
 10
25.9340158557
 20
59.6724304115
 30
0.0
 10
25.9703109618
 20
59.6933852757
 30
0.0
 10
26.0497116902
 20
59.7303413165
 30
0.0
 10
26.1789814439
 20
59.7696569596
 30
0.0
 10
26.3189600901
 20
59.7938277314
 30
0.0
 10
26.4643449741
 20
59.8020023967
 30
0.0
 10
26.6097299841
 20
59.7938284381
 30
0.0
 10
26.7497090133
 20
59.7696583409
 30
0.0
 10
26.878979368
 20
59.7303432969
 30
0.0
 10
26.958380623
 20
59.6933876485
 30
0.0
 10
26.9946760275
 20
59.672432961
 30
0.0
  0
SPLINE
  5
3AA
100
AcDbEntity
  8
0
100
AcDbSpline
 62
7
  6
BYLAYER
 70
0
 71
3
 72
11
 73
7
 74
0
 42
0.0000001
 43
0.0000001
 44
0.0000000001
 40
0.0
 40
0.0
 40
0.0
 40
0.0
 40
0.2897052857
 40
0.5490919933
 40
0.7822182543
 40
1.0
 40
1.0
 40
1.0
 40
1.0
 10
30.1766697906
 20
57.8353495657
 30
0.0
 10
30.2095793655
 20
57.8163496436
 30
0.0
 10
30.2692856466
 20
57.775226423
 30
0.0
 10
30.3406430664
 20
57.7002339939
 30
0.0
 10
30.385781486
 20
57.6172740092
 30
0.0
 10
30.3963381783
 20
57.5577327666
 30
0.0
 10
30.3963381703
 20
57.5291664503
 30
0.0
  0
SPLINE
  5
3AB
100
AcDbEntity
  8
0
100
AcDbSpline
 62
7
  6
BYLAYER
 70
0
 71
3
 72
11
 73
7
 74
0
 42
0.0000001
 43
0.0000001
 44
0.0000000001
 40
0.0
 40
0.0
 40
0.0
 40
0.0
 40
0.2897052857
 40
0.5490919933
 40
0.7822182543
 40
1.0
 40
1.0
 40
1.0
 40
1.0
 10
24.3783700444
 20
61.1829237528
 30
0.0
 10
24.4112796193
 20
61.1639238307
 30
0.0
 10
24.4709859004
 20
61.12280061
 30
0.0
 10
24.5423433202
 20
61.0478081809
 30
0.0
 10
24.5874817398
 20
60.9648481962
 30
0.0
 10
24.5980384321
 20
60.9053069537
 30
0.0
 10
24.5980384241
 20
60.8767406374
 30
0.0
  0
SPLINE
  5
3AC
100
AcDbEntity
  8
0
100
AcDbSpline
 62
7
  6
BYLAYER
 70
0
 71
3
 72
15
 73
11
 74
0
 42
0.0000001
 43
0.0000001
 44
0.0000000001
 40
0.0
 40
0.0
 40
0.0
 40
0.0
 40
0.1141231812
 40
0.2373468278
 40
0.366971913
 40
0.4999994099
 40
0.6330269884
 40
0.76265231
 40
0.885876356
 40
1.0
 40
1.0
 40
1.0
 40
1.0
 10
20.1357161095
 20
63.0200045986
 30
0.0
 10
20.1720112156
 20
63.0409594628
 30
0.0
 10
20.251411944
 20
63.0779155035
 30
0.0
 10
20.3806816977
 20
63.1172311466
 30
0.0
 10
20.5206603439
 20
63.1414019185
 30
0.0
 10
20.6660452279
 20
63.1495765838
 30
0.0
 10
20.8114302379
 20
63.1414026251
 30
0.0
 10
20.9514092671
 20
63.1172325279
 30
0.0
 10
21.0806796218
 20
63.0779174839
 30
0.0
 10
21.1600808768
 20
63.0409618356
 30
0.0
 10
21.1963762812
 20
63.0200071481
 30
0.0
  0
SPLINE
  5
3AD
100
AcDbEntity
  8
0
100
AcDbSpline
 62
7
  6
BYLAYER
 70
0
 71
3
 72
11
 73
7
 74
0
 42
0.0000001
 43
0.0000001
 44
0.0000000001
 40
0.0
 40
0.0
 40
0.0
 40
0.0
 40
0.2177821605
 40
0.4509085882
 40
0.7102951949
 40
1.0
 40
1.0
 40
1.0
 40
1.0
 10
24.5980384241
 20
60.8767406374
 30
0.0
 10
24.5980384161
 20
60.8481746347
 30
0.0
 10
24.5874819977
 20
60.7886340883
 30
0.0
 10
24.542344547
 20
60.7056749034
 30
0.0
 10
24.4709885681
 20
60.6306830336
 30
0.0
 10
24.4112834197
 20
60.5895599546
 30
0.0
 10
24.3783744604
 20
60.5705600715
 30
0.0
  0
SPLINE
  5
3AE
100
AcDbEntity
  8
0
100
AcDbSpline
 62
7
  6
BYLAYER
 70
0
 71
3
 72
22
 73
18
 74
0
 42
0.0000001
 43
0.0000001
 44
0.0000000001
 40
0.0
 40
0.0
 40
0.0
 40
0.0
 40
0.0623750833
 40
0.1287720933
 40
0.1983808062
 40
0.2703742009
 40
0.4173959928
 40
0.4904405475
 40
0.5617490483
 40
0.6303650991
 40
0.6954720232
 40
0.7564377726
 40
0.8128900593
 40
0.8648076991
 40
0.9125966398
 40
0.9571795831
 40
1.0
 40
1.0
 40
1.0
 40
1.0
 10
38.4092837206
 20
51.8187161744
 30
0.0
 10
38.3571263643
 20
51.8488285569
 30
0.0
 10
38.2452817742
 20
51.9039396847
 30
0.0
 10
38.064913807
 20
51.9693409361
 30
0.0
 10
37.8699368765
 20
52.0188270443
 30
0.0
 10
37.5944172763
 20
52.0624703583
 30
0.0
 10
37.3108793884
 20
52.0702982254
 30
0.0
 10
37.0306717591
 20
52.0424401565
 30
0.0
 10
36.8283321718
 20
52.0041556586
 30
0.0
 10
36.6378158609
 20
51.9492305122
 30
0.0
 10
36.4631095496
 20
51.8788580041
 30
0.0
 10
36.307900221
 20
51.7944390286
 30
0.0
 10
36.1754421423
 20
51.697634918
 30
0.0
 10
36.0685216667
 20
51.5902972255
 30
0.0
 10
35.9896789578
 20
51.4742680124
 30
0.0
 10
35.941046391
 20
51.3519066698
 30
0.0
 10
35.9299910063
 20
51.2671534212
 30
0.0
 10
35.9299929062
 20
51.2258084937
 30
0.0
  0
SPLINE
  5
3AF
100
AcDbEntity
  8
0
100
AcDbSpline
 62
7
  6
BYLAYER
 70
0
 71
3
 72
9
 73
5
 74
0
 42
0.0000001
 43
0.0000001
 44
0.0000000001
 40
0.0
 40
0.0
 40
0.0
 40
0.0
 40
0.27467536
 40
1.0
 40
1.0
 40
1.0
 40
1.0
 10
38.4092837206
 20
51.8105511502
 30
0.0
 10
38.4459901046
 20
51.7893591889
 30
0.0
 10
38.5757319475
 20
51.7063117115
 30
0.0
 10
38.6906345321
 20
51.5954516013
 30
0.0
 10
38.7496344199
 20
51.5003417652
 30
0.0
  0
SPLINE
  5
3B0
100
AcDbEntity
  8
0
100
AcDbSpline
 62
7
  6
BYLAYER
 70
0
 71
3
 72
10
 73
6
 74
0
 42
0.0000001
 43
0.0000001
 44
0.0000000001
 40
0.0
 40
0.0
 40
0.0
 40
0.0
 40
0.2268673555
 40
0.5951683866
 40
1.0
 40
1.0
 40
1.0
 40
1.0
 10
38.7529047066
 20
51.5031782587
 30
0.0
 10
38.7344278473
 20
51.5336107599
 30
0.0
 10
38.6793406953
 20
51.6095360352
 30
0.0
 10
38.5654298488
 20
51.7189030205
 30
0.0
 10
38.4643029966
 20
51.7869514992
 30
0.0
 10
38.4092837206
 20
51.8187161744
 30
0.0
  0
SPLINE
  5
3B1
100
AcDbEntity
  8
0
100
AcDbSpline
 62
7
  6
BYLAYER
 70
0
 71
3
 72
23
 73
19
 74
0
 42
0.0000001
 43
0.0000001
 44
0.0000000001
 40
0.0
 40
0.0
 40
0.0
 40
0.0
 40
0.0623792898
 40
0.1287515931
 40
0.1983476985
 40
0.2703370378
 40
0.3437255892
 40
0.4174668529
 40
0.4905037691
 40
0.5618023662
 40
0.6304112269
 40
0.6955107269
 40
0.7564680959
 40
0.8129139313
 40
0.864823495
 40
0.912606136
 40
0.9571869814
 40
1.0
 40
1.0
 40
1.0
 40
1.0
 10
37.0341373842
 20
49.5866926895
 30
0.0
 10
37.114732709
 20
49.5401620096
 30
0.0
 10
37.287508495
 20
49.455000779
 30
0.0
 10
37.5661734011
 20
49.3539954466
 30
0.0
 10
37.8673513273
 20
49.2775545378
 30
0.0
 10
38.1845227458
 20
49.2272618585
 30
0.0
 10
38.5110082535
 20
49.2041853623
 30
0.0
 10
38.8398312953
 20
49.2088120932
 30
0.0
 10
39.1639828884
 20
49.2410403574
 30
0.0
 10
39.4765543214
 20
49.3002085793
 30
0.0
 10
39.7709052651
 20
49.3850407614
 30
0.0
 10
40.0408152335
 20
49.4937668096
 30
0.0
 10
40.280601069
 20
49.624193132
 30
0.0
 10
40.4852473012
 20
49.7737396585
 30
0.0
 10
40.6504108242
 20
49.9395825381
 30
0.0
 10
40.7722690288
 20
50.118813117
 30
0.0
 10
40.8473411514
 20
50.3078813026
 30
0.0
 10
40.8644401646
 20
50.438816136
 30
0.0
 10
40.8644338327
 20
50.5026883813
 30
0.0
  0
SPLINE
  5
3B2
100
AcDbEntity
  8
0
100
AcDbSpline
 62
7
  6
BYLAYER
 70
0
 71
3
 72
11
 73
7
 74
0
 42
0.0000001
 43
0.0000001
 44
0.0000000001
 40
0.0
 40
0.0
 40
0.0
 40
0.0
 40
0.2177821605
 40
0.4509085882
 40
0.7102951949
 40
1.0
 40
1.0
 40
1.0
 40
1.0
 10
30.3963381703
 20
57.5291664503
 30
0.0
 10
30.3963381623
 20
57.5006004477
 30
0.0
 10
30.3857817439
 20
57.4410599012
 30
0.0
 10
30.3406442932
 20
57.3581007163
 30
0.0
 10
30.2692883143
 20
57.2831088465
 30
0.0
 10
30.2095831659
 20
57.2419857675
 30
0.0
 10
30.1766742066
 20
57.2229858844
 30
0.0
  0
SPLINE
  5
3B3
100
AcDbEntity
  8
0
100
AcDbSpline
 62
7
  6
BYLAYER
 70
0
 71
3
 72
23
 73
19
 74
0
 42
0.0000001
 43
0.0000001
 44
0.0000000001
 40
0.0
 40
0.0
 40
0.0
 40
0.0
 40
0.0428126174
 40
0.0873933983
 40
0.1351761527
 40
0.1870859485
 40
0.243531734
 40
0.3044885417
 40
0.3695870954
 40
0.4381947124
 40
0.5094919909
 40
0.582528131
 40
0.6562694858
 40
0.7296589031
 40
0.8016493255
 40
0.8712466625
 40
0.937620458
 40
1.0
 40
1.0
 40
1.0
 40
1.0
 10
40.8644351451
 20
50.5108534042
 30
0.0
 10
40.8644415833
 20
50.4469817556
 30
0.0
 10
40.8473416383
 20
50.316047669
 30
0.0
 10
40.7722695139
 20
50.1269803091
 30
0.0
 10
40.6504128855
 20
49.9477480958
 30
0.0
 10
40.485248295
 20
49.7819054359
 30
0.0
 10
40.2806023511
 20
49.6323596357
 30
0.0
 10
40.0408190218
 20
49.5019336072
 30
0.0
 10
39.7709131633
 20
49.393208283
 30
0.0
 10
39.4765673208
 20
49.3083772639
 30
0.0
 10
39.1640010258
 20
49.249209029
 30
0.0
 10
38.8398527164
 20
49.2169778793
 30
0.0
 10
38.5110293442
 20
49.2123502418
 30
0.0
 10
38.1845407828
 20
49.2354259553
 30
0.0
 10
37.8673641736
 20
49.2857163596
 30
0.0
 10
37.5661805365
 20
49.3621582249
 30
0.0
 10
37.2875114632
 20
49.4631650428
 30
0.0
 10
37.1147330372
 20
49.5483268444
 30
0.0
 10
37.0341373842
 20
49.5948577136
 30
0.0
  0
SPLINE
  5
3B4
100
AcDbEntity
  8
0
100
AcDbSpline
 62
7
  6
BYLAYER
 70
0
 71
3
 72
19
 73
15
 74
0
 42
0.0000001
 43
0.0000001
 44
0.0000000001
 40
0.0
 40
0.0
 40
0.0
 40
0.0
 40
0.0430256234
 40
0.0884161947
 40
0.1373256668
 40
0.1904044029
 40
0.2478878302
 40
0.3096175768
 40
0.4437550392
 40
0.5873283814
 40
0.7328873636
 40
0.8726474719
 40
0.9382954741
 40
1.0
 40
1.0
 40
1.0
 40
1.0
 10
37.8189310592
 20
50.5351407836
 30
0.0
 10
37.8216436765
 20
50.5574932051
 30
0.0
 10
37.8330767955
 20
50.6028697738
 30
0.0
 10
37.8662221029
 20
50.6672220803
 30
0.0
 10
37.91473093
 20
50.7277515052
 30
0.0
 10
37.9773289189
 20
50.7834410871
 30
0.0
 10
38.0528060902
 20
50.8332537578
 30
0.0
 10
38.1717973125
 20
50.8923357453
 30
0.0
 10
38.3428804891
 20
50.9446349974
 30
0.0
 10
38.5637027707
 20
50.9716973025
 30
0.0
 10
38.7889201962
 20
50.9627008294
 30
0.0
 10
38.9698004962
 20
50.924964119
 30
0.0
 10
39.1011659067
 20
50.8765973324
 30
0.0
 10
39.1610592211
 20
50.8469555436
 30
0.0
 10
39.1890246975
 20
50.8308100335
 30
0.0
  0
SPLINE
  5
3B5
100
AcDbEntity
  8
0
100
AcDbSpline
 62
7
  6
BYLAYER
 70
0
 71
3
 72
22
 73
18
 74
0
 42
0.0000001
 43
0.0000001
 44
0.0000000001
 40
0.0
 40
0.0
 40
0.0
 40
0.0
 40
0.0428216484
 40
0.0874550445
 40
0.1353206674
 40
0.1873217024
 40
0.2438490254
 40
0.3048716042
 40
0.3700127321
 40
0.4386385579
 40
0.5099337466
 40
0.5829449802
 40
0.729859048
 40
0.8017880648
 40
0.8713334038
 40
0.9376727916
 40
1.0
 40
1.0
 40
1.0
 40
1.0
 10
35.9300116126
 20
51.221914796
 30
0.0
 10
35.9303750746
 20
51.2631986731
 30
0.0
 10
35.942146229
 20
51.3477717791
 30
0.0
 10
35.9916451989
 20
51.4696961758
 30
0.0
 10
36.0711564517
 20
51.5852502164
 30
0.0
 10
36.1785626281
 20
51.6920961144
 30
0.0
 10
36.3113311801
 20
51.7884069407
 30
0.0
 10
36.4666820477
 20
51.872347967
 30
0.0
 10
36.6413742592
 20
51.9422669417
 30
0.0
 10
36.8317344896
 20
51.9967807824
 30
0.0
 10
37.0337959497
 20
52.0347085648
 30
0.0
 10
37.3134762653
 20
52.0621729925
 30
0.0
 10
37.5963852219
 20
52.0541089648
 30
0.0
 10
37.8712460347
 20
52.010379562
 30
0.0
 10
38.0657367317
 20
51.9609093943
 30
0.0
 10
38.2456629195
 20
51.8955968479
 30
0.0
 10
38.3572428338
 20
51.8405962905
 30
0.0
 10
38.4092837206
 20
51.8105511502
 30
0.0
  0
SPLINE
  5
3B6
100
AcDbEntity
  8
0
100
AcDbSpline
 62
7
  6
BYLAYER
 70
0
 71
3
 72
12
 73
8
 74
0
 42
0.0000001
 43
0.0000001
 44
0.0000000001
 40
0.0
 40
0.0
 40
0.0
 40
0.0
 40
0.1082245855
 40
0.2184526106
 40
0.4513936309
 40
0.7104743444
 40
1.0
 40
1.0
 40
1.0
 40
1.0
 10
39.4244246236
 20
50.5108534253
 30
0.0
 10
39.4244241567
 20
50.5260780188
 30
0.0
 10
39.4217904366
 20
50.5568740847
 30
0.0
 10
39.4057838037
 20
50.6185869667
 30
0.0
 10
39.364733965
 20
50.6942505753
 30
0.0
 10
39.2882844514
 20
50.7745372981
 30
0.0
 10
39.224297496
 20
50.8186107587
 30
0.0
 10
39.1890246975
 20
50.8389750577
 30
0.0
  0
SPLINE
  5
3B7
100
AcDbEntity
  8
0
100
AcDbSpline
 62
7
  6
BYLAYER
 70
0
 71
3
 72
15
 73
11
 74
0
 42
0.0000001
 43
0.0000001
 44
0.0000000001
 40
0.0
 40
0.0
 40
0.0
 40
0.0
 40
0.1141231812
 40
0.2373468278
 40
0.366971913
 40
0.4999994099
 40
0.6330269884
 40
0.76265231
 40
0.885876356
 40
1.0
 40
1.0
 40
1.0
 40
1.0
 10
26.9947069391
 20
55.385887192
 30
0.0
 10
26.958411833
 20
55.3649323278
 30
0.0
 10
26.8790111046
 20
55.327976287
 30
0.0
 10
26.7497413509
 20
55.2886606439
 30
0.0
 10
26.6097627046
 20
55.2644898721
 30
0.0
 10
26.4643778207
 20
55.2563152068
 30
0.0
 10
26.3189928106
 20
55.2644891654
 30
0.0
 10
26.1790137815
 20
55.2886592626
 30
0.0
 10
26.0497434268
 20
55.3279743066
 30
0.0
 10
25.9703421718
 20
55.364929955
 30
0.0
 10
25.9340467673
 20
55.3858846425
 30
0.0
  0
SPLINE
  5
3B8
100
AcDbEntity
  8
0
100
AcDbSpline
 62
7
  6
BYLAYER
 70
0
 71
3
 72
11
 73
7
 74
0
 42
0.0000001
 43
0.0000001
 44
0.0000000001
 40
0.0
 40
0.0
 40
0.0
 40
0.0
 40
0.2897052857
 40
0.5490919933
 40
0.7822182543
 40
1.0
 40
1.0
 40
1.0
 40
1.0
 10
22.7520530042
 20
57.2229680378
 30
0.0
 10
22.7191434293
 20
57.2419679599
 30
0.0
 10
22.6594371482
 20
57.2830911805
 30
0.0
 10
22.5880797284
 20
57.3580836096
 30
0.0
 10
22.5429413088
 20
57.4410435943
 30
0.0
 10
22.5323846165
 20
57.5005848369
 30
0.0
 10
22.5323846245
 20
57.5291511532
 30
0.0
  0
SPLINE
  5
3B9
100
AcDbEntity
  8
0
100
AcDbSpline
 62
7
  6
BYLAYER
 70
0
 71
3
 72
12
 73
8
 74
0
 42
0.0000001
 43
0.0000001
 44
0.0000000001
 40
0.0
 40
0.0
 40
0.0
 40
0.0
 40
0.284543019
 40
0.5440839757
 40
0.7805405441
 40
0.8919616777
 40
1.0
 40
1.0
 40
1.0
 40
1.0
 10
28.2090071933
 20
56.5219098689
 30
0.0
 10
28.3003820696
 20
56.5746648634
 30
0.0
 10
28.4686824475
 20
56.6876074888
 30
0.0
 10
28.6798688003
 20
56.8877103807
 30
0.0
 10
28.8097474296
 20
57.074348719
 30
0.0
 10
28.8790944015
 20
57.2289597764
 30
0.0
 10
28.9024703939
 20
57.3072189044
 30
0.0
 10
28.911231134
 20
57.3463105915
 30
0.0
  0
SPLINE
  5
3BA
100
AcDbEntity
  8
0
100
AcDbSpline
 62
7
  6
BYLAYER
 70
0
 71
3
 72
15
 73
11
 74
0
 42
0.0000001
 43
0.0000001
 44
0.0000000001
 40
0.0
 40
0.0
 40
0.0
 40
0.0
 40
0.1103987869
 40
0.2204360289
 40
0.3329262678
 40
0.4503887451
 40
0.5747760485
 40
0.7074580079
 40
0.8492167683
 40
1.0
 40
1.0
 40
1.0
 40
1.0
 10
28.911231134
 20
57.3463105915
 30
0.0
 10
28.9231499323
 20
57.3994939903
 30
0.0
 10
28.936867741
 20
57.5082882797
 30
0.0
 10
28.9244680465
 20
57.6732282262
 30
0.0
 10
28.8793226685
 20
57.835954271
 30
0.0
 10
28.8022910218
 20
57.9939901744
 30
0.0
 10
28.6948345064
 20
58.1453563365
 30
0.0
 10
28.5584962353
 20
58.2882498086
 30
0.0
 10
28.3951862469
 20
58.42090626
 30
0.0
 10
28.2734598837
 20
58.4991967984
 30
0.0
 10
28.2089926661
 20
58.5364161218
 30
0.0
  0
SPLINE
  5
3BB
100
AcDbEntity
  8
0
100
AcDbSpline
 62
7
  6
BYLAYER
 70
0
 71
3
 72
15
 73
11
 74
0
 42
0.0000001
 43
0.0000001
 44
0.0000000001
 40
0.0
 40
0.0
 40
0.0
 40
0.0
 40
0.1141549974
 40
0.2373268943
 40
0.3669765742
 40
0.5000005394
 40
0.633024429
 40
0.7626738905
 40
0.8858454396
 40
1.0
 40
1.0
 40
1.0
 40
1.0
 10
28.2089926661
 20
58.5364161218
 30
0.0
 10
28.0895575735
 20
58.6053704447
 30
0.0
 10
27.828391622
 20
58.7269834518
 30
0.0
 10
27.403098687
 20
58.8562444621
 30
0.0
 10
26.9426533319
 20
58.9358086416
 30
0.0
 10
26.4643511295
 20
58.9626518119
 30
0.0
 10
25.9860493178
 20
58.9358063597
 30
0.0
 10
25.5256051236
 20
58.8562399835
 30
0.0
 10
25.1003140594
 20
58.7269769577
 30
0.0
 10
24.8391497396
 20
58.6053626548
 30
0.0
 10
24.7197156015
 20
58.5364077346
 30
0.0
  0
SPLINE
  5
3BC
100
AcDbEntity
  8
0
100
AcDbSpline
 62
7
  6
BYLAYER
 70
0
 71
3
 72
22
 73
18
 74
0
 42
0.0000001
 43
0.0000001
 44
0.0000000001
 40
0.0
 40
0.0
 40
0.0
 40
0.0
 40
0.0690239133
 40
0.1335540383
 40
0.1936049787
 40
0.2496687185
 40
0.3025862301
 40
0.3535330784
 40
0.4039647932
 40
0.4554110653
 40
0.5092521084
 40
0.5665629976
 40
0.6280486334
 40
0.6940448707
 40
0.7645834208
 40
0.8394291088
 40
1.0
 40
1.0
 40
1.0
 40
1.0
 10
24.7197156015
 20
58.5364077346
 30
0.0
 10
24.6499598578
 20
58.4961344777
 30
0.0
 10
24.5188842671
 20
58.4111036529
 30
0.0
 10
24.345129693
 20
58.2657399499
 30
0.0
 10
24.2034426062
 20
58.1085698592
 30
0.0
 10
24.0962298194
 20
57.9418285368
 30
0.0
 10
24.0254258262
 20
57.767862062
 30
0.0
 10
23.992832555
 20
57.5894011221
 30
0.0
 10
23.9992773972
 20
57.4097756762
 30
0.0
 10
24.0446351774
 20
57.2324543599
 30
0.0
 10
24.1276473322
 20
57.0605817547
 30
0.0
 10
24.2464725632
 20
56.8967565176
 30
0.0
 10
24.3990035397
 20
56.7432766302
 30
0.0
 10
24.5827253422
 20
56.6021515531
 30
0.0
 10
24.7949135778
 20
56.4753746871
 30
0.0
 10
25.1189389286
 20
56.3243830185
 30
0.0
 10
25.3833896296
 20
56.2436866152
 30
0.0
 10
25.566170539
 20
56.2024407305
 30
0.0
  0
SPLINE
  5
3BD
100
AcDbEntity
  8
0
100
AcDbSpline
 62
7
  6
BYLAYER
 70
0
 71
3
 72
11
 73
7
 74
0
 42
0.0000001
 43
0.0000001
 44
0.0000000001
 40
0.0
 40
0.0
 40
0.0
 40
0.0
 40
0.2470732328
 40
0.4999269491
 40
0.7528187355
 40
1.0
 40
1.0
 40
1.0
 40
1.0
 10
25.566170539
 20
56.2024407305
 30
0.0
 10
25.7111392437
 20
56.1697274537
 30
0.0
 10
26.008631734
 20
56.1209741151
 30
0.0
 10
26.4616197123
 20
56.0966081817
 30
0.0
 10
26.9147037943
 20
56.1203909737
 30
0.0
 10
27.212347115
 20
56.1687579646
 30
0.0
 10
27.3574260113
 20
56.2012774355
 30
0.0
  0
SPLINE
  5
3BE
100
AcDbEntity
  8
0
100
AcDbSpline
 62
7
  6
BYLAYER
 70
0
 71
3
 72
9
 73
5
 74
0
 42
0.0000001
 43
0.0000001
 44
0.0000000001
 40
0.0
 40
0.0
 40
0.0
 40
0.0
 40
0.5197208354
 40
1.0
 40
1.0
 40
1.0
 40
1.0
 10
27.3574260113
 20
56.2012774355
 30
0.0
 10
27.5116810771
 20
56.2358537472
 30
0.0
 10
27.8046843512
 20
56.321200259
 30
0.0
 10
28.0824929854
 20
56.4488672929
 30
0.0
 10
28.2090071933
 20
56.5219098689
 30
0.0
  0
SPLINE
  5
3BF
100
AcDbEntity
  8
0
100
AcDbSpline
 62
7
  6
BYLAYER
 70
0
 71
3
 72
26
 73
22
 74
0
 42
0.0000001
 43
0.0000001
 44
0.0000000001
 40
0.0
 40
0.0
 40
0.0
 40
0.0
 40
0.0665466501
 40
0.1383798839
 40
0.213963302
 40
0.2915234217
 40
0.3690798324
 40
0.4446715951
 40
0.5164855038
 40
0.5830410789
 40
0.6433928284
 40
0.697383604
 40
0.7459450545
 40
0.7689115367
 40
0.7914540038
 40
0.8139969876
 40
0.8369665798
 40
0.8607437378
 40
0.8856497777
 40
0.9396586628
 40
1.0
 40
1.0
 40
1.0
 40
1.0
 10
27.5382802014
 20
57.1459312187
 30
0.0
 10
27.4647746702
 20
57.1034930338
 30
0.0
 10
27.3040000661
 20
57.0286457728
 30
0.0
 10
27.0422223269
 20
56.9490492108
 30
0.0
 10
26.7587765237
 20
56.9001005603
 30
0.0
 10
26.4643753532
 20
56.883555522
 30
0.0
 10
26.1699538585
 20
56.9000835206
 30
0.0
 10
25.8865507692
 20
56.9490460581
 30
0.0
 10
25.6247045585
 20
57.0286538557
 30
0.0
 10
25.3940432041
 20
57.1360362358
 30
0.0
 10
25.2029309344
 20
57.267663699
 30
0.0
 10
25.0584179577
 20
57.4194242079
 30
0.0
 10
24.9808394698
 20
57.5623793463
 30
0.0
 10
24.9506407145
 20
57.6790191852
 30
0.0
 10
24.9431489805
 20
57.7659186901
 30
0.0
 10
24.9506145746
 20
57.8528218112
 30
0.0
 10
24.972921145
 20
57.9387428886
 30
0.0
 10
25.0096702996
 20
58.02280754
 30
0.0
 10
25.0792854194
 20
58.1342302315
 30
0.0
 10
25.2029105474
 20
58.2642792081
 30
0.0
 10
25.3237912737
 20
58.3474768591
 30
0.0
 10
25.3904425933
 20
58.3859577868
 30
0.0
  0
SPLINE
  5
3C0
100
AcDbEntity
  8
0
100
AcDbSpline
 62
7
  6
BYLAYER
 70
0
 71
3
 72
26
 73
22
 74
0
 42
0.0000001
 43
0.0000001
 44
0.0000000001
 40
0.0
 40
0.0
 40
0.0
 40
0.0
 40
0.0665466501
 40
0.1383798839
 40
0.213963302
 40
0.2915234217
 40
0.3690798324
 40
0.4446715951
 40
0.5164855038
 40
0.5830410789
 40
0.6433928284
 40
0.697383604
 40
0.7459450545
 40
0.7689115367
 40
0.7914540038
 40
0.8139969876
 40
0.8369665798
 40
0.8607437378
 40
0.8856497777
 40
0.9396586628
 40
1.0
 40
1.0
 40
1.0
 40
1.0
 10
25.3904425933
 20
58.3859577868
 30
0.0
 10
25.4639481246
 20
58.4283959717
 30
0.0
 10
25.6247227286
 20
58.5032432326
 30
0.0
 10
25.8865004679
 20
58.5828397946
 30
0.0
 10
26.1699462711
 20
58.6317884451
 30
0.0
 10
26.4643474416
 20
58.6483334834
 30
0.0
 10
26.7587689363
 20
58.6318054848
 30
0.0
 10
27.0421720256
 20
58.5828429473
 30
0.0
 10
27.3040182363
 20
58.5032351497
 30
0.0
 10
27.5346795907
 20
58.3958527696
 30
0.0
 10
27.7257918604
 20
58.2642253064
 30
0.0
 10
27.8703048371
 20
58.1124647976
 30
0.0
 10
27.947883325
 20
57.9695096592
 30
0.0
 10
27.9780820803
 20
57.8528698202
 30
0.0
 10
27.9855738143
 20
57.7659703154
 30
0.0
 10
27.9781082202
 20
57.6790671943
 30
0.0
 10
27.9558016498
 20
57.5931461169
 30
0.0
 10
27.9190524952
 20
57.5090814655
 30
0.0
 10
27.8494373754
 20
57.397658774
 30
0.0
 10
27.7258122474
 20
57.2676097974
 30
0.0
 10
27.6049315211
 20
57.1844121463
 30
0.0
 10
27.5382802014
 20
57.1459312187
 30
0.0
  0
SPLINE
  5
3C1
100
AcDbEntity
  8
0
100
AcDbSpline
 62
7
  6
BYLAYER
 70
0
 71
3
 72
12
 73
8
 74
0
 42
0.0000001
 43
0.0000001
 44
0.0000000001
 40
0.0
 40
0.0
 40
0.0
 40
0.0
 40
0.2889847417
 40
0.5482171394
 40
0.7816032617
 40
0.8919137016
 40
1.0
 40
1.0
 40
1.0
 40
1.0
 10
39.1890246975
 20
50.8308100335
 30
0.0
 10
39.2236074852
 20
50.8108441034
 30
0.0
 10
39.2864620983
 20
50.7676891221
 30
0.0
 10
39.3620460965
 20
50.6893537753
 30
0.0
 10
39.4034529684
 20
50.6156123946
 30
0.0
 10
39.4205160264
 20
50.5553163539
 30
0.0
 10
39.4238995164
 20
50.5251606359
 30
0.0
 10
39.4243186449
 20
50.5102309191
 30
0.0
  0
SPLINE
  5
3C2
100
AcDbEntity
  8
0
100
AcDbSpline
 62
7
  6
BYLAYER
 70
0
 71
3
 72
11
 73
7
 74
0
 42
0.0000001
 43
0.0000001
 44
0.0000000001
 40
0.0
 40
0.0
 40
0.0
 40
0.0
 40
0.2177817009
 40
0.4509079353
 40
0.7102947134
 40
1.0
 40
1.0
 40
1.0
 40
1.0
 10
16.7340848783
 20
60.8685603161
 30
0.0
 10
16.7340848836
 20
60.8399940058
 30
0.0
 10
16.74464155
 20
60.7804527728
 30
0.0
 10
16.7897799729
 20
60.6974927843
 30
0.0
 10
16.8611374015
 20
60.6225003587
 30
0.0
 10
16.9208436831
 20
60.5813771228
 30
0.0
 10
16.953753258
 20
60.5623772007
 30
0.0
  0
SPLINE
  5
3C3
100
AcDbEntity
  8
0
100
AcDbSpline
 62
7
  6
BYLAYER
 70
0
 71
3
 72
15
 73
11
 74
0
 42
0.0000001
 43
0.0000001
 44
0.0000000001
 40
0.0
 40
0.0
 40
0.0
 40
0.0
 40
0.1141231812
 40
0.2373468278
 40
0.366971913
 40
0.4999994099
 40
0.6330269884
 40
0.76265231
 40
0.885876356
 40
1.0
 40
1.0
 40
1.0
 40
1.0
 10
21.1964071929
 20
58.733461379
 30
0.0
 10
21.1601120868
 20
58.7125065148
 30
0.0
 10
21.0807113583
 20
58.6755504741
 30
0.0
 10
20.9514416047
 20
58.636234831
 30
0.0
 10
20.8114629584
 20
58.6120640591
 30
0.0
 10
20.6660780745
 20
58.6038893939
 30
0.0
 10
20.5206930644
 20
58.6120633525
 30
0.0
 10
20.3807140353
 20
58.6362334497
 30
0.0
 10
20.2514436806
 20
58.6755484937
 30
0.0
 10
20.1720424256
 20
58.7125041421
 30
0.0
 10
20.1357470211
 20
58.7334588295
 30
0.0
  0
SPLINE
  5
3C4
100
AcDbEntity
  8
0
100
AcDbSpline
 62
7
  6
BYLAYER
 70
0
 71
3
 72
11
 73
7
 74
0
 42
0.0000001
 43
0.0000001
 44
0.0000000001
 40
0.0
 40
0.0
 40
0.0
 40
0.0
 40
0.2897052857
 40
0.5490919933
 40
0.7822182543
 40
1.0
 40
1.0
 40
1.0
 40
1.0
 10
16.953753258
 20
60.5705422249
 30
0.0
 10
16.920843683
 20
60.589542147
 30
0.0
 10
16.861137402
 20
60.6306653676
 30
0.0
 10
16.7897799822
 20
60.7056577967
 30
0.0
 10
16.7446415626
 20
60.7886177814
 30
0.0
 10
16.7340848703
 20
60.848159024
 30
0.0
 10
16.7340848783
 20
60.8767253403
 30
0.0
  0
SPLINE
  5
3C5
100
AcDbEntity
  8
0
100
AcDbSpline
 62
7
  6
BYLAYER
 70
0
 71
3
 72
15
 73
11
 74
0
 42
0.0000001
 43
0.0000001
 44
0.0000000001
 40
0.0
 40
0.0
 40
0.0
 40
0.0
 40
0.1141236058
 40
0.2373475862
 40
0.3669728832
 40
0.5000004526
 40
0.6330279586
 40
0.7626530685
 40
0.8858767805
 40
1.0
 40
1.0
 40
1.0
 40
1.0
 10
25.9340467673
 20
55.3777196183
 30
0.0
 10
25.9703421596
 20
55.3567649379
 30
0.0
 10
26.0497433743
 20
55.3198092937
 30
0.0
 10
26.1790136846
 20
55.2804942651
 30
0.0
 10
26.3189926743
 20
55.2563241579
 30
0.0
 10
26.4643776745
 20
55.2481501826
 30
0.0
 10
26.6097625683
 20
55.2563248313
 30
0.0
 10
26.7497412541
 20
55.2804955931
 30
0.0
 10
26.8790110521
 20
55.3198112516
 30
0.0
 10
26.9584118208
 20
55.3567672966
 30
0.0
 10
26.9947069391
 20
55.3777221678
 30
0.0
  0
SPLINE
  5
3C6
100
AcDbEntity
  8
0
100
AcDbSpline
 62
7
  6
BYLAYER
 70
0
 71
3
 72
22
 73
18
 74
0
 42
0.0000001
 43
0.0000001
 44
0.0000000001
 40
0.0
 40
0.0
 40
0.0
 40
0.0
 40
0.0690239133
 40
0.1335540383
 40
0.1936049787
 40
0.2496687185
 40
0.3025862301
 40
0.3535330784
 40
0.4039647932
 40
0.4554110653
 40
0.5092521084
 40
0.5665629976
 40
0.6280486334
 40
0.6940448707
 40
0.7645834208
 40
0.8394291088
 40
1.0
 40
1.0
 40
1.0
 40
1.0
 10
18.9214158553
 20
61.8839819217
 30
0.0
 10
18.8516601116
 20
61.8437086647
 30
0.0
 10
18.7205845209
 20
61.7586778399
 30
0.0
 10
18.5468299468
 20
61.613314137
 30
0.0
 10
18.40514286
 20
61.4561440462
 30
0.0
 10
18.2979300732
 20
61.2894027239
 30
0.0
 10
18.22712608
 20
61.1154362491
 30
0.0
 10
18.1945328088
 20
60.9369753092
 30
0.0
 10
18.200977651
 20
60.7573498632
 30
0.0
 10
18.2463354312
 20
60.580028547
 30
0.0
 10
18.329347586
 20
60.4081559417
 30
0.0
 10
18.448172817
 20
60.2443307047
 30
0.0
 10
18.6007037935
 20
60.0908508173
 30
0.0
 10
18.784425596
 20
59.9497257402
 30
0.0
 10
18.9966138316
 20
59.8229488741
 30
0.0
 10
19.3206391824
 20
59.6719572056
 30
0.0
 10
19.5850898834
 20
59.5912608022
 30
0.0
 10
19.7678707928
 20
59.5500149176
 30
0.0
  0
SPLINE
  5
3C7
100
AcDbEntity
  8
0
100
AcDbSpline
 62
7
  6
BYLAYER
 70
0
 71
3
 72
11
 73
7
 74
0
 42
0.0000001
 43
0.0000001
 44
0.0000000001
 40
0.0
 40
0.0
 40
0.0
 40
0.0
 40
0.2470732328
 40
0.4999269491
 40
0.7528187355
 40
1.0
 40
1.0
 40
1.0
 40
1.0
 10
19.7678707928
 20
59.5500149176
 30
0.0
 10
19.9128394975
 20
59.5173016408
 30
0.0
 10
20.2103319878
 20
59.4685483022
 30
0.0
 10
20.6633199661
 20
59.4441823687
 30
0.0
 10
21.1164040481
 20
59.4679651607
 30
0.0
 10
21.4140473688
 20
59.5163321516
 30
0.0
 10
21.5591262651
 20
59.5488516226
 30
0.0
  0
SPLINE
  5
3C8
100
AcDbEntity
  8
0
100
AcDbSpline
 62
7
  6
BYLAYER
 70
0
 71
3
 72
9
 73
5
 74
0
 42
0.0000001
 43
0.0000001
 44
0.0000000001
 40
0.0
 40
0.0
 40
0.0
 40
0.0
 40
0.5197208354
 40
1.0
 40
1.0
 40
1.0
 40
1.0
 10
21.5591262651
 20
59.5488516226
 30
0.0
 10
21.7133813309
 20
59.5834279343
 30
0.0
 10
22.006384605
 20
59.6687744461
 30
0.0
 10
22.2841932392
 20
59.7964414799
 30
0.0
 10
22.4107074471
 20
59.8694840559
 30
0.0
  0
SPLINE
  5
3C9
100
AcDbEntity
  8
0
100
AcDbSpline
 62
7
  6
BYLAYER
 70
0
 71
3
 72
29
 73
25
 74
0
 42
0.0000001
 43
0.0000001
 44
0.0000000001
 40
0.0
 40
0.0
 40
0.0
 40
0.0
 40
0.0603311392
 40
0.0881331498
 40
0.1144012787
 40
0.1393006859
 40
0.163073196
 40
0.1860333111
 40
0.2085679782
 40
0.231102598
 40
0.2540629586
 40
0.2778342516
 40
0.3027373475
 40
0.3290082638
 40
0.356804264
 40
0.417137102
 40
0.4836721812
 40
0.5554630231
 40
0.6310304529
 40
0.7085643084
 40
0.7860992216
 40
0.8616671953
 40
0.9334650086
 40
1.0
 40
1.0
 40
1.0
 40
1.0
 10
22.4107074471
 20
59.8694840559
 30
0.0
 10
22.5190027998
 20
59.9320080337
 30
0.0
 10
22.6706774596
 20
60.0364423116
 30
0.0
 10
22.8422767584
 20
60.2006719571
 30
0.0
 10
22.946725313
 20
60.3272615849
 30
0.0
 10
23.0292525241
 20
60.4594337745
 30
0.0
 10
23.0890307933
 20
60.5959686421
 30
0.0
 10
23.1252322023
 20
60.7355661701
 30
0.0
 10
23.1373631669
 20
60.8767342682
 30
0.0
 10
23.1252310797
 20
61.0179039329
 30
0.0
 10
23.0890193255
 20
61.1574947207
 30
0.0
 10
23.0292693963
 20
61.2940492481
 30
0.0
 10
22.9466905435
 20
61.4262053629
 30
0.0
 10
22.8422699687
 20
61.5528056062
 30
0.0
 10
22.670611941
 20
61.7170446212
 30
0.0
 10
22.4048318786
 20
61.9000875398
 30
0.0
 10
22.0301975905
 20
62.074482944
 30
0.0
 10
21.6047838351
 20
62.2038244026
 30
0.0
 10
21.144383381
 20
62.283367565
 30
0.0
 10
20.6660739366
 20
62.3102262556
 30
0.0
 10
20.1877771938
 20
62.2833755513
 30
0.0
 10
19.7273175051
 20
62.2038234414
 30
0.0
 10
19.3020211068
 20
62.0745481478
 30
0.0
 10
19.0408472212
 20
61.9529352414
 30
0.0
 10
18.9214158553
 20
61.8839819217
 30
0.0
  0
SPLINE
  5
3CA
100
AcDbEntity
  8
0
100
AcDbSpline
 62
7
  6
BYLAYER
 70
0
 71
3
 72
15
 73
11
 74
0
 42
0.0000001
 43
0.0000001
 44
0.0000000001
 40
0.0
 40
0.0
 40
0.0
 40
0.0
 40
0.1181502283
 40
0.2466734872
 40
0.3817570318
 40
0.5188601942
 40
0.6532155752
 40
0.7803534928
 40
0.8966501576
 40
1.0
 40
1.0
 40
1.0
 40
1.0
 10
21.7399804552
 20
60.4935054058
 30
0.0
 10
21.6534918341
 20
60.4435714751
 30
0.0
 10
21.4619584136
 20
60.3578665545
 30
0.0
 10
21.1491866546
 20
60.2742785249
 30
0.0
 10
20.811922892
 20
60.2331577617
 30
0.0
 10
20.4673289713
 20
60.2366167564
 30
0.0
 10
20.132785097
 20
60.2844583648
 30
0.0
 10
19.825052089
 20
60.3743748561
 30
0.0
 10
19.5595514527
 20
60.5018451215
 30
0.0
 10
19.4101075202
 20
60.6153965073
 30
0.0
 10
19.348544715
 20
60.6773759432
 30
0.0
  0
SPLINE
  5
3CB
100
AcDbEntity
  8
0
100
AcDbSpline
 62
7
  6
BYLAYER
 70
0
 71
3
 72
17
 73
13
 74
0
 42
0.0000001
 43
0.0000001
 44
0.0000000001
 40
0.0
 40
0.0
 40
0.0
 40
0.0
 40
0.1293298771
 40
0.2481127809
 40
0.3603460209
 40
0.4158220963
 40
0.471758627
 40
0.587498658
 40
0.712472828
 40
0.77950184
 40
0.8498037892
 40
1.0
 40
1.0
 40
1.0
 40
1.0
 10
19.348544715
 20
60.6773759432
 30
0.0
 10
19.309357262
 20
60.7168286002
 30
0.0
 10
19.2406844245
 20
60.7996201962
 30
0.0
 10
19.1704517456
 20
60.9394139673
 30
0.0
 10
19.1459154374
 20
61.061912918
 30
0.0
 10
19.1476057427
 20
61.1583453495
 30
0.0
 10
19.1630936646
 20
61.2550791656
 30
0.0
 10
19.2094965394
 20
61.3755862432
 30
0.0
 10
19.2861368616
 20
61.4848098653
 30
0.0
 10
19.36388838
 20
61.5666818991
 30
0.0
 10
19.4570736472
 20
61.6481430897
 30
0.0
 10
19.5362156603
 20
61.7012425902
 30
0.0
 10
19.5921428471
 20
61.7335319738
 30
0.0
  0
SPLINE
  5
3CC
100
AcDbEntity
  8
0
100
AcDbSpline
 62
7
  6
BYLAYER
 70
0
 71
3
 72
25
 73
21
 74
0
 42
0.0000001
 43
0.0000001
 44
0.0000000001
 40
0.0
 40
0.0
 40
0.0
 40
0.0
 40
0.0660099964
 40
0.1369607677
 40
0.211574935
 40
0.2884289602
 40
0.3658805677
 40
0.4422674671
 40
0.5159981631
 40
0.5856606449
 40
0.650157196
 40
0.708865333
 40
0.7618261743
 40
0.8099556414
 40
0.8328334018
 40
0.8552989188
 40
0.8777059986
 40
0.9004153517
 40
0.9479104798
 40
1.0
 40
1.0
 40
1.0
 40
1.0
 10
19.5921428471
 20
61.7335319738
 30
0.0
 10
19.6593390045
 20
61.7723274618
 30
0.0
 10
19.8053822822
 20
61.8416225413
 30
0.0
 10
20.0425898555
 20
61.918206955
 30
0.0
 10
20.2995636611
 20
61.9692523834
 30
0.0
 10
20.5680666793
 20
61.9932240297
 30
0.0
 10
20.8396894464
 20
61.989314862
 30
0.0
 10
21.1058112441
 20
61.9576725978
 30
0.0
 10
21.3580414312
 20
61.8993051101
 30
0.0
 10
21.5884660257
 20
61.8159998256
 30
0.0
 10
21.7899242954
 20
61.7102523032
 30
0.0
 10
21.9562217686
 20
61.5850120247
 30
0.0
 10
22.0820806465
 20
61.4436269656
 30
0.0
 10
22.1503590425
 20
61.3126468809
 30
0.0
 10
22.1783963796
 20
61.2060162859
 30
0.0
 10
22.1867067157
 20
61.1264869503
 30
0.0
 10
22.1824842676
 20
61.0468290187
 30
0.0
 10
22.1598849369
 20
60.9399381059
 30
0.0
 10
22.0984597018
 20
60.807753998
 30
0.0
 10
22.0231225002
 20
60.716673209
 30
0.0
 10
21.9797178023
 20
60.6734879728
 30
0.0
  0
SPLINE
  5
3CD
100
AcDbEntity
  8
0
100
AcDbSpline
 62
7
  6
BYLAYER
 70
0
 71
3
 72
9
 73
5
 74
0
 42
0.0000001
 43
0.0000001
 44
0.0000000001
 40
0.0
 40
0.0
 40
0.0
 40
0.0
 40
0.2370082666
 40
1.0
 40
1.0
 40
1.0
 40
1.0
 10
21.9797178023
 20
60.6734879728
 30
0.0
 10
21.9629015719
 20
60.6567567683
 30
0.0
 10
21.8892407148
 20
60.5888951789
 30
0.0
 10
21.806115756
 20
60.5316884115
 30
0.0
 10
21.7399804552
 20
60.4935054058
 30
0.0
  0
SPLINE
  5
3CE
100
AcDbEntity
  8
0
100
AcDbSpline
 62
7
  6
BYLAYER
 70
0
 71
3
 72
15
 73
11
 74
0
 42
0.0000001
 43
0.0000001
 44
0.0000000001
 40
0.0
 40
0.0
 40
0.0
 40
0.0
 40
0.1141236058
 40
0.2373475862
 40
0.3669728832
 40
0.5000004526
 40
0.6330279586
 40
0.7626530685
 40
0.8858767805
 40
1.0
 40
1.0
 40
1.0
 40
1.0
 10
20.1357470211
 20
58.7252938054
 30
0.0
 10
20.1720424134
 20
58.7043391249
 30
0.0
 10
20.2514436281
 20
58.6673834807
 30
0.0
 10
20.3807139384
 20
58.6280684522
 30
0.0
 10
20.5206929281
 20
58.6038983449
 30
0.0
 10
20.6660779283
 20
58.5957243697
 30
0.0
 10
20.8114628221
 20
58.6038990184
 30
0.0
 10
20.9514415079
 20
58.6280697802
 30
0.0
 10
21.0807113058
 20
58.6673854387
 30
0.0
 10
21.1601120746
 20
58.7043414836
 30
0.0
 10
21.1964071929
 20
58.7252963549
 30
0.0
  0
SPLINE
  5
3CF
100
AcDbEntity
  8
0
100
AcDbSpline
 62
7
  6
BYLAYER
 70
0
 71
3
 72
19
 73
15
 74
0
 42
0.0000001
 43
0.0000001
 44
0.0000000001
 40
0.0
 40
0.0
 40
0.0
 40
0.0
 40
0.0623756282
 40
0.1288279755
 40
0.2703538627
 40
0.4174386133
 40
0.5617141092
 40
0.6953248626
 40
0.7563185235
 40
0.8127987915
 40
0.8647396926
 40
0.9125506549
 40
0.9571596655
 40
1.0
 40
1.0
 40
1.0
 40
1.0
 10
39.1890246975
 20
50.8389750577
 30
0.0
 10
39.1601737487
 20
50.8556317839
 30
0.0
 10
39.0982709515
 20
50.8861167545
 30
0.0
 10
38.962328145
 20
50.9354253534
 30
0.0
 10
38.7752022767
 20
50.9728392481
 30
0.0
 10
38.5430598198
 20
50.9792445602
 30
0.0
 10
38.3172424766
 20
50.947541518
 30
0.0
 10
38.1442044499
 20
50.8897504538
 30
0.0
 10
38.0261135588
 20
50.825542089
 30
0.0
 10
37.9527994611
 20
50.7719755468
 30
0.0
 10
37.8936443932
 20
50.7125624472
 30
0.0
 10
37.8499878712
 20
50.6483643845
 30
0.0
 10
37.8230894761
 20
50.5806393941
 30
0.0
 10
37.8169669258
 20
50.5337339278
 30
0.0
 10
37.8169760148
 20
50.5108534601
 30
0.0
  0
SPLINE
  5
3D0
100
AcDbEntity
  8
_1
100
AcDbSpline
 62
7
  6
BYLAYER
 70
0
 71
3
 72
11
 73
7
 74
0
 42
0.0000001
 43
0.0000001
 44
0.0000000001
 40
0.0
 40
0.0
 40
0.0
 40
0.0
 40
0.2895421522
 40
0.5491196247
 40
0.782256727
 40
1.0
 40
1.0
 40
1.0
 40
1.0
 10
7.9381142718
 20
63.7670456637
 30
0.0
 10
7.9074165649
 20
63.7847685921
 30
0.0
 10
7.8517103612
 20
63.82317934
 30
0.0
 10
7.7850746432
 20
63.8931348698
 30
0.0
 10
7.7429150747
 20
63.9705832447
 30
0.0
 10
7.733126119
 20
64.0261599073
 30
0.0
 10
7.7331261249
 20
64.0528165712
 30
0.0
  0
SPLINE
  5
3D1
100
AcDbEntity
  8
_1
100
AcDbSpline
 62
7
  6
BYLAYER
 70
0
 71
3
 72
11
 73
7
 74
0
 42
0.0000001
 43
0.0000001
 44
0.0000000001
 40
0.0
 40
0.0
 40
0.0
 40
0.0
 40
0.2895416688
 40
0.549118971
 40
0.7822562702
 40
1.0
 40
1.0
 40
1.0
 40
1.0
 10
7.9381101503
 20
64.7468363082
 30
0.0
 10
7.9074130179
 20
64.7291134163
 30
0.0
 10
7.8517078725
 20
64.690702815
 30
0.0
 10
7.7850735054
 20
64.6207478039
 30
0.0
 10
7.7429148492
 20
64.5433001784
 30
0.0
 10
7.7331261167
 20
64.4877241567
 30
0.0
 10
7.7331261249
 20
64.4610677803
 30
0.0
  0
SPLINE
  5
3D2
100
AcDbEntity
  8
_1
100
AcDbSpline
 62
7
  6
BYLAYER
 70
0
 71
3
 72
13
 73
9
 74
0
 42
0.0000001
 43
0.0000001
 44
0.0000000001
 40
0.0
 40
0.0
 40
0.0
 40
0.0
 40
0.1141762243
 40
0.2375705078
 40
0.5000006893
 40
0.7624304955
 40
0.8858242827
 40
1.0
 40
1.0
 40
1.0
 40
1.0
 10
14.5848903416
 20
68.0127919187
 30
0.0
 10
14.5510294952
 20
68.0323410452
 30
0.0
 10
14.4769043642
 20
68.0668151966
 30
0.0
 10
14.3127029416
 20
68.116771679
 30
0.0
 10
14.0899146734
 20
68.1409097446
 30
0.0
 10
13.8671266934
 20
68.1167705805
 30
0.0
 10
13.7029259881
 20
68.0668133437
 30
0.0
 10
13.6288014031
 20
68.032338823
 30
0.0
 10
13.594940848
 20
68.0127895391
 30
0.0
  0
SPLINE
  5
3D3
100
AcDbEntity
  8
_1
100
AcDbSpline
 62
7
  6
BYLAYER
 70
0
 71
3
 72
11
 73
7
 74
0
 42
0.0000001
 43
0.0000001
 44
0.0000000001
 40
0.0
 40
0.0
 40
0.0
 40
0.0
 40
0.2177434119
 40
0.4508805377
 40
0.710457812
 40
1.0
 40
1.0
 40
1.0
 40
1.0
 10
7.7331261249
 20
64.4610677803
 30
0.0
 10
7.7331261332
 20
64.434411099
 30
0.0
 10
7.7429150713
 20
64.3788344121
 30
0.0
 10
7.7850746774
 20
64.3013860597
 30
0.0
 10
7.8517103461
 20
64.2314305085
 30
0.0
 10
7.9074165606
 20
64.1930198032
 30
0.0
 10
7.9381142718
 20
64.1752968723
 30
0.0
  0
SPLINE
  5
3D4
100
AcDbEntity
  8
_1
100
AcDbSpline
 62
7
  6
BYLAYER
 70
0
 71
3
 72
11
 73
7
 74
0
 42
0.0000001
 43
0.0000001
 44
0.0000000001
 40
0.0
 40
0.0
 40
0.0
 40
0.0
 40
0.249985569
 40
0.5003320877
 40
0.7503150073
 40
1.0
 40
1.0
 40
1.0
 40
1.0
 10
56.2928926311
 20
37.2884868196
 30
0.0
 10
56.3406477039
 20
37.3160580592
 30
0.0
 10
56.427510077
 20
37.3878021961
 30
0.0
 10
56.5175254033
 20
37.5296961056
 30
0.0
 10
56.5602870732
 20
37.6922953868
 30
0.0
 10
56.5520602151
 20
37.8047224534
 30
0.0
 10
56.5386712448
 20
37.8581466795
 30
0.0
  0
SPLINE
  5
3D5
100
AcDbEntity
  8
_1
100
AcDbSpline
 62
7
  6
BYLAYER
 70
0
 71
3
 72
9
 73
5
 74
0
 42
0.0000001
 43
0.0000001
 44
0.0000000001
 40
0.0
 40
0.0
 40
0.0
 40
0.0
 40
0.4997972922
 40
1.0
 40
1.0
 40
1.0
 40
1.0
 10
56.5386712448
 20
37.8581466795
 30
0.0
 10
56.5234789229
 20
37.9187665798
 30
0.0
 10
56.4686431297
 20
38.0353140258
 30
0.0
 10
56.3720555429
 20
38.1207669729
 30
0.0
 10
56.3178893966
 20
38.1520391046
 30
0.0
  0
SPLINE
  5
3D6
100
AcDbEntity
  8
_1
100
AcDbSpline
 62
7
  6
BYLAYER
 70
0
 71
3
 72
15
 73
11
 74
0
 42
0.0000001
 43
0.0000001
 44
0.0000000001
 40
0.0
 40
0.0
 40
0.0
 40
0.0
 40
0.1249418198
 40
0.2501477384
 40
0.3752646495
 40
0.5002146453
 40
0.625084319
 40
0.7499842467
 40
0.8749848332
 40
1.0
 40
1.0
 40
1.0
 40
1.0
 10
56.7878653171
 20
35.9412528931
 30
0.0
 10
56.8253504387
 20
35.9628948089
 30
0.0
 10
56.8949766612
 20
36.0163558403
 30
0.0
 10
56.976121941
 20
36.1194975564
 30
0.0
 10
57.0301879116
 20
36.2391577597
 30
0.0
 10
57.0533216294
 20
36.3683870049
 30
0.0
 10
57.0424442042
 20
36.4992837373
 30
0.0
 10
56.997007707
 20
36.6226633666
 30
0.0
 10
56.9196750083
 20
36.7290070443
 30
0.0
 10
56.850369366
 20
36.7831508278
 30
0.0
 10
56.8128620826
 20
36.804805178
 30
0.0
  0
SPLINE
  5
3D7
100
AcDbEntity
  8
_1
100
AcDbSpline
 62
7
  6
BYLAYER
 70
0
 71
3
 72
11
 73
7
 74
0
 42
0.0000001
 43
0.0000001
 44
0.0000000001
 40
0.0
 40
0.0
 40
0.0
 40
0.0
 40
0.2499678654
 40
0.5000994174
 40
0.7501400283
 40
1.0
 40
1.0
 40
1.0
 40
1.0
 10
56.3128705662
 20
35.9387748764
 30
0.0
 10
56.3486696574
 20
35.918106729
 30
0.0
 10
56.4262263828
 20
35.8862213905
 30
0.0
 10
56.5507205442
 20
35.8706527828
 30
0.0
 10
56.6749107111
 20
35.8881395617
 30
0.0
 10
56.7520818268
 20
35.9205934086
 30
0.0
 10
56.7878653171
 20
35.9412528931
 30
0.0
  0
SPLINE
  5
3D8
100
AcDbEntity
  8
_1
100
AcDbSpline
 62
7
  6
BYLAYER
 70
0
 71
3
 72
15
 73
11
 74
0
 42
0.0000001
 43
0.0000001
 44
0.0000000001
 40
0.0
 40
0.0
 40
0.0
 40
0.0
 40
0.1249418198
 40
0.2501477384
 40
0.3752646495
 40
0.5002146453
 40
0.625084319
 40
0.7499842467
 40
0.8749848332
 40
1.0
 40
1.0
 40
1.0
 40
1.0
 10
54.3837122706
 20
34.5532227699
 30
0.0
 10
54.4211973921
 20
34.5748646857
 30
0.0
 10
54.4908236147
 20
34.6283257171
 30
0.0
 10
54.5719688945
 20
34.7314674332
 30
0.0
 10
54.6260348651
 20
34.8511276365
 30
0.0
 10
54.6491685829
 20
34.9803568818
 30
0.0
 10
54.6382911576
 20
35.1112536141
 30
0.0
 10
54.5928546604
 20
35.2346332435
 30
0.0
 10
54.5155219618
 20
35.3409769212
 30
0.0
 10
54.4462163195
 20
35.3951207046
 30
0.0
 10
54.4087090361
 20
35.4167750549
 30
0.0
  0
SPLINE
  5
3D9
100
AcDbEntity
  8
_1
100
AcDbSpline
 62
7
  6
BYLAYER
 70
0
 71
3
 72
11
 73
7
 74
0
 42
0.0000001
 43
0.0000001
 44
0.0000000001
 40
0.0
 40
0.0
 40
0.0
 40
0.0
 40
0.2499678654
 40
0.5000994174
 40
0.7501400283
 40
1.0
 40
1.0
 40
1.0
 40
1.0
 10
53.9087175196
 20
34.5507447532
 30
0.0
 10
53.9445166109
 20
34.5300766058
 30
0.0
 10
54.0220733362
 20
34.4981912673
 30
0.0
 10
54.1465674977
 20
34.4826226596
 30
0.0
 10
54.2707576646
 20
34.5001094386
 30
0.0
 10
54.3479287803
 20
34.5325632855
 30
0.0
 10
54.3837122706
 20
34.5532227699
 30
0.0
  0
SPLINE
  5
3DA
100
AcDbEntity
  8
_1
100
AcDbSpline
 62
7
  6
BYLAYER
 70
0
 71
3
 72
15
 73
11
 74
0
 42
0.0000001
 43
0.0000001
 44
0.0000000001
 40
0.0
 40
0.0
 40
0.0
 40
0.0
 40
0.1249418198
 40
0.2501477384
 40
0.3752646495
 40
0.5002146453
 40
0.625084319
 40
0.7499842467
 40
0.8749848332
 40
1.0
 40
1.0
 40
1.0
 40
1.0
 10
54.8786849566
 20
36.4719985119
 30
0.0
 10
54.9161700782
 20
36.4936404277
 30
0.0
 10
54.9857963007
 20
36.5471014591
 30
0.0
 10
55.0669415805
 20
36.6502431752
 30
0.0
 10
55.1210075511
 20
36.7699033785
 30
0.0
 10
55.1441412689
 20
36.8991326237
 30
0.0
 10
55.1332638437
 20
37.0300293561
 30
0.0
 10
55.0878273465
 20
37.1534089854
 30
0.0
 10
55.0104946479
 20
37.2597526632
 30
0.0
 10
54.9411890055
 20
37.3138964466
 30
0.0
 10
54.9036817222
 20
37.3355507968
 30
0.0
  0
SPLINE
  5
3DB
100
AcDbEntity
  8
_1
100
AcDbSpline
 62
7
  6
BYLAYER
 70
0
 71
3
 72
11
 73
7
 74
0
 42
0.0000001
 43
0.0000001
 44
0.0000000001
 40
0.0
 40
0.0
 40
0.0
 40
0.0
 40
0.2499678654
 40
0.5000994174
 40
0.7501400283
 40
1.0
 40
1.0
 40
1.0
 40
1.0
 10
54.4036902057
 20
36.4695204952
 30
0.0
 10
54.4394892969
 20
36.4488523478
 30
0.0
 10
54.5170460223
 20
36.4169670093
 30
0.0
 10
54.6415401837
 20
36.4013984016
 30
0.0
 10
54.7657303506
 20
36.4188851805
 30
0.0
 10
54.8429014663
 20
36.4513390274
 30
0.0
 10
54.8786849566
 20
36.4719985119
 30
0.0
  0
SPLINE
  5
3DC
100
AcDbEntity
  8
_1
100
AcDbSpline
 62
7
  6
BYLAYER
 70
0
 71
3
 72
11
 73
7
 74
0
 42
0.0000001
 43
0.0000001
 44
0.0000000001
 40
0.0
 40
0.0
 40
0.0
 40
0.0
 40
0.2499678654
 40
0.5000994174
 40
0.7501400283
 40
1.0
 40
1.0
 40
1.0
 40
1.0
 10
55.8178978801
 20
37.2860088029
 30
0.0
 10
55.8536969714
 20
37.2653406555
 30
0.0
 10
55.9312536967
 20
37.233455317
 30
0.0
 10
56.0557478581
 20
37.2178867093
 30
0.0
 10
56.1799380251
 20
37.2353734883
 30
0.0
 10
56.2571091408
 20
37.2678273352
 30
0.0
 10
56.2928926311
 20
37.2884868196
 30
0.0
  0
SPLINE
  5
3DD
100
AcDbEntity
  8
_1
100
AcDbSpline
 62
7
  6
BYLAYER
 70
0
 71
3
 72
11
 73
7
 74
0
 42
0.0000001
 43
0.0000001
 44
0.0000000001
 40
0.0
 40
0.0
 40
0.0
 40
0.0
 40
0.2177035337
 40
0.4508917127
 40
0.7106098311
 40
1.0
 40
1.0
 40
1.0
 40
1.0
 10
54.4087000485
 20
35.4167594964
 30
0.0
 10
54.3922206736
 20
35.4262898581
 30
0.0
 10
54.3543312811
 20
35.4400519574
 30
0.0
 10
54.2913572933
 20
35.4416601268
 30
0.0
 10
54.2242891227
 20
35.4253824087
 30
0.0
 10
54.1806283158
 20
35.4046636901
 30
0.0
 10
54.1587132779
 20
35.3920111126
 30
0.0
  0
SPLINE
  5
3DE
100
AcDbEntity
  8
_1
100
AcDbSpline
 62
7
  6
BYLAYER
 70
0
 71
3
 72
17
 73
13
 74
0
 42
0.0000001
 43
0.0000001
 44
0.0000000001
 40
0.0
 40
0.0
 40
0.0
 40
0.0
 40
0.1286479649
 40
0.2702949147
 40
0.4174211281
 40
0.5617711158
 40
0.6954408778
 40
0.8127123509
 40
0.8646705088
 40
0.9125113228
 40
0.957136975
 40
1.0
 40
1.0
 40
1.0
 40
1.0
 10
56.0678936384
 20
38.1272751623
 30
0.0
 10
56.030893702
 20
38.1059133666
 30
0.0
 10
55.9590589303
 20
38.0506099707
 30
0.0
 10
55.8670781173
 20
37.9460214853
 30
0.0
 10
55.7914147855
 20
37.8228871075
 30
0.0
 10
55.7382255948
 20
37.691314199
 30
0.0
 10
55.7118456818
 20
37.5619352631
 30
0.0
 10
55.7141794281
 20
37.4599837437
 30
0.0
 10
55.7330874616
 20
37.3900739352
 30
0.0
 10
55.7540688279
 20
37.3465707263
 30
0.0
 10
55.7822193219
 20
37.3110309207
 30
0.0
 10
55.8055844003
 20
37.293150698
 30
0.0
 10
55.8179068677
 20
37.2860243614
 30
0.0
  0
SPLINE
  5
3DF
100
AcDbEntity
  8
_1
100
AcDbSpline
 62
7
  6
BYLAYER
 70
0
 71
3
 72
11
 73
7
 74
0
 42
0.0000001
 43
0.0000001
 44
0.0000000001
 40
0.0
 40
0.0
 40
0.0
 40
0.0
 40
0.2177035337
 40
0.4508917127
 40
0.7106098311
 40
1.0
 40
1.0
 40
1.0
 40
1.0
 10
56.812853095
 20
36.8047896195
 30
0.0
 10
56.7963737201
 20
36.8143199813
 30
0.0
 10
56.7584843276
 20
36.8280820806
 30
0.0
 10
56.6955103399
 20
36.8296902499
 30
0.0
 10
56.6284421692
 20
36.8134125318
 30
0.0
 10
56.5847813624
 20
36.7926938133
 30
0.0
 10
56.5628663244
 20
36.7800412358
 30
0.0
  0
SPLINE
  5
3E0
100
AcDbEntity
  8
_1
100
AcDbSpline
 62
7
  6
BYLAYER
 70
0
 71
3
 72
17
 73
13
 74
0
 42
0.0000001
 43
0.0000001
 44
0.0000000001
 40
0.0
 40
0.0
 40
0.0
 40
0.0
 40
0.1286479649
 40
0.2702949147
 40
0.4174211281
 40
0.5617711158
 40
0.6954408778
 40
0.8127123509
 40
0.8646705088
 40
0.9125113228
 40
0.957136975
 40
1.0
 40
1.0
 40
1.0
 40
1.0
 10
54.6536859639
 20
37.3107868546
 30
0.0
 10
54.6166860276
 20
37.2894250589
 30
0.0
 10
54.5448512558
 20
37.2341216629
 30
0.0
 10
54.4528704429
 20
37.1295331776
 30
0.0
 10
54.377207111
 20
37.0063987998
 30
0.0
 10
54.3240179204
 20
36.8748258913
 30
0.0
 10
54.2976380074
 20
36.7454469553
 30
0.0
 10
54.2999717536
 20
36.643495436
 30
0.0
 10
54.3188797872
 20
36.5735856274
 30
0.0
 10
54.3398611534
 20
36.5300824186
 30
0.0
 10
54.3680116475
 20
36.4945426129
 30
0.0
 10
54.3913767259
 20
36.4766623902
 30
0.0
 10
54.4036991933
 20
36.4695360537
 30
0.0
  0
SPLINE
  5
3E1
100
AcDbEntity
  8
_1
100
AcDbSpline
 62
7
  6
BYLAYER
 70
0
 71
3
 72
15
 73
11
 74
0
 42
0.0000001
 43
0.0000001
 44
0.0000000001
 40
0.0
 40
0.0
 40
0.0
 40
0.0
 40
0.1384990873
 40
0.2926842815
 40
0.4463234688
 40
0.5848339807
 40
0.6991512852
 40
0.7924147563
 40
0.886107374
 40
1.0
 40
1.0
 40
1.0
 40
1.0
 10
54.9718853402
 20
36.7596524273
 30
0.0
 10
54.9668771203
 20
36.7567609474
 30
0.0
 10
54.957407763
 20
36.7487231944
 30
0.0
 10
54.9462732207
 20
36.7336256173
 30
0.0
 10
54.9386873557
 20
36.7164055356
 30
0.0
 10
54.9357610845
 20
36.6995122755
 30
0.0
 10
54.9376930198
 20
36.6848080902
 30
0.0
 10
54.9461108224
 20
36.6741740171
 30
0.0
 10
54.9594929311
 20
36.6722700358
 30
0.0
 10
54.9677669064
 20
36.6756244209
 30
0.0
 10
54.9718853402
 20
36.6780021856
 30
0.0
  0
SPLINE
  5
3E2
100
AcDbEntity
  8
_1
100
AcDbSpline
 62
7
  6
BYLAYER
 70
0
 71
3
 72
15
 73
11
 74
0
 42
0.0000001
 43
0.0000001
 44
0.0000000001
 40
0.0
 40
0.0
 40
0.0
 40
0.0
 40
0.1384990873
 40
0.2926842815
 40
0.4463234688
 40
0.5848339807
 40
0.6991512852
 40
0.7924147563
 40
0.886107374
 40
1.0
 40
1.0
 40
1.0
 40
1.0
 10
54.9718853402
 20
36.6780021856
 30
0.0
 10
54.9768935602
 20
36.6808936655
 30
0.0
 10
54.9863629175
 20
36.6889314185
 30
0.0
 10
54.9974974598
 20
36.7040289956
 30
0.0
 10
55.0050833247
 20
36.7212490773
 30
0.0
 10
55.008009596
 20
36.7381423374
 30
0.0
 10
55.0060776607
 20
36.7528465228
 30
0.0
 10
54.9976598581
 20
36.7634805959
 30
0.0
 10
54.9842777494
 20
36.7653845772
 30
0.0
 10
54.976003774
 20
36.762030192
 30
0.0
 10
54.9718853402
 20
36.7596524273
 30
0.0
  0
SPLINE
  5
3E3
100
AcDbEntity
  8
_1
100
AcDbSpline
 62
7
  6
BYLAYER
 70
0
 71
3
 72
17
 73
13
 74
0
 42
0.0000001
 43
0.0000001
 44
0.0000000001
 40
0.0
 40
0.0
 40
0.0
 40
0.0
 40
0.1286479649
 40
0.2702949147
 40
0.4174211281
 40
0.5617711158
 40
0.6954408778
 40
0.8127123509
 40
0.8646705088
 40
0.9125113228
 40
0.957136975
 40
1.0
 40
1.0
 40
1.0
 40
1.0
 10
54.1587132779
 20
35.3920111126
 30
0.0
 10
54.1217133415
 20
35.3706493169
 30
0.0
 10
54.0498785698
 20
35.315345921
 30
0.0
 10
53.9578977569
 20
35.2107574356
 30
0.0
 10
53.882234425
 20
35.0876230578
 30
0.0
 10
53.8290452343
 20
34.9560501493
 30
0.0
 10
53.8026653213
 20
34.8266712133
 30
0.0
 10
53.8049990676
 20
34.724719694
 30
0.0
 10
53.8239071011
 20
34.6548098855
 30
0.0
 10
53.8448884674
 20
34.6113066766
 30
0.0
 10
53.8730389615
 20
34.575766871
 30
0.0
 10
53.8964040399
 20
34.5578866483
 30
0.0
 10
53.9087265072
 20
34.5507603117
 30
0.0
  0
SPLINE
  5
3E4
100
AcDbEntity
  8
_1
100
AcDbSpline
 62
7
  6
BYLAYER
 70
0
 71
3
 72
15
 73
11
 74
0
 42
0.0000001
 43
0.0000001
 44
0.0000000001
 40
0.0
 40
0.0
 40
0.0
 40
0.0
 40
0.1384990873
 40
0.2926842815
 40
0.4463234688
 40
0.5848339807
 40
0.6991512852
 40
0.7924147563
 40
0.886107374
 40
1.0
 40
1.0
 40
1.0
 40
1.0
 10
54.4769126542
 20
34.8408766854
 30
0.0
 10
54.4719044342
 20
34.8379852055
 30
0.0
 10
54.462435077
 20
34.8299474525
 30
0.0
 10
54.4513005346
 20
34.8148498753
 30
0.0
 10
54.4437146697
 20
34.7976297937
 30
0.0
 10
54.4407883985
 20
34.7807365336
 30
0.0
 10
54.4427203337
 20
34.7660323482
 30
0.0
 10
54.4511381364
 20
34.7553982751
 30
0.0
 10
54.464520245
 20
34.7534942938
 30
0.0
 10
54.4727942204
 20
34.756848679
 30
0.0
 10
54.4769126542
 20
34.7592264436
 30
0.0
  0
SPLINE
  5
3E5
100
AcDbEntity
  8
_1
100
AcDbSpline
 62
7
  6
BYLAYER
 70
0
 71
3
 72
15
 73
11
 74
0
 42
0.0000001
 43
0.0000001
 44
0.0000000001
 40
0.0
 40
0.0
 40
0.0
 40
0.0
 40
0.1384990873
 40
0.2926842815
 40
0.4463234688
 40
0.5848339807
 40
0.6991512852
 40
0.7924147563
 40
0.886107374
 40
1.0
 40
1.0
 40
1.0
 40
1.0
 10
54.4769126542
 20
34.7592264436
 30
0.0
 10
54.4819208742
 20
34.7621179235
 30
0.0
 10
54.4913902314
 20
34.7701556765
 30
0.0
 10
54.5025247738
 20
34.7852532537
 30
0.0
 10
54.5101106387
 20
34.8024733353
 30
0.0
 10
54.5130369099
 20
34.8193665954
 30
0.0
 10
54.5111049747
 20
34.8340707808
 30
0.0
 10
54.502687172
 20
34.8447048539
 30
0.0
 10
54.4893050633
 20
34.8466088352
 30
0.0
 10
54.481031088
 20
34.84325445
 30
0.0
 10
54.4769126542
 20
34.8408766854
 30
0.0
  0
SPLINE
  5
3E6
100
AcDbEntity
  8
_1
100
AcDbSpline
 62
7
  6
BYLAYER
 70
0
 71
3
 72
17
 73
13
 74
0
 42
0.0000001
 43
0.0000001
 44
0.0000000001
 40
0.0
 40
0.0
 40
0.0
 40
0.0
 40
0.1286479649
 40
0.2702949147
 40
0.4174211281
 40
0.5617711158
 40
0.6954408778
 40
0.8127123509
 40
0.8646705088
 40
0.9125113228
 40
0.957136975
 40
1.0
 40
1.0
 40
1.0
 40
1.0
 10
56.5628663244
 20
36.7800412358
 30
0.0
 10
56.525866388
 20
36.7586794401
 30
0.0
 10
56.4540316163
 20
36.7033760441
 30
0.0
 10
56.3620508034
 20
36.5987875588
 30
0.0
 10
56.2863874715
 20
36.475653181
 30
0.0
 10
56.2331982809
 20
36.3440802724
 30
0.0
 10
56.2068183678
 20
36.2147013365
 30
0.0
 10
56.2091521141
 20
36.1127498172
 30
0.0
 10
56.2280601477
 20
36.0428400086
 30
0.0
 10
56.2490415139
 20
35.9993367997
 30
0.0
 10
56.277192008
 20
35.9637969941
 30
0.0
 10
56.3005570864
 20
35.9459167714
 30
0.0
 10
56.3128795538
 20
35.9387904349
 30
0.0
  0
SPLINE
  5
3E7
100
AcDbEntity
  8
_1
100
AcDbSpline
 62
7
  6
BYLAYER
 70
0
 71
3
 72
11
 73
7
 74
0
 42
0.0000001
 43
0.0000001
 44
0.0000000001
 40
0.0
 40
0.0
 40
0.0
 40
0.0
 40
0.2177035337
 40
0.4508917127
 40
0.7106098311
 40
1.0
 40
1.0
 40
1.0
 40
1.0
 10
54.9036727346
 20
37.3355352383
 30
0.0
 10
54.8871933596
 20
37.3450656001
 30
0.0
 10
54.8493039671
 20
37.3588276994
 30
0.0
 10
54.7863299794
 20
37.3604358687
 30
0.0
 10
54.7192618087
 20
37.3441581506
 30
0.0
 10
54.6756010019
 20
37.3234394321
 30
0.0
 10
54.6536859639
 20
37.3107868546
 30
0.0
  0
SPLINE
  5
3E8
100
AcDbEntity
  8
_1
100
AcDbSpline
 62
7
  6
BYLAYER
 70
0
 71
3
 72
15
 73
11
 74
0
 42
0.0000001
 43
0.0000001
 44
0.0000000001
 40
0.0
 40
0.0
 40
0.0
 40
0.0
 40
0.1384990873
 40
0.2926842815
 40
0.4463234688
 40
0.5848339807
 40
0.6991512852
 40
0.7924147563
 40
0.886107374
 40
1.0
 40
1.0
 40
1.0
 40
1.0
 10
56.8810657007
 20
36.2289068085
 30
0.0
 10
56.8760574808
 20
36.2260153286
 30
0.0
 10
56.8665881235
 20
36.2179775756
 30
0.0
 10
56.8554535811
 20
36.2028799985
 30
0.0
 10
56.8478677162
 20
36.1856599168
 30
0.0
 10
56.844941445
 20
36.1687666567
 30
0.0
 10
56.8468733802
 20
36.1540624714
 30
0.0
 10
56.8552911829
 20
36.1434283983
 30
0.0
 10
56.8686732916
 20
36.1415244169
 30
0.0
 10
56.8769472669
 20
36.1448788021
 30
0.0
 10
56.8810657007
 20
36.1472565668
 30
0.0
  0
SPLINE
  5
3E9
100
AcDbEntity
  8
_1
100
AcDbSpline
 62
7
  6
BYLAYER
 70
0
 71
3
 72
15
 73
11
 74
0
 42
0.0000001
 43
0.0000001
 44
0.0000000001
 40
0.0
 40
0.0
 40
0.0
 40
0.0
 40
0.1384990873
 40
0.2926842815
 40
0.4463234688
 40
0.5848339807
 40
0.6991512852
 40
0.7924147563
 40
0.886107374
 40
1.0
 40
1.0
 40
1.0
 40
1.0
 10
56.8810657007
 20
36.1472565668
 30
0.0
 10
56.8860739207
 20
36.1501480467
 30
0.0
 10
56.8955432779
 20
36.1581857997
 30
0.0
 10
56.9066778203
 20
36.1732833768
 30
0.0
 10
56.9142636852
 20
36.1905034585
 30
0.0
 10
56.9171899564
 20
36.2073967186
 30
0.0
 10
56.9152580212
 20
36.222100904
 30
0.0
 10
56.9068402185
 20
36.2327349771
 30
0.0
 10
56.8934581099
 20
36.2346389584
 30
0.0
 10
56.8851841345
 20
36.2312845732
 30
0.0
 10
56.8810657007
 20
36.2289068085
 30
0.0
  0
SPLINE
  5
3EA
100
AcDbEntity
  8
_1
100
AcDbSpline
 62
7
  6
BYLAYER
 70
0
 71
3
 72
15
 73
11
 74
0
 42
0.0000001
 43
0.0000001
 44
0.0000000001
 40
0.0
 40
0.0
 40
0.0
 40
0.0
 40
0.1384990873
 40
0.2926842815
 40
0.4463234688
 40
0.5848339807
 40
0.6991512852
 40
0.7924147563
 40
0.886107374
 40
1.0
 40
1.0
 40
1.0
 40
1.0
 10
56.3860930147
 20
37.5761407351
 30
0.0
 10
56.3810847947
 20
37.5732492552
 30
0.0
 10
56.3716154375
 20
37.5652115022
 30
0.0
 10
56.3604808951
 20
37.5501139251
 30
0.0
 10
56.3528950302
 20
37.5328938434
 30
0.0
 10
56.349968759
 20
37.5160005833
 30
0.0
 10
56.3519006942
 20
37.5012963979
 30
0.0
 10
56.3603184969
 20
37.4906623248
 30
0.0
 10
56.3737006055
 20
37.4887583435
 30
0.0
 10
56.3819745809
 20
37.4921127287
 30
0.0
 10
56.3860930147
 20
37.4944904934
 30
0.0
  0
SPLINE
  5
3EB
100
AcDbEntity
  8
_1
100
AcDbSpline
 62
7
  6
BYLAYER
 70
0
 71
3
 72
15
 73
11
 74
0
 42
0.0000001
 43
0.0000001
 44
0.0000000001
 40
0.0
 40
0.0
 40
0.0
 40
0.0
 40
0.1384990873
 40
0.2926842815
 40
0.4463234688
 40
0.5848339807
 40
0.6991512852
 40
0.7924147563
 40
0.886107374
 40
1.0
 40
1.0
 40
1.0
 40
1.0
 10
56.3860930147
 20
37.4944904934
 30
0.0
 10
56.3911012346
 20
37.4973819732
 30
0.0
 10
56.4005705919
 20
37.5054197263
 30
0.0
 10
56.4117051343
 20
37.5205173034
 30
0.0
 10
56.4192909992
 20
37.537737385
 30
0.0
 10
56.4222172704
 20
37.5546306451
 30
0.0
 10
56.4202853352
 20
37.5693348305
 30
0.0
 10
56.4118675325
 20
37.5799689036
 30
0.0
 10
56.3984854238
 20
37.5818728849
 30
0.0
 10
56.3902114485
 20
37.5785184997
 30
0.0
 10
56.3860930147
 20
37.5761407351
 30
0.0
  0
SPLINE
  5
3EC
100
AcDbEntity
  8
_1
100
AcDbSpline
 62
7
  6
BYLAYER
 70
0
 71
3
 72
11
 73
7
 74
0
 42
0.0000001
 43
0.0000001
 44
0.0000000001
 40
0.0
 40
0.0
 40
0.0
 40
0.0
 40
0.2177035337
 40
0.4508917127
 40
0.7106098311
 40
1.0
 40
1.0
 40
1.0
 40
1.0
 10
56.317880409
 20
38.1520235461
 30
0.0
 10
56.3014010341
 20
38.1615539079
 30
0.0
 10
56.2635116415
 20
38.1753160072
 30
0.0
 10
56.2005376538
 20
38.1769241765
 30
0.0
 10
56.1334694831
 20
38.1606464584
 30
0.0
 10
56.0898086763
 20
38.1399277398
 30
0.0
 10
56.0678936384
 20
38.1272751623
 30
0.0
  0
SPLINE
  5
3ED
100
AcDbEntity
  8
_1
100
AcDbSpline
 62
7
  6
BYLAYER
 70
0
 71
3
 72
11
 73
7
 74
0
 42
0.0000001
 43
0.0000001
 44
0.0000000001
 40
0.0
 40
0.0
 40
0.0
 40
0.0
 40
0.2587560759
 40
0.5131197782
 40
0.7606590475
 40
1.0
 40
1.0
 40
1.0
 40
1.0
 10
8.8399022149
 20
52.865102065
 30
0.0
 10
8.832693857
 20
52.8826656692
 30
0.0
 10
8.8206886169
 20
52.9185203631
 30
0.0
 10
8.8123140792
 20
52.9740649604
 30
0.0
 10
8.8173001323
 20
53.0289662271
 30
0.0
 10
8.8343352983
 20
53.0620711017
 30
0.0
 10
8.8461782571
 20
53.0750373902
 30
0.0
  0
SPLINE
  5
3EE
100
AcDbEntity
  8
_1
100
AcDbSpline
 62
7
  6
BYLAYER
 70
0
 71
3
 72
21
 73
17
 74
0
 42
0.0000001
 43
0.0000001
 44
0.0000000001
 40
0.0
 40
0.0
 40
0.0
 40
0.0
 40
0.0428324328
 40
0.0875500805
 40
0.1355310768
 40
0.1876571238
 40
0.2442987568
 40
0.3054072686
 40
0.3706043539
 40
0.4392514427
 40
0.5833679176
 40
0.7301490211
 40
0.8019973948
 40
0.8714653047
 40
0.9377344491
 40
1.0
 40
1.0
 40
1.0
 40
1.0
 10
42.7792466268
 20
35.7446421515
 30
0.0
 10
42.8336432913
 20
35.7745049636
 30
0.0
 10
42.9532266638
 20
35.8213483646
 30
0.0
 10
43.1496371426
 20
35.8465390958
 30
0.0
 10
43.3600502171
 20
35.8280965025
 30
0.0
 10
43.5798886013
 20
35.7670681728
 30
0.0
 10
43.8048846346
 20
35.6653204292
 30
0.0
 10
44.0306123426
 20
35.5251642866
 30
0.0
 10
44.2524987498
 20
35.3495166402
 30
0.0
 10
44.5417455227
 20
35.0685178959
 30
0.0
 10
44.8628126934
 20
34.6546983973
 30
0.0
 10
45.1131885144
 20
34.1896788992
 30
0.0
 10
45.2622921312
 20
33.7993293733
 30
0.0
 10
45.3437343957
 20
33.5093282445
 30
0.0
 10
45.3937240944
 20
33.2263793602
 30
0.0
 10
45.4059334349
 20
33.0400415566
 30
0.0
 10
45.4059334349
 20
32.9498325897
 30
0.0
  0
SPLINE
  5
3EF
100
AcDbEntity
  8
_1
100
AcDbSpline
 62
7
  6
BYLAYER
 70
0
 71
3
 72
21
 73
17
 74
0
 42
0.0000001
 43
0.0000001
 44
0.0000000001
 40
0.0
 40
0.0
 40
0.0
 40
0.0
 40
0.0428324328
 40
0.0875500805
 40
0.1355310768
 40
0.1876571238
 40
0.2442987568
 40
0.3054072686
 40
0.3706043539
 40
0.4392514427
 40
0.5833679176
 40
0.7301490211
 40
0.8019973948
 40
0.8714653047
 40
0.9377344491
 40
1.0
 40
1.0
 40
1.0
 40
1.0
 10
12.3735284455
 20
51.6659897616
 30
0.0
 10
12.4279251099
 20
51.6958525737
 30
0.0
 10
12.5475084825
 20
51.7426959747
 30
0.0
 10
12.7439189613
 20
51.7678867059
 30
0.0
 10
12.9543320358
 20
51.7494441126
 30
0.0
 10
13.17417042
 20
51.6884157829
 30
0.0
 10
13.3991664533
 20
51.5866680393
 30
0.0
 10
13.6248941613
 20
51.4465118967
 30
0.0
 10
13.8467805685
 20
51.2708642503
 30
0.0
 10
14.1360273414
 20
50.989865506
 30
0.0
 10
14.4570945121
 20
50.5760460074
 30
0.0
 10
14.7074703331
 20
50.1110265093
 30
0.0
 10
14.8565739499
 20
49.7206769834
 30
0.0
 10
14.9380162144
 20
49.4306758546
 30
0.0
 10
14.9880059131
 20
49.1477269703
 30
0.0
 10
15.0002152536
 20
48.9613891667
 30
0.0
 10
15.0002152536
 20
48.8711801998
 30
0.0
  0
SPLINE
  5
3F0
100
AcDbEntity
  8
_1
100
AcDbSpline
 62
7
  6
BYLAYER
 70
0
 71
3
 72
21
 73
17
 74
0
 42
0.0000001
 43
0.0000001
 44
0.0000000001
 40
0.0
 40
0.0
 40
0.0
 40
0.0
 40
0.0428324328
 40
0.0875500805
 40
0.1355310768
 40
0.1876571238
 40
0.2442987568
 40
0.3054072686
 40
0.3706043539
 40
0.4392514427
 40
0.5833679176
 40
0.7301490211
 40
0.8019973948
 40
0.8714653047
 40
0.9377344491
 40
1.0
 40
1.0
 40
1.0
 40
1.0
 10
42.7792466268
 20
29.2126228145
 30
0.0
 10
42.8336432913
 20
29.2424856266
 30
0.0
 10
42.9532266638
 20
29.2893290275
 30
0.0
 10
43.1496371426
 20
29.3145197588
 30
0.0
 10
43.3600502171
 20
29.2960771655
 30
0.0
 10
43.5798886013
 20
29.2350488357
 30
0.0
 10
43.8048846346
 20
29.1333010921
 30
0.0
 10
44.0306123426
 20
28.9931449496
 30
0.0
 10
44.2524987498
 20
28.8174973031
 30
0.0
 10
44.5417455227
 20
28.5364985589
 30
0.0
 10
44.8628126934
 20
28.1226790602
 30
0.0
 10
45.1131885144
 20
27.6576595621
 30
0.0
 10
45.2622921312
 20
27.2673100363
 30
0.0
 10
45.3437343957
 20
26.9773089074
 30
0.0
 10
45.3937240944
 20
26.6943600231
 30
0.0
 10
45.4059334349
 20
26.5080222196
 30
0.0
 10
45.4059334349
 20
26.4178132527
 30
0.0
  0
SPLINE
  5
3F1
100
AcDbEntity
  8
_1
100
AcDbSpline
 62
7
  6
BYLAYER
 70
0
 71
3
 72
11
 73
7
 74
0
 42
0.0000001
 43
0.0000001
 44
0.0000000001
 40
0.0
 40
0.0
 40
0.0
 40
0.0
 40
0.2583466782
 40
0.5185424444
 40
0.7690996593
 40
1.0
 40
1.0
 40
1.0
 40
1.0
 10
45.1034349617
 20
42.1545672509
 30
0.0
 10
45.117965241
 20
42.1942058052
 30
0.0
 10
45.1534914327
 20
42.2715467101
 30
0.0
 10
45.2220907047
 20
42.3773810412
 30
0.0
 10
45.3028720538
 20
42.4683429631
 30
0.0
 10
45.3646127798
 20
42.5180039012
 30
0.0
 10
45.3964247549
 20
42.5382955766
 30
0.0
  0
SPLINE
  5
3F2
100
AcDbEntity
  8
_1
100
AcDbSpline
 62
7
  6
BYLAYER
 70
0
 71
3
 72
11
 73
7
 74
0
 42
0.0000001
 43
0.0000001
 44
0.0000000001
 40
0.0
 40
0.0
 40
0.0
 40
0.0
 40
0.2845766073
 40
0.5435447136
 40
0.7792582353
 40
1.0
 40
1.0
 40
1.0
 40
1.0
 10
51.7973662453
 20
46.2338588097
 30
0.0
 10
51.8165192054
 20
46.2437576503
 30
0.0
 10
51.8546207659
 20
46.2599579425
 30
0.0
 10
51.9126678087
 20
46.2727971326
 30
0.0
 10
51.9674118383
 20
46.2721283363
 30
0.0
 10
52.0011278639
 20
46.2621854488
 30
0.0
 10
52.0162616138
 20
46.2550687414
 30
0.0
  0
SPLINE
  5
3F3
100
AcDbEntity
  8
_1
100
AcDbSpline
 62
7
  6
BYLAYER
 70
0
 71
3
 72
11
 73
7
 74
0
 42
0.0000001
 43
0.0000001
 44
0.0000000001
 40
0.0
 40
0.0
 40
0.0
 40
0.0
 40
0.2279646506
 40
0.4747872301
 40
0.734535443
 40
1.0
 40
1.0
 40
1.0
 40
1.0
 10
10.9786875619
 20
51.1929577695
 30
0.0
 10
10.9786875619
 20
50.9832756038
 30
0.0
 10
11.0198682989
 20
50.5461360404
 30
0.0
 10
11.1826041314
 20
49.8883714437
 30
0.0
 10
11.4420385627
 20
49.2253779814
 30
0.0
 10
11.6720338757
 20
48.7989855538
 30
0.0
 10
11.8006672226
 20
48.5914410769
 30
0.0
  0
SPLINE
  5
3F4
100
AcDbEntity
  8
_1
100
AcDbSpline
 62
7
  6
BYLAYER
 70
0
 71
3
 72
17
 73
13
 74
0
 42
0.0000001
 43
0.0000001
 44
0.0000000001
 40
0.0
 40
0.0
 40
0.0
 40
0.0
 40
0.1558253161
 40
0.3069281942
 40
0.4500096304
 40
0.582441218
 40
0.7026350513
 40
0.8105086584
 40
0.8604595266
 40
0.9082614883
 40
0.9545317504
 40
1.0
 40
1.0
 40
1.0
 40
1.0
 10
11.8006672226
 20
48.5914410769
 30
0.0
 10
11.9161618034
 20
48.4050954445
 30
0.0
 10
12.1637429459
 20
48.0500294987
 30
0.0
 10
12.5829054636
 20
47.5736815691
 30
0.0
 10
13.0327510403
 20
47.17376837
 30
0.0
 10
13.4980874903
 20
46.8642083887
 30
0.0
 10
13.963397514
 20
46.6557993095
 30
0.0
 10
14.3493925615
 20
46.5714087135
 30
0.0
 10
14.6394802907
 20
46.5662297996
 30
0.0
 10
14.841295772
 20
46.5915120049
 30
0.0
 10
15.030812359
 20
46.6456682764
 30
0.0
 10
15.1481599622
 20
46.7010431764
 30
0.0
 10
15.2035568172
 20
46.733033726
 30
0.0
  0
SPLINE
  5
3F5
100
AcDbEntity
  8
_1
100
AcDbSpline
 62
7
  6
BYLAYER
 70
0
 71
3
 72
13
 73
9
 74
0
 42
0.0000001
 43
0.0000001
 44
0.0000000001
 40
0.0
 40
0.0
 40
0.0
 40
0.0
 40
0.2889437943
 40
0.5480431313
 40
0.6676318063
 40
0.7818005714
 40
0.8920104168
 40
1.0
 40
1.0
 40
1.0
 40
1.0
 10
45.4059334349
 20
26.4178132527
 30
0.0
 10
45.4059334349
 20
26.3086185808
 30
0.0
 10
45.3896775322
 20
26.1009109397
 30
0.0
 10
45.3187715903
 20
25.8561970009
 30
0.0
 10
45.2326651752
 20
25.6904262268
 30
0.0
 10
45.1566380429
 20
25.5843832014
 30
0.0
 10
45.0682584451
 20
25.4944196129
 30
0.0
 10
45.0012349986
 20
25.445605803
 30
0.0
 10
44.9663328584
 20
25.4244558061
 30
0.0
  0
SPLINE
  5
3F6
100
AcDbEntity
  8
_1
100
AcDbSpline
 62
7
  6
BYLAYER
 70
0
 71
3
 72
13
 73
9
 74
0
 42
0.0000001
 43
0.0000001
 44
0.0000000001
 40
0.0
 40
0.0
 40
0.0
 40
0.0
 40
0.2889437943
 40
0.5480431313
 40
0.6676318063
 40
0.7818005714
 40
0.8920104168
 40
1.0
 40
1.0
 40
1.0
 40
1.0
 10
15.0002152536
 20
48.8711801998
 30
0.0
 10
15.0002152536
 20
48.761985528
 30
0.0
 10
14.9839593509
 20
48.5542778868
 30
0.0
 10
14.913053409
 20
48.3095639481
 30
0.0
 10
14.8269469938
 20
48.143793174
 30
0.0
 10
14.7509198616
 20
48.0377501486
 30
0.0
 10
14.6625402638
 20
47.9477865601
 30
0.0
 10
14.5955168173
 20
47.8989727501
 30
0.0
 10
14.5606146771
 20
47.8778227532
 30
0.0
  0
SPLINE
  5
3F7
100
AcDbEntity
  8
_1
100
AcDbSpline
 62
7
  6
BYLAYER
 70
0
 71
3
 72
13
 73
9
 74
0
 42
0.0000001
 43
0.0000001
 44
0.0000000001
 40
0.0
 40
0.0
 40
0.0
 40
0.0
 40
0.2889437943
 40
0.5480431313
 40
0.6676318063
 40
0.7818005714
 40
0.8920104168
 40
1.0
 40
1.0
 40
1.0
 40
1.0
 10
45.4059334349
 20
31.3168277554
 30
0.0
 10
45.4059334349
 20
31.2076330836
 30
0.0
 10
45.3896775322
 20
30.9999254424
 30
0.0
 10
45.3187715903
 20
30.7552115037
 30
0.0
 10
45.2326651752
 20
30.5894407296
 30
0.0
 10
45.1566380429
 20
30.4833977042
 30
0.0
 10
45.0682584451
 20
30.3934341157
 30
0.0
 10
45.0012349986
 20
30.3446203057
 30
0.0
 10
44.9663328584
 20
30.3234703088
 30
0.0
  0
SPLINE
  5
3F8
100
AcDbEntity
  8
_1
100
AcDbSpline
 62
7
  6
BYLAYER
 70
0
 71
3
 72
15
 73
11
 74
0
 42
0.0000001
 43
0.0000001
 44
0.0000000001
 40
0.0
 40
0.0
 40
0.0
 40
0.0
 40
0.1184310503
 40
0.2416809816
 40
0.3686406968
 40
0.4979745498
 40
0.627635657
 40
0.7555186783
 40
0.880086422
 40
1.0
 40
1.0
 40
1.0
 40
1.0
 10
52.2409914433
 20
46.1260270956
 30
0.0
 10
52.3194617946
 20
46.0807232421
 30
0.0
 10
52.4723238562
 20
45.9752889417
 30
0.0
 10
52.6812263601
 20
45.7847409881
 30
0.0
 10
52.8707450112
 20
45.5638388909
 30
0.0
 10
53.0368661987
 20
45.31898227
 30
0.0
 10
53.1753288268
 20
45.0566953764
 30
0.0
 10
53.2824394123
 20
44.7839751674
 30
0.0
 10
53.3545616817
 20
44.5076689861
 30
0.0
 10
53.3779310965
 20
44.3213477333
 30
0.0
 10
53.3823611308
 20
44.2297112558
 30
0.0
  0
SPLINE
  5
3F9
100
AcDbEntity
  8
_1
100
AcDbSpline
 62
7
  6
BYLAYER
 70
0
 71
3
 72
11
 73
7
 74
0
 42
0.0000001
 43
0.0000001
 44
0.0000000001
 40
0.0
 40
0.0
 40
0.0
 40
0.0
 40
0.2308688229
 40
0.4714142058
 40
0.7266475095
 40
1.0
 40
1.0
 40
1.0
 40
1.0
 10
48.8836626973
 20
34.449165598
 30
0.0
 10
48.9875613187
 20
34.4031967743
 30
0.0
 10
49.2103903353
 20
34.3319085935
 30
0.0
 10
49.5679325614
 20
34.2929476992
 30
0.0
 10
49.9472350946
 20
34.3199018797
 30
0.0
 10
50.2016460706
 20
34.3790675699
 30
0.0
 10
50.3303938593
 20
34.4180514987
 30
0.0
  0
SPLINE
  5
3FA
100
AcDbEntity
  8
_1
100
AcDbSpline
 62
7
  6
BYLAYER
 70
0
 71
3
 72
13
 73
9
 74
0
 42
0.0000001
 43
0.0000001
 44
0.0000000001
 40
0.0
 40
0.0
 40
0.0
 40
0.0
 40
0.2728212048
 40
0.5268178938
 40
0.6484175581
 40
0.7672029443
 40
0.8839808749
 40
1.0
 40
1.0
 40
1.0
 40
1.0
 10
43.9628459416
 20
23.6007143455
 30
0.0
 10
44.1707755646
 20
23.4806688375
 30
0.0
 10
44.5917176953
 20
23.2799801479
 30
0.0
 10
45.1504560101
 20
23.1404925662
 30
0.0
 10
45.5859760803
 20
23.1159375435
 30
0.0
 10
45.9004006346
 20
23.1405428861
 30
0.0
 10
46.2031114439
 20
23.2097729149
 30
0.0
 10
46.3943227844
 20
23.2860840454
 30
0.0
 10
46.4858363911
 20
23.3313620957
 30
0.0
  0
SPLINE
  5
3FB
100
AcDbEntity
  8
_1
100
AcDbSpline
 62
7
  6
BYLAYER
 70
0
 71
3
 72
9
 73
5
 74
0
 42
0.0000001
 43
0.0000001
 44
0.0000000001
 40
0.0
 40
0.0
 40
0.0
 40
0.0
 40
0.2520068962
 40
1.0
 40
1.0
 40
1.0
 40
1.0
 10
54.0859817686
 20
29.6751248658
 30
0.0
 10
54.0869011671
 20
29.656106855
 30
0.0
 10
54.0901068324
 20
29.5806200349
 30
0.0
 10
54.0915235715
 20
29.5050559777
 30
0.0
 10
54.0915235715
 20
29.4485418329
 30
0.0
  0
SPLINE
  5
3FC
100
AcDbEntity
  8
_1
100
AcDbSpline
 62
7
  6
BYLAYER
 70
0
 71
3
 72
13
 73
9
 74
0
 42
0.0000001
 43
0.0000001
 44
0.0000000001
 40
0.0
 40
0.0
 40
0.0
 40
0.0
 40
0.2728219792
 40
0.5268188641
 40
0.6484184186
 40
0.7672035807
 40
0.8839812084
 40
1.0
 40
1.0
 40
1.0
 40
1.0
 10
54.0915235715
 20
29.4485418329
 30
0.0
 10
54.0915235715
 20
29.2084399269
 30
0.0
 10
54.0548573842
 20
28.7435358945
 30
0.0
 10
53.8962880526
 20
28.189894291
 30
0.0
 10
53.6997903194
 20
27.8004344453
 30
0.0
 10
53.5212656849
 20
27.5404307323
 30
0.0
 10
53.3099504095
 20
27.3128851984
 30
0.0
 10
53.1482532106
 20
27.1854444904
 30
0.0
 10
53.063282246
 20
27.1288295628
 30
0.0
  0
SPLINE
  5
3FD
100
AcDbEntity
  8
_1
100
AcDbSpline
 62
7
  6
BYLAYER
 70
0
 71
3
 72
11
 73
7
 74
0
 42
0.0000001
 43
0.0000001
 44
0.0000000001
 40
0.0
 40
0.0
 40
0.0
 40
0.0
 40
0.272917604
 40
0.5280298881
 40
0.7687645377
 40
1.0
 40
1.0
 40
1.0
 40
1.0
 10
54.3695864137
 20
41.4453322581
 30
0.0
 10
54.3385352396
 20
41.5738910716
 30
0.0
 10
54.2620574706
 20
41.8191742093
 30
0.0
 10
54.0963781503
 20
42.1547433457
 30
0.0
 10
53.8858756488
 20
42.4397687909
 30
0.0
 10
53.7149708243
 20
42.5945908873
 30
0.0
 10
53.6244661642
 20
42.6606632747
 30
0.0
  0
SPLINE
  5
3FE
100
AcDbEntity
  8
_1
100
AcDbSpline
 62
7
  6
BYLAYER
 70
0
 71
3
 72
9
 73
5
 74
0
 42
0.0000001
 43
0.0000001
 44
0.0000000001
 40
0.0
 40
0.0
 40
0.0
 40
0.0
 40
0.247392038
 40
1.0
 40
1.0
 40
1.0
 40
1.0
 10
46.874037118
 20
25.5702223711
 30
0.0
 10
46.874037118
 20
25.5869222664
 30
0.0
 10
46.8736164322
 20
25.654425533
 30
0.0
 10
46.8715317437
 20
25.7219172044
 30
0.0
 10
46.8690785681
 20
25.7726618166
 30
0.0
  0
SPLINE
  5
3FF
100
AcDbEntity
  8
_1
100
AcDbSpline
 62
7
  6
BYLAYER
 70
0
 71
3
 72
11
 73
7
 74
0
 42
0.0000001
 43
0.0000001
 44
0.0000000001
 40
0.0
 40
0.0
 40
0.0
 40
0.0
 40
0.2146793416
 40
0.4462629249
 40
0.7067077934
 40
1.0
 40
1.0
 40
1.0
 40
1.0
 10
54.0859614567
 20
29.6751238839
 30
0.0
 10
54.0867996797
 20
29.6577816416
 30
0.0
 10
54.0819469358
 20
29.6211589655
 30
0.0
 10
54.0560686194
 20
29.569294387
 30
0.0
 10
54.0135914086
 20
29.5213407875
 30
0.0
 10
53.9775603789
 20
29.4942823222
 30
0.0
 10
53.9575581097
 20
29.4815321394
 30
0.0
  0
SPLINE
  5
400
100
AcDbEntity
  8
_1
100
AcDbSpline
 62
7
  6
BYLAYER
 70
0
 71
3
 72
9
 73
5
 74
0
 42
0.0000001
 43
0.0000001
 44
0.0000000001
 40
0.0
 40
0.0
 40
0.0
 40
0.0
 40
0.2525196449
 40
1.0
 40
1.0
 40
1.0
 40
1.0
 10
43.8592897813
 20
23.8296074194
 30
0.0
 10
43.8729836392
 20
23.8217014458
 30
0.0
 10
43.9273978752
 20
23.790715523
 30
0.0
 10
43.982555104
 20
23.761032183
 30
0.0
 10
44.024184602
 20
23.7396372232
 30
0.0
  0
SPLINE
  5
401
100
AcDbEntity
  8
_1
100
AcDbSpline
 62
7
  6
BYLAYER
 70
0
 71
3
 72
21
 73
17
 74
0
 42
0.0000001
 43
0.0000001
 44
0.0000000001
 40
0.0
 40
0.0
 40
0.0
 40
0.0
 40
0.1416791063
 40
0.2070277861
 40
0.2689601229
 40
0.327918324
 40
0.3845065002
 40
0.4395005611
 40
0.4938086882
 40
0.5483980172
 40
0.604209376
 40
0.6620851284
 40
0.7226995161
 40
0.7865643707
 40
0.8540276609
 40
1.0
 40
1.0
 40
1.0
 40
1.0
 10
44.024184602
 20
23.7396372232
 30
0.0
 10
44.2045773524
 20
23.6469266254
 30
0.0
 10
44.4805654517
 20
23.5322314107
 30
0.0
 10
44.8561430621
 20
23.4443716177
 30
0.0
 10
45.1218569995
 20
23.4149216211
 30
0.0
 10
45.3766784682
 20
23.4206093208
 30
0.0
 10
45.6183081883
 20
23.4615722146
 30
0.0
 10
45.8443302314
 20
23.5377265463
 30
0.0
 10
46.0524443611
 20
23.6483506719
 30
0.0
 10
46.2404297087
 20
23.7924165669
 30
0.0
 10
46.4064942135
 20
23.968275999
 30
0.0
 10
46.5490430354
 20
24.1741346301
 30
0.0
 10
46.6670662661
 20
24.4078188064
 30
0.0
 10
46.7595744686
 20
24.6672621378
 30
0.0
 10
46.8504047785
 20
25.0543348073
 30
0.0
 10
46.874037118
 20
25.3612542644
 30
0.0
 10
46.874037118
 20
25.5702223711
 30
0.0
  0
SPLINE
  5
402
100
AcDbEntity
  8
_1
100
AcDbSpline
 62
7
  6
BYLAYER
 70
0
 71
3
 72
13
 73
9
 74
0
 42
0.0000001
 43
0.0000001
 44
0.0000000001
 40
0.0
 40
0.0
 40
0.0
 40
0.0
 40
0.2897317127
 40
0.5485673266
 40
0.6678281775
 40
0.7816917133
 40
0.8917764667
 40
1.0
 40
1.0
 40
1.0
 40
1.0
 10
42.3126461276
 20
28.2036831104
 30
0.0
 10
42.3126461276
 20
28.3161688305
 30
0.0
 10
42.3298389575
 20
28.5298070466
 30
0.0
 10
42.4053295541
 20
28.7807474489
 30
0.0
 10
42.4969409775
 20
28.9490423564
 30
0.0
 10
42.5777235448
 20
29.0557030079
 30
0.0
 10
42.6715223263
 20
29.1450384378
 30
0.0
 10
42.7424150152
 20
29.1924029075
 30
0.0
 10
42.7792466268
 20
29.2126228145
 30
0.0
  0
SPLINE
  5
403
100
AcDbEntity
  8
_1
100
AcDbSpline
 62
7
  6
BYLAYER
 70
0
 71
3
 72
13
 73
9
 74
0
 42
0.0000001
 43
0.0000001
 44
0.0000000001
 40
0.0
 40
0.0
 40
0.0
 40
0.0
 40
0.2897317127
 40
0.5485673266
 40
0.6678281775
 40
0.7816917133
 40
0.8917764667
 40
1.0
 40
1.0
 40
1.0
 40
1.0
 10
11.9069279463
 20
50.6570500576
 30
0.0
 10
11.9069279463
 20
50.7695357777
 30
0.0
 10
11.9241207762
 20
50.9831739937
 30
0.0
 10
11.9996113728
 20
51.2341143961
 30
0.0
 10
12.0912227962
 20
51.4024093036
 30
0.0
 10
12.1720053635
 20
51.5090699551
 30
0.0
 10
12.265804145
 20
51.598405385
 30
0.0
 10
12.3366968339
 20
51.6457698546
 30
0.0
 10
12.3735284455
 20
51.6659897616
 30
0.0
  0
SPLINE
  5
404
100
AcDbEntity
  8
_1
100
AcDbSpline
 62
7
  6
BYLAYER
 70
0
 71
3
 72
22
 73
18
 74
0
 42
0.0000001
 43
0.0000001
 44
0.0000000001
 40
0.0
 40
0.0
 40
0.0
 40
0.0
 40
0.0428217463
 40
0.0872927202
 40
0.1348963929
 40
0.1866117371
 40
0.2428809954
 40
0.3037045756
 40
0.3687258172
 40
0.43731466
 40
0.508652653
 40
0.58177514
 40
0.7290567934
 40
0.8012069591
 40
0.8709721194
 40
0.9375111974
 40
1.0
 40
1.0
 40
1.0
 40
1.0
 10
14.5606146771
 20
47.8778227532
 30
0.0
 10
14.5071710519
 20
47.8454369883
 30
0.0
 10
14.3890832529
 20
47.7934087748
 30
0.0
 10
14.1930935433
 20
47.7611323837
 30
0.0
 10
13.9821250154
 20
47.7735803581
 30
0.0
 10
13.7609622924
 20
47.829743187
 30
0.0
 10
13.5339864279
 20
47.9277080132
 30
0.0
 10
13.3057543991
 20
48.0652113627
 30
0.0
 10
13.0809681328
 20
48.2392843554
 30
0.0
 10
12.8642867647
 20
48.4461294531
 30
0.0
 10
12.6603476118
 20
48.6814104099
 30
0.0
 10
12.4108061557
 20
49.0268373646
 30
0.0
 10
12.2056014726
 20
49.4040906157
 30
0.0
 10
12.0535687028
 20
49.7982364155
 30
0.0
 10
11.9704464577
 20
50.0913798441
 30
0.0
 10
11.9194048555
 20
50.3774433894
 30
0.0
 10
11.9069279463
 20
50.5658591329
 30
0.0
 10
11.9069279463
 20
50.6570500576
 30
0.0
  0
SPLINE
  5
405
100
AcDbEntity
  8
_1
100
AcDbSpline
 62
7
  6
BYLAYER
 70
0
 71
3
 72
22
 73
18
 74
0
 42
0.0000001
 43
0.0000001
 44
0.0000000001
 40
0.0
 40
0.0
 40
0.0
 40
0.0
 40
0.0428217463
 40
0.0872927202
 40
0.1348963929
 40
0.1866117371
 40
0.2428809954
 40
0.3037045756
 40
0.3687258172
 40
0.43731466
 40
0.508652653
 40
0.58177514
 40
0.7290567934
 40
0.8012069591
 40
0.8709721194
 40
0.9375111974
 40
1.0
 40
1.0
 40
1.0
 40
1.0
 10
44.9663328584
 20
30.3234703088
 30
0.0
 10
44.9128892332
 20
30.291084544
 30
0.0
 10
44.7948014342
 20
30.2390563304
 30
0.0
 10
44.5988117246
 20
30.2067799393
 30
0.0
 10
44.3878431967
 20
30.2192279138
 30
0.0
 10
44.1666804737
 20
30.2753907426
 30
0.0
 10
43.9397046092
 20
30.3733555688
 30
0.0
 10
43.7114725804
 20
30.5108589183
 30
0.0
 10
43.4866863141
 20
30.684931911
 30
0.0
 10
43.270004946
 20
30.8917770087
 30
0.0
 10
43.0660657931
 20
31.1270579655
 30
0.0
 10
42.8165243371
 20
31.4724849202
 30
0.0
 10
42.6113196539
 20
31.8497381713
 30
0.0
 10
42.4592868841
 20
32.2438839711
 30
0.0
 10
42.376164639
 20
32.5370273997
 30
0.0
 10
42.3251230368
 20
32.823090945
 30
0.0
 10
42.3126461276
 20
33.0115066885
 30
0.0
 10
42.3126461276
 20
33.1026976132
 30
0.0
  0
SPLINE
  5
406
100
AcDbEntity
  8
_1
100
AcDbSpline
 62
7
  6
BYLAYER
 70
0
 71
3
 72
13
 73
9
 74
0
 42
0.0000001
 43
0.0000001
 44
0.0000000001
 40
0.0
 40
0.0
 40
0.0
 40
0.0
 40
0.2897317127
 40
0.5485673266
 40
0.6678281775
 40
0.7816917133
 40
0.8917764667
 40
1.0
 40
1.0
 40
1.0
 40
1.0
 10
42.3126461276
 20
34.7357024474
 30
0.0
 10
42.3126461276
 20
34.8481881676
 30
0.0
 10
42.3298389575
 20
35.0618263836
 30
0.0
 10
42.4053295541
 20
35.312766786
 30
0.0
 10
42.4969409775
 20
35.4810616935
 30
0.0
 10
42.5777235448
 20
35.587722345
 30
0.0
 10
42.6715223263
 20
35.6770577749
 30
0.0
 10
42.7424150152
 20
35.7244222445
 30
0.0
 10
42.7792466268
 20
35.7446421515
 30
0.0
  0
SPLINE
  5
407
100
AcDbEntity
  8
_1
100
AcDbSpline
 62
7
  6
BYLAYER
 70
0
 71
3
 72
9
 73
5
 74
0
 42
0.0000001
 43
0.0000001
 44
0.0000000001
 40
0.0
 40
0.0
 40
0.0
 40
0.0
 40
0.2448301515
 40
1.0
 40
1.0
 40
1.0
 40
1.0
 10
8.8979018182
 20
47.2769015679
 30
0.0
 10
8.8847216609
 20
47.2678391306
 30
0.0
 10
8.8313356093
 20
47.2301749214
 30
0.0
 10
8.779720729
 20
47.1900154718
 30
0.0
 10
8.7417384928
 20
47.1585284586
 30
0.0
  0
SPLINE
  5
408
100
AcDbEntity
  8
_1
100
AcDbSpline
 62
7
  6
BYLAYER
 70
0
 71
3
 72
15
 73
11
 74
0
 42
0.0000001
 43
0.0000001
 44
0.0000000001
 40
0.0
 40
0.0
 40
0.0
 40
0.0
 40
0.1191427577
 40
0.2451270272
 40
0.375581771
 40
0.5077682635
 40
0.6389122564
 40
0.7662564579
 40
0.8872910253
 40
1.0
 40
1.0
 40
1.0
 40
1.0
 10
8.7417384928
 20
47.1585284586
 30
0.0
 10
8.6607188433
 20
47.0913637252
 30
0.0
 10
8.502959334
 20
46.9421654196
 30
0.0
 10
8.2884546047
 20
46.6883322019
 30
0.0
 10
8.0943583335
 20
46.404510892
 30
0.0
 10
7.9264122134
 20
46.0992925641
 30
0.0
 10
7.7899632489
 20
45.7817383741
 30
0.0
 10
7.6886489368
 20
45.4615282148
 30
0.0
 10
7.6260841577
 20
45.148128225
 30
0.0
 10
7.610385893
 20
44.9415213955
 30
0.0
 10
7.610385893
 20
44.8419651967
 30
0.0
  0
SPLINE
  5
409
100
AcDbEntity
  8
_1
100
AcDbSpline
 62
7
  6
BYLAYER
 70
0
 71
3
 72
9
 73
5
 74
0
 42
0.0000001
 43
0.0000001
 44
0.0000000001
 40
0.0
 40
0.0
 40
0.0
 40
0.0
 40
0.2471795865
 40
1.0
 40
1.0
 40
1.0
 40
1.0
 10
7.4639568297
 20
45.0454055219
 30
0.0
 10
7.4639621243
 20
45.0399057509
 30
0.0
 10
7.4651113362
 20
45.0176616522
 30
0.0
 10
7.4708253065
 20
44.9957294057
 30
0.0
 10
7.4771312846
 20
44.9802114004
 30
0.0
  0
SPLINE
  5
40A
100
AcDbEntity
  8
_1
100
AcDbSpline
 62
7
  6
BYLAYER
 70
0
 71
3
 72
9
 73
5
 74
0
 42
0.0000001
 43
0.0000001
 44
0.0000000001
 40
0.0
 40
0.0
 40
0.0
 40
0.0
 40
0.4776920626
 40
1.0
 40
1.0
 40
1.0
 40
1.0
 10
7.4771312846
 20
44.9802114004
 30
0.0
 10
7.4887950994
 20
44.9515086145
 30
0.0
 10
7.5279559656
 20
44.8973383992
 30
0.0
 10
7.5810478406
 20
44.8589031476
 30
0.0
 10
7.6103853626
 20
44.8419655029
 30
0.0
  0
SPLINE
  5
40B
100
AcDbEntity
  8
_1
100
AcDbSpline
 62
7
  6
BYLAYER
 70
0
 71
3
 72
10
 73
6
 74
0
 42
0.0000001
 43
0.0000001
 44
0.0000000001
 40
0.0
 40
0.0
 40
0.0
 40
0.0
 40
0.5201337783
 40
0.7635785986
 40
1.0
 40
1.0
 40
1.0
 40
1.0
 10
8.8683018589
 20
50.2892103251
 30
0.0
 10
8.8351504493
 20
50.3086909684
 30
0.0
 10
8.7899714408
 20
50.3449936046
 30
0.0
 10
8.74778415
 20
50.406165555
 30
0.0
 10
8.733866745
 20
50.4391414323
 30
0.0
 10
8.7288353845
 20
50.4558792671
 30
0.0
  0
SPLINE
  5
40C
100
AcDbEntity
  8
_1
100
AcDbSpline
 62
7
  6
BYLAYER
 70
0
 71
3
 72
9
 73
5
 74
0
 42
0.0000001
 43
0.0000001
 44
0.0000000001
 40
0.0
 40
0.0
 40
0.0
 40
0.0
 40
0.2470962514
 40
1.0
 40
1.0
 40
1.0
 40
1.0
 10
7.7139512119
 20
44.5285723972
 30
0.0
 10
7.7094905108
 20
44.5311492215
 30
0.0
 10
7.6919200441
 20
44.5424005493
 30
0.0
 10
7.6765100376
 20
44.5569483245
 30
0.0
 10
7.6665518429
 20
44.5690816886
 30
0.0
  0
SPLINE
  5
40D
100
AcDbEntity
  8
_1
100
AcDbSpline
 62
7
  6
BYLAYER
 70
0
 71
3
 72
10
 73
6
 74
0
 42
0.0000001
 43
0.0000001
 44
0.0000000001
 40
0.0
 40
0.0
 40
0.0
 40
0.0
 40
0.4591349273
 40
0.7192022606
 40
1.0
 40
1.0
 40
1.0
 40
1.0
 10
7.6665518429
 20
44.5690816886
 30
0.0
 10
7.6471619344
 20
44.592706937
 30
0.0
 10
7.6258036951
 20
44.6373787985
 30
0.0
 10
7.6125710534
 20
44.7026601934
 30
0.0
 10
7.6103853626
 20
44.7387567332
 30
0.0
 10
7.6103853626
 20
44.7574486923
 30
0.0
  0
SPLINE
  5
40E
100
AcDbEntity
  8
_1
100
AcDbSpline
 62
7
  6
BYLAYER
 70
0
 71
3
 72
11
 73
7
 74
0
 42
0.0000001
 43
0.0000001
 44
0.0000000001
 40
0.0
 40
0.0
 40
0.0
 40
0.0
 40
0.2724425674
 40
0.5308592667
 40
0.7719391062
 40
1.0
 40
1.0
 40
1.0
 40
1.0
 10
7.6103853626
 20
56.4691881561
 30
0.0
 10
7.5897578967
 20
56.4810971609
 30
0.0
 10
7.5512329198
 20
56.5074206801
 30
0.0
 10
7.503472693
 20
56.5559357146
 30
0.0
 10
7.4718399811
 20
56.6121099459
 30
0.0
 10
7.4639108696
 20
56.6533719323
 30
0.0
 10
7.4639439847
 20
56.6733102293
 30
0.0
  0
SPLINE
  5
40F
100
AcDbEntity
  8
_1
100
AcDbSpline
 62
7
  6
BYLAYER
 70
0
 71
3
 72
11
 73
7
 74
0
 42
0.0000001
 43
0.0000001
 44
0.0000000001
 40
0.0
 40
0.0
 40
0.0
 40
0.0
 40
0.2206631746
 40
0.455081328
 40
0.7135565651
 40
1.0
 40
1.0
 40
1.0
 40
1.0
 10
52.2409817545
 20
46.1260103168
 30
0.0
 10
52.2256092545
 20
46.1348905872
 30
0.0
 10
52.1906894677
 20
46.1480863185
 30
0.0
 10
52.1326575333
 20
46.1513853702
 30
0.0
 10
52.0706440139
 20
46.1390619948
 30
0.0
 10
52.0299718862
 20
46.1219675183
 30
0.0
 10
52.0094991628
 20
46.1113865833
 30
0.0
  0
SPLINE
  5
410
100
AcDbEntity
  8
_1
100
AcDbSpline
 62
7
  6
BYLAYER
 70
0
 71
3
 72
12
 73
8
 74
0
 42
0.0000001
 43
0.0000001
 44
0.0000000001
 40
0.0
 40
0.0
 40
0.0
 40
0.0
 40
0.2355404834
 40
0.3474290607
 40
0.4609703148
 40
0.7082442943
 40
1.0
 40
1.0
 40
1.0
 40
1.0
 10
7.5563368932
 20
64.052726829
 30
0.0
 10
7.5411702278
 20
64.0313766896
 30
0.0
 10
7.5243394594
 20
63.9945967697
 30
0.0
 10
7.5224404532
 20
63.9428795954
 30
0.0
 10
7.5338649877
 20
63.8910049685
 30
0.0
 10
7.5753534656
 20
63.8286546194
 30
0.0
 10
7.6243506677
 20
63.7926371385
 30
0.0
 10
7.6524440103
 20
63.7764178065
 30
0.0
  0
SPLINE
  5
411
100
AcDbEntity
  8
_1
100
AcDbSpline
 62
7
  6
BYLAYER
 70
0
 71
3
 72
11
 73
7
 74
0
 42
0.0000001
 43
0.0000001
 44
0.0000000001
 40
0.0
 40
0.0
 40
0.0
 40
0.0
 40
0.2176363737
 40
0.4507854624
 40
0.7105217319
 40
1.0
 40
1.0
 40
1.0
 40
1.0
 10
7.4639556109
 20
63.7631266796
 30
0.0
 10
7.4639482139
 20
63.7440962197
 30
0.0
 10
7.4709610941
 20
63.7044120204
 30
0.0
 10
7.5010537376
 20
63.6490781577
 30
0.0
 10
7.5486829037
 20
63.5991276586
 30
0.0
 10
7.5884640331
 20
63.5716712641
 30
0.0
 10
7.6103853626
 20
63.5590152649
 30
0.0
  0
SPLINE
  5
412
100
AcDbEntity
  8
_1
100
AcDbSpline
 62
7
  6
BYLAYER
 70
0
 71
3
 72
14
 73
10
 74
0
 42
0.0000001
 43
0.0000001
 44
0.0000000001
 40
0.0
 40
0.0
 40
0.0
 40
0.0
 40
0.2880344807
 40
0.4212982825
 40
0.5475372965
 40
0.6674062379
 40
0.781870709
 40
0.8922031432
 40
1.0
 40
1.0
 40
1.0
 40
1.0
 10
53.9630973772
 20
29.2553841196
 30
0.0
 10
53.9630973772
 20
29.0247639697
 30
0.0
 10
53.9373163685
 20
28.6859756629
 30
0.0
 10
53.838428928
 20
28.2582052044
 30
0.0
 10
53.7376636634
 20
27.9709012252
 30
0.0
 10
53.6090919281
 20
27.7115299825
 30
0.0
 10
53.453737207
 20
27.4823106326
 30
0.0
 10
53.2727620355
 20
27.2856105017
 30
0.0
 10
53.1351007632
 20
27.1766990475
 30
0.0
 10
53.0632788764
 20
27.1288351204
 30
0.0
  0
SPLINE
  5
413
100
AcDbEntity
  8
_1
100
AcDbSpline
 62
7
  6
BYLAYER
 70
0
 71
3
 72
9
 73
5
 74
0
 42
0.0000001
 43
0.0000001
 44
0.0000000001
 40
0.0
 40
0.0
 40
0.0
 40
0.0
 40
0.25261046
 40
1.0
 40
1.0
 40
1.0
 40
1.0
 10
53.9575581097
 20
29.4815321394
 30
0.0
 10
53.9584779416
 20
29.462505163
 30
0.0
 10
53.9616782936
 20
29.3871632565
 30
0.0
 10
53.9630973772
 20
29.311744299
 30
0.0
 10
53.9630973772
 20
29.2553841196
 30
0.0
  0
SPLINE
  5
414
100
AcDbEntity
  8
_1
100
AcDbSpline
 62
7
  6
BYLAYER
 70
0
 71
3
 72
9
 73
5
 74
0
 42
0.0000001
 43
0.0000001
 44
0.0000000001
 40
0.0
 40
0.0
 40
0.0
 40
0.0
 40
0.25261046
 40
1.0
 40
1.0
 40
1.0
 40
1.0
 10
50.9245424476
 20
27.5481762855
 30
0.0
 10
50.9255080909
 20
27.5282016887
 30
0.0
 10
50.9288678333
 20
27.44910745
 30
0.0
 10
50.9303575931
 20
27.369932323
 30
0.0
 10
50.9303575931
 20
27.3107651783
 30
0.0
  0
SPLINE
  5
415
100
AcDbEntity
  8
_1
100
AcDbSpline
 62
7
  6
BYLAYER
 70
0
 71
3
 72
14
 73
10
 74
0
 42
0.0000001
 43
0.0000001
 44
0.0000000001
 40
0.0
 40
0.0
 40
0.0
 40
0.0
 40
0.1477421088
 40
0.2883524149
 40
0.547488097
 40
0.6673700726
 40
0.7818469903
 40
0.8921914217
 40
1.0
 40
1.0
 40
1.0
 40
1.0
 10
50.9303575931
 20
27.3107651783
 30
0.0
 10
50.9303575931
 20
27.1865947766
 30
0.0
 10
50.9207353866
 20
26.9440339595
 30
0.0
 10
50.8618875288
 20
26.4873995879
 30
0.0
 10
50.7433813644
 20
26.0625756602
 30
0.0
 10
50.5587301889
 20
25.6900329424
 30
0.0
 10
50.3956269536
 20
25.4493823838
 30
0.0
 10
50.2056413777
 20
25.2428896965
 30
0.0
 10
50.0611233939
 20
25.1285531699
 30
0.0
 10
49.9857244862
 20
25.0783054254
 30
0.0
  0
SPLINE
  5
416
100
AcDbEntity
  8
_1
100
AcDbSpline
 62
7
  6
BYLAYER
 70
0
 71
3
 72
12
 73
8
 74
0
 42
0.0000001
 43
0.0000001
 44
0.0000000001
 40
0.0
 40
0.0
 40
0.0
 40
0.0
 40
0.2422812231
 40
0.5066871629
 40
0.7673499012
 40
0.8886024941
 40
1.0
 40
1.0
 40
1.0
 40
1.0
 10
47.5566166193
 20
25.7859689064
 30
0.0
 10
47.5058971332
 20
25.759430836
 30
0.0
 10
47.3912499952
 20
25.7200465649
 30
0.0
 10
47.2102620148
 20
25.6984445132
 30
0.0
 10
47.0566802716
 20
25.7104722231
 30
0.0
 10
46.943642796
 20
25.7398404722
 30
0.0
 10
46.8925150863
 20
25.7606850993
 30
0.0
 10
46.8690785681
 20
25.7726618166
 30
0.0
  0
SPLINE
  5
417
100
AcDbEntity
  8
_1
100
AcDbSpline
 62
7
  6
BYLAYER
 70
0
 71
3
 72
9
 73
5
 74
0
 42
0.0000001
 43
0.0000001
 44
0.0000000001
 40
0.0
 40
0.0
 40
0.0
 40
0.0
 40
0.2473920375
 40
1.0
 40
1.0
 40
1.0
 40
1.0
 10
47.5621558868
 20
25.5598208866
 30
0.0
 10
47.5621558868
 20
25.5784765801
 30
0.0
 10
47.5616859332
 20
25.6538854512
 30
0.0
 10
47.5593570971
 20
25.7292813693
 30
0.0
 10
47.5566166193
 20
25.7859689064
 30
0.0
  0
SPLINE
  5
418
100
AcDbEntity
  8
_1
100
AcDbSpline
 62
7
  6
BYLAYER
 70
0
 71
3
 72
11
 73
7
 74
0
 42
0.0000001
 43
0.0000001
 44
0.0000000001
 40
0.0
 40
0.0
 40
0.0
 40
0.0
 40
0.2478117127
 40
0.4963594584
 40
0.7473250245
 40
1.0
 40
1.0
 40
1.0
 40
1.0
 10
7.5559013382
 20
55.7754785449
 30
0.0
 10
7.5602325759
 20
55.7560903171
 30
0.0
 10
7.5736331669
 20
55.7181576761
 30
0.0
 10
7.6062884058
 20
55.6673496468
 30
0.0
 10
7.649191473
 20
55.6244371908
 30
0.0
 10
7.6824725073
 20
55.6012153612
 30
0.0
 10
7.6999364884
 20
55.5909530637
 30
0.0
  0
SPLINE
  5
419
100
AcDbEntity
  8
_1
100
AcDbSpline
 62
7
  6
BYLAYER
 70
0
 71
3
 72
11
 73
7
 74
0
 42
0.0000001
 43
0.0000001
 44
0.0000000001
 40
0.0
 40
0.0
 40
0.0
 40
0.0
 40
0.2895745379
 40
0.5491039443
 40
0.7822383644
 40
1.0
 40
1.0
 40
1.0
 40
1.0
 10
43.8592897813
 20
23.8296074194
 30
0.0
 10
43.8592897813
 20
23.8042847041
 30
0.0
 10
43.8631482658
 20
23.7561056011
 30
0.0
 10
43.8826337986
 20
23.689903444
 30
0.0
 10
43.9154814434
 20
23.6361620389
 30
0.0
 10
43.9463663655
 20
23.6102565191
 30
0.0
 10
43.9628556305
 20
23.6007311243
 30
0.0
  0
SPLINE
  5
41A
100
AcDbEntity
  8
_1
100
AcDbSpline
 62
7
  6
BYLAYER
 70
0
 71
3
 72
11
 73
7
 74
0
 42
0.0000001
 43
0.0000001
 44
0.0000000001
 40
0.0
 40
0.0
 40
0.0
 40
0.0
 40
0.2598937162
 40
0.5184398659
 40
0.7683424813
 40
1.0
 40
1.0
 40
1.0
 40
1.0
 10
46.6296951481
 20
37.2425242803
 30
0.0
 10
46.6371487394
 20
37.1149815165
 30
0.0
 10
46.6770442208
 20
36.8618305708
 30
0.0
 10
46.7854134265
 20
36.4993601672
 30
0.0
 10
46.9205981554
 20
36.1612267563
 30
0.0
 10
47.0205779639
 20
35.9465731086
 30
0.0
 10
47.0703680374
 20
35.844154541
 30
0.0
  0
SPLINE
  5
41B
100
AcDbEntity
  8
_1
100
AcDbSpline
 62
7
  6
BYLAYER
 70
0
 71
3
 72
15
 73
11
 74
0
 42
0.0000001
 43
0.0000001
 44
0.0000000001
 40
0.0
 40
0.0
 40
0.0
 40
0.0
 40
0.1497481453
 40
0.2912358784
 40
0.4243308639
 40
0.5496001941
 40
0.6680823881
 40
0.7812716751
 40
0.8911390699
 40
1.0
 40
1.0
 40
1.0
 40
1.0
 10
47.7483917976
 20
36.7005790986
 30
0.0
 10
47.7483917976
 20
36.5674471103
 30
0.0
 10
47.7599634107
 20
36.3083186539
 30
0.0
 10
47.815039175
 20
35.9343975821
 30
0.0
 10
47.9071904221
 20
35.5901409307
 30
0.0
 10
48.0354812838
 20
35.2794927048
 30
0.0
 10
48.1988489813
 20
35.0059664871
 30
0.0
 10
48.3957770034
 20
34.7728885169
 30
0.0
 10
48.6241040968
 20
34.5835209837
 30
0.0
 10
48.795156768
 20
34.4883240912
 30
0.0
 10
48.8836626973
 20
34.449165598
 30
0.0
  0
SPLINE
  5
41C
100
AcDbEntity
  8
_1
100
AcDbSpline
 62
7
  6
BYLAYER
 70
0
 71
3
 72
12
 73
8
 74
0
 42
0.0000001
 43
0.0000001
 44
0.0000000001
 40
0.0
 40
0.0
 40
0.0
 40
0.0
 40
0.2653393428
 40
0.3933356657
 40
0.5182517919
 40
0.7611731334
 40
1.0
 40
1.0
 40
1.0
 40
1.0
 10
46.9260893003
 20
38.8285998941
 30
0.0
 10
46.8907001657
 20
38.6897418764
 30
0.0
 10
46.8341915993
 20
38.4849587775
 30
0.0
 10
46.7611953704
 20
38.2147562048
 30
0.0
 10
46.6959211574
 20
37.9550595456
 30
0.0
 10
46.6334986921
 20
37.6328729487
 30
0.0
 10
46.6221704846
 20
37.3712832023
 30
0.0
 10
46.6296951481
 20
37.2425242803
 30
0.0
  0
SPLINE
  5
41D
100
AcDbEntity
  8
_1
100
AcDbSpline
 62
7
  6
BYLAYER
 70
0
 71
3
 72
15
 73
11
 74
0
 42
0.0000001
 43
0.0000001
 44
0.0000000001
 40
0.0
 40
0.0
 40
0.0
 40
0.0
 40
0.2701157648
 40
0.400341891
 40
0.5265309485
 40
0.6487079739
 40
0.7674743362
 40
0.8259877057
 40
0.8842046399
 40
1.0
 40
1.0
 40
1.0
 40
1.0
 10
47.7792043624
 20
40.8251773833
 30
0.0
 10
47.9360313468
 20
41.0804850535
 30
0.0
 10
48.1544892787
 20
41.467266957
 30
0.0
 10
48.4487708466
 20
41.9717653435
 30
0.0
 10
48.6722851267
 20
42.327491672
 30
0.0
 10
48.910967875
 20
42.657958063
 30
0.0
 10
49.1322913711
 20
42.9068742438
 30
0.0
 10
49.3256026553
 20
43.0829543394
 30
0.0
 10
49.5294324318
 20
43.2412877709
 30
0.0
 10
49.6961679513
 20
43.3409254051
 30
0.0
 10
49.8118160966
 20
43.3968187867
 30
0.0
  0
SPLINE
  5
41E
100
AcDbEntity
  8
_1
100
AcDbSpline
 62
7
  6
BYLAYER
 70
0
 71
3
 72
12
 73
8
 74
0
 42
0.0000001
 43
0.0000001
 44
0.0000000001
 40
0.0
 40
0.0
 40
0.0
 40
0.0
 40
0.1113975059
 40
0.2326500988
 40
0.4933128371
 40
0.7577187769
 40
1.0
 40
1.0
 40
1.0
 40
1.0
 10
46.1654579302
 20
40.3272482065
 30
0.0
 10
46.1888944485
 20
40.3152714893
 30
0.0
 10
46.2400221582
 20
40.2944268621
 30
0.0
 10
46.3530596337
 20
40.265058613
 30
0.0
 10
46.506641377
 20
40.2530309031
 30
0.0
 10
46.6876293573
 20
40.2746329549
 30
0.0
 10
46.8022764953
 20
40.3140172259
 30
0.0
 10
46.8529959814
 20
40.3405552963
 30
0.0
  0
SPLINE
  5
41F
100
AcDbEntity
  8
_1
100
AcDbSpline
 62
7
  6
BYLAYER
 70
0
 71
3
 72
11
 73
7
 74
0
 42
0.0000001
 43
0.0000001
 44
0.0000000001
 40
0.0
 40
0.0
 40
0.0
 40
0.0
 40
0.2404206519
 40
0.5032053278
 40
0.7642570671
 40
1.0
 40
1.0
 40
1.0
 40
1.0
 10
45.6085576724
 20
42.4158233503
 30
0.0
 10
45.560485227
 20
42.3851597257
 30
0.0
 10
45.4702051595
 20
42.3045352919
 30
0.0
 10
45.3651030677
 20
42.1553125176
 30
0.0
 10
45.2937715598
 20
41.9885168035
 30
0.0
 10
45.2735092316
 20
41.8706025419
 30
0.0
 10
45.2735092316
 20
41.814692483
 30
0.0
  0
SPLINE
  5
420
100
AcDbEntity
  8
_1
100
AcDbSpline
 62
7
  6
BYLAYER
 70
0
 71
3
 72
15
 73
11
 74
0
 42
0.0000001
 43
0.0000001
 44
0.0000000001
 40
0.0
 40
0.0
 40
0.0
 40
0.0
 40
0.1162991569
 40
0.2407768152
 40
0.3707833243
 40
0.5034753274
 40
0.6356878224
 40
0.7642918818
 40
0.8865484548
 40
1.0
 40
1.0
 40
1.0
 40
1.0
 10
46.8529959814
 20
40.3405552963
 30
0.0
 10
46.8483050908
 20
40.4375876597
 30
0.0
 10
46.8224829207
 20
40.6378675769
 30
0.0
 10
46.7430603861
 20
40.9379696003
 30
0.0
 10
46.6240226389
 20
41.2394367602
 30
0.0
 10
46.4696755251
 20
41.5317015841
 30
0.0
 10
46.2852762607
 20
41.8045927257
 30
0.0
 10
46.0772881468
 20
42.048721614
 30
0.0
 10
45.8529256864
 20
42.2554225842
 30
0.0
 10
45.6906288093
 20
42.3684406293
 30
0.0
 10
45.6085576724
 20
42.4158233503
 30
0.0
  0
SPLINE
  5
421
100
AcDbEntity
  8
_1
100
AcDbSpline
 62
7
  6
BYLAYER
 70
0
 71
3
 72
11
 73
7
 74
0
 42
0.0000001
 43
0.0000001
 44
0.0000000001
 40
0.0
 40
0.0
 40
0.0
 40
0.0
 40
0.2282870526
 40
0.474652005
 40
0.7339753679
 40
1.0
 40
1.0
 40
1.0
 40
1.0
 10
48.8090284176
 20
44.4572845759
 30
0.0
 10
48.9062001327
 20
44.4011837292
 30
0.0
 10
49.0981130326
 20
44.2665674576
 30
0.0
 10
49.3620651421
 20
44.0192595326
 30
0.0
 10
49.6051399356
 20
43.726936271
 30
0.0
 10
49.7466222883
 20
43.5101579896
 30
0.0
 10
49.8118160966
 20
43.3968187867
 30
0.0
  0
SPLINE
  5
422
100
AcDbEntity
  8
_1
100
AcDbSpline
 62
7
  6
BYLAYER
 70
0
 71
3
 72
16
 73
12
 74
0
 42
0.0000001
 43
0.0000001
 44
0.0000000001
 40
0.0
 40
0.0
 40
0.0
 40
0.0
 40
0.1317492989
 40
0.1978908934
 40
0.2641912445
 40
0.3969133298
 40
0.5286045976
 40
0.6572990529
 40
0.7806380594
 40
0.8960394844
 40
1.0
 40
1.0
 40
1.0
 40
1.0
 10
49.8118160966
 20
43.3968187867
 30
0.0
 10
49.9101085525
 20
43.4644396095
 30
0.0
 10
50.0677662126
 20
43.5523221749
 30
0.0
 10
50.2904147677
 20
43.6403971486
 30
0.0
 10
50.5207282168
 20
43.7092928042
 30
0.0
 10
50.8168295275
 20
43.7611036948
 30
0.0
 10
51.1732517323
 20
43.7769341682
 30
0.0
 10
51.5206018191
 20
43.7539439288
 30
0.0
 10
51.8493274816
 20
43.69896796
 30
0.0
 10
52.1492051163
 20
43.6172249501
 30
0.0
 10
52.3347540798
 20
43.5447332135
 30
0.0
 10
52.4198322483
 20
43.5044291494
 30
0.0
  0
SPLINE
  5
423
100
AcDbEntity
  8
_1
100
AcDbSpline
 62
7
  6
BYLAYER
 70
0
 71
3
 72
11
 73
7
 74
0
 42
0.0000001
 43
0.0000001
 44
0.0000000001
 40
0.0
 40
0.0
 40
0.0
 40
0.0
 40
0.2932922066
 40
0.5537370751
 40
0.7853206584
 40
1.0
 40
1.0
 40
1.0
 40
1.0
 10
53.2539374718
 20
44.0361185293
 30
0.0
 10
53.273939741
 20
44.0488687122
 30
0.0
 10
53.3099707708
 20
44.0759271775
 30
0.0
 10
53.3524479816
 20
44.123880777
 30
0.0
 10
53.3783262979
 20
44.1757453555
 30
0.0
 10
53.3831790418
 20
44.2123680316
 30
0.0
 10
53.3823408188
 20
44.2297102739
 30
0.0
  0
SPLINE
  5
424
100
AcDbEntity
  8
_1
100
AcDbSpline
 62
7
  6
BYLAYER
 70
0
 71
3
 72
9
 73
5
 74
0
 42
0.0000001
 43
0.0000001
 44
0.0000000001
 40
0.0
 40
0.0
 40
0.0
 40
0.0
 40
0.2452109328
 40
1.0
 40
1.0
 40
1.0
 40
1.0
 10
52.0094991628
 20
46.1113865833
 30
0.0
 10
52.0201115792
 20
46.1052596405
 30
0.0
 10
52.0631101312
 20
46.0797897974
 30
0.0
 10
52.1049943591
 20
46.0524488765
 30
0.0
 10
52.1359638165
 20
46.0309161064
 30
0.0
  0
SPLINE
  5
425
100
AcDbEntity
  8
_1
100
AcDbSpline
 62
7
  6
BYLAYER
 70
0
 71
3
 72
15
 73
11
 74
0
 42
0.0000001
 43
0.0000001
 44
0.0000000001
 40
0.0
 40
0.0
 40
0.0
 40
0.0
 40
0.1172785383
 40
0.2416331278
 40
0.3709022671
 40
0.5025578466
 40
0.6338648002
 40
0.7621163988
 40
0.8849248955
 40
1.0
 40
1.0
 40
1.0
 40
1.0
 10
52.1359638165
 20
46.0309161064
 30
0.0
 10
52.2115947843
 20
45.9783306114
 30
0.0
 10
52.3598467759
 20
45.8588307406
 30
0.0
 10
52.5635446522
 20
45.6497531216
 30
0.0
 10
52.7503656168
 20
45.4109695844
 30
0.0
 10
52.914664644
 20
45.1497403907
 30
0.0
 10
53.0514017342
 20
44.8739746337
 30
0.0
 10
53.1564890233
 20
44.5920075605
 30
0.0
 10
53.226600503
 20
44.3124944417
 30
0.0
 10
53.2495730406
 20
44.1263979904
 30
0.0
 10
53.2539374718
 20
44.0361185293
 30
0.0
  0
SPLINE
  5
426
100
AcDbEntity
  8
_1
100
AcDbSpline
 62
7
  6
BYLAYER
 70
0
 71
3
 72
9
 73
5
 74
0
 42
0.0000001
 43
0.0000001
 44
0.0000000001
 40
0.0
 40
0.0
 40
0.0
 40
0.0
 40
0.4781097309
 40
1.0
 40
1.0
 40
1.0
 40
1.0
 10
7.6103853626
 20
63.5590152649
 30
0.0
 10
7.6103853626
 20
63.594437803
 30
0.0
 10
7.6186073565
 20
63.6685951033
 30
0.0
 10
7.6391361115
 20
63.7401139022
 30
0.0
 10
7.6524440103
 20
63.7764178065
 30
0.0
  0
SPLINE
  5
427
100
AcDbEntity
  8
_1
100
AcDbSpline
 62
7
  6
BYLAYER
 70
0
 71
3
 72
22
 73
18
 74
0
 42
0.0000001
 43
0.0000001
 44
0.0000000001
 40
0.0
 40
0.0
 40
0.0
 40
0.0
 40
0.0428217463
 40
0.0872927202
 40
0.1348963929
 40
0.1866117371
 40
0.2428809954
 40
0.3037045756
 40
0.3687258172
 40
0.43731466
 40
0.508652653
 40
0.58177514
 40
0.7290567934
 40
0.8012069591
 40
0.8709721194
 40
0.9375111974
 40
1.0
 40
1.0
 40
1.0
 40
1.0
 10
44.9663328584
 20
25.4244558061
 30
0.0
 10
44.9128892332
 20
25.3920700412
 30
0.0
 10
44.7948014342
 20
25.3400418276
 30
0.0
 10
44.5988117246
 20
25.3077654365
 30
0.0
 10
44.3878431967
 20
25.320213411
 30
0.0
 10
44.1666804737
 20
25.3763762399
 30
0.0
 10
43.9397046092
 20
25.4743410661
 30
0.0
 10
43.7114725804
 20
25.6118444155
 30
0.0
 10
43.4866863141
 20
25.7859174082
 30
0.0
 10
43.270004946
 20
25.9927625059
 30
0.0
 10
43.0660657931
 20
26.2280434628
 30
0.0
 10
42.8165243371
 20
26.5734704174
 30
0.0
 10
42.6113196539
 20
26.9507236685
 30
0.0
 10
42.4592868841
 20
27.3448694683
 30
0.0
 10
42.376164639
 20
27.6380128969
 30
0.0
 10
42.3251230368
 20
27.9240764422
 30
0.0
 10
42.3126461276
 20
28.1124921857
 30
0.0
 10
42.3126461276
 20
28.2036831104
 30
0.0
  0
SPLINE
  5
428
100
AcDbEntity
  8
_1
100
AcDbSpline
 62
7
  6
BYLAYER
 70
0
 71
3
 72
11
 73
7
 74
0
 42
0.0000001
 43
0.0000001
 44
0.0000000001
 40
0.0
 40
0.0
 40
0.0
 40
0.0
 40
0.2961024509
 40
0.5714446664
 40
0.8058119423
 40
1.0
 40
1.0
 40
1.0
 40
1.0
 10
10.7347729729
 20
51.9846813898
 30
0.0
 10
10.7138349453
 20
51.9677771087
 30
0.0
 10
10.6712883886
 20
51.9377949451
 30
0.0
 10
10.6082461057
 20
51.90043401
 30
0.0
 10
10.5510725848
 20
51.8716358734
 30
0.0
 10
10.5151116892
 20
51.8565556197
 30
0.0
 10
10.4985282141
 20
51.850518924
 30
0.0
  0
SPLINE
  5
429
100
AcDbEntity
  8
_1
100
AcDbSpline
 62
7
  6
BYLAYER
 70
0
 71
3
 72
9
 73
5
 74
0
 42
0.0000001
 43
0.0000001
 44
0.0000000001
 40
0.0
 40
0.0
 40
0.0
 40
0.0
 40
0.2705966192
 40
1.0
 40
1.0
 40
1.0
 40
1.0
 10
10.4985282141
 20
51.850518924
 30
0.0
 10
10.4952345896
 20
51.849319983
 30
0.0
 10
10.4830199668
 20
51.8450110167
 30
0.0
 10
10.4706224751
 20
51.8411980529
 30
0.0
 10
10.4614702412
 20
51.8388525148
 30
0.0
  0
LINE
  5
42A
100
AcDbEntity
  8
_1
100
AcDbLine
 62
7
  6
BYLAYER
 10
10.24154023
 20
49.5170000432
 11
10.237219465
 21
49.5349752311
  0
SPLINE
  5
42B
100
AcDbEntity
  8
_1
100
AcDbSpline
 62
7
  6
BYLAYER
 70
0
 71
3
 72
8
 73
4
 74
0
 42
0.0000001
 43
0.0000001
 44
0.0000000001
 40
0.0
 40
0.0
 40
0.0
 40
0.0
 40
1.0
 40
1.0
 40
1.0
 40
1.0
 10
10.7286854149
 20
49.4278490346
 30
0.0
 10
10.7264028758
 20
49.4265138335
 30
0.0
 10
10.7241990935
 20
49.42503795
 30
0.0
 10
10.7220761257
 20
49.4234613223
 30
0.0
  0
SPLINE
  5
42C
100
AcDbEntity
  8
_1
100
AcDbSpline
 62
7
  6
BYLAYER
 70
0
 71
3
 72
11
 73
7
 74
0
 42
0.0000001
 43
0.0000001
 44
0.0000000001
 40
0.0
 40
0.0
 40
0.0
 40
0.0
 40
0.5048815616
 40
0.6347501181
 40
0.7615788988
 40
1.0
 40
1.0
 40
1.0
 40
1.0
 10
10.7220761257
 20
49.4234613223
 30
0.0
 10
10.6833450643
 20
49.3946975956
 30
0.0
 10
10.620686151
 20
49.3748207361
 30
0.0
 10
10.5479551187
 20
49.3776433485
 30
0.0
 10
10.5013404493
 20
49.3857776748
 30
0.0
 10
10.4678123834
 20
49.3989774916
 30
0.0
 10
10.4494417379
 20
49.4124514165
 30
0.0
  0
SPLINE
  5
42D
100
AcDbEntity
  8
_1
100
AcDbSpline
 62
7
  6
BYLAYER
 70
0
 71
3
 72
20
 73
16
 74
0
 42
0.0000001
 43
0.0000001
 44
0.0000000001
 40
0.0
 40
0.0
 40
0.0
 40
0.0
 40
0.0605024841
 40
0.1131803537
 40
0.1567473208
 40
0.1939710431
 40
0.2308417211
 40
0.2735120422
 40
0.3249470425
 40
0.3856386338
 40
0.4548047354
 40
0.5310921665
 40
0.6962915698
 40
0.8600522584
 40
1.0
 40
1.0
 40
1.0
 40
1.0
 10
10.4494417379
 20
49.4124514165
 30
0.0
 10
10.4514856506
 20
49.4054817723
 30
0.0
 10
10.4546960797
 20
49.3922449259
 30
0.0
 10
10.4564869403
 20
49.3734125913
 30
0.0
 10
10.4538877281
 20
49.3573020947
 30
0.0
 10
10.4458366128
 20
49.3450103627
 30
0.0
 10
10.4327851691
 20
49.3384917055
 30
0.0
 10
10.4167760767
 20
49.3378960371
 30
0.0
 10
10.398523782
 20
49.3419934053
 30
0.0
 10
10.3784213704
 20
49.3505670586
 30
0.0
 10
10.3571096051
 20
49.3632625477
 30
0.0
 10
10.3273739983
 20
49.3858700738
 30
0.0
 10
10.2930156659
 20
49.4206859223
 30
0.0
 10
10.2602631554
 20
49.4667933799
 30
0.0
 10
10.2457547227
 20
49.5007368972
 30
0.0
 10
10.24154023
 20
49.5170000432
 30
0.0
  0
SPLINE
  5
42E
100
AcDbEntity
  8
_1
100
AcDbSpline
 62
7
  6
BYLAYER
 70
0
 71
3
 72
9
 73
5
 74
0
 42
0.0000001
 43
0.0000001
 44
0.0000000001
 40
0.0
 40
0.0
 40
0.0
 40
0.0
 40
0.2383076756
 40
1.0
 40
1.0
 40
1.0
 40
1.0
 10
16.0224397493
 20
50.7860622668
 30
0.0
 10
16.0065872288
 20
50.8547066289
 30
0.0
 10
15.9495023725
 20
51.1449185795
 30
0.0
 10
15.928455638
 20
51.4416770903
 30
0.0
 10
15.928455638
 20
51.6668566868
 30
0.0
  0
SPLINE
  5
42F
100
AcDbEntity
  8
_1
100
AcDbSpline
 62
7
  6
BYLAYER
 70
0
 71
3
 72
14
 73
10
 74
0
 42
0.0000001
 43
0.0000001
 44
0.0000000001
 40
0.0
 40
0.0
 40
0.0
 40
0.0
 40
0.1080443968
 40
0.2181294722
 40
0.332109305
 40
0.4514919687
 40
0.5774377025
 40
0.710738709
 40
1.0
 40
1.0
 40
1.0
 40
1.0
 10
15.2035568172
 20
46.733033726
 30
0.0
 10
15.2609361792
 20
46.7661691329
 30
0.0
 10
15.3712703451
 20
46.8431441334
 30
0.0
 10
15.5170502327
 20
46.9866197243
 30
0.0
 10
15.6424055436
 20
47.1569076755
 30
0.0
 10
15.7462460263
 20
47.3520456663
 30
0.0
 10
15.8276856763
 20
47.5701572865
 30
0.0
 10
15.9077340659
 20
47.8974641247
 30
0.0
 10
15.928455638
 20
48.1578790856
 30
0.0
 10
15.928455638
 20
48.3352724879
 30
0.0
  0
SPLINE
  5
430
100
AcDbEntity
  8
_1
100
AcDbSpline
 62
7
  6
BYLAYER
 70
0
 71
3
 72
13
 73
9
 74
0
 42
0.0000001
 43
0.0000001
 44
0.0000000001
 40
0.0
 40
0.0
 40
0.0
 40
0.0
 40
0.1059284495
 40
0.2206790484
 40
0.3419266231
 40
0.4679617921
 40
0.729777857
 40
1.0
 40
1.0
 40
1.0
 40
1.0
 10
38.8641200003
 20
29.5671487407
 30
0.0
 10
38.8640844339
 20
29.4273680045
 30
0.0
 10
38.8860595242
 20
29.1360419966
 30
0.0
 10
38.9689766855
 20
28.6918887661
 30
0.0
 10
39.0989966702
 20
28.231565679
 30
0.0
 10
39.3322693479
 20
27.6009786338
 30
0.0
 10
39.7204844293
 20
26.8211118002
 30
0.0
 10
40.1119833813
 20
26.2357735267
 30
0.0
 10
40.3285931515
 20
25.9525267648
 30
0.0
  0
SPLINE
  5
431
100
AcDbEntity
  8
_1
100
AcDbSpline
 62
7
  6
BYLAYER
 70
0
 71
3
 72
13
 73
9
 74
0
 42
0.0000001
 43
0.0000001
 44
0.0000000001
 40
0.0
 40
0.0
 40
0.0
 40
0.0
 40
0.1152237494
 40
0.2307773784
 40
0.3480892909
 40
0.4684891798
 40
0.7225349995
 40
1.0
 40
1.0
 40
1.0
 40
1.0
 10
53.6244661642
 20
42.6606632747
 30
0.0
 10
53.5655883681
 20
42.7036466586
 30
0.0
 10
53.4415807835
 20
42.7817575771
 30
0.0
 10
53.2401666296
 20
42.8724401062
 30
0.0
 10
53.0251697389
 20
42.9359559356
 30
0.0
 10
52.7170901492
 20
42.9845913945
 30
0.0
 10
52.3009649728
 20
42.9719183396
 30
0.0
 10
51.972098877
 20
42.8918389846
 30
0.0
 10
51.8054900865
 20
42.8365498177
 30
0.0
  0
SPLINE
  5
432
100
AcDbEntity
  8
_1
100
AcDbSpline
 62
7
  6
BYLAYER
 70
0
 71
3
 72
9
 73
5
 74
0
 42
0.0000001
 43
0.0000001
 44
0.0000000001
 40
0.0
 40
0.0
 40
0.0
 40
0.0
 40
0.4780550916
 40
1.0
 40
1.0
 40
1.0
 40
1.0
 10
51.8054900865
 20
42.8365498177
 30
0.0
 10
51.6107305698
 20
42.7719188257
 30
0.0
 10
51.2159582418
 20
42.5974513972
 30
0.0
 10
50.8528129794
 20
42.3658766675
 30
0.0
 10
50.6717068053
 20
42.2339835549
 30
0.0
  0
SPLINE
  5
433
100
AcDbEntity
  8
_1
100
AcDbSpline
 62
7
  6
BYLAYER
 70
0
 71
3
 72
9
 73
5
 74
0
 42
0.0000001
 43
0.0000001
 44
0.0000000001
 40
0.0
 40
0.0
 40
0.0
 40
0.0
 40
0.2432394063
 40
1.0
 40
1.0
 40
1.0
 40
1.0
 10
50.6717068053
 20
42.2339835549
 30
0.0
 10
50.6174447101
 20
42.1944664227
 30
0.0
 10
50.3974162607
 20
42.0278324613
 30
0.0
 10
50.1895630142
 20
41.8452957972
 30
0.0
 10
50.0392462462
 20
41.7003126565
 30
0.0
  0
SPLINE
  5
434
100
AcDbEntity
  8
_1
100
AcDbSpline
 62
7
  6
BYLAYER
 70
0
 71
3
 72
10
 73
6
 74
0
 42
0.0000001
 43
0.0000001
 44
0.0000000001
 40
0.0
 40
0.0
 40
0.0
 40
0.0
 40
0.2421823222
 40
0.4916435067
 40
1.0
 40
1.0
 40
1.0
 40
1.0
 10
50.0392462462
 20
41.7003126565
 30
0.0
 10
49.891319457
 20
41.5576346921
 30
0.0
 10
49.6042552914
 20
41.2539288084
 30
0.0
 10
49.0748954721
 20
40.5898802818
 30
0.0
 10
48.7355052957
 20
40.0393831282
 30
0.0
 10
48.5384866291
 20
39.6555950049
 30
0.0
  0
SPLINE
  5
435
100
AcDbEntity
  8
_1
100
AcDbSpline
 62
7
  6
BYLAYER
 70
0
 71
3
 72
9
 73
5
 74
0
 42
0.0000001
 43
0.0000001
 44
0.0000000001
 40
0.0
 40
0.0
 40
0.0
 40
0.0
 40
0.2523512513
 40
1.0
 40
1.0
 40
1.0
 40
1.0
 10
48.5384866291
 20
39.6555950049
 30
0.0
 10
48.5004195679
 20
39.5814411888
 30
0.0
 10
48.3540679812
 20
39.2853080171
 30
0.0
 10
48.2258718524
 20
38.9801567097
 30
0.0
 10
48.1414589767
 20
38.7480759972
 30
0.0
  0
SPLINE
  5
436
100
AcDbEntity
  8
_1
100
AcDbSpline
 62
7
  6
BYLAYER
 70
0
 71
3
 72
9
 73
5
 74
0
 42
0.0000001
 43
0.0000001
 44
0.0000000001
 40
0.0
 40
0.0
 40
0.0
 40
0.0
 40
0.2565193028
 40
1.0
 40
1.0
 40
1.0
 40
1.0
 10
48.1414589767
 20
38.7480759972
 30
0.0
 10
48.108339764
 20
38.657019622
 30
0.0
 10
47.9860817368
 20
38.2996253476
 30
0.0
 10
47.8917016066
 20
37.9324652066
 30
0.0
 10
47.840594071
 20
37.6563274206
 30
0.0
  0
SPLINE
  5
437
100
AcDbEntity
  8
_1
100
AcDbSpline
 62
7
  6
BYLAYER
 70
0
 71
3
 72
9
 73
5
 74
0
 42
0.0000001
 43
0.0000001
 44
0.0000000001
 40
0.0
 40
0.0
 40
0.0
 40
0.0
 40
0.5129645902
 40
1.0
 40
1.0
 40
1.0
 40
1.0
 10
47.840594071
 20
37.6563274206
 30
0.0
 10
47.8106840446
 20
37.4947213407
 30
0.0
 10
47.765133871
 20
37.1771467375
 30
0.0
 10
47.7483917976
 20
36.8566221971
 30
0.0
 10
47.7483917976
 20
36.7005790986
 30
0.0
  0
SPLINE
  5
438
100
AcDbEntity
  8
_1
100
AcDbSpline
 62
7
  6
BYLAYER
 70
0
 71
3
 72
10
 73
6
 74
0
 42
0.0000001
 43
0.0000001
 44
0.0000000001
 40
0.0
 40
0.0
 40
0.0
 40
0.0
 40
0.2809685202
 40
0.5410729005
 40
1.0
 40
1.0
 40
1.0
 40
1.0
 10
7.6103853626
 20
44.7574486923
 30
0.0
 10
7.5941141095
 20
44.7668426922
 30
0.0
 10
7.5638022452
 20
44.7868924711
 30
0.0
 10
7.5137061784
 20
44.8312499748
 30
0.0
 10
7.4856838874
 20
44.8723618195
 30
0.0
 10
7.4750154398
 20
44.9011361282
 30
0.0
  0
SPLINE
  5
439
100
AcDbEntity
  8
_1
100
AcDbSpline
 62
7
  6
BYLAYER
 70
0
 71
3
 72
9
 73
5
 74
0
 42
0.0000001
 43
0.0000001
 44
0.0000000001
 40
0.0
 40
0.0
 40
0.0
 40
0.0
 40
0.2551006511
 40
1.0
 40
1.0
 40
1.0
 40
1.0
 10
7.4750154398
 20
44.9011361282
 30
0.0
 10
7.4731938963
 20
44.906049088
 30
0.0
 10
7.4668538151
 20
44.9255934706
 30
0.0
 10
7.4639605034
 20
44.9462705297
 30
0.0
 10
7.463956657
 20
44.9615707709
 30
0.0
  0
SPLINE
  5
43A
100
AcDbEntity
  8
_1
100
AcDbSpline
 62
7
  6
BYLAYER
 70
0
 71
3
 72
9
 73
5
 74
0
 42
0.0000001
 43
0.0000001
 44
0.0000000001
 40
0.0
 40
0.0
 40
0.0
 40
0.0
 40
0.2582222946
 40
1.0
 40
1.0
 40
1.0
 40
1.0
 10
7.6103860711
 20
56.4691877471
 30
0.0
 10
7.6103860711
 20
56.4173091221
 30
0.0
 10
7.6135606138
 20
56.2164269629
 30
0.0
 10
7.6297255431
 20
56.0156561668
 30
0.0
 10
7.6503025343
 20
55.8680553674
 30
0.0
  0
SPLINE
  5
43B
100
AcDbEntity
  8
_1
100
AcDbSpline
 62
7
  6
BYLAYER
 70
0
 71
3
 72
9
 73
5
 74
0
 42
0.0000001
 43
0.0000001
 44
0.0000000001
 40
0.0
 40
0.0
 40
0.0
 40
0.0
 40
0.2544651228
 40
1.0
 40
1.0
 40
1.0
 40
1.0
 10
7.6503025343
 20
55.8680553674
 30
0.0
 10
7.6536000129
 20
55.8444022259
 30
0.0
 10
7.6674307634
 20
55.7515745971
 30
0.0
 10
7.6848098321
 20
55.6592672386
 30
0.0
 10
7.6999371991
 20
55.5909526468
 30
0.0
  0
SPLINE
  5
43C
100
AcDbEntity
  8
_1
100
AcDbSpline
 62
7
  6
BYLAYER
 70
0
 71
3
 72
11
 73
7
 74
0
 42
0.0000001
 43
0.0000001
 44
0.0000000001
 40
0.0
 40
0.0
 40
0.0
 40
0.0
 40
0.2738704047
 40
0.5336975942
 40
0.7744552312
 40
1.0
 40
1.0
 40
1.0
 40
1.0
 10
8.8979012532
 20
47.2769018682
 30
0.0
 10
8.875043444
 20
47.2887189132
 30
0.0
 10
8.8286125218
 20
47.3083761207
 30
0.0
 10
8.7567767198
 20
47.3233905481
 30
0.0
 10
8.687654556
 20
47.3191588999
 30
0.0
 10
8.6463531106
 20
47.3011832192
 30
0.0
 10
8.629020822
 20
47.2889905563
 30
0.0
  0
SPLINE
  5
43D
100
AcDbEntity
  8
_1
100
AcDbSpline
 62
7
  6
BYLAYER
 70
0
 71
3
 72
15
 73
11
 74
0
 42
0.0000001
 43
0.0000001
 44
0.0000000001
 40
0.0
 40
0.0
 40
0.0
 40
0.0
 40
0.1084538393
 40
0.2183582395
 40
0.3318407386
 40
0.4506804248
 40
0.5762244219
 40
0.7094035188
 40
0.8507139735
 40
1.0
 40
1.0
 40
1.0
 40
1.0
 10
46.4858332606
 20
23.3313677967
 30
0.0
 10
46.5702793726
 20
23.3731388967
 30
0.0
 10
46.7331302706
 20
23.4727102222
 30
0.0
 10
46.9496207356
 20
23.6651570368
 30
0.0
 10
47.1360682331
 20
23.8984292218
 30
0.0
 10
47.290660346
 20
24.1694445623
 30
0.0
 10
47.4119818751
 20
24.4751976451
 30
0.0
 10
47.4991182156
 20
24.8124332025
 30
0.0
 10
47.5511908901
 20
25.177511426
 30
0.0
 10
47.5621558868
 20
25.4301381531
 30
0.0
 10
47.5621558868
 20
25.5598208866
 30
0.0
  0
SPLINE
  5
43E
100
AcDbEntity
  8
_1
100
AcDbSpline
 62
7
  6
BYLAYER
 70
0
 71
3
 72
11
 73
7
 74
0
 42
0.0000001
 43
0.0000001
 44
0.0000000001
 40
0.0
 40
0.0
 40
0.0
 40
0.0
 40
0.2829650494
 40
0.542880235
 40
0.7802820471
 40
1.0
 40
1.0
 40
1.0
 40
1.0
 10
10.9781735876
 20
48.7436427143
 30
0.0
 10
10.9604609149
 20
48.7538688994
 30
0.0
 10
10.9251283361
 20
48.7712971812
 30
0.0
 10
10.8709941609
 20
48.7880977224
 30
0.0
 10
10.8191149272
 20
48.7937448863
 30
0.0
 10
10.785919936
 20
48.789703717
 30
0.0
 10
10.7705567219
 20
48.7856806983
 30
0.0
  0
SPLINE
  5
43F
100
AcDbEntity
  8
_1
100
AcDbSpline
 62
7
  6
BYLAYER
 70
0
 71
3
 72
15
 73
11
 74
0
 42
0.0000001
 43
0.0000001
 44
0.0000000001
 40
0.0
 40
0.0
 40
0.0
 40
0.0
 40
0.116300516
 40
0.2407794347
 40
0.370784942
 40
0.503475221
 40
0.6356860266
 40
0.7642891635
 40
0.8865470684
 40
1.0
 40
1.0
 40
1.0
 40
1.0
 10
46.1654579302
 20
40.3272482065
 30
0.0
 10
46.1620957074
 20
40.3967967096
 30
0.0
 10
46.143586157
 20
40.5403482352
 30
0.0
 10
46.0866592203
 20
40.7554462582
 30
0.0
 10
46.001338055
 20
40.9715206531
 30
0.0
 10
45.8907109454
 20
41.1809980514
 30
0.0
 10
45.7585452121
 20
41.3765901723
 30
0.0
 10
45.6094720223
 20
41.5515694018
 30
0.0
 10
45.4486606313
 20
41.6997230994
 30
0.0
 10
45.3323342212
 20
41.7807306277
 30
0.0
 10
45.2735092316
 20
41.814692483
 30
0.0
  0
ELLIPSE
  5
440
100
AcDbEntity
  8
_1
100
AcDbEllipse
 62
7
  6
BYLAYER
 10
10.9879162051
 20
65.8952588588
 30
0.0
 11
6.4091589573
 21
4.097754868
 31
0.0
 40
0.0477223306
 41
2.0728086901
 42
2.091750727
  0
ELLIPSE
  5
441
100
AcDbEntity
  8
_1
100
AcDbEllipse
 62
7
  6
BYLAYER
 10
9.7888266804
 20
50.2486512388
 30
0.0
 11
0.2566476661
 21
0.4291511841
 31
0.0
 40
0.5873387238
 41
-3.1325561451
 42
-2.8122233924
  0
ELLIPSE
  5
442
100
AcDbEntity
  8
_1
100
AcDbEllipse
 62
7
  6
BYLAYER
 10
8.9204639487
 20
52.924890443
 30
0.0
 11
0.0487170859
 21
0.1984548984
 31
0.0
 40
0.6779909589
 41
0.8484895459
 42
0.893212733
  0
ELLIPSE
  5
443
100
AcDbEntity
  8
_1
100
AcDbEllipse
 62
7
  6
BYLAYER
 10
11.7228134497
 20
44.1006707708
 30
0.0
 11
0.9742131475
 21
1.7468565137
 31
0.0
 40
0.5671892643
 41
0.8293180292
 42
1.1000461954
  0
ELLIPSE
  5
444
100
AcDbEntity
  8
_1
100
AcDbEllipse
 62
7
  6
BYLAYER
 10
12.7465466605
 20
47.55952425
 30
0.0
 11
1.0604346051
 21
-0.0157561414
 31
0.0
 40
0.5671792876
 41
2.1580666609
 42
2.3647780353
  0
ELLIPSE
  5
445
100
AcDbEntity
  8
_1
100
AcDbEllipse
 62
7
  6
BYLAYER
 10
12.7463182098
 20
47.5593923548
 30
0.0
 11
1.0604289627
 21
0.0163158002
 31
0.0
 40
0.5873287469
 41
2.3470099034
 42
5.216535643
  0
ELLIPSE
  5
446
100
AcDbEntity
  8
_1
100
AcDbEllipse
 62
7
  6
BYLAYER
 10
50.3501622038
 20
39.0784733919
 30
0.0
 11
2.4004771283
 21
4.204655767
 31
0.0
 40
0.6408198167
 41
1.5207458918
 42
1.9773601452
  0
ELLIPSE
  5
447
100
AcDbEntity
  8
_1
100
AcDbEllipse
 62
7
  6
BYLAYER
 10
9.5274283973
 20
45.3681482476
 30
0.0
 11
1.0265906644
 21
1.7166047365
 31
0.0
 40
0.5873387238
 41
0.8467818067
 42
1.1175099729
  0
ELLIPSE
  5
448
100
AcDbEntity
  8
_1
100
AcDbEllipse
 62
7
  6
BYLAYER
 10
10.7447208809
 20
51.8716790389
 30
0.0
 11
0.1320574751
 21
0.1539331909
 31
0.0
 40
0.4345931113
 41
1.1244216862
 42
1.1691448733
  0
ELLIPSE
  5
449
100
AcDbEntity
  8
_1
100
AcDbEllipse
 62
7
  6
BYLAYER
 10
43.8641123376
 20
21.7964680844
 30
0.0
 11
-4.1159385268
 21
15.4263485504
 31
0.0
 40
0.1840258306
 41
0.0494818491
 42
0.6037935092
  0
ELLIPSE
  5
44A
100
AcDbEntity
  8
_1
100
AcDbEllipse
 62
7
  6
BYLAYER
 10
14.0358924071
 20
50.1003161966
 30
0.0
 11
-2.2528100631
 21
2.7302281725
 31
0.0
 40
0.4316695864
 41
-3.2139154081
 42
-2.4285086046
  0
ELLIPSE
  5
44B
100
AcDbEntity
  8
_1
100
AcDbEllipse
 62
7
  6
BYLAYER
 10
50.3501622038
 20
39.0784733919
 30
0.0
 11
2.4004771283
 21
4.204655767
 31
0.0
 40
0.6408198167
 41
-3.5544032095
 42
-3.0760223241
  0
ENDSEC
  0
SECTION
  2
OBJECTS
  0
DICTIONARY
  5
C
100
AcDbDictionary
280
0
281
1
  3
ACAD_GROUP
350
D
  3
ACAD_MLINESTYLE
350
17
  3
ACAD_LAYOUT
350
1A
  3
ACAD_PLOTSETTINGS
350
19
  3
ACAD_PLOTSTYLENAME
350
E
  0
DICTIONARY
  5
D
102
{ACAD_REACTORS
330
C
102
}
100
AcDbDictionary
280
0
281
1
  0
ACDBDICTIONARYWDFLT
  5
E
102
{ACAD_REACTORS
330
C
102
}
100
AcDbDictionary
281
1
  3
Normal
350
F
100
AcDbDictionaryWithDefault
340
F
  0
DICTIONARY
  5
17
102
{ACAD_REACTORS
330
C
102
}
100
AcDbDictionary
280
0
281
1
  3
Standard
350
18
  0
DICTIONARY
  5
19
102
{ACAD_REACTORS
330
C
102
}
100
AcDbDictionary
281
1
  0
DICTIONARY
  5
1A
102
{ACAD_REACTORS
330
C
102
}
100
AcDbDictionary
281
1
  3
Model
350
44C
  3
Layout1
350
44D
  0
ACDBPLACEHOLDER
  5
F
102
{ACAD_REACTORS
330
E
102
}
  0
MLINESTYLE
  5
18
102
{ACAD_REACTORS
330
17
102
}
100
AcDbMlineStyle
  2
STANDARD
 70
0
  3

 62
256
 51
90.0
 52
90.0
 71
2
 49
0.5
 62
256
  6
BYLAYER
 49
-0.5
 62
256
  6
BYLAYER
  0
LAYOUT
  5
44C
102
{ACAD_REACTORS
330
1A
102
}
100
AcDbPlotSettings
  1

  2
none_device
  4

  6

 40
0.0
 41
0.0
 42
0.0
 43
0.0
 44
210.0
 45
297.0
 46
0.0
 47
0.0
 48
0.0
 49
0.0
140
0.0
141
0.0
142
1.0
143
1.0
 70
1024
 72
1
 73
0
 74
0
  7

 75
0
147
1.0
148
0.0
149
0.0
100
AcDbLayout
  1
Model
 70
0
 71
0
 10
0.0
 20
0.0
 11
210.0
 21
297.0
 12
0.0
 22
0.0
 32
0.0
 14
0.0
 24
0.0
 34
0.0
 15
0.0
 25
0.0
 35
0.0
146
0.0
 13
0.0
 23
0.0
 33
0.0
 16
1.0
 26
0.0
 36
0.0
 17
0.0
 27
1.0
 37
0.0
 76
0
330
211
345
0
346
0
  0
LAYOUT
  5
44D
102
{ACAD_REACTORS
330
1A
102
}
100
AcDbPlotSettings
  1

  2
none_device
  4

  6

 40
0.0
 41
0.0
 42
0.0
 43
0.0
 44
210.0
 45
297.0
 46
0.0
 47
0.0
 48
0.0
 49
0.0
140
0.0
141
0.0
142
1.0
143
1.0
 70
0
 72
1
 73
0
 74
0
  7

 75
0
147
1.0
148
0.0
149
0.0
100
AcDbLayout
  1
Layout1
 70
0
 71
1
 10
0.0
 20
0.0
 11
210.0
 21
297.0
 12
0.0
 22
0.0
 32
0.0
 14
0.0
 24
0.0
 34
0.0
 15
0.0
 25
0.0
 35
0.0
146
0.0
 13
0.0
 23
0.0
 33
0.0
 16
1.0
 26
0.0
 36
0.0
 17
0.0
 27
1.0
 37
0.0
 76
0
330
212
345
0
346
0
  0
ENDSEC
  0
EOF
