  0
SECTION
  2
HEADER
  9
$ACADVER
  1
AC1024
  9
$ACADMAINTVER
 70
     6
  9
$DWGCODEPAGE
  3
ANSI_1252
  9
$INSBASE
 10
0.0
 20
0.0
 30
0.0
  9
$EXTMIN
 10
1.000000000000000E+20
 20
1.000000000000000E+20
 30
1.000000000000000E+20
  9
$EXTMAX
 10
-1.000000000000000E+20
 20
-1.000000000000000E+20
 30
-1.000000000000000E+20
  9
$LIMMIN
 10
0.0
 20
0.0
  9
$LIMMAX
 10
12.0
 20
9.0
  9
$ORTHOMODE
 70
     0
  9
$REGENMODE
 70
     1
  9
$FILLMODE
 70
     1
  9
$QTEXTMODE
 70
     0
  9
$MIRRTEXT
 70
     1
  9
$LTSCALE
 40
1.0
  9
$ATTMODE
 70
     1
  9
$TEXTSIZE
 40
0.2
  9
$TRACEWID
 40
0.05
  9
$TEXTSTYLE
  7
Standard
  9
$CLAYER
  8
0
  9
$CELTYPE
  6
ByLayer
  9
$CECOLOR
 62
   256
  9
$CELTSCALE
 40
1.0
  9
$DISPSILH
 70
     0
  9
$DIMSCALE
 40
1.0
  9
$DIMASZ
 40
0.18
  9
$DIMEXO
 40
0.0625
  9
$DIMDLI
 40
0.38
  9
$DIMRND
 40
0.0
  9
$DIMDLE
 40
0.0
  9
$DIMEXE
 40
0.18
  9
$DIMTP
 40
0.0
  9
$DIMTM
 40
0.0
  9
$DIMTXT
 40
0.18
  9
$DIMCEN
 40
0.09
  9
$DIMTSZ
 40
0.0
  9
$DIMTOL
 70
     0
  9
$DIMLIM
 70
     0
  9
$DIMTIH
 70
     1
  9
$DIMTOH
 70
     1
  9
$DIMSE1
 70
     0
  9
$DIMSE2
 70
     0
  9
$DIMTAD
 70
     0
  9
$DIMZIN
 70
     0
  9
$DIMBLK
  1

  9
$DIMASO
 70
     1
  9
$DIMSHO
 70
     1
  9
$DIMPOST
  1

  9
$DIMAPOST
  1

  9
$DIMALT
 70
     0
  9
$DIMALTD
 70
     2
  9
$DIMALTF
 40
25.4
  9
$DIMLFAC
 40
1.0
  9
$DIMTOFL
 70
     0
  9
$DIMTVP
 40
0.0
  9
$DIMTIX
 70
     0
  9
$DIMSOXD
 70
     0
  9
$DIMSAH
 70
     0
  9
$DIMBLK1
  1

  9
$DIMBLK2
  1

  9
$DIMSTYLE
  2
Standard
  9
$DIMCLRD
 70
     0
  9
$DIMCLRE
 70
     0
  9
$DIMCLRT
 70
     0
  9
$DIMTFAC
 40
1.0
  9
$DIMGAP
 40
0.09
  9
$DIMJUST
 70
     0
  9
$DIMSD1
 70
     0
  9
$DIMSD2
 70
     0
  9
$DIMTOLJ
 70
     1
  9
$DIMTZIN
 70
     0
  9
$DIMALTZ
 70
     0
  9
$DIMALTTZ
 70
     0
  9
$DIMUPT
 70
     0
  9
$DIMDEC
 70
     4
  9
$DIMTDEC
 70
     4
  9
$DIMALTU
 70
     2
  9
$DIMALTTD
 70
     2
  9
$DIMTXSTY
  7
Standard
  9
$DIMAUNIT
 70
     0
  9
$DIMADEC
 70
     0
  9
$DIMALTRND
 40
0.0
  9
$DIMAZIN
 70
     0
  9
$DIMDSEP
 70
    46
  9
$DIMATFIT
 70
     3
  9
$DIMFRAC
 70
     0
  9
$DIMLDRBLK
  1

  9
$DIMLUNIT
 70
     2
  9
$DIMLWD
 70
    -2
  9
$DIMLWE
 70
    -2
  9
$DIMTMOVE
 70
     0
  9
$DIMFXL
 40
1.0
  9
$DIMFXLON
 70
     0
  9
$DIMJOGANG
 40
0.7853981633974483
  9
$DIMTFILL
 70
     0
  9
$DIMTFILLCLR
 70
     0
  9
$DIMARCSYM
 70
     0
  9
$DIMLTYPE
  6

  9
$DIMLTEX1
  6

  9
$DIMLTEX2
  6

  9
$DIMTXTDIRECTION
 70
     0
  9
$LUNITS
 70
     2
  9
$LUPREC
 70
     4
  9
$SKETCHINC
 40
0.1
  9
$FILLETRAD
 40
0.5
  9
$AUNITS
 70
     0
  9
$AUPREC
 70
     0
  9
$MENU
  1
.
  9
$ELEVATION
 40
0.0
  9
$PELEVATION
 40
0.0
  9
$THICKNESS
 40
0.0
  9
$LIMCHECK
 70
     0
  9
$CHAMFERA
 40
0.5
  9
$CHAMFERB
 40
0.5
  9
$CHAMFERC
 40
1.0
  9
$CHAMFERD
 40
0.0
  9
$SKPOLY
 70
     0
  9
$TDCREATE
 40
2459139.346750069
  9
$TDUCREATE
 40
2459139.263416736
  9
$TDUPDATE
 40
2459139.34675015
  9
$TDUUPDATE
 40
2459139.263416817
  9
$TDINDWG
 40
0.0000000116
  9
$TDUSRTIMER
 40
0.0000000116
  9
$USRTIMER
 70
     1
  9
$ANGBASE
 50
0.0
  9
$ANGDIR
 70
     0
  9
$PDMODE
 70
     0
  9
$PDSIZE
 40
0.0
  9
$PLINEWID
 40
0.0
  9
$SPLFRAME
 70
     0
  9
$SPLINETYPE
 70
     6
  9
$SPLINESEGS
 70
     8
  9
$HANDSEED
  5
1E9
  9
$SURFTAB1
 70
     6
  9
$SURFTAB2
 70
     6
  9
$SURFTYPE
 70
     6
  9
$SURFU
 70
     6
  9
$SURFV
 70
     6
  9
$UCSBASE
  2

  9
$UCSNAME
  2

  9
$UCSORG
 10
0.0
 20
0.0
 30
0.0
  9
$UCSXDIR
 10
1.0
 20
0.0
 30
0.0
  9
$UCSYDIR
 10
0.0
 20
1.0
 30
0.0
  9
$UCSORTHOREF
  2

  9
$UCSORTHOVIEW
 70
     0
  9
$UCSORGTOP
 10
0.0
 20
0.0
 30
0.0
  9
$UCSORGBOTTOM
 10
0.0
 20
0.0
 30
0.0
  9
$UCSORGLEFT
 10
0.0
 20
0.0
 30
0.0
  9
$UCSORGRIGHT
 10
0.0
 20
0.0
 30
0.0
  9
$UCSORGFRONT
 10
0.0
 20
0.0
 30
0.0
  9
$UCSORGBACK
 10
0.0
 20
0.0
 30
0.0
  9
$PUCSBASE
  2

  9
$PUCSNAME
  2

  9
$PUCSORG
 10
0.0
 20
0.0
 30
0.0
  9
$PUCSXDIR
 10
1.0
 20
0.0
 30
0.0
  9
$PUCSYDIR
 10
0.0
 20
1.0
 30
0.0
  9
$PUCSORTHOREF
  2

  9
$PUCSORTHOVIEW
 70
     0
  9
$PUCSORGTOP
 10
0.0
 20
0.0
 30
0.0
  9
$PUCSORGBOTTOM
 10
0.0
 20
0.0
 30
0.0
  9
$PUCSORGLEFT
 10
0.0
 20
0.0
 30
0.0
  9
$PUCSORGRIGHT
 10
0.0
 20
0.0
 30
0.0
  9
$PUCSORGFRONT
 10
0.0
 20
0.0
 30
0.0
  9
$PUCSORGBACK
 10
0.0
 20
0.0
 30
0.0
  9
$USERI1
 70
     0
  9
$USERI2
 70
     0
  9
$USERI3
 70
     0
  9
$USERI4
 70
     0
  9
$USERI5
 70
     0
  9
$USERR1
 40
0.0
  9
$USERR2
 40
0.0
  9
$USERR3
 40
0.0
  9
$USERR4
 40
0.0
  9
$USERR5
 40
0.0
  9
$WORLDVIEW
 70
     1
  9
$SHADEDGE
 70
     3
  9
$SHADEDIF
 70
    70
  9
$TILEMODE
 70
     1
  9
$MAXACTVP
 70
    64
  9
$PINSBASE
 10
0.0
 20
0.0
 30
0.0
  9
$PLIMCHECK
 70
     0
  9
$PEXTMIN
 10
1.000000000000000E+20
 20
1.000000000000000E+20
 30
1.000000000000000E+20
  9
$PEXTMAX
 10
-1.000000000000000E+20
 20
-1.000000000000000E+20
 30
-1.000000000000000E+20
  9
$PLIMMIN
 10
0.0
 20
0.0
  9
$PLIMMAX
 10
12.0
 20
9.0
  9
$UNITMODE
 70
     0
  9
$VISRETAIN
 70
     1
  9
$PLINEGEN
 70
     0
  9
$PSLTSCALE
 70
     1
  9
$TREEDEPTH
 70
  3020
  9
$CMLSTYLE
  2
Standard
  9
$CMLJUST
 70
     0
  9
$CMLSCALE
 40
1.0
  9
$PROXYGRAPHICS
 70
     1
  9
$MEASUREMENT
 70
     0
  9
$CELWEIGHT
370
    -1
  9
$ENDCAPS
280
     0
  9
$JOINSTYLE
280
     0
  9
$LWDISPLAY
290
     1
  9
$INSUNITS
 70
     5
  9
$HYPERLINKBASE
  1

  9
$STYLESHEET
  1

  9
$XEDIT
290
     1
  9
$CEPSNTYPE
380
     0
  9
$PSTYLEMODE
290
     1
  9
$FINGERPRINTGUID
  2
{A8E246F0-9A35-44B8-BFE7-162930A3323C}
  9
$VERSIONGUID
  2
{FAEB1C32-E019-11D5-929B-00C0DF256EC4}
  9
$EXTNAMES
290
     1
  9
$PSVPSCALE
 40
0.0
  9
$OLESTARTUP
290
     0
  9
$SORTENTS
280
   127
  9
$INDEXCTL
280
     0
  9
$HIDETEXT
280
     1
  9
$XCLIPFRAME
280
     2
  9
$HALOGAP
280
     0
  9
$OBSCOLOR
 70
   257
  9
$OBSLTYPE
280
     0
  9
$INTERSECTIONDISPLAY
280
     0
  9
$INTERSECTIONCOLOR
 70
   257
  9
$DIMASSOC
280
     2
  9
$PROJECTNAME
  1

  9
$CAMERADISPLAY
290
     0
  9
$LENSLENGTH
 40
50.0
  9
$CAMERAHEIGHT
 40
0.0
  9
$STEPSPERSEC
 40
2.0
  9
$STEPSIZE
 40
6.0
  9
$3DDWFPREC
 40
2.0
  9
$PSOLWIDTH
 40
0.25
  9
$PSOLHEIGHT
 40
4.0
  9
$LOFTANG1
 40
1.570796326794897
  9
$LOFTANG2
 40
1.570796326794897
  9
$LOFTMAG1
 40
0.0
  9
$LOFTMAG2
 40
0.0
  9
$LOFTPARAM
 70
     7
  9
$LOFTNORMALS
280
     1
  9
$LATITUDE
 40
37.795
  9
$LONGITUDE
 40
-122.394
  9
$NORTHDIRECTION
 40
0.0
  9
$TIMEZONE
 70
 -8000
  9
$LIGHTGLYPHDISPLAY
280
     1
  9
$TILEMODELIGHTSYNCH
280
     1
  9
$CMATERIAL
347
3C
  9
$SOLIDHIST
280
     1
  9
$SHOWHIST
280
     1
  9
$DWFFRAME
280
     2
  9
$DGNFRAME
280
     2
  9
$REALWORLDSCALE
290
     1
  9
$INTERFERECOLOR
 62
   256
  9
$CSHADOW
280
     0
  9
$SHADOWPLANELOCATION
 40
0.0
  0
ENDSEC
  0
SECTION
  2
CLASSES
  0
CLASS
  1
ACDBDICTIONARYWDFLT
  2
AcDbDictionaryWithDefault
  3
ObjectDBX Classes
 90
        0
 91
        4
280
     0
281
     0
  0
CLASS
  1
VISUALSTYLE
  2
AcDbVisualStyle
  3
ObjectDBX Classes
 90
     4095
 91
        4
280
     0
281
     0
  0
CLASS
  1
MATERIAL
  2
AcDbMaterial
  3
ObjectDBX Classes
 90
     1153
 91
        4
280
     0
281
     0
  0
CLASS
  1
SUN
  2
AcDbSun
  3
SCENEOE
 90
     1024
 91
        4
280
     0
281
     0
  0
ENDSEC
  0
SECTION
  2
TABLES
  0
TABLE
  2
VPORT
  5
8
330
0
100
AcDbSymbolTable
 70
     1
  0
VPORT
  5
29
330
8
100
AcDbSymbolTableRecord
100
AcDbViewportTableRecord
  2
*Active
 70
     0
 10
0.0
 20
0.0
 11
1.0
 21
1.0
 12
0.0
 22
0.0
 13
0.0
 23
0.0
 14
0.5
 24
0.5
 15
0.5
 25
0.5
 16
0.0
 26
0.0
 36
1.0
 17
9.317953280086298
 27
18.60191376948959
 37
0.0
 40
19.28530207652745
 41
0.8905956719383392
 42
50.0
 43
0.0
 44
0.0
 50
0.0
 51
0.0
 71
     0
 72
   100
 73
     1
 74
     3
 75
     0
 76
     0
 77
     0
 78
     0
281
     0
 65
     1
110
0.0
120
0.0
130
0.0
111
1.0
121
0.0
131
0.0
112
0.0
122
1.0
132
0.0
 79
     0
146
0.0
 60
     3
 61
     5
292
     1
282
     1
141
0.0
142
0.0
 63
   250
361
3F
  0
ENDTAB
  0
TABLE
  2
LTYPE
  5
5
330
0
100
AcDbSymbolTable
 70
     1
  0
LTYPE
  5
14
330
5
100
AcDbSymbolTableRecord
100
AcDbLinetypeTableRecord
  2
ByBlock
 70
     0
  3

 72
    65
 73
     0
 40
0.0
  0
LTYPE
  5
15
330
5
100
AcDbSymbolTableRecord
100
AcDbLinetypeTableRecord
  2
ByLayer
 70
     0
  3

 72
    65
 73
     0
 40
0.0
  0
LTYPE
  5
16
330
5
100
AcDbSymbolTableRecord
100
AcDbLinetypeTableRecord
  2
Continuous
 70
     0
  3
Solid line
 72
    65
 73
     0
 40
0.0
  0
ENDTAB
  0
TABLE
  2
LAYER
  5
2
330
0
100
AcDbSymbolTable
 70
     2
  0
LAYER
  5
10
330
2
100
AcDbSymbolTableRecord
100
AcDbLayerTableRecord
  2
0
 70
     0
 62
     7
  6
Continuous
370
    -3
390
F
347
3E
  0
LAYER
  5
40
330
2
100
AcDbSymbolTableRecord
100
AcDbLayerTableRecord
  2
_Calque_
 70
     0
 62
     7
  6
Continuous
370
    -3
390
F
347
3E
  0
ENDTAB
  0
TABLE
  2
STYLE
  5
3
330
0
100
AcDbSymbolTable
 70
     1
  0
STYLE
  5
11
330
3
100
AcDbSymbolTableRecord
100
AcDbTextStyleTableRecord
  2
Standard
 70
     0
 40
0.0
 41
1.0
 50
0.0
 71
     0
 42
0.2
  3
txt
  4

  0
ENDTAB
  0
TABLE
  2
VIEW
  5
6
330
0
100
AcDbSymbolTable
 70
     0
  0
ENDTAB
  0
TABLE
  2
UCS
  5
7
330
0
100
AcDbSymbolTable
 70
     0
  0
ENDTAB
  0
TABLE
  2
APPID
  5
9
330
0
100
AcDbSymbolTable
 70
     1
  0
APPID
  5
12
330
9
100
AcDbSymbolTableRecord
100
AcDbRegAppTableRecord
  2
ACAD
 70
     0
  0
ENDTAB
  0
TABLE
  2
DIMSTYLE
  5
A
330
0
100
AcDbSymbolTable
 70
     1
100
AcDbDimStyleTable
  0
DIMSTYLE
105
27
330
A
100
AcDbSymbolTableRecord
100
AcDbDimStyleTableRecord
  2
Standard
 70
     0
178
     0
340
11
  0
ENDTAB
  0
TABLE
  2
BLOCK_RECORD
  5
1
330
0
100
AcDbSymbolTable
 70
    46
  0
BLOCK_RECORD
  5
1F
330
1
100
AcDbSymbolTableRecord
100
AcDbBlockTableRecord
  2
*Model_Space
340
22
 70
     0
280
     1
281
     0
  0
BLOCK_RECORD
  5
1B
330
1
100
AcDbSymbolTableRecord
100
AcDbBlockTableRecord
  2
*Paper_Space
340
1E
 70
     0
280
     1
281
     0
  0
BLOCK_RECORD
  5
23
330
1
100
AcDbSymbolTableRecord
100
AcDbBlockTableRecord
  2
*Paper_Space0
340
26
 70
     0
280
     1
281
     0
  0
BLOCK_RECORD
  5
41
330
1
100
AcDbSymbolTableRecord
100
AcDbBlockTableRecord
  2
block 2
340
0
102
{BLKREFS
331
42
102
}
 70
     0
280
     1
281
     0
  0
BLOCK_RECORD
  5
45
330
1
100
AcDbSymbolTableRecord
100
AcDbBlockTableRecord
  2
block 3
340
0
102
{BLKREFS
331
46
102
}
 70
     0
280
     1
281
     0
  0
BLOCK_RECORD
  5
49
330
1
100
AcDbSymbolTableRecord
100
AcDbBlockTableRecord
  2
block 4
340
0
102
{BLKREFS
331
4A
102
}
 70
     0
280
     1
281
     0
  0
BLOCK_RECORD
  5
4D
330
1
100
AcDbSymbolTableRecord
100
AcDbBlockTableRecord
  2
block 5
340
0
102
{BLKREFS
331
4E
102
}
 70
     0
280
     1
281
     0
  0
BLOCK_RECORD
  5
51
330
1
100
AcDbSymbolTableRecord
100
AcDbBlockTableRecord
  2
block 6
340
0
102
{BLKREFS
331
52
102
}
 70
     0
280
     1
281
     0
  0
BLOCK_RECORD
  5
62
330
1
100
AcDbSymbolTableRecord
100
AcDbBlockTableRecord
  2
block 7
340
0
102
{BLKREFS
331
63
102
}
 70
     0
280
     1
281
     0
  0
BLOCK_RECORD
  5
66
330
1
100
AcDbSymbolTableRecord
100
AcDbBlockTableRecord
  2
block 8
340
0
102
{BLKREFS
331
67
102
}
 70
     0
280
     1
281
     0
  0
BLOCK_RECORD
  5
6A
330
1
100
AcDbSymbolTableRecord
100
AcDbBlockTableRecord
  2
block 9
340
0
102
{BLKREFS
331
6B
102
}
 70
     0
280
     1
281
     0
  0
BLOCK_RECORD
  5
70
330
1
100
AcDbSymbolTableRecord
100
AcDbBlockTableRecord
  2
block 10
340
0
102
{BLKREFS
331
71
102
}
 70
     0
280
     1
281
     0
  0
BLOCK_RECORD
  5
74
330
1
100
AcDbSymbolTableRecord
100
AcDbBlockTableRecord
  2
block 11
340
0
102
{BLKREFS
331
75
102
}
 70
     0
280
     1
281
     0
  0
BLOCK_RECORD
  5
78
330
1
100
AcDbSymbolTableRecord
100
AcDbBlockTableRecord
  2
block 12
340
0
102
{BLKREFS
331
79
102
}
 70
     0
280
     1
281
     0
  0
BLOCK_RECORD
  5
8D
330
1
100
AcDbSymbolTableRecord
100
AcDbBlockTableRecord
  2
block 13
340
0
102
{BLKREFS
331
8E
102
}
 70
     0
280
     1
281
     0
  0
BLOCK_RECORD
  5
93
330
1
100
AcDbSymbolTableRecord
100
AcDbBlockTableRecord
  2
block 14
340
0
102
{BLKREFS
331
94
102
}
 70
     0
280
     1
281
     0
  0
BLOCK_RECORD
  5
99
330
1
100
AcDbSymbolTableRecord
100
AcDbBlockTableRecord
  2
block 15
340
0
102
{BLKREFS
331
9A
102
}
 70
     0
280
     1
281
     0
  0
BLOCK_RECORD
  5
B9
330
1
100
AcDbSymbolTableRecord
100
AcDbBlockTableRecord
  2
block 16
340
0
102
{BLKREFS
331
BA
102
}
 70
     0
280
     1
281
     0
  0
BLOCK_RECORD
  5
BF
330
1
100
AcDbSymbolTableRecord
100
AcDbBlockTableRecord
  2
block 17
340
0
102
{BLKREFS
331
C0
102
}
 70
     0
280
     1
281
     0
  0
BLOCK_RECORD
  5
D9
330
1
100
AcDbSymbolTableRecord
100
AcDbBlockTableRecord
  2
block 18
340
0
102
{BLKREFS
331
DA
102
}
 70
     0
280
     1
281
     0
  0
BLOCK_RECORD
  5
DF
330
1
100
AcDbSymbolTableRecord
100
AcDbBlockTableRecord
  2
block 19
340
0
102
{BLKREFS
331
E0
102
}
 70
     0
280
     1
281
     0
  0
BLOCK_RECORD
  5
F5
330
1
100
AcDbSymbolTableRecord
100
AcDbBlockTableRecord
  2
block 20
340
0
102
{BLKREFS
331
F6
102
}
 70
     0
280
     1
281
     0
  0
BLOCK_RECORD
  5
103
330
1
100
AcDbSymbolTableRecord
100
AcDbBlockTableRecord
  2
block 21
340
0
102
{BLKREFS
331
104
102
}
 70
     0
280
     1
281
     0
  0
BLOCK_RECORD
  5
120
330
1
100
AcDbSymbolTableRecord
100
AcDbBlockTableRecord
  2
block 22
340
0
102
{BLKREFS
331
121
102
}
 70
     0
280
     1
281
     0
  0
BLOCK_RECORD
  5
128
330
1
100
AcDbSymbolTableRecord
100
AcDbBlockTableRecord
  2
block 23
340
0
102
{BLKREFS
331
129
102
}
 70
     0
280
     1
281
     0
  0
BLOCK_RECORD
  5
130
330
1
100
AcDbSymbolTableRecord
100
AcDbBlockTableRecord
  2
block 24
340
0
102
{BLKREFS
331
131
102
}
 70
     0
280
     1
281
     0
  0
BLOCK_RECORD
  5
134
330
1
100
AcDbSymbolTableRecord
100
AcDbBlockTableRecord
  2
block 25
340
0
102
{BLKREFS
331
135
102
}
 70
     0
280
     1
281
     0
  0
BLOCK_RECORD
  5
13C
330
1
100
AcDbSymbolTableRecord
100
AcDbBlockTableRecord
  2
block 26
340
0
102
{BLKREFS
331
13D
102
}
 70
     0
280
     1
281
     0
  0
BLOCK_RECORD
  5
140
330
1
100
AcDbSymbolTableRecord
100
AcDbBlockTableRecord
  2
block 27
340
0
102
{BLKREFS
331
141
102
}
 70
     0
280
     1
281
     0
  0
BLOCK_RECORD
  5
147
330
1
100
AcDbSymbolTableRecord
100
AcDbBlockTableRecord
  2
block 28
340
0
102
{BLKREFS
331
148
102
}
 70
     0
280
     1
281
     0
  0
BLOCK_RECORD
  5
14E
330
1
100
AcDbSymbolTableRecord
100
AcDbBlockTableRecord
  2
block 29
340
0
102
{BLKREFS
331
14F
102
}
 70
     0
280
     1
281
     0
  0
BLOCK_RECORD
  5
155
330
1
100
AcDbSymbolTableRecord
100
AcDbBlockTableRecord
  2
block 30
340
0
102
{BLKREFS
331
156
102
}
 70
     0
280
     1
281
     0
  0
BLOCK_RECORD
  5
15D
330
1
100
AcDbSymbolTableRecord
100
AcDbBlockTableRecord
  2
block 31
340
0
102
{BLKREFS
331
15E
102
}
 70
     0
280
     1
281
     0
  0
BLOCK_RECORD
  5
161
330
1
100
AcDbSymbolTableRecord
100
AcDbBlockTableRecord
  2
block 32
340
0
102
{BLKREFS
331
162
102
}
 70
     0
280
     1
281
     0
  0
BLOCK_RECORD
  5
165
330
1
100
AcDbSymbolTableRecord
100
AcDbBlockTableRecord
  2
block 33
340
0
102
{BLKREFS
331
166
102
}
 70
     0
280
     1
281
     0
  0
BLOCK_RECORD
  5
169
330
1
100
AcDbSymbolTableRecord
100
AcDbBlockTableRecord
  2
block 34
340
0
102
{BLKREFS
331
16A
102
}
 70
     0
280
     1
281
     0
  0
BLOCK_RECORD
  5
170
330
1
100
AcDbSymbolTableRecord
100
AcDbBlockTableRecord
  2
block 35
340
0
102
{BLKREFS
331
171
102
}
 70
     0
280
     1
281
     0
  0
BLOCK_RECORD
  5
174
330
1
100
AcDbSymbolTableRecord
100
AcDbBlockTableRecord
  2
block 36
340
0
102
{BLKREFS
331
175
102
}
 70
     0
280
     1
281
     0
  0
BLOCK_RECORD
  5
182
330
1
100
AcDbSymbolTableRecord
100
AcDbBlockTableRecord
  2
block 37
340
0
102
{BLKREFS
331
183
102
}
 70
     0
280
     1
281
     0
  0
BLOCK_RECORD
  5
186
330
1
100
AcDbSymbolTableRecord
100
AcDbBlockTableRecord
  2
block 38
340
0
102
{BLKREFS
331
187
102
}
 70
     0
280
     1
281
     0
  0
BLOCK_RECORD
  5
18D
330
1
100
AcDbSymbolTableRecord
100
AcDbBlockTableRecord
  2
block 39
340
0
102
{BLKREFS
331
18E
102
}
 70
     0
280
     1
281
     0
  0
BLOCK_RECORD
  5
197
330
1
100
AcDbSymbolTableRecord
100
AcDbBlockTableRecord
  2
block 40
340
0
102
{BLKREFS
331
198
102
}
 70
     0
280
     1
281
     0
  0
BLOCK_RECORD
  5
19B
330
1
100
AcDbSymbolTableRecord
100
AcDbBlockTableRecord
  2
block 41
340
0
102
{BLKREFS
331
19C
102
}
 70
     0
280
     1
281
     0
  0
BLOCK_RECORD
  5
1A0
330
1
100
AcDbSymbolTableRecord
100
AcDbBlockTableRecord
  2
block 42
340
0
102
{BLKREFS
331
1A1
102
}
 70
     0
280
     1
281
     0
  0
BLOCK_RECORD
  5
1A4
330
1
100
AcDbSymbolTableRecord
100
AcDbBlockTableRecord
  2
block 43
340
0
102
{BLKREFS
331
1A5
102
}
 70
     0
280
     1
281
     0
  0
BLOCK_RECORD
  5
1AE
330
1
100
AcDbSymbolTableRecord
100
AcDbBlockTableRecord
  2
block 44
340
0
102
{BLKREFS
331
1AF
102
}
 70
     0
280
     1
281
     0
  0
BLOCK_RECORD
  5
1B3
330
1
100
AcDbSymbolTableRecord
100
AcDbBlockTableRecord
  2
block 45
340
0
102
{BLKREFS
331
1B4
102
}
 70
     0
280
     1
281
     0
  0
BLOCK_RECORD
  5
1E0
330
1
100
AcDbSymbolTableRecord
100
AcDbBlockTableRecord
  2
block 46
340
0
102
{BLKREFS
331
1E1
102
}
 70
     0
280
     1
281
     0
  0
ENDTAB
  0
ENDSEC
  0
SECTION
  2
BLOCKS
  0
BLOCK
  5
20
330
1F
100
AcDbEntity
  8
0
100
AcDbBlockBegin
  2
*Model_Space
 70
     0
 10
0.0
 20
0.0
 30
0.0
  3
*Model_Space
  1

  0
ENDBLK
  5
21
330
1F
100
AcDbEntity
  8
0
100
AcDbBlockEnd
  0
BLOCK
  5
1C
330
1B
100
AcDbEntity
 67
     1
  8
0
100
AcDbBlockBegin
  2
*Paper_Space
 70
     0
 10
0.0
 20
0.0
 30
0.0
  3
*Paper_Space
  1

  0
ENDBLK
  5
1D
330
1B
100
AcDbEntity
 67
     1
  8
0
100
AcDbBlockEnd
  0
BLOCK
  5
24
330
23
100
AcDbEntity
  8
0
100
AcDbBlockBegin
  2
*Paper_Space0
 70
     0
 10
0.0
 20
0.0
 30
0.0
  3
*Paper_Space0
  1

  0
ENDBLK
  5
25
330
23
100
AcDbEntity
  8
0
100
AcDbBlockEnd
  0
BLOCK
  5
43
330
41
100
AcDbEntity
  8
0
100
AcDbBlockBegin
  2
block 2
 70
     0
 10
0.0
 20
0.0
 30
0.0
  3
block 2
  1

  0
INSERT
  5
46
330
41
100
AcDbEntity
  8
_Calque_
100
AcDbBlockReference
  2
block 3
 10
0.0
 20
0.0
 30
0.0
  0
INSERT
  5
63
330
41
100
AcDbEntity
  8
_Calque_
100
AcDbBlockReference
  2
block 7
 10
0.0
 20
0.0
 30
0.0
  0
INSERT
  5
131
330
41
100
AcDbEntity
  8
_Calque_
100
AcDbBlockReference
  2
block 24
 10
0.0
 20
0.0
 30
0.0
  0
INSERT
  5
15E
330
41
100
AcDbEntity
  8
_Calque_
100
AcDbBlockReference
  2
block 31
 10
0.0
 20
0.0
 30
0.0
  0
ENDBLK
  5
44
330
41
100
AcDbEntity
  8
0
100
AcDbBlockEnd
  0
BLOCK
  5
47
330
45
100
AcDbEntity
  8
0
100
AcDbBlockBegin
  2
block 3
 70
     0
 10
0.0
 20
0.0
 30
0.0
  3
block 3
  1

  0
INSERT
  5
4A
330
45
100
AcDbEntity
  8
_Calque_
100
AcDbBlockReference
  2
block 4
 10
0.0
 20
0.0
 30
0.0
  0
SPLINE
  5
61
330
45
100
AcDbEntity
  8
_Calque_
 62
     7
420
 16777215
370
    20
100
AcDbSpline
210
0.0
220
0.0
230
1.0
 70
    11
 71
     3
 72
    26
 73
    22
 74
     0
 42
0.0000000001
 43
0.0000000001
 12
1.0
 22
0.0
 32
0.0
 13
1.0
 23
0.0
 33
0.0
 40
0.0
 40
0.0
 40
0.0
 40
0.0
 40
1.0
 40
1.0
 40
1.0
 40
2.0
 40
2.0
 40
2.0
 40
3.0
 40
3.0
 40
3.0
 40
4.0
 40
4.0
 40
4.0
 40
5.0
 40
5.0
 40
5.0
 40
6.0
 40
6.0
 40
6.0
 40
7.0
 40
7.0
 40
7.0
 40
7.0
 10
8.087402400698727
 20
10.11670341439015
 30
0.0
 10
8.087402400698727
 20
9.48333081386291
 30
0.0
 10
9.371301131588096
 20
8.969846064556528
 30
0.0
 10
10.95469710314812
 20
8.969846064556528
 30
0.0
 10
12.53805201965019
 20
8.969846064556528
 30
0.0
 10
13.82176389291615
 20
9.48333081386291
 30
0.0
 10
13.82176389291615
 20
10.11670341439015
 30
0.0
 10
13.82176389291615
 20
10.11670341439015
 30
0.0
 10
13.81612079268726
 20
10.12492514982305
 30
0.0
 10
13.81612079268726
 20
10.12492514982305
 30
0.0
 10
13.81612079268726
 20
10.12492514982305
 30
0.0
 10
13.81612079268726
 20
12.90170417769512
 30
0.0
 10
13.81612079268726
 20
12.90170417769512
 30
0.0
 10
13.81612079268726
 20
12.90170417769512
 30
0.0
 10
8.079928095759776
 20
12.90170417769512
 30
0.0
 10
8.079928095759776
 20
12.90170417769512
 30
0.0
 10
8.079928095759776
 20
12.90170417769512
 30
0.0
 10
8.079928095759776
 20
10.12492514982305
 30
0.0
 10
8.079928095759776
 20
10.12492514982305
 30
0.0
 10
8.079928095759776
 20
10.12492514982305
 30
0.0
 10
8.087402400698727
 20
10.11670341439015
 30
0.0
 10
8.087402400698727
 20
10.11670341439015
 30
0.0
  0
ENDBLK
  5
48
330
45
100
AcDbEntity
  8
0
100
AcDbBlockEnd
  0
BLOCK
  5
4B
330
49
100
AcDbEntity
  8
0
100
AcDbBlockBegin
  2
block 4
 70
     0
 10
0.0
 20
0.0
 30
0.0
  3
block 4
  1

  0
INSERT
  5
4E
330
49
100
AcDbEntity
  8
_Calque_
100
AcDbBlockReference
  2
block 5
 10
0.0
 20
0.0
 30
0.0
  0
ENDBLK
  5
4C
330
49
100
AcDbEntity
  8
0
100
AcDbBlockEnd
  0
BLOCK
  5
4F
330
4D
100
AcDbEntity
  8
0
100
AcDbBlockBegin
  2
block 5
 70
     0
 10
0.0
 20
0.0
 30
0.0
  3
block 5
  1

  0
INSERT
  5
52
330
4D
100
AcDbEntity
  8
_Calque_
100
AcDbBlockReference
  2
block 6
 10
0.0
 20
0.0
 30
0.0
  0
SPLINE
  5
5F
330
4D
100
AcDbEntity
  8
_Calque_
370
     0
100
AcDbSpline
210
0.0
220
0.0
230
1.0
 70
    11
 71
     3
 72
    26
 73
    22
 74
     0
 42
0.0000000001
 43
0.0000000001
 12
1.0
 22
0.0
 32
0.0
 13
1.0
 23
0.0
 33
0.0
 40
0.0
 40
0.0
 40
0.0
 40
0.0
 40
1.0
 40
1.0
 40
1.0
 40
2.0
 40
2.0
 40
2.0
 40
3.0
 40
3.0
 40
3.0
 40
4.0
 40
4.0
 40
4.0
 40
5.0
 40
5.0
 40
5.0
 40
6.0
 40
6.0
 40
6.0
 40
7.0
 40
7.0
 40
7.0
 40
7.0
 10
8.087402400698727
 20
10.11670341439015
 30
0.0
 10
8.087402400698727
 20
9.48333081386291
 30
0.0
 10
9.371301131588096
 20
8.969846064556528
 30
0.0
 10
10.95469710314812
 20
8.969846064556528
 30
0.0
 10
12.53805201965019
 20
8.969846064556528
 30
0.0
 10
13.82176389291615
 20
9.48333081386291
 30
0.0
 10
13.82176389291615
 20
10.11670341439015
 30
0.0
 10
13.82176389291615
 20
10.11670341439015
 30
0.0
 10
13.81612079268726
 20
10.12492514982305
 30
0.0
 10
13.81612079268726
 20
10.12492514982305
 30
0.0
 10
13.81612079268726
 20
10.12492514982305
 30
0.0
 10
13.81612079268726
 20
12.90170417769512
 30
0.0
 10
13.81612079268726
 20
12.90170417769512
 30
0.0
 10
13.81612079268726
 20
12.90170417769512
 30
0.0
 10
8.079928095759776
 20
12.90170417769512
 30
0.0
 10
8.079928095759776
 20
12.90170417769512
 30
0.0
 10
8.079928095759776
 20
12.90170417769512
 30
0.0
 10
8.079928095759776
 20
10.12492514982305
 30
0.0
 10
8.079928095759776
 20
10.12492514982305
 30
0.0
 10
8.079928095759776
 20
10.12492514982305
 30
0.0
 10
8.087402400698727
 20
10.11670341439015
 30
0.0
 10
8.087402400698727
 20
10.11670341439015
 30
0.0
  0
HATCH
  5
60
330
4D
100
AcDbEntity
  8
_Calque_
 62
   254
420
 14935011
100
AcDbHatch
 10
0.0
 20
0.0
 30
0.0
210
0.0
220
0.0
230
1.0
  2
SOLID
 70
     1
 71
     0
 91
        1
 92
        1
 93
        1
 72
     4
 94
        3
 73
     0
 74
     1
 95
       26
 96
       22
 40
0.0
 40
0.0
 40
0.0
 40
0.0
 40
1.0
 40
1.0
 40
1.0
 40
2.0
 40
2.0
 40
2.0
 40
3.0
 40
3.0
 40
3.0
 40
4.0
 40
4.0
 40
4.0
 40
5.0
 40
5.0
 40
5.0
 40
6.0
 40
6.0
 40
6.0
 40
7.0
 40
7.0
 40
7.0
 40
7.0
 10
8.087402400698727
 20
10.11670341439015
 10
8.087402400698727
 20
9.48333081386291
 10
9.371301131588096
 20
8.969846064556528
 10
10.95469710314812
 20
8.969846064556528
 10
12.53805201965019
 20
8.969846064556528
 10
13.82176389291615
 20
9.48333081386291
 10
13.82176389291615
 20
10.11670341439015
 10
13.82176389291615
 20
10.11670341439015
 10
13.81612079268726
 20
10.12492514982305
 10
13.81612079268726
 20
10.12492514982305
 10
13.81612079268726
 20
10.12492514982305
 10
13.81612079268726
 20
12.90170417769512
 10
13.81612079268726
 20
12.90170417769512
 10
13.81612079268726
 20
12.90170417769512
 10
8.079928095759776
 20
12.90170417769512
 10
8.079928095759776
 20
12.90170417769512
 10
8.079928095759776
 20
12.90170417769512
 10
8.079928095759776
 20
10.12492514982305
 10
8.079928095759776
 20
10.12492514982305
 10
8.079928095759776
 20
10.12492514982305
 10
8.087402400698727
 20
10.11670341439015
 10
8.087402400698727
 20
10.11670341439015
 97
        0
 97
        0
 75
     2
 76
     1
 98
        0
  0
ENDBLK
  5
50
330
4D
100
AcDbEntity
  8
0
100
AcDbBlockEnd
  0
BLOCK
  5
53
330
51
100
AcDbEntity
  8
0
100
AcDbBlockBegin
  2
block 6
 70
     0
 10
0.0
 20
0.0
 30
0.0
  3
block 6
  1

  0
POLYLINE
  5
55
330
51
100
AcDbEntity
  8
_Calque_
370
     0
100
AcDb2dPolyline
 66
     1
 10
0.0
 20
0.0
 30
0.0
  0
VERTEX
  5
56
330
55
100
AcDbEntity
  8
_Calque_
370
     0
100
AcDbVertex
100
AcDb2dVertex
 10
10.8931817317339
 20
8.70069634370469
 30
0.0
  0
VERTEX
  5
57
330
55
100
AcDbEntity
  8
_Calque_
370
     0
100
AcDbVertex
100
AcDb2dVertex
 10
10.8931817317339
 20
13.27852126119258
 30
0.0
  0
VERTEX
  5
58
330
55
100
AcDbEntity
  8
_Calque_
370
     0
100
AcDbVertex
100
AcDb2dVertex
 10
7.856745350282459
 20
13.27852126119258
 30
0.0
  0
VERTEX
  5
59
330
55
100
AcDbEntity
  8
_Calque_
370
     0
100
AcDbVertex
100
AcDb2dVertex
 10
7.856745350282459
 20
8.70069634370469
 30
0.0
  0
VERTEX
  5
5A
330
55
100
AcDbEntity
  8
_Calque_
370
     0
100
AcDbVertex
100
AcDb2dVertex
 10
10.8931817317339
 20
8.70069634370469
 30
0.0
  0
SEQEND
  5
5B
330
55
100
AcDbEntity
  8
_Calque_
370
     0
  0
POLYLINE
  5
5C
330
51
100
AcDbEntity
  8
_Calque_
370
     0
100
AcDb2dPolyline
 66
     1
 10
0.0
 20
0.0
 30
0.0
  0
VERTEX
  5
5D
330
5C
100
AcDbEntity
  8
_Calque_
370
     0
100
AcDbVertex
100
AcDb2dVertex
 10
9.37496354100823
 20
10.98951537363689
 30
0.0
  0
VERTEX
  5
1E6
330
5C
100
AcDbEntity
  8
0
100
AcDbVertex
100
AcDb2dVertex
 10
9.37496354100823
 20
10.98951537363689
 30
0.0
  0
SEQEND
  5
5E
330
5C
100
AcDbEntity
  8
_Calque_
370
     0
  0
ENDBLK
  5
54
330
51
100
AcDbEntity
  8
0
100
AcDbBlockEnd
  0
BLOCK
  5
64
330
62
100
AcDbEntity
  8
0
100
AcDbBlockBegin
  2
block 7
 70
     0
 10
0.0
 20
0.0
 30
0.0
  3
block 7
  1

  0
INSERT
  5
67
330
62
100
AcDbEntity
  8
_Calque_
100
AcDbBlockReference
  2
block 8
 10
0.0
 20
0.0
 30
0.0
  0
INSERT
  5
C0
330
62
100
AcDbEntity
  8
_Calque_
100
AcDbBlockReference
  2
block 17
 10
0.0
 20
0.0
 30
0.0
  0
ENDBLK
  5
65
330
62
100
AcDbEntity
  8
0
100
AcDbBlockEnd
  0
BLOCK
  5
68
330
66
100
AcDbEntity
  8
0
100
AcDbBlockBegin
  2
block 8
 70
     0
 10
0.0
 20
0.0
 30
0.0
  3
block 8
  1

  0
INSERT
  5
6B
330
66
100
AcDbEntity
  8
_Calque_
100
AcDbBlockReference
  2
block 9
 10
0.0
 20
0.0
 30
0.0
  0
INSERT
  5
71
330
66
100
AcDbEntity
  8
_Calque_
100
AcDbBlockReference
  2
block 10
 10
0.0
 20
0.0
 30
0.0
  0
INSERT
  5
BA
330
66
100
AcDbEntity
  8
_Calque_
100
AcDbBlockReference
  2
block 16
 10
0.0
 20
0.0
 30
0.0
  0
ENDBLK
  5
69
330
66
100
AcDbEntity
  8
0
100
AcDbBlockEnd
  0
BLOCK
  5
6C
330
6A
100
AcDbEntity
  8
0
100
AcDbBlockBegin
  2
block 9
 70
     0
 10
0.0
 20
0.0
 30
0.0
  3
block 9
  1

  0
SPLINE
  5
6E
330
6A
100
AcDbEntity
  8
_Calque_
370
     0
100
AcDbSpline
210
0.0
220
0.0
230
1.0
 70
    11
 71
     3
 72
    32
 73
    28
 74
     0
 42
0.0000000001
 43
0.0000000001
 12
1.0
 22
0.0
 32
0.0
 13
1.0
 23
0.0
 33
0.0
 40
0.0
 40
0.0
 40
0.0
 40
0.0
 40
1.0
 40
1.0
 40
1.0
 40
2.0
 40
2.0
 40
2.0
 40
3.0
 40
3.0
 40
3.0
 40
4.0
 40
4.0
 40
4.0
 40
5.0
 40
5.0
 40
5.0
 40
6.0
 40
6.0
 40
6.0
 40
7.0
 40
7.0
 40
7.0
 40
8.0
 40
8.0
 40
8.0
 40
9.0
 40
9.0
 40
9.0
 40
9.0
 10
16.03157951964364
 20
12.10826933690005
 30
0.0
 10
16.05512358020134
 20
12.10681184743697
 30
0.0
 10
16.07866764075903
 20
12.10591493084427
 30
0.0
 10
16.10239855894021
 20
12.10591493084427
 30
0.0
 10
16.22920014222961
 20
12.10591493084427
 30
0.0
 10
16.35547852417334
 20
12.12800150193889
 30
0.0
 10
16.44509544039136
 20
12.16593359950412
 30
0.0
 10
16.53467498508482
 20
12.20390306859398
 30
0.0
 10
16.58688300508343
 20
12.25719486280877
 30
0.0
 10
16.58688300508343
 20
12.31082300074581
 30
0.0
 10
16.58688300508343
 20
12.31082300074581
 30
0.0
 10
16.58688300508343
 20
13.27852126119258
 30
0.0
 10
16.58688300508343
 20
13.27852126119258
 30
0.0
 10
16.58688300508343
 20
13.27852126119258
 30
0.0
 10
16.54562484182039
 20
13.58216489933775
 30
0.0
 10
16.54562484182039
 20
13.58216489933775
 30
0.0
 10
16.54562484182039
 20
13.58216489933775
 30
0.0
 10
15.28433588337139
 20
13.37195007292952
 30
0.0
 10
15.28433588337139
 20
13.37195007292952
 30
0.0
 10
15.28433588337139
 20
13.37195007292952
 30
0.0
 10
15.70476553618766
 20
12.15737552034896
 30
0.0
 10
15.70476553618766
 20
12.15737552034896
 30
0.0
 10
15.70476553618766
 20
12.15737552034896
 30
0.0
 10
15.96169476846439
 20
12.11066111448052
 30
0.0
 10
15.96169476846439
 20
12.11066111448052
 30
0.0
 10
15.96169476846439
 20
12.11066111448052
 30
0.0
 10
16.03157951964364
 20
12.10826933690005
 30
0.0
 10
16.03157951964364
 20
12.10826933690005
 30
0.0
  0
HATCH
  5
6F
330
6A
100
AcDbEntity
  8
_Calque_
 62
    40
420
 16768256
100
AcDbHatch
 10
0.0
 20
0.0
 30
0.0
210
0.0
220
0.0
230
1.0
  2
SOLID
 70
     1
 71
     0
 91
        1
 92
        1
 93
        1
 72
     4
 94
        3
 73
     0
 74
     1
 95
       32
 96
       28
 40
0.0
 40
0.0
 40
0.0
 40
0.0
 40
1.0
 40
1.0
 40
1.0
 40
2.0
 40
2.0
 40
2.0
 40
3.0
 40
3.0
 40
3.0
 40
4.0
 40
4.0
 40
4.0
 40
5.0
 40
5.0
 40
5.0
 40
6.0
 40
6.0
 40
6.0
 40
7.0
 40
7.0
 40
7.0
 40
8.0
 40
8.0
 40
8.0
 40
9.0
 40
9.0
 40
9.0
 40
9.0
 10
16.03157951964364
 20
12.10826933690005
 10
16.05512358020134
 20
12.10681184743697
 10
16.07866764075903
 20
12.10591493084427
 10
16.10239855894021
 20
12.10591493084427
 10
16.22920014222961
 20
12.10591493084427
 10
16.35547852417334
 20
12.12800150193889
 10
16.44509544039136
 20
12.16593359950412
 10
16.53467498508482
 20
12.20390306859398
 10
16.58688300508343
 20
12.25719486280877
 10
16.58688300508343
 20
12.31082300074581
 10
16.58688300508343
 20
12.31082300074581
 10
16.58688300508343
 20
13.27852126119258
 10
16.58688300508343
 20
13.27852126119258
 10
16.58688300508343
 20
13.27852126119258
 10
16.54562484182039
 20
13.58216489933775
 10
16.54562484182039
 20
13.58216489933775
 10
16.54562484182039
 20
13.58216489933775
 10
15.28433588337139
 20
13.37195007292952
 10
15.28433588337139
 20
13.37195007292952
 10
15.28433588337139
 20
13.37195007292952
 10
15.70476553618766
 20
12.15737552034896
 10
15.70476553618766
 20
12.15737552034896
 10
15.70476553618766
 20
12.15737552034896
 10
15.96169476846439
 20
12.11066111448052
 10
15.96169476846439
 20
12.11066111448052
 10
15.96169476846439
 20
12.11066111448052
 10
16.03157951964364
 20
12.10826933690005
 10
16.03157951964364
 20
12.10826933690005
 97
        0
 97
        0
 75
     2
 76
     1
 98
        0
  0
ENDBLK
  5
6D
330
6A
100
AcDbEntity
  8
0
100
AcDbBlockEnd
  0
BLOCK
  5
72
330
70
100
AcDbEntity
  8
0
100
AcDbBlockBegin
  2
block 10
 70
     0
 10
0.0
 20
0.0
 30
0.0
  3
block 10
  1

  0
INSERT
  5
75
330
70
100
AcDbEntity
  8
_Calque_
100
AcDbBlockReference
  2
block 11
 10
0.0
 20
0.0
 30
0.0
  0
ENDBLK
  5
73
330
70
100
AcDbEntity
  8
0
100
AcDbBlockEnd
  0
BLOCK
  5
76
330
74
100
AcDbEntity
  8
0
100
AcDbBlockBegin
  2
block 11
 70
     0
 10
0.0
 20
0.0
 30
0.0
  3
block 11
  1

  0
INSERT
  5
79
330
74
100
AcDbEntity
  8
_Calque_
100
AcDbBlockReference
  2
block 12
 10
0.0
 20
0.0
 30
0.0
  0
POLYLINE
  5
7E
330
74
100
AcDbEntity
  8
_Calque_
370
     0
100
AcDb2dPolyline
 66
     1
 10
0.0
 20
0.0
 30
0.0
  0
VERTEX
  5
7F
330
7E
100
AcDbEntity
  8
_Calque_
370
     0
100
AcDbVertex
100
AcDb2dVertex
 10
8.664231884362701
 20
10.89153124078659
 30
0.0
  0
VERTEX
  5
80
330
7E
100
AcDbEntity
  8
_Calque_
370
     0
100
AcDbVertex
100
AcDb2dVertex
 10
8.664231884362701
 20
12.23821012826384
 30
0.0
  0
VERTEX
  5
81
330
7E
100
AcDbEntity
  8
_Calque_
370
     0
100
AcDbVertex
100
AcDb2dVertex
 10
9.922942207607882
 20
11.51155820209838
 30
0.0
  0
VERTEX
  5
82
330
7E
100
AcDbEntity
  8
_Calque_
370
     0
100
AcDbVertex
100
AcDb2dVertex
 10
9.943197573992375
 20
11.51850930569162
 30
0.0
  0
VERTEX
  5
83
330
7E
100
AcDbEntity
  8
_Calque_
370
     0
100
AcDbVertex
100
AcDb2dVertex
 10
9.944841921079025
 20
15.56001547228465
 30
0.0
  0
VERTEX
  5
84
330
7E
100
AcDbEntity
  8
_Calque_
370
     0
100
AcDbVertex
100
AcDb2dVertex
 10
4.494391901967803
 20
18.71050974710452
 30
0.0
  0
VERTEX
  5
85
330
7E
100
AcDbEntity
  8
_Calque_
370
     0
100
AcDbVertex
100
AcDb2dVertex
 10
4.329807707211958
 20
18.81417835660788
 30
0.0
  0
VERTEX
  5
86
330
7E
100
AcDbEntity
  8
_Calque_
370
     0
100
AcDbVertex
100
AcDb2dVertex
 10
4.283093301343487
 20
14.49309581377321
 30
0.0
  0
VERTEX
  5
87
330
7E
100
AcDbEntity
  8
_Calque_
370
     0
100
AcDbVertex
100
AcDb2dVertex
 10
5.404239042187078
 20
13.88580853748293
 30
0.0
  0
VERTEX
  5
88
330
7E
100
AcDbEntity
  8
_Calque_
370
     0
100
AcDbVertex
100
AcDb2dVertex
 10
5.591096665661026
 20
12.46101915849413
 30
0.0
  0
VERTEX
  5
89
330
7E
100
AcDbEntity
  8
_Calque_
370
     0
100
AcDbVertex
100
AcDb2dVertex
 10
8.650890250046722
 20
10.709228938426
 30
0.0
  0
VERTEX
  5
8A
330
7E
100
AcDbEntity
  8
_Calque_
370
     0
100
AcDbVertex
100
AcDb2dVertex
 10
8.664231884362701
 20
10.89153124078659
 30
0.0
  0
SEQEND
  5
8C
330
7E
100
AcDbEntity
  8
_Calque_
370
     0
  0
HATCH
  5
8B
330
74
100
AcDbEntity
  8
_Calque_
 62
     9
420
 12369084
100
AcDbHatch
 10
0.0
 20
0.0
 30
0.0
210
0.0
220
0.0
230
1.0
  2
SOLID
 70
     1
 71
     0
 91
        1
 92
        1
 93
       11
 72
     1
 10
8.664231884362701
 20
10.89153124078659
 11
8.664231884362701
 21
12.23821012826384
 72
     1
 10
8.664231884362701
 20
12.23821012826384
 11
9.922942207607882
 21
11.51155820209838
 72
     1
 10
9.922942207607882
 20
11.51155820209838
 11
9.943197573992375
 21
11.51850930569162
 72
     1
 10
9.943197573992375
 20
11.51850930569162
 11
9.944841921079025
 21
15.56001547228465
 72
     1
 10
9.944841921079025
 20
15.56001547228465
 11
4.494391901967803
 21
18.71050974710452
 72
     1
 10
4.494391901967803
 20
18.71050974710452
 11
4.329807707211958
 21
18.81417835660788
 72
     1
 10
4.329807707211958
 20
18.81417835660788
 11
4.283093301343487
 21
14.49309581377321
 72
     1
 10
4.283093301343487
 20
14.49309581377321
 11
5.404239042187078
 21
13.88580853748293
 72
     1
 10
5.404239042187078
 20
13.88580853748293
 11
5.591096665661026
 21
12.46101915849413
 72
     1
 10
5.591096665661026
 20
12.46101915849413
 11
8.650890250046722
 21
10.709228938426
 72
     1
 10
8.650890250046722
 20
10.709228938426
 11
8.664231884362701
 21
10.89153124078659
 97
        0
 75
     2
 76
     1
 98
        0
  0
INSERT
  5
8E
330
74
100
AcDbEntity
  8
_Calque_
100
AcDbBlockReference
  2
block 13
 10
0.0
 20
0.0
 30
0.0
  0
INSERT
  5
94
330
74
100
AcDbEntity
  8
_Calque_
100
AcDbBlockReference
  2
block 14
 10
0.0
 20
0.0
 30
0.0
  0
INSERT
  5
9A
330
74
100
AcDbEntity
  8
_Calque_
100
AcDbBlockReference
  2
block 15
 10
0.0
 20
0.0
 30
0.0
  0
POLYLINE
  5
9F
330
74
100
AcDbEntity
  8
_Calque_
370
     0
100
AcDb2dPolyline
 66
     1
 10
0.0
 20
0.0
 30
0.0
  0
VERTEX
  5
A0
330
9F
100
AcDbEntity
  8
_Calque_
370
     0
100
AcDbVertex
100
AcDb2dVertex
 10
11.80429950379284
 20
10.63404142913458
 30
0.0
  0
VERTEX
  5
A1
330
9F
100
AcDbEntity
  8
_Calque_
370
     0
100
AcDbVertex
100
AcDb2dVertex
 10
11.80429950379284
 20
12.01558795565696
 30
0.0
  0
VERTEX
  5
A2
330
9F
100
AcDbEntity
  8
_Calque_
370
     0
100
AcDbVertex
100
AcDb2dVertex
 10
10.69847608807408
 20
11.71923176482735
 30
0.0
  0
VERTEX
  5
A3
330
9F
100
AcDbEntity
  8
_Calque_
370
     0
100
AcDbVertex
100
AcDb2dVertex
 10
10.69847608807408
 20
10.69715793594962
 30
0.0
  0
VERTEX
  5
A4
330
9F
100
AcDbEntity
  8
_Calque_
370
     0
100
AcDbVertex
100
AcDb2dVertex
 10
11.80411264616936
 20
10.40558530028083
 30
0.0
  0
VERTEX
  5
A5
330
9F
100
AcDbEntity
  8
_Calque_
370
     0
100
AcDbVertex
100
AcDb2dVertex
 10
11.80429950379284
 20
10.63404142913458
 30
0.0
  0
SEQEND
  5
A7
330
9F
100
AcDbEntity
  8
_Calque_
370
     0
  0
HATCH
  5
A6
330
74
100
AcDbEntity
  8
_Calque_
 62
     9
420
 12369084
100
AcDbHatch
 10
0.0
 20
0.0
 30
0.0
210
0.0
220
0.0
230
1.0
  2
SOLID
 70
     1
 71
     0
 91
        1
 92
        1
 93
        5
 72
     1
 10
11.80429950379284
 20
10.63404142913458
 11
11.80429950379284
 21
12.01558795565696
 72
     1
 10
11.80429950379284
 20
12.01558795565696
 11
10.69847608807408
 21
11.71923176482735
 72
     1
 10
10.69847608807408
 20
11.71923176482735
 11
10.69847608807408
 21
10.69715793594962
 72
     1
 10
10.69847608807408
 20
10.69715793594962
 11
11.80411264616936
 21
10.40558530028083
 72
     1
 10
11.80411264616936
 20
10.40558530028083
 11
11.80429950379284
 21
10.63404142913458
 97
        0
 75
     2
 76
     1
 98
        0
  0
POLYLINE
  5
A8
330
74
100
AcDbEntity
  8
_Calque_
370
     0
100
AcDb2dPolyline
 66
     1
 10
0.0
 20
0.0
 30
0.0
  0
VERTEX
  5
A9
330
A8
100
AcDbEntity
  8
_Calque_
370
     0
100
AcDbVertex
100
AcDb2dVertex
 10
10.72639261702106
 20
11.24058129025369
 30
0.0
  0
VERTEX
  5
AA
330
A8
100
AcDbEntity
  8
_Calque_
370
     0
100
AcDbVertex
100
AcDb2dVertex
 10
11.80429950379284
 20
10.63404142913458
 30
0.0
  0
VERTEX
  5
AB
330
A8
100
AcDbEntity
  8
_Calque_
370
     0
100
AcDbVertex
100
AcDb2dVertex
 10
15.97043970524297
 20
11.75025013032397
 30
0.0
  0
VERTEX
  5
AC
330
A8
100
AcDbEntity
  8
_Calque_
370
     0
100
AcDbVertex
100
AcDb2dVertex
 10
15.97043970524297
 20
13.15097224740933
 30
0.0
  0
VERTEX
  5
AD
330
A8
100
AcDbEntity
  8
_Calque_
370
     0
100
AcDbVertex
100
AcDb2dVertex
 10
17.89507322702448
 20
13.66206521913517
 30
0.0
  0
VERTEX
  5
AE
330
A8
100
AcDbEntity
  8
_Calque_
370
     0
100
AcDbVertex
100
AcDb2dVertex
 10
17.89507322702448
 20
17.73171214382343
 30
0.0
  0
VERTEX
  5
AF
330
A8
100
AcDbEntity
  8
_Calque_
370
     0
100
AcDbVertex
100
AcDb2dVertex
 10
12.44025073952396
 20
20.89495010856424
 30
0.0
  0
VERTEX
  5
B0
330
A8
100
AcDbEntity
  8
_Calque_
370
     0
100
AcDbVertex
100
AcDb2dVertex
 10
4.494391901967803
 20
18.76581960365285
 30
0.0
  0
VERTEX
  5
B1
330
A8
100
AcDbEntity
  8
_Calque_
370
     0
100
AcDbVertex
100
AcDb2dVertex
 10
4.494391901967803
 20
14.67229227468469
 30
0.0
  0
VERTEX
  5
B2
330
A8
100
AcDbEntity
  8
_Calque_
370
     0
100
AcDbVertex
100
AcDb2dVertex
 10
5.804600186242334
 20
13.91570575723873
 30
0.0
  0
VERTEX
  5
B3
330
A8
100
AcDbEntity
  8
_Calque_
370
     0
100
AcDbVertex
100
AcDb2dVertex
 10
5.804600186242334
 20
12.54256382537817
 30
0.0
  0
VERTEX
  5
B4
330
A8
100
AcDbEntity
  8
_Calque_
370
     0
100
AcDbVertex
100
AcDb2dVertex
 10
8.664231884362701
 20
10.89153124078659
 30
0.0
  0
VERTEX
  5
B5
330
A8
100
AcDbEntity
  8
_Calque_
370
     0
100
AcDbVertex
100
AcDb2dVertex
 10
9.681895873326447
 20
11.16430199463446
 30
0.0
  0
VERTEX
  5
B6
330
A8
100
AcDbEntity
  8
_Calque_
370
     0
100
AcDbVertex
100
AcDb2dVertex
 10
10.72639261702106
 20
11.24058129025369
 30
0.0
  0
SEQEND
  5
B8
330
A8
100
AcDbEntity
  8
_Calque_
370
     0
  0
HATCH
  5
B7
330
74
100
AcDbEntity
  8
_Calque_
 62
   254
420
 14935011
100
AcDbHatch
 10
0.0
 20
0.0
 30
0.0
210
0.0
220
0.0
230
1.0
  2
SOLID
 70
     1
 71
     0
 91
        1
 92
        1
 93
       13
 72
     1
 10
10.72639261702106
 20
11.24058129025369
 11
11.80429950379284
 21
10.63404142913458
 72
     1
 10
11.80429950379284
 20
10.63404142913458
 11
15.97043970524297
 21
11.75025013032397
 72
     1
 10
15.97043970524297
 20
11.75025013032397
 11
15.97043970524297
 21
13.15097224740933
 72
     1
 10
15.97043970524297
 20
13.15097224740933
 11
17.89507322702448
 21
13.66206521913517
 72
     1
 10
17.89507322702448
 20
13.66206521913517
 11
17.89507322702448
 21
17.73171214382343
 72
     1
 10
17.89507322702448
 20
17.73171214382343
 11
12.44025073952396
 21
20.89495010856424
 72
     1
 10
12.44025073952396
 20
20.89495010856424
 11
4.494391901967803
 21
18.76581960365285
 72
     1
 10
4.494391901967803
 20
18.76581960365285
 11
4.494391901967803
 21
14.67229227468469
 72
     1
 10
4.494391901967803
 20
14.67229227468469
 11
5.804600186242334
 21
13.91570575723873
 72
     1
 10
5.804600186242334
 20
13.91570575723873
 11
5.804600186242334
 21
12.54256382537817
 72
     1
 10
5.804600186242334
 20
12.54256382537817
 11
8.664231884362701
 21
10.89153124078659
 72
     1
 10
8.664231884362701
 20
10.89153124078659
 11
9.681895873326447
 21
11.16430199463446
 72
     1
 10
9.681895873326447
 20
11.16430199463446
 11
10.72639261702106
 21
11.24058129025369
 97
        0
 75
     2
 76
     1
 98
        0
  0
ENDBLK
  5
77
330
74
100
AcDbEntity
  8
0
100
AcDbBlockEnd
  0
BLOCK
  5
7A
330
78
100
AcDbEntity
  8
0
100
AcDbBlockBegin
  2
block 12
 70
     0
 10
0.0
 20
0.0
 30
0.0
  3
block 12
  1

  0
SPLINE
  5
7C
330
78
100
AcDbEntity
  8
_Calque_
370
     0
100
AcDbSpline
210
0.0
220
0.0
230
1.0
 70
    11
 71
     3
 72
    29
 73
    25
 74
     0
 42
0.0000000001
 43
0.0000000001
 12
1.0
 22
0.0
 32
0.0
 13
1.0
 23
0.0
 33
0.0
 40
0.0
 40
0.0
 40
0.0
 40
0.0
 40
1.0
 40
1.0
 40
1.0
 40
2.0
 40
2.0
 40
2.0
 40
3.0
 40
3.0
 40
3.0
 40
4.0
 40
4.0
 40
4.0
 40
5.0
 40
5.0
 40
5.0
 40
6.0
 40
6.0
 40
6.0
 40
7.0
 40
7.0
 40
7.0
 40
8.0
 40
8.0
 40
8.0
 40
8.0
 10
17.14891336496841
 20
17.91453364263029
 30
0.0
 10
17.14891336496841
 20
17.79886877369994
 30
0.0
 10
17.03631296106293
 20
17.68391396373878
 30
0.0
 10
16.84269109161928
 20
17.60196238450228
 30
0.0
 10
16.6491065937002
 20
17.5202266855756
 30
0.0
 10
16.37700452239746
 20
17.47257799158977
 30
0.0
 10
16.10292176028602
 20
17.47257799158977
 30
0.0
 10
15.82921271342135
 20
17.47257799158977
 30
0.0
 10
15.55696115601982
 20
17.5202266855756
 30
0.0
 10
15.36333928657617
 20
17.60196238450228
 30
0.0
 10
15.16975478865709
 20
17.68391396373878
 30
0.0
 10
15.05696947252694
 20
17.79886877369994
 30
0.0
 10
15.05696947252694
 20
17.91453364263029
 30
0.0
 10
15.05696947252694
 20
18.03042274070888
 30
0.0
 10
15.16975478865709
 20
18.14537755066997
 30
0.0
 10
15.36333928657617
 20
18.22714644670215
 30
0.0
 10
15.55696115601982
 20
18.30906482883315
 30
0.0
 10
15.82921271342135
 20
18.35667615129435
 30
0.0
 10
16.10292176028602
 20
18.35667615129435
 30
0.0
 10
16.37700452239746
 20
18.35667615129435
 30
0.0
 10
16.6491065937002
 20
18.30906482883315
 30
0.0
 10
16.84269109161928
 20
18.22714644670215
 30
0.0
 10
17.03631296106293
 20
18.14537755066997
 30
0.0
 10
17.14891336496841
 20
18.03042274070888
 30
0.0
 10
17.14891336496841
 20
17.91453364263029
 30
0.0
  0
HATCH
  5
7D
330
78
100
AcDbEntity
  8
_Calque_
 62
    40
420
 16768256
100
AcDbHatch
 10
0.0
 20
0.0
 30
0.0
210
0.0
220
0.0
230
1.0
  2
SOLID
 70
     1
 71
     0
 91
        1
 92
        1
 93
        1
 72
     4
 94
        3
 73
     0
 74
     1
 95
       29
 96
       25
 40
0.0
 40
0.0
 40
0.0
 40
0.0
 40
1.0
 40
1.0
 40
1.0
 40
2.0
 40
2.0
 40
2.0
 40
3.0
 40
3.0
 40
3.0
 40
4.0
 40
4.0
 40
4.0
 40
5.0
 40
5.0
 40
5.0
 40
6.0
 40
6.0
 40
6.0
 40
7.0
 40
7.0
 40
7.0
 40
8.0
 40
8.0
 40
8.0
 40
8.0
 10
17.14891336496841
 20
17.91453364263029
 10
17.14891336496841
 20
17.79886877369994
 10
17.03631296106293
 20
17.68391396373878
 10
16.84269109161928
 20
17.60196238450228
 10
16.6491065937002
 20
17.5202266855756
 10
16.37700452239746
 20
17.47257799158977
 10
16.10292176028602
 20
17.47257799158977
 10
15.82921271342135
 20
17.47257799158977
 10
15.55696115601982
 20
17.5202266855756
 10
15.36333928657617
 20
17.60196238450228
 10
15.16975478865709
 20
17.68391396373878
 10
15.05696947252694
 20
17.79886877369994
 10
15.05696947252694
 20
17.91453364263029
 10
15.05696947252694
 20
18.03042274070888
 10
15.16975478865709
 20
18.14537755066997
 10
15.36333928657617
 20
18.22714644670215
 10
15.55696115601982
 20
18.30906482883315
 10
15.82921271342135
 20
18.35667615129435
 10
16.10292176028602
 20
18.35667615129435
 10
16.37700452239746
 20
18.35667615129435
 10
16.6491065937002
 20
18.30906482883315
 10
16.84269109161928
 20
18.22714644670215
 10
17.03631296106293
 20
18.14537755066997
 10
17.14891336496841
 20
18.03042274070888
 10
17.14891336496841
 20
17.91453364263029
 97
        0
 97
        0
 75
     2
 76
     1
 98
        0
  0
ENDBLK
  5
7B
330
78
100
AcDbEntity
  8
0
100
AcDbBlockEnd
  0
BLOCK
  5
8F
330
8D
100
AcDbEntity
  8
0
100
AcDbBlockBegin
  2
block 13
 70
     0
 10
0.0
 20
0.0
 30
0.0
  3
block 13
  1

  0
SPLINE
  5
91
330
8D
100
AcDbEntity
  8
_Calque_
370
     0
100
AcDbSpline
210
0.0
220
0.0
230
1.0
 70
    11
 71
     3
 72
    29
 73
    25
 74
     0
 42
0.0000000001
 43
0.0000000001
 12
1.0
 22
0.0
 32
0.0
 13
1.0
 23
0.0
 33
0.0
 40
0.0
 40
0.0
 40
0.0
 40
0.0
 40
1.0
 40
1.0
 40
1.0
 40
2.0
 40
2.0
 40
2.0
 40
3.0
 40
3.0
 40
3.0
 40
4.0
 40
4.0
 40
4.0
 40
5.0
 40
5.0
 40
5.0
 40
6.0
 40
6.0
 40
6.0
 40
7.0
 40
7.0
 40
7.0
 40
8.0
 40
8.0
 40
8.0
 40
8.0
 10
11.26289822553947
 20
16.34960104603611
 30
0.0
 10
11.26289822553947
 20
16.23393617710573
 30
0.0
 10
11.15029782163399
 20
16.11898136714457
 30
0.0
 10
10.95667595219028
 20
16.03702561348888
 30
0.0
 10
10.76309145427139
 20
15.95529408898139
 30
0.0
 10
10.49098938296864
 20
15.90764539499556
 30
0.0
 10
10.21690662085705
 20
15.90764539499556
 30
0.0
 10
9.943197573992375
 20
15.90764539499556
 30
0.0
 10
9.670946016590875
 20
15.95529408898139
 30
0.0
 10
9.477324147147197
 20
16.03702561348888
 30
0.0
 10
9.283739649228247
 20
16.11898136714457
 30
0.0
 10
9.17095418440475
 20
16.23393617710573
 30
0.0
 10
9.17095418440475
 20
16.34960104603611
 30
0.0
 10
9.17095418440475
 20
16.46549428982417
 30
0.0
 10
9.283739649228247
 20
16.58044495407576
 30
0.0
 10
9.477324147147197
 20
16.66221385010801
 30
0.0
 10
9.670946016590875
 20
16.744132232239
 30
0.0
 10
9.943197573992375
 20
16.79174770865135
 30
0.0
 10
10.21690662085705
 20
16.79174770865135
 30
0.0
 10
10.49098938296864
 20
16.79174770865135
 30
0.0
 10
10.76309145427139
 20
16.744132232239
 30
0.0
 10
10.95667595219028
 20
16.66221385010801
 30
0.0
 10
11.15029782163399
 20
16.58044495407576
 30
0.0
 10
11.26289822553947
 20
16.46549428982417
 30
0.0
 10
11.26289822553947
 20
16.34960104603611
 30
0.0
  0
HATCH
  5
92
330
8D
100
AcDbEntity
  8
_Calque_
 62
    40
420
 16768256
100
AcDbHatch
 10
0.0
 20
0.0
 30
0.0
210
0.0
220
0.0
230
1.0
  2
SOLID
 70
     1
 71
     0
 91
        1
 92
        1
 93
        1
 72
     4
 94
        3
 73
     0
 74
     1
 95
       29
 96
       25
 40
0.0
 40
0.0
 40
0.0
 40
0.0
 40
1.0
 40
1.0
 40
1.0
 40
2.0
 40
2.0
 40
2.0
 40
3.0
 40
3.0
 40
3.0
 40
4.0
 40
4.0
 40
4.0
 40
5.0
 40
5.0
 40
5.0
 40
6.0
 40
6.0
 40
6.0
 40
7.0
 40
7.0
 40
7.0
 40
8.0
 40
8.0
 40
8.0
 40
8.0
 10
11.26289822553947
 20
16.34960104603611
 10
11.26289822553947
 20
16.23393617710573
 10
11.15029782163399
 20
16.11898136714457
 10
10.95667595219028
 20
16.03702561348888
 10
10.76309145427139
 20
15.95529408898139
 10
10.49098938296864
 20
15.90764539499556
 10
10.21690662085705
 20
15.90764539499556
 10
9.943197573992375
 20
15.90764539499556
 10
9.670946016590875
 20
15.95529408898139
 10
9.477324147147197
 20
16.03702561348888
 10
9.283739649228247
 20
16.11898136714457
 10
9.17095418440475
 20
16.23393617710573
 10
9.17095418440475
 20
16.34960104603611
 10
9.17095418440475
 20
16.46549428982417
 10
9.283739649228247
 20
16.58044495407576
 10
9.477324147147197
 20
16.66221385010801
 10
9.670946016590875
 20
16.744132232239
 10
9.943197573992375
 20
16.79174770865135
 10
10.21690662085705
 20
16.79174770865135
 10
10.49098938296864
 20
16.79174770865135
 10
10.76309145427139
 20
16.744132232239
 10
10.95667595219028
 20
16.66221385010801
 10
11.15029782163399
 20
16.58044495407576
 10
11.26289822553947
 20
16.46549428982417
 10
11.26289822553947
 20
16.34960104603611
 97
        0
 97
        0
 75
     2
 76
     1
 98
        0
  0
ENDBLK
  5
90
330
8D
100
AcDbEntity
  8
0
100
AcDbBlockEnd
  0
BLOCK
  5
95
330
93
100
AcDbEntity
  8
0
100
AcDbBlockBegin
  2
block 14
 70
     0
 10
0.0
 20
0.0
 30
0.0
  3
block 14
  1

  0
SPLINE
  5
97
330
93
100
AcDbEntity
  8
_Calque_
370
     0
100
AcDbSpline
210
0.0
220
0.0
230
1.0
 70
    11
 71
     3
 72
    29
 73
    25
 74
     0
 42
0.0000000001
 43
0.0000000001
 12
1.0
 22
0.0
 32
0.0
 13
1.0
 23
0.0
 33
0.0
 40
0.0
 40
0.0
 40
0.0
 40
0.0
 40
1.0
 40
1.0
 40
1.0
 40
2.0
 40
2.0
 40
2.0
 40
3.0
 40
3.0
 40
3.0
 40
4.0
 40
4.0
 40
4.0
 40
5.0
 40
5.0
 40
5.0
 40
6.0
 40
6.0
 40
6.0
 40
7.0
 40
7.0
 40
7.0
 40
8.0
 40
8.0
 40
8.0
 40
8.0
 10
7.338888132586788
 20
18.61524973065754
 30
0.0
 10
7.338888132586788
 20
18.49958486172716
 30
0.0
 10
7.226287728681436
 20
18.384630051766
 30
0.0
 10
7.032665859237727
 20
18.30267849023109
 30
0.0
 10
6.839081361318713
 20
18.22094277360283
 30
0.0
 10
6.566979290015965
 20
18.17329407961699
 30
0.0
 10
6.29289652790443
 20
18.17329407961699
 30
0.0
 10
6.019187481039824
 20
18.17329407961699
 30
0.0
 10
5.746935923638291
 20
18.22094277360283
 30
0.0
 10
5.553314054194582
 20
18.30267849023109
 30
0.0
 10
5.3597295562756
 20
18.384630051766
 30
0.0
 10
5.246943992323301
 20
18.49958486172716
 30
0.0
 10
5.246943992323301
 20
18.61524973065754
 30
0.0
 10
5.246943992323301
 20
18.73113882873607
 30
0.0
 10
5.3597295562756
 20
18.84609363869726
 30
0.0
 10
5.553314054194582
 20
18.92786253472944
 30
0.0
 10
5.746935923638291
 20
19.0097809168604
 30
0.0
 10
6.019187481039824
 20
19.05739223932154
 30
0.0
 10
6.29289652790443
 20
19.05739223932154
 30
0.0
 10
6.566979290015965
 20
19.05739223932154
 30
0.0
 10
6.839081361318713
 20
19.0097809168604
 30
0.0
 10
7.032665859237727
 20
18.92786253472944
 30
0.0
 10
7.226287728681436
 20
18.84609363869726
 30
0.0
 10
7.338888132586788
 20
18.73113882873607
 30
0.0
 10
7.338888132586788
 20
18.61524973065754
 30
0.0
  0
HATCH
  5
98
330
93
100
AcDbEntity
  8
_Calque_
 62
    40
420
 16768256
100
AcDbHatch
 10
0.0
 20
0.0
 30
0.0
210
0.0
220
0.0
230
1.0
  2
SOLID
 70
     1
 71
     0
 91
        1
 92
        1
 93
        1
 72
     4
 94
        3
 73
     0
 74
     1
 95
       29
 96
       25
 40
0.0
 40
0.0
 40
0.0
 40
0.0
 40
1.0
 40
1.0
 40
1.0
 40
2.0
 40
2.0
 40
2.0
 40
3.0
 40
3.0
 40
3.0
 40
4.0
 40
4.0
 40
4.0
 40
5.0
 40
5.0
 40
5.0
 40
6.0
 40
6.0
 40
6.0
 40
7.0
 40
7.0
 40
7.0
 40
8.0
 40
8.0
 40
8.0
 40
8.0
 10
7.338888132586788
 20
18.61524973065754
 10
7.338888132586788
 20
18.49958486172716
 10
7.226287728681436
 20
18.384630051766
 10
7.032665859237727
 20
18.30267849023109
 10
6.839081361318713
 20
18.22094277360283
 10
6.566979290015965
 20
18.17329407961699
 10
6.29289652790443
 20
18.17329407961699
 10
6.019187481039824
 20
18.17329407961699
 10
5.746935923638291
 20
18.22094277360283
 10
5.553314054194582
 20
18.30267849023109
 10
5.3597295562756
 20
18.384630051766
 10
5.246943992323301
 20
18.49958486172716
 10
5.246943992323301
 20
18.61524973065754
 10
5.246943992323301
 20
18.73113882873607
 10
5.3597295562756
 20
18.84609363869726
 10
5.553314054194582
 20
18.92786253472944
 10
5.746935923638291
 20
19.0097809168604
 10
6.019187481039824
 20
19.05739223932154
 10
6.29289652790443
 20
19.05739223932154
 10
6.566979290015965
 20
19.05739223932154
 10
6.839081361318713
 20
19.0097809168604
 10
7.032665859237727
 20
18.92786253472944
 10
7.226287728681436
 20
18.84609363869726
 10
7.338888132586788
 20
18.73113882873607
 10
7.338888132586788
 20
18.61524973065754
 97
        0
 97
        0
 75
     2
 76
     1
 98
        0
  0
ENDBLK
  5
96
330
93
100
AcDbEntity
  8
0
100
AcDbBlockEnd
  0
BLOCK
  5
9B
330
99
100
AcDbEntity
  8
0
100
AcDbBlockBegin
  2
block 15
 70
     0
 10
0.0
 20
0.0
 30
0.0
  3
block 15
  1

  0
SPLINE
  5
9D
330
99
100
AcDbEntity
  8
_Calque_
370
     0
100
AcDbSpline
210
0.0
220
0.0
230
1.0
 70
    11
 71
     3
 72
    29
 73
    25
 74
     0
 42
0.0000000001
 43
0.0000000001
 12
1.0
 22
0.0
 32
0.0
 13
1.0
 23
0.0
 33
0.0
 40
0.0
 40
0.0
 40
0.0
 40
0.0
 40
1.0
 40
1.0
 40
1.0
 40
2.0
 40
2.0
 40
2.0
 40
3.0
 40
3.0
 40
3.0
 40
4.0
 40
4.0
 40
4.0
 40
5.0
 40
5.0
 40
5.0
 40
6.0
 40
6.0
 40
6.0
 40
7.0
 40
7.0
 40
7.0
 40
8.0
 40
8.0
 40
8.0
 40
8.0
 10
13.22490327201569
 20
20.18018232725175
 30
0.0
 10
13.22490327201569
 20
20.06451745832137
 30
0.0
 10
13.11230286811034
 20
19.94956264836021
 30
0.0
 10
12.9186809986667
 20
19.86760689470458
 30
0.0
 10
12.72509650074762
 20
19.78587537019704
 30
0.0
 10
12.45299442944494
 20
19.7382266762112
 30
0.0
 10
12.17891166733331
 20
19.7382266762112
 30
0.0
 10
11.90520262046876
 20
19.7382266762112
 30
0.0
 10
11.63295106306723
 20
19.78587537019704
 30
0.0
 10
11.43932919362346
 20
19.86760689470458
 30
0.0
 10
11.24574469570451
 20
19.94956264836021
 30
0.0
 10
11.13295928044539
 20
20.06451745832137
 30
0.0
 10
11.13295928044539
 20
20.18018232725175
 30
0.0
 10
11.13295928044539
 20
20.29607566780842
 30
0.0
 10
11.24574469570451
 20
20.41102623529147
 30
0.0
 10
11.43932919362346
 20
20.49279513132365
 30
0.0
 10
11.63295106306723
 20
20.57471351345461
 30
0.0
 10
11.90520262046876
 20
20.62232908663559
 30
0.0
 10
12.17891166733331
 20
20.62232908663559
 30
0.0
 10
12.45299442944494
 20
20.62232908663559
 30
0.0
 10
12.72509650074762
 20
20.57471351345461
 30
0.0
 10
12.9186809986667
 20
20.49279513132365
 30
0.0
 10
13.11230286811034
 20
20.41102623529147
 30
0.0
 10
13.22490327201569
 20
20.29607566780842
 30
0.0
 10
13.22490327201569
 20
20.18018232725175
 30
0.0
  0
HATCH
  5
9E
330
99
100
AcDbEntity
  8
_Calque_
 62
    40
420
 16768256
100
AcDbHatch
 10
0.0
 20
0.0
 30
0.0
210
0.0
220
0.0
230
1.0
  2
SOLID
 70
     1
 71
     0
 91
        1
 92
        1
 93
        1
 72
     4
 94
        3
 73
     0
 74
     1
 95
       29
 96
       25
 40
0.0
 40
0.0
 40
0.0
 40
0.0
 40
1.0
 40
1.0
 40
1.0
 40
2.0
 40
2.0
 40
2.0
 40
3.0
 40
3.0
 40
3.0
 40
4.0
 40
4.0
 40
4.0
 40
5.0
 40
5.0
 40
5.0
 40
6.0
 40
6.0
 40
6.0
 40
7.0
 40
7.0
 40
7.0
 40
8.0
 40
8.0
 40
8.0
 40
8.0
 10
13.22490327201569
 20
20.18018232725175
 10
13.22490327201569
 20
20.06451745832137
 10
13.11230286811034
 20
19.94956264836021
 10
12.9186809986667
 20
19.86760689470458
 10
12.72509650074762
 20
19.78587537019704
 10
12.45299442944494
 20
19.7382266762112
 10
12.17891166733331
 20
19.7382266762112
 10
11.90520262046876
 20
19.7382266762112
 10
11.63295106306723
 20
19.78587537019704
 10
11.43932919362346
 20
19.86760689470458
 10
11.24574469570451
 20
19.94956264836021
 10
11.13295928044539
 20
20.06451745832137
 10
11.13295928044539
 20
20.18018232725175
 10
11.13295928044539
 20
20.29607566780842
 10
11.24574469570451
 20
20.41102623529147
 10
11.43932919362346
 20
20.49279513132365
 10
11.63295106306723
 20
20.57471351345461
 10
11.90520262046876
 20
20.62232908663559
 10
12.17891166733331
 20
20.62232908663559
 10
12.45299442944494
 20
20.62232908663559
 10
12.72509650074762
 20
20.57471351345461
 10
12.9186809986667
 20
20.49279513132365
 10
13.11230286811034
 20
20.41102623529147
 10
13.22490327201569
 20
20.29607566780842
 10
13.22490327201569
 20
20.18018232725175
 97
        0
 97
        0
 75
     2
 76
     1
 98
        0
  0
ENDBLK
  5
9C
330
99
100
AcDbEntity
  8
0
100
AcDbBlockEnd
  0
BLOCK
  5
BB
330
B9
100
AcDbEntity
  8
0
100
AcDbBlockBegin
  2
block 16
 70
     0
 10
0.0
 20
0.0
 30
0.0
  3
block 16
  1

  0
SPLINE
  5
BD
330
B9
100
AcDbEntity
  8
_Calque_
370
     0
100
AcDbSpline
210
0.0
220
0.0
230
1.0
 70
    11
 71
     3
 72
    29
 73
    25
 74
     0
 42
0.0000000001
 43
0.0000000001
 12
1.0
 22
0.0
 32
0.0
 13
1.0
 23
0.0
 33
0.0
 40
0.0
 40
0.0
 40
0.0
 40
0.0
 40
1.0
 40
1.0
 40
1.0
 40
2.0
 40
2.0
 40
2.0
 40
3.0
 40
3.0
 40
3.0
 40
4.0
 40
4.0
 40
4.0
 40
5.0
 40
5.0
 40
5.0
 40
6.0
 40
6.0
 40
6.0
 40
7.0
 40
7.0
 40
7.0
 40
8.0
 40
8.0
 40
8.0
 40
8.0
 10
10.70086786565448
 20
11.7135886645984
 30
0.0
 10
10.70086786565448
 20
11.7135886645984
 30
0.0
 10
10.70086786565448
 20
10.74589040415164
 30
0.0
 10
10.70086786565448
 20
10.74589040415164
 30
0.0
 10
10.70086786565448
 20
10.69226226621459
 30
0.0
 10
10.64865984565594
 20
10.6389704719998
 30
0.0
 10
10.55908030096255
 20
10.60100100290988
 30
0.0
 10
10.46946338474439
 20
10.56306890534472
 30
0.0
 10
10.34318500280077
 20
10.54098633029392
 30
0.0
 10
10.21638341951134
 20
10.54098633029392
 30
0.0
 10
10.08954628460834
 20
10.54098633029392
 30
0.0
 10
9.963452940376996
 20
10.56306890534472
 30
0.0
 10
9.873686538060154
 20
10.60100100290988
 30
0.0
 10
9.784069621842033
 20
10.6389704719998
 30
0.0
 10
9.731900784244257
 20
10.69226226621459
 30
0.0
 10
9.731900784244257
 20
10.74589040415164
 30
0.0
 10
9.731900784244257
 20
10.74589040415164
 30
0.0
 10
9.731900784244257
 20
11.6201598528614
 30
0.0
 10
9.731900784244257
 20
11.6201598528614
 30
0.0
 10
9.731900784244257
 20
11.6201598528614
 30
0.0
 10
9.912179208495724
 20
11.50337383819024
 30
0.0
 10
9.912179208495724
 20
11.50337383819024
 30
0.0
 10
9.912179208495724
 20
11.50337383819024
 30
0.0
 10
10.70086786565448
 20
11.7135886645984
 30
0.0
 10
10.70086786565448
 20
11.7135886645984
 30
0.0
  0
HATCH
  5
BE
330
B9
100
AcDbEntity
  8
_Calque_
 62
    40
420
 16768256
100
AcDbHatch
 10
0.0
 20
0.0
 30
0.0
210
0.0
220
0.0
230
1.0
  2
SOLID
 70
     1
 71
     0
 91
        1
 92
        1
 93
        1
 72
     4
 94
        3
 73
     0
 74
     1
 95
       29
 96
       25
 40
0.0
 40
0.0
 40
0.0
 40
0.0
 40
1.0
 40
1.0
 40
1.0
 40
2.0
 40
2.0
 40
2.0
 40
3.0
 40
3.0
 40
3.0
 40
4.0
 40
4.0
 40
4.0
 40
5.0
 40
5.0
 40
5.0
 40
6.0
 40
6.0
 40
6.0
 40
7.0
 40
7.0
 40
7.0
 40
8.0
 40
8.0
 40
8.0
 40
8.0
 10
10.70086786565448
 20
11.7135886645984
 10
10.70086786565448
 20
11.7135886645984
 10
10.70086786565448
 20
10.74589040415164
 10
10.70086786565448
 20
10.74589040415164
 10
10.70086786565448
 20
10.69226226621459
 10
10.64865984565594
 20
10.6389704719998
 10
10.55908030096255
 20
10.60100100290988
 10
10.46946338474439
 20
10.56306890534472
 10
10.34318500280077
 20
10.54098633029392
 10
10.21638341951134
 20
10.54098633029392
 10
10.08954628460834
 20
10.54098633029392
 10
9.963452940376996
 20
10.56306890534472
 10
9.873686538060154
 20
10.60100100290988
 10
9.784069621842033
 20
10.6389704719998
 10
9.731900784244257
 20
10.69226226621459
 10
9.731900784244257
 20
10.74589040415164
 10
9.731900784244257
 20
10.74589040415164
 10
9.731900784244257
 20
11.6201598528614
 10
9.731900784244257
 20
11.6201598528614
 10
9.731900784244257
 20
11.6201598528614
 10
9.912179208495724
 20
11.50337383819024
 10
9.912179208495724
 20
11.50337383819024
 10
9.912179208495724
 20
11.50337383819024
 10
10.70086786565448
 20
11.7135886645984
 10
10.70086786565448
 20
11.7135886645984
 97
        0
 97
        0
 75
     2
 76
     1
 98
        0
  0
ENDBLK
  5
BC
330
B9
100
AcDbEntity
  8
0
100
AcDbBlockEnd
  0
BLOCK
  5
C1
330
BF
100
AcDbEntity
  8
0
100
AcDbBlockBegin
  2
block 17
 70
     0
 10
0.0
 20
0.0
 30
0.0
  3
block 17
  1

  0
POLYLINE
  5
C3
330
BF
100
AcDbEntity
  8
_Calque_
 62
     7
420
 16777215
370
     9
100
AcDb2dPolyline
 66
     1
 10
0.0
 20
0.0
 30
0.0
  0
VERTEX
  5
C4
330
C3
100
AcDbEntity
  8
_Calque_
 62
     7
420
 16777215
370
     9
100
AcDbVertex
100
AcDb2dVertex
 10
11.80429950379284
 20
10.63404142913458
 30
0.0
  0
VERTEX
  5
C5
330
C3
100
AcDbEntity
  8
_Calque_
 62
     7
420
 16777215
370
     9
100
AcDbVertex
100
AcDb2dVertex
 10
11.80429950379284
 20
12.01558795565696
 30
0.0
  0
SEQEND
  5
C6
330
C3
100
AcDbEntity
  8
_Calque_
 62
     7
420
 16777215
370
     9
  0
POLYLINE
  5
C7
330
BF
100
AcDbEntity
  8
_Calque_
 62
     7
420
 16777215
370
    20
100
AcDb2dPolyline
 66
     1
 10
0.0
 20
0.0
 30
0.0
  0
VERTEX
  5
C8
330
C7
100
AcDbEntity
  8
_Calque_
 62
     7
420
 16777215
370
    20
100
AcDbVertex
100
AcDb2dVertex
 10
11.80429950379284
 20
12.01558795565696
 30
0.0
  0
VERTEX
  5
C9
330
C7
100
AcDbEntity
  8
_Calque_
 62
     7
420
 16777215
370
    20
100
AcDbVertex
100
AcDb2dVertex
 10
9.922942207607882
 20
11.51155820209838
 30
0.0
  0
VERTEX
  5
CA
330
C7
100
AcDbEntity
  8
_Calque_
 62
     7
420
 16777215
370
    20
100
AcDbVertex
100
AcDb2dVertex
 10
8.664231884362701
 20
12.23821012826384
 30
0.0
  0
SEQEND
  5
CB
330
C7
100
AcDbEntity
  8
_Calque_
 62
     7
420
 16777215
370
    20
  0
POLYLINE
  5
CC
330
BF
100
AcDbEntity
  8
_Calque_
 62
     7
420
 16777215
370
     9
100
AcDb2dPolyline
 66
     1
 10
0.0
 20
0.0
 30
0.0
  0
VERTEX
  5
CD
330
CC
100
AcDbEntity
  8
_Calque_
 62
     7
420
 16777215
370
     9
100
AcDbVertex
100
AcDb2dVertex
 10
8.664231884362701
 20
12.23821012826384
 30
0.0
  0
VERTEX
  5
CE
330
CC
100
AcDbEntity
  8
_Calque_
 62
     7
420
 16777215
370
     9
100
AcDbVertex
100
AcDb2dVertex
 10
8.664231884362701
 20
10.89153124078659
 30
0.0
  0
SEQEND
  5
CF
330
CC
100
AcDbEntity
  8
_Calque_
 62
     7
420
 16777215
370
     9
  0
POLYLINE
  5
D0
330
BF
100
AcDbEntity
  8
_Calque_
 62
     7
420
 16777215
370
     9
100
AcDb2dPolyline
 66
     1
 10
0.0
 20
0.0
 30
0.0
  0
VERTEX
  5
D1
330
D0
100
AcDbEntity
  8
_Calque_
 62
     7
420
 16777215
370
     9
100
AcDbVertex
100
AcDb2dVertex
 10
4.494391901967803
 20
18.71050974710452
 30
0.0
  0
VERTEX
  5
D2
330
D0
100
AcDbEntity
  8
_Calque_
 62
     7
420
 16777215
370
     9
100
AcDbVertex
100
AcDb2dVertex
 10
9.946486268165517
 20
15.56278096511208
 30
0.0
  0
VERTEX
  5
D3
330
D0
100
AcDbEntity
  8
_Calque_
 62
     7
420
 16777215
370
     9
100
AcDbVertex
100
AcDb2dVertex
 10
17.89507322702448
 20
17.69064083818381
 30
0.0
  0
SEQEND
  5
D4
330
D0
100
AcDbEntity
  8
_Calque_
 62
     7
420
 16777215
370
     9
  0
POLYLINE
  5
D5
330
BF
100
AcDbEntity
  8
_Calque_
 62
     7
420
 16777215
370
     9
100
AcDb2dPolyline
 66
     1
 10
0.0
 20
0.0
 30
0.0
  0
VERTEX
  5
D6
330
D5
100
AcDbEntity
  8
_Calque_
 62
     7
420
 16777215
370
     9
100
AcDbVertex
100
AcDb2dVertex
 10
9.943197573992375
 20
15.55747420860543
 30
0.0
  0
VERTEX
  5
D7
330
D5
100
AcDbEntity
  8
_Calque_
 62
     7
420
 16777215
370
     9
100
AcDbVertex
100
AcDb2dVertex
 10
9.943197573992375
 20
11.56522371156006
 30
0.0
  0
SEQEND
  5
D8
330
D5
100
AcDbEntity
  8
_Calque_
 62
     7
420
 16777215
370
     9
  0
INSERT
  5
DA
330
BF
100
AcDbEntity
  8
_Calque_
100
AcDbBlockReference
  2
block 18
 10
0.0
 20
0.0
 30
0.0
  0
INSERT
  5
E0
330
BF
100
AcDbEntity
  8
_Calque_
100
AcDbBlockReference
  2
block 19
 10
0.0
 20
0.0
 30
0.0
  0
POLYLINE
  5
E5
330
BF
100
AcDbEntity
  8
_Calque_
 62
     7
420
 16777215
370
     9
100
AcDb2dPolyline
 66
     1
 10
0.0
 20
0.0
 30
0.0
  0
VERTEX
  5
E6
330
E5
100
AcDbEntity
  8
_Calque_
 62
     7
420
 16777215
370
     9
100
AcDbVertex
100
AcDb2dVertex
 10
9.440288966174704
 20
16.64450389763446
 30
0.0
  0
VERTEX
  5
E7
330
E5
100
AcDbEntity
  8
_Calque_
 62
     7
420
 16777215
370
     9
100
AcDbVertex
100
AcDb2dVertex
 10
10.64062496784659
 20
15.95163581228965
 30
0.0
  0
SEQEND
  5
E8
330
E5
100
AcDbEntity
  8
_Calque_
 62
     7
420
 16777215
370
     9
  0
POLYLINE
  5
E9
330
BF
100
AcDbEntity
  8
_Calque_
 62
     7
420
 16777215
370
     9
100
AcDb2dPolyline
 66
     1
 10
0.0
 20
0.0
 30
0.0
  0
VERTEX
  5
EA
330
E9
100
AcDbEntity
  8
_Calque_
 62
     7
420
 16777215
370
     9
100
AcDbVertex
100
AcDb2dVertex
 10
9.743932604319811
 20
16.7612857620739
 30
0.0
  0
VERTEX
  5
EB
330
E9
100
AcDbEntity
  8
_Calque_
 62
     7
420
 16777215
370
     9
100
AcDbVertex
100
AcDb2dVertex
 10
10.9442686059917
 20
16.06841769423252
 30
0.0
  0
SEQEND
  5
EC
330
E9
100
AcDbEntity
  8
_Calque_
 62
     7
420
 16777215
370
     9
  0
POLYLINE
  5
ED
330
BF
100
AcDbEntity
  8
_Calque_
 62
     7
420
 16777215
370
     9
100
AcDb2dPolyline
 66
     1
 10
0.0
 20
0.0
 30
0.0
  0
VERTEX
  5
EE
330
ED
100
AcDbEntity
  8
_Calque_
 62
     7
420
 16777215
370
     9
100
AcDbVertex
100
AcDb2dVertex
 10
5.516278873222055
 20
18.88679543596669
 30
0.0
  0
VERTEX
  5
EF
330
ED
100
AcDbEntity
  8
_Calque_
 62
     7
420
 16777215
370
     9
100
AcDbVertex
100
AcDb2dVertex
 10
6.716614874893907
 20
18.19392735062192
 30
0.0
  0
SEQEND
  5
F0
330
ED
100
AcDbEntity
  8
_Calque_
 62
     7
420
 16777215
370
     9
  0
POLYLINE
  5
F1
330
BF
100
AcDbEntity
  8
_Calque_
 62
     7
420
 16777215
370
     9
100
AcDb2dPolyline
 66
     1
 10
0.0
 20
0.0
 30
0.0
  0
VERTEX
  5
F2
330
F1
100
AcDbEntity
  8
_Calque_
 62
     7
420
 16777215
370
     9
100
AcDbVertex
100
AcDb2dVertex
 10
5.819922511367196
 20
19.00357724376108
 30
0.0
  0
VERTEX
  5
F3
330
F1
100
AcDbEntity
  8
_Calque_
 62
     7
420
 16777215
370
     9
100
AcDbVertex
100
AcDb2dVertex
 10
7.020258513039048
 20
18.31070917591977
 30
0.0
  0
SEQEND
  5
F4
330
F1
100
AcDbEntity
  8
_Calque_
 62
     7
420
 16777215
370
     9
  0
INSERT
  5
F6
330
BF
100
AcDbEntity
  8
_Calque_
100
AcDbBlockReference
  2
block 20
 10
0.0
 20
0.0
 30
0.0
  0
POLYLINE
  5
FB
330
BF
100
AcDbEntity
  8
_Calque_
 62
     7
420
 16777215
370
     9
100
AcDb2dPolyline
 66
     1
 10
0.0
 20
0.0
 30
0.0
  0
VERTEX
  5
FC
330
FB
100
AcDbEntity
  8
_Calque_
 62
     7
420
 16777215
370
     9
100
AcDbVertex
100
AcDb2dVertex
 10
15.32630410560358
 20
18.20943234399682
 30
0.0
  0
VERTEX
  5
FD
330
FB
100
AcDbEntity
  8
_Calque_
 62
     7
420
 16777215
370
     9
100
AcDbVertex
100
AcDb2dVertex
 10
16.5266401072754
 20
17.5165642761555
 30
0.0
  0
SEQEND
  5
FE
330
FB
100
AcDbEntity
  8
_Calque_
 62
     7
420
 16777215
370
     9
  0
POLYLINE
  5
FF
330
BF
100
AcDbEntity
  8
_Calque_
 62
     7
420
 16777215
370
     9
100
AcDb2dPolyline
 66
     1
 10
0.0
 20
0.0
 30
0.0
  0
VERTEX
  5
100
330
FF
100
AcDbEntity
  8
_Calque_
 62
     7
420
 16777215
370
     9
100
AcDbVertex
100
AcDb2dVertex
 10
15.62994774374875
 20
18.32622255138364
 30
0.0
  0
VERTEX
  5
101
330
FF
100
AcDbEntity
  8
_Calque_
 62
     7
420
 16777215
370
     9
100
AcDbVertex
100
AcDb2dVertex
 10
16.83028374542063
 20
17.63335446603886
 30
0.0
  0
SEQEND
  5
102
330
FF
100
AcDbEntity
  8
_Calque_
 62
     7
420
 16777215
370
     9
  0
INSERT
  5
104
330
BF
100
AcDbEntity
  8
_Calque_
100
AcDbBlockReference
  2
block 21
 10
0.0
 20
0.0
 30
0.0
  0
POLYLINE
  5
109
330
BF
100
AcDbEntity
  8
_Calque_
 62
     7
420
 16777215
370
     9
100
AcDb2dPolyline
 66
     1
 10
0.0
 20
0.0
 30
0.0
  0
VERTEX
  5
10A
330
109
100
AcDbEntity
  8
_Calque_
 62
     7
420
 16777215
370
     9
100
AcDbVertex
100
AcDb2dVertex
 10
11.40229401265099
 20
20.47508527561873
 30
0.0
  0
VERTEX
  5
10B
330
109
100
AcDbEntity
  8
_Calque_
 62
     7
420
 16777215
370
     9
100
AcDbVertex
100
AcDb2dVertex
 10
12.60263001432281
 20
19.78221719027395
 30
0.0
  0
SEQEND
  5
10C
330
109
100
AcDbEntity
  8
_Calque_
 62
     7
420
 16777215
370
     9
  0
POLYLINE
  5
10D
330
BF
100
AcDbEntity
  8
_Calque_
 62
     7
420
 16777215
370
     9
100
AcDb2dPolyline
 66
     1
 10
0.0
 20
0.0
 30
0.0
  0
VERTEX
  5
10E
330
10D
100
AcDbEntity
  8
_Calque_
 62
     7
420
 16777215
370
     9
100
AcDbVertex
100
AcDb2dVertex
 10
11.7059376507961
 20
20.59186704328951
 30
0.0
  0
VERTEX
  5
10F
330
10D
100
AcDbEntity
  8
_Calque_
 62
     7
420
 16777215
370
     9
100
AcDbVertex
100
AcDb2dVertex
 10
12.90627365246799
 20
19.89899897544819
 30
0.0
  0
SEQEND
  5
110
330
10D
100
AcDbEntity
  8
_Calque_
 62
     7
420
 16777215
370
     9
  0
POLYLINE
  5
111
330
BF
100
AcDbEntity
  8
_Calque_
 62
     7
420
 16777215
370
    20
100
AcDb2dPolyline
 66
     1
 10
0.0
 20
0.0
 30
0.0
  0
VERTEX
  5
112
330
111
100
AcDbEntity
  8
_Calque_
 62
     7
420
 16777215
370
    20
100
AcDbVertex
100
AcDb2dVertex
 10
10.72639261702106
 20
11.24058129025369
 30
0.0
  0
VERTEX
  5
113
330
111
100
AcDbEntity
  8
_Calque_
 62
     7
420
 16777215
370
    20
100
AcDbVertex
100
AcDb2dVertex
 10
11.80429950379284
 20
10.63404142913458
 30
0.0
  0
VERTEX
  5
114
330
111
100
AcDbEntity
  8
_Calque_
 62
     7
420
 16777215
370
    20
100
AcDbVertex
100
AcDb2dVertex
 10
15.97043970524297
 20
11.75025013032397
 30
0.0
  0
VERTEX
  5
115
330
111
100
AcDbEntity
  8
_Calque_
 62
     7
420
 16777215
370
    20
100
AcDbVertex
100
AcDb2dVertex
 10
15.97043970524297
 20
13.15097224740933
 30
0.0
  0
VERTEX
  5
116
330
111
100
AcDbEntity
  8
_Calque_
 62
     7
420
 16777215
370
    20
100
AcDbVertex
100
AcDb2dVertex
 10
17.89507322702448
 20
13.66206521913517
 30
0.0
  0
VERTEX
  5
117
330
111
100
AcDbEntity
  8
_Calque_
 62
     7
420
 16777215
370
    20
100
AcDbVertex
100
AcDb2dVertex
 10
17.89507322702448
 20
17.73171214382343
 30
0.0
  0
VERTEX
  5
118
330
111
100
AcDbEntity
  8
_Calque_
 62
     7
420
 16777215
370
    20
100
AcDbVertex
100
AcDb2dVertex
 10
12.44025073952396
 20
20.89495010856424
 30
0.0
  0
VERTEX
  5
119
330
111
100
AcDbEntity
  8
_Calque_
 62
     7
420
 16777215
370
    20
100
AcDbVertex
100
AcDb2dVertex
 10
4.494391901967803
 20
18.76581960365285
 30
0.0
  0
VERTEX
  5
11A
330
111
100
AcDbEntity
  8
_Calque_
 62
     7
420
 16777215
370
    20
100
AcDbVertex
100
AcDb2dVertex
 10
4.494391901967803
 20
14.67229227468469
 30
0.0
  0
VERTEX
  5
11B
330
111
100
AcDbEntity
  8
_Calque_
 62
     7
420
 16777215
370
    20
100
AcDbVertex
100
AcDb2dVertex
 10
5.804600186242334
 20
13.91570575723873
 30
0.0
  0
VERTEX
  5
11C
330
111
100
AcDbEntity
  8
_Calque_
 62
     7
420
 16777215
370
    20
100
AcDbVertex
100
AcDb2dVertex
 10
5.804600186242334
 20
12.54256382537817
 30
0.0
  0
VERTEX
  5
11D
330
111
100
AcDbEntity
  8
_Calque_
 62
     7
420
 16777215
370
    20
100
AcDbVertex
100
AcDb2dVertex
 10
8.664231884362701
 20
10.89153124078659
 30
0.0
  0
VERTEX
  5
11E
330
111
100
AcDbEntity
  8
_Calque_
 62
     7
420
 16777215
370
    20
100
AcDbVertex
100
AcDb2dVertex
 10
9.681895873326447
 20
11.16430199463446
 30
0.0
  0
SEQEND
  5
11F
330
111
100
AcDbEntity
  8
_Calque_
 62
     7
420
 16777215
370
    20
  0
INSERT
  5
121
330
BF
100
AcDbEntity
  8
_Calque_
100
AcDbBlockReference
  2
block 22
 10
0.0
 20
0.0
 30
0.0
  0
INSERT
  5
129
330
BF
100
AcDbEntity
  8
_Calque_
100
AcDbBlockReference
  2
block 23
 10
0.0
 20
0.0
 30
0.0
  0
ENDBLK
  5
C2
330
BF
100
AcDbEntity
  8
0
100
AcDbBlockEnd
  0
BLOCK
  5
DB
330
D9
100
AcDbEntity
  8
0
100
AcDbBlockBegin
  2
block 18
 70
     0
 10
0.0
 20
0.0
 30
0.0
  3
block 18
  1

  0
SPLINE
  5
DD
330
D9
100
AcDbEntity
  8
_Calque_
 62
     7
420
 16777215
370
     9
100
AcDbSpline
210
0.0
220
0.0
230
1.0
 70
     8
 71
     3
 72
    17
 73
    13
 74
     0
 42
0.0000000001
 43
0.0000000001
 12
1.0
 22
0.0
 32
0.0
 13
1.0
 23
0.0
 33
0.0
 40
0.0
 40
0.0
 40
0.0
 40
0.0
 40
1.0
 40
1.0
 40
1.0
 40
2.0
 40
2.0
 40
2.0
 40
3.0
 40
3.0
 40
3.0
 40
4.0
 40
4.0
 40
4.0
 40
4.0
 10
11.26289822553947
 20
16.34960104603611
 30
0.0
 10
11.26289822553947
 20
16.46549428982417
 30
0.0
 10
11.15029782163399
 20
16.58044495407576
 30
0.0
 10
10.95667595219028
 20
16.66221385010801
 30
0.0
 10
10.76309145427139
 20
16.744132232239
 30
0.0
 10
10.49098938296864
 20
16.79174770865135
 30
0.0
 10
10.21690662085705
 20
16.79174770865135
 30
0.0
 10
9.943197573992375
 20
16.79174770865135
 30
0.0
 10
9.670946016590875
 20
16.744132232239
 30
0.0
 10
9.477324147147197
 20
16.66221385010801
 30
0.0
 10
9.283739649228247
 20
16.58044495407576
 30
0.0
 10
9.17095418440475
 20
16.46549428982417
 30
0.0
 10
9.17095418440475
 20
16.34960104603611
 30
0.0
  0
SPLINE
  5
DE
330
D9
100
AcDbEntity
  8
_Calque_
 62
     7
420
 16777215
370
     9
100
AcDbSpline
210
0.0
220
0.0
230
1.0
 70
     8
 71
     3
 72
    17
 73
    13
 74
     0
 42
0.0000000001
 43
0.0000000001
 12
1.0
 22
0.0
 32
0.0
 13
1.0
 23
0.0
 33
0.0
 40
0.0
 40
0.0
 40
0.0
 40
0.0
 40
1.0
 40
1.0
 40
1.0
 40
2.0
 40
2.0
 40
2.0
 40
3.0
 40
3.0
 40
3.0
 40
4.0
 40
4.0
 40
4.0
 40
4.0
 10
9.17095418440475
 20
16.34960104603611
 30
0.0
 10
9.17095418440475
 20
16.23393617710573
 30
0.0
 10
9.283739649228247
 20
16.11898136714457
 30
0.0
 10
9.477324147147197
 20
16.03702561348888
 30
0.0
 10
9.670946016590875
 20
15.95529408898139
 30
0.0
 10
9.943197573992375
 20
15.90764539499556
 30
0.0
 10
10.21690662085705
 20
15.90764539499556
 30
0.0
 10
10.49098938296864
 20
15.90764539499556
 30
0.0
 10
10.76309145427139
 20
15.95529408898139
 30
0.0
 10
10.95667595219028
 20
16.03702561348888
 30
0.0
 10
11.15029782163399
 20
16.11898136714457
 30
0.0
 10
11.26289822553947
 20
16.23393617710573
 30
0.0
 10
11.26289822553947
 20
16.34960104603611
 30
0.0
  0
ENDBLK
  5
DC
330
D9
100
AcDbEntity
  8
0
100
AcDbBlockEnd
  0
BLOCK
  5
E1
330
DF
100
AcDbEntity
  8
0
100
AcDbBlockBegin
  2
block 19
 70
     0
 10
0.0
 20
0.0
 30
0.0
  3
block 19
  1

  0
SPLINE
  5
E3
330
DF
100
AcDbEntity
  8
_Calque_
 62
     7
420
 16777215
370
     9
100
AcDbSpline
210
0.0
220
0.0
230
1.0
 70
     8
 71
     3
 72
    17
 73
    13
 74
     0
 42
0.0000000001
 43
0.0000000001
 12
1.0
 22
0.0
 32
0.0
 13
1.0
 23
0.0
 33
0.0
 40
0.0
 40
0.0
 40
0.0
 40
0.0
 40
1.0
 40
1.0
 40
1.0
 40
2.0
 40
2.0
 40
2.0
 40
3.0
 40
3.0
 40
3.0
 40
4.0
 40
4.0
 40
4.0
 40
4.0
 10
7.34326060097611
 20
18.61270846697832
 30
0.0
 10
7.34326060097611
 20
18.72841070743337
 30
0.0
 10
7.230473339447247
 20
18.843552375018
 30
0.0
 10
7.037075699151712
 20
18.92528810737476
 30
0.0
 10
6.843266972084523
 20
19.0070527955577
 30
0.0
 10
6.571202272306503
 20
19.05485097564232
 30
0.0
 10
6.297306367818416
 20
19.05485097564232
 30
0.0
 10
6.023559949429081
 20
19.05485097564232
 30
0.0
 10
5.751308392027549
 20
19.0070527955577
 30
0.0
 10
5.557723894108567
 20
18.92528810737476
 30
0.0
 10
5.36410202466489
 20
18.843552375018
 30
0.0
 10
5.251314763136027
 20
18.72841070743337
 30
0.0
 10
5.251314763136027
 20
18.61270846697832
 30
0.0
  0
SPLINE
  5
E4
330
DF
100
AcDbEntity
  8
_Calque_
 62
     7
420
 16777215
370
     9
100
AcDbSpline
210
0.0
220
0.0
230
1.0
 70
     8
 71
     3
 72
    17
 73
    13
 74
     0
 42
0.0000000001
 43
0.0000000001
 12
1.0
 22
0.0
 32
0.0
 13
1.0
 23
0.0
 33
0.0
 40
0.0
 40
0.0
 40
0.0
 40
0.0
 40
1.0
 40
1.0
 40
1.0
 40
2.0
 40
2.0
 40
2.0
 40
3.0
 40
3.0
 40
3.0
 40
4.0
 40
4.0
 40
4.0
 40
4.0
 10
5.251314763136027
 20
18.61270846697832
 30
0.0
 10
5.251314763136027
 20
18.49701042355305
 30
0.0
 10
5.36410202466489
 20
18.38205141656205
 30
0.0
 10
5.557723894108567
 20
18.30013303443109
 30
0.0
 10
5.751308392027549
 20
18.21836413839894
 30
0.0
 10
6.023559949429081
 20
18.17056595831426
 30
0.0
 10
6.297306367818416
 20
18.17056595831426
 30
0.0
 10
6.571202272306503
 20
18.17056595831426
 30
0.0
 10
6.843266972084523
 20
18.21836413839894
 30
0.0
 10
7.037075699151712
 20
18.30013303443109
 30
0.0
 10
7.230473339447247
 20
18.38205141656205
 30
0.0
 10
7.34326060097611
 20
18.49701042355305
 30
0.0
 10
7.34326060097611
 20
18.61270846697832
 30
0.0
  0
ENDBLK
  5
E2
330
DF
100
AcDbEntity
  8
0
100
AcDbBlockEnd
  0
BLOCK
  5
F7
330
F5
100
AcDbEntity
  8
0
100
AcDbBlockBegin
  2
block 20
 70
     0
 10
0.0
 20
0.0
 30
0.0
  3
block 20
  1

  0
SPLINE
  5
F9
330
F5
100
AcDbEntity
  8
_Calque_
 62
     7
420
 16777215
370
     9
100
AcDbSpline
210
0.0
220
0.0
230
1.0
 70
     8
 71
     3
 72
    17
 73
    13
 74
     0
 42
0.0000000001
 43
0.0000000001
 12
1.0
 22
0.0
 32
0.0
 13
1.0
 23
0.0
 33
0.0
 40
0.0
 40
0.0
 40
0.0
 40
0.0
 40
1.0
 40
1.0
 40
1.0
 40
2.0
 40
2.0
 40
2.0
 40
3.0
 40
3.0
 40
3.0
 40
4.0
 40
4.0
 40
4.0
 40
4.0
 10
17.14891336496841
 20
17.91453364263029
 30
0.0
 10
17.14891336496841
 20
18.03042274070888
 30
0.0
 10
17.03631296106293
 20
18.14537755066997
 30
0.0
 10
16.84269109161928
 20
18.22714644670215
 30
0.0
 10
16.6491065937002
 20
18.30906482883315
 30
0.0
 10
16.37700452239746
 20
18.35667615129435
 30
0.0
 10
16.10292176028602
 20
18.35667615129435
 30
0.0
 10
15.82921271342135
 20
18.35667615129435
 30
0.0
 10
15.55696115601982
 20
18.30906482883315
 30
0.0
 10
15.36333928657617
 20
18.22714644670215
 30
0.0
 10
15.16975478865709
 20
18.14537755066997
 30
0.0
 10
15.05696947252694
 20
18.03042274070888
 30
0.0
 10
15.05696947252694
 20
17.91453364263029
 30
0.0
  0
SPLINE
  5
FA
330
F5
100
AcDbEntity
  8
_Calque_
 62
     7
420
 16777215
370
     9
100
AcDbSpline
210
0.0
220
0.0
230
1.0
 70
     8
 71
     3
 72
    17
 73
    13
 74
     0
 42
0.0000000001
 43
0.0000000001
 12
1.0
 22
0.0
 32
0.0
 13
1.0
 23
0.0
 33
0.0
 40
0.0
 40
0.0
 40
0.0
 40
0.0
 40
1.0
 40
1.0
 40
1.0
 40
2.0
 40
2.0
 40
2.0
 40
3.0
 40
3.0
 40
3.0
 40
4.0
 40
4.0
 40
4.0
 40
4.0
 10
15.05696947252694
 20
17.91453364263029
 30
0.0
 10
15.05696947252694
 20
17.79886877369994
 30
0.0
 10
15.16975478865709
 20
17.68391396373878
 30
0.0
 10
15.36333928657617
 20
17.60196238450228
 30
0.0
 10
15.55696115601982
 20
17.5202266855756
 30
0.0
 10
15.82921271342135
 20
17.47257799158977
 30
0.0
 10
16.10292176028602
 20
17.47257799158977
 30
0.0
 10
16.37700452239746
 20
17.47257799158977
 30
0.0
 10
16.6491065937002
 20
17.5202266855756
 30
0.0
 10
16.84269109161928
 20
17.60196238450228
 30
0.0
 10
17.03631296106293
 20
17.68391396373878
 30
0.0
 10
17.14891336496841
 20
17.79886877369994
 30
0.0
 10
17.14891336496841
 20
17.91453364263029
 30
0.0
  0
ENDBLK
  5
F8
330
F5
100
AcDbEntity
  8
0
100
AcDbBlockEnd
  0
BLOCK
  5
105
330
103
100
AcDbEntity
  8
0
100
AcDbBlockBegin
  2
block 21
 70
     0
 10
0.0
 20
0.0
 30
0.0
  3
block 21
  1

  0
SPLINE
  5
107
330
103
100
AcDbEntity
  8
_Calque_
 62
     7
420
 16777215
370
     9
100
AcDbSpline
210
0.0
220
0.0
230
1.0
 70
     8
 71
     3
 72
    17
 73
    13
 74
     0
 42
0.0000000001
 43
0.0000000001
 12
1.0
 22
0.0
 32
0.0
 13
1.0
 23
0.0
 33
0.0
 40
0.0
 40
0.0
 40
0.0
 40
0.0
 40
1.0
 40
1.0
 40
1.0
 40
2.0
 40
2.0
 40
2.0
 40
3.0
 40
3.0
 40
3.0
 40
4.0
 40
4.0
 40
4.0
 40
4.0
 10
13.22490327201569
 20
20.18018232725175
 30
0.0
 10
13.22490327201569
 20
20.29607566780842
 30
0.0
 10
13.11230286811034
 20
20.41102623529147
 30
0.0
 10
12.9186809986667
 20
20.49279513132365
 30
0.0
 10
12.72509650074762
 20
20.57471351345461
 30
0.0
 10
12.45299442944494
 20
20.62232908663559
 30
0.0
 10
12.17891166733331
 20
20.62232908663559
 30
0.0
 10
11.90520262046876
 20
20.62232908663559
 30
0.0
 10
11.63295106306723
 20
20.57471351345461
 30
0.0
 10
11.43932919362346
 20
20.49279513132365
 30
0.0
 10
11.24574469570451
 20
20.41102623529147
 30
0.0
 10
11.13295928044539
 20
20.29607566780842
 30
0.0
 10
11.13295928044539
 20
20.18018232725175
 30
0.0
  0
SPLINE
  5
108
330
103
100
AcDbEntity
  8
_Calque_
 62
     7
420
 16777215
370
     9
100
AcDbSpline
210
0.0
220
0.0
230
1.0
 70
     8
 71
     3
 72
    17
 73
    13
 74
     0
 42
0.0000000001
 43
0.0000000001
 12
1.0
 22
0.0
 32
0.0
 13
1.0
 23
0.0
 33
0.0
 40
0.0
 40
0.0
 40
0.0
 40
0.0
 40
1.0
 40
1.0
 40
1.0
 40
2.0
 40
2.0
 40
2.0
 40
3.0
 40
3.0
 40
3.0
 40
4.0
 40
4.0
 40
4.0
 40
4.0
 10
11.13295928044539
 20
20.18018232725175
 30
0.0
 10
11.13295928044539
 20
20.06451745832137
 30
0.0
 10
11.24574469570451
 20
19.94956264836021
 30
0.0
 10
11.43932919362346
 20
19.86760689470458
 30
0.0
 10
11.63295106306723
 20
19.78587537019704
 30
0.0
 10
11.90520262046876
 20
19.7382266762112
 30
0.0
 10
12.17891166733331
 20
19.7382266762112
 30
0.0
 10
12.45299442944494
 20
19.7382266762112
 30
0.0
 10
12.72509650074762
 20
19.78587537019704
 30
0.0
 10
12.9186809986667
 20
19.86760689470458
 30
0.0
 10
13.11230286811034
 20
19.94956264836021
 30
0.0
 10
13.22490327201569
 20
20.06451745832137
 30
0.0
 10
13.22490327201569
 20
20.18018232725175
 30
0.0
  0
ENDBLK
  5
106
330
103
100
AcDbEntity
  8
0
100
AcDbBlockEnd
  0
BLOCK
  5
122
330
120
100
AcDbEntity
  8
0
100
AcDbBlockBegin
  2
block 22
 70
     0
 10
0.0
 20
0.0
 30
0.0
  3
block 22
  1

  0
SPLINE
  5
124
330
120
100
AcDbEntity
  8
_Calque_
 62
     7
420
 16777215
370
    20
100
AcDbSpline
210
0.0
220
0.0
230
1.0
 70
     8
 71
     3
 72
    23
 73
    19
 74
     0
 42
0.0000000001
 43
0.0000000001
 12
1.0
 22
0.0
 32
0.0
 13
1.0
 23
0.0
 33
0.0
 40
0.0
 40
0.0
 40
0.0
 40
0.0
 40
1.0
 40
1.0
 40
1.0
 40
2.0
 40
2.0
 40
2.0
 40
3.0
 40
3.0
 40
3.0
 40
4.0
 40
4.0
 40
4.0
 40
5.0
 40
5.0
 40
5.0
 40
6.0
 40
6.0
 40
6.0
 40
6.0
 10
9.731900784244257
 20
11.6201598528614
 30
0.0
 10
9.731900784244257
 20
11.6201598528614
 30
0.0
 10
9.731900784244257
 20
10.74589040415164
 30
0.0
 10
9.731900784244257
 20
10.74589040415164
 30
0.0
 10
9.731900784244257
 20
10.69226226621459
 30
0.0
 10
9.784069621842033
 20
10.6389704719998
 30
0.0
 10
9.873686538060154
 20
10.60100100290988
 30
0.0
 10
9.963452940376996
 20
10.56306890534472
 30
0.0
 10
10.08954628460834
 20
10.54098633029392
 30
0.0
 10
10.21638341951134
 20
10.54098633029392
 30
0.0
 10
10.34318500280077
 20
10.54098633029392
 30
0.0
 10
10.46946338474439
 20
10.56306890534472
 30
0.0
 10
10.55908030096255
 20
10.60100100290988
 30
0.0
 10
10.64865984565594
 20
10.6389704719998
 30
0.0
 10
10.70086786565448
 20
10.69226226621459
 30
0.0
 10
10.70086786565448
 20
10.74589040415164
 30
0.0
 10
10.70086786565448
 20
10.74589040415164
 30
0.0
 10
10.70086786565448
 20
11.7135886645984
 30
0.0
 10
10.70086786565448
 20
11.7135886645984
 30
0.0
  0
SPLINE
  5
125
330
120
100
AcDbEntity
  8
_Calque_
 62
     7
420
 16777215
370
     9
100
AcDbSpline
210
0.0
220
0.0
230
1.0
 70
     8
 71
     3
 72
    17
 73
    13
 74
     0
 42
0.0000000001
 43
0.0000000001
 12
1.0
 22
0.0
 32
0.0
 13
1.0
 23
0.0
 33
0.0
 40
0.0
 40
0.0
 40
0.0
 40
0.0
 40
1.0
 40
1.0
 40
1.0
 40
2.0
 40
2.0
 40
2.0
 40
3.0
 40
3.0
 40
3.0
 40
4.0
 40
4.0
 40
4.0
 40
4.0
 10
9.731900784244257
 20
11.02617683936253
 30
0.0
 10
9.731900784244257
 20
10.97254870142548
 30
0.0
 10
9.784069621842033
 20
10.91925690721069
 30
0.0
 10
9.873686538060154
 20
10.88128743812083
 30
0.0
 10
9.963452940376996
 20
10.84335534055561
 30
0.0
 10
10.08954628460834
 20
10.82127277258538
 30
0.0
 10
10.21638341951134
 20
10.82127277258538
 30
0.0
 10
10.34318500280077
 20
10.82127277258538
 30
0.0
 10
10.46946338474439
 20
10.84335534055561
 30
0.0
 10
10.55908030096255
 20
10.88128743812083
 30
0.0
 10
10.64865984565594
 20
10.91925690721069
 30
0.0
 10
10.70086786565448
 20
10.97254870142548
 30
0.0
 10
10.70086786565448
 20
11.02617683936253
 30
0.0
  0
SPLINE
  5
126
330
120
100
AcDbEntity
  8
_Calque_
 62
     7
420
 16777215
370
     9
100
AcDbSpline
210
0.0
220
0.0
230
1.0
 70
     8
 71
     3
 72
    17
 73
    13
 74
     0
 42
0.0000000001
 43
0.0000000001
 12
1.0
 22
0.0
 32
0.0
 13
1.0
 23
0.0
 33
0.0
 40
0.0
 40
0.0
 40
0.0
 40
0.0
 40
1.0
 40
1.0
 40
1.0
 40
2.0
 40
2.0
 40
2.0
 40
3.0
 40
3.0
 40
3.0
 40
4.0
 40
4.0
 40
4.0
 40
4.0
 10
9.731900784244257
 20
11.30646327457342
 30
0.0
 10
9.731900784244257
 20
11.25283513663637
 30
0.0
 10
9.784069621842033
 20
11.19954334242158
 30
0.0
 10
9.873686538060154
 20
11.16157387333172
 30
0.0
 10
9.963452940376996
 20
11.1236417757665
 30
0.0
 10
10.08954628460834
 20
11.10155921487697
 30
0.0
 10
10.21638341951134
 20
11.10155921487697
 30
0.0
 10
10.34318500280077
 20
11.10155921487697
 30
0.0
 10
10.46946338474439
 20
11.1236417757665
 30
0.0
 10
10.55908030096255
 20
11.16157387333172
 30
0.0
 10
10.64865984565594
 20
11.19954334242158
 30
0.0
 10
10.70086786565448
 20
11.25283513663637
 30
0.0
 10
10.70086786565448
 20
11.30646327457342
 30
0.0
  0
SPLINE
  5
127
330
120
100
AcDbEntity
  8
_Calque_
 62
     7
420
 16777215
370
     9
100
AcDbSpline
210
0.0
220
0.0
230
1.0
 70
     8
 71
     3
 72
    17
 73
    13
 74
     0
 42
0.0000000001
 43
0.0000000001
 12
1.0
 22
0.0
 32
0.0
 13
1.0
 23
0.0
 33
0.0
 40
0.0
 40
0.0
 40
0.0
 40
0.0
 40
1.0
 40
1.0
 40
1.0
 40
2.0
 40
2.0
 40
2.0
 40
3.0
 40
3.0
 40
3.0
 40
4.0
 40
4.0
 40
4.0
 40
4.0
 10
9.731900784244257
 20
11.58674970978431
 30
0.0
 10
9.731900784244257
 20
11.53312157184726
 30
0.0
 10
9.784069621842033
 20
11.47982977763247
 30
0.0
 10
9.873686538060154
 20
11.44186030854261
 30
0.0
 10
9.963452940376996
 20
11.40392821097739
 30
0.0
 10
10.08954628460834
 20
11.38184565716856
 30
0.0
 10
10.21638341951134
 20
11.38184565716856
 30
0.0
 10
10.34318500280077
 20
11.38184565716856
 30
0.0
 10
10.46946338474439
 20
11.40392821097739
 30
0.0
 10
10.55908030096255
 20
11.44186030854261
 30
0.0
 10
10.64865984565594
 20
11.47982977763247
 30
0.0
 10
10.70086786565448
 20
11.53312157184726
 30
0.0
 10
10.70086786565448
 20
11.58674970978431
 30
0.0
  0
ENDBLK
  5
123
330
120
100
AcDbEntity
  8
0
100
AcDbBlockEnd
  0
BLOCK
  5
12A
330
128
100
AcDbEntity
  8
0
100
AcDbBlockBegin
  2
block 23
 70
     0
 10
0.0
 20
0.0
 30
0.0
  3
block 23
  1

  0
SPLINE
  5
12C
330
128
100
AcDbEntity
  8
_Calque_
 62
     7
420
 16777215
370
    20
100
AcDbSpline
210
0.0
220
0.0
230
1.0
 70
     8
 71
     3
 72
    17
 73
    13
 74
     0
 42
0.0000000001
 43
0.0000000001
 12
1.0
 22
0.0
 32
0.0
 13
1.0
 23
0.0
 33
0.0
 40
0.0
 40
0.0
 40
0.0
 40
0.0
 40
1.0
 40
1.0
 40
1.0
 40
2.0
 40
2.0
 40
2.0
 40
3.0
 40
3.0
 40
3.0
 40
4.0
 40
4.0
 40
4.0
 40
4.0
 10
16.03157951964364
 20
12.10826933690005
 30
0.0
 10
16.05512358020134
 20
12.10681184743697
 30
0.0
 10
16.07866764075903
 20
12.10591493084427
 30
0.0
 10
16.10239855894021
 20
12.10591493084427
 30
0.0
 10
16.22920014222961
 20
12.10591493084427
 30
0.0
 10
16.35547852417334
 20
12.12800150193889
 30
0.0
 10
16.44509544039136
 20
12.16593359950412
 30
0.0
 10
16.53467498508482
 20
12.20390306859398
 30
0.0
 10
16.58688300508343
 20
12.25719486280877
 30
0.0
 10
16.58688300508343
 20
12.31082300074581
 30
0.0
 10
16.58688300508343
 20
12.31082300074581
 30
0.0
 10
16.58688300508343
 20
13.27852126119258
 30
0.0
 10
16.58688300508343
 20
13.27852126119258
 30
0.0
  0
SPLINE
  5
12D
330
128
100
AcDbEntity
  8
_Calque_
 62
     7
420
 16777215
370
     9
100
AcDbSpline
210
0.0
220
0.0
230
1.0
 70
     8
 71
     3
 72
    14
 73
    10
 74
     0
 42
0.0000000001
 43
0.0000000001
 12
1.0
 22
0.0
 32
0.0
 13
1.0
 23
0.0
 33
0.0
 40
0.0
 40
0.0
 40
0.0
 40
0.0
 40
1.0
 40
1.0
 40
1.0
 40
2.0
 40
2.0
 40
2.0
 40
3.0
 40
3.0
 40
3.0
 40
3.0
 10
16.00624162590054
 20
12.39038697682103
 30
0.0
 10
16.0377831927429
 20
12.3876588555183
 30
0.0
 10
16.07007219007924
 20
12.38620136605516
 30
0.0
 10
16.10239855894021
 20
12.38620136605516
 30
0.0
 10
16.22920014222961
 20
12.38620136605516
 30
0.0
 10
16.35547852417334
 20
12.40828793714978
 30
0.0
 10
16.44509544039136
 20
12.44622003471501
 30
0.0
 10
16.53467498508482
 20
12.48418950380493
 30
0.0
 10
16.58688300508343
 20
12.53748129801965
 30
0.0
 10
16.58688300508343
 20
12.5911094359567
 30
0.0
  0
SPLINE
  5
12E
330
128
100
AcDbEntity
  8
_Calque_
 62
     7
420
 16777215
370
     9
100
AcDbSpline
210
0.0
220
0.0
230
1.0
 70
     8
 71
     3
 72
    14
 73
    10
 74
     0
 42
0.0000000001
 43
0.0000000001
 12
1.0
 22
0.0
 32
0.0
 13
1.0
 23
0.0
 33
0.0
 40
0.0
 40
0.0
 40
0.0
 40
0.0
 40
1.0
 40
1.0
 40
1.0
 40
2.0
 40
2.0
 40
2.0
 40
3.0
 40
3.0
 40
3.0
 40
3.0
 10
15.98523882902209
 20
12.67269147436537
 30
0.0
 10
16.02335778421073
 20
12.66865534969841
 30
0.0
 10
16.06297160038721
 20
12.66648780126605
 30
0.0
 10
16.10239855894021
 20
12.66648780126605
 30
0.0
 10
16.22920014222961
 20
12.66648780126605
 30
0.0
 10
16.35547852417334
 20
12.68857437236074
 30
0.0
 10
16.44509544039136
 20
12.7265064699259
 30
0.0
 10
16.53467498508482
 20
12.76447593901582
 30
0.0
 10
16.58688300508343
 20
12.81776773323054
 30
0.0
 10
16.58688300508343
 20
12.87139587116759
 30
0.0
  0
SPLINE
  5
12F
330
128
100
AcDbEntity
  8
_Calque_
 62
     7
420
 16777215
370
     9
100
AcDbSpline
210
0.0
220
0.0
230
1.0
 70
     8
 71
     3
 72
    14
 73
    10
 74
     0
 42
0.0000000001
 43
0.0000000001
 12
1.0
 22
0.0
 32
0.0
 13
1.0
 23
0.0
 33
0.0
 40
0.0
 40
0.0
 40
0.0
 40
0.0
 40
1.0
 40
1.0
 40
1.0
 40
2.0
 40
2.0
 40
2.0
 40
3.0
 40
3.0
 40
3.0
 40
3.0
 10
15.98523882902209
 20
12.95297790957633
 30
0.0
 10
16.02335778421073
 20
12.9489417849093
 30
0.0
 10
16.06297160038721
 20
12.946774236477
 30
0.0
 10
16.10239855894021
 20
12.946774236477
 30
0.0
 10
16.22920014222961
 20
12.946774236477
 30
0.0
 10
16.35547852417334
 20
12.96886080757163
 30
0.0
 10
16.44509544039136
 20
13.00679290513679
 30
0.0
 10
16.53467498508482
 20
13.04476237422671
 30
0.0
 10
16.58688300508343
 20
13.0980541684415
 30
0.0
 10
16.58688300508343
 20
13.15168230637855
 30
0.0
  0
ENDBLK
  5
12B
330
128
100
AcDbEntity
  8
0
100
AcDbBlockEnd
  0
BLOCK
  5
132
330
130
100
AcDbEntity
  8
0
100
AcDbBlockBegin
  2
block 24
 70
     0
 10
0.0
 20
0.0
 30
0.0
  3
block 24
  1

  0
INSERT
  5
135
330
130
100
AcDbEntity
  8
_Calque_
100
AcDbBlockReference
  2
block 25
 10
0.0
 20
0.0
 30
0.0
  0
INSERT
  5
148
330
130
100
AcDbEntity
  8
_Calque_
100
AcDbBlockReference
  2
block 28
 10
0.0
 20
0.0
 30
0.0
  0
ENDBLK
  5
133
330
130
100
AcDbEntity
  8
0
100
AcDbBlockEnd
  0
BLOCK
  5
136
330
134
100
AcDbEntity
  8
0
100
AcDbBlockBegin
  2
block 25
 70
     0
 10
0.0
 20
0.0
 30
0.0
  3
block 25
  1

  0
SPLINE
  5
138
330
134
100
AcDbEntity
  8
_Calque_
370
     0
100
AcDbSpline
210
0.0
220
0.0
230
1.0
 70
    11
 71
     3
 72
    32
 73
    28
 74
     0
 42
0.0000000001
 43
0.0000000001
 12
1.0
 22
0.0
 32
0.0
 13
1.0
 23
0.0
 33
0.0
 40
0.0
 40
0.0
 40
0.0
 40
0.0
 40
1.0
 40
1.0
 40
1.0
 40
2.0
 40
2.0
 40
2.0
 40
3.0
 40
3.0
 40
3.0
 40
4.0
 40
4.0
 40
4.0
 40
5.0
 40
5.0
 40
5.0
 40
6.0
 40
6.0
 40
6.0
 40
7.0
 40
7.0
 40
7.0
 40
8.0
 40
8.0
 40
8.0
 40
9.0
 40
9.0
 40
9.0
 40
9.0
 10
12.66616160630401
 20
19.36398822791759
 30
0.0
 10
12.82271092325044
 20
19.32018880097531
 30
0.0
 10
12.96905781395527
 20
19.26981198568673
 30
0.0
 10
13.10191358424521
 20
19.21360521254577
 30
0.0
 10
13.6336356376026
 20
18.98896497760541
 30
0.0
 10
13.94329800848868
 20
18.67310085088506
 30
0.0
 10
13.94329800848868
 20
18.35540551945472
 30
0.0
 10
13.94329800848868
 20
18.03752333040083
 30
0.0
 10
13.6336356376026
 20
17.7216592036805
 30
0.0
 10
13.10191358424521
 20
17.49705634026483
 30
0.0
 10
12.57015415936299
 20
17.27222924770096
 30
0.0
 10
11.82291052309081
 20
17.14139153974453
 30
0.0
 10
11.07092254788487
 20
17.14139153974453
 30
0.0
 10
10.31911774089723
 20
17.14139153974453
 30
0.0
 10
9.571687247001504
 20
17.27222924770096
 30
0.0
 10
9.039927822119415
 20
17.49705634026483
 30
0.0
 10
8.508205768762053
 20
17.7216592036805
 30
0.0
 10
8.198694801239787
 20
18.03752333040083
 30
0.0
 10
8.198694801239787
 20
18.35540551945472
 30
0.0
 10
8.198694801239787
 20
18.67310085088506
 30
0.0
 10
8.508205768762053
 20
18.98896497760541
 30
0.0
 10
9.039927822119415
 20
19.21360521254577
 30
0.0
 10
9.16583248881621
 20
19.26689700676055
 30
0.0
 10
9.30362310042287
 20
19.31469940453159
 30
0.0
 10
9.45067825003987
 20
19.35685026670094
 30
0.0
 10
9.84775251372452
 20
19.49699348430632
 30
0.0
 10
11.8486595036055
 20
19.6676318660627
 30
0.0
 10
12.66616160630401
 20
19.36398822791759
 30
0.0
  0
HATCH
  5
139
330
134
100
AcDbEntity
  8
_Calque_
 62
   254
420
 13161177
100
AcDbHatch
 10
0.0
 20
0.0
 30
0.0
210
0.0
220
0.0
230
1.0
  2
SOLID
 70
     1
 71
     0
 91
        1
 92
        1
 93
        1
 72
     4
 94
        3
 73
     0
 74
     1
 95
       32
 96
       28
 40
0.0
 40
0.0
 40
0.0
 40
0.0
 40
1.0
 40
1.0
 40
1.0
 40
2.0
 40
2.0
 40
2.0
 40
3.0
 40
3.0
 40
3.0
 40
4.0
 40
4.0
 40
4.0
 40
5.0
 40
5.0
 40
5.0
 40
6.0
 40
6.0
 40
6.0
 40
7.0
 40
7.0
 40
7.0
 40
8.0
 40
8.0
 40
8.0
 40
9.0
 40
9.0
 40
9.0
 40
9.0
 10
12.66616160630401
 20
19.36398822791759
 10
12.82271092325044
 20
19.32018880097531
 10
12.96905781395527
 20
19.26981198568673
 10
13.10191358424521
 20
19.21360521254577
 10
13.6336356376026
 20
18.98896497760541
 10
13.94329800848868
 20
18.67310085088506
 10
13.94329800848868
 20
18.35540551945472
 10
13.94329800848868
 20
18.03752333040083
 10
13.6336356376026
 20
17.7216592036805
 10
13.10191358424521
 20
17.49705634026483
 10
12.57015415936299
 20
17.27222924770096
 10
11.82291052309081
 20
17.14139153974453
 10
11.07092254788487
 20
17.14139153974453
 10
10.31911774089723
 20
17.14139153974453
 10
9.571687247001504
 20
17.27222924770096
 10
9.039927822119415
 20
17.49705634026483
 10
8.508205768762053
 20
17.7216592036805
 10
8.198694801239787
 20
18.03752333040083
 10
8.198694801239787
 20
18.35540551945472
 10
8.198694801239787
 20
18.67310085088506
 10
8.508205768762053
 20
18.98896497760541
 10
9.039927822119415
 20
19.21360521254577
 10
9.16583248881621
 20
19.26689700676055
 10
9.30362310042287
 20
19.31469940453159
 10
9.45067825003987
 20
19.35685026670094
 10
9.84775251372452
 20
19.49699348430632
 10
11.8486595036055
 20
19.6676318660627
 10
12.66616160630401
 20
19.36398822791759
 97
        0
 97
        0
 75
     2
 76
     1
 98
        0
  0
SPLINE
  5
13A
330
134
100
AcDbEntity
  8
_Calque_
370
     0
100
AcDbSpline
210
0.0
220
0.0
230
1.0
 70
    11
 71
     3
 72
    95
 73
    91
 74
     0
 42
0.0000000001
 43
0.0000000001
 12
1.0
 22
0.0
 32
0.0
 13
1.0
 23
0.0
 33
0.0
 40
0.0
 40
0.0
 40
0.0
 40
0.0
 40
1.0
 40
1.0
 40
1.0
 40
2.0
 40
2.0
 40
2.0
 40
3.0
 40
3.0
 40
3.0
 40
4.0
 40
4.0
 40
4.0
 40
5.0
 40
5.0
 40
5.0
 40
6.0
 40
6.0
 40
6.0
 40
7.0
 40
7.0
 40
7.0
 40
8.0
 40
8.0
 40
8.0
 40
9.0
 40
9.0
 40
9.0
 40
10.0
 40
10.0
 40
10.0
 40
11.0
 40
11.0
 40
11.0
 40
12.0
 40
12.0
 40
12.0
 40
13.0
 40
13.0
 40
13.0
 40
14.0
 40
14.0
 40
14.0
 40
15.0
 40
15.0
 40
15.0
 40
16.0
 40
16.0
 40
16.0
 40
17.0
 40
17.0
 40
17.0
 40
18.0
 40
18.0
 40
18.0
 40
19.0
 40
19.0
 40
19.0
 40
20.0
 40
20.0
 40
20.0
 40
21.0
 40
21.0
 40
21.0
 40
22.0
 40
22.0
 40
22.0
 40
23.0
 40
23.0
 40
23.0
 40
24.0
 40
24.0
 40
24.0
 40
25.0
 40
25.0
 40
25.0
 40
26.0
 40
26.0
 40
26.0
 40
27.0
 40
27.0
 40
27.0
 40
28.0
 40
28.0
 40
28.0
 40
29.0
 40
29.0
 40
29.0
 40
30.0
 40
30.0
 40
30.0
 40
30.0
 10
12.57762846430204
 20
19.08826111871947
 30
0.0
 10
12.60774991320602
 20
19.07693754673694
 30
0.0
 10
12.63712393161615
 20
19.0650907734087
 30
0.0
 10
12.66578789105699
 20
19.05301977093228
 30
0.0
 10
12.69097818432996
 20
19.04244362944364
 30
0.0
 10
12.71541727585171
 20
19.03149377270807
 30
0.0
 10
12.73933505165637
 20
19.02035705834905
 30
0.0
 10
12.73933505165637
 20
19.02035705834905
 30
0.0
 10
12.88912012263309
 20
19.13916113535378
 30
0.0
 10
12.88912012263309
 20
19.13916113535378
 30
0.0
 10
13.15628915267611
 20
19.02637387382486
 30
0.0
 10
13.36063664970722
 20
18.88787500330603
 30
0.0
 10
13.48874623636091
 20
18.73771621708238
 30
0.0
 10
13.48874623636091
 20
18.73771621708238
 30
0.0
 10
13.26941275792727
 20
18.58864120507485
 30
0.0
 10
13.26941275792727
 20
18.58864120507485
 30
0.0
 10
13.30644793889973
 20
18.52018076944912
 30
0.0
 10
13.32580638869162
 20
18.44995547693251
 30
0.0
 10
13.32580638869162
 20
18.37969701050627
 30
0.0
 10
13.32580638869162
 20
18.2935556460848
 30
0.0
 10
13.29680608552852
 20
18.20778799691026
 30
0.0
 10
13.24186994422718
 20
18.12493532666197
 30
0.0
 10
13.24186994422718
 20
18.12493532666197
 30
0.0
 10
13.55407166152738
 20
18.09227680088422
 30
0.0
 10
13.55407166152738
 20
18.09227680088422
 30
0.0
 10
13.43709878923268
 20
17.90851682715444
 30
0.0
 10
13.2077497421808
 20
17.73735524405231
 30
0.0
 10
12.88912012263309
 20
17.60289249820045
 30
0.0
 10
12.88912012263309
 20
17.60289249820045
 30
0.0
 10
12.66578789105699
 20
17.70615002093215
 30
0.0
 10
12.66578789105699
 20
17.70615002093215
 30
0.0
 10
12.5154048756852
 20
17.64265580047571
 30
0.0
 10
12.34315951836689
 20
17.58884080491525
 30
0.0
 10
12.15686246776338
 20
17.54575143694212
 30
0.0
 10
12.15686246776338
 20
17.54575143694212
 30
0.0
 10
12.20959368910773
 20
17.39794705677424
 30
0.0
 10
12.20959368910773
 20
17.39794705677424
 30
0.0
 10
11.95868127230696
 20
17.34577640830033
 30
0.0
 10
11.68807406199199
 20
17.31053506051318
 30
0.0
 10
11.41122580705299
 20
17.29450267641906
 30
0.0
 10
11.41122580705299
 20
17.29450267641906
 30
0.0
 10
11.35412211731942
 20
17.43516909537025
 30
0.0
 10
11.35412211731942
 20
17.43516909537025
 30
0.0
 10
11.26069330558241
 20
17.42989971038829
 30
0.0
 10
11.16655443487625
 20
17.42732107518437
 30
0.0
 10
11.07237819264539
 20
17.42732107518437
 30
0.0
 10
10.9628796252896
 20
17.42732107518437
 30
0.0
 10
10.85342026866678
 20
17.43080079707603
 30
0.0
 10
10.74537735156606
 20
17.4377477305742
 30
0.0
 10
10.74537735156606
 20
17.4377477305742
 30
0.0
 10
10.71746082261907
 20
17.29539959301176
 30
0.0
 10
10.71746082261907
 20
17.29539959301176
 30
0.0
 10
10.42857893672832
 20
17.31292683809358
 30
0.0
 10
10.14683501205429
 20
17.35123265090577
 30
0.0
 10
9.887366330901985
 20
17.40800416643645
 30
0.0
 10
9.887366330901985
 20
17.40800416643645
 30
0.0
 10
9.918758412438574
 20
17.56238176543134
 30
0.0
 10
9.918758412438574
 20
17.56238176543134
 30
0.0
 10
9.758918585722379
 20
17.60233609975876
 30
0.0
 10
9.61055363268416
 20
17.6506906782851
 30
0.0
 10
9.478968494233753
 20
17.70615002093215
 30
0.0
 10
9.478968494233753
 20
17.70615002093215
 30
0.0
 10
9.254178773194608
 20
17.60289249820045
 30
0.0
 10
9.254178773194608
 20
17.60289249820045
 30
0.0
 10
8.942500257240109
 20
17.73463130052011
 30
0.0
 10
8.716215675213196
 20
17.90122937983894
 30
0.0
 10
8.596888396862745
 20
18.08042584075042
 30
0.0
 10
8.596888396862745
 20
18.08042584075042
 30
0.0
 10
8.86730874955418
 20
18.18645304549398
 30
0.0
 10
8.86730874955418
 20
18.18645304549398
 30
0.0
 10
8.835580325088308
 20
18.24994307676603
 30
0.0
 10
8.819136854222602
 20
18.3147079290621
 30
0.0
 10
8.819136854222602
 20
18.37969701050627
 30
0.0
 10
8.819136854222602
 20
18.44192059912315
 30
0.0
 10
8.834085464100506
 20
18.50414418773993
 30
0.0
 10
8.863496854035361
 20
18.56528400214059
 30
0.0
 10
8.863496854035361
 20
18.56528400214059
 30
0.0
 10
8.552005195704277
 20
18.58277387569775
 30
0.0
 10
8.552005195704277
 20
18.58277387569775
 30
0.0
 10
8.65216088188635
 20
18.79171807026632
 30
0.0
 10
8.897243340834747
 20
18.98844598570436
 30
0.0
 10
9.254178773194608
 20
19.13916113535378
 30
0.0
 10
9.304331359335036
 20
19.16050027595446
 30
0.0
 10
9.356726236957089
 20
19.18075564233908
 30
0.0
 10
9.41110180538799
 20
19.19992723450749
 30
0.0
 10
9.41110180538799
 20
19.19992723450749
 30
0.0
 10
9.583720877953224
 20
19.09775348599194
 30
0.0
 10
9.583720877953224
 20
19.09775348599194
 30
0.0
 10
9.583720877953224
 20
19.09775348599194
 30
0.0
 10
12.57762846430204
 20
19.08826111871947
 30
0.0
 10
12.57762846430204
 20
19.08826111871947
 30
0.0
  0
HATCH
  5
13B
330
134
100
AcDbEntity
  8
_Calque_
 62
     8
420
  7303022
100
AcDbHatch
 10
0.0
 20
0.0
 30
0.0
210
0.0
220
0.0
230
1.0
  2
SOLID
 70
     1
 71
     0
 91
        1
 92
        1
 93
        1
 72
     4
 94
        3
 73
     0
 74
     1
 95
       95
 96
       91
 40
0.0
 40
0.0
 40
0.0
 40
0.0
 40
1.0
 40
1.0
 40
1.0
 40
2.0
 40
2.0
 40
2.0
 40
3.0
 40
3.0
 40
3.0
 40
4.0
 40
4.0
 40
4.0
 40
5.0
 40
5.0
 40
5.0
 40
6.0
 40
6.0
 40
6.0
 40
7.0
 40
7.0
 40
7.0
 40
8.0
 40
8.0
 40
8.0
 40
9.0
 40
9.0
 40
9.0
 40
10.0
 40
10.0
 40
10.0
 40
11.0
 40
11.0
 40
11.0
 40
12.0
 40
12.0
 40
12.0
 40
13.0
 40
13.0
 40
13.0
 40
14.0
 40
14.0
 40
14.0
 40
15.0
 40
15.0
 40
15.0
 40
16.0
 40
16.0
 40
16.0
 40
17.0
 40
17.0
 40
17.0
 40
18.0
 40
18.0
 40
18.0
 40
19.0
 40
19.0
 40
19.0
 40
20.0
 40
20.0
 40
20.0
 40
21.0
 40
21.0
 40
21.0
 40
22.0
 40
22.0
 40
22.0
 40
23.0
 40
23.0
 40
23.0
 40
24.0
 40
24.0
 40
24.0
 40
25.0
 40
25.0
 40
25.0
 40
26.0
 40
26.0
 40
26.0
 40
27.0
 40
27.0
 40
27.0
 40
28.0
 40
28.0
 40
28.0
 40
29.0
 40
29.0
 40
29.0
 40
30.0
 40
30.0
 40
30.0
 40
30.0
 10
12.57762846430204
 20
19.08826111871947
 10
12.60774991320602
 20
19.07693754673694
 10
12.63712393161615
 20
19.0650907734087
 10
12.66578789105699
 20
19.05301977093228
 10
12.69097818432996
 20
19.04244362944364
 10
12.71541727585171
 20
19.03149377270807
 10
12.73933505165637
 20
19.02035705834905
 10
12.73933505165637
 20
19.02035705834905
 10
12.88912012263309
 20
19.13916113535378
 10
12.88912012263309
 20
19.13916113535378
 10
13.15628915267611
 20
19.02637387382486
 10
13.36063664970722
 20
18.88787500330603
 10
13.48874623636091
 20
18.73771621708238
 10
13.48874623636091
 20
18.73771621708238
 10
13.26941275792727
 20
18.58864120507485
 10
13.26941275792727
 20
18.58864120507485
 10
13.30644793889973
 20
18.52018076944912
 10
13.32580638869162
 20
18.44995547693251
 10
13.32580638869162
 20
18.37969701050627
 10
13.32580638869162
 20
18.2935556460848
 10
13.29680608552852
 20
18.20778799691026
 10
13.24186994422718
 20
18.12493532666197
 10
13.24186994422718
 20
18.12493532666197
 10
13.55407166152738
 20
18.09227680088422
 10
13.55407166152738
 20
18.09227680088422
 10
13.43709878923268
 20
17.90851682715444
 10
13.2077497421808
 20
17.73735524405231
 10
12.88912012263309
 20
17.60289249820045
 10
12.88912012263309
 20
17.60289249820045
 10
12.66578789105699
 20
17.70615002093215
 10
12.66578789105699
 20
17.70615002093215
 10
12.5154048756852
 20
17.64265580047571
 10
12.34315951836689
 20
17.58884080491525
 10
12.15686246776338
 20
17.54575143694212
 10
12.15686246776338
 20
17.54575143694212
 10
12.20959368910773
 20
17.39794705677424
 10
12.20959368910773
 20
17.39794705677424
 10
11.95868127230696
 20
17.34577640830033
 10
11.68807406199199
 20
17.31053506051318
 10
11.41122580705299
 20
17.29450267641906
 10
11.41122580705299
 20
17.29450267641906
 10
11.35412211731942
 20
17.43516909537025
 10
11.35412211731942
 20
17.43516909537025
 10
11.26069330558241
 20
17.42989971038829
 10
11.16655443487625
 20
17.42732107518437
 10
11.07237819264539
 20
17.42732107518437
 10
10.9628796252896
 20
17.42732107518437
 10
10.85342026866678
 20
17.43080079707603
 10
10.74537735156606
 20
17.4377477305742
 10
10.74537735156606
 20
17.4377477305742
 10
10.71746082261907
 20
17.29539959301176
 10
10.71746082261907
 20
17.29539959301176
 10
10.42857893672832
 20
17.31292683809358
 10
10.14683501205429
 20
17.35123265090577
 10
9.887366330901985
 20
17.40800416643645
 10
9.887366330901985
 20
17.40800416643645
 10
9.918758412438574
 20
17.56238176543134
 10
9.918758412438574
 20
17.56238176543134
 10
9.758918585722379
 20
17.60233609975876
 10
9.61055363268416
 20
17.6506906782851
 10
9.478968494233753
 20
17.70615002093215
 10
9.478968494233753
 20
17.70615002093215
 10
9.254178773194608
 20
17.60289249820045
 10
9.254178773194608
 20
17.60289249820045
 10
8.942500257240109
 20
17.73463130052011
 10
8.716215675213196
 20
17.90122937983894
 10
8.596888396862745
 20
18.08042584075042
 10
8.596888396862745
 20
18.08042584075042
 10
8.86730874955418
 20
18.18645304549398
 10
8.86730874955418
 20
18.18645304549398
 10
8.835580325088308
 20
18.24994307676603
 10
8.819136854222602
 20
18.3147079290621
 10
8.819136854222602
 20
18.37969701050627
 10
8.819136854222602
 20
18.44192059912315
 10
8.834085464100506
 20
18.50414418773993
 10
8.863496854035361
 20
18.56528400214059
 10
8.863496854035361
 20
18.56528400214059
 10
8.552005195704277
 20
18.58277387569775
 10
8.552005195704277
 20
18.58277387569775
 10
8.65216088188635
 20
18.79171807026632
 10
8.897243340834747
 20
18.98844598570436
 10
9.254178773194608
 20
19.13916113535378
 10
9.304331359335036
 20
19.16050027595446
 10
9.356726236957089
 20
19.18075564233908
 10
9.41110180538799
 20
19.19992723450749
 10
9.41110180538799
 20
19.19992723450749
 10
9.583720877953224
 20
19.09775348599194
 10
9.583720877953224
 20
19.09775348599194
 10
9.583720877953224
 20
19.09775348599194
 10
12.57762846430204
 20
19.08826111871947
 10
12.57762846430204
 20
19.08826111871947
 97
        0
 97
        0
 75
     2
 76
     1
 98
        0
  0
INSERT
  5
13D
330
134
100
AcDbEntity
  8
_Calque_
100
AcDbBlockReference
  2
block 26
 10
0.0
 20
0.0
 30
0.0
  0
ENDBLK
  5
137
330
134
100
AcDbEntity
  8
0
100
AcDbBlockEnd
  0
BLOCK
  5
13E
330
13C
100
AcDbEntity
  8
0
100
AcDbBlockBegin
  2
block 26
 70
     0
 10
0.0
 20
0.0
 30
0.0
  3
block 26
  1

  0
INSERT
  5
141
330
13C
100
AcDbEntity
  8
_Calque_
100
AcDbBlockReference
  2
block 27
 10
0.0
 20
0.0
 30
0.0
  0
ENDBLK
  5
13F
330
13C
100
AcDbEntity
  8
0
100
AcDbBlockEnd
  0
BLOCK
  5
142
330
140
100
AcDbEntity
  8
0
100
AcDbBlockBegin
  2
block 27
 70
     0
 10
0.0
 20
0.0
 30
0.0
  3
block 27
  1

  0
SPLINE
  5
144
330
140
100
AcDbEntity
  8
_Calque_
370
     0
100
AcDbSpline
210
0.0
220
0.0
230
1.0
 70
    11
 71
     3
 72
    26
 73
    22
 74
     0
 42
0.0000000001
 43
0.0000000001
 12
1.0
 22
0.0
 32
0.0
 13
1.0
 23
0.0
 33
0.0
 40
0.0
 40
0.0
 40
0.0
 40
0.0
 40
1.0
 40
1.0
 40
1.0
 40
2.0
 40
2.0
 40
2.0
 40
3.0
 40
3.0
 40
3.0
 40
4.0
 40
4.0
 40
4.0
 40
5.0
 40
5.0
 40
5.0
 40
6.0
 40
6.0
 40
6.0
 40
7.0
 40
7.0
 40
7.0
 40
7.0
 10
9.567314778612278
 20
21.17781517897908
 30
0.0
 10
9.567314778612278
 20
21.01121292188973
 30
0.0
 10
9.72969405341113
 20
20.84550758139307
 30
0.0
 10
10.00870985678239
 20
20.72763779250566
 30
0.0
 10
10.28753880253024
 20
20.60976800361835
 30
0.0
 10
10.67967821115256
 20
20.5411538842787
 30
0.0
 10
11.07402253973194
 20
20.5411538842787
 30
0.0
 10
11.07402253973194
 20
20.5411538842787
 30
0.0
 10
11.07402253973194
 20
17.85653303630401
 30
0.0
 10
11.07402253973194
 20
17.85653303630401
 30
0.0
 10
11.07402253973194
 20
17.85653303630401
 30
0.0
 10
9.935536411430007
 20
18.06674786271215
 30
0.0
 10
9.935536411430007
 20
18.06674786271215
 30
0.0
 10
9.935536411430007
 20
18.06674786271215
 30
0.0
 10
9.351606338073912
 20
18.51053471846276
 30
0.0
 10
9.351606338073912
 20
18.51053471846276
 30
0.0
 10
9.351606338073912
 20
18.51053471846276
 30
0.0
 10
9.37496354100823
 20
21.14989865003206
 30
0.0
 10
9.37496354100823
 20
21.14989865003206
 30
0.0
 10
9.37496354100823
 20
21.14989865003206
 30
0.0
 10
9.567314778612278
 20
21.17781517897908
 30
0.0
 10
9.567314778612278
 20
21.17781517897908
 30
0.0
  0
SPLINE
  5
145
330
140
100
AcDbEntity
  8
_Calque_
370
     0
100
AcDbSpline
210
0.0
220
0.0
230
1.0
 70
    11
 71
     3
 72
    35
 73
    31
 74
     0
 42
0.0000000001
 43
0.0000000001
 12
1.0
 22
0.0
 32
0.0
 13
1.0
 23
0.0
 33
0.0
 40
0.0
 40
0.0
 40
0.0
 40
0.0
 40
1.0
 40
1.0
 40
1.0
 40
2.0
 40
2.0
 40
2.0
 40
3.0
 40
3.0
 40
3.0
 40
4.0
 40
4.0
 40
4.0
 40
5.0
 40
5.0
 40
5.0
 40
6.0
 40
6.0
 40
6.0
 40
7.0
 40
7.0
 40
7.0
 40
8.0
 40
8.0
 40
8.0
 40
9.0
 40
9.0
 40
9.0
 40
10.0
 40
10.0
 40
10.0
 40
10.0
 10
9.567314778612278
 20
18.60560787728629
 30
0.0
 10
9.567314778612278
 20
18.60560787728629
 30
0.0
 10
9.567314778612278
 20
21.19750997249326
 30
0.0
 10
9.567314778612278
 20
21.19750997249326
 30
0.0
 10
9.567314778612278
 20
21.41759515223101
 30
0.0
 10
9.72969405341113
 20
21.6365506446076
 30
0.0
 10
10.00870985678239
 20
21.79220304496136
 30
0.0
 10
10.28753880253024
 20
21.94804230293859
 30
0.0
 10
10.67967821115256
 20
22.03855613574938
 30
0.0
 10
11.07402253973194
 20
22.03855613574938
 30
0.0
 10
11.46836686831132
 20
22.03855613574938
 30
0.0
 10
11.86031941931029
 20
21.94804230293859
 30
0.0
 10
12.13933522268159
 20
21.79220304496136
 30
0.0
 10
12.41835102605282
 20
21.6365506446076
 30
0.0
 10
12.58054344322819
 20
21.41759515223101
 30
0.0
 10
12.58054344322819
 20
21.19750997249326
 30
0.0
 10
12.58054344322819
 20
21.19750997249326
 30
0.0
 10
12.58054344322819
 20
18.60560787728629
 30
0.0
 10
12.58054344322819
 20
18.60560787728629
 30
0.0
 10
12.58054344322819
 20
18.43881876257346
 30
0.0
 10
12.41835102605282
 20
18.27311342207674
 30
0.0
 10
12.13933522268159
 20
18.15524363318942
 30
0.0
 10
11.86031941931029
 20
18.03752333040083
 30
0.0
 10
11.46836686831132
 20
17.96875972496244
 30
0.0
 10
11.07402253973194
 20
17.96875972496244
 30
0.0
 10
10.67967821115256
 20
17.96875972496244
 30
0.0
 10
10.28753880253024
 20
18.03752333040083
 30
0.0
 10
10.00870985678239
 20
18.15524363318942
 30
0.0
 10
9.72969405341113
 20
18.27311342207674
 30
0.0
 10
9.567314778612278
 20
18.43881876257346
 30
0.0
 10
9.567314778612278
 20
18.60560787728629
 30
0.0
  0
HATCH
  5
146
330
140
100
AcDbEntity
  8
_Calque_
 62
   254
420
 14935011
100
AcDbHatch
 10
0.0
 20
0.0
 30
0.0
210
0.0
220
0.0
230
1.0
  2
SOLID
 70
     1
 71
     0
 91
        1
 92
        1
 93
        1
 72
     4
 94
        3
 73
     0
 74
     1
 95
       35
 96
       31
 40
0.0
 40
0.0
 40
0.0
 40
0.0
 40
1.0
 40
1.0
 40
1.0
 40
2.0
 40
2.0
 40
2.0
 40
3.0
 40
3.0
 40
3.0
 40
4.0
 40
4.0
 40
4.0
 40
5.0
 40
5.0
 40
5.0
 40
6.0
 40
6.0
 40
6.0
 40
7.0
 40
7.0
 40
7.0
 40
8.0
 40
8.0
 40
8.0
 40
9.0
 40
9.0
 40
9.0
 40
10.0
 40
10.0
 40
10.0
 40
10.0
 10
9.567314778612278
 20
18.60560787728629
 10
9.567314778612278
 20
18.60560787728629
 10
9.567314778612278
 20
21.19750997249326
 10
9.567314778612278
 20
21.19750997249326
 10
9.567314778612278
 20
21.41759515223101
 10
9.72969405341113
 20
21.6365506446076
 10
10.00870985678239
 20
21.79220304496136
 10
10.28753880253024
 20
21.94804230293859
 10
10.67967821115256
 20
22.03855613574938
 10
11.07402253973194
 20
22.03855613574938
 10
11.46836686831132
 20
22.03855613574938
 10
11.86031941931029
 20
21.94804230293859
 10
12.13933522268159
 20
21.79220304496136
 10
12.41835102605282
 20
21.6365506446076
 10
12.58054344322819
 20
21.41759515223101
 10
12.58054344322819
 20
21.19750997249326
 10
12.58054344322819
 20
21.19750997249326
 10
12.58054344322819
 20
18.60560787728629
 10
12.58054344322819
 20
18.60560787728629
 10
12.58054344322819
 20
18.43881876257346
 10
12.41835102605282
 20
18.27311342207674
 10
12.13933522268159
 20
18.15524363318942
 10
11.86031941931029
 20
18.03752333040083
 10
11.46836686831132
 20
17.96875972496244
 10
11.07402253973194
 20
17.96875972496244
 10
10.67967821115256
 20
17.96875972496244
 10
10.28753880253024
 20
18.03752333040083
 10
10.00870985678239
 20
18.15524363318942
 10
9.72969405341113
 20
18.27311342207674
 10
9.567314778612278
 20
18.43881876257346
 10
9.567314778612278
 20
18.60560787728629
 97
        0
 97
        0
 75
     2
 76
     1
 98
        0
  0
ENDBLK
  5
143
330
140
100
AcDbEntity
  8
0
100
AcDbBlockEnd
  0
BLOCK
  5
149
330
147
100
AcDbEntity
  8
0
100
AcDbBlockBegin
  2
block 28
 70
     0
 10
0.0
 20
0.0
 30
0.0
  3
block 28
  1

  0
SPLINE
  5
14B
330
147
100
AcDbEntity
  8
_Calque_
 62
     7
420
 16777215
370
     9
100
AcDbSpline
210
0.0
220
0.0
230
1.0
 70
     8
 71
     3
 72
    17
 73
    13
 74
     0
 42
0.0000000001
 43
0.0000000001
 12
1.0
 22
0.0
 32
0.0
 13
1.0
 23
0.0
 33
0.0
 40
0.0
 40
0.0
 40
0.0
 40
0.0
 40
1.0
 40
1.0
 40
1.0
 40
2.0
 40
2.0
 40
2.0
 40
3.0
 40
3.0
 40
3.0
 40
4.0
 40
4.0
 40
4.0
 40
4.0
 10
9.567314778612278
 20
21.17781517897908
 30
0.0
 10
9.567314778612278
 20
21.01121292188973
 30
0.0
 10
9.72969405341113
 20
20.84550758139307
 30
0.0
 10
10.00870985678239
 20
20.72763779250566
 30
0.0
 10
10.28753880253024
 20
20.60976800361835
 30
0.0
 10
10.67967821115256
 20
20.5411538842787
 30
0.0
 10
11.07402253973194
 20
20.5411538842787
 30
0.0
 10
11.46836686831132
 20
20.5411538842787
 30
0.0
 10
11.86031941931029
 20
20.60976800361835
 30
0.0
 10
12.13933522268159
 20
20.72763779250566
 30
0.0
 10
12.41835102605282
 20
20.84550758139307
 30
0.0
 10
12.58054344322819
 20
21.01121292188973
 30
0.0
 10
12.58054344322819
 20
21.17781517897908
 30
0.0
  0
SPLINE
  5
14C
330
147
100
AcDbEntity
  8
_Calque_
 62
     7
420
 16777215
370
     9
100
AcDbSpline
210
0.0
220
0.0
230
1.0
 70
     8
 71
     3
 72
    17
 73
    13
 74
     0
 42
0.0000000001
 43
0.0000000001
 12
1.0
 22
0.0
 32
0.0
 13
1.0
 23
0.0
 33
0.0
 40
0.0
 40
0.0
 40
0.0
 40
0.0
 40
1.0
 40
1.0
 40
1.0
 40
2.0
 40
2.0
 40
2.0
 40
3.0
 40
3.0
 40
3.0
 40
4.0
 40
4.0
 40
4.0
 40
4.0
 10
9.567314778612278
 20
18.60560787728629
 30
0.0
 10
9.567314778612278
 20
18.43881876257346
 30
0.0
 10
9.72969405341113
 20
18.27311342207674
 30
0.0
 10
10.00870985678239
 20
18.15524363318942
 30
0.0
 10
10.28753880253024
 20
18.03752333040083
 30
0.0
 10
10.67967821115256
 20
17.96875972496244
 30
0.0
 10
11.07402253973194
 20
17.96875972496244
 30
0.0
 10
11.46836686831132
 20
17.96875972496244
 30
0.0
 10
11.86031941931029
 20
18.03752333040083
 30
0.0
 10
12.13933522268159
 20
18.15524363318942
 30
0.0
 10
12.41835102605282
 20
18.27311342207674
 30
0.0
 10
12.58054344322819
 20
18.43881876257346
 30
0.0
 10
12.58054344322819
 20
18.60560787728629
 30
0.0
  0
SPLINE
  5
14D
330
147
100
AcDbEntity
  8
_Calque_
 62
     7
420
 16777215
370
    20
100
AcDbSpline
210
0.0
220
0.0
230
1.0
 70
     8
 71
     3
 72
    23
 73
    19
 74
     0
 42
0.0000000001
 43
0.0000000001
 12
1.0
 22
0.0
 32
0.0
 13
1.0
 23
0.0
 33
0.0
 40
0.0
 40
0.0
 40
0.0
 40
0.0
 40
1.0
 40
1.0
 40
1.0
 40
2.0
 40
2.0
 40
2.0
 40
3.0
 40
3.0
 40
3.0
 40
4.0
 40
4.0
 40
4.0
 40
5.0
 40
5.0
 40
5.0
 40
6.0
 40
6.0
 40
6.0
 40
6.0
 10
12.58054344322819
 20
18.60560787728629
 30
0.0
 10
12.58054344322819
 20
18.60560787728629
 30
0.0
 10
12.58054344322819
 20
21.19750997249326
 30
0.0
 10
12.58054344322819
 20
21.19750997249326
 30
0.0
 10
12.58054344322819
 20
21.41759515223101
 30
0.0
 10
12.41835102605282
 20
21.6365506446076
 30
0.0
 10
12.13933522268159
 20
21.79220304496136
 30
0.0
 10
11.86031941931029
 20
21.94804230293859
 30
0.0
 10
11.46836686831132
 20
22.03855613574938
 30
0.0
 10
11.07402253973194
 20
22.03855613574938
 30
0.0
 10
10.67967821115256
 20
22.03855613574938
 30
0.0
 10
10.28753880253024
 20
21.94804230293859
 30
0.0
 10
10.00870985678239
 20
21.79220304496136
 30
0.0
 10
9.72969405341113
 20
21.6365506446076
 30
0.0
 10
9.567314778612278
 20
21.41759515223101
 30
0.0
 10
9.567314778612278
 20
21.19750997249326
 30
0.0
 10
9.567314778612278
 20
21.19750997249326
 30
0.0
 10
9.567314778612278
 20
18.60560787728629
 30
0.0
 10
9.567314778612278
 20
18.60560787728629
 30
0.0
  0
INSERT
  5
14F
330
147
100
AcDbEntity
  8
_Calque_
100
AcDbBlockReference
  2
block 29
 10
0.0
 20
0.0
 30
0.0
  0
INSERT
  5
156
330
147
100
AcDbEntity
  8
_Calque_
100
AcDbBlockReference
  2
block 30
 10
0.0
 20
0.0
 30
0.0
  0
SPLINE
  5
15C
330
147
100
AcDbEntity
  8
_Calque_
 62
     7
420
 16777215
370
     9
100
AcDbSpline
210
0.0
220
0.0
230
1.0
 70
     8
 71
     3
 72
    92
 73
    88
 74
     0
 42
0.0000000001
 43
0.0000000001
 12
1.0
 22
0.0
 32
0.0
 13
1.0
 23
0.0
 33
0.0
 40
0.0
 40
0.0
 40
0.0
 40
0.0
 40
1.0
 40
1.0
 40
1.0
 40
2.0
 40
2.0
 40
2.0
 40
3.0
 40
3.0
 40
3.0
 40
4.0
 40
4.0
 40
4.0
 40
5.0
 40
5.0
 40
5.0
 40
6.0
 40
6.0
 40
6.0
 40
7.0
 40
7.0
 40
7.0
 40
8.0
 40
8.0
 40
8.0
 40
9.0
 40
9.0
 40
9.0
 40
10.0
 40
10.0
 40
10.0
 40
11.0
 40
11.0
 40
11.0
 40
12.0
 40
12.0
 40
12.0
 40
13.0
 40
13.0
 40
13.0
 40
14.0
 40
14.0
 40
14.0
 40
15.0
 40
15.0
 40
15.0
 40
16.0
 40
16.0
 40
16.0
 40
17.0
 40
17.0
 40
17.0
 40
18.0
 40
18.0
 40
18.0
 40
19.0
 40
19.0
 40
19.0
 40
20.0
 40
20.0
 40
20.0
 40
21.0
 40
21.0
 40
21.0
 40
22.0
 40
22.0
 40
22.0
 40
23.0
 40
23.0
 40
23.0
 40
24.0
 40
24.0
 40
24.0
 40
25.0
 40
25.0
 40
25.0
 40
26.0
 40
26.0
 40
26.0
 40
27.0
 40
27.0
 40
27.0
 40
28.0
 40
28.0
 40
28.0
 40
29.0
 40
29.0
 40
29.0
 40
29.0
 10
12.57762846430204
 20
19.08826111871947
 30
0.0
 10
12.60774991320602
 20
19.07693754673694
 30
0.0
 10
12.63712393161615
 20
19.0650907734087
 30
0.0
 10
12.66578789105699
 20
19.05301977093228
 30
0.0
 10
12.69097818432996
 20
19.04244362944364
 30
0.0
 10
12.71541727585171
 20
19.03149377270807
 30
0.0
 10
12.73933505165637
 20
19.02035705834905
 30
0.0
 10
12.73933505165637
 20
19.02035705834905
 30
0.0
 10
12.88912012263309
 20
19.13916113535378
 30
0.0
 10
12.88912012263309
 20
19.13916113535378
 30
0.0
 10
13.15628915267611
 20
19.02637387382486
 30
0.0
 10
13.36063664970722
 20
18.88787500330603
 30
0.0
 10
13.48874623636091
 20
18.73771621708238
 30
0.0
 10
13.48874623636091
 20
18.73771621708238
 30
0.0
 10
13.26941275792727
 20
18.58864120507485
 30
0.0
 10
13.26941275792727
 20
18.58864120507485
 30
0.0
 10
13.30644793889973
 20
18.52018076944912
 30
0.0
 10
13.32580638869162
 20
18.44995547693251
 30
0.0
 10
13.32580638869162
 20
18.37969701050627
 30
0.0
 10
13.32580638869162
 20
18.2935556460848
 30
0.0
 10
13.29680608552852
 20
18.20778799691026
 30
0.0
 10
13.24186994422718
 20
18.12493532666197
 30
0.0
 10
13.24186994422718
 20
18.12493532666197
 30
0.0
 10
13.55407166152738
 20
18.09227680088422
 30
0.0
 10
13.55407166152738
 20
18.09227680088422
 30
0.0
 10
13.43709878923268
 20
17.90851682715444
 30
0.0
 10
13.2077497421808
 20
17.73735524405231
 30
0.0
 10
12.88912012263309
 20
17.60289249820045
 30
0.0
 10
12.88912012263309
 20
17.60289249820045
 30
0.0
 10
12.66578789105699
 20
17.70615002093215
 30
0.0
 10
12.66578789105699
 20
17.70615002093215
 30
0.0
 10
12.5154048756852
 20
17.64265580047571
 30
0.0
 10
12.34315951836689
 20
17.58884080491525
 30
0.0
 10
12.15686246776338
 20
17.54575143694212
 30
0.0
 10
12.15686246776338
 20
17.54575143694212
 30
0.0
 10
12.20959368910773
 20
17.39794705677424
 30
0.0
 10
12.20959368910773
 20
17.39794705677424
 30
0.0
 10
11.95868127230696
 20
17.34577640830033
 30
0.0
 10
11.68807406199199
 20
17.31053506051318
 30
0.0
 10
11.41122580705299
 20
17.29450267641906
 30
0.0
 10
11.41122580705299
 20
17.29450267641906
 30
0.0
 10
11.35412211731942
 20
17.43516909537025
 30
0.0
 10
11.35412211731942
 20
17.43516909537025
 30
0.0
 10
11.26069330558241
 20
17.42989971038829
 30
0.0
 10
11.16655443487625
 20
17.42732107518437
 30
0.0
 10
11.07237819264539
 20
17.42732107518437
 30
0.0
 10
10.9628796252896
 20
17.42732107518437
 30
0.0
 10
10.85342026866678
 20
17.43080079707603
 30
0.0
 10
10.74537735156606
 20
17.4377477305742
 30
0.0
 10
10.74537735156606
 20
17.4377477305742
 30
0.0
 10
10.71746082261907
 20
17.29539959301176
 30
0.0
 10
10.71746082261907
 20
17.29539959301176
 30
0.0
 10
10.42857893672832
 20
17.31292683809358
 30
0.0
 10
10.14683501205429
 20
17.35123265090577
 30
0.0
 10
9.887366330901985
 20
17.40800416643645
 30
0.0
 10
9.887366330901985
 20
17.40800416643645
 30
0.0
 10
9.918758412438574
 20
17.56238176543134
 30
0.0
 10
9.918758412438574
 20
17.56238176543134
 30
0.0
 10
9.758918585722379
 20
17.60233609975876
 30
0.0
 10
9.61055363268416
 20
17.6506906782851
 30
0.0
 10
9.478968494233753
 20
17.70615002093215
 30
0.0
 10
9.478968494233753
 20
17.70615002093215
 30
0.0
 10
9.254178773194608
 20
17.60289249820045
 30
0.0
 10
9.254178773194608
 20
17.60289249820045
 30
0.0
 10
8.942500257240109
 20
17.73463130052011
 30
0.0
 10
8.716215675213196
 20
17.90122937983894
 30
0.0
 10
8.596888396862745
 20
18.08042584075042
 30
0.0
 10
8.596888396862745
 20
18.08042584075042
 30
0.0
 10
8.86730874955418
 20
18.18645304549398
 30
0.0
 10
8.86730874955418
 20
18.18645304549398
 30
0.0
 10
8.835580325088308
 20
18.24994307676603
 30
0.0
 10
8.819136854222602
 20
18.3147079290621
 30
0.0
 10
8.819136854222602
 20
18.37969701050627
 30
0.0
 10
8.819136854222602
 20
18.44192059912315
 30
0.0
 10
8.834085464100506
 20
18.50414418773993
 30
0.0
 10
8.863496854035361
 20
18.56528400214059
 30
0.0
 10
8.863496854035361
 20
18.56528400214059
 30
0.0
 10
8.552005195704277
 20
18.58277387569775
 30
0.0
 10
8.552005195704277
 20
18.58277387569775
 30
0.0
 10
8.65216088188635
 20
18.79171807026632
 30
0.0
 10
8.897243340834747
 20
18.98844598570436
 30
0.0
 10
9.254178773194608
 20
19.13916113535378
 30
0.0
 10
9.304331359335036
 20
19.16050027595446
 30
0.0
 10
9.356726236957089
 20
19.18075564233908
 30
0.0
 10
9.41110180538799
 20
19.19992723450749
 30
0.0
 10
9.41110180538799
 20
19.19992723450749
 30
0.0
 10
9.583720877953224
 20
19.09775348599194
 30
0.0
 10
9.583720877953224
 20
19.09775348599194
 30
0.0
  0
ENDBLK
  5
14A
330
147
100
AcDbEntity
  8
0
100
AcDbBlockEnd
  0
BLOCK
  5
150
330
14E
100
AcDbEntity
  8
0
100
AcDbBlockBegin
  2
block 29
 70
     0
 10
0.0
 20
0.0
 30
0.0
  3
block 29
  1

  0
SPLINE
  5
152
330
14E
100
AcDbEntity
  8
_Calque_
 62
     7
420
 16777215
370
     9
100
AcDbSpline
210
0.0
220
0.0
230
1.0
 70
     8
 71
     3
 72
     8
 73
     4
 74
     0
 42
0.0000000001
 43
0.0000000001
 12
1.0
 22
0.0
 32
0.0
 13
1.0
 23
0.0
 33
0.0
 40
0.0
 40
0.0
 40
0.0
 40
0.0
 40
1.0
 40
1.0
 40
1.0
 40
1.0
 10
12.90481616300491
 20
18.46382031259429
 30
0.0
 10
12.90481616300491
 20
18.60960663042863
 30
0.0
 10
12.80226869924243
 20
18.75505660454072
 30
0.0
 10
12.6183260546947
 20
18.87838263603354
 30
0.0
  0
SPLINE
  5
153
330
14E
100
AcDbEntity
  8
_Calque_
 62
     7
420
 16777215
370
     9
100
AcDbSpline
210
0.0
220
0.0
230
1.0
 70
     8
 71
     3
 72
     8
 73
     4
 74
     0
 42
0.0000000001
 43
0.0000000001
 12
1.0
 22
0.0
 32
0.0
 13
1.0
 23
0.0
 33
0.0
 40
0.0
 40
0.0
 40
0.0
 40
0.0
 40
1.0
 40
1.0
 40
1.0
 40
1.0
 10
9.514398505025877
 20
18.86907712638455
 30
0.0
 10
9.339198991875266
 20
18.74773178570059
 30
0.0
 10
9.241771426995992
 20
18.60594422100856
 30
0.0
 10
9.241771426995992
 20
18.46382031259429
 30
0.0
  0
SPLINE
  5
154
330
14E
100
AcDbEntity
  8
_Calque_
 62
     7
420
 16777215
370
     9
100
AcDbSpline
210
0.0
220
0.0
230
1.0
 70
     8
 71
     3
 72
    17
 73
    13
 74
     0
 42
0.0000000001
 43
0.0000000001
 12
1.0
 22
0.0
 32
0.0
 13
1.0
 23
0.0
 33
0.0
 40
0.0
 40
0.0
 40
0.0
 40
0.0
 40
1.0
 40
1.0
 40
1.0
 40
2.0
 40
2.0
 40
2.0
 40
3.0
 40
3.0
 40
3.0
 40
4.0
 40
4.0
 40
4.0
 40
4.0
 10
9.241771426995992
 20
18.46382031259429
 30
0.0
 10
9.241771426995992
 20
18.26107979112505
 30
0.0
 10
9.43920519195849
 20
18.05979675911894
 30
0.0
 10
9.778241476036388
 20
17.91636484734035
 30
0.0
 10
10.11727413602075
 20
17.77312397192817
 30
0.0
 10
10.59391056197802
 20
17.68974392159117
 30
0.0
 10
11.07327510923809
 20
17.68974392159117
 30
0.0
 10
11.55267702802279
 20
17.68974392159117
 30
0.0
 10
12.02927608245536
 20
17.77312397192817
 30
0.0
 10
12.36834792601121
 20
17.91636484734035
 30
0.0
 10
12.70738239804229
 20
18.05979675911894
 30
0.0
 10
12.90481616300491
 20
18.26107979112505
 30
0.0
 10
12.90481616300491
 20
18.46382031259429
 30
0.0
  0
ENDBLK
  5
151
330
14E
100
AcDbEntity
  8
0
100
AcDbBlockEnd
  0
BLOCK
  5
157
330
155
100
AcDbEntity
  8
0
100
AcDbBlockBegin
  2
block 30
 70
     0
 10
0.0
 20
0.0
 30
0.0
  3
block 30
  1

  0
SPLINE
  5
159
330
155
100
AcDbEntity
  8
_Calque_
 62
     7
420
 16777215
370
     9
100
AcDbSpline
210
0.0
220
0.0
230
1.0
 70
     8
 71
     3
 72
    11
 73
     7
 74
     0
 42
0.0000000001
 43
0.0000000001
 12
1.0
 22
0.0
 32
0.0
 13
1.0
 23
0.0
 33
0.0
 40
0.0
 40
0.0
 40
0.0
 40
0.0
 40
1.0
 40
1.0
 40
1.0
 40
2.0
 40
2.0
 40
2.0
 40
2.0
 10
13.94329800848868
 20
18.35540551945472
 30
0.0
 10
13.94329800848868
 20
18.67310085088506
 30
0.0
 10
13.6336356376026
 20
18.98896497760541
 30
0.0
 10
13.10191358424521
 20
19.21360521254577
 30
0.0
 10
12.96905781395527
 20
19.26981198568673
 30
0.0
 10
12.82271092325044
 20
19.32018880097531
 30
0.0
 10
12.66616160630401
 20
19.36398822791759
 30
0.0
  0
SPLINE
  5
15A
330
155
100
AcDbEntity
  8
_Calque_
 62
     7
420
 16777215
370
     9
100
AcDbSpline
210
0.0
220
0.0
230
1.0
 70
     8
 71
     3
 72
    11
 73
     7
 74
     0
 42
0.0000000001
 43
0.0000000001
 12
1.0
 22
0.0
 32
0.0
 13
1.0
 23
0.0
 33
0.0
 40
0.0
 40
0.0
 40
0.0
 40
0.0
 40
1.0
 40
1.0
 40
1.0
 40
2.0
 40
2.0
 40
2.0
 40
2.0
 10
9.45067825003987
 20
19.35685026670094
 30
0.0
 10
9.30362310042287
 20
19.31469940453159
 30
0.0
 10
9.16583248881621
 20
19.26689700676055
 30
0.0
 10
9.039927822119415
 20
19.21360521254577
 30
0.0
 10
8.508205768762053
 20
18.98896497760541
 30
0.0
 10
8.198694801239787
 20
18.67310085088506
 30
0.0
 10
8.198694801239787
 20
18.35540551945472
 30
0.0
  0
SPLINE
  5
15B
330
155
100
AcDbEntity
  8
_Calque_
 62
     7
420
 16777215
370
     9
100
AcDbSpline
210
0.0
220
0.0
230
1.0
 70
     8
 71
     3
 72
    17
 73
    13
 74
     0
 42
0.0000000001
 43
0.0000000001
 12
1.0
 22
0.0
 32
0.0
 13
1.0
 23
0.0
 33
0.0
 40
0.0
 40
0.0
 40
0.0
 40
0.0
 40
1.0
 40
1.0
 40
1.0
 40
2.0
 40
2.0
 40
2.0
 40
3.0
 40
3.0
 40
3.0
 40
4.0
 40
4.0
 40
4.0
 40
4.0
 10
8.198694801239787
 20
18.35540551945472
 30
0.0
 10
8.198694801239787
 20
18.03752333040083
 30
0.0
 10
8.508205768762053
 20
17.7216592036805
 30
0.0
 10
9.039927822119415
 20
17.49705634026483
 30
0.0
 10
9.571687247001504
 20
17.27222924770096
 30
0.0
 10
10.31911774089723
 20
17.14139153974453
 30
0.0
 10
11.07092254788487
 20
17.14139153974453
 30
0.0
 10
11.82291052309081
 20
17.14139153974453
 30
0.0
 10
12.57015415936299
 20
17.27222924770096
 30
0.0
 10
13.10191358424521
 20
17.49705634026483
 30
0.0
 10
13.6336356376026
 20
17.7216592036805
 30
0.0
 10
13.94329800848868
 20
18.03752333040083
 30
0.0
 10
13.94329800848868
 20
18.35540551945472
 30
0.0
  0
ENDBLK
  5
158
330
155
100
AcDbEntity
  8
0
100
AcDbBlockEnd
  0
BLOCK
  5
15F
330
15D
100
AcDbEntity
  8
0
100
AcDbBlockBegin
  2
block 31
 70
     0
 10
0.0
 20
0.0
 30
0.0
  3
block 31
  1

  0
INSERT
  5
162
330
15D
100
AcDbEntity
  8
_Calque_
100
AcDbBlockReference
  2
block 32
 10
0.0
 20
0.0
 30
0.0
  0
INSERT
  5
1AF
330
15D
100
AcDbEntity
  8
_Calque_
100
AcDbBlockReference
  2
block 44
 10
0.0
 20
0.0
 30
0.0
  0
ENDBLK
  5
160
330
15D
100
AcDbEntity
  8
0
100
AcDbBlockEnd
  0
BLOCK
  5
163
330
161
100
AcDbEntity
  8
0
100
AcDbBlockBegin
  2
block 32
 70
     0
 10
0.0
 20
0.0
 30
0.0
  3
block 32
  1

  0
INSERT
  5
166
330
161
100
AcDbEntity
  8
_Calque_
100
AcDbBlockReference
  2
block 33
 10
0.0
 20
0.0
 30
0.0
  0
INSERT
  5
171
330
161
100
AcDbEntity
  8
_Calque_
100
AcDbBlockReference
  2
block 35
 10
0.0
 20
0.0
 30
0.0
  0
INSERT
  5
198
330
161
100
AcDbEntity
  8
_Calque_
100
AcDbBlockReference
  2
block 40
 10
0.0
 20
0.0
 30
0.0
  0
ENDBLK
  5
164
330
161
100
AcDbEntity
  8
0
100
AcDbBlockEnd
  0
BLOCK
  5
167
330
165
100
AcDbEntity
  8
0
100
AcDbBlockBegin
  2
block 33
 70
     0
 10
0.0
 20
0.0
 30
0.0
  3
block 33
  1

  0
INSERT
  5
16A
330
165
100
AcDbEntity
  8
_Calque_
100
AcDbBlockReference
  2
block 34
 10
0.0
 20
0.0
 30
0.0
  0
ENDBLK
  5
168
330
165
100
AcDbEntity
  8
0
100
AcDbBlockEnd
  0
BLOCK
  5
16B
330
169
100
AcDbEntity
  8
0
100
AcDbBlockBegin
  2
block 34
 70
     0
 10
0.0
 20
0.0
 30
0.0
  3
block 34
  1

  0
SPLINE
  5
16D
330
169
100
AcDbEntity
  8
_Calque_
370
     0
100
AcDbSpline
210
0.0
220
0.0
230
1.0
 70
    11
 71
     3
 72
    26
 73
    22
 74
     0
 42
0.0000000001
 43
0.0000000001
 12
1.0
 22
0.0
 32
0.0
 13
1.0
 23
0.0
 33
0.0
 40
0.0
 40
0.0
 40
0.0
 40
0.0
 40
1.0
 40
1.0
 40
1.0
 40
2.0
 40
2.0
 40
2.0
 40
3.0
 40
3.0
 40
3.0
 40
4.0
 40
4.0
 40
4.0
 40
5.0
 40
5.0
 40
5.0
 40
6.0
 40
6.0
 40
6.0
 40
7.0
 40
7.0
 40
7.0
 40
7.0
 10
1.556132120228302
 20
15.5946962472014
 30
0.0
 10
1.556132120228302
 20
15.5946962472014
 30
0.0
 10
1.556132120228302
 20
18.16380171234453
 30
0.0
 10
1.556132120228302
 20
18.16380171234453
 30
0.0
 10
1.567080372625186
 20
18.56655463398022
 30
0.0
 10
1.689733716673472
 20
18.99445859173557
 30
0.0
 10
1.906677030720968
 20
19.3703413871157
 30
0.0
 10
1.906677030720968
 20
19.3703413871157
 30
0.0
 10
0.851602532343442
 20
19.97945986811608
 30
0.0
 10
0.851602532343442
 20
19.97945986811608
 30
0.0
 10
0.851602532343442
 20
19.97945986811608
 30
0.0
 10
0.5459408318648195
 20
18.90760716834485
 30
0.0
 10
0.5459408318648195
 20
18.90760716834485
 30
0.0
 10
0.5459408318648195
 20
18.90760716834485
 30
0.0
 10
0.6160124406675419
 20
15.98795680156466
 30
0.0
 10
0.6160124406675419
 20
15.98795680156466
 30
0.0
 10
0.6160124406675419
 20
15.98795680156466
 30
0.0
 10
1.526943355102933
 20
15.40402672820857
 30
0.0
 10
1.526943355102933
 20
15.40402672820857
 30
0.0
 10
1.526943355102933
 20
15.40402672820857
 30
0.0
 10
1.556132120228302
 20
15.5946962472014
 30
0.0
 10
1.556132120228302
 20
15.5946962472014
 30
0.0
  0
SPLINE
  5
16E
330
169
100
AcDbEntity
  8
_Calque_
370
     0
100
AcDbSpline
210
0.0
220
0.0
230
1.0
 70
    11
 71
     3
 72
    35
 73
    31
 74
     0
 42
0.0000000001
 43
0.0000000001
 12
1.0
 22
0.0
 32
0.0
 13
1.0
 23
0.0
 33
0.0
 40
0.0
 40
0.0
 40
0.0
 40
0.0
 40
1.0
 40
1.0
 40
1.0
 40
2.0
 40
2.0
 40
2.0
 40
3.0
 40
3.0
 40
3.0
 40
4.0
 40
4.0
 40
4.0
 40
5.0
 40
5.0
 40
5.0
 40
6.0
 40
6.0
 40
6.0
 40
7.0
 40
7.0
 40
7.0
 40
8.0
 40
8.0
 40
8.0
 40
9.0
 40
9.0
 40
9.0
 40
10.0
 40
10.0
 40
10.0
 40
10.0
 10
4.241498794358192
 20
14.52994413712219
 30
0.0
 10
4.241498794358192
 20
14.52994413712219
 30
0.0
 10
1.558896008716981
 20
15.56203353461816
 30
0.0
 10
1.558896008716981
 20
15.56203353461816
 30
0.0
 10
1.558896008716981
 20
15.56203353461816
 30
0.0
 10
0.7408333331481249
 20
16.03429749218621
 30
0.0
 10
0.7408333331481249
 20
16.03429749218621
 30
0.0
 10
0.7408333331481249
 20
16.03429749218621
 30
0.0
 10
0.7408333331481249
 20
18.6736614237555
 30
0.0
 10
0.7408333331481249
 20
18.6736614237555
 30
0.0
 10
0.7546981688099116
 20
19.07163079023026
 30
0.0
 10
0.8769777976112069
 20
19.47016495118935
 30
0.0
 10
1.091004519538258
 20
19.84114785522067
 30
0.0
 10
1.366357913489484
 20
20.3181579964249
 30
0.0
 10
1.790636833349365
 20
20.70536436378756
 30
0.0
 10
2.243729198748969
 20
20.89349261910113
 30
0.0
 10
2.69682156414854
 20
21.0816582459394
 30
0.0
 10
3.173457990105875
 20
21.06831661162336
 30
0.0
 10
3.538951501620869
 20
20.85739598290441
 30
0.0
 10
3.538951501620869
 20
20.85739598290441
 30
0.0
 10
3.67655345554709
 20
20.77782775017075
 30
0.0
 10
3.67655345554709
 20
20.77782775017075
 30
0.0
 10
3.67655345554709
 20
20.77782775017075
 30
0.0
 10
5.053880998173466
 20
17.97331905097517
 30
0.0
 10
5.053880998173466
 20
17.97331905097517
 30
0.0
 10
5.053880998173466
 20
17.97331905097517
 30
0.0
 10
4.469950924817403
 20
14.46973861083892
 30
0.0
 10
4.469950924817403
 20
14.46973861083892
 30
0.0
 10
4.469950924817403
 20
14.46973861083892
 30
0.0
 10
4.241498794358192
 20
14.52994413712219
 30
0.0
 10
4.241498794358192
 20
14.52994413712219
 30
0.0
  0
HATCH
  5
16F
330
169
100
AcDbEntity
  8
_Calque_
 62
   254
420
 14935011
100
AcDbHatch
 10
0.0
 20
0.0
 30
0.0
210
0.0
220
0.0
230
1.0
  2
SOLID
 70
     1
 71
     0
 91
        1
 92
        1
 93
        1
 72
     4
 94
        3
 73
     0
 74
     1
 95
       35
 96
       31
 40
0.0
 40
0.0
 40
0.0
 40
0.0
 40
1.0
 40
1.0
 40
1.0
 40
2.0
 40
2.0
 40
2.0
 40
3.0
 40
3.0
 40
3.0
 40
4.0
 40
4.0
 40
4.0
 40
5.0
 40
5.0
 40
5.0
 40
6.0
 40
6.0
 40
6.0
 40
7.0
 40
7.0
 40
7.0
 40
8.0
 40
8.0
 40
8.0
 40
9.0
 40
9.0
 40
9.0
 40
10.0
 40
10.0
 40
10.0
 40
10.0
 10
4.241498794358192
 20
14.52994413712219
 10
4.241498794358192
 20
14.52994413712219
 10
1.558896008716981
 20
15.56203353461816
 10
1.558896008716981
 20
15.56203353461816
 10
1.558896008716981
 20
15.56203353461816
 10
0.7408333331481249
 20
16.03429749218621
 10
0.7408333331481249
 20
16.03429749218621
 10
0.7408333331481249
 20
16.03429749218621
 10
0.7408333331481249
 20
18.6736614237555
 10
0.7408333331481249
 20
18.6736614237555
 10
0.7546981688099116
 20
19.07163079023026
 10
0.8769777976112069
 20
19.47016495118935
 10
1.091004519538258
 20
19.84114785522067
 10
1.366357913489484
 20
20.3181579964249
 10
1.790636833349365
 20
20.70536436378756
 10
2.243729198748969
 20
20.89349261910113
 10
2.69682156414854
 20
21.0816582459394
 10
3.173457990105875
 20
21.06831661162336
 10
3.538951501620869
 20
20.85739598290441
 10
3.538951501620869
 20
20.85739598290441
 10
3.67655345554709
 20
20.77782775017075
 10
3.67655345554709
 20
20.77782775017075
 10
3.67655345554709
 20
20.77782775017075
 10
5.053880998173466
 20
17.97331905097517
 10
5.053880998173466
 20
17.97331905097517
 10
5.053880998173466
 20
17.97331905097517
 10
4.469950924817403
 20
14.46973861083892
 10
4.469950924817403
 20
14.46973861083892
 10
4.469950924817403
 20
14.46973861083892
 10
4.241498794358192
 20
14.52994413712219
 10
4.241498794358192
 20
14.52994413712219
 97
        0
 97
        0
 75
     2
 76
     1
 98
        0
  0
ENDBLK
  5
16C
330
169
100
AcDbEntity
  8
0
100
AcDbBlockEnd
  0
BLOCK
  5
172
330
170
100
AcDbEntity
  8
0
100
AcDbBlockBegin
  2
block 35
 70
     0
 10
0.0
 20
0.0
 30
0.0
  3
block 35
  1

  0
INSERT
  5
175
330
170
100
AcDbEntity
  8
_Calque_
100
AcDbBlockReference
  2
block 36
 10
0.0
 20
0.0
 30
0.0
  0
ENDBLK
  5
173
330
170
100
AcDbEntity
  8
0
100
AcDbBlockEnd
  0
BLOCK
  5
176
330
174
100
AcDbEntity
  8
0
100
AcDbBlockBegin
  2
block 36
 70
     0
 10
0.0
 20
0.0
 30
0.0
  3
block 36
  1

  0
SPLINE
  5
178
330
174
100
AcDbEntity
  8
_Calque_
370
     0
100
AcDbSpline
210
0.0
220
0.0
230
1.0
 70
    11
 71
     3
 72
    29
 73
    25
 74
     0
 42
0.0000000001
 43
0.0000000001
 12
1.0
 22
0.0
 32
0.0
 13
1.0
 23
0.0
 33
0.0
 40
0.0
 40
0.0
 40
0.0
 40
0.0
 40
1.0
 40
1.0
 40
1.0
 40
2.0
 40
2.0
 40
2.0
 40
3.0
 40
3.0
 40
3.0
 40
4.0
 40
4.0
 40
4.0
 40
5.0
 40
5.0
 40
5.0
 40
6.0
 40
6.0
 40
6.0
 40
7.0
 40
7.0
 40
7.0
 40
8.0
 40
8.0
 40
8.0
 40
8.0
 10
11.86286068298948
 20
23.41099232980831
 30
0.0
 10
11.7249242465651
 20
23.49055198471595
 30
0.0
 10
11.6307480019554
 20
23.64381693453833
 30
0.0
 10
11.60667888120673
 20
23.8273815367901
 30
0.0
 10
11.58257424777866
 20
24.01095046609087
 30
0.0
 10
11.6292886536471
 20
24.22262278196212
 30
0.0
 10
11.73314598220565
 20
24.40256667336752
 30
0.0
 10
11.83696221637601
 20
24.58247319324822
 30
0.0
 10
11.99717394274256
 20
24.72863322632958
 30
0.0
 10
12.16796181059773
 20
24.79963912324963
 30
0.0
 10
12.33916076522456
 20
24.87060764864506
 30
0.0
 10
12.51888042748185
 20
24.86552512128655
 30
0.0
 10
12.65666923903145
 20
24.78596114521132
 30
0.0
 10
12.79460753667997
 20
24.70639716913614
 30
0.0
 10
12.88878377891076
 20
24.55309917483816
 30
0.0
 10
12.91285104081427
 20
24.36953024553736
 30
0.0
 10
12.93695567424234
 20
24.18596131623655
 30
0.0
 10
12.89039075447269
 20
23.9742890003653
 30
0.0
 10
12.78657265887055
 20
23.79434510895987
 30
0.0
 10
12.68256770564493
 20
23.61443858907916
 30
0.0
 10
12.52254283690185
 20
23.46827855599784
 30
0.0
 10
12.35156811142327
 20
23.39727265907775
 30
0.0
 10
12.18055601441986
 20
23.3263041336824
 30
0.0
 10
12.0008363521627
 20
23.33123717494206
 30
0.0
 10
11.86286068298948
 20
23.41099232980831
 30
0.0
  0
HATCH
  5
179
330
174
100
AcDbEntity
  8
_Calque_
 62
   254
420
 13161177
100
AcDbHatch
 10
0.0
 20
0.0
 30
0.0
210
0.0
220
0.0
230
1.0
  2
SOLID
 70
     1
 71
     0
 91
        1
 92
        1
 93
        1
 72
     4
 94
        3
 73
     0
 74
     1
 95
       29
 96
       25
 40
0.0
 40
0.0
 40
0.0
 40
0.0
 40
1.0
 40
1.0
 40
1.0
 40
2.0
 40
2.0
 40
2.0
 40
3.0
 40
3.0
 40
3.0
 40
4.0
 40
4.0
 40
4.0
 40
5.0
 40
5.0
 40
5.0
 40
6.0
 40
6.0
 40
6.0
 40
7.0
 40
7.0
 40
7.0
 40
8.0
 40
8.0
 40
8.0
 40
8.0
 10
11.86286068298948
 20
23.41099232980831
 10
11.7249242465651
 20
23.49055198471595
 10
11.6307480019554
 20
23.64381693453833
 10
11.60667888120673
 20
23.8273815367901
 10
11.58257424777866
 20
24.01095046609087
 10
11.6292886536471
 20
24.22262278196212
 10
11.73314598220565
 20
24.40256667336752
 10
11.83696221637601
 20
24.58247319324822
 10
11.99717394274256
 20
24.72863322632958
 10
12.16796181059773
 20
24.79963912324963
 10
12.33916076522456
 20
24.87060764864506
 10
12.51888042748185
 20
24.86552512128655
 10
12.65666923903145
 20
24.78596114521132
 10
12.79460753667997
 20
24.70639716913614
 10
12.88878377891076
 20
24.55309917483816
 10
12.91285104081427
 20
24.36953024553736
 10
12.93695567424234
 20
24.18596131623655
 10
12.89039075447269
 20
23.9742890003653
 10
12.78657265887055
 20
23.79434510895987
 10
12.68256770564493
 20
23.61443858907916
 10
12.52254283690185
 20
23.46827855599784
 10
12.35156811142327
 20
23.39727265907775
 10
12.18055601441986
 20
23.3263041336824
 10
12.0008363521627
 20
23.33123717494206
 10
11.86286068298948
 20
23.41099232980831
 97
        0
 97
        0
 75
     2
 76
     1
 98
        0
  0
POLYLINE
  5
17A
330
174
100
AcDbEntity
  8
_Calque_
370
     0
100
AcDb2dPolyline
 66
     1
 10
0.0
 20
0.0
 30
0.0
  0
VERTEX
  5
17B
330
17A
100
AcDbEntity
  8
_Calque_
370
     0
100
AcDbVertex
100
AcDb2dVertex
 10
0.7327984553387352
 20
17.2959601658822
 30
0.0
  0
VERTEX
  5
17C
330
17A
100
AcDbEntity
  8
_Calque_
370
     0
100
AcDbVertex
100
AcDb2dVertex
 10
1.923120502001982
 20
19.35778455481827
 30
0.0
  0
VERTEX
  5
17D
330
17A
100
AcDbEntity
  8
_Calque_
370
     0
100
AcDbVertex
100
AcDb2dVertex
 10
5.661168274463749
 20
17.20253135414523
 30
0.0
  0
VERTEX
  5
17E
330
17A
100
AcDbEntity
  8
_Calque_
370
     0
100
AcDbVertex
100
AcDb2dVertex
 10
4.47069835531132
 20
15.14070696520916
 30
0.0
  0
VERTEX
  5
17F
330
17A
100
AcDbEntity
  8
_Calque_
370
     0
100
AcDbVertex
100
AcDb2dVertex
 10
0.7327984553387352
 20
17.2959601658822
 30
0.0
  0
SEQEND
  5
180
330
17A
100
AcDbEntity
  8
_Calque_
370
     0
  0
SPLINE
  5
181
330
174
100
AcDbEntity
  8
_Calque_
370
     0
100
AcDbSpline
210
0.0
220
0.0
230
1.0
 70
    11
 71
     3
 72
    32
 73
    28
 74
     0
 42
0.0000000001
 43
0.0000000001
 12
1.0
 22
0.0
 32
0.0
 13
1.0
 23
0.0
 33
0.0
 40
0.0
 40
0.0
 40
0.0
 40
0.0
 40
1.0
 40
1.0
 40
1.0
 40
2.0
 40
2.0
 40
2.0
 40
3.0
 40
3.0
 40
3.0
 40
4.0
 40
4.0
 40
4.0
 40
5.0
 40
5.0
 40
5.0
 40
6.0
 40
6.0
 40
6.0
 40
7.0
 40
7.0
 40
7.0
 40
8.0
 40
8.0
 40
8.0
 40
9.0
 40
9.0
 40
9.0
 40
9.0
 10
6.457518094184971
 20
24.06532603452181
 30
0.0
 10
6.457518094184971
 20
24.06532603452181
 30
0.0
 10
9.888822005561504
 20
22.08418676740177
 30
0.0
 10
9.888822005561504
 20
22.08418676740177
 30
0.0
 10
9.888822005561504
 20
22.08418676740177
 30
0.0
 10
10.09081509653683
 20
24.00310244590493
 30
0.0
 10
10.09081509653683
 20
24.00310244590493
 30
0.0
 10
10.06510348754684
 20
23.79382190761413
 30
0.0
 10
10.06416919942941
 20
23.58708263300261
 30
0.0
 10
10.08991999986453
 20
23.39091949987968
 30
0.0
 10
10.16253105242614
 20
22.8347234044568
 30
0.0
 10
10.44831293074123
 20
22.37049001808847
 30
0.0
 10
10.86616211937955
 20
22.12925682618365
 30
0.0
 10
10.86616211937955
 20
22.12925682618365
 30
0.0
 10
11.03388552220972
 20
22.03235674899026
 30
0.0
 10
11.03388552220972
 20
22.03235674899026
 30
0.0
 10
10.61599713307271
 20
22.27358565455487
 30
0.0
 10
10.33044131287976
 20
22.73781473431356
 30
0.0
 10
10.25760421124967
 20
23.29401945455861
 30
0.0
 10
10.18480448114425
 20
23.85036502447739
 30
0.0
 10
10.32569512924358
 20
24.49180987433871
 30
0.0
 10
10.64062496784659
 20
25.03720990573438
 30
0.0
 10
10.64062496784659
 20
25.03720990573438
 30
0.0
 10
7.262949194406972
 20
26.98755503650598
 30
0.0
 10
7.262949194406972
 20
26.98755503650598
 30
0.0
 10
7.262949194406972
 20
26.98755503650598
 30
0.0
 10
6.457518094184971
 20
24.06532603452181
 30
0.0
 10
6.457518094184971
 20
24.06532603452181
 30
0.0
  0
INSERT
  5
183
330
174
100
AcDbEntity
  8
_Calque_
100
AcDbBlockReference
  2
block 37
 10
0.0
 20
0.0
 30
0.0
  0
INSERT
  5
18E
330
174
100
AcDbEntity
  8
_Calque_
100
AcDbBlockReference
  2
block 39
 10
0.0
 20
0.0
 30
0.0
  0
SPLINE
  5
195
330
174
100
AcDbEntity
  8
_Calque_
370
     0
100
AcDbSpline
210
0.0
220
0.0
230
1.0
 70
    11
 71
     3
 72
    71
 73
    67
 74
     0
 42
0.0000000001
 43
0.0000000001
 12
1.0
 22
0.0
 32
0.0
 13
1.0
 23
0.0
 33
0.0
 40
0.0
 40
0.0
 40
0.0
 40
0.0
 40
1.0
 40
1.0
 40
1.0
 40
2.0
 40
2.0
 40
2.0
 40
3.0
 40
3.0
 40
3.0
 40
4.0
 40
4.0
 40
4.0
 40
5.0
 40
5.0
 40
5.0
 40
6.0
 40
6.0
 40
6.0
 40
7.0
 40
7.0
 40
7.0
 40
8.0
 40
8.0
 40
8.0
 40
9.0
 40
9.0
 40
9.0
 40
10.0
 40
10.0
 40
10.0
 40
11.0
 40
11.0
 40
11.0
 40
12.0
 40
12.0
 40
12.0
 40
13.0
 40
13.0
 40
13.0
 40
14.0
 40
14.0
 40
14.0
 40
15.0
 40
15.0
 40
15.0
 40
16.0
 40
16.0
 40
16.0
 40
17.0
 40
17.0
 40
17.0
 40
18.0
 40
18.0
 40
18.0
 40
19.0
 40
19.0
 40
19.0
 40
20.0
 40
20.0
 40
20.0
 40
21.0
 40
21.0
 40
21.0
 40
22.0
 40
22.0
 40
22.0
 40
22.0
 10
7.36187162027408
 20
24.58322062374214
 30
0.0
 10
7.36187162027408
 20
24.58322062374214
 30
0.0
 10
7.274272766389503
 20
23.5936226498242
 30
0.0
 10
7.274272766389503
 20
23.5936226498242
 30
0.0
 10
7.274272766389503
 20
23.5936226498242
 30
0.0
 10
2.164352080297229
 20
19.53275803343928
 30
0.0
 10
2.164352080297229
 20
19.53275803343928
 30
0.0
 10
2.076192653542246
 20
19.42310997998474
 30
0.0
 10
1.995544903250878
 20
19.30613710769007
 30
0.0
 10
1.924763235478966
 20
19.18315163428281
 30
0.0
 10
1.640814390847976
 20
18.69171607213182
 30
0.0
 10
1.513825949935064
 20
18.11379861230288
 30
0.0
 10
1.579487718823833
 20
17.61253435157173
 30
0.0
 10
1.645186859237266
 20
17.11145694846403
 30
0.0
 10
1.902489806760863
 20
16.69304535798121
 30
0.0
 10
2.278746317387982
 20
16.47569257035629
 30
0.0
 10
2.278746317387982
 20
16.47569257035629
 30
0.0
 10
4.233837631795729
 20
15.34688566695027
 30
0.0
 10
4.233837631795729
 20
15.34688566695027
 30
0.0
 10
4.233837631795729
 20
15.34688566695027
 30
0.0
 10
7.973531364953653
 20
18.32367709498882
 30
0.0
 10
7.973531364953653
 20
18.32367709498882
 30
0.0
 10
7.973531364953653
 20
18.32367709498882
 30
0.0
 10
11.25523706297694
 20
20.89296941775542
 30
0.0
 10
11.25523706297694
 20
20.89296941775542
 30
0.0
 10
11.25523706297694
 20
20.89296941775542
 30
0.0
 10
12.62161474886781
 20
20.96304102655815
 30
0.0
 10
12.62161474886781
 20
20.96304102655815
 30
0.0
 10
12.62161474886781
 20
20.96304102655815
 30
0.0
 10
13.36904524276354
 20
21.71047152045387
 30
0.0
 10
13.36904524276354
 20
21.71047152045387
 30
0.0
 10
13.36904524276354
 20
21.71047152045387
 30
0.0
 10
13.714283387894
 20
23.02576233208688
 30
0.0
 10
13.714283387894
 20
23.02576233208688
 30
0.0
 10
13.74933979042288
 20
23.07830669580775
 30
0.0
 10
13.80117218280936
 20
23.13944651020845
 30
0.0
 10
13.83290060727526
 20
23.19438265150979
 30
0.0
 10
14.14768095977936
 20
23.73978268290552
 30
0.0
 10
14.28872109397757
 20
24.38104067514336
 30
0.0
 10
14.21573643039584
 20
24.93739056327464
 30
0.0
 10
14.19768405982104
 20
25.07645000666396
 30
0.0
 10
14.17470057213371
 20
25.21842442897941
 30
0.0
 10
14.1310880028149
 20
25.34395538042922
 30
0.0
 10
14.12705187814781
 20
25.41040195133657
 30
0.0
 10
14.12963051335183
 20
25.4846591709051
 30
0.0
 10
14.12103506267203
 20
25.5494240232012
 30
0.0
 10
14.02816682380546
 20
26.25945001400319
 30
0.0
 10
13.66357022888317
 20
26.85216241063539
 30
0.0
 10
13.13035331453788
 20
27.1599872514477
 30
0.0
 10
13.13035331453788
 20
27.1599872514477
 30
0.0
 10
11.69573522455445
 20
27.9882567900571
 30
0.0
 10
11.69573522455445
 20
27.9882567900571
 30
0.0
 10
11.21543638917705
 20
28.26562380954295
 30
0.0
 10
10.60396350212089
 20
28.30340642100936
 30
0.0
 10
10.00415053076962
 20
28.10888763497302
 30
0.0
 10
9.668591610535099
 20
28.18187422270192
 30
0.0
 10
9.293568360222975
 20
28.13844851100662
 30
0.0
 10
8.931737258128049
 20
27.9882567900571
 30
0.0
 10
8.413655811284203
 20
27.77310448559034
 30
0.0
 10
7.928648163795279
 20
27.33025191795716
 30
0.0
 10
7.613682711033164
 20
26.78481451503673
 30
0.0
 10
7.298713743539936
 20
26.2393771121163
 30
0.0
 10
7.157860466965237
 20
25.59797401019497
 30
0.0
 10
7.230473339447247
 20
25.04176923174715
 30
0.0
 10
7.25166299394917
 20
24.88047373116445
 30
0.0
 10
7.307122336596252
 20
24.72572260178381
 30
0.0
 10
7.36187162027408
 20
24.58322062374214
 30
0.0
  0
HATCH
  5
196
330
174
100
AcDbEntity
  8
_Calque_
 62
   253
420
 10329244
100
AcDbHatch
 10
0.0
 20
0.0
 30
0.0
210
0.0
220
0.0
230
1.0
  2
SOLID
 70
     1
 71
     0
 91
        1
 92
        1
 93
        1
 72
     4
 94
        3
 73
     0
 74
     1
 95
       71
 96
       67
 40
0.0
 40
0.0
 40
0.0
 40
0.0
 40
1.0
 40
1.0
 40
1.0
 40
2.0
 40
2.0
 40
2.0
 40
3.0
 40
3.0
 40
3.0
 40
4.0
 40
4.0
 40
4.0
 40
5.0
 40
5.0
 40
5.0
 40
6.0
 40
6.0
 40
6.0
 40
7.0
 40
7.0
 40
7.0
 40
8.0
 40
8.0
 40
8.0
 40
9.0
 40
9.0
 40
9.0
 40
10.0
 40
10.0
 40
10.0
 40
11.0
 40
11.0
 40
11.0
 40
12.0
 40
12.0
 40
12.0
 40
13.0
 40
13.0
 40
13.0
 40
14.0
 40
14.0
 40
14.0
 40
15.0
 40
15.0
 40
15.0
 40
16.0
 40
16.0
 40
16.0
 40
17.0
 40
17.0
 40
17.0
 40
18.0
 40
18.0
 40
18.0
 40
19.0
 40
19.0
 40
19.0
 40
20.0
 40
20.0
 40
20.0
 40
21.0
 40
21.0
 40
21.0
 40
22.0
 40
22.0
 40
22.0
 40
22.0
 10
7.36187162027408
 20
24.58322062374214
 10
7.36187162027408
 20
24.58322062374214
 10
7.274272766389503
 20
23.5936226498242
 10
7.274272766389503
 20
23.5936226498242
 10
7.274272766389503
 20
23.5936226498242
 10
2.164352080297229
 20
19.53275803343928
 10
2.164352080297229
 20
19.53275803343928
 10
2.076192653542246
 20
19.42310997998474
 10
1.995544903250878
 20
19.30613710769007
 10
1.924763235478966
 20
19.18315163428281
 10
1.640814390847976
 20
18.69171607213182
 10
1.513825949935064
 20
18.11379861230288
 10
1.579487718823833
 20
17.61253435157173
 10
1.645186859237266
 20
17.11145694846403
 10
1.902489806760863
 20
16.69304535798121
 10
2.278746317387982
 20
16.47569257035629
 10
2.278746317387982
 20
16.47569257035629
 10
4.233837631795729
 20
15.34688566695027
 10
4.233837631795729
 20
15.34688566695027
 10
4.233837631795729
 20
15.34688566695027
 10
7.973531364953653
 20
18.32367709498882
 10
7.973531364953653
 20
18.32367709498882
 10
7.973531364953653
 20
18.32367709498882
 10
11.25523706297694
 20
20.89296941775542
 10
11.25523706297694
 20
20.89296941775542
 10
11.25523706297694
 20
20.89296941775542
 10
12.62161474886781
 20
20.96304102655815
 10
12.62161474886781
 20
20.96304102655815
 10
12.62161474886781
 20
20.96304102655815
 10
13.36904524276354
 20
21.71047152045387
 10
13.36904524276354
 20
21.71047152045387
 10
13.36904524276354
 20
21.71047152045387
 10
13.714283387894
 20
23.02576233208688
 10
13.714283387894
 20
23.02576233208688
 10
13.74933979042288
 20
23.07830669580775
 10
13.80117218280936
 20
23.13944651020845
 10
13.83290060727526
 20
23.19438265150979
 10
14.14768095977936
 20
23.73978268290552
 10
14.28872109397757
 20
24.38104067514336
 10
14.21573643039584
 20
24.93739056327464
 10
14.19768405982104
 20
25.07645000666396
 10
14.17470057213371
 20
25.21842442897941
 10
14.1310880028149
 20
25.34395538042922
 10
14.12705187814781
 20
25.41040195133657
 10
14.12963051335183
 20
25.4846591709051
 10
14.12103506267203
 20
25.5494240232012
 10
14.02816682380546
 20
26.25945001400319
 10
13.66357022888317
 20
26.85216241063539
 10
13.13035331453788
 20
27.1599872514477
 10
13.13035331453788
 20
27.1599872514477
 10
11.69573522455445
 20
27.9882567900571
 10
11.69573522455445
 20
27.9882567900571
 10
11.21543638917705
 20
28.26562380954295
 10
10.60396350212089
 20
28.30340642100936
 10
10.00415053076962
 20
28.10888763497302
 10
9.668591610535099
 20
28.18187422270192
 10
9.293568360222975
 20
28.13844851100662
 10
8.931737258128049
 20
27.9882567900571
 10
8.413655811284203
 20
27.77310448559034
 10
7.928648163795279
 20
27.33025191795716
 10
7.613682711033164
 20
26.78481451503673
 10
7.298713743539936
 20
26.2393771121163
 10
7.157860466965237
 20
25.59797401019497
 10
7.230473339447247
 20
25.04176923174715
 10
7.25166299394917
 20
24.88047373116445
 10
7.307122336596252
 20
24.72572260178381
 10
7.36187162027408
 20
24.58322062374214
 97
        0
 97
        0
 75
     2
 76
     1
 98
        0
  0
ENDBLK
  5
177
330
174
100
AcDbEntity
  8
0
100
AcDbBlockEnd
  0
BLOCK
  5
184
330
182
100
AcDbEntity
  8
0
100
AcDbBlockBegin
  2
block 37
 70
     0
 10
0.0
 20
0.0
 30
0.0
  3
block 37
  1

  0
INSERT
  5
187
330
182
100
AcDbEntity
  8
_Calque_
100
AcDbBlockReference
  2
block 38
 10
0.0
 20
0.0
 30
0.0
  0
ENDBLK
  5
185
330
182
100
AcDbEntity
  8
0
100
AcDbBlockEnd
  0
BLOCK
  5
188
330
186
100
AcDbEntity
  8
0
100
AcDbBlockBegin
  2
block 38
 70
     0
 10
0.0
 20
0.0
 30
0.0
  3
block 38
  1

  0
SPLINE
  5
18A
330
186
100
AcDbEntity
  8
_Calque_
370
     0
100
AcDbSpline
210
0.0
220
0.0
230
1.0
 70
    11
 71
     3
 72
    32
 73
    28
 74
     0
 42
0.0000000001
 43
0.0000000001
 12
1.0
 22
0.0
 32
0.0
 13
1.0
 23
0.0
 33
0.0
 40
0.0
 40
0.0
 40
0.0
 40
0.0
 40
1.0
 40
1.0
 40
1.0
 40
2.0
 40
2.0
 40
2.0
 40
3.0
 40
3.0
 40
3.0
 40
4.0
 40
4.0
 40
4.0
 40
5.0
 40
5.0
 40
5.0
 40
6.0
 40
6.0
 40
6.0
 40
7.0
 40
7.0
 40
7.0
 40
8.0
 40
8.0
 40
8.0
 40
9.0
 40
9.0
 40
9.0
 40
9.0
 10
9.41584798902427
 20
22.46903872870865
 30
0.0
 10
9.237212100983225
 20
22.75003522288873
 30
0.0
 10
9.116765472228552
 20
23.08525779940096
 30
0.0
 10
9.068778639183831
 20
23.45183508513217
 30
0.0
 10
8.975874820569812
 20
24.16204354043189
 30
0.0
 10
9.15581692019797
 20
24.98066678887118
 30
0.0
 10
9.55782241133975
 20
25.67678617936097
 30
0.0
 10
9.55782241133975
 20
25.67678617936097
 30
0.0
 10
8.07424762400613
 20
26.53334152536546
 30
0.0
 10
8.07424762400613
 20
26.53334152536546
 30
0.0
 10
8.07424762400613
 20
26.53334152536546
 30
0.0
 10
7.669887726808511
 20
25.98483965742013
 30
0.0
 10
7.669887726808511
 20
25.98483965742013
 30
0.0
 10
7.669887726808511
 20
25.98483965742013
 30
0.0
 10
7.506387306268815
 20
24.93376552537923
 30
0.0
 10
7.506387306268815
 20
24.93376552537923
 30
0.0
 10
7.506387306268815
 20
24.93376552537923
 30
0.0
 10
7.576458915071569
 20
23.62576216106166
 30
0.0
 10
7.576458915071569
 20
23.62576216106166
 30
0.0
 10
7.576458915071569
 20
23.62576216106166
 30
0.0
 10
7.903459756150994
 20
23.13526089944261
 30
0.0
 10
7.903459756150994
 20
23.13526089944261
 30
0.0
 10
7.903459756150994
 20
23.13526089944261
 30
0.0
 10
9.608535570350583
 20
22.17761557913874
 30
0.0
 10
9.608535570350583
 20
22.17761557913874
 30
0.0
 10
9.608535570350583
 20
22.17761557913874
 30
0.0
 10
9.41584798902427
 20
22.46903872870865
 30
0.0
 10
9.41584798902427
 20
22.46903872870865
 30
0.0
  0
SPLINE
  5
18B
330
186
100
AcDbEntity
  8
_Calque_
370
     0
100
AcDbSpline
210
0.0
220
0.0
230
1.0
 70
    11
 71
     3
 72
    62
 73
    58
 74
     0
 42
0.0000000001
 43
0.0000000001
 12
1.0
 22
0.0
 32
0.0
 13
1.0
 23
0.0
 33
0.0
 40
0.0
 40
0.0
 40
0.0
 40
0.0
 40
1.0
 40
1.0
 40
1.0
 40
2.0
 40
2.0
 40
2.0
 40
3.0
 40
3.0
 40
3.0
 40
4.0
 40
4.0
 40
4.0
 40
5.0
 40
5.0
 40
5.0
 40
6.0
 40
6.0
 40
6.0
 40
7.0
 40
7.0
 40
7.0
 40
8.0
 40
8.0
 40
8.0
 40
9.0
 40
9.0
 40
9.0
 40
10.0
 40
10.0
 40
10.0
 40
11.0
 40
11.0
 40
11.0
 40
12.0
 40
12.0
 40
12.0
 40
13.0
 40
13.0
 40
13.0
 40
14.0
 40
14.0
 40
14.0
 40
15.0
 40
15.0
 40
15.0
 40
16.0
 40
16.0
 40
16.0
 40
17.0
 40
17.0
 40
17.0
 40
18.0
 40
18.0
 40
18.0
 40
19.0
 40
19.0
 40
19.0
 40
19.0
 10
14.12268133155512
 20
25.33539730127412
 30
0.0
 10
13.99202855942564
 20
25.71184066952468
 30
0.0
 10
13.75300028747778
 20
26.01821242897256
 30
0.0
 10
13.43967742443663
 20
26.19924009459411
 30
0.0
 10
13.43967742443663
 20
26.19924009459411
 30
0.0
 10
12.88037518585445
 20
26.52205532490769
 30
0.0
 10
12.88037518585445
 20
26.52205532490769
 30
0.0
 10
12.46248679671737
 20
26.76328851681254
 30
0.0
 10
11.91760996666741
 20
26.77861084193737
 30
0.0
 10
11.39937903372478
 20
26.56346297426948
 30
0.0
 10
10.88133495840563
 20
26.34831510660161
 30
0.0
 10
10.39647679701543
 20
25.90564939659187
 30
0.0
 10
10.08150958688782
 20
25.36021199367145
 30
0.0
 10
9.923876495725246
 20
25.0873998633995
 30
0.0
 10
9.810007272829464
 20
24.79070732884757
 30
0.0
 10
9.74449317719025
 20
24.49252428179733
 30
0.0
 10
9.74449317719025
 20
24.49252428179733
 30
0.0
 10
9.445035149810886
 20
22.34111599967841
 30
0.0
 10
9.445035149810886
 20
22.34111599967841
 30
0.0
 10
9.445035149810886
 20
22.34111599967841
 30
0.0
 10
8.11367458255913
 20
23.11209055413186
 30
0.0
 10
8.11367458255913
 20
23.11209055413186
 30
0.0
 10
7.861865249165634
 20
23.42537604564822
 30
0.0
 10
7.693244929742731
 20
23.8292127415001
 30
0.0
 10
7.634123177675677
 20
24.28028704456622
 30
0.0
 10
7.541254938809044
 20
24.99031300330688
 30
0.0
 10
7.721161458689815
 20
25.80893189068176
 30
0.0
 10
8.123166949831562
 20
26.505238138795
 30
0.0
 10
8.524985583349926
 20
27.20139490080951
 30
0.0
 10
9.144119632968449
 20
27.76652709724407
 30
0.0
 10
9.805446133967402
 20
28.04117043222607
 30
0.0
 10
9.871296574877075
 20
28.06856375982738
 30
0.0
 10
9.937741331387
 20
28.09300473697771
 30
0.0
 10
10.00415053076962
 20
28.11453073520196
 30
0.0
 10
10.00415053076962
 20
28.11453073520196
 30
0.0
 10
10.33260886131209
 20
28.29720274791004
 30
0.0
 10
10.33260886131209
 20
28.29720274791004
 30
0.0
 10
10.33260886131209
 20
28.29720274791004
 30
0.0
 10
11.36032579041874
 20
28.43734596551552
 30
0.0
 10
11.36032579041874
 20
28.43734596551552
 30
0.0
 10
11.36032579041874
 20
28.43734596551552
 30
0.0
 10
12.06104187844603
 20
28.11034512443612
 30
0.0
 10
12.06104187844603
 20
28.11034512443612
 30
0.0
 10
12.06104187844603
 20
28.11034512443612
 30
0.0
 10
12.45811432832808
 20
27.85341589215945
 30
0.0
 10
12.45811432832808
 20
27.85341589215945
 30
0.0
 10
12.45811432832808
 20
27.85341589215945
 30
0.0
 10
13.64933167797443
 20
27.15269980413219
 30
0.0
 10
13.64933167797443
 20
27.15269980413219
 30
0.0
 10
13.64933167797443
 20
27.15269980413219
 30
0.0
 10
14.27997615719899
 20
25.82133923688041
 30
0.0
 10
14.27997615719899
 20
25.82133923688041
 30
0.0
 10
14.27997615719899
 20
25.82133923688041
 30
0.0
 10
14.30333336013321
 20
25.00383713418196
 30
0.0
 10
14.30333336013321
 20
25.00383713418196
 30
0.0
 10
14.30333336013321
 20
25.00383713418196
 30
0.0
 10
14.12268133155512
 20
25.33539730127412
 30
0.0
 10
14.12268133155512
 20
25.33539730127412
 30
0.0
  0
HATCH
  5
18C
330
186
100
AcDbEntity
  8
_Calque_
 62
   253
420
 10329244
100
AcDbHatch
 10
0.0
 20
0.0
 30
0.0
210
0.0
220
0.0
230
1.0
  2
SOLID
 70
     1
 71
     0
 91
        1
 92
        1
 93
        1
 72
     4
 94
        3
 73
     0
 74
     1
 95
       62
 96
       58
 40
0.0
 40
0.0
 40
0.0
 40
0.0
 40
1.0
 40
1.0
 40
1.0
 40
2.0
 40
2.0
 40
2.0
 40
3.0
 40
3.0
 40
3.0
 40
4.0
 40
4.0
 40
4.0
 40
5.0
 40
5.0
 40
5.0
 40
6.0
 40
6.0
 40
6.0
 40
7.0
 40
7.0
 40
7.0
 40
8.0
 40
8.0
 40
8.0
 40
9.0
 40
9.0
 40
9.0
 40
10.0
 40
10.0
 40
10.0
 40
11.0
 40
11.0
 40
11.0
 40
12.0
 40
12.0
 40
12.0
 40
13.0
 40
13.0
 40
13.0
 40
14.0
 40
14.0
 40
14.0
 40
15.0
 40
15.0
 40
15.0
 40
16.0
 40
16.0
 40
16.0
 40
17.0
 40
17.0
 40
17.0
 40
18.0
 40
18.0
 40
18.0
 40
19.0
 40
19.0
 40
19.0
 40
19.0
 10
14.12268133155512
 20
25.33539730127412
 10
13.99202855942564
 20
25.71184066952468
 10
13.75300028747778
 20
26.01821242897256
 10
13.43967742443663
 20
26.19924009459411
 10
13.43967742443663
 20
26.19924009459411
 10
12.88037518585445
 20
26.52205532490769
 10
12.88037518585445
 20
26.52205532490769
 10
12.46248679671737
 20
26.76328851681254
 10
11.91760996666741
 20
26.77861084193737
 10
11.39937903372478
 20
26.56346297426948
 10
10.88133495840563
 20
26.34831510660161
 10
10.39647679701543
 20
25.90564939659187
 10
10.08150958688782
 20
25.36021199367145
 10
9.923876495725246
 20
25.0873998633995
 10
9.810007272829464
 20
24.79070732884757
 10
9.74449317719025
 20
24.49252428179733
 10
9.74449317719025
 20
24.49252428179733
 10
9.445035149810886
 20
22.34111599967841
 10
9.445035149810886
 20
22.34111599967841
 10
9.445035149810886
 20
22.34111599967841
 10
8.11367458255913
 20
23.11209055413186
 10
8.11367458255913
 20
23.11209055413186
 10
7.861865249165634
 20
23.42537604564822
 10
7.693244929742731
 20
23.8292127415001
 10
7.634123177675677
 20
24.28028704456622
 10
7.541254938809044
 20
24.99031300330688
 10
7.721161458689815
 20
25.80893189068176
 10
8.123166949831562
 20
26.505238138795
 10
8.524985583349926
 20
27.20139490080951
 10
9.144119632968449
 20
27.76652709724407
 10
9.805446133967402
 20
28.04117043222607
 10
9.871296574877075
 20
28.06856375982738
 10
9.937741331387
 20
28.09300473697771
 10
10.00415053076962
 20
28.11453073520196
 10
10.00415053076962
 20
28.11453073520196
 10
10.33260886131209
 20
28.29720274791004
 10
10.33260886131209
 20
28.29720274791004
 10
10.33260886131209
 20
28.29720274791004
 10
11.36032579041874
 20
28.43734596551552
 10
11.36032579041874
 20
28.43734596551552
 10
11.36032579041874
 20
28.43734596551552
 10
12.06104187844603
 20
28.11034512443612
 10
12.06104187844603
 20
28.11034512443612
 10
12.06104187844603
 20
28.11034512443612
 10
12.45811432832808
 20
27.85341589215945
 10
12.45811432832808
 20
27.85341589215945
 10
12.45811432832808
 20
27.85341589215945
 10
13.64933167797443
 20
27.15269980413219
 10
13.64933167797443
 20
27.15269980413219
 10
13.64933167797443
 20
27.15269980413219
 10
14.27997615719899
 20
25.82133923688041
 10
14.27997615719899
 20
25.82133923688041
 10
14.27997615719899
 20
25.82133923688041
 10
14.30333336013321
 20
25.00383713418196
 10
14.30333336013321
 20
25.00383713418196
 10
14.30333336013321
 20
25.00383713418196
 10
14.12268133155512
 20
25.33539730127412
 10
14.12268133155512
 20
25.33539730127412
 97
        0
 97
        0
 75
     2
 76
     1
 98
        0
  0
ENDBLK
  5
189
330
186
100
AcDbEntity
  8
0
100
AcDbBlockEnd
  0
BLOCK
  5
18F
330
18D
100
AcDbEntity
  8
0
100
AcDbBlockBegin
  2
block 39
 70
     0
 10
0.0
 20
0.0
 30
0.0
  3
block 39
  1

  0
SPLINE
  5
191
330
18D
100
AcDbEntity
  8
_Calque_
370
     0
100
AcDbSpline
210
0.0
220
0.0
230
1.0
 70
     8
 71
     3
 72
    17
 73
    13
 74
     0
 42
0.0000000001
 43
0.0000000001
 12
1.0
 22
0.0
 32
0.0
 13
1.0
 23
0.0
 33
0.0
 40
0.0
 40
0.0
 40
0.0
 40
0.0
 40
1.0
 40
1.0
 40
1.0
 40
2.0
 40
2.0
 40
2.0
 40
3.0
 40
3.0
 40
3.0
 40
4.0
 40
4.0
 40
4.0
 40
4.0
 10
12.03514341183255
 20
23.69617011358668
 30
0.0
 10
12.11339938454342
 20
23.65095056870595
 30
0.0
 10
12.21542364696009
 20
23.64818507587858
 30
0.0
 10
12.31232801049368
 20
23.68832209340077
 30
0.0
 10
12.40923237402734
 20
23.72868334007116
 30
0.0
 10
12.50008255056033
 20
23.81149863879477
 30
0.0
 10
12.55883058738053
 20
23.91352290121157
 30
0.0
 10
12.61795233944768
 20
24.01550979210364
 30
0.0
 10
12.6442637772813
 20
24.13558450094797
 30
0.0
 10
12.63073340089335
 20
24.2395894541736
 30
0.0
 10
12.61705542285504
 20
24.34381863654733
 30
0.0
 10
12.56357677101677
 20
24.43067005993798
 30
0.0
 10
12.48550765592939
 20
24.47574011871993
 30
0.0
  0
HATCH
  5
192
330
18D
100
AcDbEntity
  8
_Calque_
 62
   253
420
 10329244
100
AcDbHatch
 10
0.0
 20
0.0
 30
0.0
210
0.0
220
0.0
230
1.0
  2
SOLID
 70
     1
 71
     0
 91
        1
 92
        1
 93
        2
 72
     4
 94
        3
 73
     0
 74
     0
 95
       17
 96
       13
 40
0.0
 40
0.0
 40
0.0
 40
0.0
 40
0.0352777777689583
 40
0.0352777777689583
 40
0.0352777777689583
 40
0.0705555555379167
 40
0.0705555555379167
 40
0.0705555555379167
 40
0.105833333306875
 40
0.105833333306875
 40
0.105833333306875
 40
0.1411111110758333
 40
0.1411111110758333
 40
0.1411111110758333
 40
0.1411111110758333
 10
12.03514341183255
 20
23.69617011358668
 10
12.11339938454342
 20
23.65095056870595
 10
12.21542364696009
 20
23.64818507587858
 10
12.31232801049368
 20
23.68832209340077
 10
12.40923237402734
 20
23.72868334007116
 10
12.50008255056033
 20
23.81149863879477
 10
12.55883058738053
 20
23.91352290121157
 10
12.61795233944768
 20
24.01550979210364
 10
12.6442637772813
 20
24.13558450094797
 10
12.63073340089335
 20
24.2395894541736
 10
12.61705542285504
 20
24.34381863654733
 10
12.56357677101677
 20
24.43067005993798
 10
12.48550765592939
 20
24.47574011871993
 97
        0
 72
     1
 10
12.48550765592939
 20
24.47574011871993
 11
12.03514341183255
 21
23.69617011358668
 97
        0
 75
     2
 76
     1
 98
        0
  0
SPLINE
  5
193
330
18D
100
AcDbEntity
  8
_Calque_
370
     0
100
AcDbSpline
210
0.0
220
0.0
230
1.0
 70
     8
 71
     3
 72
    17
 73
    13
 74
     0
 42
0.0000000001
 43
0.0000000001
 12
1.0
 22
0.0
 32
0.0
 13
1.0
 23
0.0
 33
0.0
 40
0.0
 40
0.0
 40
0.0
 40
0.0
 40
1.0
 40
1.0
 40
1.0
 40
2.0
 40
2.0
 40
2.0
 40
3.0
 40
3.0
 40
3.0
 40
4.0
 40
4.0
 40
4.0
 40
4.0
 10
12.48550765592939
 20
24.47574011871993
 30
0.0
 10
12.40721431169383
 20
24.52081017750185
 30
0.0
 10
12.30519004927703
 20
24.52372515642803
 30
0.0
 10
12.20832305726819
 20
24.48340128128233
 30
0.0
 10
12.1114186937346
 20
24.44326426376015
 30
0.0
 10
12.02053301436862
 20
24.36041159351185
 30
0.0
 10
11.96178310885666
 20
24.25838733109505
 30
0.0
 10
11.90266135678951
 20
24.15621358257949
 30
0.0
 10
11.87638917492907
 20
24.03632573135861
 30
0.0
 10
11.89006715296738
 20
23.93213392050957
 30
0.0
 10
11.90374513100562
 20
23.82812896728395
 30
0.0
 10
11.95703692522041
 20
23.74127754389329
 30
0.0
 10
12.03514341183255
 20
23.69617011358668
 30
0.0
  0
HATCH
  5
194
330
18D
100
AcDbEntity
  8
_Calque_
 62
   253
420
 10329244
100
AcDbHatch
 10
0.0
 20
0.0
 30
0.0
210
0.0
220
0.0
230
1.0
  2
SOLID
 70
     1
 71
     0
 91
        1
 92
        1
 93
        2
 72
     4
 94
        3
 73
     0
 74
     0
 95
       17
 96
       13
 40
0.0
 40
0.0
 40
0.0
 40
0.0
 40
0.0352777777689583
 40
0.0352777777689583
 40
0.0352777777689583
 40
0.0705555555379167
 40
0.0705555555379167
 40
0.0705555555379167
 40
0.105833333306875
 40
0.105833333306875
 40
0.105833333306875
 40
0.1411111110758333
 40
0.1411111110758333
 40
0.1411111110758333
 40
0.1411111110758333
 10
12.48550765592939
 20
24.47574011871993
 10
12.40721431169383
 20
24.52081017750185
 10
12.30519004927703
 20
24.52372515642803
 10
12.20832305726819
 20
24.48340128128233
 10
12.1114186937346
 20
24.44326426376015
 10
12.02053301436862
 20
24.36041159351185
 10
11.96178310885666
 20
24.25838733109505
 10
11.90266135678951
 20
24.15621358257949
 10
11.87638917492907
 20
24.03632573135861
 10
11.89006715296738
 20
23.93213392050957
 10
11.90374513100562
 20
23.82812896728395
 10
11.95703692522041
 20
23.74127754389329
 10
12.03514341183255
 20
23.69617011358668
 97
        0
 72
     1
 10
12.03514341183255
 20
23.69617011358668
 11
12.48550765592939
 21
24.47574011871993
 97
        0
 75
     2
 76
     1
 98
        0
  0
ENDBLK
  5
190
330
18D
100
AcDbEntity
  8
0
100
AcDbBlockEnd
  0
BLOCK
  5
199
330
197
100
AcDbEntity
  8
0
100
AcDbBlockBegin
  2
block 40
 70
     0
 10
0.0
 20
0.0
 30
0.0
  3
block 40
  1

  0
INSERT
  5
19C
330
197
100
AcDbEntity
  8
_Calque_
100
AcDbBlockReference
  2
block 41
 10
0.0
 20
0.0
 30
0.0
  0
ENDBLK
  5
19A
330
197
100
AcDbEntity
  8
0
100
AcDbBlockEnd
  0
BLOCK
  5
19D
330
19B
100
AcDbEntity
  8
0
100
AcDbBlockBegin
  2
block 41
 70
     0
 10
0.0
 20
0.0
 30
0.0
  3
block 41
  1

  0
SPLINE
  5
19F
330
19B
100
AcDbEntity
  8
_Calque_
370
     0
100
AcDbSpline
210
0.0
220
0.0
230
1.0
 70
    11
 71
     3
 72
    29
 73
    25
 74
     0
 42
0.0000000001
 43
0.0000000001
 12
1.0
 22
0.0
 32
0.0
 13
1.0
 23
0.0
 33
0.0
 40
0.0
 40
0.0
 40
0.0
 40
0.0
 40
1.0
 40
1.0
 40
1.0
 40
2.0
 40
2.0
 40
2.0
 40
3.0
 40
3.0
 40
3.0
 40
4.0
 40
4.0
 40
4.0
 40
5.0
 40
5.0
 40
5.0
 40
6.0
 40
6.0
 40
6.0
 40
7.0
 40
7.0
 40
7.0
 40
8.0
 40
8.0
 40
8.0
 40
8.0
 10
5.082171242367413
 20
13.55880769640347
 30
0.0
 10
5.082171242367413
 20
13.55880769640347
 30
0.0
 10
5.082171242367413
 20
16.12810001917008
 30
0.0
 10
5.082171242367413
 20
16.12810001917008
 30
0.0
 10
5.093307956726465
 20
16.53062871165763
 30
0.0
 10
5.215925626043136
 20
16.95853266941298
 30
0.0
 10
5.432716144004536
 20
17.33445283631783
 30
0.0
 10
5.432716144004536
 20
17.33445283631783
 30
0.0
 10
4.539835675996646
 20
17.8499556479577
 30
0.0
 10
4.539835675996646
 20
17.8499556479577
 30
0.0
 10
4.539835675996646
 20
17.8499556479577
 30
0.0
 10
4.213021692540797
 20
17.31931736881642
 30
0.0
 10
4.213021692540797
 20
17.31931736881642
 30
0.0
 10
4.213021692540797
 20
17.31931736881642
 30
0.0
 10
3.956092460264095
 20
16.47845806318372
 30
0.0
 10
3.956092460264095
 20
16.47845806318372
 30
0.0
 10
3.956092460264095
 20
16.47845806318372
 30
0.0
 10
4.026164069066817
 20
14.00259455215409
 30
0.0
 10
4.026164069066817
 20
14.00259455215409
 30
0.0
 10
4.026164069066817
 20
14.00259455215409
 30
0.0
 10
5.077238201107686
 20
13.37195007292952
 30
0.0
 10
5.077238201107686
 20
13.37195007292952
 30
0.0
 10
5.077238201107686
 20
13.37195007292952
 30
0.0
 10
5.082171242367413
 20
13.55880769640347
 30
0.0
 10
5.082171242367413
 20
13.55880769640347
 30
0.0
  0
INSERT
  5
1A1
330
19B
100
AcDbEntity
  8
_Calque_
100
AcDbBlockReference
  2
block 42
 10
0.0
 20
0.0
 30
0.0
  0
SPLINE
  5
1AC
330
19B
100
AcDbEntity
  8
_Calque_
370
     0
100
AcDbSpline
210
0.0
220
0.0
230
1.0
 70
    11
 71
     3
 72
    41
 73
    37
 74
     0
 42
0.0000000001
 43
0.0000000001
 12
1.0
 22
0.0
 32
0.0
 13
1.0
 23
0.0
 33
0.0
 40
0.0
 40
0.0
 40
0.0
 40
0.0
 40
1.0
 40
1.0
 40
1.0
 40
2.0
 40
2.0
 40
2.0
 40
3.0
 40
3.0
 40
3.0
 40
4.0
 40
4.0
 40
4.0
 40
5.0
 40
5.0
 40
5.0
 40
6.0
 40
6.0
 40
6.0
 40
7.0
 40
7.0
 40
7.0
 40
8.0
 40
8.0
 40
8.0
 40
9.0
 40
9.0
 40
9.0
 40
10.0
 40
10.0
 40
10.0
 40
11.0
 40
11.0
 40
11.0
 40
12.0
 40
12.0
 40
12.0
 40
12.0
 10
9.37496354100823
 20
11.87708908513807
 30
0.0
 10
9.37496354100823
 20
11.87708908513807
 30
0.0
 10
5.077798773978124
 20
13.53033466614713
 30
0.0
 10
5.077798773978124
 20
13.53033466614713
 30
0.0
 10
5.077798773978124
 20
13.53033466614713
 30
0.0
 10
4.259736098409236
 20
14.00259455215409
 30
0.0
 10
4.259736098409236
 20
14.00259455215409
 30
0.0
 10
4.259736098409236
 20
14.00259455215409
 30
0.0
 10
4.259736098409236
 20
16.64195848372345
 30
0.0
 10
4.259736098409236
 20
16.64195848372345
 30
0.0
 10
4.27360093407099
 20
17.0399278501982
 30
0.0
 10
4.39588056287235
 20
17.43845778954342
 30
0.0
 10
4.61009414242288
 20
17.80944491518855
 30
0.0
 10
4.885447536374074
 20
18.28645505639284
 30
0.0
 10
5.309539598610509
 20
18.6736614237555
 30
0.0
 10
5.762631964010112
 20
18.86178967906902
 30
0.0
 10
6.215911187033162
 20
19.04991793438259
 30
0.0
 10
6.692360755367018
 20
19.03661367159124
 30
0.0
 10
7.057854266882012
 20
18.82565141468919
 30
0.0
 10
7.057854266882012
 20
18.82565141468919
 30
0.0
 10
7.880476268463701
 20
18.35065933581844
 30
0.0
 10
7.880476268463701
 20
18.35065933581844
 30
0.0
 10
8.245969779978664
 20
18.13973863844536
 30
0.0
 10
8.49579842256331
 20
17.73354334853346
 30
0.0
 10
8.559479500643228
 20
17.24722769768018
 30
0.0
 10
8.570242499755322
 20
17.16418816980838
 30
0.0
 10
8.57569874236079
 20
17.07898109350424
 30
0.0
 10
8.57569874236079
 20
16.99231652773703
 30
0.0
 10
8.57569874236079
 20
16.99231652773703
 30
0.0
 10
8.57569874236079
 20
16.36167204851256
 30
0.0
 10
8.57569874236079
 20
16.36167204851256
 30
0.0
 10
8.57569874236079
 20
16.36167204851256
 30
0.0
 10
9.398320743942449
 20
15.8711707868934
 30
0.0
 10
9.398320743942449
 20
15.8711707868934
 30
0.0
 10
9.398320743942449
 20
15.8711707868934
 30
0.0
 10
9.37496354100823
 20
11.87708908513807
 30
0.0
 10
9.37496354100823
 20
11.87708908513807
 30
0.0
  0
HATCH
  5
1AD
330
19B
100
AcDbEntity
  8
_Calque_
 62
   254
420
 14935011
100
AcDbHatch
 10
0.0
 20
0.0
 30
0.0
210
0.0
220
0.0
230
1.0
  2
SOLID
 70
     1
 71
     0
 91
        1
 92
        1
 93
        1
 72
     4
 94
        3
 73
     0
 74
     1
 95
       41
 96
       37
 40
0.0
 40
0.0
 40
0.0
 40
0.0
 40
1.0
 40
1.0
 40
1.0
 40
2.0
 40
2.0
 40
2.0
 40
3.0
 40
3.0
 40
3.0
 40
4.0
 40
4.0
 40
4.0
 40
5.0
 40
5.0
 40
5.0
 40
6.0
 40
6.0
 40
6.0
 40
7.0
 40
7.0
 40
7.0
 40
8.0
 40
8.0
 40
8.0
 40
9.0
 40
9.0
 40
9.0
 40
10.0
 40
10.0
 40
10.0
 40
11.0
 40
11.0
 40
11.0
 40
12.0
 40
12.0
 40
12.0
 40
12.0
 10
9.37496354100823
 20
11.87708908513807
 10
9.37496354100823
 20
11.87708908513807
 10
5.077798773978124
 20
13.53033466614713
 10
5.077798773978124
 20
13.53033466614713
 10
5.077798773978124
 20
13.53033466614713
 10
4.259736098409236
 20
14.00259455215409
 10
4.259736098409236
 20
14.00259455215409
 10
4.259736098409236
 20
14.00259455215409
 10
4.259736098409236
 20
16.64195848372345
 10
4.259736098409236
 20
16.64195848372345
 10
4.27360093407099
 20
17.0399278501982
 10
4.39588056287235
 20
17.43845778954342
 10
4.61009414242288
 20
17.80944491518855
 10
4.885447536374074
 20
18.28645505639284
 10
5.309539598610509
 20
18.6736614237555
 10
5.762631964010112
 20
18.86178967906902
 10
6.215911187033162
 20
19.04991793438259
 10
6.692360755367018
 20
19.03661367159124
 10
7.057854266882012
 20
18.82565141468919
 10
7.057854266882012
 20
18.82565141468919
 10
7.880476268463701
 20
18.35065933581844
 10
7.880476268463701
 20
18.35065933581844
 10
8.245969779978664
 20
18.13973863844536
 10
8.49579842256331
 20
17.73354334853346
 10
8.559479500643228
 20
17.24722769768018
 10
8.570242499755322
 20
17.16418816980838
 10
8.57569874236079
 20
17.07898109350424
 10
8.57569874236079
 20
16.99231652773703
 10
8.57569874236079
 20
16.99231652773703
 10
8.57569874236079
 20
16.36167204851256
 10
8.57569874236079
 20
16.36167204851256
 10
8.57569874236079
 20
16.36167204851256
 10
9.398320743942449
 20
15.8711707868934
 10
9.398320743942449
 20
15.8711707868934
 10
9.398320743942449
 20
15.8711707868934
 10
9.37496354100823
 20
11.87708908513807
 10
9.37496354100823
 20
11.87708908513807
 97
        0
 97
        0
 75
     2
 76
     1
 98
        0
  0
ENDBLK
  5
19E
330
19B
100
AcDbEntity
  8
0
100
AcDbBlockEnd
  0
BLOCK
  5
1A2
330
1A0
100
AcDbEntity
  8
0
100
AcDbBlockBegin
  2
block 42
 70
     0
 10
0.0
 20
0.0
 30
0.0
  3
block 42
  1

  0
INSERT
  5
1A5
330
1A0
100
AcDbEntity
  8
_Calque_
100
AcDbBlockReference
  2
block 43
 10
0.0
 20
0.0
 30
0.0
  0
ENDBLK
  5
1A3
330
1A0
100
AcDbEntity
  8
0
100
AcDbBlockEnd
  0
BLOCK
  5
1A6
330
1A4
100
AcDbEntity
  8
0
100
AcDbBlockBegin
  2
block 43
 70
     0
 10
0.0
 20
0.0
 30
0.0
  3
block 43
  1

  0
SPLINE
  5
1A8
330
1A4
100
AcDbEntity
  8
_Calque_
370
     0
100
AcDbSpline
210
0.0
220
0.0
230
1.0
 70
    11
 71
     3
 72
    26
 73
    22
 74
     0
 42
0.0000000001
 43
0.0000000001
 12
1.0
 22
0.0
 32
0.0
 13
1.0
 23
0.0
 33
0.0
 40
0.0
 40
0.0
 40
0.0
 40
0.0
 40
1.0
 40
1.0
 40
1.0
 40
2.0
 40
2.0
 40
2.0
 40
3.0
 40
3.0
 40
3.0
 40
4.0
 40
4.0
 40
4.0
 40
5.0
 40
5.0
 40
5.0
 40
6.0
 40
6.0
 40
6.0
 40
7.0
 40
7.0
 40
7.0
 40
7.0
 10
6.593813776348273
 20
15.71970399730549
 30
0.0
 10
6.469366595970643
 20
15.79160681081822
 30
0.0
 10
6.384344648832555
 20
15.92991882371363
 30
0.0
 10
6.36263179298489
 20
16.09543730658684
 30
0.0
 10
6.341068423236009
 20
16.2611052755588
 30
0.0
 10
6.383074016992959
 20
16.45218588132332
 30
0.0
 10
6.476840901098575
 20
16.61456515612217
 30
0.0
 10
6.476840901098575
 20
16.61456515612217
 30
0.0
 10
6.142924599304258
 20
16.80744374941983
 30
0.0
 10
6.142924599304258
 20
16.80744374941983
 30
0.0
 10
6.142924599304258
 20
16.80744374941983
 30
0.0
 10
5.918097506740386
 20
16.31495764264402
 30
0.0
 10
5.918097506740386
 20
16.31495764264402
 30
0.0
 10
5.918097506740386
 20
16.31495764264402
 30
0.0
 10
6.198383941951276
 20
15.82445638102497
 30
0.0
 10
6.198383941951276
 20
15.82445638102497
 30
0.0
 10
6.198383941951276
 20
15.82445638102497
 30
0.0
 10
6.688885203570397
 20
15.5675271487483
 30
0.0
 10
6.688885203570397
 20
15.5675271487483
 30
0.0
 10
6.688885203570397
 20
15.5675271487483
 30
0.0
 10
6.593813776348273
 20
15.71970399730549
 30
0.0
 10
6.593813776348273
 20
15.71970399730549
 30
0.0
  0
HATCH
  5
1A9
330
1A4
100
AcDbEntity
  8
_Calque_
 62
    52
420
 14334976
100
AcDbHatch
 10
0.0
 20
0.0
 30
0.0
210
0.0
220
0.0
230
1.0
  2
SOLID
 70
     1
 71
     0
 91
        1
 92
        1
 93
        1
 72
     4
 94
        3
 73
     0
 74
     1
 95
       26
 96
       22
 40
0.0
 40
0.0
 40
0.0
 40
0.0
 40
1.0
 40
1.0
 40
1.0
 40
2.0
 40
2.0
 40
2.0
 40
3.0
 40
3.0
 40
3.0
 40
4.0
 40
4.0
 40
4.0
 40
5.0
 40
5.0
 40
5.0
 40
6.0
 40
6.0
 40
6.0
 40
7.0
 40
7.0
 40
7.0
 40
7.0
 10
6.593813776348273
 20
15.71970399730549
 10
6.469366595970643
 20
15.79160681081822
 10
6.384344648832555
 20
15.92991882371363
 10
6.36263179298489
 20
16.09543730658684
 10
6.341068423236009
 20
16.2611052755588
 10
6.383074016992959
 20
16.45218588132332
 10
6.476840901098575
 20
16.61456515612217
 10
6.476840901098575
 20
16.61456515612217
 10
6.142924599304258
 20
16.80744374941983
 10
6.142924599304258
 20
16.80744374941983
 10
6.142924599304258
 20
16.80744374941983
 10
5.918097506740386
 20
16.31495764264402
 10
5.918097506740386
 20
16.31495764264402
 10
5.918097506740386
 20
16.31495764264402
 10
6.198383941951276
 20
15.82445638102497
 10
6.198383941951276
 20
15.82445638102497
 10
6.198383941951276
 20
15.82445638102497
 10
6.688885203570397
 20
15.5675271487483
 10
6.688885203570397
 20
15.5675271487483
 10
6.688885203570397
 20
15.5675271487483
 10
6.593813776348273
 20
15.71970399730549
 10
6.593813776348273
 20
15.71970399730549
 97
        0
 97
        0
 75
     2
 76
     1
 98
        0
  0
SPLINE
  5
1AA
330
1A4
100
AcDbEntity
  8
_Calque_
370
     0
100
AcDbSpline
210
0.0
220
0.0
230
1.0
 70
    11
 71
     3
 72
    38
 73
    34
 74
     0
 42
0.0000000001
 43
0.0000000001
 12
1.0
 22
0.0
 32
0.0
 13
1.0
 23
0.0
 33
0.0
 40
0.0
 40
0.0
 40
0.0
 40
0.0
 40
1.0
 40
1.0
 40
1.0
 40
2.0
 40
2.0
 40
2.0
 40
3.0
 40
3.0
 40
3.0
 40
4.0
 40
4.0
 40
4.0
 40
5.0
 40
5.0
 40
5.0
 40
6.0
 40
6.0
 40
6.0
 40
7.0
 40
7.0
 40
7.0
 40
8.0
 40
8.0
 40
8.0
 40
9.0
 40
9.0
 40
9.0
 40
10.0
 40
10.0
 40
10.0
 40
11.0
 40
11.0
 40
11.0
 40
11.0
 10
7.069179582474703
 20
17.09867588701839
 30
0.0
 10
6.948729414773218
 20
17.15727443773986
 30
0.0
 10
6.797636340432233
 20
17.15727443773986
 30
0.0
 10
6.653681227307905
 20
17.09759211280224
 30
0.0
 10
6.499299458793714
 20
17.03335046185192
 30
0.0
 10
6.354970630422491
 20
16.90161999402989
 30
0.0
 10
6.261168103438559
 20
16.73919919097924
 30
0.0
 10
6.167365576454594
 20
16.57663305855698
 30
0.0
 10
6.125397354222403
 20
16.38573931041597
 30
0.0
 10
6.146923352446588
 20
16.220071341444
 30
0.0
 10
6.168636208294254
 20
16.05436600094728
 30
0.0
 10
6.253843284598358
 20
15.91605398805187
 30
0.0
 10
6.378140975733231
 20
15.84415117453915
 30
0.0
 10
6.378140975733231
 20
15.84415117453915
 30
0.0
 10
6.593813776348273
 20
15.71970399730549
 30
0.0
 10
6.593813776348273
 20
15.71970399730549
 30
0.0
 10
6.71826095672558
 20
15.64780530884563
 30
0.0
 10
6.880489010680529
 20
15.64324185777994
 30
0.0
 10
7.034870779194719
 20
15.70748350873026
 30
0.0
 10
7.189252547708878
 20
15.77153830205711
 30
0.0
 10
7.333581376080165
 20
15.90327292660627
 30
0.0
 10
7.427383903064065
 20
16.06568957292978
 30
0.0
 10
7.521186430047934
 20
16.22825570535215
 30
0.0
 10
7.563154652280221
 20
16.41915359803201
 30
0.0
 10
7.541441796432556
 20
16.58481742246511
 30
0.0
 10
7.519880181679532
 20
16.75052276296177
 30
0.0
 10
7.434858208003017
 20
16.88883477585715
 30
0.0
 10
7.310411030769361
 20
16.96073758936997
 30
0.0
 10
7.310411030769361
 20
16.96073758936997
 30
0.0
 10
7.094702590231091
 20
17.08518476660363
 30
0.0
 10
7.094702590231091
 20
17.08518476660363
 30
0.0
 10
7.086331368699439
 20
17.08993095023978
 30
0.0
 10
7.077922775643122
 20
17.09449027625258
 30
0.0
 10
7.069179582474703
 20
17.09867588701839
 30
0.0
  0
HATCH
  5
1AB
330
1A4
100
AcDbEntity
  8
_Calque_
 62
    40
420
 16768256
100
AcDbHatch
 10
0.0
 20
0.0
 30
0.0
210
0.0
220
0.0
230
1.0
  2
SOLID
 70
     1
 71
     0
 91
        1
 92
        1
 93
        1
 72
     4
 94
        3
 73
     0
 74
     1
 95
       38
 96
       34
 40
0.0
 40
0.0
 40
0.0
 40
0.0
 40
1.0
 40
1.0
 40
1.0
 40
2.0
 40
2.0
 40
2.0
 40
3.0
 40
3.0
 40
3.0
 40
4.0
 40
4.0
 40
4.0
 40
5.0
 40
5.0
 40
5.0
 40
6.0
 40
6.0
 40
6.0
 40
7.0
 40
7.0
 40
7.0
 40
8.0
 40
8.0
 40
8.0
 40
9.0
 40
9.0
 40
9.0
 40
10.0
 40
10.0
 40
10.0
 40
11.0
 40
11.0
 40
11.0
 40
11.0
 10
7.069179582474703
 20
17.09867588701839
 10
6.948729414773218
 20
17.15727443773986
 10
6.797636340432233
 20
17.15727443773986
 10
6.653681227307905
 20
17.09759211280224
 10
6.499299458793714
 20
17.03335046185192
 10
6.354970630422491
 20
16.90161999402989
 10
6.261168103438559
 20
16.73919919097924
 10
6.167365576454594
 20
16.57663305855698
 10
6.125397354222403
 20
16.38573931041597
 10
6.146923352446588
 20
16.220071341444
 10
6.168636208294254
 20
16.05436600094728
 10
6.253843284598358
 20
15.91605398805187
 10
6.378140975733231
 20
15.84415117453915
 10
6.378140975733231
 20
15.84415117453915
 10
6.593813776348273
 20
15.71970399730549
 10
6.593813776348273
 20
15.71970399730549
 10
6.71826095672558
 20
15.64780530884563
 10
6.880489010680529
 20
15.64324185777994
 10
7.034870779194719
 20
15.70748350873026
 10
7.189252547708878
 20
15.77153830205711
 10
7.333581376080165
 20
15.90327292660627
 10
7.427383903064065
 20
16.06568957292978
 10
7.521186430047934
 20
16.22825570535215
 10
7.563154652280221
 20
16.41915359803201
 10
7.541441796432556
 20
16.58481742246511
 10
7.519880181679532
 20
16.75052276296177
 10
7.434858208003017
 20
16.88883477585715
 10
7.310411030769361
 20
16.96073758936997
 10
7.310411030769361
 20
16.96073758936997
 10
7.094702590231091
 20
17.08518476660363
 10
7.094702590231091
 20
17.08518476660363
 10
7.086331368699439
 20
17.08993095023978
 10
7.077922775643122
 20
17.09449027625258
 10
7.069179582474703
 20
17.09867588701839
 97
        0
 97
        0
 75
     2
 76
     1
 98
        0
  0
ENDBLK
  5
1A7
330
1A4
100
AcDbEntity
  8
0
100
AcDbBlockEnd
  0
BLOCK
  5
1B0
330
1AE
100
AcDbEntity
  8
0
100
AcDbBlockBegin
  2
block 44
 70
     0
 10
0.0
 20
0.0
 30
0.0
  3
block 44
  1

  0
SPLINE
  5
1B2
330
1AE
100
AcDbEntity
  8
_Calque_
 62
     7
420
 16777215
370
     9
100
AcDbSpline
210
0.0
220
0.0
230
1.0
 70
     8
 71
     3
 72
    17
 73
    13
 74
     0
 42
0.0000000001
 43
0.0000000001
 12
1.0
 22
0.0
 32
0.0
 13
1.0
 23
0.0
 33
0.0
 40
0.0
 40
0.0
 40
0.0
 40
0.0
 40
1.0
 40
1.0
 40
1.0
 40
2.0
 40
2.0
 40
2.0
 40
3.0
 40
3.0
 40
3.0
 40
4.0
 40
4.0
 40
4.0
 40
4.0
 10
7.880476268463701
 20
18.35065933581844
 30
0.0
 10
7.515132243047394
 20
18.56162159272053
 30
0.0
 10
7.038534931450673
 20
18.57492585551188
 30
0.0
 10
6.585592040707749
 20
18.38679760019833
 30
0.0
 10
6.132348457815612
 20
18.19866934488476
 30
0.0
 10
5.708256395579178
 20
17.81146297752207
 30
0.0
 10
5.432716144004536
 20
17.33445283631783
 30
0.0
 10
5.215925626043136
 20
16.95853266941298
 30
0.0
 10
5.093307956726465
 20
16.53062871165763
 30
0.0
 10
5.082171242367413
 20
16.12810001917008
 30
0.0
 10
5.082171242367413
 20
16.12810001917008
 30
0.0
 10
5.082171242367413
 20
13.55880769640347
 30
0.0
 10
5.082171242367413
 20
13.55880769640347
 30
0.0
  0
INSERT
  5
1B4
330
1AE
100
AcDbEntity
  8
_Calque_
100
AcDbBlockReference
  2
block 45
 10
0.0
 20
0.0
 30
0.0
  0
POLYLINE
  5
1B9
330
1AE
100
AcDbEntity
  8
_Calque_
 62
     7
420
 16777215
370
     9
100
AcDb2dPolyline
 66
     1
 10
0.0
 20
0.0
 30
0.0
  0
VERTEX
  5
1BA
330
1B9
100
AcDbEntity
  8
_Calque_
 62
     7
420
 16777215
370
     9
100
AcDbVertex
100
AcDb2dVertex
 10
9.398320743942449
 20
15.8711707868934
 30
0.0
  0
VERTEX
  5
1BB
330
1B9
100
AcDbEntity
  8
_Calque_
 62
     7
420
 16777215
370
     9
100
AcDbVertex
100
AcDb2dVertex
 10
9.398320743942449
 20
11.85373188220385
 30
0.0
  0
SEQEND
  5
1BC
330
1B9
100
AcDbEntity
  8
_Calque_
 62
     7
420
 16777215
370
     9
  0
SPLINE
  5
1BD
330
1AE
100
AcDbEntity
  8
_Calque_
 62
     7
420
 16777215
370
    20
100
AcDbSpline
210
0.0
220
0.0
230
1.0
 70
     8
 71
     3
 72
    38
 73
    34
 74
     0
 42
0.0000000001
 43
0.0000000001
 12
1.0
 22
0.0
 32
0.0
 13
1.0
 23
0.0
 33
0.0
 40
0.0
 40
0.0
 40
0.0
 40
0.0
 40
1.0
 40
1.0
 40
1.0
 40
2.0
 40
2.0
 40
2.0
 40
3.0
 40
3.0
 40
3.0
 40
4.0
 40
4.0
 40
4.0
 40
5.0
 40
5.0
 40
5.0
 40
6.0
 40
6.0
 40
6.0
 40
7.0
 40
7.0
 40
7.0
 40
8.0
 40
8.0
 40
8.0
 40
9.0
 40
9.0
 40
9.0
 40
10.0
 40
10.0
 40
10.0
 40
11.0
 40
11.0
 40
11.0
 40
11.0
 10
9.37496354100823
 20
11.87708908513807
 30
0.0
 10
9.37496354100823
 20
11.87708908513807
 30
0.0
 10
5.077798773978124
 20
13.53033466614713
 30
0.0
 10
5.077798773978124
 20
13.53033466614713
 30
0.0
 10
5.077798773978124
 20
13.53033466614713
 30
0.0
 10
4.259736098409236
 20
14.00259455215409
 30
0.0
 10
4.259736098409236
 20
14.00259455215409
 30
0.0
 10
4.259736098409236
 20
14.00259455215409
 30
0.0
 10
4.259736098409236
 20
16.64195848372345
 30
0.0
 10
4.259736098409236
 20
16.64195848372345
 30
0.0
 10
4.27360093407099
 20
17.0399278501982
 30
0.0
 10
4.39588056287235
 20
17.43845778954342
 30
0.0
 10
4.61009414242288
 20
17.80944491518855
 30
0.0
 10
4.885447536374074
 20
18.28645505639284
 30
0.0
 10
5.309539598610509
 20
18.6736614237555
 30
0.0
 10
5.762631964010112
 20
18.86178967906902
 30
0.0
 10
6.215911187033162
 20
19.04991793438259
 30
0.0
 10
6.692360755367018
 20
19.03661367159124
 30
0.0
 10
7.057854266882012
 20
18.82565141468919
 30
0.0
 10
7.057854266882012
 20
18.82565141468919
 30
0.0
 10
7.880476268463701
 20
18.35065933581844
 30
0.0
 10
7.880476268463701
 20
18.35065933581844
 30
0.0
 10
8.245969779978664
 20
18.13973863844536
 30
0.0
 10
8.49579842256331
 20
17.73354334853346
 30
0.0
 10
8.559479500643228
 20
17.24722769768018
 30
0.0
 10
8.570242499755322
 20
17.16418816980838
 30
0.0
 10
8.57569874236079
 20
17.07898109350424
 30
0.0
 10
8.57569874236079
 20
16.99231652773703
 30
0.0
 10
8.57569874236079
 20
16.99231652773703
 30
0.0
 10
8.57569874236079
 20
16.36167204851256
 30
0.0
 10
8.57569874236079
 20
16.36167204851256
 30
0.0
 10
8.57569874236079
 20
16.36167204851256
 30
0.0
 10
9.398320743942449
 20
15.8711707868934
 30
0.0
 10
9.398320743942449
 20
15.8711707868934
 30
0.0
  0
SPLINE
  5
1BE
330
1AE
100
AcDbEntity
  8
_Calque_
 62
     7
420
 16777215
370
     9
100
AcDbSpline
210
0.0
220
0.0
230
1.0
 70
     8
 71
     3
 72
    17
 73
    13
 74
     0
 42
0.0000000001
 43
0.0000000001
 12
1.0
 22
0.0
 32
0.0
 13
1.0
 23
0.0
 33
0.0
 40
0.0
 40
0.0
 40
0.0
 40
0.0
 40
1.0
 40
1.0
 40
1.0
 40
2.0
 40
2.0
 40
2.0
 40
3.0
 40
3.0
 40
3.0
 40
4.0
 40
4.0
 40
4.0
 40
4.0
 10
7.310411030769361
 20
16.96073758936997
 30
0.0
 10
7.185963853535704
 20
17.03245354525925
 30
0.0
 10
7.02354720721222
 20
17.03701287127205
 30
0.0
 10
6.869165438698031
 20
16.97295807794514
 30
0.0
 10
6.71497052780732
 20
16.90890328461826
 30
0.0
 10
6.570643430452207
 20
16.77698180244565
 30
0.0
 10
6.476840901098575
 20
16.61456515612217
 30
0.0
 10
6.383074016992959
 20
16.45218588132332
 30
0.0
 10
6.341068423236009
 20
16.2611052755588
 30
0.0
 10
6.36263179298489
 20
16.09543730658684
 30
0.0
 10
6.384344648832555
 20
15.92991882371363
 30
0.0
 10
6.469366595970643
 20
15.79160681081822
 30
0.0
 10
6.593813776348273
 20
15.71970399730549
 30
0.0
  0
SPLINE
  5
1BF
330
1AE
100
AcDbEntity
  8
_Calque_
 62
     7
420
 16777215
370
    20
100
AcDbSpline
210
0.0
220
0.0
230
1.0
 70
     8
 71
     3
 72
    26
 73
    22
 74
     0
 42
0.0000000001
 43
0.0000000001
 12
1.0
 22
0.0
 32
0.0
 13
1.0
 23
0.0
 33
0.0
 40
0.0
 40
0.0
 40
0.0
 40
0.0
 40
1.0
 40
1.0
 40
1.0
 40
2.0
 40
2.0
 40
2.0
 40
3.0
 40
3.0
 40
3.0
 40
4.0
 40
4.0
 40
4.0
 40
5.0
 40
5.0
 40
5.0
 40
6.0
 40
6.0
 40
6.0
 40
7.0
 40
7.0
 40
7.0
 40
7.0
 10
6.378140975733231
 20
15.84415117453915
 30
0.0
 10
6.378140975733231
 20
15.84415117453915
 30
0.0
 10
6.593813776348273
 20
15.71970399730549
 30
0.0
 10
6.593813776348273
 20
15.71970399730549
 30
0.0
 10
6.71826095672558
 20
15.64780530884563
 30
0.0
 10
6.880489010680529
 20
15.64324185777994
 30
0.0
 10
7.034870779194719
 20
15.70748350873026
 30
0.0
 10
7.189252547708878
 20
15.77153830205711
 30
0.0
 10
7.333581376080165
 20
15.90327292660627
 30
0.0
 10
7.427383903064065
 20
16.06568957292978
 30
0.0
 10
7.521186430047934
 20
16.22825570535215
 30
0.0
 10
7.563154652280221
 20
16.41915359803201
 30
0.0
 10
7.541441796432556
 20
16.58481742246511
 30
0.0
 10
7.519880181679532
 20
16.75052276296177
 30
0.0
 10
7.434858208003017
 20
16.88883477585715
 30
0.0
 10
7.310411030769361
 20
16.96073758936997
 30
0.0
 10
7.310411030769361
 20
16.96073758936997
 30
0.0
 10
7.094702590231091
 20
17.08518476660363
 30
0.0
 10
7.094702590231091
 20
17.08518476660363
 30
0.0
 10
7.086331368699439
 20
17.08993095023978
 30
0.0
 10
7.077922775643122
 20
17.09449027625258
 30
0.0
 10
7.069179582474703
 20
17.09867588701839
 30
0.0
  0
SPLINE
  5
1C0
330
1AE
100
AcDbEntity
  8
_Calque_
 62
     7
420
 16777215
370
     9
100
AcDbSpline
210
0.0
220
0.0
230
1.0
 70
     8
 71
     3
 72
    17
 73
    13
 74
     0
 42
0.0000000001
 43
0.0000000001
 12
1.0
 22
0.0
 32
0.0
 13
1.0
 23
0.0
 33
0.0
 40
0.0
 40
0.0
 40
0.0
 40
0.0
 40
1.0
 40
1.0
 40
1.0
 40
2.0
 40
2.0
 40
2.0
 40
3.0
 40
3.0
 40
3.0
 40
4.0
 40
4.0
 40
4.0
 40
4.0
 10
7.069179582474703
 20
17.09867588701839
 30
0.0
 10
6.948729414773218
 20
17.15727443773986
 30
0.0
 10
6.797636340432233
 20
17.15727443773986
 30
0.0
 10
6.653681227307905
 20
17.09759211280224
 30
0.0
 10
6.499299458793714
 20
17.03335046185192
 30
0.0
 10
6.354970630422491
 20
16.90161999402989
 30
0.0
 10
6.261168103438559
 20
16.73919919097924
 30
0.0
 10
6.167365576454594
 20
16.57663305855698
 30
0.0
 10
6.125397354222403
 20
16.38573931041597
 30
0.0
 10
6.146923352446588
 20
16.220071341444
 30
0.0
 10
6.168636208294254
 20
16.05436600094728
 30
0.0
 10
6.253843284598358
 20
15.91605398805187
 30
0.0
 10
6.378140975733231
 20
15.84415117453915
 30
0.0
  0
POLYLINE
  5
1C1
330
1AE
100
AcDbEntity
  8
_Calque_
 62
     7
420
 16777215
370
     9
100
AcDb2dPolyline
 66
     1
 10
0.0
 20
0.0
 30
0.0
  0
VERTEX
  5
1C2
330
1C1
100
AcDbEntity
  8
_Calque_
 62
     7
420
 16777215
370
     9
100
AcDbVertex
100
AcDb2dVertex
 10
7.085957653452512
 20
16.85217331013158
 30
0.0
  0
VERTEX
  5
1C3
330
1C1
100
AcDbEntity
  8
_Calque_
 62
     7
420
 16777215
370
     9
100
AcDbVertex
100
AcDb2dVertex
 10
6.844724461547631
 20
16.7875579439343
 30
0.0
  0
VERTEX
  5
1C4
330
1C1
100
AcDbEntity
  8
_Calque_
 62
     7
420
 16777215
370
     9
100
AcDbVertex
100
AcDb2dVertex
 10
6.852385624110061
 20
16.43174365731525
 30
0.0
  0
VERTEX
  5
1C5
330
1C1
100
AcDbEntity
  8
_Calque_
 62
     7
420
 16777215
370
     9
100
AcDbVertex
100
AcDb2dVertex
 10
6.561523047410526
 20
16.35382402832662
 30
0.0
  0
VERTEX
  5
1C6
330
1C1
100
AcDbEntity
  8
_Calque_
 62
     7
420
 16777215
370
     9
100
AcDbVertex
100
AcDb2dVertex
 10
6.57209918889914
 20
16.08138561330164
 30
0.0
  0
SEQEND
  5
1C7
330
1C1
100
AcDbEntity
  8
_Calque_
 62
     7
420
 16777215
370
     9
  0
POLYLINE
  5
1C8
330
1AE
100
AcDbEntity
  8
_Calque_
 62
     7
420
 16777215
370
     9
100
AcDb2dPolyline
 66
     1
 10
0.0
 20
0.0
 30
0.0
  0
VERTEX
  5
1C9
330
1C8
100
AcDbEntity
  8
_Calque_
 62
     7
420
 16777215
370
     9
100
AcDbVertex
100
AcDb2dVertex
 10
6.844724461547631
 20
16.13355626177555
 30
0.0
  0
VERTEX
  5
1CA
330
1C8
100
AcDbEntity
  8
_Calque_
 62
     7
420
 16777215
370
     9
100
AcDbVertex
100
AcDb2dVertex
 10
6.852385624110061
 20
15.8711707868934
 30
0.0
  0
SEQEND
  5
1CB
330
1C8
100
AcDbEntity
  8
_Calque_
 62
     7
420
 16777215
370
     9
  0
POLYLINE
  5
1CC
330
1AE
100
AcDbEntity
  8
_Calque_
 62
     7
420
 16777215
370
     9
100
AcDb2dPolyline
 66
     1
 10
0.0
 20
0.0
 30
0.0
  0
VERTEX
  5
1CD
330
1CC
100
AcDbEntity
  8
_Calque_
 62
     7
420
 16777215
370
     9
100
AcDbVertex
100
AcDb2dVertex
 10
7.305291131886186
 20
16.57809054802002
 30
0.0
  0
VERTEX
  5
1CE
330
1CC
100
AcDbEntity
  8
_Calque_
 62
     7
420
 16777215
370
     9
100
AcDbVertex
100
AcDb2dVertex
 10
7.108045969139224
 20
16.50017091903138
 30
0.0
  0
SEQEND
  5
1CF
330
1CC
100
AcDbEntity
  8
_Calque_
 62
     7
420
 16777215
370
     9
  0
SPLINE
  5
1D0
330
1AE
100
AcDbEntity
  8
_Calque_
 62
     7
420
 16777215
370
     9
100
AcDbSpline
210
0.0
220
0.0
230
1.0
 70
     8
 71
     3
 72
    17
 73
    13
 74
     0
 42
0.0000000001
 43
0.0000000001
 12
1.0
 22
0.0
 32
0.0
 13
1.0
 23
0.0
 33
0.0
 40
0.0
 40
0.0
 40
0.0
 40
0.0
 40
1.0
 40
1.0
 40
1.0
 40
2.0
 40
2.0
 40
2.0
 40
3.0
 40
3.0
 40
3.0
 40
4.0
 40
4.0
 40
4.0
 40
4.0
 10
13.43967742443663
 20
26.19924009459411
 30
0.0
 10
13.02178903529962
 20
26.44047328649893
 30
0.0
 10
12.47691220524953
 20
26.45560875400034
 30
0.0
 10
11.95886999706456
 20
26.24064774395593
 30
0.0
 10
11.44063719698788
 20
26.02553724781276
 30
0.0
 10
10.95559217797416
 20
25.58265168468297
 30
0.0
 10
10.64062496784659
 20
25.03720990573438
 30
0.0
 10
10.32569512924358
 20
24.49180987433871
 30
0.0
 10
10.18480448114425
 20
23.85036502447739
 30
0.0
 10
10.25760421124967
 20
23.29401945455861
 30
0.0
 10
10.33044131287976
 20
22.73781473431356
 30
0.0
 10
10.61599713307271
 20
22.27358565455487
 30
0.0
 10
11.03388552220972
 20
22.03235674899026
 30
0.0
  0
SPLINE
  5
1D1
330
1AE
100
AcDbEntity
  8
_Calque_
 62
     7
420
 16777215
370
     9
100
AcDbSpline
210
0.0
220
0.0
230
1.0
 70
     8
 71
     3
 72
    17
 73
    13
 74
     0
 42
0.0000000001
 43
0.0000000001
 12
1.0
 22
0.0
 32
0.0
 13
1.0
 23
0.0
 33
0.0
 40
0.0
 40
0.0
 40
0.0
 40
0.0
 40
1.0
 40
1.0
 40
1.0
 40
2.0
 40
2.0
 40
2.0
 40
3.0
 40
3.0
 40
3.0
 40
4.0
 40
4.0
 40
4.0
 40
4.0
 10
13.13035331453788
 20
27.1599872514477
 30
0.0
 10
12.59698691409393
 20
27.46800335798216
 30
0.0
 10
11.90157758257339
 20
27.48736180777405
 30
0.0
 10
11.2402510815744
 20
27.21271847279205
 30
0.0
 10
10.57877509447664
 20
26.93826199543352
 30
0.0
 10
9.959641044858081
 20
26.37312979899897
 30
0.0
 10
9.55782241133975
 20
25.67678617936097
 30
0.0
 10
9.15581692019797
 20
24.98066678887118
 30
0.0
 10
8.975874820569812
 20
24.16204354043189
 30
0.0
 10
9.068778639183831
 20
23.45183508513217
 30
0.0
 10
9.116765472228552
 20
23.08525779940096
 30
0.0
 10
9.237212100983225
 20
22.75003522288873
 30
0.0
 10
9.41584798902427
 20
22.46903872870865
 30
0.0
  0
SPLINE
  5
1D2
330
1AE
100
AcDbEntity
  8
_Calque_
 62
     7
420
 16777215
370
    20
100
AcDbSpline
210
0.0
220
0.0
230
1.0
 70
     8
 71
     3
 72
    26
 73
    22
 74
     0
 42
0.0000000001
 43
0.0000000001
 12
1.0
 22
0.0
 32
0.0
 13
1.0
 23
0.0
 33
0.0
 40
0.0
 40
0.0
 40
0.0
 40
0.0
 40
1.0
 40
1.0
 40
1.0
 40
2.0
 40
2.0
 40
2.0
 40
3.0
 40
3.0
 40
3.0
 40
4.0
 40
4.0
 40
4.0
 40
5.0
 40
5.0
 40
5.0
 40
6.0
 40
6.0
 40
6.0
 40
7.0
 40
7.0
 40
7.0
 40
7.0
 10
14.13983293959348
 20
25.35273768873249
 30
0.0
 10
14.13583418645115
 20
25.41914688811515
 30
0.0
 10
14.12963051335183
 20
25.4846591709051
 30
0.0
 10
14.12103506267203
 20
25.5494240232012
 30
0.0
 10
14.02816682380546
 20
26.25945001400319
 30
0.0
 10
13.66357022888317
 20
26.85216241063539
 30
0.0
 10
13.13035331453788
 20
27.1599872514477
 30
0.0
 10
13.13035331453788
 20
27.1599872514477
 30
0.0
 10
11.69573522455445
 20
27.9882567900571
 30
0.0
 10
11.69573522455445
 20
27.9882567900571
 30
0.0
 10
11.16214459496226
 20
28.2962684597927
 30
0.0
 10
10.46692212106511
 20
28.31563135465367
 30
0.0
 10
9.805446133967402
 20
28.04117043222607
 30
0.0
 10
9.144119632968449
 20
27.76652709724407
 30
0.0
 10
8.524985583349926
 20
27.20139490080951
 30
0.0
 10
8.123166949831562
 20
26.505238138795
 30
0.0
 10
7.721161458689815
 20
25.80893189068176
 30
0.0
 10
7.541254938809044
 20
24.99031300330688
 30
0.0
 10
7.634123177675677
 20
24.28028704456622
 30
0.0
 10
7.693244929742731
 20
23.8292127415001
 30
0.0
 10
7.861865249165634
 20
23.42537604564822
 30
0.0
 10
8.11367458255913
 20
23.11209055413186
 30
0.0
  0
SPLINE
  5
1D3
330
1AE
100
AcDbEntity
  8
_Calque_
 62
     7
420
 16777215
370
     9
100
AcDbSpline
210
0.0
220
0.0
230
1.0
 70
     8
 71
     3
 72
    17
 73
    13
 74
     0
 42
0.0000000001
 43
0.0000000001
 12
1.0
 22
0.0
 32
0.0
 13
1.0
 23
0.0
 33
0.0
 40
0.0
 40
0.0
 40
0.0
 40
0.0
 40
1.0
 40
1.0
 40
1.0
 40
2.0
 40
2.0
 40
2.0
 40
3.0
 40
3.0
 40
3.0
 40
4.0
 40
4.0
 40
4.0
 40
4.0
 10
10.86616211937955
 20
22.12925682618365
 30
0.0
 10
10.44831293074123
 20
22.37049001808847
 30
0.0
 10
10.16253105242614
 20
22.8347234044568
 30
0.0
 10
10.08991999986453
 20
23.39091949987968
 30
0.0
 10
10.06416919942941
 20
23.58708263300261
 30
0.0
 10
10.06510348754684
 20
23.79382190761413
 30
0.0
 10
10.09081509653683
 20
24.00310244590493
 30
0.0
 10
10.09081509653683
 20
24.00310244590493
 30
0.0
 10
9.888822005561504
 20
22.08418676740177
 30
0.0
 10
9.888822005561504
 20
22.08418676740177
 30
0.0
 10
9.888822005561504
 20
22.08418676740177
 30
0.0
 10
5.754597086200723
 20
18.83753555954213
 30
0.0
 10
5.754597086200723
 20
18.83753555954213
 30
0.0
  0
SPLINE
  5
1D4
330
1AE
100
AcDbEntity
  8
_Calque_
 62
     7
420
 16777215
370
    20
100
AcDbSpline
210
0.0
220
0.0
230
1.0
 70
     8
 71
     3
 72
    35
 73
    31
 74
     0
 42
0.0000000001
 43
0.0000000001
 12
1.0
 22
0.0
 32
0.0
 13
1.0
 23
0.0
 33
0.0
 40
0.0
 40
0.0
 40
0.0
 40
0.0
 40
1.0
 40
1.0
 40
1.0
 40
2.0
 40
2.0
 40
2.0
 40
3.0
 40
3.0
 40
3.0
 40
4.0
 40
4.0
 40
4.0
 40
5.0
 40
5.0
 40
5.0
 40
6.0
 40
6.0
 40
6.0
 40
7.0
 40
7.0
 40
7.0
 40
8.0
 40
8.0
 40
8.0
 40
9.0
 40
9.0
 40
9.0
 40
10.0
 40
10.0
 40
10.0
 40
10.0
 10
11.03388552220972
 20
22.03235674899026
 30
0.0
 10
11.45158705372345
 20
21.79111927074521
 30
0.0
 10
11.99661523795961
 20
21.77579694562041
 30
0.0
 10
12.51469481671597
 20
21.99094481328824
 30
0.0
 10
13.03292764392561
 20
22.20605530943141
 30
0.0
 10
13.51793339714756
 20
22.64875839096588
 30
0.0
 10
13.83290060727526
 20
23.19438265150979
 30
0.0
 10
14.14768095977936
 20
23.73978268290552
 30
0.0
 10
14.28872109397757
 20
24.38104067514336
 30
0.0
 10
14.21573643039584
 20
24.93739056327464
 30
0.0
 10
14.14312163376659
 20
25.49359096530713
 30
0.0
 10
13.85737895595036
 20
25.95800690268926
 30
0.0
 10
13.43967742443663
 20
26.19924009459411
 30
0.0
 10
13.43967742443663
 20
26.19924009459411
 30
0.0
 10
12.88037518585445
 20
26.52205532490769
 30
0.0
 10
12.88037518585445
 20
26.52205532490769
 30
0.0
 10
12.46248679671737
 20
26.76328851681254
 30
0.0
 10
11.91760996666741
 20
26.77861084193737
 30
0.0
 10
11.39937903372478
 20
26.56346297426948
 30
0.0
 10
10.88133495840563
 20
26.34831510660161
 30
0.0
 10
10.39647679701543
 20
25.90564939659187
 30
0.0
 10
10.08150958688782
 20
25.36021199367145
 30
0.0
 10
9.923876495725246
 20
25.0873998633995
 30
0.0
 10
9.810007272829464
 20
24.79070732884757
 30
0.0
 10
9.74449317719025
 20
24.49252428179733
 30
0.0
 10
9.74449317719025
 20
24.49252428179733
 30
0.0
 10
9.445035149810886
 20
22.34111599967841
 30
0.0
 10
9.445035149810886
 20
22.34111599967841
 30
0.0
 10
9.445035149810886
 20
22.34111599967841
 30
0.0
 10
7.716602132677046
 20
23.339085195128
 30
0.0
 10
7.716602132677046
 20
23.339085195128
 30
0.0
  0
SPLINE
  5
1D5
330
1AE
100
AcDbEntity
  8
_Calque_
 62
     7
420
 16777215
370
    20
100
AcDbSpline
210
0.0
220
0.0
230
1.0
 70
     8
 71
     3
 72
    17
 73
    13
 74
     0
 42
0.0000000001
 43
0.0000000001
 12
1.0
 22
0.0
 32
0.0
 13
1.0
 23
0.0
 33
0.0
 40
0.0
 40
0.0
 40
0.0
 40
0.0
 40
1.0
 40
1.0
 40
1.0
 40
2.0
 40
2.0
 40
2.0
 40
3.0
 40
3.0
 40
3.0
 40
4.0
 40
4.0
 40
4.0
 40
4.0
 10
10.00415053076962
 20
28.10339402084285
 30
0.0
 10
9.668742905914591
 20
28.17638060857182
 30
0.0
 10
9.293568360222975
 20
28.13844851100662
 30
0.0
 10
8.931737258128049
 20
27.9882567900571
 30
0.0
 10
8.413655811284203
 20
27.77310448559034
 30
0.0
 10
7.928648163795279
 20
27.33025191795716
 30
0.0
 10
7.613682711033164
 20
26.78481451503673
 30
0.0
 10
7.298713743539936
 20
26.2393771121163
 30
0.0
 10
7.157860466965237
 20
25.59797401019497
 30
0.0
 10
7.230473339447247
 20
25.04176923174715
 30
0.0
 10
7.25166299394917
 20
24.88047373116445
 30
0.0
 10
7.290716237255177
 20
24.72698887924296
 30
0.0
 10
7.345615007031886
 20
24.58430439795826
 30
0.0
  0
POLYLINE
  5
1D6
330
1AE
100
AcDbEntity
  8
_Calque_
 62
     7
420
 16777215
370
    20
100
AcDb2dPolyline
 66
     1
 10
0.0
 20
0.0
 30
0.0
  0
VERTEX
  5
1D7
330
1D6
100
AcDbEntity
  8
_Calque_
 62
     7
420
 16777215
370
    20
100
AcDbVertex
100
AcDb2dVertex
 10
13.69604608384286
 20
23.01847488477144
 30
0.0
  0
VERTEX
  5
1D8
330
1D6
100
AcDbEntity
  8
_Calque_
 62
     7
420
 16777215
370
    20
100
AcDbVertex
100
AcDb2dVertex
 10
13.36904524276354
 20
21.71047152045387
 30
0.0
  0
VERTEX
  5
1D9
330
1D6
100
AcDbEntity
  8
_Calque_
 62
     7
420
 16777215
370
    20
100
AcDbVertex
100
AcDb2dVertex
 10
12.62161474886781
 20
20.96304102655815
 30
0.0
  0
VERTEX
  5
1DA
330
1D6
100
AcDbEntity
  8
_Calque_
 62
     7
420
 16777215
370
    20
100
AcDbVertex
100
AcDb2dVertex
 10
11.25523706297694
 20
20.89296941775542
 30
0.0
  0
VERTEX
  5
1DB
330
1D6
100
AcDbEntity
  8
_Calque_
 62
     7
420
 16777215
370
    20
100
AcDbVertex
100
AcDb2dVertex
 10
7.973531364953653
 20
18.32367709498882
 30
0.0
  0
SEQEND
  5
1DC
330
1D6
100
AcDbEntity
  8
_Calque_
 62
     7
420
 16777215
370
    20
  0
SPLINE
  5
1DD
330
1AE
100
AcDbEntity
  8
_Calque_
 62
     7
420
 16777215
370
    20
100
AcDbSpline
210
0.0
220
0.0
230
1.0
 70
     8
 71
     3
 72
    23
 73
    19
 74
     0
 42
0.0000000001
 43
0.0000000001
 12
1.0
 22
0.0
 32
0.0
 13
1.0
 23
0.0
 33
0.0
 40
0.0
 40
0.0
 40
0.0
 40
0.0
 40
1.0
 40
1.0
 40
1.0
 40
2.0
 40
2.0
 40
2.0
 40
3.0
 40
3.0
 40
3.0
 40
4.0
 40
4.0
 40
4.0
 40
5.0
 40
5.0
 40
5.0
 40
6.0
 40
6.0
 40
6.0
 40
6.0
 10
7.476452714988345
 20
25.51257569985209
 30
0.0
 10
7.476452714988345
 20
25.51257569985209
 30
0.0
 10
7.274272766389503
 20
23.5936226498242
 30
0.0
 10
7.274272766389503
 20
23.5936226498242
 30
0.0
 10
7.274272766389503
 20
23.5936226498242
 30
0.0
 10
2.164352080297229
 20
19.53275803343928
 30
0.0
 10
2.164352080297229
 20
19.53275803343928
 30
0.0
 10
2.076192653542246
 20
19.42310997998474
 30
0.0
 10
1.995544903250878
 20
19.30613710769007
 30
0.0
 10
1.924763235478966
 20
19.18315163428281
 30
0.0
 10
1.640814390847976
 20
18.69171607213182
 30
0.0
 10
1.513825949935064
 20
18.11379861230288
 30
0.0
 10
1.579487718823833
 20
17.61253435157173
 30
0.0
 10
1.645186859237266
 20
17.11145694846403
 30
0.0
 10
1.902489806760863
 20
16.69304535798121
 30
0.0
 10
2.278746317387982
 20
16.47569257035629
 30
0.0
 10
2.278746317387982
 20
16.47569257035629
 30
0.0
 10
4.233837631795729
 20
15.34688566695027
 30
0.0
 10
4.233837631795729
 20
15.34688566695027
 30
0.0
  0
SPLINE
  5
1DE
330
1AE
100
AcDbEntity
  8
_Calque_
 62
     7
420
 16777215
370
    20
100
AcDbSpline
210
0.0
220
0.0
230
1.0
 70
     8
 71
     3
 72
    26
 73
    22
 74
     0
 42
0.0000000001
 43
0.0000000001
 12
1.0
 22
0.0
 32
0.0
 13
1.0
 23
0.0
 33
0.0
 40
0.0
 40
0.0
 40
0.0
 40
0.0
 40
1.0
 40
1.0
 40
1.0
 40
2.0
 40
2.0
 40
2.0
 40
3.0
 40
3.0
 40
3.0
 40
4.0
 40
4.0
 40
4.0
 40
5.0
 40
5.0
 40
5.0
 40
6.0
 40
6.0
 40
6.0
 40
7.0
 40
7.0
 40
7.0
 40
7.0
 10
4.241498794358192
 20
14.52994413712219
 30
0.0
 10
4.241498794358192
 20
14.52994413712219
 30
0.0
 10
1.558896008716981
 20
15.56203353461816
 30
0.0
 10
1.558896008716981
 20
15.56203353461816
 30
0.0
 10
1.558896008716981
 20
15.56203353461816
 30
0.0
 10
0.7408333331481249
 20
16.03429749218621
 30
0.0
 10
0.7408333331481249
 20
16.03429749218621
 30
0.0
 10
0.7408333331481249
 20
16.03429749218621
 30
0.0
 10
0.7408333331481249
 20
18.6736614237555
 30
0.0
 10
0.7408333331481249
 20
18.6736614237555
 30
0.0
 10
0.7546981688099116
 20
19.07163079023026
 30
0.0
 10
0.8769777976112069
 20
19.47016495118935
 30
0.0
 10
1.091004519538258
 20
19.84114785522067
 30
0.0
 10
1.366357913489484
 20
20.3181579964249
 30
0.0
 10
1.790636833349365
 20
20.70536436378756
 30
0.0
 10
2.243729198748969
 20
20.89349261910113
 30
0.0
 10
2.69682156414854
 20
21.0816582459394
 30
0.0
 10
3.173457990105875
 20
21.06831661162336
 30
0.0
 10
3.538951501620869
 20
20.85739598290441
 30
0.0
 10
3.538951501620869
 20
20.85739598290441
 30
0.0
 10
3.67655345554709
 20
20.77782775017075
 30
0.0
 10
3.67655345554709
 20
20.77782775017075
 30
0.0
  0
SPLINE
  5
1DF
330
1AE
100
AcDbEntity
  8
_Calque_
 62
     7
420
 16777215
370
     9
100
AcDbSpline
210
0.0
220
0.0
230
1.0
 70
     8
 71
     3
 72
    17
 73
    13
 74
     0
 42
0.0000000001
 43
0.0000000001
 12
1.0
 22
0.0
 32
0.0
 13
1.0
 23
0.0
 33
0.0
 40
0.0
 40
0.0
 40
0.0
 40
0.0
 40
1.0
 40
1.0
 40
1.0
 40
2.0
 40
2.0
 40
2.0
 40
3.0
 40
3.0
 40
3.0
 40
4.0
 40
4.0
 40
4.0
 40
4.0
 10
3.349739472091177
 20
20.5152180461405
 30
0.0
 10
3.252835108557583
 20
20.49350519029284
 30
0.0
 10
3.155370172153614
 20
20.46267368241963
 30
0.0
 10
3.059400096737384
 20
20.42272352252089
 30
0.0
 10
2.606120873714334
 20
20.23455789568268
 30
0.0
 10
2.182028811477867
 20
19.84735152831996
 30
0.0
 10
1.906677030720968
 20
19.3703413871157
 30
0.0
 10
1.689733716673472
 20
18.99445859173557
 30
0.0
 10
1.567080372625186
 20
18.56655463398022
 30
0.0
 10
1.556132120228302
 20
18.16380171234453
 30
0.0
 10
1.556132120228302
 20
18.16380171234453
 30
0.0
 10
1.556132120228302
 20
15.5946962472014
 30
0.0
 10
1.556132120228302
 20
15.5946962472014
 30
0.0
  0
INSERT
  5
1E1
330
1AE
100
AcDbEntity
  8
_Calque_
100
AcDbBlockReference
  2
block 46
 10
0.0
 20
0.0
 30
0.0
  0
ENDBLK
  5
1B1
330
1AE
100
AcDbEntity
  8
0
100
AcDbBlockEnd
  0
BLOCK
  5
1B5
330
1B3
100
AcDbEntity
  8
0
100
AcDbBlockBegin
  2
block 45
 70
     0
 10
0.0
 20
0.0
 30
0.0
  3
block 45
  1

  0
SPLINE
  5
1B7
330
1B3
100
AcDbEntity
  8
_Calque_
 62
     7
420
 16777215
370
     9
100
AcDbSpline
210
0.0
220
0.0
230
1.0
 70
     8
 71
     3
 72
    17
 73
    13
 74
     0
 42
0.0000000001
 43
0.0000000001
 12
1.0
 22
0.0
 32
0.0
 13
1.0
 23
0.0
 33
0.0
 40
0.0
 40
0.0
 40
0.0
 40
0.0
 40
1.0
 40
1.0
 40
1.0
 40
2.0
 40
2.0
 40
2.0
 40
3.0
 40
3.0
 40
3.0
 40
4.0
 40
4.0
 40
4.0
 40
4.0
 10
11.86286068298948
 20
23.41099232980831
 30
0.0
 10
12.0008363521627
 20
23.33123717494206
 30
0.0
 10
12.18055601441986
 20
23.3263041336824
 30
0.0
 10
12.35156811142327
 20
23.39727265907775
 30
0.0
 10
12.52254283690185
 20
23.46827855599784
 30
0.0
 10
12.68256770564493
 20
23.61443858907916
 30
0.0
 10
12.78657265887055
 20
23.79434510895987
 30
0.0
 10
12.89039075447269
 20
23.9742890003653
 30
0.0
 10
12.93695567424234
 20
24.18596131623655
 30
0.0
 10
12.91285104081427
 20
24.36953024553736
 30
0.0
 10
12.88878377891076
 20
24.55309917483816
 30
0.0
 10
12.79460753667997
 20
24.70639716913614
 30
0.0
 10
12.65666923903145
 20
24.78596114521132
 30
0.0
  0
SPLINE
  5
1B8
330
1B3
100
AcDbEntity
  8
_Calque_
 62
     7
420
 16777215
370
     9
100
AcDbSpline
210
0.0
220
0.0
230
1.0
 70
     8
 71
     3
 72
    17
 73
    13
 74
     0
 42
0.0000000001
 43
0.0000000001
 12
1.0
 22
0.0
 32
0.0
 13
1.0
 23
0.0
 33
0.0
 40
0.0
 40
0.0
 40
0.0
 40
0.0
 40
1.0
 40
1.0
 40
1.0
 40
2.0
 40
2.0
 40
2.0
 40
3.0
 40
3.0
 40
3.0
 40
4.0
 40
4.0
 40
4.0
 40
4.0
 10
12.65666923903145
 20
24.78596114521132
 30
0.0
 10
12.51888042748185
 20
24.86552512128655
 30
0.0
 10
12.33916076522456
 20
24.87060764864506
 30
0.0
 10
12.16796181059773
 20
24.79963912324963
 30
0.0
 10
11.99717394274256
 20
24.72863322632958
 30
0.0
 10
11.83696221637601
 20
24.58247319324822
 30
0.0
 10
11.73314598220565
 20
24.40256667336752
 30
0.0
 10
11.6292886536471
 20
24.22262278196212
 30
0.0
 10
11.58257424777866
 20
24.01095046609087
 30
0.0
 10
11.60667888120673
 20
23.8273815367901
 30
0.0
 10
11.6307480019554
 20
23.64381693453833
 30
0.0
 10
11.7249242465651
 20
23.49055198471595
 30
0.0
 10
11.86286068298948
 20
23.41099232980831
 30
0.0
  0
ENDBLK
  5
1B6
330
1B3
100
AcDbEntity
  8
0
100
AcDbBlockEnd
  0
BLOCK
  5
1E2
330
1E0
100
AcDbEntity
  8
0
100
AcDbBlockBegin
  2
block 46
 70
     0
 10
0.0
 20
0.0
 30
0.0
  3
block 46
  1

  0
SPLINE
  5
1E4
330
1E0
100
AcDbEntity
  8
_Calque_
 62
     7
420
 16777215
370
     9
100
AcDbSpline
210
0.0
220
0.0
230
1.0
 70
     8
 71
     3
 72
    17
 73
    13
 74
     0
 42
0.0000000001
 43
0.0000000001
 12
1.0
 22
0.0
 32
0.0
 13
1.0
 23
0.0
 33
0.0
 40
0.0
 40
0.0
 40
0.0
 40
0.0
 40
1.0
 40
1.0
 40
1.0
 40
2.0
 40
2.0
 40
2.0
 40
3.0
 40
3.0
 40
3.0
 40
4.0
 40
4.0
 40
4.0
 40
4.0
 10
12.03514341183255
 20
23.69617011358668
 30
0.0
 10
12.11339938454342
 20
23.65095056870595
 30
0.0
 10
12.21542364696009
 20
23.64818507587858
 30
0.0
 10
12.31232801049368
 20
23.68832209340077
 30
0.0
 10
12.40923237402734
 20
23.72868334007116
 30
0.0
 10
12.50008255056033
 20
23.81149863879477
 30
0.0
 10
12.55883058738053
 20
23.91352290121157
 30
0.0
 10
12.61795233944768
 20
24.01550979210364
 30
0.0
 10
12.6442637772813
 20
24.13558450094797
 30
0.0
 10
12.63073340089335
 20
24.2395894541736
 30
0.0
 10
12.61705542285504
 20
24.34381863654733
 30
0.0
 10
12.56357677101677
 20
24.43067005993798
 30
0.0
 10
12.48550765592939
 20
24.47574011871993
 30
0.0
  0
SPLINE
  5
1E5
330
1E0
100
AcDbEntity
  8
_Calque_
 62
     7
420
 16777215
370
     9
100
AcDbSpline
210
0.0
220
0.0
230
1.0
 70
     8
 71
     3
 72
    17
 73
    13
 74
     0
 42
0.0000000001
 43
0.0000000001
 12
1.0
 22
0.0
 32
0.0
 13
1.0
 23
0.0
 33
0.0
 40
0.0
 40
0.0
 40
0.0
 40
0.0
 40
1.0
 40
1.0
 40
1.0
 40
2.0
 40
2.0
 40
2.0
 40
3.0
 40
3.0
 40
3.0
 40
4.0
 40
4.0
 40
4.0
 40
4.0
 10
12.48550765592939
 20
24.47574011871993
 30
0.0
 10
12.40721431169383
 20
24.52081017750185
 30
0.0
 10
12.30519004927703
 20
24.52372515642803
 30
0.0
 10
12.20832305726819
 20
24.48340128128233
 30
0.0
 10
12.1114186937346
 20
24.44326426376015
 30
0.0
 10
12.02053301436862
 20
24.36041159351185
 30
0.0
 10
11.96178310885666
 20
24.25838733109505
 30
0.0
 10
11.90266135678951
 20
24.15621358257949
 30
0.0
 10
11.87638917492907
 20
24.03632573135861
 30
0.0
 10
11.89006715296738
 20
23.93213392050957
 30
0.0
 10
11.90374513100562
 20
23.82812896728395
 30
0.0
 10
11.95703692522041
 20
23.74127754389329
 30
0.0
 10
12.03514341183255
 20
23.69617011358668
 30
0.0
  0
ENDBLK
  5
1E3
330
1E0
100
AcDbEntity
  8
0
100
AcDbBlockEnd
  0
ENDSEC
  0
SECTION
  2
ENTITIES
  0
INSERT
  5
42
330
1F
100
AcDbEntity
  8
_Calque_
100
AcDbBlockReference
  2
block 2
 10
0.0
 20
0.0
 30
0.0
  0
ENDSEC
  0
SECTION
  2
OBJECTS
  0
DICTIONARY
  5
C
330
0
100
AcDbDictionary
281
     1
  3
ACAD_GROUP
350
D
  3
ACAD_LAYOUT
350
1A
  3
ACAD_MATERIAL
350
3B
  3
ACAD_MLEADERSTYLE
350
1E8
  3
ACAD_MLINESTYLE
350
17
  3
ACAD_PLOTSETTINGS
350
19
  3
ACAD_PLOTSTYLENAME
350
E
  3
ACAD_TABLESTYLE
350
1E7
  3
ACAD_VISUALSTYLE
350
2A
  0
SUN
  5
3F
330
29
100
AcDbSun
 90
        1
290
     0
 63
     7
421
 16777215
 40
1.0
291
     1
 91
  2455826
 92
 54000000
292
     0
 70
     2
 71
   256
280
     1
  0
DICTIONARY
  5
D
102
{ACAD_REACTORS
330
C
102
}
330
C
100
AcDbDictionary
281
     1
  0
DICTIONARY
  5
1A
102
{ACAD_REACTORS
330
C
102
}
330
C
100
AcDbDictionary
281
     1
  3
Layout1
350
1E
  3
Layout2
350
26
  3
Model
350
22
  0
DICTIONARY
  5
3B
102
{ACAD_REACTORS
330
C
102
}
330
C
100
AcDbDictionary
281
     1
  3
ByBlock
350
3D
  3
ByLayer
350
3C
  3
Global
350
3E
  0
DICTIONARY
  5
1E8
102
{ACAD_REACTORS
330
C
102
}
330
C
100
AcDbDictionary
281
     1
  0
DICTIONARY
  5
17
102
{ACAD_REACTORS
330
C
102
}
330
C
100
AcDbDictionary
281
     1
  3
Standard
350
18
  0
DICTIONARY
  5
19
102
{ACAD_REACTORS
330
C
102
}
330
C
100
AcDbDictionary
281
     1
  0
ACDBDICTIONARYWDFLT
  5
E
102
{ACAD_REACTORS
330
C
102
}
330
C
100
AcDbDictionary
281
     1
  3
Normal
350
F
100
AcDbDictionaryWithDefault
340
F
  0
DICTIONARY
  5
1E7
102
{ACAD_REACTORS
330
C
102
}
330
C
100
AcDbDictionary
281
     1
  0
DICTIONARY
  5
2A
102
{ACAD_REACTORS
330
C
102
}
330
C
100
AcDbDictionary
281
     1
  3
2dWireframe
350
2F
  3
3D Hidden
350
31
  3
3dWireframe
350
30
  3
Basic
350
32
  3
Brighten
350
36
  3
ColorChange
350
3A
  3
Conceptual
350
34
  3
Dim
350
35
  3
Facepattern
350
39
  3
Flat
350
2B
  3
FlatWithEdges
350
2C
  3
Gouraud
350
2D
  3
GouraudWithEdges
350
2E
  3
Linepattern
350
38
  3
Realistic
350
33
  3
Thicken
350
37
  0
LAYOUT
  5
1E
102
{ACAD_REACTORS
330
1A
102
}
330
1A
100
AcDbPlotSettings
  1

  2
none_device
  4

  6

 40
0.0
 41
0.0
 42
0.0
 43
0.0
 44
0.0
 45
0.0
 46
0.0
 47
0.0
 48
0.0
 49
0.0
140
0.0
141
0.0
142
1.0
143
1.0
 70
   688
 72
     0
 73
     0
 74
     5
  7

 75
    16
 76
     0
 77
     2
 78
   300
147
1.0
148
0.0
149
0.0
100
AcDbLayout
  1
Layout1
 70
     1
 71
     1
 10
0.0
 20
0.0
 11
12.0
 21
9.0
 12
0.0
 22
0.0
 32
0.0
 14
1.000000000000000E+20
 24
1.000000000000000E+20
 34
1.000000000000000E+20
 15
-1.000000000000000E+20
 25
-1.000000000000000E+20
 35
-1.000000000000000E+20
146
0.0
 13
0.0
 23
0.0
 33
0.0
 16
1.0
 26
0.0
 36
0.0
 17
0.0
 27
1.0
 37
0.0
 76
     0
330
1B
  0
LAYOUT
  5
26
102
{ACAD_REACTORS
330
1A
102
}
330
1A
100
AcDbPlotSettings
  1

  2
none_device
  4

  6

 40
0.0
 41
0.0
 42
0.0
 43
0.0
 44
0.0
 45
0.0
 46
0.0
 47
0.0
 48
0.0
 49
0.0
140
0.0
141
0.0
142
1.0
143
1.0
 70
   688
 72
     0
 73
     0
 74
     5
  7

 75
    16
 76
     0
 77
     2
 78
   300
147
1.0
148
0.0
149
0.0
100
AcDbLayout
  1
Layout2
 70
     1
 71
     2
 10
0.0
 20
0.0
 11
0.0
 21
0.0
 12
0.0
 22
0.0
 32
0.0
 14
0.0
 24
0.0
 34
0.0
 15
0.0
 25
0.0
 35
0.0
146
0.0
 13
0.0
 23
0.0
 33
0.0
 16
1.0
 26
0.0
 36
0.0
 17
0.0
 27
1.0
 37
0.0
 76
     0
330
23
  0
LAYOUT
  5
22
102
{ACAD_REACTORS
330
1A
102
}
330
1A
100
AcDbPlotSettings
  1

  2
none_device
  4

  6

 40
0.0
 41
0.0
 42
0.0
 43
0.0
 44
0.0
 45
0.0
 46
0.0
 47
0.0
 48
0.0
 49
0.0
140
0.0
141
0.0
142
1.0
143
1.0
 70
  1712
 72
     0
 73
     0
 74
     0
  7

 75
     0
 76
     0
 77
     2
 78
   300
147
1.0
148
0.0
149
0.0
100
AcDbLayout
  1
Model
 70
     1
 71
     0
 10
0.0
 20
0.0
 11
12.0
 21
9.0
 12
0.0
 22
0.0
 32
0.0
 14
1.000000000000000E+20
 24
1.000000000000000E+20
 34
1.000000000000000E+20
 15
-1.000000000000000E+20
 25
-1.000000000000000E+20
 35
-1.000000000000000E+20
146
0.0
 13
0.0
 23
0.0
 33
0.0
 16
1.0
 26
0.0
 36
0.0
 17
0.0
 27
1.0
 37
0.0
 76
     0
330
1F
331
29
  0
MATERIAL
  5
3D
102
{ACAD_REACTORS
330
3B
102
}
330
3B
100
AcDbMaterial
  1
ByBlock
 72
     1
 94
      127
  0
MATERIAL
  5
3C
102
{ACAD_REACTORS
330
3B
102
}
330
3B
100
AcDbMaterial
  1
ByLayer
 72
     1
 94
      127
  0
MATERIAL
  5
3E
102
{ACAD_REACTORS
330
3B
102
}
330
3B
100
AcDbMaterial
  1
Global
 72
     1
 94
      127
  0
MLINESTYLE
  5
18
102
{ACAD_REACTORS
330
17
102
}
330
17
100
AcDbMlineStyle
  2
Standard
 70
     0
  3

 62
   256
 51
90.0
 52
90.0
 71
     2
 49
0.5
 62
   256
  6
BYLAYER
 49
-0.5
 62
   256
  6
BYLAYER
  0
ACDBPLACEHOLDER
  5
F
102
{ACAD_REACTORS
330
E
102
}
330
E
  0
VISUALSTYLE
  5
2F
102
{ACAD_REACTORS
330
2A
102
}
330
2A
100
AcDbVisualStyle
  2
2dWireframe
 70
     4
177
     2
291
     0
 71
     0
176
     1
 72
     2
176
     1
 73
     0
176
     1
 90
        0
176
     1
 40
-0.6
176
     1
 41
-30.0
176
     1
 62
     5
 63
     7
421
 16777215
176
     1
 74
     1
176
     1
 91
        4
176
     1
 64
     7
176
     1
 65
   257
176
     1
 75
     1
176
     1
175
     1
176
     1
 42
1.0
176
     1
 92
        0
176
     1
 66
   257
176
     1
 43
1.0
176
     1
 76
     1
176
     1
 77
     6
176
     1
 78
     2
176
     1
 67
     7
176
     1
 79
     5
176
     1
170
     0
176
     1
171
     0
176
     1
290
     0
176
     1
 93
        1
176
     1
 44
0.0
176
     1
173
     0
176
     1
  0
VISUALSTYLE
  5
31
102
{ACAD_REACTORS
330
2A
102
}
330
2A
100
AcDbVisualStyle
  2
3D Hidden
 70
     6
177
     2
291
     0
 71
     1
176
     1
 72
     2
176
     1
 73
     2
176
     1
 90
        0
176
     1
 40
-0.6
176
     1
 41
-30.0
176
     1
 62
     5
 63
     7
421
 16777215
176
     1
 74
     2
176
     1
 91
        2
176
     1
 64
     7
176
     1
 65
   257
176
     1
 75
     2
176
     1
175
     1
176
     1
 42
40.0
176
     1
 92
        0
176
     1
 66
   257
176
     1
 43
1.0
176
     1
 76
     1
176
     1
 77
     6
176
     1
 78
     2
176
     1
 67
     7
176
     1
 79
     3
176
     1
170
     0
176
     1
171
     0
176
     1
290
     0
176
     1
 93
        1
176
     1
 44
0.0
176
     1
173
     0
176
     1
  0
VISUALSTYLE
  5
30
102
{ACAD_REACTORS
330
2A
102
}
330
2A
100
AcDbVisualStyle
  2
3dWireframe
 70
     5
177
     2
291
     0
 71
     0
176
     1
 72
     2
176
     1
 73
     0
176
     1
 90
        0
176
     1
 40
-0.6
176
     1
 41
-30.0
176
     1
 62
     5
 63
     7
421
 16777215
176
     1
 74
     1
176
     1
 91
        4
176
     1
 64
     7
176
     1
 65
   257
176
     1
 75
     1
176
     1
175
     1
176
     1
 42
1.0
176
     1
 92
        0
176
     1
 66
   257
176
     1
 43
1.0
176
     1
 76
     1
176
     1
 77
     6
176
     1
 78
     2
176
     1
 67
     7
176
     1
 79
     5
176
     1
170
     0
176
     1
171
     0
176
     1
290
     0
176
     1
 93
        1
176
     1
 44
0.0
176
     1
173
     0
176
     1
  0
VISUALSTYLE
  5
32
102
{ACAD_REACTORS
330
2A
102
}
330
2A
100
AcDbVisualStyle
  2
Basic
 70
     7
177
     2
291
     1
 71
     1
176
     1
 72
     0
176
     1
 73
     1
176
     1
 90
        0
176
     1
 40
-0.6
176
     1
 41
-30.0
176
     1
 62
     5
 63
     7
421
 16777215
176
     1
 74
     0
176
     1
 91
        4
176
     1
 64
     7
176
     1
 65
   257
176
     1
 75
     1
176
     1
175
     1
176
     1
 42
1.0
176
     1
 92
        8
176
     1
 66
     7
176
     1
 43
1.0
176
     1
 76
     1
176
     1
 77
     6
176
     1
 78
     2
176
     1
 67
     7
176
     1
 79
     5
176
     1
170
     0
176
     1
171
     0
176
     1
290
     0
176
     1
 93
        1
176
     1
 44
0.0
176
     1
173
     0
176
     1
  0
VISUALSTYLE
  5
36
102
{ACAD_REACTORS
330
2A
102
}
330
2A
100
AcDbVisualStyle
  2
Brighten
 70
    12
177
     2
291
     1
 71
     2
176
     1
 72
     2
176
     1
 73
     0
176
     1
 90
        0
176
     1
 40
-0.6
176
     1
 41
-30.0
176
     1
 62
     5
 63
     7
421
 16777215
176
     1
 74
     1
176
     1
 91
        4
176
     1
 64
     7
176
     1
 65
   257
176
     1
 75
     1
176
     1
175
     1
176
     1
 42
1.0
176
     1
 92
        8
176
     1
 66
     7
176
     1
 43
1.0
176
     1
 76
     1
176
     1
 77
     6
176
     1
 78
     2
176
     1
 67
     7
176
     1
 79
     5
176
     1
170
     0
176
     1
171
     0
176
     1
290
     0
176
     1
 93
        1
176
     1
 44
50.0
176
     1
173
     0
176
     1
  0
VISUALSTYLE
  5
3A
102
{ACAD_REACTORS
330
2A
102
}
330
2A
100
AcDbVisualStyle
  2
ColorChange
 70
    16
177
     2
291
     1
 71
     2
176
     1
 72
     2
176
     1
 73
     3
176
     1
 90
        0
176
     1
 40
-0.6
176
     1
 41
-30.0
176
     1
 62
     5
 63
     8
421
  8421504
176
     1
 74
     1
176
     1
 91
        4
176
     1
 64
     7
176
     1
 65
   257
176
     1
 75
     1
176
     1
175
     1
176
     1
 42
1.0
176
     1
 92
        8
176
     1
 66
     8
424
  8421504
176
     1
 43
1.0
176
     1
 76
     1
176
     1
 77
     6
176
     1
 78
     2
176
     1
 67
     7
176
     1
 79
     5
176
     1
170
     0
176
     1
171
     0
176
     1
290
     0
176
     1
 93
        1
176
     1
 44
0.0
176
     1
173
     0
176
     1
  0
VISUALSTYLE
  5
34
102
{ACAD_REACTORS
330
2A
102
}
330
2A
100
AcDbVisualStyle
  2
Conceptual
 70
     9
177
     2
291
     0
 71
     3
176
     1
 72
     2
176
     1
 73
     0
176
     1
 90
        0
176
     1
 40
-0.6
176
     1
 41
-30.0
176
     1
 62
     5
 63
     7
421
 16777215
176
     1
 74
     2
176
     1
 91
        2
176
     1
 64
     7
176
     1
 65
   257
176
     1
 75
     1
176
     1
175
     1
176
     1
 42
40.0
176
     1
 92
        8
176
     1
 66
     7
176
     1
 43
1.0
176
     1
 76
     1
176
     1
 77
     6
176
     1
 78
     2
176
     1
 67
     7
176
     1
 79
     3
176
     1
170
     0
176
     1
171
     0
176
     1
290
     0
176
     1
 93
        1
176
     1
 44
0.0
176
     1
173
     0
176
     1
  0
VISUALSTYLE
  5
35
102
{ACAD_REACTORS
330
2A
102
}
330
2A
100
AcDbVisualStyle
  2
Dim
 70
    11
177
     2
291
     1
 71
     2
176
     1
 72
     2
176
     1
 73
     0
176
     1
 90
        0
176
     1
 40
-0.6
176
     1
 41
-30.0
176
     1
 62
     5
 63
     7
421
 16777215
176
     1
 74
     1
176
     1
 91
        4
176
     1
 64
     7
176
     1
 65
   257
176
     1
 75
     1
176
     1
175
     1
176
     1
 42
1.0
176
     1
 92
        8
176
     1
 66
     7
176
     1
 43
1.0
176
     1
 76
     1
176
     1
 77
     6
176
     1
 78
     2
176
     1
 67
     7
176
     1
 79
     5
176
     1
170
     0
176
     1
171
     0
176
     1
290
     0
176
     1
 93
        1
176
     1
 44
-50.0
176
     1
173
     0
176
     1
  0
VISUALSTYLE
  5
39
102
{ACAD_REACTORS
330
2A
102
}
330
2A
100
AcDbVisualStyle
  2
Facepattern
 70
    15
177
     2
291
     1
 71
     2
176
     1
 72
     2
176
     1
 73
     0
176
     1
 90
        0
176
     1
 40
-0.6
176
     1
 41
-30.0
176
     1
 62
     5
 63
     7
421
 16777215
176
     1
 74
     1
176
     1
 91
        4
176
     1
 64
     7
176
     1
 65
   257
176
     1
 75
     1
176
     1
175
     1
176
     1
 42
1.0
176
     1
 92
        8
176
     1
 66
     7
176
     1
 43
1.0
176
     1
 76
     1
176
     1
 77
     6
176
     1
 78
     2
176
     1
 67
     7
176
     1
 79
     5
176
     1
170
     0
176
     1
171
     0
176
     1
290
     0
176
     1
 93
        1
176
     1
 44
0.0
176
     1
173
     0
176
     1
  0
VISUALSTYLE
  5
2B
102
{ACAD_REACTORS
330
2A
102
}
330
2A
100
AcDbVisualStyle
  2
Flat
 70
     0
177
     2
291
     1
 71
     2
176
     1
 72
     1
176
     1
 73
     1
176
     1
 90
        2
176
     1
 40
-0.6
176
     1
 41
30.0
176
     1
 62
     5
 63
     7
421
 16777215
176
     1
 74
     0
176
     1
 91
        4
176
     1
 64
     7
176
     1
 65
   257
176
     1
 75
     1
176
     1
175
     1
176
     1
 42
1.0
176
     1
 92
        8
176
     1
 66
     7
176
     1
 43
1.0
176
     1
 76
     1
176
     1
 77
     6
176
     1
 78
     2
176
     1
 67
     7
176
     1
 79
     5
176
     1
170
     0
176
     1
171
     0
176
     1
290
     0
176
     1
 93
       13
176
     1
 44
0.0
176
     1
173
     0
176
     1
  0
VISUALSTYLE
  5
2C
102
{ACAD_REACTORS
330
2A
102
}
330
2A
100
AcDbVisualStyle
  2
FlatWithEdges
 70
     1
177
     2
291
     1
 71
     2
176
     1
 72
     1
176
     1
 73
     1
176
     1
 90
        2
176
     1
 40
-0.6
176
     1
 41
30.0
176
     1
 62
     5
 63
     7
421
 16777215
176
     1
 74
     1
176
     1
 91
        4
176
     1
 64
     7
176
     1
 65
   257
176
     1
 75
     1
176
     1
175
     1
176
     1
 42
1.0
176
     1
 92
        0
176
     1
 66
   257
176
     1
 43
1.0
176
     1
 76
     1
176
     1
 77
     6
176
     1
 78
     2
176
     1
 67
     7
176
     1
 79
     5
176
     1
170
     0
176
     1
171
     0
176
     1
290
     0
176
     1
 93
       13
176
     1
 44
0.0
176
     1
173
     0
176
     1
  0
VISUALSTYLE
  5
2D
102
{ACAD_REACTORS
330
2A
102
}
330
2A
100
AcDbVisualStyle
  2
Gouraud
 70
     2
177
     2
291
     1
 71
     2
176
     1
 72
     2
176
     1
 73
     1
176
     1
 90
        2
176
     1
 40
-0.6
176
     1
 41
30.0
176
     1
 62
     5
 63
     7
421
 16777215
176
     1
 74
     0
176
     1
 91
        4
176
     1
 64
     7
176
     1
 65
   257
176
     1
 75
     1
176
     1
175
     1
176
     1
 42
1.0
176
     1
 92
        0
176
     1
 66
     7
176
     1
 43
1.0
176
     1
 76
     1
176
     1
 77
     6
176
     1
 78
     2
176
     1
 67
     7
176
     1
 79
     5
176
     1
170
     0
176
     1
171
     0
176
     1
290
     0
176
     1
 93
       13
176
     1
 44
0.0
176
     1
173
     0
176
     1
  0
VISUALSTYLE
  5
2E
102
{ACAD_REACTORS
330
2A
102
}
330
2A
100
AcDbVisualStyle
  2
GouraudWithEdges
 70
     3
177
     2
291
     1
 71
     2
176
     1
 72
     2
176
     1
 73
     1
176
     1
 90
        2
176
     1
 40
-0.6
176
     1
 41
30.0
176
     1
 62
     5
 63
     7
421
 16777215
176
     1
 74
     1
176
     1
 91
        4
176
     1
 64
     7
176
     1
 65
   257
176
     1
 75
     1
176
     1
175
     1
176
     1
 42
1.0
176
     1
 92
        0
176
     1
 66
   257
176
     1
 43
1.0
176
     1
 76
     1
176
     1
 77
     6
176
     1
 78
     2
176
     1
 67
     7
176
     1
 79
     5
176
     1
170
     0
176
     1
171
     0
176
     1
290
     0
176
     1
 93
       13
176
     1
 44
0.0
176
     1
173
     0
176
     1
  0
VISUALSTYLE
  5
38
102
{ACAD_REACTORS
330
2A
102
}
330
2A
100
AcDbVisualStyle
  2
Linepattern
 70
    14
177
     2
291
     1
 71
     2
176
     1
 72
     2
176
     1
 73
     0
176
     1
 90
        0
176
     1
 40
-0.6
176
     1
 41
-30.0
176
     1
 62
     5
 63
     7
421
 16777215
176
     1
 74
     1
176
     1
 91
        4
176
     1
 64
     7
176
     1
 65
   257
176
     1
 75
     7
176
     1
175
     7
176
     1
 42
1.0
176
     1
 92
        8
176
     1
 66
     7
176
     1
 43
1.0
176
     1
 76
     1
176
     1
 77
     6
176
     1
 78
     2
176
     1
 67
     7
176
     1
 79
     5
176
     1
170
     0
176
     1
171
     0
176
     1
290
     0
176
     1
 93
        1
176
     1
 44
0.0
176
     1
173
     0
176
     1
  0
VISUALSTYLE
  5
33
102
{ACAD_REACTORS
330
2A
102
}
330
2A
100
AcDbVisualStyle
  2
Realistic
 70
     8
177
     2
291
     0
 71
     2
176
     1
 72
     2
176
     1
 73
     0
176
     1
 90
        0
176
     1
 40
-0.6
176
     1
 41
-30.0
176
     1
 62
     5
 63
     7
421
 16777215
176
     1
 74
     1
176
     1
 91
        0
176
     1
 64
     7
176
     1
 65
   257
176
     1
 75
     1
176
     1
175
     1
176
     1
 42
1.0
176
     1
 92
        8
176
     1
 66
     8
424
  7895160
176
     1
 43
1.0
176
     1
 76
     1
176
     1
 77
     6
176
     1
 78
     2
176
     1
 67
     7
176
     1
 79
     5
176
     1
170
     0
176
     1
171
     0
176
     1
290
     0
176
     1
 93
       13
176
     1
 44
0.0
176
     1
173
     0
176
     1
  0
VISUALSTYLE
  5
37
102
{ACAD_REACTORS
330
2A
102
}
330
2A
100
AcDbVisualStyle
  2
Thicken
 70
    13
177
     2
291
     1
 71
     2
176
     1
 72
     2
176
     1
 73
     0
176
     1
 90
        0
176
     1
 40
-0.6
176
     1
 41
-30.0
176
     1
 62
     5
 63
     7
421
 16777215
176
     1
 74
     1
176
     1
 91
        4
176
     1
 64
     7
176
     1
 65
   257
176
     1
 75
     1
176
     1
175
     1
176
     1
 42
1.0
176
     1
 92
       12
176
     1
 66
     7
176
     1
 43
1.0
176
     1
 76
     1
176
     1
 77
     6
176
     1
 78
     2
176
     1
 67
     7
176
     1
 79
     5
176
     1
170
     0
176
     1
171
     0
176
     1
290
     0
176
     1
 93
        1
176
     1
 44
0.0
176
     1
173
     0
176
     1
  0
ENDSEC
  0
EOF
