999
DXF file: C:\Users\sesa63760\Dev\_Creo\CAD\MCADID0004138_3D-CAD\drw0001_1.dxf
999
Pro/ENGINEER 2019471 by Parametric Technology Corporation
  0
SECTION
  2
HEADER
  9
$ACADVER
  1
AC1024
  9
$DWGCODEPAGE
  3
ANSI_1252
  9
$EXTMAX
 10
85.7733841657
 20
121.3080718915
 30
0.0
  9
$EXTMIN
 10
0.0
 20
0.0
 30
0.0
  9
$LIMMIN
 10
0.0
 20
0.0
  9
$LIMMAX
 10
85.7733841657
 20
121.3080718915
  9
$VIEWCTR
 10
42.8866920829
 20
60.6540359458
  9
$VIEWSIZE
 40
121.3080718915
  9
$CLAYER
  8
0
  9
$LTSCALE
 40
7.9074891307
  9
$CELTYPE
  6
BYLAYER
  9
$DIMSCALE
 40
1.0
  9
$DIMASZ
 40
1.0211117163
  9
$DIMEXO
 40
1.0
  9
$DIMDLI
 40
5.4633561267
  9
$DIMEXE
 40
1.0
  9
$DIMCEN
 40
1.2939527668
  9
$DIMLFAC
 40
1.0
  9
$DIMBLK
  1
_FILLED
  9
$DIMALT
 70
0
  9
$DIMALTF
 40
0.0393700787
  9
$DIMTXT
 40
1.4295564028
  9
$DIMTOL
 70
1
  9
$DIMLIM
 70
0
  9
$DIMTFAC
 40
1.0
  9
$DIMTP
 40
0.01
  9
$DIMTM
 40
0.01
  9
$DIMGAP
 40
0.625
  9
$DIMDSEP
 70
46
  9
$AUNITS
 70
0
  9
$PDMODE
 70
3
  9
$PDSIZE
 40
0.3125
  9
$HANDSEED
  5
437
  9
$TILEMODE
 70
1
  9
$MEASUREMENT
 70
1
  9
$INSUNITS
 70
4
  0
ENDSEC
  0
SECTION
  2
CLASSES
  0
CLASS
  1
ACDBDICTIONARYWDFLT
  2
AcDbDictionaryWithDefault
  3
AutoCAD 2000
 90
0
 91
1
280
0
281
0
  0
CLASS
  1
ACDBPLACEHOLDER
  2
AcDbPlaceHolder
  3
AutoCAD 2000
 90
0
 91
1
280
0
281
0
  0
CLASS
  1
LAYOUT
  2
AcDbLayout
  3
AutoCAD 2000
 90
0
 91
0
280
0
281
0
  0
ENDSEC
  0
SECTION
  2
TABLES
  0
TABLE
  2
VPORT
  5
8
100
AcDbSymbolTable
 70
2
  0
VPORT
  5
1F4
100
AcDbSymbolTableRecord
100
AcDbViewportTableRecord
  2
*ACTIVE
 70
0
 10
0.0
 20
0.0
 11
1.0
 21
1.0
 12
42.8866920829
 22
60.6540359458
 13
0.0
 23
0.0
 14
1.0
 24
1.0
 15
0.0
 25
0.0
 16
0.0
 26
0.0
 36
1.0
 17
0.0
 27
0.0
 37
0.0
 40
121.3080718915
 41
0.7070707071
 42
50.0
 43
0.0
 44
0.0
 50
0.0
 51
0.0
 71
0
 72
100
 73
1
 74
1
 75
0
 76
0
 77
0
 78
0
  0
ENDTAB
  0
TABLE
  2
LTYPE
  5
5
100
AcDbSymbolTable
 70
6
  0
LTYPE
  5
14
100
AcDbSymbolTableRecord
100
AcDbLinetypeTableRecord
  2
BYBLOCK
 70
0
  3

 72
65
 73
0
 40
0.0
  0
LTYPE
  5
15
100
AcDbSymbolTableRecord
100
AcDbLinetypeTableRecord
  2
BYLAYER
 70
0
  3

 72
65
 73
0
 40
0.0
  0
LTYPE
  5
16
100
AcDbSymbolTableRecord
100
AcDbLinetypeTableRecord
  2
CONTINUOUS
 70
64
  3
Solid line
 72
65
 73
0
 40
0.0
  0
LTYPE
  5
1F5
100
AcDbSymbolTableRecord
100
AcDbLinetypeTableRecord
  2
CENTER
 70
64
  3
____ _ ____ _ ____ _ ____ _ ____ _ ____ _ ____
 72
65
 73
4
 40
0.6
 49
0.375
 74
0
 49
-0.075
 74
0
 49
0.075
 74
0
 49
-0.075
 74
0
  0
LTYPE
  5
1F6
100
AcDbSymbolTableRecord
100
AcDbLinetypeTableRecord
  2
HIDDEN
 70
64
  3
- - - - - - - - - - - - - - - - - - - -
 72
65
 73
2
 40
0.2
 49
0.1
 74
0
 49
-0.1
 74
0
  0
LTYPE
  5
1F7
100
AcDbSymbolTableRecord
100
AcDbLinetypeTableRecord
  2
PHANTOM
 70
64
  3
_____ _ _ _____ _ _ _____ _ _ _____
 72
65
 73
6
 40
0.8
 49
0.45
 74
0
 49
-0.05
 74
0
 49
0.1
 74
0
 49
-0.05
 74
0
 49
0.1
 74
0
 49
-0.05
 74
0
  0
LTYPE
  5
1F8
100
AcDbSymbolTableRecord
100
AcDbLinetypeTableRecord
  2
DOT
 70
64
  3
. . . . . . . . . . . . . . . . . . . .
 72
65
 73
2
 40
0.2
 49
0.1
 74
0
 49
-0.1
 74
0
  0
LTYPE
  5
1F9
100
AcDbSymbolTableRecord
100
AcDbLinetypeTableRecord
  2
DASHED
 70
64
  3
- - - - - - - - - - - - - - - - - - - -
 72
65
 73
2
 40
0.2
 49
0.1
 74
0
 49
-0.1
 74
0
  0
ENDTAB
  0
TABLE
  2
LAYER
  5
2
100
AcDbSymbolTable
 70
36
  0
LAYER
  5
10
100
AcDbSymbolTableRecord
100
AcDbLayerTableRecord
  2
0
 70
0
 62
7
  6
CONTINUOUS
370
-3
390
F
  0
LAYER
  5
1FA
100
AcDbSymbolTableRecord
100
AcDbLayerTableRecord
  2
DEFAULT_1
 70
0
 62
7
  6
CENTER
370
-3
390
F
  0
LAYER
  5
1FB
100
AcDbSymbolTableRecord
100
AcDbLayerTableRecord
  2
DEFAULT_2
 70
0
 62
7
  6
HIDDEN
370
-3
390
F
  0
LAYER
  5
1FC
100
AcDbSymbolTableRecord
100
AcDbLayerTableRecord
  2
DEFAULT_3
 70
0
 62
7
  6
PHANTOM
370
-3
390
F
  0
LAYER
  5
1FD
100
AcDbSymbolTableRecord
100
AcDbLayerTableRecord
  2
00_COMPONENTS
 70
0
 62
7
  6
CONTINUOUS
370
-3
390
F
  0
LAYER
  5
1FE
100
AcDbSymbolTableRecord
100
AcDbLayerTableRecord
  2
01_1_DEFAULT_DATUMS
 70
0
 62
7
  6
CONTINUOUS
370
-3
390
F
  0
LAYER
  5
1FF
100
AcDbSymbolTableRecord
100
AcDbLayerTableRecord
  2
01_PLANES
 70
0
 62
7
  6
CONTINUOUS
370
-3
390
F
  0
LAYER
  5
200
100
AcDbSymbolTableRecord
100
AcDbLayerTableRecord
  2
02_COORD_SYS
 70
0
 62
7
  6
CONTINUOUS
370
-3
390
F
  0
LAYER
  5
201
100
AcDbSymbolTableRecord
100
AcDbLayerTableRecord
  2
03_AXES
 70
0
 62
7
  6
CONTINUOUS
370
-3
390
F
  0
LAYER
  5
202
100
AcDbSymbolTableRecord
100
AcDbLayerTableRecord
  2
04_POINTS
 70
0
 62
7
  6
CONTINUOUS
370
-3
390
F
  0
LAYER
  5
203
100
AcDbSymbolTableRecord
100
AcDbLayerTableRecord
  2
05_CURVES
 70
0
 62
7
  6
CONTINUOUS
370
-3
390
F
  0
LAYER
  5
204
100
AcDbSymbolTableRecord
100
AcDbLayerTableRecord
  2
06_SURFS
 70
0
 62
7
  6
CONTINUOUS
370
-3
390
F
  0
LAYER
  5
205
100
AcDbSymbolTableRecord
100
AcDbLayerTableRecord
  2
07_COSMETICS
 70
0
 62
7
  6
CONTINUOUS
370
-3
390
F
  0
LAYER
  5
206
100
AcDbSymbolTableRecord
100
AcDbLayerTableRecord
  2
10_NOTES
 70
0
 62
7
  6
CONTINUOUS
370
-3
390
F
  0
LAYER
  5
207
100
AcDbSymbolTableRecord
100
AcDbLayerTableRecord
  2
11_NOTES_PUB
 70
0
 62
7
  6
CONTINUOUS
370
-3
390
F
  0
LAYER
  5
208
100
AcDbSymbolTableRecord
100
AcDbLayerTableRecord
  2
13_REF_GTOL
 70
0
 62
7
  6
CONTINUOUS
370
-3
390
F
  0
LAYER
  5
209
100
AcDbSymbolTableRecord
100
AcDbLayerTableRecord
  2
16_MISC
 70
0
 62
7
  6
CONTINUOUS
370
-3
390
F
  0
LAYER
  5
20A
100
AcDbSymbolTableRecord
100
AcDbLayerTableRecord
  2
17_NO_PRINT
 70
0
 62
7
  6
CONTINUOUS
370
-3
390
F
  0
LAYER
  5
20B
100
AcDbSymbolTableRecord
100
AcDbLayerTableRecord
  2
18_DATUM_CAMS_JOINTS
 70
0
 62
7
  6
CONTINUOUS
370
-3
390
F
  0
LAYER
  5
20C
100
AcDbSymbolTableRecord
100
AcDbLayerTableRecord
  2
19_DATUM_FUNCTIONAL
 70
0
 62
7
  6
CONTINUOUS
370
-3
390
F
  0
LAYER
  5
20D
100
AcDbSymbolTableRecord
100
AcDbLayerTableRecord
  2
20_DATUM_KINEMATIC_SCHEME
 70
0
 62
7
  6
CONTINUOUS
370
-3
390
F
  0
ENDTAB
  0
TABLE
  2
STYLE
  5
3
100
AcDbSymbolTable
 70
1
  0
STYLE
  5
11
100
AcDbSymbolTableRecord
100
AcDbTextStyleTableRecord
  2
STANDARD
 70
0
 40
0.0
 41
1.0
 50
0.0
 71
0
 42
0.2
  3
ARIAL.TTF
  4

  0
STYLE
  5
20E
100
AcDbSymbolTableRecord
100
AcDbTextStyleTableRecord
  2
TEXTSTYLE_1
 70
0
 40
0.0
 41
0.8
 50
0.0
 71
0
 42
0.2
  3
gdt
  4

  0
ENDTAB
  0
TABLE
  2
VIEW
  5
6
100
AcDbSymbolTable
 70
0
  0
ENDTAB
  0
TABLE
  2
UCS
  5
7
100
AcDbSymbolTable
 70
0
  0
ENDTAB
  0
TABLE
  2
APPID
  5
9
100
AcDbSymbolTable
 70
1
  0
APPID
  5
20F
100
AcDbSymbolTableRecord
100
AcDbRegAppTableRecord
  2
ACAD
 70
0
  0
ENDTAB
  0
TABLE
  2
BLOCK_RECORD
  5
1
100
AcDbSymbolTable
 70
0
  0
BLOCK_RECORD
  5
210
100
AcDbSymbolTableRecord
100
AcDbBlockTableRecord
  2
*Model_Space
  0
BLOCK_RECORD
  5
211
100
AcDbSymbolTableRecord
100
AcDbBlockTableRecord
  2
*Paper_Space
  0
BLOCK_RECORD
  5
212
100
AcDbSymbolTableRecord
100
AcDbBlockTableRecord
  2
_FILLED
  0
ENDTAB
  0
TABLE
  2
DIMSTYLE
  5
A
100
AcDbSymbolTable
 70
1
100
AcDbDimStyleTable
 71
0
  0
DIMSTYLE
105
213
100
AcDbSymbolTableRecord
100
AcDbDimStyleTableRecord
  2
STANDARD
 70
0
  3

  4

 40
1.0
 41
1.0211117163
 42
1.0
 43
0.38
 44
1.0
 45
0.0
 46
0.0
 47
0.01
 48
0.01
140
1.4295564028
141
0.09
142
0.0
143
25.4
144
1.0
145
0.0
146
1.0
147
0.625
 71
1
 72
0
 73
0
 74
0
 75
0
 76
0
 77
1
 78
8
 79
2
170
0
171
1
172
0
173
0
174
0
175
0
176
0
177
0
178
0
270
2
179
2
271
2
272
2
273
2
274
2
275
0
280
0
281
0
282
0
283
1
284
8
285
0
286
0
287
3
288
0
340
11
278
46
341
212
342
212
343
212
344
212
  0
ENDTAB
  0
ENDSEC
  0
SECTION
  2
BLOCKS
  0
BLOCK
  5
20
100
AcDbEntity
  8
0
100
AcDbBlockBegin
  2
*Model_Space
 70
0
 10
0.0
 20
0.0
 30
0.0
  3
*Model_Space
  1

  0
ENDBLK
  5
21
100
AcDbEntity
  8
0
100
AcDbBlockEnd
  0
BLOCK
  5
1C
100
AcDbEntity
  8
0
100
AcDbBlockBegin
  2
*Paper_Space
 70
0
 10
0.0
 20
0.0
 30
0.0
  3
*Paper_Space
  1

  0
ENDBLK
  5
1D
100
AcDbEntity
  8
0
100
AcDbBlockEnd
  0
BLOCK
  5
214
100
AcDbEntity
  8
0
100
AcDbBlockBegin
  2
_FILLED
 70
64
 10
0.0
 20
0.0
  3
_FILLED
  1

  0
SOLID
  5
215
100
AcDbEntity
  8
0
  6
BYBLOCK
 62
0
100
AcDbTrace
 10
0.0
 20
0.0
 11
-1.0
 21
0.25
 12
-1.0
 22
-0.25
 13
-1.0
 23
-0.25
  0
ENDBLK
  5
216
100
AcDbEntity
  8
0
  6
BYBLOCK
 62
0
100
AcDbBlockEnd
  0
ENDSEC
  0
SECTION
  2
ENTITIES
  0
LINE
  5
217
100
AcDbEntity
  8
0
100
AcDbLine
 62
7
  6
BYLAYER
 10
9.9506994094
 20
50.9884743094
 11
9.9506994094
 21
69.4414289364
  0
LINE
  5
218
100
AcDbEntity
  8
0
100
AcDbLine
 62
7
  6
BYLAYER
 10
10.0092786415
 20
50.9068254782
 11
10.0092786415
 21
69.3597801066
  0
LINE
  5
219
100
AcDbEntity
  8
0
100
AcDbLine
 62
7
  6
BYLAYER
 10
14.0044817896
 20
68.6869118726
 11
14.0044817896
 21
70.319126711
  0
LINE
  5
21A
100
AcDbEntity
  8
0
100
AcDbLine
 62
7
  6
BYLAYER
 10
15.418689464
 20
71.1356150188
 11
15.418689464
 21
68.3257145264
  0
LINE
  5
21B
100
AcDbEntity
  8
0
100
AcDbLine
 62
7
  6
BYLAYER
 10
40.3116860757
 20
33.4132946781
 11
47.7080119308
 21
33.4813617012
  0
LINE
  5
21C
100
AcDbEntity
  8
0
100
AcDbLine
 62
7
  6
BYLAYER
 10
40.3106294563
 20
33.3761083448
 11
47.706995264
 21
33.4401384072
  0
LINE
  5
21D
100
AcDbEntity
  8
0
100
AcDbLine
 62
7
  6
BYLAYER
 10
22.1271975814
 20
43.2073615295
 11
21.1402543465
 21
43.7771605813
  0
LINE
  5
21E
100
AcDbEntity
  8
0
100
AcDbLine
 62
7
  6
BYLAYER
 10
19.4675857214
 20
44.7428546118
 11
18.4805119405
 21
45.3127288361
  0
LINE
  5
21F
100
AcDbEntity
  8
0
100
AcDbLine
 62
7
  6
BYLAYER
 10
22.0857751172
 20
43.2989187591
 11
21.0988318826
 21
43.8687178107
  0
LINE
  5
220
100
AcDbEntity
  8
0
100
AcDbLine
 62
7
  6
BYLAYER
 10
19.4260327115
 20
44.8344870138
 11
18.4390894764
 21
45.4042860657
  0
LINE
  5
221
100
AcDbEntity
  8
0
100
AcDbLine
 62
7
  6
BYLAYER
 10
21.023121713
 20
44.3229737226
 11
21.0368475937
 21
44.3145226824
  0
LINE
  5
222
100
AcDbEntity
  8
0
100
AcDbLine
 62
7
  6
BYLAYER
 10
18.3805102438
 20
48.0637725024
 11
18.3805102438
 21
45.4859348965
  0
LINE
  5
223
100
AcDbEntity
  8
0
100
AcDbLine
 62
7
  6
BYLAYER
 10
18.3805102438
 20
60.9994808218
 11
18.3805102438
 21
63.5773184278
  0
LINE
  5
224
100
AcDbEntity
  8
0
100
AcDbLine
 62
7
  6
BYLAYER
 10
18.4390894764
 20
45.4042860657
 11
18.4390894764
 21
47.9821236716
  0
LINE
  5
225
100
AcDbEntity
  8
0
100
AcDbLine
 62
7
  6
BYLAYER
 10
18.4390894764
 20
60.9178319911
 11
18.4390894764
 21
63.495669597
  0
LINE
  5
226
100
AcDbEntity
  8
0
100
AcDbLine
 62
7
  6
BYLAYER
 10
18.739690083
 20
64.2925217833
 11
18.7396900819
 21
64.1515651759
  0
LINE
  5
227
100
AcDbEntity
  8
0
100
AcDbLine
 62
7
  6
BYLAYER
 10
18.7396900829
 20
48.7789758559
 11
18.7396900829
 21
48.638019252
  0
LINE
  5
228
100
AcDbEntity
  8
0
100
AcDbLine
 62
7
  6
BYLAYER
 10
19.4260327115
 20
62.9258705452
 11
19.4260327115
 21
60.3480329392
  0
LINE
  5
229
100
AcDbEntity
  8
0
100
AcDbLine
 62
7
  6
BYLAYER
 10
19.4260327115
 20
47.4123246197
 11
19.4260327115
 21
44.8344870138
  0
LINE
  5
22A
100
AcDbEntity
  8
0
100
AcDbLine
 62
7
  6
BYLAYER
 10
19.5674543124
 20
44.8006674413
 11
19.5674543124
 21
47.3785050476
  0
LINE
  5
22B
100
AcDbEntity
  8
0
100
AcDbLine
 62
7
  6
BYLAYER
 10
19.5674543124
 20
60.3142133666
 11
19.5674543124
 21
62.892050973
  0
LINE
  5
22C
100
AcDbEntity
  8
0
100
AcDbLine
 62
7
  6
BYLAYER
 10
20.5331397366
 20
63.0414464171
 11
20.5331397366
 21
60.164822565
  0
LINE
  5
22D
100
AcDbEntity
  8
0
100
AcDbLine
 62
7
  6
BYLAYER
 10
20.5331397366
 20
47.5279004917
 11
20.5331397366
 21
44.6512766396
  0
LINE
  5
22E
100
AcDbEntity
  8
0
100
AcDbLine
 62
7
  6
BYLAYER
 10
20.6745613367
 20
44.5918252545
 11
20.6745613367
 21
47.5197127269
  0
LINE
  5
22F
100
AcDbEntity
  8
0
100
AcDbLine
 62
7
  6
BYLAYER
 10
20.6745613372
 20
60.1053711848
 11
20.6745613372
 21
63.0332586541
  0
LINE
  5
230
100
AcDbEntity
  8
0
100
AcDbLine
 62
7
  6
BYLAYER
 10
34.7407557594
 20
83.8693596079
 11
10.0506998571
 21
69.6146342757
  0
LINE
  5
231
100
AcDbEntity
  8
0
100
AcDbLine
 62
7
  6
BYLAYER
 10
10.1506994089
 20
69.6047294202
 11
34.8407553118
 21
83.8594547528
  0
LINE
  5
232
100
AcDbEntity
  8
0
100
AcDbLine
 62
7
  6
BYLAYER
 10
15.2772675193
 20
71.3805636529
 11
13.8630598449
 21
70.5640753452
  0
LINE
  5
233
100
AcDbEntity
  8
0
100
AcDbLine
 62
7
  6
BYLAYER
 10
14.0044817896
 20
70.319126711
 11
15.418689464
 21
71.1356150188
  0
LINE
  5
234
100
AcDbEntity
  8
0
100
AcDbLine
 62
7
  6
BYLAYER
 10
19.4677112781
 20
44.742782179
 11
19.4811575678
 21
44.7357113016
  0
LINE
  5
235
100
AcDbEntity
  8
0
100
AcDbLine
 62
7
  6
BYLAYER
 10
21.0231099687
 20
44.3229526696
 11
20.7159838008
 21
44.5002680302
  0
LINE
  5
236
100
AcDbEntity
  8
0
100
AcDbLine
 62
7
  6
BYLAYER
 10
20.9816693969
 20
44.414520349
 11
20.6745613367
 21
44.5918252545
  0
LINE
  5
237
100
AcDbEntity
  8
0
100
AcDbLine
 62
7
  6
BYLAYER
 10
40.2089240144
 20
33.4038040346
 11
23.1766795089
 21
43.2371525247
  0
LINE
  5
238
100
AcDbEntity
  8
0
100
AcDbLine
 62
7
  6
BYLAYER
 10
18.3805102438
 20
46.0061594977
 11
10.0507011066
 21
50.8152682488
  0
LINE
  5
239
100
AcDbEntity
  8
0
100
AcDbLine
 62
7
  6
BYLAYER
 10
40.1675015506
 20
33.4953612633
 11
23.1984470853
 21
43.292227792
  0
LINE
  5
23A
100
AcDbEntity
  8
0
100
AcDbLine
 62
7
  6
BYLAYER
 10
18.3805102438
 20
46.0738019968
 11
10.0092786415
 21
50.9068254782
  0
LINE
  5
23B
100
AcDbEntity
  8
0
100
AcDbLine
 62
7
  6
BYLAYER
 10
18.4390894764
 20
47.9821236716
 11
19.4260327115
 21
47.4123246197
  0
LINE
  5
23C
100
AcDbEntity
  8
0
100
AcDbLine
 62
7
  6
BYLAYER
 10
21.0988318826
 20
46.4465554166
 11
22.0857751172
 21
45.876756365
  0
LINE
  5
23D
100
AcDbEntity
  8
0
100
AcDbLine
 62
7
  6
BYLAYER
 10
22.1905934965
 20
46.0950090776
 11
21.2036502613
 21
46.6648081296
  0
LINE
  5
23E
100
AcDbEntity
  8
0
100
AcDbLine
 62
7
  6
BYLAYER
 10
19.5308510914
 20
47.630577332
 11
18.5439078555
 21
48.2003763843
  0
LINE
  5
23F
100
AcDbEntity
  8
0
100
AcDbLine
 62
7
  6
BYLAYER
 10
20.6745613367
 20
47.5197127269
 11
20.9816693969
 21
47.3424078168
  0
LINE
  5
240
100
AcDbEntity
  8
0
100
AcDbLine
 62
7
  6
BYLAYER
 10
18.9080779221
 20
48.7184633369
 11
20.5269470996
 21
47.7838299258
  0
LINE
  5
241
100
AcDbEntity
  8
0
100
AcDbLine
 62
7
  6
BYLAYER
 10
21.2024879786
 20
47.3938150407
 11
22.8213575875
 21
46.4591813805
  0
LINE
  5
242
100
AcDbEntity
  8
0
100
AcDbLine
 62
7
  6
BYLAYER
 10
20.7452717202
 20
47.7019595095
 11
21.0523796835
 21
47.5246546554
  0
LINE
  5
243
100
AcDbEntity
  8
0
100
AcDbLine
 62
7
  6
BYLAYER
 10
24.4695507061
 20
47.7433689193
 11
23.7195475832
 21
49.0424052212
  0
LINE
  5
244
100
AcDbEntity
  8
0
100
AcDbLine
 62
7
  6
BYLAYER
 10
23.8609683508
 20
49.1240540523
 11
24.6109714734
 21
47.8250177494
  0
LINE
  5
245
100
AcDbEntity
  8
0
100
AcDbLine
 62
7
  6
BYLAYER
 10
19.6439494697
 20
54.6446475134
 11
20.0221982538
 21
53.8869100937
  0
LINE
  5
246
100
AcDbEntity
  8
0
100
AcDbLine
 62
7
  6
BYLAYER
 10
20.3781971091
 20
53.1737454635
 11
20.7564458919
 21
52.4160080445
  0
LINE
  5
247
100
AcDbEntity
  8
0
100
AcDbLine
 62
7
  6
BYLAYER
 10
21.6842221432
 20
51.8548495912
 11
21.0169949721
 21
53.1914910201
  0
LINE
  5
248
100
AcDbEntity
  8
0
100
AcDbLine
 62
7
  6
BYLAYER
 10
20.4762322842
 20
54.2747889468
 11
19.8152281539
 21
55.5989638987
  0
LINE
  5
249
100
AcDbEntity
  8
0
100
AcDbLine
 62
7
  6
BYLAYER
 10
20.2548501279
 20
55.7562270723
 11
20.9063598099
 21
54.4510721386
  0
LINE
  5
24A
100
AcDbEntity
  8
0
100
AcDbLine
 62
7
  6
BYLAYER
 10
21.4575483569
 20
53.3468883165
 11
22.1238441158
 21
52.0121127656
  0
LINE
  5
24B
100
AcDbEntity
  8
0
100
AcDbLine
 62
7
  6
BYLAYER
 10
20.9816693965
 20
62.8559537431
 11
20.9816693965
 21
59.9280662753
  0
LINE
  5
24C
100
AcDbEntity
  8
0
100
AcDbLine
 62
7
  6
BYLAYER
 10
20.9816693969
 20
47.3424078168
 11
20.9816693969
 21
44.414520349
  0
LINE
  5
24D
100
AcDbEntity
  8
0
100
AcDbLine
 62
7
  6
BYLAYER
 10
21.040248629
 20
47.2351276595
 11
21.0402526495
 21
43.9503661612
  0
LINE
  5
24E
100
AcDbEntity
  8
0
100
AcDbLine
 62
7
  6
BYLAYER
 10
21.0402526495
 20
59.4639120866
 11
21.040248629
 21
62.748673577
  0
LINE
  5
24F
100
AcDbEntity
  8
0
100
AcDbLine
 62
7
  6
BYLAYER
 10
21.0988318826
 20
43.8687178107
 11
21.0988318826
 21
46.4465554166
  0
LINE
  5
250
100
AcDbEntity
  8
0
100
AcDbLine
 62
7
  6
BYLAYER
 10
21.0988318826
 20
59.3822637361
 11
21.0988318826
 21
61.960101342
  0
LINE
  5
251
100
AcDbEntity
  8
0
100
AcDbLine
 62
7
  6
BYLAYER
 10
21.2036462408
 20
47.3717320367
 11
21.2036502613
 21
46.6648081296
  0
LINE
  5
252
100
AcDbEntity
  8
0
100
AcDbLine
 62
7
  6
BYLAYER
 10
21.2036462768
 20
62.8852778896
 11
21.2036502608
 21
62.1783540547
  0
LINE
  5
253
100
AcDbEntity
  8
0
100
AcDbLine
 62
7
  6
BYLAYER
 10
22.0857751172
 20
61.3903022904
 11
22.0857751172
 21
58.8124646844
  0
LINE
  5
254
100
AcDbEntity
  8
0
100
AcDbLine
 62
7
  6
BYLAYER
 10
22.0857751172
 20
45.876756365
 11
22.0857751172
 21
43.2989187591
  0
LINE
  5
255
100
AcDbEntity
  8
0
100
AcDbLine
 62
7
  6
BYLAYER
 10
22.3271966059
 20
43.2805692594
 11
22.3271966059
 21
45.8584068656
  0
LINE
  5
256
100
AcDbEntity
  8
0
100
AcDbLine
 62
7
  6
BYLAYER
 10
22.3271966059
 20
58.7941151849
 11
22.3271966059
 21
61.3719527913
  0
LINE
  5
257
100
AcDbEntity
  8
0
100
AcDbLine
 62
7
  6
BYLAYER
 10
22.9579606959
 20
61.7361250944
 11
22.9579606959
 21
58.8504503074
  0
LINE
  5
258
100
AcDbEntity
  8
0
100
AcDbLine
 62
7
  6
BYLAYER
 10
22.9579606959
 20
46.2225791687
 11
22.9579606959
 21
43.3369043819
  0
LINE
  5
259
100
AcDbEntity
  8
0
100
AcDbLine
 62
7
  6
BYLAYER
 10
23.1993821841
 20
43.318554883
 11
23.1993821841
 21
46.2042296708
  0
LINE
  5
25A
100
AcDbEntity
  8
0
100
AcDbLine
 62
7
  6
BYLAYER
 10
23.1993821841
 20
58.8321008069
 11
23.1993821841
 21
61.7177755948
  0
LINE
  5
25B
100
AcDbEntity
  8
0
100
AcDbLine
 62
7
  6
BYLAYER
 10
18.416888095
 20
63.6923305681
 11
18.8195782157
 21
64.2652181188
  0
LINE
  5
25C
100
AcDbEntity
  8
0
100
AcDbLine
 62
7
  6
BYLAYER
 10
18.984810068
 20
64.3411723347
 11
18.5439078557
 21
63.713922309
  0
LINE
  5
25D
100
AcDbEntity
  8
0
100
AcDbLine
 62
7
  6
BYLAYER
 10
18.5006836748
 20
69.4717369627
 11
17.0864760004
 21
68.6552486549
  0
LINE
  5
25E
100
AcDbEntity
  8
0
100
AcDbLine
 62
7
  6
BYLAYER
 10
17.1864755525
 20
68.6453437992
 11
18.600683227
 21
69.461832107
  0
LINE
  5
25F
100
AcDbEntity
  8
0
100
AcDbLine
 62
7
  6
BYLAYER
 10
56.7123692571
 20
87.9860662102
 11
57.5414744558
 21
88.2242157572
  0
LINE
  5
260
100
AcDbEntity
  8
0
100
AcDbLine
 62
7
  6
BYLAYER
 10
53.2080889847
 20
86.9443751213
 11
54.1740367891
 21
87.2218309043
  0
LINE
  5
261
100
AcDbEntity
  8
0
100
AcDbLine
 62
7
  6
BYLAYER
 10
55.2430801327
 20
87.4264515061
 11
56.1124331567
 21
87.6761617108
  0
LWPOLYLINE
  5
262
100
AcDbEntity
  8
0
100
AcDbPolyline
 62
7
  6
BYLAYER
 90
3
 70
0
 10
20.5025461222
 20
44.5691199894
 10
20.6216440751
 20
44.5409087576
 10
20.7159062812
 20
44.500340718
  0
LINE
  5
263
100
AcDbEntity
  8
0
100
AcDbLine
 62
7
  6
BYLAYER
 10
20.8159820891
 20
47.8842063098
 11
21.1230892037
 21
47.7069019365
  0
LINE
  5
264
100
AcDbEntity
  8
0
100
AcDbLine
 62
7
  6
BYLAYER
 10
22.9261759668
 20
46.6774340932
 11
21.3073067657
 21
47.612067518
  0
LINE
  5
265
100
AcDbEntity
  8
0
100
AcDbLine
 62
7
  6
BYLAYER
 10
20.6317655119
 20
48.0020826195
 11
19.0128963015
 21
48.9367160496
  0
LINE
  5
266
100
AcDbEntity
  8
0
100
AcDbLine
 62
7
  6
BYLAYER
 10
9.9506994094
 20
69.4414289371
 11
10.009278642
 21
69.3597801063
  0
LINE
  5
267
100
AcDbEntity
  8
0
100
AcDbLine
 62
7
  6
BYLAYER
 10
22.1653553743
 20
54.6535680651
 11
22.5213542309
 21
53.9404034342
  0
LINE
  5
268
100
AcDbEntity
  8
0
100
AcDbLine
 62
7
  6
BYLAYER
 10
19.0104358149
 20
53.1047218303
 11
19.6439494697
 21
54.6446475134
  0
LINE
  5
269
100
AcDbEntity
  8
0
100
AcDbLine
 62
7
  6
BYLAYER
 10
19.9395174201
 20
54.0525427783
 11
19.7175396515
 21
53.5129659839
  0
LINE
  5
26A
100
AcDbEntity
  8
0
100
AcDbLine
 62
7
  6
BYLAYER
 10
46.9284299286
 20
83.8961833241
 11
48.5798254987
 21
84.8496113098
  0
LINE
  5
26B
100
AcDbEntity
  8
0
100
AcDbLine
 62
7
  6
BYLAYER
 10
50.0776730191
 20
85.1370394092
 11
53.2080889846
 21
86.9443751213
  0
LINE
  5
26C
100
AcDbEntity
  8
0
100
AcDbLine
 62
7
  6
BYLAYER
 10
54.8587200548
 20
87.2045424363
 11
55.2430801327
 21
87.4264515061
  0
LINE
  5
26D
100
AcDbEntity
  8
0
100
AcDbLine
 62
7
  6
BYLAYER
 10
56.187233209
 20
87.6828805812
 11
56.7123692571
 21
87.9860662102
  0
LWPOLYLINE
  5
26E
100
AcDbEntity
  8
0
100
AcDbPolyline
 62
7
  6
BYLAYER
 90
4
 70
0
 10
23.106148633
 20
43.2583694762
 10
23.1094915764
 20
43.2581083052
 10
23.1519515753
 20
43.2487917923
 10
23.1766344845
 20
43.2371779546
  0
LINE
  5
26F
100
AcDbEntity
  8
0
100
AcDbLine
 62
7
  6
BYLAYER
 10
37.3403681583
 20
42.7373730912
 11
37.4544870287
 21
42.7260737735
  0
LINE
  5
270
100
AcDbEntity
  8
0
100
AcDbLine
 62
7
  6
BYLAYER
 10
20.5025627645
 20
44.5690961124
 11
19.5368773395
 21
44.7184869141
  0
LINE
  5
271
100
AcDbEntity
  8
0
100
AcDbLine
 62
7
  6
BYLAYER
 10
19.5674543124
 20
44.8006674413
 11
20.5331397366
 21
44.6512766396
  0
LINE
  5
272
100
AcDbEntity
  8
0
100
AcDbLine
 62
7
  6
BYLAYER
 10
37.3742740963
 20
42.7014678832
 11
32.0070113508
 21
45.8001883718
  0
LINE
  5
273
100
AcDbEntity
  8
0
100
AcDbLine
 62
7
  6
BYLAYER
 10
37.3403681583
 20
42.7373730911
 11
32.0184589209
 21
45.8099093119
  0
LINE
  5
274
100
AcDbEntity
  8
0
100
AcDbLine
 62
7
  6
BYLAYER
 10
36.8496189754
 20
43.2493215317
 11
36.7679689775
 21
43.2964611135
  0
LINE
  5
275
100
AcDbEntity
  8
0
100
AcDbLine
 62
7
  6
BYLAYER
 10
34.7282897999
 20
44.4740437953
 11
34.6466398021
 21
44.5211833771
  0
LINE
  5
276
100
AcDbEntity
  8
0
100
AcDbLine
 62
7
  6
BYLAYER
 10
32.5661356262
 20
45.7223358494
 11
32.4844856283
 21
45.7694754312
  0
LINE
  5
277
100
AcDbEntity
  8
0
100
AcDbLine
 62
7
  6
BYLAYER
 10
32.4844856283
 20
46.3410271225
 11
32.5661356262
 21
46.2938875407
  0
LINE
  5
278
100
AcDbEntity
  8
0
100
AcDbLine
 62
7
  6
BYLAYER
 10
34.6466398021
 20
45.0927350684
 11
34.7282897999
 21
45.0455954866
  0
LINE
  5
279
100
AcDbEntity
  8
0
100
AcDbLine
 62
7
  6
BYLAYER
 10
36.7679689775
 20
43.8680128049
 11
36.8496189754
 21
43.8208732231
  0
LINE
  5
27A
100
AcDbEntity
  8
0
100
AcDbLine
 62
7
  6
BYLAYER
 10
22.2449875672
 20
43.1813605216
 11
23.1108184649
 21
43.2586900492
  0
LINE
  5
27B
100
AcDbEntity
  8
0
100
AcDbLine
 62
7
  6
BYLAYER
 10
22.3271966059
 20
43.2805692594
 11
22.9579606959
 21
43.3369043819
  0
LINE
  5
27C
100
AcDbEntity
  8
0
100
AcDbLine
 62
7
  6
BYLAYER
 10
23.1131865172
 20
43.258904287
 11
23.1149935526
 21
43.2590486966
  0
LINE
  5
27D
100
AcDbEntity
  8
0
100
AcDbLine
 62
7
  6
BYLAYER
 10
20.7564458919
 20
52.4160080445
 11
19.0104358149
 21
53.1047218303
  0
LINE
  5
27E
100
AcDbEntity
  8
0
100
AcDbLine
 62
7
  6
BYLAYER
 10
19.7175396515
 20
53.5129659839
 11
20.4591030528
 21
53.2204562532
  0
LINE
  5
27F
100
AcDbEntity
  8
0
100
AcDbLine
 62
7
  6
BYLAYER
 10
35.7889543877
 20
46.0662391891
 11
35.7073043898
 21
46.1133787709
  0
LINE
  5
280
100
AcDbEntity
  8
0
100
AcDbLine
 62
7
  6
BYLAYER
 10
33.6676252122
 20
47.2909614527
 11
33.5859752143
 21
47.3381010345
  0
LINE
  5
281
100
AcDbEntity
  8
0
100
AcDbLine
 62
7
  6
BYLAYER
 10
33.5859752143
 20
47.9096527259
 11
33.6676252122
 21
47.8625131441
  0
LINE
  5
282
100
AcDbEntity
  8
0
100
AcDbLine
 62
7
  6
BYLAYER
 10
35.7073043898
 20
46.6849304623
 11
35.7889543877
 21
46.6377908805
  0
LINE
  5
283
100
AcDbEntity
  8
0
100
AcDbLine
 62
7
  6
BYLAYER
 10
32.0428529149
 20
49.0291753234
 11
37.2994995469
 21
45.994317633
  0
LINE
  5
284
100
AcDbEntity
  8
0
100
AcDbLine
 62
7
  6
BYLAYER
 10
32.0345720233
 20
49.0502862386
 11
37.3237680408
 21
45.9966365768
  0
LINE
  5
285
100
AcDbEntity
  8
0
100
AcDbLine
 62
7
  6
BYLAYER
 10
40.1675015502
 20
33.4953612642
 11
40.2089240144
 21
33.4038040346
  0
LINE
  5
286
100
AcDbEntity
  8
0
100
AcDbLine
 62
7
  6
BYLAYER
 10
31.8590259013
 20
46.0565052662
 11
31.8590259013
 21
48.9489317397
  0
LINE
  5
287
100
AcDbEntity
  8
0
100
AcDbLine
 62
7
  6
BYLAYER
 10
31.8731680958
 20
46.0615590059
 11
31.8731680958
 21
48.9312049463
  0
LINE
  5
288
100
AcDbEntity
  8
0
100
AcDbLine
 62
7
  6
BYLAYER
 10
18.4168880946
 20
48.1787846421
 11
18.7984491119
 21
48.7216128502
  0
LINE
  5
289
100
AcDbEntity
  8
0
100
AcDbLine
 62
7
  6
BYLAYER
 10
18.9080779221
 20
48.7184633369
 11
18.5439078555
 21
48.2003763843
  0
LINE
  5
28A
100
AcDbEntity
  8
0
100
AcDbLine
 62
7
  6
BYLAYER
 10
22.1905934964
 20
61.6085550025
 11
22.9542622006
 21
62.0494599228
  0
LINE
  5
28B
100
AcDbEntity
  8
0
100
AcDbLine
 62
7
  6
BYLAYER
 10
19.4677112782
 20
60.2563281043
 11
19.4811575685
 21
60.2492572266
  0
LINE
  5
28C
100
AcDbEntity
  8
0
100
AcDbLine
 62
7
  6
BYLAYER
 10
22.1271975814
 20
58.7209074549
 11
21.1402543466
 21
59.2907065066
  0
LINE
  5
28D
100
AcDbEntity
  8
0
100
AcDbLine
 62
7
  6
BYLAYER
 10
19.4675857216
 20
60.2564005371
 11
18.4805119405
 21
60.8262747615
  0
LINE
  5
28E
100
AcDbEntity
  8
0
100
AcDbLine
 62
7
  6
BYLAYER
 10
22.0857751172
 20
58.8124646844
 11
21.0988318826
 21
59.3822637361
  0
LINE
  5
28F
100
AcDbEntity
  8
0
100
AcDbLine
 62
7
  6
BYLAYER
 10
19.4260327115
 20
60.3480329392
 11
18.4390894764
 21
60.9178319911
  0
LINE
  5
290
100
AcDbEntity
  8
0
100
AcDbLine
 62
7
  6
BYLAYER
 10
20.4986486362
 20
60.0758624655
 11
20.631765425
 21
59.9990091903
  0
LINE
  5
291
100
AcDbEntity
  8
0
100
AcDbLine
 62
7
  6
BYLAYER
 10
22.804096148
 20
58.7448418357
 11
22.9261759668
 21
58.6743606139
  0
LINE
  5
292
100
AcDbEntity
  8
0
100
AcDbLine
 62
7
  6
BYLAYER
 10
20.8159821037
 20
59.9041752819
 11
21.040249588
 21
59.774697292
  0
LINE
  5
293
100
AcDbEntity
  8
0
100
AcDbLine
 62
7
  6
BYLAYER
 10
21.0231277689
 20
59.8364883295
 11
20.7159838009
 21
60.0138139555
  0
LINE
  5
294
100
AcDbEntity
  8
0
100
AcDbLine
 62
7
  6
BYLAYER
 10
20.9816693965
 20
59.9280662753
 11
20.6745613372
 21
60.1053711848
  0
LINE
  5
295
100
AcDbEntity
  8
0
100
AcDbLine
 62
7
  6
BYLAYER
 10
21.0231456367
 20
59.8365058355
 11
21.0402490919
 21
59.8250619166
  0
LINE
  5
296
100
AcDbEntity
  8
0
100
AcDbLine
 62
7
  6
BYLAYER
 10
32.4844856283
 20
45.7694754312
 11
32.4844856283
 21
46.3410271225
  0
LINE
  5
297
100
AcDbEntity
  8
0
100
AcDbLine
 62
7
  6
BYLAYER
 10
32.5661356262
 20
46.2938875407
 11
32.5661356262
 21
45.7223358494
  0
LINE
  5
298
100
AcDbEntity
  8
0
100
AcDbLine
 62
7
  6
BYLAYER
 10
33.5859752143
 20
47.3381010345
 11
33.5859752143
 21
47.9096527259
  0
LINE
  5
299
100
AcDbEntity
  8
0
100
AcDbLine
 62
7
  6
BYLAYER
 10
33.6676252122
 20
47.8625131441
 11
33.6676252122
 21
47.2909614527
  0
LINE
  5
29A
100
AcDbEntity
  8
0
100
AcDbLine
 62
7
  6
BYLAYER
 10
34.6466398021
 20
44.5211833771
 11
34.6466398021
 21
45.0927350684
  0
LINE
  5
29B
100
AcDbEntity
  8
0
100
AcDbLine
 62
7
  6
BYLAYER
 10
34.7282897999
 20
45.0455954866
 11
34.7282897999
 21
44.4740437953
  0
LINE
  5
29C
100
AcDbEntity
  8
0
100
AcDbLine
 62
7
  6
BYLAYER
 10
34.8407553127
 20
83.8594547523
 11
34.8407548323
 21
83.8961542304
  0
LINE
  5
29D
100
AcDbEntity
  8
0
100
AcDbLine
 62
7
  6
BYLAYER
 10
22.9579606959
 20
61.7361250944
 11
22.3271966059
 21
61.3719527913
  0
LINE
  5
29E
100
AcDbEntity
  8
0
100
AcDbLine
 62
7
  6
BYLAYER
 10
20.5331397366
 20
47.5279004917
 11
19.5674543124
 21
47.3785050476
  0
LINE
  5
29F
100
AcDbEntity
  8
0
100
AcDbLine
 62
7
  6
BYLAYER
 10
19.5308510914
 20
47.630577332
 11
20.4965370057
 21
47.7799727899
  0
LINE
  5
2A0
100
AcDbEntity
  8
0
100
AcDbLine
 62
7
  6
BYLAYER
 10
47.7052454697
 20
52.2553971936
 11
40.3089223185
 21
52.193265205
  0
LINE
  5
2A1
100
AcDbEntity
  8
0
100
AcDbLine
 62
7
  6
BYLAYER
 10
47.7080095769
 20
52.0275186531
 11
40.3116860296
 21
51.977793276
  0
LINE
  5
2A2
100
AcDbEntity
  8
0
100
AcDbLine
 62
7
  6
BYLAYER
 10
18.4390894764
 20
63.495669597
 11
19.4260327115
 21
62.9258705452
  0
LINE
  5
2A3
100
AcDbEntity
  8
0
100
AcDbLine
 62
7
  6
BYLAYER
 10
21.0988318826
 20
61.960101342
 11
22.0857751172
 21
61.3903022904
  0
LINE
  5
2A4
100
AcDbEntity
  8
0
100
AcDbLine
 62
7
  6
BYLAYER
 10
22.1905934964
 20
61.6085550025
 11
21.2036502608
 21
62.1783540547
  0
LINE
  5
2A5
100
AcDbEntity
  8
0
100
AcDbLine
 62
7
  6
BYLAYER
 10
19.530851091
 20
63.144123257
 11
18.5439078557
 21
63.713922309
  0
LINE
  5
2A6
100
AcDbEntity
  8
0
100
AcDbLine
 62
7
  6
BYLAYER
 10
20.6745613372
 20
63.0332586541
 11
20.9816693965
 21
62.8559537431
  0
LINE
  5
2A7
100
AcDbEntity
  8
0
100
AcDbLine
 62
7
  6
BYLAYER
 10
10.0092786415
 20
69.3597801066
 11
18.7406251977
 21
64.3188488631
  0
LINE
  5
2A8
100
AcDbEntity
  8
0
100
AcDbLine
 62
7
  6
BYLAYER
 10
23.198447101
 20
61.7451824113
 11
40.1675015506
 21
51.9483158917
  0
LINE
  5
2A9
100
AcDbEntity
  8
0
100
AcDbLine
 62
7
  6
BYLAYER
 10
21.0864877753
 20
63.0742064554
 11
20.7793798218
 21
63.2515113168
  0
LINE
  5
2AA
100
AcDbEntity
  8
0
100
AcDbLine
 62
7
  6
BYLAYER
 10
22.9542622006
 20
62.0494599228
 11
18.984810068
 21
64.3411723347
  0
LINE
  5
2AB
100
AcDbEntity
  8
0
100
AcDbLine
 62
7
  6
BYLAYER
 10
40.3089223185
 20
52.193265205
 11
23.2927308475
 21
62.017345681
  0
LINE
  5
2AC
100
AcDbEntity
  8
0
100
AcDbLine
 62
7
  6
BYLAYER
 10
18.9291829491
 20
64.5365842419
 11
10.1506994089
 21
69.6047294202
  0
LINE
  5
2AD
100
AcDbEntity
  8
0
100
AcDbLine
 62
7
  6
BYLAYER
 10
35.7073043898
 20
46.1133787709
 11
35.7073043898
 21
46.6849304623
  0
LINE
  5
2AE
100
AcDbEntity
  8
0
100
AcDbLine
 62
7
  6
BYLAYER
 10
35.7889543877
 20
46.6377908805
 11
35.7889543877
 21
46.0662391891
  0
LINE
  5
2AF
100
AcDbEntity
  8
0
100
AcDbLine
 62
7
  6
BYLAYER
 10
36.7679689775
 20
43.2964611135
 11
36.7679689775
 21
43.8680128049
  0
LINE
  5
2B0
100
AcDbEntity
  8
0
100
AcDbLine
 62
7
  6
BYLAYER
 10
36.8496189754
 20
43.8208732231
 11
36.8496189754
 21
43.2493215317
  0
LINE
  5
2B1
100
AcDbEntity
  8
0
100
AcDbLine
 62
7
  6
BYLAYER
 10
37.5017615079
 20
45.6439915847
 11
37.5017615079
 21
42.8305562487
  0
LINE
  5
2B2
100
AcDbEntity
  8
0
100
AcDbLine
 62
7
  6
BYLAYER
 10
37.5159037024
 20
45.6638496965
 11
37.5159037024
 21
42.7832401123
  0
LINE
  5
2B3
100
AcDbEntity
  8
0
100
AcDbLine
 62
7
  6
BYLAYER
 10
31.9228712685
 20
49.0410551347
 11
31.8731680953
 21
48.9312049443
  0
LINE
  5
2B4
100
AcDbEntity
  8
0
100
AcDbLine
 62
7
  6
BYLAYER
 10
61.6710686341
 20
78.9555577443
 11
61.862346201
 21
79.0659912398
  0
LINE
  5
2B5
100
AcDbEntity
  8
0
100
AcDbLine
 62
7
  6
BYLAYER
 10
20.8751615248
 20
54.505109476
 11
20.4762322844
 21
54.2747889465
  0
LINE
  5
2B6
100
AcDbEntity
  8
0
100
AcDbLine
 62
7
  6
BYLAYER
 10
20.4656035718
 20
54.0467615479
 11
20.9712428357
 21
54.3386907705
  0
LINE
  5
2B7
100
AcDbEntity
  8
0
100
AcDbLine
 62
7
  6
BYLAYER
 10
19.7175396515
 20
53.5129659839
 11
19.0104358143
 21
53.10472183
  0
LWPOLYLINE
  5
2B8
100
AcDbEntity
  8
0
100
AcDbPolyline
 62
7
  6
BYLAYER
 90
3
 70
0
 10
20.5025516957
 20
60.0826650664
 10
20.6431936735
 20
60.0470063212
 10
20.7159279441
 20
60.0138740974
  0
LINE
  5
2B9
100
AcDbEntity
  8
0
100
AcDbLine
 62
7
  6
BYLAYER
 10
21.0853009454
 20
53.581989617
 11
20.3781971082
 21
53.1737454631
  0
LINE
  5
2BA
100
AcDbEntity
  8
0
100
AcDbLine
 62
7
  6
BYLAYER
 10
21.5245886523
 20
53.7391332166
 11
20.8174848151
 21
53.3308890627
  0
LINE
  5
2BB
100
AcDbEntity
  8
0
100
AcDbLine
 62
7
  6
BYLAYER
 10
21.4675880954
 20
53.5622799126
 11
22.1858403411
 21
53.9756785808
  0
LINE
  5
2BC
100
AcDbEntity
  8
0
100
AcDbLine
 62
7
  6
BYLAYER
 10
21.0169949715
 20
53.1914910201
 11
21.4146997991
 21
53.4211046388
  0
LINE
  5
2BD
100
AcDbEntity
  8
0
100
AcDbLine
 62
7
  6
BYLAYER
 10
22.0820363555
 20
52.0845263629
 11
21.6842221426
 21
51.854849591
  0
LINE
  5
2BE
100
AcDbEntity
  8
0
100
AcDbLine
 62
7
  6
BYLAYER
 10
20.4538011473
 20
54.0413046513
 11
20.4654821102
 21
54.04697102
  0
LINE
  5
2BF
100
AcDbEntity
  8
0
100
AcDbLine
 62
7
  6
BYLAYER
 10
21.478736506
 20
53.5674344229
 11
21.4677028267
 21
53.5620820476
  0
LINE
  5
2C0
100
AcDbEntity
  8
0
100
AcDbLine
 62
7
  6
BYLAYER
 10
22.1747153822
 20
53.9704834171
 11
22.1858403552
 21
53.9756785858
  0
LINE
  5
2C1
100
AcDbEntity
  8
0
100
AcDbLine
 62
7
  6
BYLAYER
 10
19.8152281539
 20
55.5989638987
 11
20.2548501279
 21
55.7562270723
  0
LINE
  5
2C2
100
AcDbEntity
  8
0
100
AcDbLine
 62
7
  6
BYLAYER
 10
20.5025627379
 20
60.0826420419
 11
19.5368773396
 21
60.2320328395
  0
LINE
  5
2C3
100
AcDbEntity
  8
0
100
AcDbLine
 62
7
  6
BYLAYER
 10
19.5674543124
 20
60.3142133666
 11
20.5331397366
 21
60.164822565
  0
LINE
  5
2C4
100
AcDbEntity
  8
0
100
AcDbLine
 62
7
  6
BYLAYER
 10
21.1400446547
 20
54.286790179
 11
22.1653553743
 21
54.6535680651
  0
LINE
  5
2C5
100
AcDbEntity
  8
0
100
AcDbLine
 62
7
  6
BYLAYER
 10
20.0221982538
 20
53.8869100937
 11
20.4538011473
 21
54.0413046513
  0
LINE
  5
2C6
100
AcDbEntity
  8
0
100
AcDbLine
 62
7
  6
BYLAYER
 10
21.0853009457
 20
53.5819896171
 11
21.5253983673
 21
53.7394228708
  0
LINE
  5
2C7
100
AcDbEntity
  8
0
100
AcDbLine
 62
7
  6
BYLAYER
 10
22.1858403552
 20
53.9756785858
 11
22.4555785856
 21
54.0721703287
  0
LINE
  5
2C8
100
AcDbEntity
  8
0
100
AcDbLine
 62
7
  6
BYLAYER
 10
22.5213542309
 20
53.9404034342
 11
21.478736506
 21
53.5674344229
  0
LINE
  5
2C9
100
AcDbEntity
  8
0
100
AcDbLine
 62
7
  6
BYLAYER
 10
20.8182945292
 20
53.3311787165
 11
20.3781971091
 21
53.1737454635
  0
LINE
  5
2CA
100
AcDbEntity
  8
0
100
AcDbLine
 62
7
  6
BYLAYER
 10
22.244987567
 20
58.694906447
 11
22.9058557686
 21
58.7539302424
  0
LINE
  5
2CB
100
AcDbEntity
  8
0
100
AcDbLine
 62
7
  6
BYLAYER
 10
22.3271966059
 20
58.7941151849
 11
22.9579606959
 21
58.8504503074
  0
LINE
  5
2CC
100
AcDbEntity
  8
0
100
AcDbLine
 62
7
  6
BYLAYER
 10
22.1905934965
 20
46.0950090776
 11
22.8213575875
 21
46.4591813805
  0
LINE
  5
2CD
100
AcDbEntity
  8
0
100
AcDbLine
 62
7
  6
BYLAYER
 10
22.9579606959
 20
46.2225791687
 11
22.3271966059
 21
45.8584068656
  0
LINE
  5
2CE
100
AcDbEntity
  8
0
100
AcDbLine
 62
7
  6
BYLAYER
 10
22.1238441158
 20
52.0121127656
 11
21.6842221432
 21
51.8548495912
  0
LINE
  5
2CF
100
AcDbEntity
  8
0
100
AcDbLine
 62
7
  6
BYLAYER
 10
32.0428529149
 20
49.0291753234
 11
32.0569953538
 21
49.0373404155
  0
LINE
  5
2D0
100
AcDbEntity
  8
0
100
AcDbLine
 62
7
  6
BYLAYER
 10
20.5331397366
 20
63.0414464171
 11
19.5674543124
 21
62.892050973
  0
LINE
  5
2D1
100
AcDbEntity
  8
0
100
AcDbLine
 62
7
  6
BYLAYER
 10
19.530851091
 20
63.144123257
 11
20.4965365154
 21
63.2935187022
  0
LINE
  5
2D2
100
AcDbEntity
  8
0
100
AcDbLine
 62
7
  6
BYLAYER
 10
77.0555401036
 20
70.0735299383
 11
76.9555418003
 21
70.0636243614
  0
LINE
  5
2D3
100
AcDbEntity
  8
0
100
AcDbLine
 62
7
  6
BYLAYER
 10
17.1864755525
 20
68.6453437992
 11
17.0864760004
 21
68.6552486549
  0
LINE
  5
2D4
100
AcDbEntity
  8
0
100
AcDbLine
 62
7
  6
BYLAYER
 10
10.1506994089
 20
69.6047294202
 11
10.0506998571
 21
69.6146342757
  0
LINE
  5
2D5
100
AcDbEntity
  8
0
100
AcDbLine
 62
7
  6
BYLAYER
 10
18.5006836748
 20
69.4717369627
 11
18.600683227
 21
69.461832107
  0
LINE
  5
2D6
100
AcDbEntity
  8
0
100
AcDbLine
 62
7
  6
BYLAYER
 10
73.690225273
 20
50.1248476164
 11
73.7047376221
 21
50.1169022553
  0
LINE
  5
2D7
100
AcDbEntity
  8
0
100
AcDbLine
 62
7
  6
BYLAYER
 10
62.7116714362
 20
80.0708158783
 11
62.5729917076
 21
79.8158313617
  0
LINE
  5
2D8
100
AcDbEntity
  8
0
100
AcDbLine
 62
7
  6
BYLAYER
 10
33.6676252122
 20
47.3852414008
 11
33.5859752148
 21
47.3381010342
  0
LINE
  5
2D9
100
AcDbEntity
  8
0
100
AcDbLine
 62
7
  6
BYLAYER
 10
31.871820906
 20
46.063892421
 11
31.8590259013
 21
46.0565052656
  0
LINE
  5
2DA
100
AcDbEntity
  8
0
100
AcDbLine
 62
7
  6
BYLAYER
 10
32.0070113508
 20
45.8001883718
 11
32.019806332
 21
45.8075755135
  0
LINE
  5
2DB
100
AcDbEntity
  8
0
100
AcDbLine
 62
7
  6
BYLAYER
 10
32.5661356262
 20
45.8166157969
 11
32.4844856288
 21
45.7694754303
  0
LINE
  5
2DC
100
AcDbEntity
  8
0
100
AcDbLine
 62
7
  6
BYLAYER
 10
35.7889543877
 20
46.1605191372
 11
35.7073043903
 21
46.1133787707
  0
LINE
  5
2DD
100
AcDbEntity
  8
0
100
AcDbLine
 62
7
  6
BYLAYER
 10
53.0598458037
 20
83.8946743464
 11
53.0598461971
 21
83.8594985456
  0
LINE
  5
2DE
100
AcDbEntity
  8
0
100
AcDbLine
 62
7
  6
BYLAYER
 10
47.7052454697
 20
52.2553971936
 11
76.9555417998
 21
70.0636243617
  0
LINE
  5
2DF
100
AcDbEntity
  8
0
100
AcDbLine
 62
7
  6
BYLAYER
 10
47.8503637739
 20
52.0126404174
 11
77.100665295
 21
69.8208702653
  0
LINE
  5
2E0
100
AcDbEntity
  8
0
100
AcDbLine
 62
7
  6
BYLAYER
 10
73.7047376226
 20
66.9368520481
 11
48.135559376
 21
51.3697713836
  0
LINE
  5
2E1
100
AcDbEntity
  8
0
100
AcDbLine
 62
7
  6
BYLAYER
 10
34.7282897999
 20
44.5683237428
 11
34.6466398026
 21
44.5211833762
  0
LINE
  5
2E2
100
AcDbEntity
  8
0
100
AcDbLine
 62
7
  6
BYLAYER
 10
37.3187051008
 20
46.0054058986
 11
37.2994995469
 21
45.994317633
  0
LINE
  5
2E3
100
AcDbEntity
  8
0
100
AcDbLine
 62
7
  6
BYLAYER
 10
37.5017615079
 20
45.6439915847
 11
37.5209669744
 21
45.6550797998
  0
LINE
  5
2E4
100
AcDbEntity
  8
0
100
AcDbLine
 62
7
  6
BYLAYER
 10
36.8496189754
 20
43.3436014792
 11
36.767968978
 21
43.2964611126
  0
LINE
  5
2E5
100
AcDbEntity
  8
0
100
AcDbLine
 62
7
  6
BYLAYER
 10
37.5159037024
 20
42.8387211997
 11
37.5017615079
 21
42.8305562487
  0
LINE
  5
2E6
100
AcDbEntity
  8
0
100
AcDbLine
 62
7
  6
BYLAYER
 10
60.4540424065
 20
79.8437669747
 11
60.4529528588
 21
79.6588213051
  0
LINE
  5
2E7
100
AcDbEntity
  8
0
100
AcDbLine
 62
7
  6
BYLAYER
 10
47.8503655862
 20
33.5596868936
 11
47.8092472413
 21
33.4683103897
  0
LINE
  5
2E8
100
AcDbEntity
  8
0
100
AcDbLine
 62
7
  6
BYLAYER
 10
53.0598461983
 20
83.8594985453
 11
34.8407553118
 21
83.8594547528
  0
LINE
  5
2E9
100
AcDbEntity
  8
0
100
AcDbLine
 62
7
  6
BYLAYER
 10
34.8407548319
 20
83.8961542689
 11
53.0598457163
 21
83.8961980622
  0
LINE
  5
2EA
100
AcDbEntity
  8
0
100
AcDbLine
 62
7
  6
BYLAYER
 10
34.7407557594
 20
83.8693596079
 11
34.8407553112
 21
83.8594547524
  0
LINE
  5
2EB
100
AcDbEntity
  8
0
100
AcDbLine
 62
7
  6
BYLAYER
 10
73.690225273
 20
50.1248476164
 11
48.1314453608
 21
34.5640976877
  0
LINE
  5
2EC
100
AcDbEntity
  8
0
100
AcDbLine
 62
7
  6
BYLAYER
 10
48.1355593767
 20
34.5498215915
 11
73.7047376221
 21
50.1169022553
  0
LINE
  5
2ED
100
AcDbEntity
  8
0
100
AcDbLine
 62
7
  6
BYLAYER
 10
77.100665295
 20
51.3679156382
 11
47.8503656396
 21
33.5596869261
  0
LINE
  5
2EE
100
AcDbEntity
  8
0
100
AcDbLine
 62
7
  6
BYLAYER
 10
47.8092474476
 20
33.4683105153
 11
77.0595469496
 21
51.276539134
  0
LINE
  5
2EF
100
AcDbEntity
  8
0
100
AcDbLine
 62
7
  6
BYLAYER
 10
53.0598461983
 20
83.8594985453
 11
76.9555417998
 21
70.0636243617
  0
LINE
  5
2F0
100
AcDbEntity
  8
0
100
AcDbLine
 62
7
  6
BYLAYER
 10
77.0555401034
 20
70.0735299384
 11
53.1598445011
 21
83.8694041225
  0
LINE
  5
2F1
100
AcDbEntity
  8
0
100
AcDbLine
 62
7
  6
BYLAYER
 10
57.5414744557
 20
88.2242157571
 11
57.7170738476
 21
88.226578017
  0
LINE
  5
2F2
100
AcDbEntity
  8
0
100
AcDbLine
 62
7
  6
BYLAYER
 10
58.0072367429
 20
88.2191844269
 11
57.7170738479
 21
88.2265780172
  0
LINE
  5
2F3
100
AcDbEntity
  8
0
100
AcDbLine
 62
7
  6
BYLAYER
 10
56.6817825894
 20
86.3775516384
 11
56.1793863957
 21
86.6636807593
  0
LINE
  5
2F4
100
AcDbEntity
  8
0
100
AcDbLine
 62
7
  6
BYLAYER
 10
77.100665295
 20
69.8208702653
 11
77.100665295
 21
51.3679156382
  0
LINE
  5
2F5
100
AcDbEntity
  8
0
100
AcDbLine
 62
7
  6
BYLAYER
 10
77.1555418001
 20
69.9003238781
 11
77.1555418001
 21
51.447369251
  0
ARC
  5
2F6
100
AcDbEntity
  8
0
100
AcDbCircle
 62
7
  6
BYLAYER
 10
22.8369285386
 20
43.3182485524
 40
0.3624537756
100
AcDbArc
 50
355.8831623216
 51
0.0484239138
  0
ARC
  5
2F7
100
AcDbEntity
  8
0
100
AcDbCircle
 62
7
  6
BYLAYER
 10
21.4382228236
 20
46.4139247252
 40
0.3440593173
100
AcDbArc
 50
146.8892986142
 51
156.6299246595
  0
ARC
  5
2F8
100
AcDbEntity
  8
0
100
AcDbCircle
 62
7
  6
BYLAYER
 10
22.2271320623
 20
43.6078323427
 40
0.3427405657
100
AcDbArc
 50
268.7157307386
 51
272.9260364084
  0
ARC
  5
2F9
100
AcDbEntity
  8
0
100
AcDbCircle
 62
7
  6
BYLAYER
 10
19.5672232358
 20
45.1401187465
 40
0.3394513837
100
AcDbArc
 50
261.2680561972
 51
270.0390032739
  0
ARC
  5
2FA
100
AcDbEntity
  8
0
100
AcDbCircle
 62
7
  6
BYLAYER
 10
23.0617213471
 20
43.0371131326
 40
0.3149905734
100
AcDbArc
 50
78.1305631304
 51
80.5315453242
  0
ARC
  5
2FB
100
AcDbEntity
  8
0
100
AcDbCircle
 62
7
  6
BYLAYER
 10
22.2271958847
 20
43.3805675898
 40
0.2
100
AcDbArc
 50
239.9876896127
 51
275.1036881235
  0
ARC
  5
2FC
100
AcDbEntity
  8
0
100
AcDbCircle
 62
7
  6
BYLAYER
 10
18.5805102438
 20
45.4859348965
 40
0.2
100
AcDbArc
 50
180.0000001616
 51
240.1192330861
  0
ARC
  5
2FD
100
AcDbEntity
  8
0
100
AcDbCircle
 62
7
  6
BYLAYER
 10
21.2402526496
 20
43.9503666417
 40
0.2
100
AcDbArc
 50
180.0001374648
 51
240.0966644258
  0
ARC
  5
2FE
100
AcDbEntity
  8
0
100
AcDbCircle
 62
7
  6
BYLAYER
 10
19.567453479
 20
44.9161358446
 40
0.2
100
AcDbArc
 50
244.4385068318
 51
261.2060955965
  0
ARC
  5
2FF
100
AcDbEntity
  8
0
100
AcDbCircle
 62
7
  6
BYLAYER
 10
21.2781528539
 20
43.8686294736
 40
0.1793209933
100
AcDbArc
 50
179.9717749003
 51
183.3445339283
  0
ARC
  5
300
100
AcDbEntity
  8
0
100
AcDbCircle
 62
7
  6
BYLAYER
 10
22.8021082859
 20
43.2956384344
 40
0.1612229934
100
AcDbArc
 50
10.1453534846
 51
14.8302241803
  0
ARC
  5
301
100
AcDbEntity
  8
0
100
AcDbCircle
 62
7
  6
BYLAYER
 10
21.0570904003
 20
44.3817264245
 40
0.0678657057
100
AcDbArc
 50
228.155099483
 51
239.9476771555
  0
ARC
  5
302
100
AcDbEntity
  8
0
100
AcDbCircle
 62
7
  6
BYLAYER
 10
21.9605069771
 20
55.499828671
 40
3.925476203
100
AcDbArc
 50
180.0013312629
 51
180.6838683092
  0
ARC
  5
303
100
AcDbEntity
  8
0
100
AcDbCircle
 62
7
  6
BYLAYER
 10
20.0672212087
 20
52.1521394467
 40
3.7661093135
100
AcDbArc
 50
359.5924493364
 51
0.0003625332
  0
ARC
  5
304
100
AcDbEntity
  8
0
100
AcDbCircle
 62
7
  6
BYLAYER
 10
22.4800700975
 20
51.5225820271
 40
1.4178013325
100
AcDbArc
 50
288.673201682
 51
292.9010236471
  0
ARC
  5
305
100
AcDbEntity
  8
0
100
AcDbCircle
 62
7
  6
BYLAYER
 10
22.4855528651
 20
51.5091179509
 40
1.4032649618
100
AcDbArc
 50
292.9087327712
 51
293.3147873086
  0
ARC
  5
306
100
AcDbEntity
  8
0
100
AcDbCircle
 62
7
  6
BYLAYER
 10
19.7380304782
 20
56.2676815671
 40
1.4019948681
100
AcDbArc
 50
126.2661198513
 51
127.3912966752
  0
ARC
  5
307
100
AcDbEntity
  8
0
100
AcDbCircle
 62
7
  6
BYLAYER
 10
22.3468467044
 20
51.4205323119
 40
1.3958418171
100
AcDbArc
 50
289.0793426726
 51
299.5983286527
  0
ARC
  5
308
100
AcDbEntity
  8
0
100
AcDbCircle
 62
7
  6
BYLAYER
 10
22.3469488026
 20
51.4190127076
 40
1.3944791347
100
AcDbArc
 50
301.1297649482
 51
307.3955938726
  0
ARC
  5
309
100
AcDbEntity
  8
0
100
AcDbCircle
 62
7
  6
BYLAYER
 10
19.5910043649
 20
56.1926308915
 40
1.3934243817
100
AcDbArc
 50
112.9157216671
 51
119.5968981424
  0
ARC
  5
30A
100
AcDbEntity
  8
0
100
AcDbCircle
 62
7
  6
BYLAYER
 10
19.5875336942
 20
56.199228395
 40
1.3859735841
100
AcDbArc
 50
119.6068465172
 51
121.1208061593
  0
ARC
  5
30B
100
AcDbEntity
  8
0
100
AcDbCircle
 62
7
  6
BYLAYER
 10
22.3515385832
 20
51.4118482529
 40
1.3859735661
100
AcDbArc
 50
299.6069921234
 51
301.1203891854
  0
ARC
  5
30C
100
AcDbEntity
  8
0
100
AcDbCircle
 62
7
  6
BYLAYER
 10
20.5818785831
 20
47.2287288824
 40
0.5578114787
100
AcDbArc
 50
95.6514692182
 51
98.8004519475
  0
ARC
  5
30D
100
AcDbEntity
  8
0
100
AcDbCircle
 62
7
  6
BYLAYER
 10
18.7766301288
 20
47.9504249953
 40
0.3419993918
100
AcDbArc
 50
147.0611331195
 51
156.6528044802
  0
ARC
  5
30E
100
AcDbEntity
  8
0
100
AcDbCircle
 62
7
  6
BYLAYER
 10
18.7546830563
 20
47.9597842594
 40
0.318140263
100
AcDbArc
 50
156.633941807
 51
161.8688561819
  0
ARC
  5
30F
100
AcDbEntity
  8
0
100
AcDbCircle
 62
7
  6
BYLAYER
 10
22.0891322068
 20
58.8538146235
 40
0.2454356961
100
AcDbArc
 50
342.064186878
 51
345.9222349064
  0
ARC
  5
310
100
AcDbEntity
  8
0
100
AcDbCircle
 62
7
  6
BYLAYER
 10
20.9939377557
 20
47.3717896857
 40
0.2097092009
100
AcDbArc
 50
359.9842744018
 51
6.0287410129
  0
ARC
  5
311
100
AcDbEntity
  8
0
100
AcDbCircle
 62
7
  6
BYLAYER
 10
18.5805102438
 20
48.0637725024
 40
0.2
100
AcDbArc
 50
144.8919417236
 51
179.9999997143
  0
ARC
  5
312
100
AcDbEntity
  8
0
100
AcDbCircle
 62
7
  6
BYLAYER
 10
22.2271958847
 20
58.8941135152
 40
0.2
100
AcDbArc
 50
240.0005612632
 51
275.1442602254
  0
ARC
  5
313
100
AcDbEntity
  8
0
100
AcDbCircle
 62
7
  6
BYLAYER
 10
21.2402526496
 20
59.4639125671
 40
0.2
100
AcDbArc
 50
180.0005655954
 51
240.0005612538
  0
ARC
  5
314
100
AcDbEntity
  8
0
100
AcDbCircle
 62
7
  6
BYLAYER
 10
10.1506994094
 20
50.9884743094
 40
0.2
100
AcDbArc
 50
180.0000004163
 51
240.0005612632
  0
ARC
  5
315
100
AcDbEntity
  8
0
100
AcDbCircle
 62
7
  6
BYLAYER
 10
19.6239189976
 20
47.4122369917
 40
0.1978863058
100
AcDbArc
 50
176.8162728506
 51
179.9746282209
  0
ARC
  5
316
100
AcDbEntity
  8
0
100
AcDbCircle
 62
7
  6
BYLAYER
 10
10.1856245327
 20
50.9066707715
 40
0.1763459581
100
AcDbArc
 50
179.9497348779
 51
184.4775860715
  0
ARC
  5
317
100
AcDbEntity
  8
0
100
AcDbCircle
 62
7
  6
BYLAYER
 10
10.0840981814
 20
50.872988063
 40
0.0666976435
100
AcDbArc
 50
230.0889293663
 51
239.9460438491
  0
ARC
  5
318
100
AcDbEntity
  8
0
100
AcDbCircle
 62
7
  6
BYLAYER
 10
37.226155804
 20
45.6438939836
 40
0.2756057214
100
AcDbArc
 50
0.020289775
 51
2.5829932934
  0
ARC
  5
319
100
AcDbEntity
  8
0
100
AcDbCircle
 62
7
  6
BYLAYER
 10
37.1616181484
 20
45.7556898356
 40
0.2755984505
100
AcDbArc
 50
57.4175829345
 51
59.9802717398
  0
ARC
  5
31A
100
AcDbEntity
  8
0
100
AcDbCircle
 62
7
  6
BYLAYER
 10
40.3605165301
 20
33.6642391571
 40
0.2566335507
100
AcDbArc
 50
233.7553296314
 51
246.5007096232
  0
ARC
  5
31B
100
AcDbEntity
  8
0
100
AcDbCircle
 62
7
  6
BYLAYER
 10
40.3089223179
 20
33.5770100948
 40
0.2
100
AcDbArc
 50
240.0005612732
 51
270.4890006673
  0
ARC
  5
31C
100
AcDbEntity
  8
0
100
AcDbCircle
 62
7
  6
BYLAYER
 10
31.936690915
 20
48.8454458705
 40
0.2121953869
100
AcDbArc
 50
59.9799482109
 51
63.2091003245
  0
ARC
  5
31D
100
AcDbEntity
  8
0
100
AcDbCircle
 62
7
  6
BYLAYER
 10
31.9520937176
 20
48.990519344
 40
0.0832271472
100
AcDbArc
 50
111.5836980458
 51
128.4160040145
  0
ARC
  5
31E
100
AcDbEntity
  8
0
100
AcDbCircle
 62
7
  6
BYLAYER
 10
37.2698349111
 20
82.8499580042
 40
2.259940399
100
AcDbArc
 50
297.9317959443
 51
299.9937224475
  0
ARC
  5
31F
100
AcDbEntity
  8
0
100
AcDbCircle
 62
7
  6
BYLAYER
 10
16.0567197948
 20
70.6026333876
 40
2.2599403985
100
AcDbArc
 50
297.9317959455
 51
299.9937224475
  0
ARC
  5
320
100
AcDbEntity
  8
0
100
AcDbCircle
 62
7
  6
BYLAYER
 10
22.790477448
 20
61.7175436733
 40
0.4089048026
100
AcDbArc
 50
0.0324968088
 51
3.8756975596
  0
ARC
  5
321
100
AcDbEntity
  8
0
100
AcDbCircle
 62
7
  6
BYLAYER
 10
19.1108421211
 20
64.2926568707
 40
0.3711520649
100
AcDbArc
 50
177.2901536501
 51
180.0208536283
  0
ARC
  5
322
100
AcDbEntity
  8
0
100
AcDbCircle
 62
7
  6
BYLAYER
 10
19.0853660386
 20
64.2937695813
 40
0.3456518763
100
AcDbArc
 50
175.8391637113
 51
177.2747386984
  0
ARC
  5
323
100
AcDbEntity
  8
0
100
AcDbCircle
 62
7
  6
BYLAYER
 10
18.7789302258
 20
63.4625256001
 40
0.3447016951
100
AcDbArc
 50
148.438876803
 51
150.5237066334
  0
ARC
  5
324
100
AcDbEntity
  8
0
100
AcDbCircle
 62
7
  6
BYLAYER
 10
19.5672232357
 20
60.6536646713
 40
0.3394513831
100
AcDbArc
 50
261.2680562009
 51
270.039003163
  0
ARC
  5
325
100
AcDbEntity
  8
0
100
AcDbCircle
 62
7
  6
BYLAYER
 10
10.3428181412
 20
69.3307730842
 40
0.3371778587
100
AcDbArc
 50
141.5609846117
 51
147.0753002346
  0
ARC
  5
326
100
AcDbEntity
  8
0
100
AcDbCircle
 62
7
  6
BYLAYER
 10
10.2912938393
 20
69.3783484772
 40
0.26696919
100
AcDbArc
 50
131.5853575421
 51
134.2375761511
  0
ARC
  5
327
100
AcDbEntity
  8
0
100
AcDbCircle
 62
7
  6
BYLAYER
 10
10.251313387
 20
69.4307696228
 40
0.2009606516
100
AcDbArc
 50
120.0440100718
 51
124.1941288817
  0
ARC
  5
328
100
AcDbEntity
  8
0
100
AcDbCircle
 62
7
  6
BYLAYER
 10
18.5805102438
 20
63.5773184278
 40
0.2
100
AcDbArc
 50
144.8961169218
 51
179.9999997818
  0
ARC
  5
329
100
AcDbEntity
  8
0
100
AcDbCircle
 62
7
  6
BYLAYER
 10
18.5805102438
 20
60.9994808218
 40
0.2
100
AcDbArc
 50
180.0000001131
 51
240.1192330845
  0
ARC
  5
32A
100
AcDbEntity
  8
0
100
AcDbCircle
 62
7
  6
BYLAYER
 10
19.567453479
 20
60.4296817699
 40
0.2
100
AcDbArc
 50
244.4385071641
 51
261.206095085
  0
ARC
  5
32B
100
AcDbEntity
  8
0
100
AcDbCircle
 62
7
  6
BYLAYER
 10
34.8407553121
 20
83.6961542689
 40
0.2
100
AcDbArc
 50
89.911057745
 51
119.9998518957
  0
ARC
  5
32C
100
AcDbEntity
  8
0
100
AcDbCircle
 62
7
  6
BYLAYER
 10
10.1506994094
 20
69.4414289364
 40
0.2
100
AcDbArc
 50
119.9998519061
 51
179.9999995994
  0
ARC
  5
32D
100
AcDbEntity
  8
0
100
AcDbCircle
 62
7
  6
BYLAYER
 10
22.7635514964
 20
61.7796657787
 40
0.1992253219
100
AcDbArc
 50
347.3761211205
 51
351.9432624763
  0
ARC
  5
32E
100
AcDbEntity
  8
0
100
AcDbCircle
 62
7
  6
BYLAYER
 10
19.6239189976
 20
62.925782917
 40
0.1978863057
100
AcDbArc
 50
176.8162728544
 51
179.9746282219
  0
ARC
  5
32F
100
AcDbEntity
  8
0
100
AcDbCircle
 62
7
  6
BYLAYER
 10
20.7497389973
 20
60.0722252061
 40
0.0674391622
100
AcDbArc
 50
231.3565030097
 51
239.9048157061
  0
ARC
  5
330
100
AcDbEntity
  8
0
100
AcDbCircle
 62
7
  6
BYLAYER
 10
47.7052422946
 20
33.6391406341
 40
0.2
100
AcDbArc
 50
270.4868093519
 51
301.3339767892
  0
ARC
  5
331
100
AcDbEntity
  8
0
100
AcDbCircle
 62
7
  6
BYLAYER
 10
76.9555418001
 20
51.447369251
 40
0.2
100
AcDbArc
 50
301.3339786489
 51
360.0
  0
ARC
  5
332
100
AcDbEntity
  8
0
100
AcDbCircle
 62
7
  6
BYLAYER
 10
77.0125319601
 20
51.5129463526
 40
0.1697097311
100
AcDbArc
 50
301.2865218717
 51
305.6962765975
  0
ARC
  5
333
100
AcDbEntity
  8
0
100
AcDbCircle
 62
7
  6
BYLAYER
 10
77.0889980847
 20
51.4474305808
 40
0.0665550533
100
AcDbArc
 50
350.9272174594
 51
359.9472006562
  0
ARC
  5
334
100
AcDbEntity
  8
0
100
AcDbCircle
 62
7
  6
BYLAYER
 10
48.5718179459
 20
78.2681500801
 40
7.0355001974
100
AcDbArc
 50
51.5453699523
 51
54.3015196114
  0
ARC
  5
335
100
AcDbEntity
  8
0
100
AcDbCircle
 62
7
  6
BYLAYER
 10
48.9545528147
 20
78.7988374659
 40
6.3811962788
100
AcDbArc
 50
54.3118639221
 51
58.1654814617
  0
ARC
  5
336
100
AcDbEntity
  8
0
100
AcDbCircle
 62
7
  6
BYLAYER
 10
56.2325289745
 20
85.4293125973
 40
2.2500564313
100
AcDbArc
 50
92.0223587895
 51
93.059592084
  0
ARC
  5
337
100
AcDbEntity
  8
0
100
AcDbCircle
 62
7
  6
BYLAYER
 10
55.7742839999
 20
85.6138857926
 40
1.8353355694
100
AcDbArc
 50
106.6220376318
 51
119.9242439707
  0
ARC
  5
338
100
AcDbEntity
  8
0
100
AcDbCircle
 62
7
  6
BYLAYER
 10
55.7601335701
 20
85.6434668487
 40
1.8026408074
100
AcDbArc
 50
120.0034718323
 51
122.7271402841
  0
ARC
  5
339
100
AcDbEntity
  8
0
100
AcDbCircle
 62
7
  6
BYLAYER
 10
76.9555418001
 20
69.9003238781
 40
0.2
100
AcDbArc
 50
0.0
 51
60.0005611071
  0
ARC
  5
33A
100
AcDbEntity
  8
0
100
AcDbCircle
 62
7
  6
BYLAYER
 10
53.0598461978
 20
83.6961980622
 40
0.2
100
AcDbArc
 50
60.0005615233
 51
89.8259656047
  0
SPLINE
  5
33B
100
AcDbEntity
  8
0
100
AcDbSpline
 62
7
  6
BYLAYER
 70
0
 71
3
 72
13
 73
9
 74
0
 42
0.0000001
 43
0.0000001
 44
0.0000000001
 40
0.0
 40
0.0
 40
0.0
 40
0.0
 40
0.0924379839
 40
0.1906690741
 40
0.2987086882
 40
0.4185764786
 40
0.6927348408
 40
1.0
 40
1.0
 40
1.0
 40
1.0
 10
21.4675966996
 20
53.5622656087
 30
0.0
 10
21.4613640661
 20
53.558652066
 30
0.0
 10
21.4496478497
 20
53.5490519814
 30
0.0
 10
21.436705392
 20
53.5293520672
 30
0.0
 10
21.4284678538
 20
53.5050705354
 30
0.0
 10
21.4235792942
 20
53.4660394963
 30
0.0
 10
21.43067855
 20
53.4110328621
 30
0.0
 10
21.4468527199
 20
53.3683146495
 30
0.0
 10
21.4575483569
 20
53.3468883165
 30
0.0
  0
SPLINE
  5
33C
100
AcDbEntity
  8
0
100
AcDbSpline
 62
7
  6
BYLAYER
 70
0
 71
3
 72
11
 73
7
 74
0
 42
0.0000001
 43
0.0000001
 44
0.0000000001
 40
0.0
 40
0.0
 40
0.0
 40
0.0
 40
0.2372444224
 40
0.5000010912
 40
0.7627571663
 40
1.0
 40
1.0
 40
1.0
 40
1.0
 10
31.8731680953
 20
46.0615590091
 30
0.0
 10
31.8731680953
 20
46.0377405264
 30
0.0
 10
31.8821042231
 20
45.9875101606
 30
0.0
 10
31.9132411339
 20
45.9169280567
 30
0.0
 10
31.95879876
 20
45.8546719842
 30
0.0
 10
31.9978315312
 20
45.8218182715
 30
0.0
 10
32.0184589209
 20
45.809909312
 30
0.0
  0
SPLINE
  5
33D
100
AcDbEntity
  8
0
100
AcDbSpline
 62
7
  6
BYLAYER
 70
0
 71
3
 72
13
 73
9
 74
0
 42
0.0000001
 43
0.0000001
 44
0.0000000001
 40
0.0
 40
0.0
 40
0.0
 40
0.0
 40
0.1080933556
 40
0.2182331162
 40
0.332258069
 40
0.4516884558
 40
0.7106280353
 40
1.0
 40
1.0
 40
1.0
 40
1.0
 10
18.9445601543
 20
57.3129205426
 30
0.0
 10
18.8781592634
 20
57.2745862319
 30
0.0
 10
18.7504625484
 20
57.1855359399
 30
0.0
 10
18.5818298965
 20
57.019463889
 30
0.0
 10
18.4367187866
 20
56.8224593899
 30
0.0
 10
18.2721954028
 20
56.5131630896
 30
0.0
 10
18.1366821545
 20
56.0542584772
 30
0.0
 10
18.1057417478
 20
55.6641686616
 30
0.0
 10
18.1057417478
 20
55.4589133881
 30
0.0
  0
SPLINE
  5
33E
100
AcDbEntity
  8
0
100
AcDbSpline
 62
7
  6
BYLAYER
 70
0
 71
3
 72
21
 73
17
 74
0
 42
0.0000001
 43
0.0000001
 44
0.0000000001
 40
0.0
 40
0.0
 40
0.0
 40
0.0
 40
0.0430225812
 40
0.0884253491
 40
0.13734613
 40
0.1904411198
 40
0.247927243
 40
0.3096613457
 40
0.3752087315
 40
0.4439276987
 40
0.5874397625
 40
0.732915806
 40
0.8040025883
 40
0.872714997
 40
0.9382933803
 40
1.0
 40
1.0
 40
1.0
 40
1.0
 10
19.0484373719
 20
57.4760842664
 30
0.0
 10
19.1554921046
 20
57.5213499626
 30
0.0
 10
19.3880555093
 20
57.5867977693
 30
0.0
 10
19.761401605
 20
57.6037748119
 30
0.0
 10
20.1572375263
 20
57.5425686207
 30
0.0
 10
20.5676231182
 20
57.4056770423
 30
0.0
 10
20.9850218564
 20
57.1964895867
 30
0.0
 10
21.4014469963
 20
56.919278438
 30
0.0
 10
21.8089662648
 20
56.5797101541
 30
0.0
 10
22.3370775407
 20
56.0451803375
 30
0.0
 10
22.9210558921
 20
55.2689825647
 30
0.0
 10
23.3753508066
 20
54.4035724479
 30
0.0
 10
23.6449486187
 20
53.6806677239
 30
0.0
 10
23.7919263566
 20
53.1447631732
 30
0.0
 10
23.8820998863
 20
52.622140727
 30
0.0
 10
23.9040414932
 20
52.2780478491
 30
0.0
 10
23.9040414932
 20
52.1113392007
 30
0.0
  0
SPLINE
  5
33F
100
AcDbEntity
  8
0
100
AcDbSpline
 62
7
  6
BYLAYER
 70
0
 71
3
 72
23
 73
19
 74
0
 42
0.0000001
 43
0.0000001
 44
0.0000000001
 40
0.0
 40
0.0
 40
0.0
 40
0.0
 40
0.049834095
 40
0.1035045494
 40
0.1613224308
 40
0.2232566543
 40
0.2888789271
 40
0.3574927
 40
0.4282065687
 40
0.5000020076
 40
0.571797322
 40
0.6425108991
 40
0.7111242496
 40
0.7767458628
 40
0.838679361
 40
0.8964964331
 40
0.9501661705
 40
1.0
 40
1.0
 40
1.0
 40
1.0
 10
62.7116714362
 20
80.0708158783
 30
0.0
 10
62.7956050018
 20
80.2251409541
 30
0.0
 10
62.9342581373
 20
80.5657824634
 30
0.0
 10
63.0500233047
 20
81.1250270421
 30
0.0
 10
63.0812781914
 20
81.7376447538
 30
0.0
 10
63.0295095709
 20
82.3906454533
 30
0.0
 10
62.8967335163
 20
83.0706680157
 30
0.0
 10
62.6864722043
 20
83.7630763341
 30
0.0
 10
62.4036962222
 20
84.4526383537
 30
0.0
 10
62.0548872468
 20
85.1238772108
 30
0.0
 10
61.6479819792
 20
85.7615728964
 30
0.0
 10
61.1921944167
 20
86.3512433903
 30
0.0
 10
60.6976855868
 20
86.8795360462
 30
0.0
 10
60.1751616152
 20
87.334530616
 30
0.0
 10
59.6355370914
 20
87.7058593629
 30
0.0
 10
59.0893751416
 20
87.9850987483
 30
0.0
 10
58.5471790485
 20
88.1644648771
 30
0.0
 10
58.1828520032
 20
88.214709605
 30
0.0
 10
58.0072367429
 20
88.2191844269
 30
0.0
  0
SPLINE
  5
340
100
AcDbEntity
  8
0
100
AcDbSpline
 62
7
  6
BYLAYER
 70
0
 71
3
 72
9
 73
5
 74
0
 42
0.0000001
 43
0.0000001
 44
0.0000000001
 40
0.0
 40
0.0
 40
0.0
 40
0.0
 40
0.507683453
 40
1.0
 40
1.0
 40
1.0
 40
1.0
 10
56.1569439666
 20
87.6896120409
 30
0.0
 10
55.9951053374
 20
87.6809568376
 30
0.0
 10
55.6768019028
 20
87.6303581881
 30
0.0
 10
55.3791885817
 20
87.5050332867
 30
0.0
 10
55.2430801329
 20
87.4264515062
 30
0.0
  0
SPLINE
  5
341
100
AcDbEntity
  8
0
100
AcDbSpline
 62
7
  6
BYLAYER
 70
0
 71
3
 72
22
 73
18
 74
0
 42
0.0000001
 43
0.0000001
 44
0.0000000001
 40
0.0
 40
0.0
 40
0.0
 40
0.0
 40
0.1051696152
 40
0.1643661245
 40
0.2276836128
 40
0.2945733616
 40
0.3642384467
 40
0.4357134834
 40
0.5079302365
 40
0.5797781449
 40
0.6501673765
 40
0.7180907614
 40
0.7826879493
 40
0.8433168594
 40
0.8996311487
 40
0.9517038259
 40
1.0
 40
1.0
 40
1.0
 40
1.0
 10
61.5023187738
 20
79.0502096179
 30
0.0
 10
61.6702145323
 20
79.4137594557
 30
0.0
 10
61.8073431715
 20
80.0413943988
 30
0.0
 10
61.8130674041
 20
80.9085877333
 30
0.0
 10
61.7283798282
 20
81.6269364319
 30
0.0
 10
61.55664345
 20
82.3696011277
 30
0.0
 10
61.3022599551
 20
83.1210578792
 30
0.0
 10
60.9711451738
 20
83.8641104808
 30
0.0
 10
60.5709545224
 20
84.5818635168
 30
0.0
 10
60.1108710466
 20
85.2577992213
 30
0.0
 10
59.6014175989
 20
85.876403571
 30
0.0
 10
59.05406635
 20
86.4235216201
 30
0.0
 10
58.4808084064
 20
86.886671886
 30
0.0
 10
57.8937931677
 20
87.2551490739
 30
0.0
 10
57.3047311934
 20
87.5203387651
 30
0.0
 10
56.7253844705
 20
87.6744255837
 30
0.0
 10
56.3405753273
 20
87.6994327294
 30
0.0
 10
56.1569439666
 20
87.6896120409
 30
0.0
  0
SPLINE
  5
342
100
AcDbEntity
  8
0
100
AcDbSpline
 62
7
  6
BYLAYER
 70
0
 71
3
 72
9
 73
5
 74
0
 42
0.0000001
 43
0.0000001
 44
0.0000000001
 40
0.0
 40
0.0
 40
0.0
 40
0.0
 40
0.2619326169
 40
1.0
 40
1.0
 40
1.0
 40
1.0
 10
37.5159037024
 20
42.7832401123
 30
0.0
 10
37.5159037024
 20
42.7799647621
 30
0.0
 10
37.5155697406
 20
42.7674657809
 30
0.0
 10
37.5138653212
 20
42.7549779272
 30
0.0
 10
37.5116516963
 20
42.7460181257
 30
0.0
  0
SPLINE
  5
343
100
AcDbEntity
  8
0
100
AcDbSpline
 62
7
  6
BYLAYER
 70
0
 71
3
 72
9
 73
5
 74
0
 42
0.0000001
 43
0.0000001
 44
0.0000000001
 40
0.0
 40
0.0
 40
0.0
 40
0.0
 40
0.2701785396
 40
1.0
 40
1.0
 40
1.0
 40
1.0
 10
37.5116516963
 20
42.7460181257
 30
0.0
 10
37.5106289788
 20
42.7418786051
 30
0.0
 10
37.5061138377
 20
42.726772469
 30
0.0
 10
37.4980629159
 20
42.7125335148
 30
0.0
 10
37.4901876314
 20
42.7041283384
 30
0.0
  0
SPLINE
  5
344
100
AcDbEntity
  8
0
100
AcDbSpline
 62
7
  6
BYLAYER
 70
0
 71
3
 72
8
 73
4
 74
0
 42
0.0000001
 43
0.0000001
 44
0.0000000001
 40
0.0
 40
0.0
 40
0.0
 40
0.0
 40
1.0
 40
1.0
 40
1.0
 40
1.0
 10
37.4901876314
 20
42.7041283384
 30
0.0
 10
37.4855906834
 20
42.6992220827
 30
0.0
 10
37.4802409042
 20
42.6949138995
 30
0.0
 10
37.4744183135
 20
42.6915522462
 30
0.0
  0
SPLINE
  5
345
100
AcDbEntity
  8
0
100
AcDbSpline
 62
7
  6
BYLAYER
 70
0
 71
3
 72
11
 73
7
 74
0
 42
0.0000001
 43
0.0000001
 44
0.0000000001
 40
0.0
 40
0.0
 40
0.0
 40
0.0
 40
0.2372428333
 40
0.4999989082
 40
0.7627555772
 40
1.0
 40
1.0
 40
1.0
 40
1.0
 10
37.3237680408
 20
45.9966365768
 30
0.0
 10
37.3510461371
 20
45.9808879169
 30
0.0
 10
37.4026638992
 20
45.9374414727
 30
0.0
 10
37.4629102675
 20
45.8551127261
 30
0.0
 10
37.5040863776
 20
45.7617734597
 30
0.0
 10
37.5159037024
 20
45.6953477617
 30
0.0
 10
37.5159037024
 20
45.6638496965
 30
0.0
  0
SPLINE
  5
346
100
AcDbEntity
  8
0
100
AcDbSpline
 62
7
  6
BYLAYER
 70
0
 71
3
 72
17
 73
13
 74
0
 42
0.0000001
 43
0.0000001
 44
0.0000000001
 40
0.0
 40
0.0
 40
0.0
 40
0.0
 40
0.1496883719
 40
0.2987708242
 40
0.4429390591
 40
0.5783126126
 40
0.7019468318
 40
0.8123746076
 40
0.8628643526
 40
0.9105662148
 40
0.9560471407
 40
1.0
 40
1.0
 40
1.0
 40
1.0
 10
23.6813282969
 20
55.458895965
 30
0.0
 10
23.9287154123
 20
55.1194501015
 30
0.0
 10
24.3807353644
 20
54.4104768548
 30
0.0
 10
24.9194949154
 20
53.2871810491
 30
0.0
 10
25.3017999703
 20
52.1432526789
 30
0.0
 10
25.5109733081
 20
51.0271956153
 30
0.0
 10
25.5379488131
 20
49.986019344
 30
0.0
 10
25.4011921769
 20
49.1916328218
 30
0.0
 10
25.1920196513
 20
48.6431148715
 30
0.0
 10
24.9954760191
 20
48.2893149753
 30
0.0
 10
24.7565284101
 20
47.9855471372
 30
0.0
 10
24.5685446186
 20
47.8169292757
 30
0.0
 10
24.4695507061
 20
47.7433689193
 30
0.0
  0
SPLINE
  5
347
100
AcDbEntity
  8
0
100
AcDbSpline
 62
7
  6
BYLAYER
 70
0
 71
3
 72
12
 73
8
 74
0
 42
0.0000001
 43
0.0000001
 44
0.0000000001
 40
0.0
 40
0.0
 40
0.0
 40
0.0
 40
0.2868117559
 40
0.5463856421
 40
0.7813967659
 40
0.8921752241
 40
1.0
 40
1.0
 40
1.0
 40
1.0
 10
23.9040414932
 20
52.1113392007
 30
0.0
 10
23.9040414932
 20
51.920048517
 30
0.0
 10
23.8774443951
 20
51.5546078487
 30
0.0
 10
23.7445945219
 20
51.0472370329
 30
0.0
 10
23.5542676334
 20
50.68567585
 30
0.0
 10
23.3601166548
 20
50.4524866774
 30
0.0
 10
23.2509732809
 20
50.3548229103
 30
0.0
 10
23.1938365445
 20
50.3111529649
 30
0.0
  0
SPLINE
  5
348
100
AcDbEntity
  8
0
100
AcDbSpline
 62
7
  6
BYLAYER
 70
0
 71
3
 72
14
 73
10
 74
0
 42
0.0000001
 43
0.0000001
 44
0.0000000001
 40
0.0
 40
0.0
 40
0.0
 40
0.0
 40
0.1031193305
 40
0.2091113468
 40
0.3204740163
 40
0.4390842511
 40
0.566119401
 40
0.7021143448
 40
1.0
 40
1.0
 40
1.0
 40
1.0
 10
48.5798289077
 20
84.849605397
 30
0.0
 10
48.7102167646
 20
84.924880511
 30
0.0
 10
48.9915580581
 20
85.0499829297
 30
0.0
 10
49.4515623479
 20
85.1500741305
 30
0.0
 10
49.9445208412
 20
85.1631832462
 30
0.0
 10
50.4627064949
 20
85.0900960466
 30
0.0
 10
50.999088403
 20
84.9328494426
 30
0.0
 10
51.7510804277
 20
84.6045152546
 30
0.0
 10
52.2853607017
 20
84.2538045483
 30
0.0
 10
52.6281399749
 20
83.9861142495
 30
0.0
  0
SPLINE
  5
349
100
AcDbEntity
  8
0
100
AcDbSpline
 62
7
  6
BYLAYER
 70
0
 71
3
 72
11
 73
7
 74
0
 42
0.0000001
 43
0.0000001
 44
0.0000000001
 40
0.0
 40
0.0
 40
0.0
 40
0.0
 40
0.1988799073
 40
0.4246163441
 40
0.6903734328
 40
1.0
 40
1.0
 40
1.0
 40
1.0
 10
19.088975373
 20
70.2578973966
 30
0.0
 10
19.088975373
 20
70.1899986667
 30
0.0
 10
19.062516383
 20
70.0441244381
 30
0.0
 10
18.9464588803
 20
69.8352436085
 30
0.0
 10
18.755337118
 20
69.6363423225
 30
0.0
 10
18.5922298573
 20
69.5245908603
 30
0.0
 10
18.5006836748
 20
69.4717369627
 30
0.0
  0
SPLINE
  5
34A
100
AcDbEntity
  8
0
100
AcDbSpline
 62
7
  6
BYLAYER
 70
0
 71
3
 72
20
 73
16
 74
0
 42
0.0000001
 43
0.0000001
 44
0.0000000001
 40
0.0
 40
0.0
 40
0.0
 40
0.0
 40
0.0628858927
 40
0.1305640287
 40
0.2761047547
 40
0.4281062907
 40
0.5770943908
 40
0.6476443367
 40
0.7141151729
 40
0.7756200893
 40
0.8314566192
 40
0.8811843551
 40
0.9250989082
 40
0.9641133565
 40
1.0
 40
1.0
 40
1.0
 40
1.0
 10
17.0864760004
 20
68.6552486549
 30
0.0
 10
17.00900834
 20
68.6105229473
 30
0.0
 10
16.8418931814
 20
68.5282904573
 30
0.0
 10
16.4721238503
 20
68.3942232335
 30
0.0
 10
15.9595634228
 20
68.2913703298
 30
0.0
 10
15.322108412
 20
68.2722279149
 30
0.0
 10
14.7954442621
 20
68.343789477
 30
0.0
 10
14.4033106414
 20
68.4542055577
 30
0.0
 10
14.1401013761
 20
68.5580368185
 30
0.0
 10
13.9088177766
 20
68.6813428906
 30
0.0
 10
13.7148294121
 20
68.8200126205
 30
0.0
 10
13.5624159321
 20
68.9697055359
 30
0.0
 10
13.4536359325
 20
69.1254936135
 30
0.0
 10
13.3891311216
 20
69.2833734959
 30
0.0
 10
13.3747676986
 20
69.3903622596
 30
0.0
 10
13.3747676986
 20
69.4414090888
 30
0.0
  0
SPLINE
  5
34B
100
AcDbEntity
  8
0
100
AcDbSpline
 62
7
  6
BYLAYER
 70
0
 71
3
 72
20
 73
16
 74
0
 42
0.0000001
 43
0.0000001
 44
0.0000000001
 40
0.0
 40
0.0
 40
0.0
 40
0.0
 40
0.0628858927
 40
0.1305640287
 40
0.2761047547
 40
0.4281062907
 40
0.5770943908
 40
0.6476443367
 40
0.7141151729
 40
0.7756200893
 40
0.8314566192
 40
0.8811843551
 40
0.9250989082
 40
0.9641133565
 40
1.0
 40
1.0
 40
1.0
 40
1.0
 10
38.2995911168
 20
80.9025732711
 30
0.0
 10
38.2221234564
 20
80.8578475635
 30
0.0
 10
38.0550082978
 20
80.7756150734
 30
0.0
 10
37.6852389667
 20
80.6415478496
 30
0.0
 10
37.1726785393
 20
80.538694946
 30
0.0
 10
36.5352235284
 20
80.519552531
 30
0.0
 10
36.0085593786
 20
80.5911140931
 30
0.0
 10
35.6164257579
 20
80.7015301739
 30
0.0
 10
35.3532164925
 20
80.8053614347
 30
0.0
 10
35.121932893
 20
80.9286675067
 30
0.0
 10
34.9279445285
 20
81.0673372367
 30
0.0
 10
34.7755310485
 20
81.217030152
 30
0.0
 10
34.666751049
 20
81.3728182297
 30
0.0
 10
34.602246238
 20
81.530698112
 30
0.0
 10
34.587882815
 20
81.6376868758
 30
0.0
 10
34.587882815
 20
81.688733705
 30
0.0
  0
SPLINE
  5
34C
100
AcDbEntity
  8
0
100
AcDbSpline
 62
7
  6
BYLAYER
 70
0
 71
3
 72
11
 73
7
 74
0
 42
0.0000001
 43
0.0000001
 44
0.0000000001
 40
0.0
 40
0.0
 40
0.0
 40
0.0
 40
0.1988799073
 40
0.4246163441
 40
0.6903734328
 40
1.0
 40
1.0
 40
1.0
 40
1.0
 10
38.887882815
 20
81.688733705
 30
0.0
 10
38.887882815
 20
81.6208349751
 30
0.0
 10
38.861423825
 20
81.4749607465
 30
0.0
 10
38.7453663223
 20
81.2660799169
 30
0.0
 10
38.55424456
 20
81.0671786309
 30
0.0
 10
38.3911372993
 20
80.9554271687
 30
0.0
 10
38.2995911168
 20
80.9025732711
 30
0.0
  0
SPLINE
  5
34D
100
AcDbEntity
  8
0
100
AcDbSpline
 62
7
  6
BYLAYER
 70
0
 71
3
 72
14
 73
10
 74
0
 42
0.0000001
 43
0.0000001
 44
0.0000000001
 40
0.0
 40
0.0
 40
0.0
 40
0.0
 40
0.2094318596
 40
0.324845935
 40
0.4474016826
 40
0.576813473
 40
0.712546281
 40
0.853921447
 40
1.0
 40
1.0
 40
1.0
 40
1.0
 10
48.1355593769
 20
34.5498215912
 30
0.0
 10
47.6023162613
 20
35.6245771883
 30
0.0
 10
47.0322924634
 20
37.4244825525
 30
0.0
 10
46.6669815267
 20
39.9627194377
 30
0.0
 10
46.5755290353
 20
42.0692175488
 30
0.0
 10
46.6772786385
 20
44.2903154235
 30
0.0
 10
46.9703789034
 20
46.6030076597
 30
0.0
 10
47.4517301179
 20
48.981009797
 30
0.0
 10
47.8882862592
 20
50.5702998433
 30
0.0
 10
48.1355593756
 20
51.369771383
 30
0.0
  0
SPLINE
  5
34E
100
AcDbEntity
  8
0
100
AcDbSpline
 62
7
  6
BYLAYER
 70
0
 71
3
 72
10
 73
6
 74
0
 42
0.0000001
 43
0.0000001
 44
0.0000000001
 40
0.0
 40
0.0
 40
0.0
 40
0.0
 40
0.4644938506
 40
0.7231104473
 40
1.0
 40
1.0
 40
1.0
 40
1.0
 10
54.1740367891
 20
87.2218309043
 30
0.0
 10
54.4994318145
 20
87.2392330393
 30
0.0
 10
55.013173611
 20
87.1662505653
 30
0.0
 10
55.6738548443
 20
86.9290691549
 30
0.0
 10
56.010592693
 20
86.7597841081
 30
0.0
 10
56.1793865491
 20
86.6636533817
 30
0.0
  0
SPLINE
  5
34F
100
AcDbEntity
  8
0
100
AcDbSpline
 62
7
  6
BYLAYER
 70
0
 71
3
 72
9
 73
5
 74
0
 42
0.0000001
 43
0.0000001
 44
0.0000000001
 40
0.0
 40
0.0
 40
0.0
 40
0.0
 40
0.7438878308
 40
1.0
 40
1.0
 40
1.0
 40
1.0
 10
31.921408985
 20
49.0678709821
 30
0.0
 10
31.9274497989
 20
49.0702626826
 30
0.0
 10
31.9359800419
 20
49.0725418237
 30
0.0
 10
31.9446500583
 20
49.0736064845
 30
0.0
 10
31.9468780929
 20
49.0738050012
 30
0.0
  0
SPLINE
  5
350
100
AcDbEntity
  8
0
100
AcDbSpline
 62
7
  6
BYLAYER
 70
0
 71
3
 72
9
 73
5
 74
0
 42
0.0000001
 43
0.0000001
 44
0.0000000001
 40
0.0
 40
0.0
 40
0.0
 40
0.0
 40
0.2246784453
 40
1.0
 40
1.0
 40
1.0
 40
1.0
 10
31.9468780929
 20
49.0738050012
 30
0.0
 10
31.9537141245
 20
49.0744140882
 30
0.0
 10
31.9844440932
 20
49.073944757
 30
0.0
 10
32.0140615982
 20
49.0621276701
 30
0.0
 10
32.0345720233
 20
49.0502862386
 30
0.0
  0
SPLINE
  5
351
100
AcDbEntity
  8
0
100
AcDbSpline
 62
7
  6
BYLAYER
 70
0
 71
3
 72
11
 73
7
 74
0
 42
0.0000001
 43
0.0000001
 44
0.0000000001
 40
0.0
 40
0.0
 40
0.0
 40
0.0
 40
0.3026017888
 40
0.4478140358
 40
0.5840584428
 40
1.0
 40
1.0
 40
1.0
 40
1.0
 10
20.9063598099
 20
54.4510721386
 30
0.0
 10
20.9199649447
 20
54.4238172731
 30
0.0
 10
20.9445762688
 20
54.3855527073
 30
0.0
 10
20.9850068561
 20
54.3423091431
 30
0.0
 10
21.0379139014
 20
54.298005646
 30
0.0
 10
21.1006198298
 20
54.272686987
 30
0.0
 10
21.1400446547
 20
54.286790179
 30
0.0
  0
SPLINE
  5
352
100
AcDbEntity
  8
0
100
AcDbSpline
 62
7
  6
BYLAYER
 70
0
 71
3
 72
21
 73
17
 74
0
 42
0.0000001
 43
0.0000001
 44
0.0000000001
 40
0.0
 40
0.0
 40
0.0
 40
0.0
 40
0.0623901675
 40
0.1287880996
 40
0.1984035472
 40
0.2704103684
 40
0.4174477285
 40
0.5616798063
 40
0.6303083791
 40
0.695423548
 40
0.7563981246
 40
0.8128609914
 40
0.864783261
 40
0.9125798353
 40
0.9571747239
 40
1.0
 40
1.0
 40
1.0
 40
1.0
 10
18.1057417478
 20
55.4589133881
 30
0.0
 10
18.1057417478
 20
55.2909495789
 30
0.0
 10
18.1285654856
 20
54.9440053036
 30
0.0
 10
18.2221416603
 20
54.4172381107
 30
0.0
 10
18.3744597243
 20
53.8774039401
 30
0.0
 10
18.6532378872
 20
53.1510722564
 30
0.0
 10
19.1210522833
 20
52.2866592412
 30
0.0
 10
19.7207185814
 20
51.5187637977
 30
0.0
 10
20.260431198
 20
50.9988156798
 30
0.0
 10
20.6740469732
 20
50.6750625863
 30
0.0
 10
21.0943158184
 20
50.417924236
 30
0.0
 10
21.5127782238
 20
50.2329655025
 30
0.0
 10
21.9211032394
 20
50.1245159333
 30
0.0
 10
22.3112478573
 20
50.0957727585
 30
0.0
 10
22.674576537
 20
50.1490113093
 30
0.0
 10
22.8946647129
 20
50.2405125975
 30
0.0
 10
22.9945121156
 20
50.2981561217
 30
0.0
  0
SPLINE
  5
353
100
AcDbEntity
  8
0
100
AcDbSpline
 62
7
  6
BYLAYER
 70
0
 71
3
 72
9
 73
5
 74
0
 42
0.0000001
 43
0.0000001
 44
0.0000000001
 40
0.0
 40
0.0
 40
0.0
 40
0.0
 40
0.4772389981
 40
1.0
 40
1.0
 40
1.0
 40
1.0
 10
20.6745613976
 20
47.5197127062
 30
0.0
 10
20.6745613943
 20
47.5512150527
 30
0.0
 10
20.6901526705
 20
47.6171041812
 30
0.0
 10
20.7236538729
 20
47.6750613033
 30
0.0
 10
20.7452746068
 20
47.7019554129
 30
0.0
  0
SPLINE
  5
354
100
AcDbEntity
  8
0
100
AcDbSpline
 62
7
  6
BYLAYER
 70
0
 71
3
 72
9
 73
5
 74
0
 42
0.0000001
 43
0.0000001
 44
0.0000000001
 40
0.0
 40
0.0
 40
0.0
 40
0.0
 40
0.5250677939
 40
1.0
 40
1.0
 40
1.0
 40
1.0
 10
20.5331397366
 20
47.5279004397
 30
0.0
 10
20.5573057154
 20
47.5354170473
 30
0.0
 10
20.6058623956
 20
47.5430689672
 30
0.0
 10
20.6547266678
 20
47.5311410096
 30
0.0
 10
20.6745613367
 20
47.5197127348
 30
0.0
  0
SPLINE
  5
355
100
AcDbEntity
  8
0
100
AcDbSpline
 62
7
  6
BYLAYER
 70
0
 71
3
 72
9
 73
5
 74
0
 42
0.0000001
 43
0.0000001
 44
0.0000000001
 40
0.0
 40
0.0
 40
0.0
 40
0.0
 40
0.4846069763
 40
1.0
 40
1.0
 40
1.0
 40
1.0
 10
20.4965369985
 20
47.7799728513
 30
0.0
 10
20.4984986631
 20
47.7388424358
 30
0.0
 10
20.5085851076
 20
47.6543324259
 30
0.0
 10
20.523241047
 20
47.5705601257
 30
0.0
 10
20.5331401678
 20
47.5279005423
 30
0.0
  0
SPLINE
  5
356
100
AcDbEntity
  8
0
100
AcDbSpline
 62
7
  6
BYLAYER
 70
0
 71
3
 72
9
 73
5
 74
0
 42
0.0000001
 43
0.0000001
 44
0.0000000001
 40
0.0
 40
0.0
 40
0.0
 40
0.0
 40
0.4744330328
 40
1.0
 40
1.0
 40
1.0
 40
1.0
 10
19.4260327115
 20
47.4123246197
 30
0.0
 10
19.4461087349
 20
47.4007339844
 30
0.0
 10
19.4927806873
 20
47.3838150457
 30
0.0
 10
19.541774151
 20
47.3785049856
 30
0.0
 10
19.5674543124
 20
47.3785050474
 30
0.0
  0
SPLINE
  5
357
100
AcDbEntity
  8
0
100
AcDbSpline
 62
7
  6
BYLAYER
 70
0
 71
3
 72
10
 73
6
 74
0
 42
0.0000001
 43
0.0000001
 44
0.0000000001
 40
0.0
 40
0.0
 40
0.0
 40
0.0
 40
0.5089003694
 40
0.7649435095
 40
1.0
 40
1.0
 40
1.0
 40
1.0
 10
19.5308510906
 20
47.6305773326
 30
0.0
 10
19.5007961521
 20
47.6039260739
 30
0.0
 10
19.4639293264
 20
47.5537316113
 30
0.0
 10
19.4346238595
 20
47.4802511353
 30
0.0
 10
19.4273605514
 20
47.4417529257
 30
0.0
 10
19.4263381138
 20
47.4232271876
 30
0.0
  0
SPLINE
  5
358
100
AcDbEntity
  8
0
100
AcDbSpline
 62
7
  6
BYLAYER
 70
0
 71
3
 72
9
 73
5
 74
0
 42
0.0000001
 43
0.0000001
 44
0.0000000001
 40
0.0
 40
0.0
 40
0.0
 40
0.0
 40
0.5154087406
 40
1.0
 40
1.0
 40
1.0
 40
1.0
 10
19.5674543113
 20
47.3785050475
 30
0.0
 10
19.5575548693
 20
47.421165995
 30
0.0
 10
19.5428888935
 20
47.5049368008
 30
0.0
 10
19.5328127108
 20
47.5894481897
 30
0.0
 10
19.5308510907
 20
47.6305773324
 30
0.0
  0
SPLINE
  5
359
100
AcDbEntity
  8
0
100
AcDbSpline
 62
7
  6
BYLAYER
 70
0
 71
3
 72
9
 73
5
 74
0
 42
0.0000001
 43
0.0000001
 44
0.0000000001
 40
0.0
 40
0.0
 40
0.0
 40
0.0
 40
0.2793301691
 40
1.0
 40
1.0
 40
1.0
 40
1.0
 10
21.0988318826
 20
43.8687178107
 30
0.0
 10
21.0929220923
 20
43.8721297525
 30
0.0
 10
21.0725100648
 20
43.8854083555
 30
0.0
 10
21.054794329
 20
43.9040872309
 30
0.0
 10
21.0472867724
 20
43.9200121559
 30
0.0
  0
SPLINE
  5
35A
100
AcDbEntity
  8
0
100
AcDbSpline
 62
7
  6
BYLAYER
 70
0
 71
3
 72
9
 73
5
 74
0
 42
0.0000001
 43
0.0000001
 44
0.0000000001
 40
0.0
 40
0.0
 40
0.0
 40
0.0
 40
0.2581694523
 40
1.0
 40
1.0
 40
1.0
 40
1.0
 10
21.0472867724
 20
43.9200121559
 30
0.0
 10
21.0461381876
 20
43.9224485181
 30
0.0
 10
21.0421595847
 20
43.932096622
 30
0.0
 10
21.0402527054
 20
43.9426265026
 30
0.0
 10
21.0402526496
 20
43.950366161
 30
0.0
  0
SPLINE
  5
35B
100
AcDbEntity
  8
0
100
AcDbSpline
 62
7
  6
BYLAYER
 70
0
 71
3
 72
10
 73
6
 74
0
 42
0.0000001
 43
0.0000001
 44
0.0000000001
 40
0.0
 40
0.0
 40
0.0
 40
0.0
 40
0.5127464772
 40
0.7684604475
 40
1.0
 40
1.0
 40
1.0
 40
1.0
 10
18.9080779223
 20
48.7184633368
 30
0.0
 10
18.9397343199
 20
48.7465346917
 30
0.0
 10
18.9780043354
 20
48.7998203905
 30
0.0
 10
19.0069222242
 20
48.8773249642
 30
0.0
 10
19.0128963015
 20
48.917610277
 30
0.0
 10
19.0128963016
 20
48.9367160496
 30
0.0
  0
SPLINE
  5
35C
100
AcDbEntity
  8
0
100
AcDbSpline
 62
7
  6
BYLAYER
 70
0
 71
3
 72
9
 73
5
 74
0
 42
0.0000001
 43
0.0000001
 44
0.0000000001
 40
0.0
 40
0.0
 40
0.0
 40
0.0
 40
0.2839868818
 40
1.0
 40
1.0
 40
1.0
 40
1.0
 10
18.7396900829
 20
48.778975857
 30
0.0
 10
18.7463696767
 20
48.775119479
 30
0.0
 10
18.7689456341
 20
48.7602640559
 30
0.0
 10
18.7880904658
 20
48.738195763
 30
0.0
 10
18.7944187096
 20
48.7198078163
 30
0.0
  0
SPLINE
  5
35D
100
AcDbEntity
  8
0
100
AcDbSpline
 62
7
  6
BYLAYER
 70
0
 71
3
 72
9
 73
5
 74
0
 42
0.0000001
 43
0.0000001
 44
0.0000000001
 40
0.0
 40
0.0
 40
0.0
 40
0.0
 40
0.2457271415
 40
1.0
 40
1.0
 40
1.0
 40
1.0
 10
57.7170833363
 20
88.2265488099
 30
0.0
 10
57.7402886865
 20
88.2259523969
 30
0.0
 10
57.8346843877
 20
88.2221090337
 30
0.0
 10
57.9288372739
 20
88.2126976945
 30
0.0
 10
57.9993969473
 20
88.2027775416
 30
0.0
  0
SPLINE
  5
35E
100
AcDbEntity
  8
0
100
AcDbSpline
 62
7
  6
BYLAYER
 70
0
 71
3
 72
19
 73
15
 74
0
 42
0.0000001
 43
0.0000001
 44
0.0000000001
 40
0.0
 40
0.0
 40
0.0
 40
0.0
 40
0.1035822789
 40
0.1619756537
 40
0.2243844284
 40
0.290264582
 40
0.3588930863
 40
0.5007525463
 40
0.6424906024
 40
0.7109719568
 40
0.7766575787
 40
0.8388290181
 40
0.896960142
 40
1.0
 40
1.0
 40
1.0
 40
1.0
 10
57.9993969473
 20
88.2027775416
 30
0.0
 10
58.3531396194
 20
88.153044015
 30
0.0
 10
58.8919759018
 20
87.9647141283
 30
0.0
 10
59.5610881707
 20
87.5754652564
 30
0.0
 10
60.0780326107
 20
87.188989187
 30
0.0
 10
60.5781895961
 20
86.7281464994
 30
0.0
 10
61.2167185503
 20
86.0189788184
 30
0.0
 10
61.9081933934
 20
85.012972891
 30
0.0
 10
62.42785936
 20
83.9089071531
 30
0.0
 10
62.7171947463
 20
83.0012211825
 30
0.0
 10
62.8618036731
 20
82.3387100943
 30
0.0
 10
62.9334109762
 20
81.6996416
 30
0.0
 10
62.9300139912
 20
80.9291403376
 30
0.0
 10
62.8188208586
 20
80.3719361459
 30
0.0
 10
62.6819813236
 20
80.0439890754
 30
0.0
  0
SPLINE
  5
35F
100
AcDbEntity
  8
0
100
AcDbSpline
 62
7
  6
BYLAYER
 70
0
 71
3
 72
9
 73
5
 74
0
 42
0.0000001
 43
0.0000001
 44
0.0000000001
 40
0.0
 40
0.0
 40
0.0
 40
0.0
 40
0.2538878335
 40
1.0
 40
1.0
 40
1.0
 40
1.0
 10
62.6819813236
 20
80.0439890754
 30
0.0
 10
62.67373901
 20
80.0242357007
 30
0.0
 10
62.6403240491
 20
79.9468336624
 30
0.0
 10
62.6030469899
 20
79.8710874124
 30
0.0
 10
62.5729914086
 20
79.8158316989
 30
0.0
  0
SPLINE
  5
360
100
AcDbEntity
  8
0
100
AcDbSpline
 62
7
  6
BYLAYER
 70
0
 71
3
 72
9
 73
5
 74
0
 42
0.0000001
 43
0.0000001
 44
0.0000000001
 40
0.0
 40
0.0
 40
0.0
 40
0.0
 40
0.27270933
 40
1.0
 40
1.0
 40
1.0
 40
1.0
 10
10.009278642
 20
50.9068254779
 30
0.0
 10
10.0044001563
 20
50.9096420092
 30
0.0
 10
9.987028462
 20
50.9207592365
 30
0.0
 10
9.9715470438
 20
50.9354085017
 30
0.0
 10
9.9633764388
 20
50.9480154512
 30
0.0
  0
SPLINE
  5
361
100
AcDbEntity
  8
0
100
AcDbSpline
 62
7
  6
BYLAYER
 70
0
 71
3
 72
9
 73
5
 74
0
 42
0.0000001
 43
0.0000001
 44
0.0000000001
 40
0.0
 40
0.0
 40
0.0
 40
0.0
 40
0.2639085269
 40
1.0
 40
1.0
 40
1.0
 40
1.0
 10
9.9633764388
 20
50.9480154512
 30
0.0
 10
9.9613322893
 20
50.9511695004
 30
0.0
 10
9.9543093937
 20
50.9635592989
 30
0.0
 10
9.9506994088
 20
50.9779910385
 30
0.0
 10
9.9506994094
 20
50.9884743087
 30
0.0
  0
SPLINE
  5
362
100
AcDbEntity
  8
0
100
AcDbSpline
 62
7
  6
BYLAYER
 70
0
 71
3
 72
9
 73
5
 74
0
 42
0.0000001
 43
0.0000001
 44
0.0000000001
 40
0.0
 40
0.0
 40
0.0
 40
0.0
 40
0.2408764549
 40
1.0
 40
1.0
 40
1.0
 40
1.0
 10
10.0140974383
 20
50.8673423195
 30
0.0
 10
10.013558425
 20
50.8693539724
 30
0.0
 10
10.0115340225
 20
50.8777620429
 30
0.0
 10
10.0103351301
 20
50.8863607301
 30
0.0
 10
10.0098167912
 20
50.8929036014
 30
0.0
  0
SPLINE
  5
363
100
AcDbEntity
  8
0
100
AcDbSpline
 62
7
  6
BYLAYER
 70
0
 71
3
 72
9
 73
5
 74
0
 42
0.0000001
 43
0.0000001
 44
0.0000000001
 40
0.0
 40
0.0
 40
0.0
 40
0.0
 40
0.2334023263
 40
1.0
 40
1.0
 40
1.0
 40
1.0
 10
10.009278642
 20
69.3597801063
 30
0.0
 10
10.009278642
 20
69.3658472985
 30
0.0
 10
10.0105775092
 20
69.3918374791
 30
0.0
 10
10.0163419155
 20
69.4175010729
 30
0.0
 10
10.0225286668
 20
69.4364437323
 30
0.0
  0
SPLINE
  5
364
100
AcDbEntity
  8
0
100
AcDbSpline
 62
7
  6
BYLAYER
 70
0
 71
3
 72
9
 73
5
 74
0
 42
0.0000001
 43
0.0000001
 44
0.0000000001
 40
0.0
 40
0.0
 40
0.0
 40
0.0
 40
0.245804468
 40
1.0
 40
1.0
 40
1.0
 40
1.0
 10
10.0225286668
 20
69.4364437323
 30
0.0
 10
10.0247218524
 20
69.4431588507
 30
0.0
 10
10.0346033685
 20
69.470156925
 30
0.0
 10
10.0480120262
 20
69.4958497094
 30
0.0
 10
10.0597958925
 20
69.5140415078
 30
0.0
  0
SPLINE
  5
365
100
AcDbEntity
  8
0
100
AcDbSpline
 62
7
  6
BYLAYER
 70
0
 71
3
 72
9
 73
5
 74
0
 42
0.0000001
 43
0.0000001
 44
0.0000000001
 40
0.0
 40
0.0
 40
0.0
 40
0.0
 40
0.2548755811
 40
1.0
 40
1.0
 40
1.0
 40
1.0
 10
10.0787167363
 20
69.5403902503
 30
0.0
 10
10.0807958736
 20
69.5430086825
 30
0.0
 10
10.0891086758
 20
69.553157135
 30
0.0
 10
10.0980412892
 20
69.5628027035
 30
0.0
 10
10.1050467557
 20
69.5696194166
 30
0.0
  0
SPLINE
  5
366
100
AcDbEntity
  8
0
100
AcDbSpline
 62
7
  6
BYLAYER
 70
0
 71
3
 72
22
 73
18
 74
0
 42
0.0000001
 43
0.0000001
 44
0.0000000001
 40
0.0
 40
0.0
 40
0.0
 40
0.0
 40
0.0484031119
 40
0.1012501973
 40
0.1588029097
 40
0.2208772951
 40
0.2869300842
 40
0.3561713138
 40
0.4276308689
 40
0.5002274773
 40
0.5728243835
 40
0.6442832246
 40
0.7135226814
 40
0.7795748661
 40
0.8416470263
 40
0.8992006073
 40
1.0
 40
1.0
 40
1.0
 40
1.0
 10
58.0072461053
 20
88.2191563223
 30
0.0
 10
58.1773400444
 20
88.2147847282
 30
0.0
 10
58.5327004021
 20
88.1652500962
 30
0.0
 10
59.0644718499
 20
87.9877445441
 30
0.0
 10
59.6055032374
 20
87.7096165516
 30
0.0
 10
60.1437727515
 20
87.3376603473
 30
0.0
 10
60.667330044
 20
86.8803962122
 30
0.0
 10
61.164214591
 20
86.3484153318
 30
0.0
 10
61.6230105367
 20
85.7540474639
 30
0.0
 10
62.0330753124
 20
85.1110902228
 30
0.0
 10
62.3848471095
 20
84.4344762342
 30
0.0
 10
62.6701433109
 20
83.7399651669
 30
0.0
 10
62.8823493089
 20
83.0436096629
 30
0.0
 10
63.016596338
 20
82.3617431274
 30
0.0
 10
63.0694467375
 20
81.7090552135
 30
0.0
 10
63.0320273333
 20
80.9349027441
 30
0.0
 10
62.8809819452
 20
80.3820858121
 30
0.0
 10
62.7116711468
 20
80.0708162051
 30
0.0
  0
SPLINE
  5
367
100
AcDbEntity
  8
0
100
AcDbSpline
 62
7
  6
BYLAYER
 70
0
 71
3
 72
9
 73
5
 74
0
 42
0.0000001
 43
0.0000001
 44
0.0000000001
 40
0.0
 40
0.0
 40
0.0
 40
0.0
 40
0.2564923198
 40
1.0
 40
1.0
 40
1.0
 40
1.0
 10
10.1140970214
 20
69.5780328185
 30
0.0
 10
10.116068209
 20
69.5797807718
 30
0.0
 10
10.1238549367
 20
69.5864795358
 30
0.0
 10
10.1320537649
 20
69.5927046147
 30
0.0
 10
10.1383737774
 20
69.5969918478
 30
0.0
  0
SPLINE
  5
368
100
AcDbEntity
  8
0
100
AcDbSpline
 62
7
  6
BYLAYER
 70
0
 71
3
 72
11
 73
7
 74
0
 42
0.0000001
 43
0.0000001
 44
0.0000000001
 40
0.0
 40
0.0
 40
0.0
 40
0.0
 40
0.2177841249
 40
0.4509134165
 40
0.7102981491
 40
1.0
 40
1.0
 40
1.0
 40
1.0
 10
13.374767699
 20
69.4414090888
 30
0.0
 10
13.3747731553
 20
69.523299472
 30
0.0
 10
13.405032992
 20
69.6939840806
 30
0.0
 10
13.5344298393
 20
69.9318032142
 30
0.0
 10
13.7389882995
 20
70.1467764042
 30
0.0
 10
13.9101432313
 20
70.2646606442
 30
0.0
 10
14.0044817896
 20
70.319126711
 30
0.0
  0
SPLINE
  5
369
100
AcDbEntity
  8
0
100
AcDbSpline
 62
7
  6
BYLAYER
 70
0
 71
3
 72
10
 73
6
 74
0
 42
0.0000001
 43
0.0000001
 44
0.0000000001
 40
0.0
 40
0.0
 40
0.0
 40
0.0
 40
0.5431033624
 40
0.7783758818
 40
1.0
 40
1.0
 40
1.0
 40
1.0
 10
32.0323349651
 20
49.0348636571
 30
0.0
 10
32.0139594864
 20
49.0441335633
 30
0.0
 10
31.9848901298
 20
49.0539478251
 30
0.0
 10
31.946646672
 20
49.0515109424
 30
0.0
 10
31.9301446835
 20
49.0452544166
 30
0.0
 10
31.9228712685
 20
49.0410551347
 30
0.0
  0
SPLINE
  5
36A
100
AcDbEntity
  8
0
100
AcDbSpline
 62
7
  6
BYLAYER
 70
0
 71
3
 72
9
 73
5
 74
0
 42
0.0000001
 43
0.0000001
 44
0.0000000001
 40
0.0
 40
0.0
 40
0.0
 40
0.0
 40
0.4779545958
 40
1.0
 40
1.0
 40
1.0
 40
1.0
 10
37.5014815073
 20
45.6563145602
 30
0.0
 10
37.5000748461
 20
45.6877391516
 30
0.0
 10
37.4868846878
 20
45.7530910099
 30
0.0
 10
37.4596962438
 20
45.8135838813
 30
0.0
 10
37.4425172488
 20
45.8433386085
 30
0.0
  0
SPLINE
  5
36B
100
AcDbEntity
  8
0
100
AcDbSpline
 62
7
  6
BYLAYER
 70
0
 71
3
 72
9
 73
5
 74
0
 42
0.0000001
 43
0.0000001
 44
0.0000000001
 40
0.0
 40
0.0
 40
0.0
 40
0.0
 40
0.5220465204
 40
1.0
 40
1.0
 40
1.0
 40
1.0
 10
37.4425172488
 20
45.8433386085
 30
0.0
 10
37.4253382622
 20
45.8730933211
 30
0.0
 10
37.3865439689
 20
45.9268853178
 30
0.0
 10
37.3365424863
 20
45.9709838173
 30
0.0
 10
37.3100312839
 20
45.9879139668
 30
0.0
  0
SPLINE
  5
36C
100
AcDbEntity
  8
0
100
AcDbSpline
 62
7
  6
BYLAYER
 70
0
 71
3
 72
11
 73
7
 74
0
 42
0.0000001
 43
0.0000001
 44
0.0000000001
 40
0.0
 40
0.0
 40
0.0
 40
0.0
 40
0.2177841249
 40
0.4509134165
 40
0.7102981491
 40
1.0
 40
1.0
 40
1.0
 40
1.0
 10
34.5878828154
 20
81.688733705
 30
0.0
 10
34.5878882717
 20
81.7706240881
 30
0.0
 10
34.6181481084
 20
81.9413086967
 30
0.0
 10
34.7475449557
 20
82.1791278304
 30
0.0
 10
34.9521034159
 20
82.3941010203
 30
0.0
 10
35.1232583478
 20
82.5119852603
 30
0.0
 10
35.217596906
 20
82.5664513272
 30
0.0
  0
SPLINE
  5
36D
100
AcDbEntity
  8
0
100
AcDbSpline
 62
7
  6
BYLAYER
 70
0
 71
3
 72
10
 73
6
 74
0
 42
0.0000001
 43
0.0000001
 44
0.0000000001
 40
0.0
 40
0.0
 40
0.0
 40
0.0
 40
0.2177131673
 40
0.4513092224
 40
1.0
 40
1.0
 40
1.0
 40
1.0
 10
22.2451295258
 20
58.6949090719
 30
0.0
 10
22.251559299
 20
58.6954972344
 30
0.0
 10
22.2647688427
 20
58.6990240961
 30
0.0
 10
22.2899297999
 20
58.7153812669
 30
0.0
 10
22.3036509681
 20
58.7352067232
 30
0.0
 10
22.3110059103
 20
58.7497219398
 30
0.0
  0
SPLINE
  5
36E
100
AcDbEntity
  8
0
100
AcDbSpline
 62
7
  6
BYLAYER
 70
0
 71
3
 72
11
 73
7
 74
0
 42
0.0000001
 43
0.0000001
 44
0.0000000001
 40
0.0
 40
0.0
 40
0.0
 40
0.0
 40
0.2336580826
 40
0.4744301811
 40
0.7283868124
 40
1.0
 40
1.0
 40
1.0
 40
1.0
 10
19.0859799937
 20
57.3945709892
 30
0.0
 10
19.1709725792
 20
57.4436402826
 30
0.0
 10
19.3551199593
 20
57.5245057778
 30
0.0
 10
19.6569619302
 20
57.5856965496
 30
0.0
 10
19.980595134
 20
57.5876491765
 30
0.0
 10
20.1993936537
 20
57.5511070455
 30
0.0
 10
20.3103008029
 20
57.5243797667
 30
0.0
  0
SPLINE
  5
36F
100
AcDbEntity
  8
0
100
AcDbSpline
 62
7
  6
BYLAYER
 70
0
 71
3
 72
11
 73
7
 74
0
 42
0.0000001
 43
0.0000001
 44
0.0000000001
 40
0.0
 40
0.0
 40
0.0
 40
0.0
 40
0.2177082676
 40
0.4511211167
 40
0.7111370664
 40
1.0
 40
1.0
 40
1.0
 40
1.0
 10
21.1402482237
 20
59.290695897
 30
0.0
 10
21.1336513643
 20
59.2945000436
 30
0.0
 10
21.1212956857
 20
59.3048766385
 30
0.0
 10
21.1081682182
 20
59.3264110458
 30
0.0
 10
21.1004150696
 20
59.3529013151
 30
0.0
 10
21.0988318825
 20
59.372159726
 30
0.0
 10
21.0988318825
 20
59.3822637361
 30
0.0
  0
SPLINE
  5
370
100
AcDbEntity
  8
0
100
AcDbSpline
 62
7
  6
BYLAYER
 70
0
 71
3
 72
11
 73
7
 74
0
 42
0.0000001
 43
0.0000001
 44
0.0000000001
 40
0.0
 40
0.0
 40
0.0
 40
0.0
 40
0.2371405411
 40
0.5000708849
 40
0.7629277541
 40
1.0
 40
1.0
 40
1.0
 40
1.0
 10
22.9261759668
 20
46.6774340932
 30
0.0
 10
22.964987667
 20
46.6550266543
 30
0.0
 10
23.0388101066
 20
46.5937120331
 30
0.0
 10
23.1254214961
 20
46.4769677197
 30
0.0
 10
23.1831957439
 20
46.3435939363
 30
0.0
 10
23.1993821835
 20
46.2490324019
 30
0.0
 10
23.1993821841
 20
46.2042296708
 30
0.0
  0
SPLINE
  5
371
100
AcDbEntity
  8
0
100
AcDbSpline
 62
7
  6
BYLAYER
 70
0
 71
3
 72
10
 73
6
 74
0
 42
0.0000001
 43
0.0000001
 44
0.0000000001
 40
0.0
 40
0.0
 40
0.0
 40
0.0
 40
0.2240753479
 40
0.5800439667
 40
1.0
 40
1.0
 40
1.0
 40
1.0
 10
21.1230890769
 20
47.7071201317
 30
0.0
 10
21.1364917811
 20
47.6993822314
 30
0.0
 10
21.1717504459
 20
47.680308719
 30
0.0
 10
21.2342873589
 20
47.6510004901
 30
0.0
 10
21.2821835129
 20
47.6268354807
 30
0.0
 10
21.3073064916
 20
47.6123402252
 30
0.0
  0
SPLINE
  5
372
100
AcDbEntity
  8
0
100
AcDbSpline
 62
7
  6
BYLAYER
 70
0
 71
3
 72
9
 73
5
 74
0
 42
0.0000001
 43
0.0000001
 44
0.0000000001
 40
0.0
 40
0.0
 40
0.0
 40
0.0
 40
0.283908119
 40
1.0
 40
1.0
 40
1.0
 40
1.0
 10
20.6317653884
 20
48.0023542666
 30
0.0
 10
20.6496900517
 20
47.9919991666
 30
0.0
 10
20.7114451104
 20
47.953186765
 30
0.0
 10
20.7707640221
 20
47.9105295912
 30
0.0
 10
20.8159819626
 20
47.8844236802
 30
0.0
  0
SPLINE
  5
373
100
AcDbEntity
  8
0
100
AcDbSpline
 62
7
  6
BYLAYER
 70
0
 71
3
 72
15
 73
11
 74
0
 42
0.0000001
 43
0.0000001
 44
0.0000000001
 40
0.0
 40
0.0
 40
0.0
 40
0.0
 40
0.1444162557
 40
0.2746041992
 40
0.3915050341
 40
0.5000598215
 40
0.6085970226
 40
0.7254749963
 40
0.8556122354
 40
1.0
 40
1.0
 40
1.0
 40
1.0
 10
18.7396900829
 20
48.7789758559
 30
0.0
 10
18.739690083
 20
48.7986061048
 30
0.0
 10
18.7426141202
 20
48.8360422318
 30
0.0
 10
18.7571694333
 20
48.8876843876
 30
0.0
 10
18.7821101202
 20
48.9298897788
 30
0.0
 10
18.8172429846
 20
48.9601656413
 30
0.0
 10
18.8610307163
 20
48.9754438171
 30
0.0
 10
18.9100386751
 20
48.9759159284
 30
0.0
 10
18.9620269667
 20
48.9627134947
 30
0.0
 10
18.995899265
 20
48.9465290709
 30
0.0
 10
19.0128963015
 20
48.9367160496
 30
0.0
  0
SPLINE
  5
374
100
AcDbEntity
  8
0
100
AcDbSpline
 62
7
  6
BYLAYER
 70
0
 71
3
 72
9
 73
5
 74
0
 42
0.0000001
 43
0.0000001
 44
0.0000000001
 40
0.0
 40
0.0
 40
0.0
 40
0.0
 40
0.2614014215
 40
1.0
 40
1.0
 40
1.0
 40
1.0
 10
53.0598461975
 20
83.8594985458
 30
0.0
 10
53.0625660239
 20
83.8610688289
 30
0.0
 10
53.0731205992
 20
83.8668070421
 30
0.0
 10
53.0842967317
 20
83.8714465823
 30
0.0
 10
53.092793687
 20
83.8740051692
 30
0.0
  0
SPLINE
  5
375
100
AcDbEntity
  8
0
100
AcDbSpline
 62
7
  6
BYLAYER
 70
0
 71
3
 72
9
 73
5
 74
0
 42
0.0000001
 43
0.0000001
 44
0.0000000001
 40
0.0
 40
0.0
 40
0.0
 40
0.0
 40
0.5307059393
 40
1.0
 40
1.0
 40
1.0
 40
1.0
 10
53.092793687
 20
83.8740051692
 30
0.0
 10
53.1044254997
 20
83.8775077182
 30
0.0
 10
53.1275841517
 20
83.8811871198
 30
0.0
 10
53.1505415922
 20
83.8747750355
 30
0.0
 10
53.1598445008
 20
83.8694041227
 30
0.0
  0
SPLINE
  5
376
100
AcDbEntity
  8
0
100
AcDbSpline
 62
7
  6
BYLAYER
 70
0
 71
3
 72
11
 73
7
 74
0
 42
0.0000001
 43
0.0000001
 44
0.0000000001
 40
0.0
 40
0.0
 40
0.0
 40
0.0
 40
0.2873172943
 40
0.5467418678
 40
0.7808224684
 40
1.0
 40
1.0
 40
1.0
 40
1.0
 10
77.1006652947
 20
69.8208702652
 30
0.0
 10
77.1088991185
 20
69.825883199
 30
0.0
 10
77.1238339433
 20
69.8367352566
 30
0.0
 10
77.1416767544
 20
69.8562180717
 30
0.0
 10
77.1529513073
 20
69.8776626283
 30
0.0
 10
77.1555568605
 20
69.8929702564
 30
0.0
 10
77.1555544789
 20
69.9003238795
 30
0.0
  0
SPLINE
  5
377
100
AcDbEntity
  8
0
100
AcDbSpline
 62
7
  6
BYLAYER
 70
0
 71
3
 72
9
 73
5
 74
0
 42
0.0000001
 43
0.0000001
 44
0.0000000001
 40
0.0
 40
0.0
 40
0.0
 40
0.0
 40
0.2369120314
 40
1.0
 40
1.0
 40
1.0
 40
1.0
 10
76.9555420074
 20
70.0636242478
 30
0.0
 10
76.9596771303
 20
70.0613603041
 30
0.0
 10
76.9767665923
 20
70.0511422227
 30
0.0
 10
76.9924172676
 20
70.038603018
 30
0.0
 10
77.0034811035
 20
70.0282027464
 30
0.0
  0
SPLINE
  5
378
100
AcDbEntity
  8
0
100
AcDbSpline
 62
7
  6
BYLAYER
 70
0
 71
3
 72
9
 73
5
 74
0
 42
0.0000001
 43
0.0000001
 44
0.0000000001
 40
0.0
 40
0.0
 40
0.0
 40
0.0
 40
0.2438506526
 40
1.0
 40
1.0
 40
1.0
 40
1.0
 10
77.0034811035
 20
70.0282027464
 30
0.0
 10
77.0086855389
 20
70.0233104521
 30
0.0
 10
77.0292480675
 20
70.0024276818
 30
0.0
 10
77.0467944437
 20
69.9786235492
 30
0.0
 10
77.058159607
 20
69.9596125687
 30
0.0
  0
SPLINE
  5
379
100
AcDbEntity
  8
0
100
AcDbSpline
 62
7
  6
BYLAYER
 70
0
 71
3
 72
9
 73
5
 74
0
 42
0.0000001
 43
0.0000001
 44
0.0000000001
 40
0.0
 40
0.0
 40
0.0
 40
0.0
 40
0.2559712573
 40
1.0
 40
1.0
 40
1.0
 40
1.0
 10
77.058159607
 20
69.9596125687
 30
0.0
 10
77.0621229752
 20
69.9529828782
 30
0.0
 10
77.076700179
 20
69.9265611842
 30
0.0
 10
77.0877572742
 20
69.898122524
 30
0.0
 10
77.0932679819
 20
69.8763578971
 30
0.0
  0
SPLINE
  5
37A
100
AcDbEntity
  8
0
100
AcDbSpline
 62
7
  6
BYLAYER
 70
0
 71
3
 72
9
 73
5
 74
0
 42
0.0000001
 43
0.0000001
 44
0.0000000001
 40
0.0
 40
0.0
 40
0.0
 40
0.0
 40
0.2625789603
 40
1.0
 40
1.0
 40
1.0
 40
1.0
 10
77.0932679819
 20
69.8763578971
 30
0.0
 10
77.094472234
 20
69.8716016843
 30
0.0
 10
77.0985613385
 20
69.853372401
 30
0.0
 10
77.1006652945
 20
69.8346490124
 30
0.0
 10
77.1006652945
 20
69.820870265
 30
0.0
  0
SPLINE
  5
37B
100
AcDbEntity
  8
0
100
AcDbSpline
 62
7
  6
BYLAYER
 70
0
 71
3
 72
9
 73
5
 74
0
 42
0.0000001
 43
0.0000001
 44
0.0000000001
 40
0.0
 40
0.0
 40
0.0
 40
0.0
 40
0.271678859
 40
1.0
 40
1.0
 40
1.0
 40
1.0
 10
77.1006652945
 20
51.3679156379
 30
0.0
 10
77.1006652945
 20
51.3622873068
 30
0.0
 10
77.0996987047
 20
51.3416228424
 30
0.0
 10
77.0946018096
 20
51.3208493016
 30
0.0
 10
77.0876551635
 20
51.3074549889
 30
0.0
  0
SPLINE
  5
37C
100
AcDbEntity
  8
0
100
AcDbSpline
 62
7
  6
BYLAYER
 70
0
 71
3
 72
9
 73
5
 74
0
 42
0.0000001
 43
0.0000001
 44
0.0000000001
 40
0.0
 40
0.0
 40
0.0
 40
0.0
 40
0.2621715662
 40
1.0
 40
1.0
 40
1.0
 40
1.0
 10
77.0876551635
 20
51.3074549889
 30
0.0
 10
77.0859623667
 20
51.3041909896
 30
0.0
 10
77.0787960314
 20
51.2921328115
 30
0.0
 10
77.0683844485
 20
51.2819219444
 30
0.0
 10
77.0595468712
 20
51.2765392626
 30
0.0
  0
SPLINE
  5
37D
100
AcDbEntity
  8
0
100
AcDbSpline
 62
7
  6
BYLAYER
 70
0
 71
3
 72
9
 73
5
 74
0
 42
0.0000001
 43
0.0000001
 44
0.0000000001
 40
0.0
 40
0.0
 40
0.0
 40
0.0
 40
0.2412878619
 40
1.0
 40
1.0
 40
1.0
 40
1.0
 10
77.1300584617
 20
51.3909669403
 30
0.0
 10
77.1286935505
 20
51.3895592384
 30
0.0
 10
77.1228936069
 20
51.3838645274
 30
0.0
 10
77.1165596677
 20
51.3787232209
 30
0.0
 10
77.1115556258
 20
51.3751214403
 30
0.0
  0
SPLINE
  5
37E
100
AcDbEntity
  8
0
100
AcDbSpline
 62
7
  6
BYLAYER
 70
0
 71
3
 72
9
 73
5
 74
0
 42
0.0000001
 43
0.0000001
 44
0.0000000001
 40
0.0
 40
0.0
 40
0.0
 40
0.0
 40
0.238586
 40
1.0
 40
1.0
 40
1.0
 40
1.0
 10
20.8159819762
 20
59.903956627
 30
0.0
 10
20.8067338898
 20
59.9092958914
 30
0.0
 10
20.767553939
 20
59.930968355
 30
0.0
 10
20.7268344141
 20
59.9496409061
 30
0.0
 10
20.6962513146
 20
59.9646773367
 30
0.0
  0
SPLINE
  5
37F
100
AcDbEntity
  8
0
100
AcDbSpline
 62
7
  6
BYLAYER
 70
0
 71
3
 72
9
 73
5
 74
0
 42
0.0000001
 43
0.0000001
 44
0.0000000001
 40
0.0
 40
0.0
 40
0.0
 40
0.0
 40
0.2349762796
 40
1.0
 40
1.0
 40
1.0
 40
1.0
 10
20.6962513146
 20
59.9646773367
 30
0.0
 10
20.6911248342
 20
59.9671978126
 30
0.0
 10
20.669355255
 20
59.9780180601
 30
0.0
 10
20.6478749269
 20
59.9894410316
 30
0.0
 10
20.6317653002
 20
59.9987358047
 30
0.0
  0
SPLINE
  5
380
100
AcDbEntity
  8
0
100
AcDbSpline
 62
7
  6
BYLAYER
 70
0
 71
3
 72
9
 73
5
 74
0
 42
0.0000001
 43
0.0000001
 44
0.0000000001
 40
0.0
 40
0.0
 40
0.0
 40
0.0
 40
0.242835662
 40
1.0
 40
1.0
 40
1.0
 40
1.0
 10
22.8984284455
 20
58.7554597128
 30
0.0
 10
22.8998510188
 20
58.75406044
 30
0.0
 10
22.9054654522
 20
58.7480519475
 30
0.0
 10
22.9100657416
 20
58.7411249676
 30
0.0
 10
22.9129622127
 20
58.7356185789
 30
0.0
  0
SPLINE
  5
381
100
AcDbEntity
  8
0
100
AcDbSpline
 62
7
  6
BYLAYER
 70
0
 71
3
 72
9
 73
5
 74
0
 42
0.0000001
 43
0.0000001
 44
0.0000000001
 40
0.0
 40
0.0
 40
0.0
 40
0.0
 40
0.2280743078
 40
1.0
 40
1.0
 40
1.0
 40
1.0
 10
22.9129622127
 20
58.7356185789
 30
0.0
 10
22.9151929596
 20
58.7313777774
 30
0.0
 10
22.9235095898
 20
58.7120075368
 30
0.0
 10
22.9261759662
 20
58.69057838
 30
0.0
 10
22.9261759662
 20
58.6743606142
 30
0.0
  0
SPLINE
  5
382
100
AcDbEntity
  8
0
100
AcDbSpline
 62
7
  6
BYLAYER
 70
0
 71
3
 72
11
 73
7
 74
0
 42
0.0000001
 43
0.0000001
 44
0.0000000001
 40
0.0
 40
0.0
 40
0.0
 40
0.0
 40
0.2510355368
 40
0.473964214
 40
0.7169525835
 40
1.0
 40
1.0
 40
1.0
 40
1.0
 10
22.9065033276
 20
58.7540268689
 30
0.0
 10
22.9171043291
 20
58.7550646779
 30
0.0
 10
22.9375832652
 20
58.76016064
 30
0.0
 10
22.9589968109
 20
58.784210704
 30
0.0
 10
22.9647258255
 20
58.8165657845
 30
0.0
 10
22.9611730405
 20
58.8388779118
 30
0.0
 10
22.957960696
 20
58.8504503071
 30
0.0
  0
SPLINE
  5
383
100
AcDbEntity
  8
0
100
AcDbSpline
 62
7
  6
BYLAYER
 70
0
 71
3
 72
15
 73
11
 74
0
 42
0.0000001
 43
0.0000001
 44
0.0000000001
 40
0.0
 40
0.0
 40
0.0
 40
0.0
 40
0.1002482866
 40
0.2073458099
 40
0.3219309886
 40
0.444173879
 40
0.5738190337
 40
0.7102719275
 40
0.8526945745
 40
1.0
 40
1.0
 40
1.0
 40
1.0
 10
40.1675015506
 20
33.4953612633
 30
0.0
 10
40.4905044744
 20
34.0415842829
 30
0.0
 10
41.059522739
 20
35.2318914507
 30
0.0
 10
41.6541092673
 20
37.187565589
 30
0.0
 10
42.0103206679
 20
39.3409501906
 30
0.0
 10
42.1245760861
 20
41.6623760952
 30
0.0
 10
41.9961447665
 20
44.121002406
 30
0.0
 10
41.6272827524
 20
46.6838017247
 30
0.0
 10
41.0231141204
 20
49.3158260239
 30
0.0
 10
40.4766358717
 20
51.0685962644
 30
0.0
 10
40.1675015506
 20
51.9483158917
 30
0.0
  0
SPLINE
  5
384
100
AcDbEntity
  8
0
100
AcDbSpline
 62
7
  6
BYLAYER
 70
0
 71
3
 72
11
 73
7
 74
0
 42
0.0000001
 43
0.0000001
 44
0.0000000001
 40
0.0
 40
0.0
 40
0.0
 40
0.0
 40
0.2177074559
 40
0.4511199091
 40
0.7111360851
 40
1.0
 40
1.0
 40
1.0
 40
1.0
 10
18.3804979937
 20
63.5773184303
 30
0.0
 10
18.380494127
 20
63.5697035222
 30
0.0
 10
18.3833027824
 20
63.5538153479
 30
0.0
 10
18.3953883641
 20
63.5316801436
 30
0.0
 10
18.4144528335
 20
63.5117212814
 30
0.0
 10
18.43033928
 20
63.5007214115
 30
0.0
 10
18.4390894764
 20
63.4956695975
 30
0.0
  0
SPLINE
  5
385
100
AcDbEntity
  8
0
100
AcDbSpline
 62
7
  6
BYLAYER
 70
0
 71
3
 72
9
 73
5
 74
0
 42
0.0000001
 43
0.0000001
 44
0.0000000001
 40
0.0
 40
0.0
 40
0.0
 40
0.0
 40
0.4744867028
 40
1.0
 40
1.0
 40
1.0
 40
1.0
 10
32.0070113508
 20
45.8001883718
 30
0.0
 10
31.9860013972
 20
45.8123181997
 30
0.0
 10
31.9462539166
 20
45.8457652809
 30
0.0
 10
31.9158066669
 20
45.8873833233
 30
0.0
 10
31.9023721059
 20
45.9106525365
 30
0.0
  0
SPLINE
  5
386
100
AcDbEntity
  8
0
100
AcDbSpline
 62
7
  6
BYLAYER
 70
0
 71
3
 72
9
 73
5
 74
0
 42
0.0000001
 43
0.0000001
 44
0.0000000001
 40
0.0
 40
0.0
 40
0.0
 40
0.0
 40
0.5255121905
 40
1.0
 40
1.0
 40
1.0
 40
1.0
 10
31.9023721059
 20
45.9106525365
 30
0.0
 10
31.8889375145
 20
45.9339218022
 30
0.0
 10
31.8681185541
 20
45.9810990273
 30
0.0
 10
31.8590259013
 20
46.0322450362
 30
0.0
 10
31.8590259013
 20
46.0565052662
 30
0.0
  0
SPLINE
  5
387
100
AcDbEntity
  8
0
100
AcDbSpline
 62
7
  6
BYLAYER
 70
0
 71
3
 72
9
 73
5
 74
0
 42
0.0000001
 43
0.0000001
 44
0.0000000001
 40
0.0
 40
0.0
 40
0.0
 40
0.0
 40
0.4600121134
 40
1.0
 40
1.0
 40
1.0
 40
1.0
 10
18.4805070033
 20
60.8262662099
 30
0.0
 10
18.4692035502
 20
60.8327904586
 30
0.0
 10
18.4490521336
 20
60.8550245626
 30
0.0
 10
18.4418697281
 20
60.8833091673
 30
0.0
 10
18.4401444353
 20
60.8985319392
 30
0.0
  0
SPLINE
  5
388
100
AcDbEntity
  8
0
100
AcDbSpline
 62
7
  6
BYLAYER
 70
0
 71
3
 72
13
 73
9
 74
0
 42
0.0000001
 43
0.0000001
 44
0.0000000001
 40
0.0
 40
0.0
 40
0.0
 40
0.0
 40
0.108329703
 40
0.2186689484
 40
0.332827388
 40
0.4523053886
 40
0.7110645914
 40
1.0
 40
1.0
 40
1.0
 40
1.0
 10
22.9945121156
 20
50.2981561217
 30
0.0
 10
23.0602220253
 20
50.3360915177
 30
0.0
 10
23.1866304741
 20
50.4240743517
 30
0.0
 10
23.3538442138
 20
50.587891565
 30
0.0
 10
23.4980613092
 20
50.782046867
 30
0.0
 10
23.6620757044
 20
51.086605746
 30
0.0
 10
23.798631761
 20
51.5384581238
 30
0.0
 10
23.831794493
 20
51.9229856584
 30
0.0
 10
23.8332352472
 20
52.1253509568
 30
0.0
  0
SPLINE
  5
389
100
AcDbEntity
  8
0
100
AcDbSpline
 62
7
  6
BYLAYER
 70
0
 71
3
 72
9
 73
5
 74
0
 42
0.0000001
 43
0.0000001
 44
0.0000000001
 40
0.0
 40
0.0
 40
0.0
 40
0.0
 40
0.5473261424
 40
1.0
 40
1.0
 40
1.0
 40
1.0
 10
31.8590259013
 20
48.9489317397
 30
0.0
 10
31.8590259013
 20
48.9703578926
 30
0.0
 10
31.8639432953
 20
49.0100826725
 30
0.0
 10
31.8864914501
 20
49.044722253
 30
0.0
 10
31.9003791432
 20
49.0557294721
 30
0.0
  0
SPLINE
  5
38A
100
AcDbEntity
  8
0
100
AcDbSpline
 62
7
  6
BYLAYER
 70
0
 71
3
 72
18
 73
14
 74
0
 42
0.0000001
 43
0.0000001
 44
0.0000000001
 40
0.0
 40
0.0
 40
0.0
 40
0.0
 40
0.0449542162
 40
0.0908160029
 40
0.1383083029
 40
0.1880790289
 40
0.240625693
 40
0.2962496568
 40
0.4170513581
 40
0.5502950692
 40
0.6940070665
 40
0.8451423727
 40
1.0
 40
1.0
 40
1.0
 40
1.0
 10
23.7195475832
 20
49.0424052212
 30
0.0
 10
23.810471161
 20
49.0949014742
 30
0.0
 10
23.9852725883
 20
49.2171799555
 30
0.0
 10
24.2160772115
 20
49.4451577191
 30
0.0
 10
24.4141057787
 20
49.7161136854
 30
0.0
 10
24.5776035222
 20
50.026710539
 30
0.0
 10
24.7052097311
 20
50.373841254
 30
0.0
 10
24.8297358265
 20
50.8949629341
 30
0.0
 10
24.8832544191
 20
51.6210908101
 30
0.0
 10
24.7957541275
 20
52.549259638
 30
0.0
 10
24.5624219126
 20
53.5245271305
 30
0.0
 10
24.1923109394
 20
54.5099539787
 30
0.0
 10
23.8646539248
 20
55.147133067
 30
0.0
 10
23.6813282969
 20
55.458895965
 30
0.0
  0
SPLINE
  5
38B
100
AcDbEntity
  8
0
100
AcDbSpline
 62
7
  6
BYLAYER
 70
0
 71
3
 72
13
 73
9
 74
0
 42
0.0000001
 43
0.0000001
 44
0.0000000001
 40
0.0
 40
0.0
 40
0.0
 40
0.0
 40
0.2890069566
 40
0.5480569434
 40
0.6676354014
 40
0.781802191
 40
0.8920051052
 40
1.0
 40
1.0
 40
1.0
 40
1.0
 10
18.0350307752
 20
55.4997374628
 30
0.0
 10
18.0350307752
 20
55.707197143
 30
0.0
 10
18.0659215297
 20
56.1017513389
 30
0.0
 10
18.2008238392
 20
56.5665462547
 30
0.0
 10
18.3646486489
 20
56.8812406
 30
0.0
 10
18.5092357816
 20
57.0825264641
 30
0.0
 10
18.677330787
 20
57.2532079959
 30
0.0
 10
18.8048341114
 20
57.3456638537
 30
0.0
 10
18.8711996737
 20
57.3857309729
 30
0.0
  0
SPLINE
  5
38C
100
AcDbEntity
  8
0
100
AcDbSpline
 62
7
  6
BYLAYER
 70
0
 71
3
 72
14
 73
10
 74
0
 42
0.0000001
 43
0.0000001
 44
0.0000000001
 40
0.0
 40
0.0
 40
0.0
 40
0.0
 40
0.42801692
 40
0.5999134627
 40
0.7423309958
 40
0.8542198235
 40
0.9346064151
 40
0.9831276408
 40
1.0
 40
1.0
 40
1.0
 40
1.0
 10
47.7080119308
 20
33.4813617012
 30
0.0
 10
47.707978773
 20
33.4754748979
 30
0.0
 10
47.7079145679
 20
33.4672148576
 30
0.0
 10
47.7077415993
 20
33.4570263811
 30
0.0
 10
47.7076349052
 20
33.4511232031
 30
0.0
 10
47.7074318163
 20
33.4466333557
 30
0.0
 10
47.7074193755
 20
33.4430705568
 30
0.0
 10
47.7070285775
 20
33.4415210431
 30
0.0
 10
47.7071579396
 20
33.4401518405
 30
0.0
 10
47.7069260685
 20
33.4401424651
 30
0.0
  0
SPLINE
  5
38D
100
AcDbEntity
  8
0
100
AcDbSpline
 62
7
  6
BYLAYER
 70
0
 71
3
 72
9
 73
5
 74
0
 42
0.0000001
 43
0.0000001
 44
0.0000000001
 40
0.0
 40
0.0
 40
0.0
 40
0.0
 40
0.2444317624
 40
1.0
 40
1.0
 40
1.0
 40
1.0
 10
47.8503659464
 20
33.5596871447
 30
0.0
 10
47.8443801078
 20
33.5531022865
 30
0.0
 10
47.8182000774
 20
33.5277257665
 30
0.0
 10
47.7863410243
 20
33.5084162975
 30
0.0
 10
47.7609601777
 20
33.4978105686
 30
0.0
  0
SPLINE
  5
38E
100
AcDbEntity
  8
0
100
AcDbSpline
 62
7
  6
BYLAYER
 70
0
 71
3
 72
8
 73
4
 74
0
 42
0.0000001
 43
0.0000001
 44
0.0000000001
 40
0.0
 40
0.0
 40
0.0
 40
0.0
 40
1.0
 40
1.0
 40
1.0
 40
1.0
 10
47.7609601777
 20
33.4978105686
 30
0.0
 10
47.7439659173
 20
33.4907092878
 30
0.0
 10
47.7261280755
 20
33.4853095432
 30
0.0
 10
47.7080001732
 20
33.4820519008
 30
0.0
  0
SPLINE
  5
38F
100
AcDbEntity
  8
0
100
AcDbSpline
 62
7
  6
BYLAYER
 70
0
 71
3
 72
10
 73
6
 74
0
 42
0.0000001
 43
0.0000001
 44
0.0000000001
 40
0.0
 40
0.0
 40
0.0
 40
0.0
 40
0.1126873848
 40
0.3079869939
 40
1.0
 40
1.0
 40
1.0
 40
1.0
 10
19.5368794475
 20
60.2320464525
 30
0.0
 10
19.5378980187
 20
60.2318698413
 30
0.0
 10
19.5406974185
 20
60.233503629
 30
0.0
 10
19.5455951963
 20
60.2411179691
 30
0.0
 10
19.5486947002
 20
60.2488075516
 30
0.0
 10
19.5508504526
 20
60.2547786982
 30
0.0
  0
SPLINE
  5
390
100
AcDbEntity
  8
0
100
AcDbSpline
 62
7
  6
BYLAYER
 70
0
 71
3
 72
9
 73
5
 74
0
 42
0.0000001
 43
0.0000001
 44
0.0000000001
 40
0.0
 40
0.0
 40
0.0
 40
0.0
 40
0.2024941481
 40
1.0
 40
1.0
 40
1.0
 40
1.0
 10
19.5508504526
 20
60.2547786982
 30
0.0
 10
19.5522653526
 20
60.2586977824
 30
0.0
 10
19.5587057905
 20
60.2782478062
 30
0.0
 10
19.5637449266
 20
60.2982280195
 30
0.0
 10
19.5674543108
 20
60.314213367
 30
0.0
  0
SPLINE
  5
391
100
AcDbEntity
  8
0
100
AcDbSpline
 62
7
  6
BYLAYER
 70
0
 71
3
 72
13
 73
9
 74
0
 42
0.0000001
 43
0.0000001
 44
0.0000000001
 40
0.0
 40
0.0
 40
0.0
 40
0.0
 40
0.416215116
 40
0.7288896575
 40
0.8425786347
 40
0.9258743429
 40
0.9782472149
 40
1.0
 40
1.0
 40
1.0
 40
1.0
 10
40.3116860757
 20
33.4132946781
 30
0.0
 10
40.3116497225
 20
33.4081290786
 30
0.0
 10
40.3115483334
 20
33.399089701
 30
0.0
 10
40.3113779792
 20
33.3886147411
 30
0.0
 10
40.3111349756
 20
33.3823186854
 30
0.0
 10
40.3110539351
 20
33.3791818284
 30
0.0
 10
40.310789866
 20
33.3773186697
 30
0.0
 10
40.3108066543
 20
33.3763044401
 30
0.0
 10
40.3106336425
 20
33.376097184
 30
0.0
  0
SPLINE
  5
392
100
AcDbEntity
  8
0
100
AcDbSpline
 62
7
  6
BYLAYER
 70
0
 71
3
 72
9
 73
5
 74
0
 42
0.0000001
 43
0.0000001
 44
0.0000000001
 40
0.0
 40
0.0
 40
0.0
 40
0.0
 40
0.2463619495
 40
1.0
 40
1.0
 40
1.0
 40
1.0
 10
40.3116991806
 20
33.4125392328
 30
0.0
 10
40.3071722432
 20
33.4133598715
 30
0.0
 10
40.2889018108
 20
33.4172500736
 30
0.0
 10
40.2710964534
 20
33.423283933
 30
0.0
 10
40.2581870555
 20
33.4288895066
 30
0.0
  0
SPLINE
  5
393
100
AcDbEntity
  8
0
100
AcDbSpline
 62
7
  6
BYLAYER
 70
0
 71
3
 72
9
 73
5
 74
0
 42
0.0000001
 43
0.0000001
 44
0.0000000001
 40
0.0
 40
0.0
 40
0.0
 40
0.0
 40
0.2530176022
 40
1.0
 40
1.0
 40
1.0
 40
1.0
 10
40.2087858875
 20
33.4572643001
 30
0.0
 10
40.2049607789
 20
33.4600696734
 30
0.0
 10
40.1901578593
 20
33.4715784558
 30
0.0
 10
40.1766224827
 20
33.4847342592
 30
0.0
 10
40.1675015502
 20
33.4953612645
 30
0.0
  0
SPLINE
  5
394
100
AcDbEntity
  8
0
100
AcDbSpline
 62
7
  6
BYLAYER
 70
0
 71
3
 72
11
 73
7
 74
0
 42
0.0000001
 43
0.0000001
 44
0.0000000001
 40
0.0
 40
0.0
 40
0.0
 40
0.0
 40
0.23721727
 40
0.4999983819
 40
0.7627803746
 40
1.0
 40
1.0
 40
1.0
 40
1.0
 10
40.3089223172
 20
52.1932652058
 30
0.0
 10
40.2888463582
 20
52.1816744146
 30
0.0
 10
40.2508510889
 20
52.1496979021
 30
0.0
 10
40.2065045345
 20
52.0890971994
 30
0.0
 10
40.1761963292
 20
52.0203912355
 30
0.0
 10
40.1675015497
 20
51.9714978077
 30
0.0
 10
40.1675015498
 20
51.9483158916
 30
0.0
  0
SPLINE
  5
395
100
AcDbEntity
  8
0
100
AcDbSpline
 62
7
  6
BYLAYER
 70
0
 71
3
 72
9
 73
5
 74
0
 42
0.0000001
 43
0.0000001
 44
0.0000000001
 40
0.0
 40
0.0
 40
0.0
 40
0.0
 40
0.2783788015
 40
1.0
 40
1.0
 40
1.0
 40
1.0
 10
40.3116860296
 20
51.977793276
 30
0.0
 10
40.3116012601
 20
51.9979685881
 30
0.0
 10
40.3110317731
 20
52.070440769
 30
0.0
 10
40.3102486269
 20
52.1429164948
 30
0.0
 10
40.308924162
 20
52.1951991829
 30
0.0
  0
SPLINE
  5
396
100
AcDbEntity
  8
0
100
AcDbSpline
 62
7
  6
BYLAYER
 70
0
 71
3
 72
9
 73
5
 74
0
 42
0.0000001
 43
0.0000001
 44
0.0000000001
 40
0.0
 40
0.0
 40
0.0
 40
0.0
 40
0.4452971453
 40
1.0
 40
1.0
 40
1.0
 40
1.0
 10
40.1675015493
 20
51.948315891
 30
0.0
 10
40.189393433
 20
51.9485446232
 30
0.0
 10
40.2383569679
 20
51.9559463197
 30
0.0
 10
40.28580439
 20
51.9689779673
 30
0.0
 10
40.3116985679
 20
51.9775368631
 30
0.0
  0
SPLINE
  5
397
100
AcDbEntity
  8
0
100
AcDbSpline
 62
7
  6
BYLAYER
 70
0
 71
3
 72
9
 73
5
 74
0
 42
0.0000001
 43
0.0000001
 44
0.0000000001
 40
0.0
 40
0.0
 40
0.0
 40
0.0
 40
0.4899289402
 40
1.0
 40
1.0
 40
1.0
 40
1.0
 10
23.2927308475
 20
62.017345681
 30
0.0
 10
23.2641035811
 20
62.0250927346
 30
0.0
 10
23.2051383503
 20
62.0396189389
 30
0.0
 10
23.1439341937
 20
62.041274808
 30
0.0
 10
23.1131865163
 20
62.0384598807
 30
0.0
  0
SPLINE
  5
398
100
AcDbEntity
  8
0
100
AcDbSpline
 62
7
  6
BYLAYER
 70
0
 71
3
 72
18
 73
14
 74
0
 42
0.0000001
 43
0.0000001
 44
0.0000000001
 40
0.0
 40
0.0
 40
0.0
 40
0.0
 40
0.122765502
 40
0.251672006
 40
0.3791653995
 40
0.502259634
 40
0.6216626552
 40
0.6817228474
 40
0.7429695725
 40
0.8066917137
 40
0.8712397276
 40
0.9360220616
 40
1.0
 40
1.0
 40
1.0
 40
1.0
 10
23.1984471121
 20
61.7451824043
 30
0.0
 10
23.1958246722
 20
61.7595946219
 30
0.0
 10
23.1922174979
 20
61.7894311489
 30
0.0
 10
23.1853874346
 20
61.8341477803
 30
0.0
 10
23.1796105932
 20
61.8790811539
 30
0.0
 10
23.1753265196
 20
61.9229836144
 30
0.0
 10
23.1777689724
 20
61.9595617639
 30
0.0
 10
23.1885617662
 20
61.9865836351
 30
0.0
 10
23.2033942959
 20
62.003587821
 30
0.0
 10
23.2237840241
 20
62.0144689083
 30
0.0
 10
23.2467048552
 20
62.0183601792
 30
0.0
 10
23.2697715468
 20
62.0190400458
 30
0.0
 10
23.2851431467
 20
62.0181860913
 30
0.0
 10
23.2927308467
 20
62.0173456814
 30
0.0
  0
SPLINE
  5
399
100
AcDbEntity
  8
0
100
AcDbSpline
 62
7
  6
BYLAYER
 70
0
 71
3
 72
10
 73
6
 74
0
 42
0.0000001
 43
0.0000001
 44
0.0000000001
 40
0.0
 40
0.0
 40
0.0
 40
0.0
 40
0.24149221
 40
0.4849941335
 40
1.0
 40
1.0
 40
1.0
 40
1.0
 10
22.9608239553
 20
61.7517454218
 30
0.0
 10
22.9645436111
 20
61.7780234486
 30
0.0
 10
22.9788884513
 20
61.8298320801
 30
0.0
 10
23.0217890075
 20
61.9308005972
 30
0.0
 10
23.0708045189
 20
62.0016604244
 30
0.0
 10
23.1135452875
 20
62.0387641506
 30
0.0
  0
SPLINE
  5
39A
100
AcDbEntity
  8
0
100
AcDbSpline
 62
7
  6
BYLAYER
 70
0
 71
3
 72
12
 73
8
 74
0
 42
0.0000001
 43
0.0000001
 44
0.0000000001
 40
0.0
 40
0.0
 40
0.0
 40
0.0
 40
0.1125803433
 40
0.2362191675
 40
0.4900848879
 40
0.7456976315
 40
1.0
 40
1.0
 40
1.0
 40
1.0
 10
22.9542622004
 20
62.0494599229
 30
0.0
 10
22.9594952804
 20
62.0464386712
 30
0.0
 10
22.971478698
 20
62.0418884965
 30
0.0
 10
22.9972482534
 20
62.0364485804
 30
0.0
 10
23.0313020437
 20
62.0343917831
 30
0.0
 10
23.0722963667
 20
62.0349976875
 30
0.0
 10
23.0995947571
 20
62.0372072978
 30
0.0
 10
23.1131865163
 20
62.0384598807
 30
0.0
  0
SPLINE
  5
39B
100
AcDbEntity
  8
0
100
AcDbSpline
 62
7
  6
BYLAYER
 70
0
 71
3
 72
11
 73
7
 74
0
 42
0.0000001
 43
0.0000001
 44
0.0000000001
 40
0.0
 40
0.0
 40
0.0
 40
0.0
 40
0.2397848544
 40
0.4759348638
 40
0.7163458171
 40
1.0
 40
1.0
 40
1.0
 40
1.0
 10
18.9657629407
 20
64.432930867
 30
0.0
 10
18.9636314812
 20
64.4251697452
 30
0.0
 10
18.9598094087
 20
64.4095862956
 30
0.0
 10
18.9586687577
 20
64.385453951
 30
0.0
 10
18.9636066015
 20
64.3598084823
 30
0.0
 10
18.9765646102
 20
64.3459327442
 30
0.0
 10
18.9848100674
 20
64.3411723349
 30
0.0
  0
SPLINE
  5
39C
100
AcDbEntity
  8
0
100
AcDbSpline
 62
7
  6
BYLAYER
 70
0
 71
3
 72
23
 73
19
 74
0
 42
0.0000001
 43
0.0000001
 44
0.0000000001
 40
0.0
 40
0.0
 40
0.0
 40
0.0
 40
0.0665776643
 40
0.1384440122
 40
0.214060962
 40
0.2916550618
 40
0.3692441067
 40
0.4448679984
 40
0.51671344
 40
0.5832988299
 40
0.6436776921
 40
0.697692469
 40
0.7462751951
 40
0.7916464304
 40
0.8370213116
 40
0.8855971218
 40
0.9396309472
 40
1.0
 40
1.0
 40
1.0
 40
1.0
 10
35.0761749613
 20
82.8113999613
 30
0.0
 10
35.1899147682
 20
82.8770672775
 30
0.0
 10
35.4386919468
 20
82.9928807174
 30
0.0
 10
35.8437530637
 20
83.1160456513
 30
0.0
 10
36.2823393653
 20
83.1917818463
 30
0.0
 10
36.7378704581
 20
83.2173823767
 30
0.0
 10
37.1934302766
 20
83.1918072285
 30
0.0
 10
37.6319413088
 20
83.1160467593
 30
0.0
 10
38.0371015862
 20
82.9928743324
 30
0.0
 10
38.3940104532
 20
82.8267021305
 30
0.0
 10
38.6897298325
 20
82.6230867284
 30
0.0
 10
38.9133281269
 20
82.3880890153
 30
0.0
 10
39.054816165
 20
82.1280084174
 30
0.0
 10
39.1038328655
 20
81.8520775232
 30
0.0
 10
39.0548106114
 20
81.5761756573
 30
0.0
 10
38.9133874536
 20
81.3160065553
 30
0.0
 10
38.6898206055
 20
81.0810667168
 30
0.0
 10
38.5027238216
 20
80.9522120134
 30
0.0
 10
38.399590669
 20
80.8926684154
 30
0.0
  0
SPLINE
  5
39D
100
AcDbEntity
  8
0
100
AcDbSpline
 62
7
  6
BYLAYER
 70
0
 71
3
 72
17
 73
13
 74
0
 42
0.0000001
 43
0.0000001
 44
0.0000000001
 40
0.0
 40
0.0
 40
0.0
 40
0.0
 40
0.1262991066
 40
0.263567326
 40
0.4061585642
 40
0.5475550858
 40
0.6814411332
 40
0.8026284656
 40
0.8575488701
 40
0.9085133266
 40
0.9557877436
 40
1.0
 40
1.0
 40
1.0
 40
1.0
 10
38.3284366053
 20
80.8532875106
 30
0.0
 10
38.1676940431
 20
80.768000569
 30
0.0
 10
37.8116319106
 20
80.6279076055
 30
0.0
 10
37.236017117
 20
80.5104895336
 30
0.0
 10
36.6274421122
 20
80.4814269453
 30
0.0
 10
36.0261313606
 20
80.542968338
 30
0.0
 10
35.4718099136
 20
80.6908682799
 30
0.0
 10
35.0653182917
 20
80.8848600408
 30
0.0
 10
34.7999774545
 20
81.0776761368
 30
0.0
 10
34.640500281
 20
81.2314161719
 30
0.0
 10
34.5170002112
 20
81.3965445818
 30
0.0
 10
34.4586868849
 20
81.5159260706
 30
0.0
 10
34.4370964262
 20
81.575854907
 30
0.0
  0
SPLINE
  5
39E
100
AcDbEntity
  8
0
100
AcDbSpline
 62
7
  6
BYLAYER
 70
0
 71
3
 72
14
 73
10
 74
0
 42
0.0000001
 43
0.0000001
 44
0.0000000001
 40
0.0
 40
0.0
 40
0.0
 40
0.0
 40
0.1129971834
 40
0.2238111419
 40
0.3357928442
 40
0.452098401
 40
0.7065080833
 40
0.8483738845
 40
1.0
 40
1.0
 40
1.0
 40
1.0
 10
34.4370964262
 20
81.575854907
 30
0.0
 10
34.4177517003
 20
81.6295502419
 30
0.0
 10
34.3897901393
 20
81.7400596085
 30
0.0
 10
34.3839382715
 20
81.9108437524
 30
0.0
 10
34.4153249708
 20
82.0805591056
 30
0.0
 10
34.5079155391
 20
82.3076640913
 30
0.0
 10
34.6725440409
 20
82.5145951525
 30
0.0
 10
34.8851252463
 20
82.6921371839
 30
0.0
 10
35.0098505031
 20
82.7731077461
 30
0.0
 10
35.0761749613
 20
82.8113999613
 30
0.0
  0
SPLINE
  5
39F
100
AcDbEntity
  8
0
100
AcDbSpline
 62
7
  6
BYLAYER
 70
0
 71
3
 72
17
 73
13
 74
0
 42
0.0000001
 43
0.0000001
 44
0.0000000001
 40
0.0
 40
0.0
 40
0.0
 40
0.0
 40
0.1262991066
 40
0.263567326
 40
0.4061585642
 40
0.5475550858
 40
0.6814411332
 40
0.8026284656
 40
0.8575488701
 40
0.9085133266
 40
0.9557877436
 40
1.0
 40
1.0
 40
1.0
 40
1.0
 10
17.1153214889
 20
68.6059628945
 30
0.0
 10
16.9545789267
 20
68.5206759528
 30
0.0
 10
16.5985167942
 20
68.3805829894
 30
0.0
 10
16.0229020006
 20
68.2631649175
 30
0.0
 10
15.4143269957
 20
68.2341023292
 30
0.0
 10
14.8130162441
 20
68.2956437218
 30
0.0
 10
14.2586947971
 20
68.4435436637
 30
0.0
 10
13.8522031753
 20
68.6375354246
 30
0.0
 10
13.5868623381
 20
68.8303515206
 30
0.0
 10
13.4273851646
 20
68.9840915557
 30
0.0
 10
13.3038850947
 20
69.1492199656
 30
0.0
 10
13.2455717685
 20
69.2686014545
 30
0.0
 10
13.2239813097
 20
69.3285302908
 30
0.0
  0
SPLINE
  5
3A0
100
AcDbEntity
  8
0
100
AcDbSpline
 62
7
  6
BYLAYER
 70
0
 71
3
 72
14
 73
10
 74
0
 42
0.0000001
 43
0.0000001
 44
0.0000000001
 40
0.0
 40
0.0
 40
0.0
 40
0.0
 40
0.1129971834
 40
0.2238111419
 40
0.3357928442
 40
0.452098401
 40
0.7065080833
 40
0.8483738845
 40
1.0
 40
1.0
 40
1.0
 40
1.0
 10
13.2239813097
 20
69.3285302908
 30
0.0
 10
13.2046365838
 20
69.3822256258
 30
0.0
 10
13.1766750229
 20
69.4927349924
 30
0.0
 10
13.1708231551
 20
69.6635191363
 30
0.0
 10
13.2022098544
 20
69.8332344895
 30
0.0
 10
13.2948004227
 20
70.0603394752
 30
0.0
 10
13.4594289245
 20
70.2672705363
 30
0.0
 10
13.6720101298
 20
70.4448125678
 30
0.0
 10
13.7967353867
 20
70.52578313
 30
0.0
 10
13.8630598449
 20
70.5640753452
 30
0.0
  0
SPLINE
  5
3A1
100
AcDbEntity
  8
0
100
AcDbSpline
 62
7
  6
BYLAYER
 70
0
 71
3
 72
23
 73
19
 74
0
 42
0.0000001
 43
0.0000001
 44
0.0000000001
 40
0.0
 40
0.0
 40
0.0
 40
0.0
 40
0.0665776643
 40
0.1384440122
 40
0.214060962
 40
0.2916550618
 40
0.3692441067
 40
0.4448679984
 40
0.51671344
 40
0.5832988299
 40
0.6436776921
 40
0.697692469
 40
0.7462751951
 40
0.7916464304
 40
0.8370213116
 40
0.8855971218
 40
0.9396309472
 40
1.0
 40
1.0
 40
1.0
 40
1.0
 10
15.2772675193
 20
71.3805636529
 30
0.0
 10
15.3910073262
 20
71.4462309691
 30
0.0
 10
15.6397845048
 20
71.562044409
 30
0.0
 10
16.0448456217
 20
71.6852093429
 30
0.0
 10
16.4834319233
 20
71.7609455379
 30
0.0
 10
16.938963016
 20
71.7865460683
 30
0.0
 10
17.3945228345
 20
71.7609709201
 30
0.0
 10
17.8330338668
 20
71.6852104509
 30
0.0
 10
18.2381941442
 20
71.562038024
 30
0.0
 10
18.5951030111
 20
71.3958658221
 30
0.0
 10
18.8908223904
 20
71.1922504201
 30
0.0
 10
19.1144206848
 20
70.9572527069
 30
0.0
 10
19.2559087229
 20
70.697172109
 30
0.0
 10
19.3049254235
 20
70.4212412148
 30
0.0
 10
19.2559031694
 20
70.1453393489
 30
0.0
 10
19.1144800116
 20
69.8851702469
 30
0.0
 10
18.8909131636
 20
69.6502304084
 30
0.0
 10
18.7038163797
 20
69.521375705
 30
0.0
 10
18.600683227
 20
69.461832107
 30
0.0
  0
SPLINE
  5
3A2
100
AcDbEntity
  8
0
100
AcDbSpline
 62
7
  6
BYLAYER
 70
0
 71
3
 72
11
 73
7
 74
0
 42
0.0000001
 43
0.0000001
 44
0.0000000001
 40
0.0
 40
0.0
 40
0.0
 40
0.0
 40
0.2681051142
 40
0.5192290266
 40
0.7602337611
 40
1.0
 40
1.0
 40
1.0
 40
1.0
 10
21.0864719797
 20
63.0741924475
 30
0.0
 10
21.1044770728
 20
63.0637974374
 30
0.0
 10
21.1374041507
 20
63.0398904384
 30
0.0
 10
21.1754564443
 20
62.9939783898
 30
0.0
 10
21.198668018
 20
62.9413794127
 30
0.0
 10
21.2036223142
 20
62.9038675914
 30
0.0
 10
21.2036221907
 20
62.8852747735
 30
0.0
  0
SPLINE
  5
3A3
100
AcDbEntity
  8
0
100
AcDbSpline
 62
7
  6
BYLAYER
 70
0
 71
3
 72
9
 73
5
 74
0
 42
0.0000001
 43
0.0000001
 44
0.0000000001
 40
0.0
 40
0.0
 40
0.0
 40
0.0
 40
0.2689998984
 40
1.0
 40
1.0
 40
1.0
 40
1.0
 10
20.4965365154
 20
63.2935187022
 30
0.0
 10
20.5221229157
 20
63.2974770216
 30
0.0
 10
20.6177614581
 20
63.3057623382
 30
0.0
 10
20.7184481165
 20
63.2866894926
 30
0.0
 10
20.7793798218
 20
63.2515113168
 30
0.0
  0
SPLINE
  5
3A4
100
AcDbEntity
  8
0
100
AcDbSpline
 62
7
  6
BYLAYER
 70
0
 71
3
 72
23
 73
19
 74
0
 42
0.0000001
 43
0.0000001
 44
0.0000000001
 40
0.0
 40
0.0
 40
0.0
 40
0.0
 40
0.052545306
 40
0.10954855
 40
0.1708342356
 40
0.2359260854
 40
0.3041243416
 40
0.3745725969
 40
0.4463069764
 40
0.5183054193
 40
0.5895367164
 40
0.6590012504
 40
0.7257796126
 40
0.7890877253
 40
0.8483251835
 40
0.9031450462
 40
0.9535764329
 40
1.0
 40
1.0
 40
1.0
 40
1.0
 10
61.227115901
 20
79.1865164268
 30
0.0
 10
61.2812504068
 20
79.3716124094
 30
0.0
 10
61.3593530404
 20
79.7681055126
 30
0.0
 10
61.3901301396
 20
80.3960532666
 30
0.0
 10
61.3392073886
 20
81.0687258254
 30
0.0
 10
61.2078209196
 20
81.7719318401
 30
0.0
 10
60.9988938543
 20
82.4910535951
 30
0.0
 10
60.7168382801
 20
83.2109004929
 30
0.0
 10
60.3676002897
 20
83.9162008215
 30
0.0
 10
59.9586540242
 20
84.5919902117
 30
0.0
 10
59.4986964229
 20
85.2239120273
 30
0.0
 10
58.9974417512
 20
85.7985104147
 30
0.0
 10
58.4655143749
 20
86.3036390398
 30
0.0
 10
57.9140601054
 20
86.7286454519
 30
0.0
 10
57.3545065566
 20
87.0645074103
 30
0.0
 10
56.7980141134
 20
87.3040970307
 30
0.0
 10
56.2559962793
 20
87.4416384215
 30
0.0
 10
55.8982120157
 20
87.4633517484
 30
0.0
 10
55.7280730787
 20
87.4542526409
 30
0.0
  0
SPLINE
  5
3A5
100
AcDbEntity
  8
0
100
AcDbSpline
 62
7
  6
BYLAYER
 70
0
 71
3
 72
13
 73
9
 74
0
 42
0.0000001
 43
0.0000001
 44
0.0000000001
 40
0.0
 40
0.0
 40
0.0
 40
0.0
 40
0.4655991859
 40
0.7709653349
 40
0.8675604061
 40
0.9362116059
 40
0.9799475158
 40
1.0
 40
1.0
 40
1.0
 40
1.0
 10
23.1984471126
 20
43.2922277769
 30
0.0
 10
23.1960522436
 20
43.2830969964
 30
0.0
 10
23.1929348806
 20
43.2678748052
 30
0.0
 10
23.1881839026
 20
43.2506490863
 30
0.0
 10
23.1831921688
 20
43.2425429884
 30
0.0
 10
23.1803179551
 20
43.2392467339
 30
0.0
 10
23.178338651
 20
43.2377445417
 30
0.0
 10
23.1769489387
 20
43.2370026876
 30
0.0
 10
23.1765907123
 20
43.2371949227
 30
0.0
  0
SPLINE
  5
3A6
100
AcDbEntity
  8
0
100
AcDbSpline
 62
7
  6
BYLAYER
 70
0
 71
3
 72
9
 73
5
 74
0
 42
0.0000001
 43
0.0000001
 44
0.0000000001
 40
0.0
 40
0.0
 40
0.0
 40
0.0
 40
0.4526854502
 40
1.0
 40
1.0
 40
1.0
 40
1.0
 10
20.7076250802
 20
60.0195520765
 30
0.0
 10
20.6965118781
 20
60.0284356007
 30
0.0
 10
20.6784968651
 20
60.0562832011
 30
0.0
 10
20.6745613367
 20
60.0881696404
 30
0.0
 10
20.6745613367
 20
60.1053711851
 30
0.0
  0
SPLINE
  5
3A7
100
AcDbEntity
  8
0
100
AcDbSpline
 62
7
  6
BYLAYER
 70
0
 71
3
 72
9
 73
5
 74
0
 42
0.0000001
 43
0.0000001
 44
0.0000000001
 40
0.0
 40
0.0
 40
0.0
 40
0.0
 40
0.2304898103
 40
1.0
 40
1.0
 40
1.0
 40
1.0
 10
20.6214687619
 20
60.0542052712
 30
0.0
 10
20.6232101687
 20
60.0502388222
 30
0.0
 10
20.6296295577
 20
60.032529904
 30
0.0
 10
20.6317654247
 20
60.0134715584
 30
0.0
 10
20.6317654253
 20
59.9990091901
 30
0.0
  0
SPLINE
  5
3A8
100
AcDbEntity
  8
0
100
AcDbSpline
 62
7
  6
BYLAYER
 70
0
 71
3
 72
9
 73
5
 74
0
 42
0.0000001
 43
0.0000001
 44
0.0000000001
 40
0.0
 40
0.0
 40
0.0
 40
0.0
 40
0.5088923215
 40
1.0
 40
1.0
 40
1.0
 40
1.0
 10
18.8195694574
 20
64.2652204764
 30
0.0
 10
18.8413313211
 20
64.2960665606
 30
0.0
 10
18.8908347104
 20
64.3516756394
 30
0.0
 10
18.9416137807
 20
64.4056531687
 30
0.0
 10
18.9657606165
 20
64.4329318265
 30
0.0
  0
SPLINE
  5
3A9
100
AcDbEntity
  8
0
100
AcDbSpline
 62
7
  6
BYLAYER
 70
0
 71
3
 72
9
 73
5
 74
0
 42
0.0000001
 43
0.0000001
 44
0.0000000001
 40
0.0
 40
0.0
 40
0.0
 40
0.0
 40
0.4860332618
 40
1.0
 40
1.0
 40
1.0
 40
1.0
 10
18.8866618605
 20
57.3815761254
 30
0.0
 10
18.7924391234
 20
57.3095609816
 30
0.0
 10
18.6171308101
 20
57.135895632
 30
0.0
 10
18.4868342755
 20
56.9271376007
 30
0.0
 10
18.4310016467
 20
56.8148439146
 30
0.0
  0
SPLINE
  5
3AA
100
AcDbEntity
  8
0
100
AcDbSpline
 62
7
  6
BYLAYER
 70
0
 71
3
 72
20
 73
16
 74
0
 42
0.0000001
 43
0.0000001
 44
0.0000000001
 40
0.0
 40
0.0
 40
0.0
 40
0.0
 40
0.0432612599
 40
0.0891509362
 40
0.1386427941
 40
0.1922675349
 40
0.2501553999
 40
0.312121206
 40
0.3777193838
 40
0.4463184767
 40
0.5892147219
 40
0.733861343
 40
0.8728689412
 40
0.9382884264
 40
1.0
 40
1.0
 40
1.0
 40
1.0
 10
22.8031155516
 20
50.1013685172
 30
0.0
 10
22.6946099221
 20
50.0637455829
 30
0.0
 10
22.4608855328
 20
50.0132963154
 30
0.0
 10
22.0904908705
 20
50.0149058394
 30
0.0
 10
21.7001971062
 20
50.0905792112
 30
0.0
 10
21.2974073747
 20
50.2380083874
 30
0.0
 10
20.8891883038
 20
50.4537794148
 30
0.0
 10
20.4830567023
 20
50.7337651694
 30
0.0
 10
20.08645216
 20
51.0725436804
 30
0.0
 10
19.5736058842
 20
51.6010625615
 30
0.0
 10
19.0062831535
 20
52.3633560421
 30
0.0
 10
18.4796032759
 20
53.3705916117
 30
0.0
 10
18.1866269189
 20
54.2553476521
 30
0.0
 10
18.0619568484
 20
54.9517273262
 30
0.0
 10
18.0372618927
 20
55.2891657183
 30
0.0
 10
18.0353103868
 20
55.4529762665
 30
0.0
  0
SPLINE
  5
3AB
100
AcDbEntity
  8
0
100
AcDbSpline
 62
7
  6
BYLAYER
 70
0
 71
3
 72
12
 73
8
 74
0
 42
0.0000001
 43
0.0000001
 44
0.0000000001
 40
0.0
 40
0.0
 40
0.0
 40
0.0
 40
0.4039367824
 40
0.7125675661
 40
0.9105203165
 40
0.9667494653
 40
1.0
 40
1.0
 40
1.0
 40
1.0
 10
20.5331397793
 20
60.1648225739
 30
0.0
 10
20.530423786
 20
60.1531182111
 30
0.0
 10
20.5252804727
 20
60.1325193771
 30
0.0
 10
20.5173780286
 20
60.1066896373
 30
0.0
 10
20.5109175336
 20
60.0910183326
 30
0.0
 10
20.50617774
 20
60.0839914096
 30
0.0
 10
20.5035443303
 20
60.0825180615
 30
0.0
 10
20.5025659367
 20
60.0826629127
 30
0.0
  0
SPLINE
  5
3AC
100
AcDbEntity
  8
0
100
AcDbSpline
 62
7
  6
BYLAYER
 70
0
 71
3
 72
11
 73
7
 74
0
 42
0.0000001
 43
0.0000001
 44
0.0000000001
 40
0.0
 40
0.0
 40
0.0
 40
0.0
 40
0.2895567146
 40
0.5489668536
 40
0.7820909806
 40
1.0
 40
1.0
 40
1.0
 40
1.0
 10
19.4260327113
 20
60.3480329393
 30
0.0
 10
19.4260327113
 20
60.337904436
 30
0.0
 10
19.4275759575
 20
60.3186377428
 30
0.0
 10
19.4353637015
 20
60.2921604547
 30
0.0
 10
19.4485031539
 20
60.2706625156
 30
0.0
 10
19.4608603285
 20
60.2602977204
 30
0.0
 10
19.4674586255
 20
60.256481682
 30
0.0
  0
SPLINE
  5
3AD
100
AcDbEntity
  8
0
100
AcDbSpline
 62
7
  6
BYLAYER
 70
0
 71
3
 72
9
 73
5
 74
0
 42
0.0000001
 43
0.0000001
 44
0.0000000001
 40
0.0
 40
0.0
 40
0.0
 40
0.0
 40
0.2562562935
 40
1.0
 40
1.0
 40
1.0
 40
1.0
 10
19.5156904742
 20
60.3181477329
 30
0.0
 10
19.511500976
 20
60.3187950808
 30
0.0
 10
19.4952049415
 20
60.3216443949
 30
0.0
 10
19.4791257251
 20
60.3257899451
 30
0.0
 10
19.4674541999
 20
60.3296829592
 30
0.0
  0
SPLINE
  5
3AE
100
AcDbEntity
  8
0
100
AcDbSpline
 62
7
  6
BYLAYER
 70
0
 71
3
 72
9
 73
5
 74
0
 42
0.0000001
 43
0.0000001
 44
0.0000000001
 40
0.0
 40
0.0
 40
0.0
 40
0.0
 40
0.2605912121
 40
1.0
 40
1.0
 40
1.0
 40
1.0
 10
19.4674541999
 20
60.3296829592
 30
0.0
 10
19.4637176849
 20
60.3309292664
 30
0.0
 10
19.4494916633
 20
60.3360347219
 30
0.0
 10
19.4357117315
 20
60.3424448807
 30
0.0
 10
19.4260327115
 20
60.3480329392
 30
0.0
  0
SPLINE
  5
3AF
100
AcDbEntity
  8
0
100
AcDbSpline
 62
7
  6
BYLAYER
 70
0
 71
3
 72
9
 73
5
 74
0
 42
0.0000001
 43
0.0000001
 44
0.0000000001
 40
0.0
 40
0.0
 40
0.0
 40
0.0
 40
0.2353396507
 40
1.0
 40
1.0
 40
1.0
 40
1.0
 10
77.1547204561
 20
51.4369355814
 30
0.0
 10
77.154069533
 20
51.4328569921
 30
0.0
 10
77.1497146032
 20
51.4157716619
 30
0.0
 10
77.1394001085
 20
51.4006014534
 30
0.0
 10
77.1300584617
 20
51.3909669403
 30
0.0
  0
SPLINE
  5
3B0
100
AcDbEntity
  8
0
100
AcDbSpline
 62
7
  6
BYLAYER
 70
0
 71
3
 72
9
 73
5
 74
0
 42
0.0000001
 43
0.0000001
 44
0.0000000001
 40
0.0
 40
0.0
 40
0.0
 40
0.0
 40
0.5442478479
 40
1.0
 40
1.0
 40
1.0
 40
1.0
 10
18.4390894764
 20
60.9178319908
 30
0.0
 10
18.4251615389
 20
60.9258731074
 30
0.0
 10
18.4010952308
 20
60.9439033719
 30
0.0
 10
18.3855203454
 20
60.9705612295
 30
0.0
 10
18.3823824356
 20
60.9836580242
 30
0.0
  0
SPLINE
  5
3B1
100
AcDbEntity
  8
0
100
AcDbSpline
 62
7
  6
BYLAYER
 70
0
 71
3
 72
8
 73
4
 74
0
 42
0.0000001
 43
0.0000001
 44
0.0000000001
 40
0.0
 40
0.0
 40
0.0
 40
0.0
 40
1.0
 40
1.0
 40
1.0
 40
1.0
 10
18.3823824356
 20
60.9836580242
 30
0.0
 10
18.3811448503
 20
60.988823374
 30
0.0
 10
18.3804952966
 20
60.9941692845
 30
0.0
 10
18.3804979937
 20
60.9994808237
 30
0.0
  0
SPLINE
  5
3B2
100
AcDbEntity
  8
0
100
AcDbSpline
 62
7
  6
BYLAYER
 70
0
 71
3
 72
8
 73
4
 74
0
 42
0.0000001
 43
0.0000001
 44
0.0000000001
 40
0.0
 40
0.0
 40
0.0
 40
0.0
 40
1.0
 40
1.0
 40
1.0
 40
1.0
 10
18.4401444353
 20
60.8985319392
 30
0.0
 10
18.4394188598
 20
60.9049339077
 30
0.0
 10
18.439089476
 20
60.9113890369
 30
0.0
 10
18.439089476
 20
60.9178319913
 30
0.0
  0
SPLINE
  5
3B3
100
AcDbEntity
  8
0
100
AcDbSpline
 62
7
  6
BYLAYER
 70
0
 71
3
 72
9
 73
5
 74
0
 42
0.0000001
 43
0.0000001
 44
0.0000000001
 40
0.0
 40
0.0
 40
0.0
 40
0.0
 40
0.2349572887
 40
1.0
 40
1.0
 40
1.0
 40
1.0
 10
18.439089476
 20
63.4956695972
 30
0.0
 10
18.439089476
 20
63.5010012368
 30
0.0
 10
18.4400787374
 20
63.523690306
 30
0.0
 10
18.4445541574
 20
63.546159151
 30
0.0
 10
18.4493992088
 20
63.5628296619
 30
0.0
  0
SPLINE
  5
3B4
100
AcDbEntity
  8
0
100
AcDbSpline
 62
7
  6
BYLAYER
 70
0
 71
3
 72
9
 73
5
 74
0
 42
0.0000001
 43
0.0000001
 44
0.0000000001
 40
0.0
 40
0.0
 40
0.0
 40
0.0
 40
0.2445201478
 40
1.0
 40
1.0
 40
1.0
 40
1.0
 10
18.4493992088
 20
63.5628296619
 30
0.0
 10
18.4511144157
 20
63.5687312247
 30
0.0
 10
18.4588928613
 20
63.5926399852
 30
0.0
 10
18.4695042366
 20
63.6156099332
 30
0.0
 10
18.4788469366
 20
63.6321406885
 30
0.0
  0
SPLINE
  5
3B5
100
AcDbEntity
  8
0
100
AcDbSpline
 62
7
  6
BYLAYER
 70
0
 71
3
 72
9
 73
5
 74
0
 42
0.0000001
 43
0.0000001
 44
0.0000000001
 40
0.0
 40
0.0
 40
0.0
 40
0.0
 40
0.254339589
 40
1.0
 40
1.0
 40
1.0
 40
1.0
 10
18.4852160204
 20
63.6429451783
 30
0.0
 10
18.4880201431
 20
63.6475105552
 30
0.0
 10
18.4994602412
 20
63.6652001301
 30
0.0
 10
18.5125079604
 20
63.681866939
 30
0.0
 10
18.5231269051
 20
63.6934414307
 30
0.0
  0
SPLINE
  5
3B6
100
AcDbEntity
  8
0
100
AcDbSpline
 62
7
  6
BYLAYER
 70
0
 71
3
 72
9
 73
5
 74
0
 42
0.0000001
 43
0.0000001
 44
0.0000000001
 40
0.0
 40
0.0
 40
0.0
 40
0.0
 40
0.4907590301
 40
1.0
 40
1.0
 40
1.0
 40
1.0
 10
54.8850906249
 20
87.1022704716
 30
0.0
 10
55.0062222355
 20
87.1674079617
 30
0.0
 10
55.2696148513
 20
87.2711339228
 30
0.0
 10
55.5489825877
 20
87.31365764
 30
0.0
 10
55.6914930501
 20
87.3212791216
 30
0.0
  0
SPLINE
  5
3B7
100
AcDbEntity
  8
0
100
AcDbSpline
 62
7
  6
BYLAYER
 70
0
 71
3
 72
11
 73
7
 74
0
 42
0.0000001
 43
0.0000001
 44
0.0000000001
 40
0.0
 40
0.0
 40
0.0
 40
0.0
 40
0.3063633225
 40
0.5730019839
 40
0.799515516
 40
1.0
 40
1.0
 40
1.0
 40
1.0
 10
18.5439078562
 20
63.7139223103
 30
0.0
 10
18.530510301
 20
63.717734202
 30
0.0
 10
18.5047992114
 20
63.7228991566
 30
0.0
 10
18.4681079692
 20
63.7224872489
 30
0.0
 10
18.4373870322
 20
63.7130013097
 30
0.0
 10
18.422135882
 20
63.6997837666
 30
0.0
 10
18.4168899998
 20
63.6923292288
 30
0.0
  0
SPLINE
  5
3B8
100
AcDbEntity
  8
0
100
AcDbSpline
 62
7
  6
BYLAYER
 70
0
 71
3
 72
9
 73
5
 74
0
 42
0.0000001
 43
0.0000001
 44
0.0000000001
 40
0.0
 40
0.0
 40
0.0
 40
0.0
 40
0.7543952668
 40
1.0
 40
1.0
 40
1.0
 40
1.0
 10
18.5231269051
 20
63.6934414307
 30
0.0
 10
18.5280882709
 20
63.6988492455
 30
0.0
 10
18.5349295299
 20
63.7057838919
 30
0.0
 10
18.54212018
 20
63.7123370857
 30
0.0
 10
18.5439078558
 20
63.7139223098
 30
0.0
  0
SPLINE
  5
3B9
100
AcDbEntity
  8
0
100
AcDbSpline
 62
7
  6
BYLAYER
 70
0
 71
3
 72
9
 73
5
 74
0
 42
0.0000001
 43
0.0000001
 44
0.0000000001
 40
0.0
 40
0.0
 40
0.0
 40
0.0
 40
0.4744330328
 40
1.0
 40
1.0
 40
1.0
 40
1.0
 10
19.4260327115
 20
62.9258705452
 30
0.0
 10
19.4461087348
 20
62.9142799099
 30
0.0
 10
19.4927806869
 20
62.8973609712
 30
0.0
 10
19.5417741504
 20
62.8920509111
 30
0.0
 10
19.5674543116
 20
62.8920509728
 30
0.0
  0
SPLINE
  5
3BA
100
AcDbEntity
  8
0
100
AcDbSpline
 62
7
  6
BYLAYER
 70
0
 71
3
 72
10
 73
6
 74
0
 42
0.0000001
 43
0.0000001
 44
0.0000000001
 40
0.0
 40
0.0
 40
0.0
 40
0.0
 40
0.5089003694
 40
0.7649435095
 40
1.0
 40
1.0
 40
1.0
 40
1.0
 10
19.5308510908
 20
63.144123258
 30
0.0
 10
19.5007961523
 20
63.1174719992
 30
0.0
 10
19.4639293265
 20
63.0672775366
 30
0.0
 10
19.4346238596
 20
62.9937970606
 30
0.0
 10
19.4273605515
 20
62.955298851
 30
0.0
 10
19.426338114
 20
62.936773113
 30
0.0
  0
SPLINE
  5
3BB
100
AcDbEntity
  8
0
100
AcDbSpline
 62
7
  6
BYLAYER
 70
0
 71
3
 72
9
 73
5
 74
0
 42
0.0000001
 43
0.0000001
 44
0.0000000001
 40
0.0
 40
0.0
 40
0.0
 40
0.0
 40
0.5154087408
 40
1.0
 40
1.0
 40
1.0
 40
1.0
 10
19.5674543108
 20
62.8920509728
 30
0.0
 10
19.5575548687
 20
62.9347119203
 30
0.0
 10
19.542888893
 20
63.0184827262
 30
0.0
 10
19.5328127101
 20
63.1029941151
 30
0.0
 10
19.5308510901
 20
63.1441232578
 30
0.0
  0
SPLINE
  5
3BC
100
AcDbEntity
  8
0
100
AcDbSpline
 62
7
  6
BYLAYER
 70
0
 71
3
 72
9
 73
5
 74
0
 42
0.0000001
 43
0.0000001
 44
0.0000000001
 40
0.0
 40
0.0
 40
0.0
 40
0.0
 40
0.4846070368
 40
1.0
 40
1.0
 40
1.0
 40
1.0
 10
20.496536519
 20
63.2935187026
 30
0.0
 10
20.4984981993
 20
63.2523882854
 30
0.0
 10
20.508584663
 20
63.167878284
 30
0.0
 10
20.5232406147
 20
63.0841059919
 30
0.0
 10
20.5331397381
 20
63.0414464173
 30
0.0
  0
SPLINE
  5
3BD
100
AcDbEntity
  8
0
100
AcDbSpline
 62
7
  6
BYLAYER
 70
0
 71
3
 72
10
 73
6
 74
0
 42
0.0000001
 43
0.0000001
 44
0.0000000001
 40
0.0
 40
0.0
 40
0.0
 40
0.0
 40
0.2315395156
 40
0.4872534716
 40
1.0
 40
1.0
 40
1.0
 40
1.0
 10
20.6745613411
 20
63.0332586562
 30
0.0
 10
20.6745613483
 20
63.0523644246
 30
0.0
 10
20.6805354422
 20
63.0926497285
 30
0.0
 10
20.7094533652
 20
63.1701542845
 30
0.0
 10
20.7477234043
 20
63.2234399642
 30
0.0
 10
20.7793798127
 20
63.2515113093
 30
0.0
  0
SPLINE
  5
3BE
100
AcDbEntity
  8
0
100
AcDbSpline
 62
7
  6
BYLAYER
 70
0
 71
3
 72
10
 73
6
 74
0
 42
0.0000001
 43
0.0000001
 44
0.0000000001
 40
0.0
 40
0.0
 40
0.0
 40
0.0
 40
0.512746477
 40
0.7684604472
 40
1.0
 40
1.0
 40
1.0
 40
1.0
 10
21.0864877761
 20
63.0742064552
 30
0.0
 10
21.0548313787
 20
63.0461351005
 30
0.0
 10
21.0165613632
 20
62.9928494021
 30
0.0
 10
20.9876434742
 20
62.9153448289
 30
0.0
 10
20.9816693967
 20
62.8750595163
 30
0.0
 10
20.9816693966
 20
62.8559537438
 30
0.0
  0
SPLINE
  5
3BF
100
AcDbEntity
  8
0
100
AcDbSpline
 62
7
  6
BYLAYER
 70
0
 71
3
 72
11
 73
7
 74
0
 42
0.0000001
 43
0.0000001
 44
0.0000000001
 40
0.0
 40
0.0
 40
0.0
 40
0.0
 40
0.2113122495
 40
0.445267156
 40
0.7102316312
 40
1.0
 40
1.0
 40
1.0
 40
1.0
 10
21.0402486557
 20
62.7486736096
 30
0.0
 10
21.0402486753
 20
62.7649025917
 30
0.0
 10
21.0495249629
 20
62.799482436
 30
0.0
 10
21.0863106794
 20
62.8415906104
 30
0.0
 10
21.1397293737
 20
62.8719341229
 30
0.0
 10
21.1815755841
 20
62.8824233652
 30
0.0
 10
21.2036462411
 20
62.8852778846
 30
0.0
  0
SPLINE
  5
3C0
100
AcDbEntity
  8
0
100
AcDbSpline
 62
7
  6
BYLAYER
 70
0
 71
3
 72
11
 73
7
 74
0
 42
0.0000001
 43
0.0000001
 44
0.0000000001
 40
0.0
 40
0.0
 40
0.0
 40
0.0
 40
0.2895200695
 40
0.5548075231
 40
0.788844905
 40
1.0
 40
1.0
 40
1.0
 40
1.0
 10
21.2036502616
 20
62.1783540545
 30
0.0
 10
21.1815990339
 20
62.1755020472
 30
0.0
 10
21.1397797779
 20
62.1649539316
 30
0.0
 10
21.0862509209
 20
62.1347432759
 30
0.0
 10
21.0495837448
 20
62.0925088252
 30
0.0
 10
21.0402526672
 20
62.0579662174
 30
0.0
 10
21.0402526496
 20
62.0417496852
 30
0.0
  0
SPLINE
  5
3C1
100
AcDbEntity
  8
0
100
AcDbSpline
 62
7
  6
BYLAYER
 70
0
 71
3
 72
9
 73
5
 74
0
 42
0.0000001
 43
0.0000001
 44
0.0000000001
 40
0.0
 40
0.0
 40
0.0
 40
0.0
 40
0.2334023259
 40
1.0
 40
1.0
 40
1.0
 40
1.0
 10
21.0988318825
 20
61.9601013421
 30
0.0
 10
21.0988318825
 20
61.9661685344
 30
0.0
 10
21.1001307496
 20
61.9921587152
 30
0.0
 10
21.1058951559
 20
62.0178223092
 30
0.0
 10
21.1120819073
 20
62.0367649687
 30
0.0
  0
SPLINE
  5
3C2
100
AcDbEntity
  8
0
100
AcDbSpline
 62
7
  6
BYLAYER
 70
0
 71
3
 72
9
 73
5
 74
0
 42
0.0000001
 43
0.0000001
 44
0.0000000001
 40
0.0
 40
0.0
 40
0.0
 40
0.0
 40
0.5063447066
 40
1.0
 40
1.0
 40
1.0
 40
1.0
 10
21.1120819073
 20
62.0367649687
 30
0.0
 10
21.120990479
 20
62.064041326
 30
0.0
 10
21.1460592204
 20
62.1155937016
 30
0.0
 10
21.1827191447
 20
62.1597933574
 30
0.0
 10
21.2036502619
 20
62.1783540548
 30
0.0
  0
SPLINE
  5
3C3
100
AcDbEntity
  8
0
100
AcDbSpline
 62
7
  6
BYLAYER
 70
0
 71
3
 72
10
 73
6
 74
0
 42
0.0000001
 43
0.0000001
 44
0.0000000001
 40
0.0
 40
0.0
 40
0.0
 40
0.0
 40
0.2183750415
 40
0.4523029938
 40
1.0
 40
1.0
 40
1.0
 40
1.0
 10
21.0402526496
 20
62.0417496928
 30
0.0
 10
21.0402527045
 20
62.0341344074
 30
0.0
 10
21.0430728741
 20
62.0182520095
 30
0.0
 10
21.0599511801
 20
61.9872315285
 30
0.0
 10
21.0822910772
 20
61.9696509644
 30
0.0
 10
21.0988318821
 20
61.9601013423
 30
0.0
  0
SPLINE
  5
3C4
100
AcDbEntity
  8
0
100
AcDbSpline
 62
7
  6
BYLAYER
 70
0
 71
3
 72
10
 73
6
 74
0
 42
0.0000001
 43
0.0000001
 44
0.0000000001
 40
0.0
 40
0.0
 40
0.0
 40
0.0
 40
0.5127695258
 40
0.7686094625
 40
1.0
 40
1.0
 40
1.0
 40
1.0
 10
22.1905934967
 20
61.6085550031
 30
0.0
 10
22.1589353647
 20
61.5804821103
 30
0.0
 10
22.1206042707
 20
61.5272114773
 30
0.0
 10
22.0917813129
 20
61.4496719318
 30
0.0
 10
22.0857751172
 20
61.4093959547
 30
0.0
 10
22.0857751172
 20
61.3903022904
 30
0.0
  0
SPLINE
  5
3C5
100
AcDbEntity
  8
0
100
AcDbSpline
 62
7
  6
BYLAYER
 70
0
 71
3
 72
9
 73
5
 74
0
 42
0.0000001
 43
0.0000001
 44
0.0000000001
 40
0.0
 40
0.0
 40
0.0
 40
0.0
 40
0.2664219025
 40
1.0
 40
1.0
 40
1.0
 40
1.0
 10
22.2208698804
 20
61.5723800219
 30
0.0
 10
22.2183358503
 20
61.5757172855
 30
0.0
 10
22.2086886011
 20
61.5881381545
 30
0.0
 10
22.1984897929
 20
61.6001425942
 30
0.0
 10
22.1905934968
 20
61.6085550027
 30
0.0
  0
SPLINE
  5
3C6
100
AcDbEntity
  8
0
100
AcDbSpline
 62
7
  6
BYLAYER
 70
0
 71
3
 72
10
 73
6
 74
0
 42
0.0000001
 43
0.0000001
 44
0.0000000001
 40
0.0
 40
0.0
 40
0.0
 40
0.0
 40
0.2232834328
 40
0.4793223667
 40
1.0
 40
1.0
 40
1.0
 40
1.0
 10
22.3271966056
 20
61.371952791
 30
0.0
 10
22.3222938611
 20
61.388178117
 30
0.0
 10
22.3092990814
 20
61.4222659769
 30
0.0
 10
22.2761861325
 20
61.4905987493
 30
0.0
 10
22.2447724824
 20
61.5409008055
 30
0.0
 10
22.2208698804
 20
61.5723800219
 30
0.0
  0
SPLINE
  5
3C7
100
AcDbEntity
  8
0
100
AcDbSpline
 62
7
  6
BYLAYER
 70
0
 71
3
 72
10
 73
6
 74
0
 42
0.0000001
 43
0.0000001
 44
0.0000000001
 40
0.0
 40
0.0
 40
0.0
 40
0.0
 40
0.2313894863
 40
0.4872292398
 40
1.0
 40
1.0
 40
1.0
 40
1.0
 10
22.0857751172
 20
61.3903022904
 30
0.0
 10
22.1023107091
 20
61.3807556779
 30
0.0
 10
22.1401938158
 20
61.3658196444
 30
0.0
 10
22.2217564893
 20
61.3520119364
 30
0.0
 10
22.2870556466
 20
61.3585725341
 30
0.0
 10
22.3271966058
 20
61.3719527911
 30
0.0
  0
SPLINE
  5
3C8
100
AcDbEntity
  8
0
100
AcDbSpline
 62
7
  6
BYLAYER
 70
0
 71
3
 72
10
 73
6
 74
0
 42
0.0000001
 43
0.0000001
 44
0.0000000001
 40
0.0
 40
0.0
 40
0.0
 40
0.0
 40
0.2262589051
 40
0.4806060739
 40
1.0
 40
1.0
 40
1.0
 40
1.0
 10
23.1984471011
 20
61.7451824106
 30
0.0
 10
23.1820057789
 20
61.7531420882
 30
0.0
 10
23.1445693159
 20
61.7649667871
 30
0.0
 10
23.0641399468
 20
61.77380048
 30
0.0
 10
23.0005088465
 20
61.765248642
 30
0.0
 10
22.960810437
 20
61.7517437733
 30
0.0
  0
SPLINE
  5
3C9
100
AcDbEntity
  8
0
100
AcDbSpline
 62
7
  6
BYLAYER
 70
0
 71
3
 72
10
 73
6
 74
0
 42
0.0000001
 43
0.0000001
 44
0.0000000001
 40
0.0
 40
0.0
 40
0.0
 40
0.0
 40
0.5127477111
 40
0.7684615005
 40
1.0
 40
1.0
 40
1.0
 40
1.0
 10
22.957960696
 20
61.7361250942
 30
0.0
 10
22.9980994558
 20
61.7495046182
 30
0.0
 10
23.0633811217
 20
61.7560047884
 30
0.0
 10
23.1449609734
 20
61.7422967778
 30
0.0
 10
23.1828361062
 20
61.7273282616
 30
0.0
 10
23.1993821841
 20
61.7177755952
 30
0.0
  0
SPLINE
  5
3CA
100
AcDbEntity
  8
0
100
AcDbSpline
 62
7
  6
BYLAYER
 70
0
 71
3
 72
10
 73
6
 74
0
 42
0.0000001
 43
0.0000001
 44
0.0000000001
 40
0.0
 40
0.0
 40
0.0
 40
0.0
 40
0.2315385003
 40
0.4872522898
 40
1.0
 40
1.0
 40
1.0
 40
1.0
 10
23.1993821841
 20
58.832100805
 30
0.0
 10
23.1828361062
 20
58.8416534716
 30
0.0
 10
23.1449609735
 20
58.8566219882
 30
0.0
 10
23.0633811217
 20
58.8703299993
 30
0.0
 10
22.9980994558
 20
58.8638298295
 30
0.0
 10
22.9579606959
 20
58.8504503056
 30
0.0
  0
SPLINE
  5
3CB
100
AcDbEntity
  8
0
100
AcDbSpline
 62
7
  6
BYLAYER
 70
0
 71
3
 72
15
 73
11
 74
0
 42
0.0000001
 43
0.0000001
 44
0.0000000001
 40
0.0
 40
0.0
 40
0.0
 40
0.0
 40
0.1444092963
 40
0.2745860681
 40
0.3914806558
 40
0.5000291656
 40
0.6085704944
 40
0.7254567377
 40
0.8556069777
 40
1.0
 40
1.0
 40
1.0
 40
1.0
 10
22.9261759668
 20
58.6743606139
 30
0.0
 10
22.9431763448
 20
58.6645456632
 30
0.0
 10
22.9770568906
 20
58.6483574134
 30
0.0
 10
23.029055709
 20
58.63513722
 30
0.0
 10
23.0780761593
 20
58.6356247333
 30
0.0
 10
23.1218650327
 20
58.6509112771
 30
0.0
 10
23.1569891649
 20
58.6811994058
 30
0.0
 10
23.1819051155
 20
58.7234102049
 30
0.0
 10
23.1964620049
 20
58.775042337
 30
0.0
 10
23.1993821838
 20
58.8124727846
 30
0.0
 10
23.1993821841
 20
58.8321008069
 30
0.0
  0
SPLINE
  5
3CC
100
AcDbEntity
  8
0
100
AcDbSpline
 62
7
  6
BYLAYER
 70
0
 71
3
 72
15
 73
11
 74
0
 42
0.0000001
 43
0.0000001
 44
0.0000000001
 40
0.0
 40
0.0
 40
0.0
 40
0.0
 40
0.1130460773
 40
0.2348383762
 40
0.3631291091
 40
0.4951412529
 40
0.6278226308
 40
0.7580729844
 40
0.8829685232
 40
1.0
 40
1.0
 40
1.0
 40
1.0
 10
56.1793865491
 20
86.6636533817
 30
0.0
 10
56.4570183515
 20
86.5055377522
 30
0.0
 10
57.006410994
 20
86.127841702
 30
0.0
 10
57.7670196592
 20
85.4350441586
 30
0.0
 10
58.4739789029
 20
84.6154661983
 30
0.0
 10
59.1028425936
 20
83.6973192494
 30
0.0
 10
59.6321208806
 20
82.7121187038
 30
0.0
 10
60.0435974704
 20
81.6936514815
 30
0.0
 10
60.3231055213
 20
80.6771420796
 30
0.0
 10
60.4187401885
 20
79.9974149912
 30
0.0
 10
60.4391418573
 20
79.6672813781
 30
0.0
  0
SPLINE
  5
3CD
100
AcDbEntity
  8
0
100
AcDbSpline
 62
7
  6
BYLAYER
 70
0
 71
3
 72
10
 73
6
 74
0
 42
0.0000001
 43
0.0000001
 44
0.0000000001
 40
0.0
 40
0.0
 40
0.0
 40
0.0
 40
0.5476522293
 40
0.7815465597
 40
1.0
 40
1.0
 40
1.0
 40
1.0
 10
20.981669401
 20
59.9280662779
 30
0.0
 10
20.9816693933
 20
59.9089704688
 30
0.0
 10
20.985739346
 20
59.880843365
 30
0.0
 10
21.0041578155
 20
59.8507161486
 30
0.0
 10
21.0165075396
 20
59.840339087
 30
0.0
 10
21.0231038517
 20
59.8365299493
 30
0.0
  0
SPLINE
  5
3CE
100
AcDbEntity
  8
0
100
AcDbSpline
 62
7
  6
BYLAYER
 70
0
 71
3
 72
13
 73
9
 74
0
 42
0.0000001
 43
0.0000001
 44
0.0000000001
 40
0.0
 40
0.0
 40
0.0
 40
0.0
 40
0.3179124073
 40
0.5455404326
 40
0.6451213777
 40
0.7448357063
 40
0.8538286799
 40
1.0
 40
1.0
 40
1.0
 40
1.0
 10
23.1135450678
 20
43.2589357996
 30
0.0
 10
23.0937725907
 20
43.2571940993
 30
0.0
 10
23.0599106393
 20
43.2541554543
 30
0.0
 10
23.0191006053
 20
43.2576637192
 30
0.0
 10
22.9943613777
 20
43.2683323304
 30
0.0
 10
22.9793252468
 20
43.2807858515
 30
0.0
 10
22.9668877183
 20
43.2994885685
 30
0.0
 10
22.9624186675
 20
43.3150577851
 30
0.0
 10
22.960823745
 20
43.3240436274
 30
0.0
  0
SPLINE
  5
3CF
100
AcDbEntity
  8
0
100
AcDbSpline
 62
7
  6
BYLAYER
 70
0
 71
3
 72
10
 73
6
 74
0
 42
0.0000001
 43
0.0000001
 44
0.0000000001
 40
0.0
 40
0.0
 40
0.0
 40
0.0
 40
0.647323982
 40
0.8571461637
 40
1.0
 40
1.0
 40
1.0
 40
1.0
 10
20.9816693965
 20
59.9280662725
 30
0.0
 10
20.9972232473
 20
59.9191175394
 30
0.0
 10
21.0176545164
 20
59.906164518
 30
0.0
 10
21.036292339
 20
59.8855629346
 30
0.0
 10
21.0402423745
 20
59.8760314946
 30
0.0
 10
21.0402486118
 20
59.8720714596
 30
0.0
  0
SPLINE
  5
3D0
100
AcDbEntity
  8
0
100
AcDbSpline
 62
7
  6
BYLAYER
 70
0
 71
3
 72
9
 73
5
 74
0
 42
0.0000001
 43
0.0000001
 44
0.0000000001
 40
0.0
 40
0.0
 40
0.0
 40
0.0
 40
0.5029506803
 40
1.0
 40
1.0
 40
1.0
 40
1.0
 10
21.0402486291
 20
62.7486735647
 30
0.0
 10
21.0402485294
 20
62.7699296339
 30
0.0
 10
21.0313018617
 20
62.8133300843
 30
0.0
 10
20.9998457952
 20
62.845422914
 30
0.0
 10
20.9816693965
 20
62.8559537431
 30
0.0
  0
SPLINE
  5
3D1
100
AcDbEntity
  8
0
100
AcDbSpline
 62
7
  6
BYLAYER
 70
0
 71
3
 72
10
 73
6
 74
0
 42
0.0000001
 43
0.0000001
 44
0.0000000001
 40
0.0
 40
0.0
 40
0.0
 40
0.0
 40
0.5476969428
 40
0.7816249311
 40
1.0
 40
1.0
 40
1.0
 40
1.0
 10
21.0988318821
 20
59.3822637363
 30
0.0
 10
21.0822910792
 20
59.3918133573
 30
0.0
 10
21.059951182
 20
59.4093939198
 30
0.0
 10
21.0430728763
 20
59.4404144007
 30
0.0
 10
21.0402527045
 20
59.4562968005
 30
0.0
 10
21.0402526496
 20
59.4639120868
 30
0.0
  0
SPLINE
  5
3D2
100
AcDbEntity
  8
0
100
AcDbSpline
 62
7
  6
BYLAYER
 70
0
 71
3
 72
11
 73
7
 74
0
 42
0.0000001
 43
0.0000001
 44
0.0000000001
 40
0.0
 40
0.0
 40
0.0
 40
0.0
 40
0.2888629335
 40
0.5488788832
 40
0.7822917325
 40
1.0
 40
1.0
 40
1.0
 40
1.0
 10
22.0857751172
 20
58.8124646844
 30
0.0
 10
22.0857751172
 20
58.8023606744
 30
0.0
 10
22.0873583044
 20
58.7831022634
 30
0.0
 10
22.095111453
 20
58.7566119941
 30
0.0
 10
22.1082389205
 20
58.7350775868
 30
0.0
 10
22.1205945991
 20
58.7247009919
 30
0.0
 10
22.1271914585
 20
58.7208968453
 30
0.0
  0
SPLINE
  5
3D3
100
AcDbEntity
  8
0
100
AcDbSpline
 62
7
  6
BYLAYER
 70
0
 71
3
 72
9
 73
5
 74
0
 42
0.0000001
 43
0.0000001
 44
0.0000000001
 40
0.0
 40
0.0
 40
0.0
 40
0.0
 40
0.4948858363
 40
1.0
 40
1.0
 40
1.0
 40
1.0
 10
22.3271966058
 20
58.7941151848
 30
0.0
 10
22.2994031698
 20
58.7848507495
 30
0.0
 10
22.2401420579
 20
58.7751521759
 30
0.0
 10
22.1804084882
 20
58.7803653166
 30
0.0
 10
22.1513178974
 20
58.787285432
 30
0.0
  0
SPLINE
  5
3D4
100
AcDbEntity
  8
0
100
AcDbSpline
 62
7
  6
BYLAYER
 70
0
 71
3
 72
9
 73
5
 74
0
 42
0.0000001
 43
0.0000001
 44
0.0000000001
 40
0.0
 40
0.0
 40
0.0
 40
0.0
 40
0.2646122044
 40
1.0
 40
1.0
 40
1.0
 40
1.0
 10
22.1513178974
 20
58.787285432
 30
0.0
 10
22.1452818564
 20
58.7887212949
 30
0.0
 10
22.1226611597
 20
58.794865364
 30
0.0
 10
22.1007080317
 20
58.803843357
 30
0.0
 10
22.0857751172
 20
58.8124646841
 30
0.0
  0
SPLINE
  5
3D5
100
AcDbEntity
  8
0
100
AcDbSpline
 62
7
  6
BYLAYER
 70
0
 71
3
 72
9
 73
5
 74
0
 42
0.0000001
 43
0.0000001
 44
0.0000000001
 40
0.0
 40
0.0
 40
0.0
 40
0.0
 40
0.2404809715
 40
1.0
 40
1.0
 40
1.0
 40
1.0
 10
22.3110059103
 20
58.7497219398
 30
0.0
 10
22.3121222369
 20
58.7519250466
 30
0.0
 10
22.3165640033
 20
58.7611873267
 30
0.0
 10
22.3202328387
 20
58.7708127337
 30
0.0
 10
22.3226402441
 20
58.7782323675
 30
0.0
  0
SPLINE
  5
3D6
100
AcDbEntity
  8
0
100
AcDbSpline
 62
7
  6
BYLAYER
 70
0
 71
3
 72
9
 73
5
 74
0
 42
0.0000001
 43
0.0000001
 44
0.0000000001
 40
0.0
 40
0.0
 40
0.0
 40
0.0
 40
0.2471566849
 40
1.0
 40
1.0
 40
1.0
 40
1.0
 10
20.5331397366
 20
60.1648225851
 30
0.0
 10
20.5375246772
 20
60.16345717
 30
0.0
 10
20.5552287985
 20
60.1578142944
 30
0.0
 10
20.5727767457
 20
60.1516727819
 30
0.0
 10
20.5858509449
 20
60.1466966358
 30
0.0
  0
SPLINE
  5
3D7
100
AcDbEntity
  8
0
100
AcDbSpline
 62
7
  6
BYLAYER
 70
0
 71
3
 72
9
 73
5
 74
0
 42
0.0000001
 43
0.0000001
 44
0.0000000001
 40
0.0
 40
0.0
 40
0.0
 40
0.0
 40
0.2546412402
 40
1.0
 40
1.0
 40
1.0
 40
1.0
 10
20.5858509449
 20
60.1466966358
 30
0.0
 10
20.5900087356
 20
60.1451141469
 30
0.0
 10
20.6062817536
 20
60.1387567208
 30
0.0
 10
20.6223372308
 20
60.1318366263
 30
0.0
 10
20.6341325048
 20
60.1263191443
 30
0.0
  0
SPLINE
  5
3D8
100
AcDbEntity
  8
0
100
AcDbSpline
 62
7
  6
BYLAYER
 70
0
 71
3
 72
9
 73
5
 74
0
 42
0.0000001
 43
0.0000001
 44
0.0000000001
 40
0.0
 40
0.0
 40
0.0
 40
0.0
 40
0.2630245008
 40
1.0
 40
1.0
 40
1.0
 40
1.0
 10
20.6341325048
 20
60.1263191443
 30
0.0
 10
20.6377492031
 20
60.1246273593
 30
0.0
 10
20.6514364839
 20
60.1180628366
 30
0.0
 10
20.6648805174
 20
60.1109786944
 30
0.0
 10
20.6745613372
 20
60.1053711848
 30
0.0
  0
SPLINE
  5
3D9
100
AcDbEntity
  8
0
100
AcDbSpline
 62
7
  6
BYLAYER
 70
0
 71
3
 72
9
 73
5
 74
0
 42
0.0000001
 43
0.0000001
 44
0.0000000001
 40
0.0
 40
0.0
 40
0.0
 40
0.0
 40
0.474883713
 40
1.0
 40
1.0
 40
1.0
 40
1.0
 10
20.6745613372
 20
63.0332586542
 30
0.0
 10
20.6547222086
 20
63.0446709713
 30
0.0
 10
20.6058649955
 20
63.0565684944
 30
0.0
 10
20.5573065372
 20
63.048961701
 30
0.0
 10
20.5331397366
 20
63.0414464166
 30
0.0
  0
SPLINE
  5
3DA
100
AcDbEntity
  8
0
100
AcDbSpline
 62
7
  6
BYLAYER
 70
0
 71
3
 72
9
 73
5
 74
0
 42
0.0000001
 43
0.0000001
 44
0.0000000001
 40
0.0
 40
0.0
 40
0.0
 40
0.0
 40
0.2743466814
 40
1.0
 40
1.0
 40
1.0
 40
1.0
 10
18.7396900836
 20
64.2925217821
 30
0.0
 10
18.7446783464
 20
64.2896418724
 30
0.0
 10
18.7623337925
 20
64.2783442764
 30
0.0
 10
18.7780038301
 20
64.2633335637
 30
0.0
 10
18.7861344962
 20
64.2504494271
 30
0.0
  0
SPLINE
  5
3DB
100
AcDbEntity
  8
0
100
AcDbSpline
 62
7
  6
BYLAYER
 70
0
 71
3
 72
18
 73
14
 74
0
 42
0.0000001
 43
0.0000001
 44
0.0000000001
 40
0.0
 40
0.0
 40
0.0
 40
0.0
 40
0.0453103389
 40
0.0930908826
 40
0.1459234414
 40
0.2078927038
 40
0.2797721089
 40
0.3552617274
 40
0.5010046914
 40
0.638041028
 40
0.7666191926
 40
0.8869854857
 40
1.0
 40
1.0
 40
1.0
 40
1.0
 10
18.9291829509
 20
64.5365842409
 30
0.0
 10
18.930606929
 20
64.53213499
 30
0.0
 10
18.9326427064
 20
64.5227048373
 30
0.0
 10
18.9335920555
 20
64.507619413
 30
0.0
 10
18.9308734553
 20
64.4908799687
 30
0.0
 10
18.9219106688
 20
64.4733873611
 30
0.0
 10
18.905918962
 20
64.4584935508
 30
0.0
 10
18.8809793462
 20
64.4414298137
 30
0.0
 10
18.8487805812
 20
64.423239536
 30
0.0
 10
18.8115605602
 20
64.4029136855
 30
0.0
 10
18.7784288557
 20
64.3806911463
 30
0.0
 10
18.7522944374
 20
64.3531504553
 30
0.0
 10
18.7432612627
 20
64.3301987544
 30
0.0
 10
18.7406251562
 20
64.318848887
 30
0.0
  0
SPLINE
  5
3DC
100
AcDbEntity
  8
0
100
AcDbSpline
 62
7
  6
BYLAYER
 70
0
 71
3
 72
13
 73
9
 74
0
 42
0.0000001
 43
0.0000001
 44
0.0000000001
 40
0.0
 40
0.0
 40
0.0
 40
0.0
 40
0.2352430647
 40
0.3540390522
 40
0.4140395786
 40
0.4752956883
 40
0.7303466456
 40
1.0
 40
1.0
 40
1.0
 40
1.0
 10
18.9657629407
 20
64.432930867
 30
0.0
 10
18.968137455
 20
64.4415763662
 30
0.0
 10
18.9695032706
 20
64.4554404686
 30
0.0
 10
18.9663040457
 20
64.4709175905
 30
0.0
 10
18.9641874982
 20
64.4798301299
 30
0.0
 10
18.9590010201
 20
64.4932308949
 30
0.0
 10
18.9480264161
 20
64.512850223
 30
0.0
 10
18.9356626115
 20
64.5286072137
 30
0.0
 10
18.9291829491
 20
64.5365842419
 30
0.0
  0
SPLINE
  5
3DD
100
AcDbEntity
  8
0
100
AcDbSpline
 62
7
  6
BYLAYER
 70
0
 71
3
 72
9
 73
5
 74
0
 42
0.0000001
 43
0.0000001
 44
0.0000000001
 40
0.0
 40
0.0
 40
0.0
 40
0.0
 40
0.2765612097
 40
1.0
 40
1.0
 40
1.0
 40
1.0
 10
18.7406251494
 20
64.3188488418
 30
0.0
 10
18.7468131713
 20
64.3146994762
 30
0.0
 10
18.7682718187
 20
64.2985308056
 30
0.0
 10
18.7860848748
 20
64.2764285041
 30
0.0
 10
18.7931077123
 20
64.2582487209
 30
0.0
  0
SPLINE
  5
3DE
100
AcDbEntity
  8
0
100
AcDbSpline
 62
7
  6
BYLAYER
 70
0
 71
3
 72
10
 73
6
 74
0
 42
0.0000001
 43
0.0000001
 44
0.0000000001
 40
0.0
 40
0.0
 40
0.0
 40
0.0
 40
0.5127477111
 40
0.7684615005
 40
1.0
 40
1.0
 40
1.0
 40
1.0
 10
22.9579606959
 20
46.2225791688
 30
0.0
 10
22.9980994558
 20
46.2359586929
 30
0.0
 10
23.0633811218
 20
46.2424588631
 30
0.0
 10
23.1449609737
 20
46.2287508526
 30
0.0
 10
23.1828361066
 20
46.2137823363
 30
0.0
 10
23.1993821845
 20
46.2042296699
 30
0.0
  0
SPLINE
  5
3DF
100
AcDbEntity
  8
0
100
AcDbSpline
 62
7
  6
BYLAYER
 70
0
 71
3
 72
11
 73
7
 74
0
 42
0.0000001
 43
0.0000001
 44
0.0000000001
 40
0.0
 40
0.0
 40
0.0
 40
0.0
 40
0.2363919626
 40
0.4983328394
 40
0.7611831236
 40
1.0
 40
1.0
 40
1.0
 40
1.0
 10
47.850363784
 20
52.0126404235
 30
0.0
 10
47.850363814
 20
52.0357820565
 30
0.0
 10
47.8414444655
 20
52.0846038165
 30
0.0
 10
47.8102747285
 20
52.1529322143
 30
0.0
 10
47.7646741087
 20
52.2129048393
 30
0.0
 10
47.7257472522
 20
52.2441671368
 30
0.0
 10
47.7052404969
 20
52.2553944063
 30
0.0
  0
SPLINE
  5
3E0
100
AcDbEntity
  8
0
100
AcDbSpline
 62
7
  6
BYLAYER
 70
0
 71
3
 72
9
 73
5
 74
0
 42
0.0000001
 43
0.0000001
 44
0.0000000001
 40
0.0
 40
0.0
 40
0.0
 40
0.0
 40
0.5523769102
 40
1.0
 40
1.0
 40
1.0
 40
1.0
 10
47.7079978701
 20
52.0277826098
 30
0.0
 10
47.7336363145
 20
52.0212717716
 30
0.0
 10
47.7807656655
 20
52.0124689954
 30
0.0
 10
47.8290747895
 20
52.0101374576
 30
0.0
 10
47.8503639355
 20
52.0126404738
 30
0.0
  0
SPLINE
  5
3E1
100
AcDbEntity
  8
0
100
AcDbSpline
 62
7
  6
BYLAYER
 70
0
 71
3
 72
9
 73
5
 74
0
 42
0.0000001
 43
0.0000001
 44
0.0000000001
 40
0.0
 40
0.0
 40
0.0
 40
0.0
 40
0.5557706835
 40
1.0
 40
1.0
 40
1.0
 40
1.0
 10
47.7080095769
 20
52.0275186531
 30
0.0
 10
47.7078571522
 20
52.0693729533
 30
0.0
 10
47.7071429307
 20
52.1446787542
 30
0.0
 10
47.7060878927
 20
52.2199829903
 30
0.0
 10
47.7052442013
 20
52.2534268503
 30
0.0
  0
SPLINE
  5
3E2
100
AcDbEntity
  8
0
100
AcDbSpline
 62
7
  6
BYLAYER
 70
0
 71
3
 72
15
 73
11
 74
0
 42
0.0000001
 43
0.0000001
 44
0.0000000001
 40
0.0
 40
0.0
 40
0.0
 40
0.0
 40
0.1473054569
 40
0.2897281639
 40
0.426181112
 40
0.5558262901
 40
0.6780691582
 40
0.7926542771
 40
0.8997517374
 40
1.0
 40
1.0
 40
1.0
 40
1.0
 10
40.3116985679
 20
51.9775368631
 30
0.0
 10
40.622710009
 20
51.0924754176
 30
0.0
 10
41.1725074115
 20
49.3290621379
 30
0.0
 10
41.7803469497
 20
46.681055879
 30
0.0
 10
42.1514507777
 20
44.1026947197
 30
0.0
 10
42.2806628126
 20
41.6291393558
 30
0.0
 10
42.1657129235
 20
39.2936181744
 30
0.0
 10
41.8073365378
 20
37.1271595162
 30
0.0
 10
41.2091370271
 20
35.1596123461
 30
0.0
 10
40.6366626773
 20
33.9620789003
 30
0.0
 10
40.3116985681
 20
33.4125393634
 30
0.0
  0
SPLINE
  5
3E3
100
AcDbEntity
  8
0
100
AcDbSpline
 62
7
  6
BYLAYER
 70
0
 71
3
 72
17
 73
13
 74
0
 42
0.0000001
 43
0.0000001
 44
0.0000000001
 40
0.0
 40
0.0
 40
0.0
 40
0.0
 40
0.1091872945
 40
0.1655074271
 40
0.2230454847
 40
0.2818028733
 40
0.3417771697
 40
0.4652506248
 40
0.5931735492
 40
0.7251830505
 40
0.8609153007
 40
1.0
 40
1.0
 40
1.0
 40
1.0
 10
47.7077945483
 20
33.4820146156
 30
0.0
 10
47.4308121692
 20
34.1132260871
 30
0.0
 10
47.0596695718
 20
35.0926693296
 30
0.0
 10
46.6695052634
 20
36.4461945369
 30
0.0
 10
46.4270039652
 20
37.5092311889
 30
0.0
 10
46.2398072629
 20
38.606759618
 30
0.0
 10
46.066251327
 20
40.1266247711
 30
0.0
 10
46.0018619033
 20
42.0950191704
 30
0.0
 10
46.1509005777
 20
44.5138154692
 30
0.0
 10
46.5017698637
 20
46.9891048056
 30
0.0
 10
47.0254527512
 20
49.5048836894
 30
0.0
 10
47.4670780915
 20
51.1834210897
 30
0.0
 10
47.7077927552
 20
52.0278354502
 30
0.0
  0
SPLINE
  5
3E4
100
AcDbEntity
  8
0
100
AcDbSpline
 62
7
  6
BYLAYER
 70
0
 71
3
 72
17
 73
13
 74
0
 42
0.0000001
 43
0.0000001
 44
0.0000000001
 40
0.0
 40
0.0
 40
0.0
 40
0.0
 40
0.1391934536
 40
0.2749514665
 40
0.4069135856
 40
0.5347401987
 40
0.6581098765
 40
0.7180462719
 40
0.7767831521
 40
0.8343230571
 40
0.8906715413
 40
1.0
 40
1.0
 40
1.0
 40
1.0
 10
47.8502910572
 20
52.0126318842
 30
0.0
 10
47.6083959435
 20
51.1720250062
 30
0.0
 10
47.1644983215
 20
49.5014242331
 30
0.0
 10
46.637761366
 20
46.9977202679
 30
0.0
 10
46.2847138735
 20
44.5350064189
 30
0.0
 10
46.1347024276
 20
42.128875921
 30
0.0
 10
46.1995128199
 20
40.1709266236
 30
0.0
 10
46.3741289181
 20
38.6592423749
 30
0.0
 10
46.5624608686
 20
37.5674279094
 30
0.0
 10
46.8063988268
 20
36.5097681019
 30
0.0
 10
47.1989027048
 20
35.1625015214
 30
0.0
 10
47.5720259955
 20
34.1877737093
 30
0.0
 10
47.8502929198
 20
33.5596069707
 30
0.0
  0
SPLINE
  5
3E5
100
AcDbEntity
  8
0
100
AcDbSpline
 62
7
  6
BYLAYER
 70
0
 71
3
 72
9
 73
5
 74
0
 42
0.0000001
 43
0.0000001
 44
0.0000000001
 40
0.0
 40
0.0
 40
0.0
 40
0.0
 40
0.5003872969
 40
1.0
 40
1.0
 40
1.0
 40
1.0
 10
22.8213575872
 20
46.4591813807
 30
0.0
 10
22.8679440491
 20
46.4444013025
 30
0.0
 10
22.9526176849
 20
46.3773940337
 30
0.0
 10
22.9690175856
 20
46.2701092073
 30
0.0
 10
22.957960696
 20
46.2225791689
 30
0.0
  0
SPLINE
  5
3E6
100
AcDbEntity
  8
0
100
AcDbSpline
 62
7
  6
BYLAYER
 70
0
 71
3
 72
14
 73
10
 74
0
 42
0.0000001
 43
0.0000001
 44
0.0000000001
 40
0.0
 40
0.0
 40
0.0
 40
0.0
 40
0.2094318529
 40
0.3248459268
 40
0.4474016741
 40
0.5768134654
 40
0.7125462753
 40
0.853921444
 40
1.0
 40
1.0
 40
1.0
 40
1.0
 10
73.7047376233
 20
66.9368520482
 30
0.0
 10
74.2379808361
 20
65.8620965311
 30
0.0
 10
74.8080047386
 20
64.0621912207
 30
0.0
 10
75.1733157379
 20
61.5239543731
 30
0.0
 10
75.2647682451
 20
59.4174562498
 30
0.0
 10
75.1630186219
 20
57.1963583429
 30
0.0
 10
74.8699183025
 20
54.8836660624
 30
0.0
 10
74.3885670003
 20
52.5056638784
 30
0.0
 10
73.9520107816
 20
50.9163738059
 30
0.0
 10
73.7047376221
 20
50.1169022548
 30
0.0
  0
SPLINE
  5
3E7
100
AcDbEntity
  8
0
100
AcDbSpline
 62
7
  6
BYLAYER
 70
0
 71
3
 72
10
 73
6
 74
0
 42
0.0000001
 43
0.0000001
 44
0.0000000001
 40
0.0
 40
0.0
 40
0.0
 40
0.0
 40
0.2315395519
 40
0.4872535219
 40
1.0
 40
1.0
 40
1.0
 40
1.0
 10
22.9261759681
 20
46.6774340925
 30
0.0
 10
22.926175968
 20
46.65832832
 30
0.0
 10
22.9202018905
 20
46.6180430073
 30
0.0
 10
22.8912840012
 20
46.5405384337
 30
0.0
 10
22.8530139854
 20
46.4872527351
 30
0.0
 10
22.8213575878
 20
46.4591813803
 30
0.0
  0
SPLINE
  5
3E8
100
AcDbEntity
  8
0
100
AcDbSpline
 62
7
  6
BYLAYER
 70
0
 71
3
 72
9
 73
5
 74
0
 42
0.0000001
 43
0.0000001
 44
0.0000000001
 40
0.0
 40
0.0
 40
0.0
 40
0.0
 40
0.234740297
 40
1.0
 40
1.0
 40
1.0
 40
1.0
 10
10.0413051166
 20
50.8218282226
 30
0.0
 10
10.0380926396
 20
50.8245146456
 30
0.0
 10
10.0254599316
 20
50.837230851
 30
0.0
 10
10.0176307983
 20
50.854155456
 30
0.0
 10
10.0140974383
 20
50.8673423195
 30
0.0
  0
SPLINE
  5
3E9
100
AcDbEntity
  8
0
100
AcDbSpline
 62
7
  6
BYLAYER
 70
0
 71
3
 72
11
 73
7
 74
0
 42
0.0000001
 43
0.0000001
 44
0.0000000001
 40
0.0
 40
0.0
 40
0.0
 40
0.0
 40
0.2643507302
 40
0.5201746758
 40
0.765834157
 40
1.0
 40
1.0
 40
1.0
 40
1.0
 10
73.6902252727
 20
50.1248476166
 30
0.0
 10
73.9375006011
 20
50.9243261797
 30
0.0
 10
74.37402549
 20
52.5135736095
 30
0.0
 10
74.8554503305
 20
54.8916977294
 30
0.0
 10
75.1484855781
 20
57.2041727829
 30
0.0
 10
75.2180732661
 20
58.7237194753
 30
0.0
 10
75.2180732661
 20
59.4650101295
 30
0.0
  0
SPLINE
  5
3EA
100
AcDbEntity
  8
0
100
AcDbSpline
 62
7
  6
BYLAYER
 70
0
 71
3
 72
10
 73
6
 74
0
 42
0.0000001
 43
0.0000001
 44
0.0000000001
 40
0.0
 40
0.0
 40
0.0
 40
0.0
 40
0.2738532075
 40
0.5318443958
 40
1.0
 40
1.0
 40
1.0
 40
1.0
 10
75.2180732661
 20
59.4650101295
 30
0.0
 10
75.2180732661
 20
60.1658066303
 30
0.0
 10
75.1589576763
 20
61.5284923272
 30
0.0
 10
74.7950245427
 20
64.0626610343
 30
0.0
 10
74.2269277992
 20
65.8602272531
 30
0.0
 10
73.6955883017
 20
66.9339739261
 30
0.0
  0
SPLINE
  5
3EB
100
AcDbEntity
  8
0
100
AcDbSpline
 62
7
  6
BYLAYER
 70
0
 71
3
 72
18
 73
14
 74
0
 42
0.0000001
 43
0.0000001
 44
0.0000000001
 40
0.0
 40
0.0
 40
0.0
 40
0.0
 40
0.1286543881
 40
0.2701997681
 40
0.4173206982
 40
0.5616280589
 40
0.69526386
 40
0.7562710288
 40
0.8127632956
 40
0.8647127688
 40
0.9125353832
 40
0.9571509149
 40
1.0
 40
1.0
 40
1.0
 40
1.0
 10
35.217596906
 20
82.5664513272
 30
0.0
 10
35.3767477069
 20
82.6583365365
 30
0.0
 10
35.737085118
 20
82.8070165594
 30
0.0
 10
36.3243476312
 20
82.9245081793
 30
0.0
 10
36.9456078102
 20
82.9416842758
 30
0.0
 10
37.5496186946
 20
82.8568745627
 30
0.0
 10
38.012507108
 20
82.7022634992
 30
0.0
 10
38.3284261943
 20
82.53054696
 30
0.0
 10
38.5245293804
 20
82.3872328779
 30
0.0
 10
38.6827723662
 20
82.228305659
 30
0.0
 10
38.799566954
 20
82.0565813969
 30
0.0
 10
38.8714781459
 20
81.8754003553
 30
0.0
 10
38.8878868928
 20
81.7499397754
 30
0.0
 10
38.8878828147
 20
81.688733705
 30
0.0
  0
SPLINE
  5
3EC
100
AcDbEntity
  8
0
100
AcDbSpline
 62
7
  6
BYLAYER
 70
0
 71
3
 72
9
 73
5
 74
0
 42
0.0000001
 43
0.0000001
 44
0.0000000001
 40
0.0
 40
0.0
 40
0.0
 40
0.0
 40
0.2414051375
 40
1.0
 40
1.0
 40
1.0
 40
1.0
 10
22.9608104268
 20
43.3240370711
 30
0.0
 10
22.967171063
 20
43.3259359463
 30
0.0
 10
22.9938364688
 20
43.3327200784
 30
0.0
 10
23.0214833012
 20
43.3354479831
 30
0.0
 10
23.0423427203
 20
43.3354718944
 30
0.0
  0
SPLINE
  5
3ED
100
AcDbEntity
  8
0
100
AcDbSpline
 62
7
  6
BYLAYER
 70
0
 71
3
 72
9
 73
5
 74
0
 42
0.0000001
 43
0.0000001
 44
0.0000000001
 40
0.0
 40
0.0
 40
0.0
 40
0.0
 40
0.2528811966
 40
1.0
 40
1.0
 40
1.0
 40
1.0
 10
23.0423427203
 20
43.3354718944
 30
0.0
 10
23.0505913509
 20
43.3354813499
 30
0.0
 10
23.0831938015
 20
43.3342569525
 30
0.0
 10
23.1156535072
 20
43.3280960109
 30
0.0
 10
23.1388338482
 20
43.320574842
 30
0.0
  0
SPLINE
  5
3EE
100
AcDbEntity
  8
0
100
AcDbSpline
 62
7
  6
BYLAYER
 70
0
 71
3
 72
9
 73
5
 74
0
 42
0.0000001
 43
0.0000001
 44
0.0000000001
 40
0.0
 40
0.0
 40
0.0
 40
0.0
 40
0.2611862131
 40
1.0
 40
1.0
 40
1.0
 40
1.0
 10
23.1388338482
 20
43.320574842
 30
0.0
 10
23.1443096653
 20
43.3187981406
 30
0.0
 10
23.1650524459
 20
43.3113526492
 30
0.0
 10
23.1849220057
 20
43.3012970089
 30
0.0
 10
23.1984470853
 20
43.2922277927
 30
0.0
  0
SPLINE
  5
3EF
100
AcDbEntity
  8
0
100
AcDbSpline
 62
7
  6
BYLAYER
 70
0
 71
3
 72
9
 73
5
 74
0
 42
0.0000001
 43
0.0000001
 44
0.0000000001
 40
0.0
 40
0.0
 40
0.0
 40
0.0
 40
0.2344760201
 40
1.0
 40
1.0
 40
1.0
 40
1.0
 10
23.1993821845
 20
43.3185548816
 30
0.0
 10
23.1941137055
 20
43.3215965706
 30
0.0
 10
23.1710139313
 20
43.3334704244
 30
0.0
 10
23.1459455091
 20
43.3412805922
 30
0.0
 10
23.1265092989
 20
43.3453688424
 30
0.0
  0
SPLINE
  5
3F0
100
AcDbEntity
  8
0
100
AcDbSpline
 62
7
  6
BYLAYER
 70
0
 71
3
 72
9
 73
5
 74
0
 42
0.0000001
 43
0.0000001
 44
0.0000000001
 40
0.0
 40
0.0
 40
0.0
 40
0.0
 40
0.2472422981
 40
1.0
 40
1.0
 40
1.0
 40
1.0
 10
23.1135387333
 20
43.3478123759
 30
0.0
 10
23.1075749766
 20
43.3488079374
 30
0.0
 10
23.0833445919
 20
43.3521557075
 30
0.0
 10
23.0587542005
 20
43.3528480053
 30
0.0
 10
23.0403692125
 20
43.3519158081
 30
0.0
  0
SPLINE
  5
3F1
100
AcDbEntity
  8
0
100
AcDbSpline
 62
7
  6
BYLAYER
 70
0
 71
3
 72
9
 73
5
 74
0
 42
0.0000001
 43
0.0000001
 44
0.0000000001
 40
0.0
 40
0.0
 40
0.0
 40
0.0
 40
0.2576490301
 40
1.0
 40
1.0
 40
1.0
 40
1.0
 10
23.0403692125
 20
43.3519158081
 30
0.0
 10
23.0331725559
 20
43.351550907
 30
0.0
 10
23.0052991468
 20
43.3492572204
 30
0.0
 10
22.9776572638
 20
43.3434698731
 30
0.0
 10
22.9579606959
 20
43.3369043812
 30
0.0
  0
SPLINE
  5
3F2
100
AcDbEntity
  8
0
100
AcDbSpline
 62
7
  6
BYLAYER
 70
0
 71
3
 72
11
 73
7
 74
0
 42
0.0000001
 43
0.0000001
 44
0.0000000001
 40
0.0
 40
0.0
 40
0.0
 40
0.0
 40
0.2372193633
 40
0.5000010917
 40
0.7627822259
 40
1.0
 40
1.0
 40
1.0
 40
1.0
 10
14.0044817896
 20
70.319126711
 30
0.0
 10
14.0044817896
 20
70.3423086148
 30
0.0
 10
13.9957869386
 20
70.3912020205
 30
0.0
 10
13.9654784603
 20
70.4599078678
 30
0.0
 10
13.9211315082
 20
70.520508377
 30
0.0
 10
13.8831359414
 20
70.5524846676
 30
0.0
 10
13.8630598449
 20
70.5640753452
 30
0.0
  0
SPLINE
  5
3F3
100
AcDbEntity
  8
0
100
AcDbSpline
 62
7
  6
BYLAYER
 70
0
 71
3
 72
10
 73
6
 74
0
 42
0.0000001
 43
0.0000001
 44
0.0000000001
 40
0.0
 40
0.0
 40
0.0
 40
0.0
 40
0.5127464773
 40
0.7684604475
 40
1.0
 40
1.0
 40
1.0
 40
1.0
 10
21.2024883866
 20
47.3938148052
 30
0.0
 10
21.2341447841
 20
47.4218861601
 30
0.0
 10
21.2724147997
 20
47.4751718589
 30
0.0
 10
21.3013326885
 20
47.5526764327
 30
0.0
 10
21.3073067657
 20
47.5929617455
 30
0.0
 10
21.3073067657
 20
47.612067518
 30
0.0
  0
SPLINE
  5
3F4
100
AcDbEntity
  8
0
100
AcDbSpline
 62
7
  6
BYLAYER
 70
0
 71
3
 72
9
 73
5
 74
0
 42
0.0000001
 43
0.0000001
 44
0.0000000001
 40
0.0
 40
0.0
 40
0.0
 40
0.0
 40
0.2688932499
 40
1.0
 40
1.0
 40
1.0
 40
1.0
 10
18.7988167233
 20
48.7220711109
 30
0.0
 10
18.8005231858
 20
48.7244589264
 30
0.0
 10
18.8072478469
 20
48.7330388647
 30
0.0
 10
18.815772605
 20
48.7403858033
 30
0.0
 10
18.8228390007
 20
48.7440931189
 30
0.0
  0
SPLINE
  5
3F5
100
AcDbEntity
  8
0
100
AcDbSpline
 62
7
  6
BYLAYER
 70
0
 71
3
 72
11
 73
7
 74
0
 42
0.0000001
 43
0.0000001
 44
0.0000000001
 40
0.0
 40
0.0
 40
0.0
 40
0.0
 40
0.22329842
 40
0.4544203028
 40
0.7121629282
 40
1.0
 40
1.0
 40
1.0
 40
1.0
 10
18.8228390007
 20
48.7440931189
 30
0.0
 10
18.8291055182
 20
48.7473807861
 30
0.0
 10
18.8435095657
 20
48.7513505015
 30
0.0
 10
18.8663117238
 20
48.7477319038
 30
0.0
 10
18.8884145793
 20
48.7362569902
 30
0.0
 10
18.9016722071
 20
48.72495761
 30
0.0
 10
18.9080779223
 20
48.7184633369
 30
0.0
  0
SPLINE
  5
3F6
100
AcDbEntity
  8
0
100
AcDbSpline
 62
7
  6
BYLAYER
 70
0
 71
3
 72
18
 73
14
 74
0
 42
0.0000001
 43
0.0000001
 44
0.0000000001
 40
0.0
 40
0.0
 40
0.0
 40
0.0
 40
0.1286543881
 40
0.2701997681
 40
0.4173206982
 40
0.5616280589
 40
0.69526386
 40
0.7562710288
 40
0.8127632956
 40
0.8647127688
 40
0.9125353832
 40
0.9571509149
 40
1.0
 40
1.0
 40
1.0
 40
1.0
 10
15.418689464
 20
71.1356150188
 30
0.0
 10
15.5778402649
 20
71.2275002281
 30
0.0
 10
15.938177676
 20
71.376180251
 30
0.0
 10
16.5254401892
 20
71.4936718709
 30
0.0
 10
17.1467003682
 20
71.5108479674
 30
0.0
 10
17.7507112526
 20
71.4260382543
 30
0.0
 10
18.213599666
 20
71.2714271908
 30
0.0
 10
18.5295187523
 20
71.0997106516
 30
0.0
 10
18.7256219384
 20
70.9563965694
 30
0.0
 10
18.8838649242
 20
70.7974693506
 30
0.0
 10
19.000659512
 20
70.6257450885
 30
0.0
 10
19.0725707038
 20
70.4445640469
 30
0.0
 10
19.0889794508
 20
70.319103467
 30
0.0
 10
19.0889753727
 20
70.2578973966
 30
0.0
  0
SPLINE
  5
3F7
100
AcDbEntity
  8
0
100
AcDbSpline
 62
7
  6
BYLAYER
 70
0
 71
3
 72
11
 73
7
 74
0
 42
0.0000001
 43
0.0000001
 44
0.0000000001
 40
0.0
 40
0.0
 40
0.0
 40
0.0
 40
0.2372177741
 40
0.4999989083
 40
0.7627806367
 40
1.0
 40
1.0
 40
1.0
 40
1.0
 10
15.2772675187
 20
71.3805636525
 30
0.0
 10
15.2973436152
 20
71.368972975
 30
0.0
 10
15.335339182
 20
71.3369966844
 30
0.0
 10
15.3796861341
 20
71.2763961752
 30
0.0
 10
15.4099946124
 20
71.2076903279
 30
0.0
 10
15.4186894633
 20
71.1587969221
 30
0.0
 10
15.4186894633
 20
71.1356150184
 30
0.0
  0
SPLINE
  5
3F8
100
AcDbEntity
  8
0
100
AcDbSpline
 62
7
  6
BYLAYER
 70
0
 71
3
 72
9
 73
5
 74
0
 42
0.0000001
 43
0.0000001
 44
0.0000000001
 40
0.0
 40
0.0
 40
0.0
 40
0.0
 40
0.5147301011
 40
1.0
 40
1.0
 40
1.0
 40
1.0
 10
21.0523795509
 20
47.5246545574
 30
0.0
 10
21.0820262608
 20
47.5073788563
 30
0.0
 10
21.1365431206
 20
47.4680378923
 30
0.0
 10
21.1819790035
 20
47.418831332
 30
0.0
 10
21.2024883869
 20
47.3938148055
 30
0.0
  0
SPLINE
  5
3F9
100
AcDbEntity
  8
0
100
AcDbSpline
 62
7
  6
BYLAYER
 70
0
 71
3
 72
9
 73
5
 74
0
 42
0.0000001
 43
0.0000001
 44
0.0000000001
 40
0.0
 40
0.0
 40
0.0
 40
0.0
 40
0.4772313063
 40
1.0
 40
1.0
 40
1.0
 40
1.0
 10
21.123090059
 20
47.7069014472
 30
0.0
 10
21.1230900638
 20
47.6753987194
 30
0.0
 10
21.1075177327
 20
47.60950253
 30
0.0
 10
21.0740000917
 20
47.5515509446
 30
0.0
 10
21.052379659
 20
47.5246546919
 30
0.0
  0
SPLINE
  5
3FA
100
AcDbEntity
  8
0
100
AcDbSpline
 62
7
  6
BYLAYER
 70
0
 71
3
 72
11
 73
7
 74
0
 42
0.0000001
 43
0.0000001
 44
0.0000000001
 40
0.0
 40
0.0
 40
0.0
 40
0.0
 40
0.2113122937
 40
0.4452672214
 40
0.7102316815
 40
1.0
 40
1.0
 40
1.0
 40
1.0
 10
21.040248629
 20
47.2351276594
 30
0.0
 10
21.0402486471
 20
47.2513566509
 30
0.0
 10
21.0495249331
 20
47.2859365141
 30
0.0
 10
21.0863106543
 20
47.3280447172
 30
0.0
 10
21.1397293593
 20
47.3583882516
 30
0.0
 10
21.1815755798
 20
47.3688775013
 30
0.0
 10
21.2036462411
 20
47.371732022
 30
0.0
  0
SPLINE
  5
3FB
100
AcDbEntity
  8
0
100
AcDbSpline
 62
7
  6
BYLAYER
 70
0
 71
3
 72
9
 73
5
 74
0
 42
0.0000001
 43
0.0000001
 44
0.0000000001
 40
0.0
 40
0.0
 40
0.0
 40
0.0
 40
0.4600072808
 40
1.0
 40
1.0
 40
1.0
 40
1.0
 10
18.4805136376
 20
45.3127164533
 30
0.0
 10
18.4692094838
 20
45.3192411057
 30
0.0
 10
18.4490572663
 20
45.3414764952
 30
0.0
 10
18.4418698687
 20
45.3697620025
 30
0.0
 10
18.4401444354
 20
45.3849860138
 30
0.0
  0
SPLINE
  5
3FC
100
AcDbEntity
  8
0
100
AcDbSpline
 62
7
  6
BYLAYER
 70
0
 71
3
 72
9
 73
5
 74
0
 42
0.0000001
 43
0.0000001
 44
0.0000000001
 40
0.0
 40
0.0
 40
0.0
 40
0.0
 40
0.4969005416
 40
1.0
 40
1.0
 40
1.0
 40
1.0
 10
20.9816693969
 20
47.3424078216
 30
0.0
 10
20.9998474109
 20
47.3318900657
 30
0.0
 10
21.0313169303
 20
47.2997982151
 30
0.0
 10
21.0402485294
 20
47.2563911657
 30
0.0
 10
21.0402486291
 20
47.2351276594
 30
0.0
  0
SPLINE
  5
3FD
100
AcDbEntity
  8
0
100
AcDbSpline
 62
7
  6
BYLAYER
 70
0
 71
3
 72
9
 73
5
 74
0
 42
0.0000001
 43
0.0000001
 44
0.0000000001
 40
0.0
 40
0.0
 40
0.0
 40
0.0
 40
0.5227609639
 40
1.0
 40
1.0
 40
1.0
 40
1.0
 10
21.0523824724
 20
47.5246506162
 30
0.0
 10
21.0307617574
 20
47.4977564907
 30
0.0
 10
20.9972605922
 20
47.4397993409
 30
0.0
 10
20.9816693439
 20
47.3739102028
 30
0.0
 10
20.9816693542
 20
47.3424078509
 30
0.0
  0
SPLINE
  5
3FE
100
AcDbEntity
  8
0
100
AcDbSpline
 62
7
  6
BYLAYER
 70
0
 71
3
 72
11
 73
7
 74
0
 42
0.0000001
 43
0.0000001
 44
0.0000000001
 40
0.0
 40
0.0
 40
0.0
 40
0.0
 40
0.2895200682
 40
0.5548075215
 40
0.7888449051
 40
1.0
 40
1.0
 40
1.0
 40
1.0
 10
21.2036502616
 20
46.6648081294
 30
0.0
 10
21.1815990346
 20
46.6619561222
 30
0.0
 10
21.1397797798
 20
46.6514080072
 30
0.0
 10
21.0862509241
 20
46.6211973529
 30
0.0
 10
21.0495837477
 20
46.5789629049
 30
0.0
 10
21.0402526677
 20
46.5444202985
 30
0.0
 10
21.0402526496
 20
46.5282037668
 30
0.0
  0
SPLINE
  5
3FF
100
AcDbEntity
  8
0
100
AcDbSpline
 62
7
  6
BYLAYER
 70
0
 71
3
 72
9
 73
5
 74
0
 42
0.0000001
 43
0.0000001
 44
0.0000000001
 40
0.0
 40
0.0
 40
0.0
 40
0.0
 40
0.2576216839
 40
1.0
 40
1.0
 40
1.0
 40
1.0
 10
21.1500329922
 20
46.6018700229
 30
0.0
 10
21.1539167217
 20
46.6078274421
 30
0.0
 10
21.169704266
 20
46.6304715173
 30
0.0
 10
21.1883172751
 20
46.651211582
 30
0.0
 10
21.2036502618
 20
46.6648081295
 30
0.0
  0
SPLINE
  5
400
100
AcDbEntity
  8
0
100
AcDbSpline
 62
7
  6
BYLAYER
 70
0
 71
3
 72
9
 73
5
 74
0
 42
0.0000001
 43
0.0000001
 44
0.0000000001
 40
0.0
 40
0.0
 40
0.0
 40
0.0
 40
0.231182576
 40
1.0
 40
1.0
 40
1.0
 40
1.0
 10
21.0988318823
 20
46.4465554167
 30
0.0
 10
21.0988318823
 20
46.4547935325
 30
0.0
 10
21.1011870285
 20
46.4904197836
 30
0.0
 10
21.1115341633
 20
46.5252480224
 30
0.0
 10
21.1223894706
 20
46.5504022213
 30
0.0
  0
SPLINE
  5
401
100
AcDbEntity
  8
0
100
AcDbSpline
 62
7
  6
BYLAYER
 70
0
 71
3
 72
10
 73
6
 74
0
 42
0.0000001
 43
0.0000001
 44
0.0000000001
 40
0.0
 40
0.0
 40
0.0
 40
0.0
 40
0.1126873887
 40
0.3079869993
 40
1.0
 40
1.0
 40
1.0
 40
1.0
 10
19.5368794481
 20
44.7185005268
 30
0.0
 10
19.5378980194
 20
44.7183239158
 30
0.0
 10
19.5406974191
 20
44.7199577039
 30
0.0
 10
19.5455951972
 20
44.7275720443
 30
0.0
 10
19.5486947012
 20
44.7352616271
 30
0.0
 10
19.5508504536
 20
44.7412327739
 30
0.0
  0
SPLINE
  5
402
100
AcDbEntity
  8
0
100
AcDbSpline
 62
7
  6
BYLAYER
 70
0
 71
3
 72
9
 73
5
 74
0
 42
0.0000001
 43
0.0000001
 44
0.0000000001
 40
0.0
 40
0.0
 40
0.0
 40
0.0
 40
0.2024941494
 40
1.0
 40
1.0
 40
1.0
 40
1.0
 10
19.5508504536
 20
44.7412327739
 30
0.0
 10
19.5522653536
 20
44.7451518581
 30
0.0
 10
19.5587057913
 20
44.7647018815
 30
0.0
 10
19.5637449272
 20
44.7846820944
 30
0.0
 10
19.5674543114
 20
44.8006674415
 30
0.0
  0
SPLINE
  5
403
100
AcDbEntity
  8
0
100
AcDbSpline
 62
7
  6
BYLAYER
 70
0
 71
3
 72
10
 73
6
 74
0
 42
0.0000001
 43
0.0000001
 44
0.0000000001
 40
0.0
 40
0.0
 40
0.0
 40
0.0
 40
0.2183768136
 40
0.4523085135
 40
1.0
 40
1.0
 40
1.0
 40
1.0
 10
21.0402526496
 20
46.5282037669
 30
0.0
 10
21.0402527045
 20
46.5205884207
 30
0.0
 10
21.0430730052
 20
46.5047058438
 30
0.0
 10
21.0599513975
 20
46.4736854188
 30
0.0
 10
21.0822912466
 20
46.4561049411
 30
0.0
 10
21.0988318826
 20
46.4465554166
 30
0.0
  0
SPLINE
  5
404
100
AcDbEntity
  8
0
100
AcDbSpline
 62
7
  6
BYLAYER
 70
0
 71
3
 72
9
 73
5
 74
0
 42
0.0000001
 43
0.0000001
 44
0.0000000001
 40
0.0
 40
0.0
 40
0.0
 40
0.0
 40
0.2545082968
 40
1.0
 40
1.0
 40
1.0
 40
1.0
 10
48.2550502489
 20
83.8697510751
 30
0.0
 10
48.2246388391
 20
83.8756033274
 30
0.0
 10
48.1048555296
 20
83.8970386239
 30
0.0
 10
47.9839185114
 20
83.9121267164
 30
0.0
 10
47.8934988814
 20
83.9194264802
 30
0.0
  0
SPLINE
  5
405
100
AcDbEntity
  8
0
100
AcDbSpline
 62
7
  6
BYLAYER
 70
0
 71
3
 72
9
 73
5
 74
0
 42
0.0000001
 43
0.0000001
 44
0.0000000001
 40
0.0
 40
0.0
 40
0.0
 40
0.0
 40
0.2558664157
 40
1.0
 40
1.0
 40
1.0
 40
1.0
 10
47.8934988814
 20
83.9194264802
 30
0.0
 10
47.8511911057
 20
83.9228420745
 30
0.0
 10
47.6855958249
 20
83.9328228149
 30
0.0
 10
47.51908323
 20
83.9289341293
 30
0.0
 10
47.3961874516
 20
83.9173175251
 30
0.0
  0
SPLINE
  5
406
100
AcDbEntity
  8
0
100
AcDbSpline
 62
7
  6
BYLAYER
 70
0
 71
3
 72
10
 73
6
 74
0
 42
0.0000001
 43
0.0000001
 44
0.0000000001
 40
0.0
 40
0.0
 40
0.0
 40
0.0
 40
0.2184490573
 40
0.4523653497
 40
1.0
 40
1.0
 40
1.0
 40
1.0
 10
20.7159065939
 20
44.5003405368
 30
0.0
 10
20.7093226263
 20
44.5041560725
 30
0.0
 10
20.6969992616
 20
44.5145397269
 30
0.0
 10
20.6786232456
 20
44.5446510512
 30
0.0
 10
20.6745613138
 20
44.5727484601
 30
0.0
 10
20.6745613116
 20
44.5918252836
 30
0.0
  0
SPLINE
  5
407
100
AcDbEntity
  8
0
100
AcDbSpline
 62
7
  6
BYLAYER
 70
0
 71
3
 72
15
 73
11
 74
0
 42
0.0000001
 43
0.0000001
 44
0.0000000001
 40
0.0
 40
0.0
 40
0.0
 40
0.0
 40
0.1139757369
 40
0.2371113348
 40
0.3668378045
 40
0.499999921
 40
0.6331618619
 40
0.7628880238
 40
0.8860227008
 40
1.0
 40
1.0
 40
1.0
 40
1.0
 10
60.4540408738
 20
79.8437678714
 30
0.0
 10
60.4557840719
 20
80.1417073109
 30
0.0
 10
60.4039771212
 20
80.7624436161
 30
0.0
 10
60.1887271043
 20
81.6995507035
 30
0.0
 10
59.8409192703
 20
82.649475065
 30
0.0
 10
59.3737518521
 20
83.5758963134
 30
0.0
 10
58.8050350424
 20
84.4436880764
 30
0.0
 10
58.1562816158
 20
85.2198555787
 30
0.0
 10
57.4523601066
 20
85.87483731
 30
0.0
 10
56.9406786883
 20
86.2300575046
 30
0.0
 10
56.6817827443
 20
86.3775236773
 30
0.0
  0
SPLINE
  5
408
100
AcDbEntity
  8
0
100
AcDbSpline
 62
7
  6
BYLAYER
 70
0
 71
3
 72
13
 73
9
 74
0
 42
0.0000001
 43
0.0000001
 44
0.0000000001
 40
0.0
 40
0.0
 40
0.0
 40
0.0
 40
0.0924379838
 40
0.1906690739
 40
0.298708688
 40
0.4185764785
 40
0.6927348409
 40
1.0
 40
1.0
 40
1.0
 40
1.0
 10
20.4655944631
 20
54.0467766905
 30
0.0
 10
20.4721927298
 20
54.0506022192
 30
0.0
 10
20.4845962702
 20
54.0607654864
 30
0.0
 10
20.4982979884
 20
54.0816210829
 30
0.0
 10
20.5070187762
 20
54.1073270744
 30
0.0
 10
20.5121941197
 20
54.1486478433
 30
0.0
 10
20.5046783907
 20
54.2068814047
 30
0.0
 10
20.4875553735
 20
54.2521056524
 30
0.0
 10
20.4762322842
 20
54.2747889468
 30
0.0
  0
SPLINE
  5
409
100
AcDbEntity
  8
0
100
AcDbSpline
 62
7
  6
BYLAYER
 70
0
 71
3
 72
9
 73
5
 74
0
 42
0.0000001
 43
0.0000001
 44
0.0000000001
 40
0.0
 40
0.0
 40
0.0
 40
0.0
 40
0.2424582347
 40
1.0
 40
1.0
 40
1.0
 40
1.0
 10
18.3804979937
 20
48.0637725048
 30
0.0
 10
18.3804962856
 20
48.0604086552
 30
0.0
 10
18.3815337622
 20
48.0465325523
 30
0.0
 10
18.3869512697
 20
48.0331603675
 30
0.0
 10
18.3925720044
 20
48.0242795313
 30
0.0
  0
SPLINE
  5
40A
100
AcDbEntity
  8
0
100
AcDbSpline
 62
7
  6
BYLAYER
 70
0
 71
3
 72
9
 73
5
 74
0
 42
0.0000001
 43
0.0000001
 44
0.0000000001
 40
0.0
 40
0.0
 40
0.0
 40
0.0
 40
0.2287979191
 40
1.0
 40
1.0
 40
1.0
 40
1.0
 10
18.3925720044
 20
48.0242795313
 30
0.0
 10
18.3951469913
 20
48.0202110177
 30
0.0
 10
18.4078321637
 20
48.0033333612
 30
0.0
 10
18.4250342643
 20
47.9902382689
 30
0.0
 10
18.4390894764
 20
47.982123672
 30
0.0
  0
SPLINE
  5
40B
100
AcDbEntity
  8
0
100
AcDbSpline
 62
7
  6
BYLAYER
 70
0
 71
3
 72
9
 73
5
 74
0
 42
0.0000001
 43
0.0000001
 44
0.0000000001
 40
0.0
 40
0.0
 40
0.0
 40
0.0
 40
0.4550468785
 40
1.0
 40
1.0
 40
1.0
 40
1.0
 10
21.1402490681
 20
43.7771514372
 30
0.0
 10
21.1279369608
 20
43.7842564334
 30
0.0
 10
21.1062997962
 20
43.8095834754
 30
0.0
 10
21.1001390334
 20
43.8411737342
 30
0.0
 10
21.099137285
 20
43.8581678896
 30
0.0
  0
SPLINE
  5
40C
100
AcDbEntity
  8
0
100
AcDbSpline
 62
7
  6
BYLAYER
 70
0
 71
3
 72
9
 73
5
 74
0
 42
0.0000001
 43
0.0000001
 44
0.0000000001
 40
0.0
 40
0.0
 40
0.0
 40
0.0
 40
0.5457008142
 40
1.0
 40
1.0
 40
1.0
 40
1.0
 10
20.9816693607
 20
44.4145203851
 30
0.0
 10
20.9816693616
 20
44.39804215
 30
0.0
 10
20.9853356225
 20
44.3674757902
 30
0.0
 10
21.0015940719
 20
44.3403184345
 30
0.0
 10
21.0118160705
 20
44.3311696339
 30
0.0
  0
SPLINE
  5
40D
100
AcDbEntity
  8
0
100
AcDbSpline
 62
7
  6
BYLAYER
 70
0
 71
3
 72
9
 73
5
 74
0
 42
0.0000001
 43
0.0000001
 44
0.0000000001
 40
0.0
 40
0.0
 40
0.0
 40
0.0
 40
0.7418520612
 40
1.0
 40
1.0
 40
1.0
 40
1.0
 10
22.2449873597
 20
43.18136284
 30
0.0
 10
22.2516471474
 20
43.181961252
 30
0.0
 10
22.2605626927
 20
43.1843812063
 30
0.0
 10
22.2685801856
 20
43.1885058405
 30
0.0
 10
22.2705952338
 20
43.1896692624
 30
0.0
  0
SPLINE
  5
40E
100
AcDbEntity
  8
0
100
AcDbSpline
 62
7
  6
BYLAYER
 70
0
 71
3
 72
9
 73
5
 74
0
 42
0.0000001
 43
0.0000001
 44
0.0000000001
 40
0.0
 40
0.0
 40
0.0
 40
0.0
 40
0.4421903636
 40
1.0
 40
1.0
 40
1.0
 40
1.0
 10
22.2705952338
 20
43.1896692624
 30
0.0
 10
22.2845202546
 20
43.1977091067
 30
0.0
 10
22.3096191384
 20
43.226360759
 30
0.0
 10
22.3222492945
 20
43.2608982509
 30
0.0
 10
22.3271966057
 20
43.2805692597
 30
0.0
  0
SPLINE
  5
40F
100
AcDbEntity
  8
0
100
AcDbSpline
 62
7
  6
BYLAYER
 70
0
 71
3
 72
9
 73
5
 74
0
 42
0.0000001
 43
0.0000001
 44
0.0000000001
 40
0.0
 40
0.0
 40
0.0
 40
0.0
 40
0.3788072938
 40
1.0
 40
1.0
 40
1.0
 40
1.0
 10
21.0402486291
 20
44.3585038591
 30
0.0
 10
21.0402485383
 20
44.3643224721
 30
0.0
 10
21.0318668594
 20
44.3787358
 30
0.0
 10
21.0202697266
 20
44.388505247
 30
0.0
 10
21.0126777115
 20
44.3942850453
 30
0.0
  0
SPLINE
  5
410
100
AcDbEntity
  8
0
100
AcDbSpline
 62
7
  6
BYLAYER
 70
0
 71
3
 72
9
 73
5
 74
0
 42
0.0000001
 43
0.0000001
 44
0.0000000001
 40
0.0
 40
0.0
 40
0.0
 40
0.0
 40
0.2260542331
 40
1.0
 40
1.0
 40
1.0
 40
1.0
 10
21.0126777115
 20
44.3942850453
 30
0.0
 10
21.0104569139
 20
44.3959757377
 30
0.0
 10
21.0004660662
 20
44.4032358623
 30
0.0
 10
20.9899494455
 20
44.4097497644
 30
0.0
 10
20.9816693969
 20
44.414520342
 30
0.0
  0
SPLINE
  5
411
100
AcDbEntity
  8
0
100
AcDbSpline
 62
7
  6
BYLAYER
 70
0
 71
3
 72
23
 73
19
 74
0
 42
0.0000001
 43
0.0000001
 44
0.0000000001
 40
0.0
 40
0.0
 40
0.0
 40
0.0
 40
0.0463579612
 40
0.0966913669
 40
0.1513786699
 40
0.2104548876
 40
0.2735838811
 40
0.3401791897
 40
0.4094726163
 40
0.4805608529
 40
0.5524604183
 40
0.6241544406
 40
0.6946323485
 40
0.7629384683
 40
0.8282186086
 40
0.8897676604
 40
0.9470957557
 40
1.0
 40
1.0
 40
1.0
 40
1.0
 10
55.6914930501
 20
87.3212791216
 30
0.0
 10
55.857391393
 20
87.3301514403
 30
0.0
 10
56.2061441162
 20
87.3092369981
 30
0.0
 10
56.7345705395
 20
87.1760878714
 30
0.0
 10
57.2771872301
 20
86.9439470877
 30
0.0
 10
57.8229862166
 20
86.6183503374
 30
0.0
 10
58.3612190668
 20
86.2061384346
 30
0.0
 10
58.880864464
 20
85.7159524598
 30
0.0
 10
59.3711606729
 20
85.1580019886
 30
0.0
 10
59.82185069
 20
84.5439462844
 30
0.0
 10
60.2235308816
 20
83.8867020346
 30
0.0
 10
60.5677526448
 20
83.2000590965
 30
0.0
 10
60.8472417754
 20
82.4984146746
 30
0.0
 10
61.0561862383
 20
81.7964829564
 30
0.0
 10
61.1902164619
 20
81.1089174305
 30
0.0
 10
61.2463895493
 20
80.4498545229
 30
0.0
 10
61.2234219712
 20
79.8330440091
 30
0.0
 10
61.1524717808
 20
79.4424621814
 30
0.0
 10
61.1023257158
 20
79.2596182808
 30
0.0
  0
SPLINE
  5
412
100
AcDbEntity
  8
0
100
AcDbSpline
 62
7
  6
BYLAYER
 70
0
 71
3
 72
9
 73
5
 74
0
 42
0.0000001
 43
0.0000001
 44
0.0000000001
 40
0.0
 40
0.0
 40
0.0
 40
0.0
 40
0.255466381
 40
1.0
 40
1.0
 40
1.0
 40
1.0
 10
55.7280730787
 20
87.4542526409
 30
0.0
 10
55.6867159828
 20
87.452040857
 30
0.0
 10
55.5251142341
 20
87.4388909956
 30
0.0
 10
55.3649053781
 20
87.4071492797
 30
0.0
 10
55.2492735136
 20
87.3725274961
 30
0.0
  0
SPLINE
  5
413
100
AcDbEntity
  8
0
100
AcDbSpline
 62
7
  6
BYLAYER
 70
0
 71
3
 72
22
 73
18
 74
0
 42
0.0000001
 43
0.0000001
 44
0.0000000001
 40
0.0
 40
0.0
 40
0.0
 40
0.0
 40
0.0471964839
 40
0.0986588323
 40
0.1547521135
 40
0.2154273009
 40
0.2802390192
 40
0.3484746905
 40
0.4192297215
 40
0.4914692834
 40
0.5640850522
 40
0.6359519887
 40
0.7059815509
 40
0.7731734733
 40
0.8366783686
 40
0.8958677553
 40
1.0
 40
1.0
 40
1.0
 40
1.0
 10
56.1531256287
 20
87.6779675402
 30
0.0
 10
56.3315398198
 20
87.6842728313
 30
0.0
 10
56.7067294863
 20
87.6535212414
 30
0.0
 10
57.2730061952
 20
87.4948301921
 30
0.0
 10
57.8527863225
 20
87.2269356049
 30
0.0
 10
58.4333586066
 20
86.8566332323
 30
0.0
 10
59.0021343419
 20
86.3922821136
 30
0.0
 10
59.5463911057
 20
85.844540417
 30
0.0
 10
60.0538264094
 20
85.2258908234
 30
0.0
 10
60.5128208049
 20
84.5504501314
 30
0.0
 10
60.9128495404
 20
83.833694957
 30
0.0
 10
61.2447767426
 20
83.0921012177
 30
0.0
 10
61.5009902793
 20
82.342574462
 30
0.0
 10
61.6756101808
 20
81.6024477174
 30
0.0
 10
61.7645105642
 20
80.8876201835
 30
0.0
 10
61.7662977515
 20
80.0294074991
 30
0.0
 10
61.6398047104
 20
79.4086535228
 30
0.0
 10
61.4807857907
 20
79.0482883231
 30
0.0
  0
SPLINE
  5
414
100
AcDbEntity
  8
0
100
AcDbSpline
 62
7
  6
BYLAYER
 70
0
 71
3
 72
12
 73
8
 74
0
 42
0.0000001
 43
0.0000001
 44
0.0000000001
 40
0.0
 40
0.0
 40
0.0
 40
0.0
 40
0.4039369398
 40
0.7125677976
 40
0.9105205107
 40
0.966749584
 40
1.0
 40
1.0
 40
1.0
 40
1.0
 10
20.5331397365
 20
44.6512766397
 30
0.0
 10
20.5304237498
 20
44.6395722735
 30
0.0
 10
20.5252804495
 20
44.6189734346
 30
0.0
 10
20.5173780299
 20
44.5931436888
 30
0.0
 10
20.5109175533
 20
44.5774723814
 30
0.0
 10
20.5061777807
 20
44.5704454578
 30
0.0
 10
20.5035443775
 20
44.5689721078
 30
0.0
 10
20.5025659878
 20
44.56911696
 30
0.0
  0
SPLINE
  5
415
100
AcDbEntity
  8
0
100
AcDbSpline
 62
7
  6
BYLAYER
 70
0
 71
3
 72
9
 73
5
 74
0
 42
0.0000001
 43
0.0000001
 44
0.0000000001
 40
0.0
 40
0.0
 40
0.0
 40
0.0
 40
0.2289752316
 40
1.0
 40
1.0
 40
1.0
 40
1.0
 10
20.6745613367
 20
44.5918252546
 30
0.0
 10
20.6644142865
 20
44.5976962105
 30
0.0
 10
20.6190665851
 20
44.6215461763
 30
0.0
 10
20.5708383792
 20
44.6395682925
 30
0.0
 10
20.5331397366
 20
44.6512766401
 30
0.0
  0
SPLINE
  5
416
100
AcDbEntity
  8
0
100
AcDbSpline
 62
7
  6
BYLAYER
 70
0
 71
3
 72
8
 73
4
 74
0
 42
0.0000001
 43
0.0000001
 44
0.0000000001
 40
0.0
 40
0.0
 40
0.0
 40
0.0
 40
1.0
 40
1.0
 40
1.0
 40
1.0
 10
37.4744183135
 20
42.6915522462
 30
0.0
 10
37.4685956351
 20
42.6881905423
 30
0.0
 10
37.4621896312
 20
42.6857115979
 30
0.0
 10
37.4556421025
 20
42.6841836895
 30
0.0
  0
SPLINE
  5
417
100
AcDbEntity
  8
0
100
AcDbSpline
 62
7
  6
BYLAYER
 70
0
 71
3
 72
9
 73
5
 74
0
 42
0.0000001
 43
0.0000001
 44
0.0000000001
 40
0.0
 40
0.0
 40
0.0
 40
0.0
 40
0.2218849058
 40
1.0
 40
1.0
 40
1.0
 40
1.0
 10
37.4556421025
 20
42.6841836895
 30
0.0
 10
37.4495646902
 20
42.6827654858
 30
0.0
 10
37.4212932934
 20
42.6799298501
 30
0.0
 10
37.3932272702
 20
42.6905255107
 30
0.0
 10
37.3742740963
 20
42.7014678832
 30
0.0
  0
SPLINE
  5
418
100
AcDbEntity
  8
0
100
AcDbSpline
 62
7
  6
BYLAYER
 70
0
 71
3
 72
9
 73
5
 74
0
 42
0.0000001
 43
0.0000001
 44
0.0000000001
 40
0.0
 40
0.0
 40
0.0
 40
0.0
 40
0.4704425254
 40
1.0
 40
1.0
 40
1.0
 40
1.0
 10
37.4544870287
 20
42.7260737735
 30
0.0
 10
37.4648335498
 20
42.7320473029
 30
0.0
 10
37.4838221719
 20
42.7503851492
 30
0.0
 10
37.4934930961
 20
42.7745199589
 30
0.0
 10
37.4967721779
 20
42.787562436
 30
0.0
  0
SPLINE
  5
419
100
AcDbEntity
  8
0
100
AcDbSpline
 62
7
  6
BYLAYER
 70
0
 71
3
 72
9
 73
5
 74
0
 42
0.0000001
 43
0.0000001
 44
0.0000000001
 40
0.0
 40
0.0
 40
0.0
 40
0.0
 40
0.2381542052
 40
1.0
 40
1.0
 40
1.0
 40
1.0
 10
37.4967721779
 20
42.787562436
 30
0.0
 10
37.4976111757
 20
42.7908995316
 30
0.0
 10
37.5006340205
 20
42.8050364053
 30
0.0
 10
37.5017615081
 20
42.8195487933
 30
0.0
 10
37.5017615081
 20
42.8305562494
 30
0.0
  0
SPLINE
  5
41A
100
AcDbEntity
  8
0
100
AcDbSpline
 62
7
  6
BYLAYER
 70
0
 71
3
 72
11
 73
7
 74
0
 42
0.0000001
 43
0.0000001
 44
0.0000000001
 40
0.0
 40
0.0
 40
0.0
 40
0.0
 40
0.2895567146
 40
0.5489668536
 40
0.7820909806
 40
1.0
 40
1.0
 40
1.0
 40
1.0
 10
19.4260327112
 20
44.834487014
 30
0.0
 10
19.4260327112
 20
44.8243585107
 30
0.0
 10
19.4275759574
 20
44.8050918175
 30
0.0
 10
19.4353637014
 20
44.7786145294
 30
0.0
 10
19.4485031537
 20
44.7571165903
 30
0.0
 10
19.4608603284
 20
44.7467517951
 30
0.0
 10
19.4674586253
 20
44.7429357567
 30
0.0
  0
SPLINE
  5
41B
100
AcDbEntity
  8
0
100
AcDbSpline
 62
7
  6
BYLAYER
 70
0
 71
3
 72
10
 73
6
 74
0
 42
0.0000001
 43
0.0000001
 44
0.0000000001
 40
0.0
 40
0.0
 40
0.0
 40
0.0
 40
0.44043694
 40
0.7051979494
 40
1.0
 40
1.0
 40
1.0
 40
1.0
 10
21.5253983673
 20
53.7394228708
 30
0.0
 10
21.5422152675
 20
53.7454386736
 30
0.0
 10
21.5731180783
 20
53.7433103454
 30
0.0
 10
21.6102613803
 20
53.7272650716
 30
0.0
 10
21.6293064626
 20
53.7145769061
 30
0.0
 10
21.6387190429
 20
53.7072067266
 30
0.0
  0
SPLINE
  5
41C
100
AcDbEntity
  8
0
100
AcDbSpline
 62
7
  6
BYLAYER
 70
0
 71
3
 72
9
 73
5
 74
0
 42
0.0000001
 43
0.0000001
 44
0.0000000001
 40
0.0
 40
0.0
 40
0.0
 40
0.0
 40
0.2435565632
 40
1.0
 40
1.0
 40
1.0
 40
1.0
 10
21.6387190429
 20
53.7072067266
 30
0.0
 10
21.6410362704
 20
53.7053923056
 30
0.0
 10
21.6504125777
 20
53.6977674872
 30
0.0
 10
21.6592451372
 20
53.6894803448
 30
0.0
 10
21.6656139101
 20
53.6829236447
 30
0.0
  0
SPLINE
  5
41D
100
AcDbEntity
  8
0
100
AcDbSpline
 62
7
  6
BYLAYER
 70
0
 71
3
 72
9
 73
5
 74
0
 42
0.0000001
 43
0.0000001
 44
0.0000000001
 40
0.0
 40
0.0
 40
0.0
 40
0.0
 40
0.5442478479
 40
1.0
 40
1.0
 40
1.0
 40
1.0
 10
18.4390894764
 20
45.4042860654
 30
0.0
 10
18.4251615389
 20
45.4123271819
 30
0.0
 10
18.4010952308
 20
45.4303574464
 30
0.0
 10
18.3855203454
 20
45.4570153041
 30
0.0
 10
18.3823824356
 20
45.4701120988
 30
0.0
  0
SPLINE
  5
41E
100
AcDbEntity
  8
0
100
AcDbSpline
 62
7
  6
BYLAYER
 70
0
 71
3
 72
8
 73
4
 74
0
 42
0.0000001
 43
0.0000001
 44
0.0000000001
 40
0.0
 40
0.0
 40
0.0
 40
0.0
 40
1.0
 40
1.0
 40
1.0
 40
1.0
 10
18.3823824356
 20
45.4701120988
 30
0.0
 10
18.3811448503
 20
45.4752774486
 30
0.0
 10
18.3804952966
 20
45.480623359
 30
0.0
 10
18.3804979937
 20
45.4859348982
 30
0.0
  0
SPLINE
  5
41F
100
AcDbEntity
  8
0
100
AcDbSpline
 62
7
  6
BYLAYER
 70
0
 71
3
 72
8
 73
4
 74
0
 42
0.0000001
 43
0.0000001
 44
0.0000000001
 40
0.0
 40
0.0
 40
0.0
 40
0.0
 40
1.0
 40
1.0
 40
1.0
 40
1.0
 10
18.4401444354
 20
45.3849860138
 30
0.0
 10
18.4394188599
 20
45.3913879824
 30
0.0
 10
18.4390894759
 20
45.3978431116
 30
0.0
 10
18.4390894759
 20
45.404286066
 30
0.0
  0
SPLINE
  5
420
100
AcDbEntity
  8
0
100
AcDbSpline
 62
7
  6
BYLAYER
 70
0
 71
3
 72
11
 73
7
 74
0
 42
0.0000001
 43
0.0000001
 44
0.0000000001
 40
0.0
 40
0.0
 40
0.0
 40
0.0
 40
0.3060730472
 40
0.5727697958
 40
0.7992421172
 40
1.0
 40
1.0
 40
1.0
 40
1.0
 10
18.5439078557
 20
48.2003763842
 30
0.0
 10
18.5305248322
 20
48.2041841412
 30
0.0
 10
18.5048248399
 20
48.2093260514
 30
0.0
 10
18.4681561751
 20
48.2089587772
 30
0.0
 10
18.4374084851
 20
48.1994949699
 30
0.0
 10
18.4221759171
 20
48.1862411751
 30
0.0
 10
18.416926273
 20
48.1787756179
 30
0.0
  0
SPLINE
  5
421
100
AcDbEntity
  8
0
100
AcDbSpline
 62
7
  6
BYLAYER
 70
0
 71
3
 72
9
 73
5
 74
0
 42
0.0000001
 43
0.0000001
 44
0.0000000001
 40
0.0
 40
0.0
 40
0.0
 40
0.0
 40
0.233402326
 40
1.0
 40
1.0
 40
1.0
 40
1.0
 10
18.4390894764
 20
47.9821236716
 30
0.0
 10
18.4390894764
 20
47.9881908638
 30
0.0
 10
18.4403883435
 20
48.0141810444
 30
0.0
 10
18.4461527498
 20
48.0398446382
 30
0.0
 10
18.452339501
 20
48.0587872976
 30
0.0
  0
SPLINE
  5
422
100
AcDbEntity
  8
0
100
AcDbSpline
 62
7
  6
BYLAYER
 70
0
 71
3
 72
9
 73
5
 74
0
 42
0.0000001
 43
0.0000001
 44
0.0000000001
 40
0.0
 40
0.0
 40
0.0
 40
0.0
 40
0.2581645027
 40
1.0
 40
1.0
 40
1.0
 40
1.0
 10
18.4896067267
 20
48.1363850734
 30
0.0
 10
18.4935395876
 20
48.1424565792
 30
0.0
 10
18.5095242998
 20
48.1654694999
 30
0.0
 10
18.5283550682
 20
48.1865849281
 30
0.0
 10
18.5439078558
 20
48.2003763843
 30
0.0
  0
SPLINE
  5
423
100
AcDbEntity
  8
0
100
AcDbSpline
 62
7
  6
BYLAYER
 70
0
 71
3
 72
11
 73
7
 74
0
 42
0.0000001
 43
0.0000001
 44
0.0000000001
 40
0.0
 40
0.0
 40
0.0
 40
0.0
 40
0.2891708667
 40
0.5490080569
 40
0.7822096977
 40
1.0
 40
1.0
 40
1.0
 40
1.0
 10
22.0857751177
 20
43.2989187588
 30
0.0
 10
22.0857751177
 20
43.2888080614
 30
0.0
 10
22.0873426218
 20
43.2695523596
 30
0.0
 10
22.0950918394
 20
43.2430717625
 30
0.0
 10
22.1082237511
 20
43.2215688233
 30
0.0
 10
22.1205611732
 20
43.2111866177
 30
0.0
 10
22.1271602688
 20
43.2073867648
 30
0.0
  0
SPLINE
  5
424
100
AcDbEntity
  8
0
100
AcDbSpline
 62
7
  6
BYLAYER
 70
0
 71
3
 72
9
 73
5
 74
0
 42
0.0000001
 43
0.0000001
 44
0.0000000001
 40
0.0
 40
0.0
 40
0.0
 40
0.0
 40
0.2399632522
 40
1.0
 40
1.0
 40
1.0
 40
1.0
 10
22.3271966059
 20
43.2805692594
 30
0.0
 10
22.3208171903
 20
43.2784427975
 30
0.0
 10
22.2938867497
 20
43.2706371017
 30
0.0
 10
22.2658984635
 20
43.26662867
 30
0.0
 10
22.2446278625
 20
43.2655386204
 30
0.0
  0
SPLINE
  5
425
100
AcDbEntity
  8
0
100
AcDbSpline
 62
7
  6
BYLAYER
 70
0
 71
3
 72
9
 73
5
 74
0
 42
0.0000001
 43
0.0000001
 44
0.0000000001
 40
0.0
 40
0.0
 40
0.0
 40
0.0
 40
0.2541214272
 40
1.0
 40
1.0
 40
1.0
 40
1.0
 10
22.2194502693
 20
43.2651778732
 30
0.0
 10
22.2136251823
 20
43.2653078323
 30
0.0
 10
22.1907217189
 20
43.2664004996
 30
0.0
 10
22.1679094371
 20
43.2697899298
 30
0.0
 10
22.1512726929
 20
43.2737502636
 30
0.0
  0
SPLINE
  5
426
100
AcDbEntity
  8
0
100
AcDbSpline
 62
7
  6
BYLAYER
 70
0
 71
3
 72
9
 73
5
 74
0
 42
0.0000001
 43
0.0000001
 44
0.0000000001
 40
0.0
 40
0.0
 40
0.0
 40
0.0
 40
0.2646073779
 40
1.0
 40
1.0
 40
1.0
 40
1.0
 10
22.1512726929
 20
43.2737502636
 30
0.0
 10
22.1452409581
 20
43.2751861024
 30
0.0
 10
22.1226359867
 20
43.2813292808
 30
0.0
 10
22.1006983058
 20
43.2903030466
 30
0.0
 10
22.0857751172
 20
43.2989187587
 30
0.0
  0
SPLINE
  5
427
100
AcDbEntity
  8
0
100
AcDbSpline
 62
7
  6
BYLAYER
 70
0
 71
3
 72
10
 73
6
 74
0
 42
0.0000001
 43
0.0000001
 44
0.0000000001
 40
0.0
 40
0.0
 40
0.0
 40
0.0
 40
0.2313894864
 40
0.4872292398
 40
1.0
 40
1.0
 40
1.0
 40
1.0
 10
22.0857751172
 20
45.8767563653
 30
0.0
 10
22.1023107092
 20
45.8672097529
 30
0.0
 10
22.1401938158
 20
45.8522737193
 30
0.0
 10
22.2217564894
 20
45.8384660113
 30
0.0
 10
22.2870556467
 20
45.845026609
 30
0.0
 10
22.3271966059
 20
45.8584068661
 30
0.0
  0
SPLINE
  5
428
100
AcDbEntity
  8
0
100
AcDbSpline
 62
7
  6
BYLAYER
 70
0
 71
3
 72
8
 73
4
 74
0
 42
0.0000001
 43
0.0000001
 44
0.0000000001
 40
0.0
 40
0.0
 40
0.0
 40
0.0
 40
1.0
 40
1.0
 40
1.0
 40
1.0
 10
22.0868300768
 20
45.8972745716
 30
0.0
 10
22.0861471438
 20
45.8904602715
 30
0.0
 10
22.0857751176
 20
45.8836048013
 30
0.0
 10
22.0857751176
 20
45.8767563648
 30
0.0
  0
SPLINE
  5
429
100
AcDbEntity
  8
0
100
AcDbSpline
 62
7
  6
BYLAYER
 70
0
 71
3
 72
9
 73
5
 74
0
 42
0.0000001
 43
0.0000001
 44
0.0000000001
 40
0.0
 40
0.0
 40
0.0
 40
0.0
 40
0.5068975008
 40
1.0
 40
1.0
 40
1.0
 40
1.0
 10
22.1905934971
 20
46.0950090775
 30
0.0
 10
22.1619233814
 20
46.0695858123
 30
0.0
 10
22.115669202
 20
46.0077415189
 30
0.0
 10
22.0905472587
 20
45.9343645794
 30
0.0
 10
22.0868300768
 20
45.8972745716
 30
0.0
  0
SPLINE
  5
42A
100
AcDbEntity
  8
0
100
AcDbSpline
 62
7
  6
BYLAYER
 70
0
 71
3
 72
11
 73
7
 74
0
 42
0.0000001
 43
0.0000001
 44
0.0000000001
 40
0.0
 40
0.0
 40
0.0
 40
0.0
 40
0.2326317378
 40
0.5000013265
 40
0.7673702222
 40
1.0
 40
1.0
 40
1.0
 40
1.0
 10
22.3271966057
 20
45.8584068657
 30
0.0
 10
22.3210296393
 20
45.8788160551
 30
0.0
 10
22.3039762738
 20
45.9215167396
 30
0.0
 10
22.2715514355
 20
45.9840155309
 30
0.0
 10
22.2336381325
 20
46.0433453296
 30
0.0
 10
22.2051848861
 20
46.0794639756
 30
0.0
 10
22.1905934969
 20
46.0950090774
 30
0.0
  0
SPLINE
  5
42B
100
AcDbEntity
  8
0
100
AcDbSpline
 62
7
  6
BYLAYER
 70
0
 71
3
 72
9
 73
5
 74
0
 42
0.0000001
 43
0.0000001
 44
0.0000000001
 40
0.0
 40
0.0
 40
0.0
 40
0.0
 40
0.2562562935
 40
1.0
 40
1.0
 40
1.0
 40
1.0
 10
19.5156904741
 20
44.8046018075
 30
0.0
 10
19.5115009759
 20
44.8052491554
 30
0.0
 10
19.4952049414
 20
44.8080984696
 30
0.0
 10
19.479125725
 20
44.8122440197
 30
0.0
 10
19.4674541998
 20
44.8161370339
 30
0.0
  0
SPLINE
  5
42C
100
AcDbEntity
  8
0
100
AcDbSpline
 62
7
  6
BYLAYER
 70
0
 71
3
 72
9
 73
5
 74
0
 42
0.0000001
 43
0.0000001
 44
0.0000000001
 40
0.0
 40
0.0
 40
0.0
 40
0.0
 40
0.2605912122
 40
1.0
 40
1.0
 40
1.0
 40
1.0
 10
19.4674541998
 20
44.8161370339
 30
0.0
 10
19.4637176848
 20
44.8173833411
 30
0.0
 10
19.4494916633
 20
44.8224887965
 30
0.0
 10
19.4357117315
 20
44.8288989554
 30
0.0
 10
19.4260327115
 20
44.8344870138
 30
0.0
  0
SPLINE
  5
42D
100
AcDbEntity
  8
0
100
AcDbSpline
 62
7
  6
BYLAYER
 70
0
 71
3
 72
15
 73
11
 74
0
 42
0.0000001
 43
0.0000001
 44
0.0000000001
 40
0.0
 40
0.0
 40
0.0
 40
0.0
 40
0.157100019
 40
0.306991376
 40
0.4476153933
 40
0.5775846336
 40
0.6963994225
 40
0.804724281
 40
0.904724525
 40
1.0
 40
1.0
 40
1.0
 40
1.0
 10
24.5084834927
 20
54.1110570506
 30
0.0
 10
24.6086453499
 20
53.8455967914
 30
0.0
 10
24.779593228
 20
53.3170071354
 30
0.0
 10
24.9465823818
 20
52.5244138472
 30
0.0
 10
25.0151762673
 20
51.7660963378
 30
0.0
 10
24.983305322
 20
51.0610082453
 30
0.0
 10
24.8508611345
 20
50.4264386717
 30
0.0
 10
24.619207526
 20
49.877990961
 30
0.0
 10
24.2914037363
 20
49.4315134181
 30
0.0
 10
24.0099849079
 20
49.2100912615
 30
0.0
 10
23.8609683508
 20
49.1240540523
 30
0.0
  0
SPLINE
  5
42E
100
AcDbEntity
  8
0
100
AcDbSpline
 62
7
  6
BYLAYER
 70
0
 71
3
 72
11
 73
7
 74
0
 42
0.0000001
 43
0.0000001
 44
0.0000000001
 40
0.0
 40
0.0
 40
0.0
 40
0.0
 40
0.2723932925
 40
0.5279752191
 40
0.769243105
 40
1.0
 40
1.0
 40
1.0
 40
1.0
 10
21.7523458189
 20
50.210343172
 30
0.0
 10
21.8562391238
 20
50.1772309882
 30
0.0
 10
22.0617747197
 20
50.1250378505
 30
0.0
 10
22.3690356637
 20
50.0915962831
 30
0.0
 10
22.6612301564
 20
50.1066526853
 30
0.0
 10
22.8464985071
 20
50.1498282897
 30
0.0
 10
22.9340074471
 20
50.1794135712
 30
0.0
  0
SPLINE
  5
42F
100
AcDbEntity
  8
0
100
AcDbSpline
 62
7
  6
BYLAYER
 70
0
 71
3
 72
9
 73
5
 74
0
 42
0.0000001
 43
0.0000001
 44
0.0000000001
 40
0.0
 40
0.0
 40
0.0
 40
0.0
 40
0.5106377306
 40
1.0
 40
1.0
 40
1.0
 40
1.0
 10
23.6473136182
 20
50.8874278743
 30
0.0
 10
23.5825155131
 20
50.7821631615
 30
0.0
 10
23.4327427766
 20
50.5887443065
 30
0.0
 10
23.2385237535
 20
50.4390322201
 30
0.0
 10
23.1359338114
 20
50.3798033363
 30
0.0
  0
SPLINE
  5
430
100
AcDbEntity
  8
0
100
AcDbSpline
 62
7
  6
BYLAYER
 70
0
 71
3
 72
21
 73
17
 74
0
 42
0.0000001
 43
0.0000001
 44
0.0000000001
 40
0.0
 40
0.0
 40
0.0
 40
0.0
 40
0.0623901675
 40
0.1287880996
 40
0.1984035472
 40
0.2704103684
 40
0.4174477285
 40
0.5616798063
 40
0.6303083791
 40
0.695423548
 40
0.7563981246
 40
0.8128609914
 40
0.864783261
 40
0.9125798353
 40
0.9571747239
 40
1.0
 40
1.0
 40
1.0
 40
1.0
 10
23.8333305221
 20
52.1521632763
 30
0.0
 10
23.8333305221
 20
52.3201270855
 30
0.0
 10
23.8105067843
 20
52.6670713608
 30
0.0
 10
23.7169306096
 20
53.1938385537
 30
0.0
 10
23.5646125456
 20
53.7336727243
 30
0.0
 10
23.2858343827
 20
54.4600044079
 30
0.0
 10
22.8180199867
 20
55.3244174232
 30
0.0
 10
22.2183536885
 20
56.0923128667
 30
0.0
 10
21.6786410719
 20
56.6122609845
 30
0.0
 10
21.2650252967
 20
56.936014078
 30
0.0
 10
20.8447564515
 20
57.1931524283
 30
0.0
 10
20.4262940462
 20
57.3781111618
 30
0.0
 10
20.0179690305
 20
57.486560731
 30
0.0
 10
19.6278244127
 20
57.5153039058
 30
0.0
 10
19.2644957329
 20
57.462065355
 30
0.0
 10
19.0444075571
 20
57.3705640668
 30
0.0
 10
18.9445601543
 20
57.3129205426
 30
0.0
  0
SPLINE
  5
431
100
AcDbEntity
  8
0
100
AcDbSpline
 62
7
  6
BYLAYER
 70
0
 71
3
 72
9
 73
5
 74
0
 42
0.0000001
 43
0.0000001
 44
0.0000000001
 40
0.0
 40
0.0
 40
0.0
 40
0.0
 40
0.5227686854
 40
1.0
 40
1.0
 40
1.0
 40
1.0
 10
20.745271728
 20
47.7019595096
 30
0.0
 10
20.7668921508
 20
47.728855774
 30
0.0
 10
20.8004097736
 20
47.7868073766
 30
0.0
 10
20.8159820954
 20
47.8527035729
 30
0.0
 10
20.8159820902
 20
47.8842063045
 30
0.0
  0
SPLINE
  5
432
100
AcDbEntity
  8
0
100
AcDbSpline
 62
7
  6
BYLAYER
 70
0
 71
3
 72
9
 73
5
 74
0
 42
0.0000001
 43
0.0000001
 44
0.0000000001
 40
0.0
 40
0.0
 40
0.0
 40
0.0
 40
0.5130746088
 40
1.0
 40
1.0
 40
1.0
 40
1.0
 10
20.5269471071
 20
47.7838299359
 30
0.0
 10
20.5658602062
 20
47.7746792447
 30
0.0
 10
20.6407260555
 20
47.7525145653
 30
0.0
 10
20.7123416319
 20
47.7207967483
 30
0.0
 10
20.7452717041
 20
47.7019594799
 30
0.0
  0
SPLINE
  5
433
100
AcDbEntity
  8
0
100
AcDbSpline
 62
7
  6
BYLAYER
 70
0
 71
3
 72
11
 73
7
 74
0
 42
0.0000001
 43
0.0000001
 44
0.0000000001
 40
0.0
 40
0.0
 40
0.0
 40
0.0
 40
0.3026017891
 40
0.447814036
 40
0.5840584427
 40
1.0
 40
1.0
 40
1.0
 40
1.0
 10
21.0169949721
 20
53.1914910201
 30
0.0
 10
21.0054266298
 20
53.2146656244
 30
0.0
 10
20.9844998079
 20
53.2472016927
 30
0.0
 10
20.9501219876
 20
53.2839713653
 30
0.0
 10
20.9051355301
 20
53.3216422908
 30
0.0
 10
20.8518171573
 20
53.3431705532
 30
0.0
 10
20.8182945292
 20
53.3311787165
 30
0.0
  0
SPLINE
  5
434
100
AcDbEntity
  8
0
100
AcDbSpline
 62
7
  6
BYLAYER
 70
0
 71
3
 72
10
 73
6
 74
0
 42
0.0000001
 43
0.0000001
 44
0.0000000001
 40
0.0
 40
0.0
 40
0.0
 40
0.0
 40
0.2315395482
 40
0.4872535177
 40
1.0
 40
1.0
 40
1.0
 40
1.0
 10
20.6317654857
 20
48.0020826346
 30
0.0
 10
20.6317654846
 20
47.9829768625
 30
0.0
 10
20.625791405
 20
47.9426915507
 30
0.0
 10
20.5968735125
 20
47.8651869788
 30
0.0
 10
20.5586034953
 20
47.8119012816
 30
0.0
 10
20.5269470972
 20
47.7838299271
 30
0.0
  0
ENDSEC
  0
SECTION
  2
OBJECTS
  0
DICTIONARY
  5
C
100
AcDbDictionary
280
0
281
1
  3
ACAD_GROUP
350
D
  3
ACAD_MLINESTYLE
350
17
  3
ACAD_LAYOUT
350
1A
  3
ACAD_PLOTSETTINGS
350
19
  3
ACAD_PLOTSTYLENAME
350
E
  0
DICTIONARY
  5
D
102
{ACAD_REACTORS
330
C
102
}
100
AcDbDictionary
280
0
281
1
  0
ACDBDICTIONARYWDFLT
  5
E
102
{ACAD_REACTORS
330
C
102
}
100
AcDbDictionary
281
1
  3
Normal
350
F
100
AcDbDictionaryWithDefault
340
F
  0
DICTIONARY
  5
17
102
{ACAD_REACTORS
330
C
102
}
100
AcDbDictionary
280
0
281
1
  3
Standard
350
18
  0
DICTIONARY
  5
19
102
{ACAD_REACTORS
330
C
102
}
100
AcDbDictionary
281
1
  0
DICTIONARY
  5
1A
102
{ACAD_REACTORS
330
C
102
}
100
AcDbDictionary
281
1
  3
Model
350
435
  3
Layout1
350
436
  0
ACDBPLACEHOLDER
  5
F
102
{ACAD_REACTORS
330
E
102
}
  0
MLINESTYLE
  5
18
102
{ACAD_REACTORS
330
17
102
}
100
AcDbMlineStyle
  2
STANDARD
 70
0
  3

 62
256
 51
90.0
 52
90.0
 71
2
 49
0.5
 62
256
  6
BYLAYER
 49
-0.5
 62
256
  6
BYLAYER
  0
LAYOUT
  5
435
102
{ACAD_REACTORS
330
1A
102
}
100
AcDbPlotSettings
  1

  2
none_device
  4

  6

 40
0.0
 41
0.0
 42
0.0
 43
0.0
 44
210.0
 45
297.0
 46
0.0
 47
0.0
 48
0.0
 49
0.0
140
0.0
141
0.0
142
1.0
143
1.0
 70
1024
 72
1
 73
0
 74
0
  7

 75
0
147
1.0
148
0.0
149
0.0
100
AcDbLayout
  1
Model
 70
0
 71
0
 10
0.0
 20
0.0
 11
210.0
 21
297.0
 12
0.0
 22
0.0
 32
0.0
 14
0.0
 24
0.0
 34
0.0
 15
0.0
 25
0.0
 35
0.0
146
0.0
 13
0.0
 23
0.0
 33
0.0
 16
1.0
 26
0.0
 36
0.0
 17
0.0
 27
1.0
 37
0.0
 76
0
330
210
345
0
346
0
  0
LAYOUT
  5
436
102
{ACAD_REACTORS
330
1A
102
}
100
AcDbPlotSettings
  1

  2
none_device
  4

  6

 40
0.0
 41
0.0
 42
0.0
 43
0.0
 44
210.0
 45
297.0
 46
0.0
 47
0.0
 48
0.0
 49
0.0
140
0.0
141
0.0
142
1.0
143
1.0
 70
0
 72
1
 73
0
 74
0
  7

 75
0
147
1.0
148
0.0
149
0.0
100
AcDbLayout
  1
Layout1
 70
0
 71
1
 10
0.0
 20
0.0
 11
210.0
 21
297.0
 12
0.0
 22
0.0
 32
0.0
 14
0.0
 24
0.0
 34
0.0
 15
0.0
 25
0.0
 35
0.0
146
0.0
 13
0.0
 23
0.0
 33
0.0
 16
1.0
 26
0.0
 36
0.0
 17
0.0
 27
1.0
 37
0.0
 76
0
330
211
345
0
346
0
  0
ENDSEC
  0
EOF
