999
DXF file: C:\Users\sesa63760\Dev\_Creo\CAD\MCADID0004742_3D-CAD\drw0001_1.dxf
999
Pro/ENGINEER 2019471 by Parametric Technology Corporation
  0
SECTION
  2
HEADER
  9
$ACADVER
  1
AC1024
  9
$DWGCODEPAGE
  3
ANSI_1252
  9
$EXTMAX
 10
35.4801557565
 20
50.179077427
 30
0.0
  9
$EXTMIN
 10
0.0
 20
0.0
 30
0.0
  9
$LIMMIN
 10
0.0
 20
0.0
  9
$LIMMAX
 10
35.4801557565
 20
50.179077427
  9
$VIEWCTR
 10
17.7400778782
 20
25.0895387135
  9
$VIEWSIZE
 40
50.179077427
  9
$CLAYER
  8
0
  9
$LTSCALE
 40
3.2709324545
  9
$CELTYPE
  6
BYLAYER
  9
$DIMSCALE
 40
1.0
  9
$DIMASZ
 40
0.4223828066
  9
$DIMEXO
 40
1.0
  9
$DIMDLI
 40
2.2599169686
  9
$DIMEXE
 40
1.0
  9
$DIMCEN
 40
0.5352434926
  9
$DIMLFAC
 40
1.0
  9
$DIMBLK
  1
_FILLED
  9
$DIMALT
 70
0
  9
$DIMALTF
 40
0.0393700787
  9
$DIMTXT
 40
0.5913359293
  9
$DIMTOL
 70
1
  9
$DIMLIM
 70
0
  9
$DIMTFAC
 40
1.0
  9
$DIMTP
 40
0.01
  9
$DIMTM
 40
0.01
  9
$DIMGAP
 40
0.625
  9
$DIMDSEP
 70
46
  9
$AUNITS
 70
0
  9
$PDMODE
 70
3
  9
$PDSIZE
 40
0.3125
  9
$HANDSEED
  5
413
  9
$TILEMODE
 70
1
  9
$MEASUREMENT
 70
1
  9
$INSUNITS
 70
4
  0
ENDSEC
  0
SECTION
  2
CLASSES
  0
CLASS
  1
ACDBDICTIONARYWDFLT
  2
AcDbDictionaryWithDefault
  3
AutoCAD 2000
 90
0
 91
1
280
0
281
0
  0
CLASS
  1
ACDBPLACEHOLDER
  2
AcDbPlaceHolder
  3
AutoCAD 2000
 90
0
 91
1
280
0
281
0
  0
CLASS
  1
LAYOUT
  2
AcDbLayout
  3
AutoCAD 2000
 90
0
 91
0
280
0
281
0
  0
ENDSEC
  0
SECTION
  2
TABLES
  0
TABLE
  2
VPORT
  5
8
100
AcDbSymbolTable
 70
2
  0
VPORT
  5
1F4
100
AcDbSymbolTableRecord
100
AcDbViewportTableRecord
  2
*ACTIVE
 70
0
 10
0.0
 20
0.0
 11
1.0
 21
1.0
 12
17.7400778782
 22
25.0895387135
 13
0.0
 23
0.0
 14
1.0
 24
1.0
 15
0.0
 25
0.0
 16
0.0
 26
0.0
 36
1.0
 17
0.0
 27
0.0
 37
0.0
 40
50.179077427
 41
0.7070707071
 42
50.0
 43
0.0
 44
0.0
 50
0.0
 51
0.0
 71
0
 72
100
 73
1
 74
1
 75
0
 76
0
 77
0
 78
0
  0
ENDTAB
  0
TABLE
  2
LTYPE
  5
5
100
AcDbSymbolTable
 70
6
  0
LTYPE
  5
14
100
AcDbSymbolTableRecord
100
AcDbLinetypeTableRecord
  2
BYBLOCK
 70
0
  3

 72
65
 73
0
 40
0.0
  0
LTYPE
  5
15
100
AcDbSymbolTableRecord
100
AcDbLinetypeTableRecord
  2
BYLAYER
 70
0
  3

 72
65
 73
0
 40
0.0
  0
LTYPE
  5
16
100
AcDbSymbolTableRecord
100
AcDbLinetypeTableRecord
  2
CONTINUOUS
 70
64
  3
Solid line
 72
65
 73
0
 40
0.0
  0
LTYPE
  5
1F5
100
AcDbSymbolTableRecord
100
AcDbLinetypeTableRecord
  2
CENTER
 70
64
  3
____ _ ____ _ ____ _ ____ _ ____ _ ____ _ ____
 72
65
 73
4
 40
0.6
 49
0.375
 74
0
 49
-0.075
 74
0
 49
0.075
 74
0
 49
-0.075
 74
0
  0
LTYPE
  5
1F6
100
AcDbSymbolTableRecord
100
AcDbLinetypeTableRecord
  2
HIDDEN
 70
64
  3
- - - - - - - - - - - - - - - - - - - -
 72
65
 73
2
 40
0.2
 49
0.1
 74
0
 49
-0.1
 74
0
  0
LTYPE
  5
1F7
100
AcDbSymbolTableRecord
100
AcDbLinetypeTableRecord
  2
PHANTOM
 70
64
  3
_____ _ _ _____ _ _ _____ _ _ _____
 72
65
 73
6
 40
0.8
 49
0.45
 74
0
 49
-0.05
 74
0
 49
0.1
 74
0
 49
-0.05
 74
0
 49
0.1
 74
0
 49
-0.05
 74
0
  0
LTYPE
  5
1F8
100
AcDbSymbolTableRecord
100
AcDbLinetypeTableRecord
  2
DOT
 70
64
  3
. . . . . . . . . . . . . . . . . . . .
 72
65
 73
2
 40
0.2
 49
0.1
 74
0
 49
-0.1
 74
0
  0
LTYPE
  5
1F9
100
AcDbSymbolTableRecord
100
AcDbLinetypeTableRecord
  2
DASHED
 70
64
  3
- - - - - - - - - - - - - - - - - - - -
 72
65
 73
2
 40
0.2
 49
0.1
 74
0
 49
-0.1
 74
0
  0
ENDTAB
  0
TABLE
  2
LAYER
  5
2
100
AcDbSymbolTable
 70
36
  0
LAYER
  5
10
100
AcDbSymbolTableRecord
100
AcDbLayerTableRecord
  2
0
 70
0
 62
7
  6
CONTINUOUS
370
-3
390
F
  0
LAYER
  5
1FA
100
AcDbSymbolTableRecord
100
AcDbLayerTableRecord
  2
DEFAULT_1
 70
0
 62
7
  6
CENTER
370
-3
390
F
  0
LAYER
  5
1FB
100
AcDbSymbolTableRecord
100
AcDbLayerTableRecord
  2
DEFAULT_2
 70
0
 62
7
  6
HIDDEN
370
-3
390
F
  0
LAYER
  5
1FC
100
AcDbSymbolTableRecord
100
AcDbLayerTableRecord
  2
DEFAULT_3
 70
0
 62
7
  6
PHANTOM
370
-3
390
F
  0
LAYER
  5
1FD
100
AcDbSymbolTableRecord
100
AcDbLayerTableRecord
  2
00_COMPONENTS
 70
0
 62
7
  6
CONTINUOUS
370
-3
390
F
  0
LAYER
  5
1FE
100
AcDbSymbolTableRecord
100
AcDbLayerTableRecord
  2
01_1_DEFAULT_DATUMS
 70
0
 62
7
  6
CONTINUOUS
370
-3
390
F
  0
LAYER
  5
1FF
100
AcDbSymbolTableRecord
100
AcDbLayerTableRecord
  2
01_PLANES
 70
0
 62
7
  6
CONTINUOUS
370
-3
390
F
  0
LAYER
  5
200
100
AcDbSymbolTableRecord
100
AcDbLayerTableRecord
  2
02_COORD_SYS
 70
0
 62
7
  6
CONTINUOUS
370
-3
390
F
  0
LAYER
  5
201
100
AcDbSymbolTableRecord
100
AcDbLayerTableRecord
  2
03_AXES
 70
0
 62
7
  6
CONTINUOUS
370
-3
390
F
  0
LAYER
  5
202
100
AcDbSymbolTableRecord
100
AcDbLayerTableRecord
  2
04_POINTS
 70
0
 62
7
  6
CONTINUOUS
370
-3
390
F
  0
LAYER
  5
203
100
AcDbSymbolTableRecord
100
AcDbLayerTableRecord
  2
05_CURVES
 70
0
 62
7
  6
CONTINUOUS
370
-3
390
F
  0
LAYER
  5
204
100
AcDbSymbolTableRecord
100
AcDbLayerTableRecord
  2
06_SURFS
 70
0
 62
7
  6
CONTINUOUS
370
-3
390
F
  0
LAYER
  5
205
100
AcDbSymbolTableRecord
100
AcDbLayerTableRecord
  2
07_COSMETICS
 70
0
 62
7
  6
CONTINUOUS
370
-3
390
F
  0
LAYER
  5
206
100
AcDbSymbolTableRecord
100
AcDbLayerTableRecord
  2
10_NOTES
 70
0
 62
7
  6
CONTINUOUS
370
-3
390
F
  0
LAYER
  5
207
100
AcDbSymbolTableRecord
100
AcDbLayerTableRecord
  2
11_NOTES_PUB
 70
0
 62
7
  6
CONTINUOUS
370
-3
390
F
  0
LAYER
  5
208
100
AcDbSymbolTableRecord
100
AcDbLayerTableRecord
  2
13_REF_GTOL
 70
0
 62
7
  6
CONTINUOUS
370
-3
390
F
  0
LAYER
  5
209
100
AcDbSymbolTableRecord
100
AcDbLayerTableRecord
  2
16_MISC
 70
0
 62
7
  6
CONTINUOUS
370
-3
390
F
  0
LAYER
  5
20A
100
AcDbSymbolTableRecord
100
AcDbLayerTableRecord
  2
17_NO_PRINT
 70
0
 62
7
  6
CONTINUOUS
370
-3
390
F
  0
LAYER
  5
20B
100
AcDbSymbolTableRecord
100
AcDbLayerTableRecord
  2
18_DATUM_CAMS_JOINTS
 70
0
 62
7
  6
CONTINUOUS
370
-3
390
F
  0
LAYER
  5
20C
100
AcDbSymbolTableRecord
100
AcDbLayerTableRecord
  2
19_DATUM_FUNCTIONAL
 70
0
 62
7
  6
CONTINUOUS
370
-3
390
F
  0
LAYER
  5
20D
100
AcDbSymbolTableRecord
100
AcDbLayerTableRecord
  2
20_DATUM_KINEMATIC_SCHEME
 70
0
 62
7
  6
CONTINUOUS
370
-3
390
F
  0
ENDTAB
  0
TABLE
  2
STYLE
  5
3
100
AcDbSymbolTable
 70
1
  0
STYLE
  5
11
100
AcDbSymbolTableRecord
100
AcDbTextStyleTableRecord
  2
STANDARD
 70
0
 40
0.0
 41
1.0
 50
0.0
 71
0
 42
0.2
  3
ARIAL.TTF
  4

  0
STYLE
  5
20E
100
AcDbSymbolTableRecord
100
AcDbTextStyleTableRecord
  2
TEXTSTYLE_1
 70
0
 40
0.0
 41
0.8
 50
0.0
 71
0
 42
0.2
  3
gdt
  4

  0
ENDTAB
  0
TABLE
  2
VIEW
  5
6
100
AcDbSymbolTable
 70
0
  0
ENDTAB
  0
TABLE
  2
UCS
  5
7
100
AcDbSymbolTable
 70
0
  0
ENDTAB
  0
TABLE
  2
APPID
  5
9
100
AcDbSymbolTable
 70
1
  0
APPID
  5
20F
100
AcDbSymbolTableRecord
100
AcDbRegAppTableRecord
  2
ACAD
 70
0
  0
ENDTAB
  0
TABLE
  2
BLOCK_RECORD
  5
1
100
AcDbSymbolTable
 70
0
  0
BLOCK_RECORD
  5
210
100
AcDbSymbolTableRecord
100
AcDbBlockTableRecord
  2
*Model_Space
  0
BLOCK_RECORD
  5
211
100
AcDbSymbolTableRecord
100
AcDbBlockTableRecord
  2
*Paper_Space
  0
BLOCK_RECORD
  5
212
100
AcDbSymbolTableRecord
100
AcDbBlockTableRecord
  2
_FILLED
  0
ENDTAB
  0
TABLE
  2
DIMSTYLE
  5
A
100
AcDbSymbolTable
 70
1
100
AcDbDimStyleTable
 71
0
  0
DIMSTYLE
105
213
100
AcDbSymbolTableRecord
100
AcDbDimStyleTableRecord
  2
STANDARD
 70
0
  3

  4

 40
1.0
 41
0.4223828066
 42
1.0
 43
0.38
 44
1.0
 45
0.0
 46
0.0
 47
0.01
 48
0.01
140
0.5913359293
141
0.09
142
0.0
143
25.4
144
1.0
145
0.0
146
1.0
147
0.625
 71
1
 72
0
 73
0
 74
0
 75
0
 76
0
 77
1
 78
8
 79
2
170
0
171
1
172
0
173
0
174
0
175
0
176
0
177
0
178
0
270
2
179
2
271
2
272
2
273
2
274
2
275
0
280
0
281
0
282
0
283
1
284
8
285
0
286
0
287
3
288
0
340
11
278
46
341
212
342
212
343
212
344
212
  0
ENDTAB
  0
ENDSEC
  0
SECTION
  2
BLOCKS
  0
BLOCK
  5
20
100
AcDbEntity
  8
0
100
AcDbBlockBegin
  2
*Model_Space
 70
0
 10
0.0
 20
0.0
 30
0.0
  3
*Model_Space
  1

  0
ENDBLK
  5
21
100
AcDbEntity
  8
0
100
AcDbBlockEnd
  0
BLOCK
  5
1C
100
AcDbEntity
  8
0
100
AcDbBlockBegin
  2
*Paper_Space
 70
0
 10
0.0
 20
0.0
 30
0.0
  3
*Paper_Space
  1

  0
ENDBLK
  5
1D
100
AcDbEntity
  8
0
100
AcDbBlockEnd
  0
BLOCK
  5
214
100
AcDbEntity
  8
0
100
AcDbBlockBegin
  2
_FILLED
 70
64
 10
0.0
 20
0.0
  3
_FILLED
  1

  0
SOLID
  5
215
100
AcDbEntity
  8
0
  6
BYBLOCK
 62
0
100
AcDbTrace
 10
0.0
 20
0.0
 11
-1.0
 21
0.25
 12
-1.0
 22
-0.25
 13
-1.0
 23
-0.25
  0
ENDBLK
  5
216
100
AcDbEntity
  8
0
  6
BYBLOCK
 62
0
100
AcDbBlockEnd
  0
ENDSEC
  0
SECTION
  2
ENTITIES
  0
LWPOLYLINE
  5
217
100
AcDbEntity
  8
0
100
AcDbPolyline
 62
7
  6
BYLAYER
 90
7
 70
0
 10
7.6259969103
 20
9.6804192496
 10
9.4330479643
 20
8.9499828733
 10
11.5597394143
 20
8.6207488806
 10
13.7672467136
 20
8.73275647
 10
15.7671079509
 20
9.2732242261
 10
17.3201970157
 20
10.1720184916
 10
17.9791775396
 20
10.9880413442
  0
LWPOLYLINE
  5
218
100
AcDbEntity
  8
0
100
AcDbPolyline
 62
7
  6
BYLAYER
 90
3
 70
0
 10
8.1563247882
 20
9.986602365
 10
7.0409287711
 20
10.9062166277
 10
6.8626122368
 20
11.2897139784
  0
LWPOLYLINE
  5
219
100
AcDbEntity
  8
0
100
AcDbPolyline
 62
7
  6
BYLAYER
 90
6
 70
0
 10
7.6259969103
 20
11.5991999299
 10
9.4330479643
 20
10.8687635535
 10
11.5597394143
 20
10.5395295608
 10
13.7672467136
 20
10.6515371502
 10
15.7671079509
 20
11.1920049063
 10
16.6953943297
 20
11.7292171583
  0
LINE
  5
21A
100
AcDbEntity
  8
0
100
AcDbLine
 62
7
  6
BYLAYER
 10
8.2270351719
 20
11.9462074607
 11
7.5630422608
 21
12.4936536958
  0
LINE
  5
21B
100
AcDbEntity
  8
0
100
AcDbLine
 62
7
  6
BYLAYER
 10
6.6248027021
 20
13.0367710549
 11
6.2505639217
 21
13.5002381485
  0
LINE
  5
21C
100
AcDbEntity
  8
0
100
AcDbLine
 62
7
  6
BYLAYER
 10
4.1161062766
 20
30.1086940642
 11
4.1161062766
 21
16.6002324375
  0
LINE
  5
21D
100
AcDbEntity
  8
0
100
AcDbLine
 62
7
  6
BYLAYER
 10
5.8969094464
 20
39.533057527
 11
4.1659615001
 21
30.6235323226
  0
LINE
  5
21E
100
AcDbEntity
  8
0
100
AcDbLine
 62
7
  6
BYLAYER
 10
5.7661062766
 20
13.8854589807
 11
5.7661062766
 21
13.2525725273
  0
LINE
  5
21F
100
AcDbEntity
  8
0
100
AcDbLine
 62
7
  6
BYLAYER
 10
5.7661062766
 20
12.2727696267
 11
5.7661062766
 21
10.3131638256
  0
LINE
  5
220
100
AcDbEntity
  8
0
100
AcDbLine
 62
7
  6
BYLAYER
 10
27.1661395717
 20
11.9192242769
 11
27.2319033979
 21
11.9141944173
  0
LINE
  5
221
100
AcDbEntity
  8
0
100
AcDbLine
 62
7
  6
BYLAYER
 10
21.7583771311
 20
8.8061688032
 11
11.0440998369
 21
14.9919197428
  0
LINE
  5
222
100
AcDbEntity
  8
0
100
AcDbLine
 62
7
  6
BYLAYER
 10
4.3812156869
 20
28.9295499336
 11
4.1161062766
 21
30.10869246
  0
LINE
  5
223
100
AcDbEntity
  8
0
100
AcDbLine
 62
7
  6
BYLAYER
 10
6.4592755789
 20
26.7148156386
 11
6.4592755789
 21
18.1327776684
  0
LINE
  5
224
100
AcDbEntity
  8
0
100
AcDbLine
 62
7
  6
BYLAYER
 10
30.6471431703
 20
15.6707854731
 11
30.946453835
 21
15.7379254787
  0
LINE
  5
225
100
AcDbEntity
  8
0
100
AcDbLine
 62
7
  6
BYLAYER
 10
25.1221631244
 20
15.652190093
 11
24.8228524597
 21
15.5850500873
  0
LINE
  5
226
100
AcDbEntity
  8
0
100
AcDbLine
 62
7
  6
BYLAYER
 10
24.8056820106
 20
14.1056112476
 11
24.8738497931
 21
14.1013043995
  0
LINE
  5
227
100
AcDbEntity
  8
0
100
AcDbLine
 62
7
  6
BYLAYER
 10
26.3018049826
 20
11.1626457919
 11
26.2367587339
 21
11.1800211888
  0
LINE
  5
228
100
AcDbEntity
  8
0
100
AcDbLine
 62
7
  6
BYLAYER
 10
20.6014700818
 20
9.967962578
 11
6.4592755789
 21
18.1327776684
  0
LINE
  5
229
100
AcDbEntity
  8
0
100
AcDbLine
 62
7
  6
BYLAYER
 10
23.4133502697
 20
16.289218473
 11
23.8493656192
 21
16.3870234511
  0
LINE
  5
22A
100
AcDbEntity
  8
0
100
AcDbLine
 62
7
  6
BYLAYER
 10
24.6839496185
 20
15.117632018
 11
24.9603004672
 21
15.1075105884
  0
LINE
  5
22B
100
AcDbEntity
  8
0
100
AcDbLine
 62
7
  6
BYLAYER
 10
26.44480729
 20
11.8308811829
 11
26.4762218911
 21
11.8216443649
  0
LINE
  5
22C
100
AcDbEntity
  8
0
100
AcDbLine
 62
7
  6
BYLAYER
 10
25.4773164087
 20
11.2994873592
 11
25.4602564323
 21
11.307785343
  0
LINE
  5
22D
100
AcDbEntity
  8
0
100
AcDbLine
 62
7
  6
BYLAYER
 10
31.0853566762
 20
16.205343548
 11
30.8090058275
 21
16.2154649776
  0
LINE
  5
22E
100
AcDbEntity
  8
0
100
AcDbLine
 62
7
  6
BYLAYER
 10
30.1976112646
 20
14.6396753123
 11
30.4630390353
 21
14.6014010748
  0
LINE
  5
22F
100
AcDbEntity
  8
0
100
AcDbLine
 62
7
  6
BYLAYER
 10
24.9603004672
 20
15.1075105884
 11
24.9938926842
 21
15.0981763603
  0
LINE
  5
230
100
AcDbEntity
  8
0
100
AcDbLine
 62
7
  6
BYLAYER
 10
25.7466144758
 20
12.0468680372
 11
25.7483644899
 21
12.0458702568
  0
LINE
  5
231
100
AcDbEntity
  8
0
100
AcDbLine
 62
7
  6
BYLAYER
 10
20.9902560707
 20
13.2910626998
 11
23.8618670915
 21
11.6331748104
  0
LINE
  5
232
100
AcDbEntity
  8
0
100
AcDbLine
 62
7
  6
BYLAYER
 10
23.9122404631
 20
12.2015248801
 11
25.4602564323
 21
11.307785343
  0
LINE
  5
233
100
AcDbEntity
  8
0
100
AcDbLine
 62
7
  6
BYLAYER
 10
24.8393350884
 20
11.7378113102
 11
23.7079595282
 21
12.3909965174
  0
LINE
  5
234
100
AcDbEntity
  8
0
100
AcDbLine
 62
7
  6
BYLAYER
 10
26.2367587339
 20
11.1800211888
 11
25.9722039659
 21
11.3327585
  0
LINE
  5
235
100
AcDbEntity
  8
0
100
AcDbLine
 62
7
  6
BYLAYER
 10
23.4133502697
 20
12.8101299798
 11
24.54472583
 21
12.1569447726
  0
LINE
  5
236
100
AcDbEntity
  8
0
100
AcDbLine
 62
7
  6
BYLAYER
 10
24.4163094658
 20
12.4407935314
 11
23.2849339056
 21
13.0939787386
  0
LINE
  5
237
100
AcDbEntity
  8
0
100
AcDbLine
 62
7
  6
BYLAYER
 10
25.5716915527
 20
11.9689112482
 11
25.8432885248
 21
11.8121082106
  0
LINE
  5
238
100
AcDbEntity
  8
0
100
AcDbLine
 62
7
  6
BYLAYER
 10
25.014487924
 20
12.380777138
 11
25.3142087263
 21
12.2077371668
  0
LINE
  5
239
100
AcDbEntity
  8
0
100
AcDbLine
 62
7
  6
BYLAYER
 10
20.6014700818
 20
9.967962578
 11
21.7583792519
 21
8.806172476
  0
LINE
  5
23A
100
AcDbEntity
  8
0
100
AcDbLine
 62
7
  6
BYLAYER
 10
30.9636242841
 20
17.2173643184
 11
30.8954565016
 21
17.2216711665
  0
LINE
  5
23B
100
AcDbEntity
  8
0
100
AcDbLine
 62
7
  6
BYLAYER
 10
25.5716950301
 20
16.6833002538
 11
25.3062672594
 21
16.7215744912
  0
LINE
  5
23C
100
AcDbEntity
  8
0
100
AcDbLine
 62
7
  6
BYLAYER
 10
23.9122404631
 20
17.4738889089
 11
24.2988975248
 21
17.4181336119
  0
LINE
  5
23D
100
AcDbEntity
  8
0
100
AcDbLine
 62
7
  6
BYLAYER
 10
26.2792200466
 20
11.8129027037
 11
26.5114839489
 21
11.6788081109
  0
LINE
  5
23E
100
AcDbEntity
  8
0
100
AcDbLine
 62
7
  6
BYLAYER
 10
27.1159246447
 20
11.3632257636
 11
26.8328317598
 21
11.5266658194
  0
LINE
  5
23F
100
AcDbEntity
  8
0
100
AcDbLine
 62
7
  6
BYLAYER
 10
23.1324329316
 20
13.6631280806
 11
24.2638084919
 21
13.0099428734
  0
LINE
  5
240
100
AcDbEntity
  8
0
100
AcDbLine
 62
7
  6
BYLAYER
 10
25.3389824664
 20
12.4255742533
 11
25.1853699422
 21
12.5142604792
  0
LINE
  5
241
100
AcDbEntity
  8
0
100
AcDbLine
 62
7
  6
BYLAYER
 10
25.2406459391
 20
12.526122319
 11
25.2871988025
 21
12.4992456189
  0
LINE
  5
242
100
AcDbEntity
  8
0
100
AcDbLine
 62
7
  6
BYLAYER
 10
24.5984521325
 20
13.0476420272
 11
24.9603004672
 21
12.8387335199
  0
LINE
  5
243
100
AcDbEntity
  8
0
100
AcDbLine
 62
7
  6
BYLAYER
 10
24.2200080615
 20
13.3688249299
 11
23.0886325013
 21
14.0220101372
  0
LINE
  5
244
100
AcDbEntity
  8
0
100
AcDbLine
 62
7
  6
BYLAYER
 10
25.0298504551
 20
13.0680828498
 11
24.8239763418
 21
13.1869416356
  0
LINE
  5
245
100
AcDbEntity
  8
0
100
AcDbLine
 62
7
  6
BYLAYER
 10
27.1188420086
 20
11.9060714839
 11
27.2732585845
 21
11.8169210491
  0
LINE
  5
246
100
AcDbEntity
  8
0
100
AcDbLine
 62
7
  6
BYLAYER
 10
24.9120568378
 20
13.2206536065
 11
25.0030452581
 21
13.1681226059
  0
LINE
  5
247
100
AcDbEntity
  8
0
100
AcDbLine
 62
7
  6
BYLAYER
 10
23.5328845053
 20
14.3969292693
 11
24.8056820106
 21
13.6620959112
  0
LINE
  5
248
100
AcDbEntity
  8
0
100
AcDbLine
 62
7
  6
BYLAYER
 10
28.0378404608
 20
11.8449139783
 11
27.7091043325
 21
12.0347055768
  0
LINE
  5
249
100
AcDbEntity
  8
0
100
AcDbLine
 62
7
  6
BYLAYER
 10
23.0886325013
 20
14.7023887718
 11
24.2200080615
 21
14.0492035645
  0
LINE
  5
24A
100
AcDbEntity
  8
0
100
AcDbLine
 62
7
  6
BYLAYER
 10
24.9152685293
 20
13.8873277066
 11
24.6311345253
 21
14.0513688392
  0
LINE
  5
24B
100
AcDbEntity
  8
0
100
AcDbLine
 62
7
  6
BYLAYER
 10
24.765793859
 20
14.0932155984
 11
24.9152685293
 21
14.0069183095
  0
LINE
  5
24C
100
AcDbEntity
  8
0
100
AcDbLine
 62
7
  6
BYLAYER
 10
27.9825358114
 20
12.2713986244
 11
28.0766987492
 21
12.2170348568
  0
LINE
  5
24D
100
AcDbEntity
  8
0
100
AcDbLine
 62
7
  6
BYLAYER
 10
24.2638084919
 20
14.4586616997
 11
23.1324329316
 21
15.1118469069
  0
LINE
  5
24E
100
AcDbEntity
  8
0
100
AcDbLine
 62
7
  6
BYLAYER
 10
25.8215981134
 20
12.0035876097
 11
25.8233343644
 21
12.0025725941
  0
LINE
  5
24F
100
AcDbEntity
  8
0
100
AcDbLine
 62
7
  6
BYLAYER
 10
28.6031667101
 20
19.4037512855
 11
28.5374028968
 21
19.4087811487
  0
LINE
  5
250
100
AcDbEntity
  8
0
100
AcDbLine
 62
7
  6
BYLAYER
 10
30.8090058275
 20
16.2154649776
 11
30.7754136105
 21
16.2247992058
  0
LINE
  5
251
100
AcDbEntity
  8
0
100
AcDbLine
 62
7
  6
BYLAYER
 10
25.0853047485
 20
16.2614865976
 11
25.3142087263
 21
16.1471625594
  0
LINE
  5
252
100
AcDbEntity
  8
0
100
AcDbLine
 62
7
  6
BYLAYER
 10
23.5880928434
 20
15.3565469125
 11
24.8608903486
 21
14.6217135544
  0
LINE
  5
253
100
AcDbEntity
  8
0
100
AcDbLine
 62
7
  6
BYLAYER
 10
25.003045258
 20
14.8274786406
 11
23.7302477528
 21
15.5623119987
  0
LINE
  5
254
100
AcDbEntity
  8
0
100
AcDbLine
 62
7
  6
BYLAYER
 10
28.9396791427
 20
12.5922595772
 11
28.6291391337
 21
12.771545879
  0
LINE
  5
255
100
AcDbEntity
  8
0
100
AcDbLine
 62
7
  6
BYLAYER
 10
23.2849339056
 20
15.8570881545
 11
24.4163094658
 21
15.2039029472
  0
LINE
  5
256
100
AcDbEntity
  8
0
100
AcDbLine
 62
7
  6
BYLAYER
 10
24.7589240965
 20
15.1148860561
 11
25.0298504553
 21
14.9584701885
  0
LINE
  5
257
100
AcDbEntity
  8
0
100
AcDbLine
 62
7
  6
BYLAYER
 10
28.8153606612
 20
12.8817253819
 11
28.8670513236
 21
12.8518824392
  0
LINE
  5
258
100
AcDbEntity
  8
0
100
AcDbLine
 62
7
  6
BYLAYER
 10
24.54472583
 20
15.6360332658
 11
23.4133502697
 21
16.289218473
  0
LINE
  5
259
100
AcDbEntity
  8
0
100
AcDbLine
 62
7
  6
BYLAYER
 10
23.8493656192
 20
16.3870234511
 11
25.1221631244
 21
15.652190093
  0
LINE
  5
25A
100
AcDbEntity
  8
0
100
AcDbLine
 62
7
  6
BYLAYER
 10
25.2871988022
 20
15.8244659192
 11
24.014401297
 21
16.5592992774
  0
LINE
  5
25B
100
AcDbEntity
  8
0
100
AcDbLine
 62
7
  6
BYLAYER
 10
6.4592755789
 20
26.7148156386
 11
20.6014700818
 21
18.5500005482
  0
LINE
  5
25C
100
AcDbEntity
  8
0
100
AcDbLine
 62
7
  6
BYLAYER
 10
30.6840015462
 20
15.0614889684
 11
30.4550975684
 21
15.1758130066
  0
LINE
  5
25D
100
AcDbEntity
  8
0
100
AcDbLine
 62
7
  6
BYLAYER
 10
25.3142087263
 20
16.1471625594
 11
25.31772106
 21
16.1451900336
  0
LINE
  5
25E
100
AcDbEntity
  8
0
100
AcDbLine
 62
7
  6
BYLAYER
 10
24.0661849619
 20
16.692764913
 11
25.3389824671
 21
15.9579315549
  0
LINE
  5
25F
100
AcDbEntity
  8
0
100
AcDbLine
 62
7
  6
BYLAYER
 10
29.7599818747
 20
13.5543321928
 11
29.5419356415
 21
13.6802183963
  0
LINE
  5
260
100
AcDbEntity
  8
0
100
AcDbLine
 62
7
  6
BYLAYER
 10
23.7079595282
 20
17.0485353741
 11
24.8393350884
 21
16.3953501669
  0
LINE
  5
261
100
AcDbEntity
  8
0
100
AcDbLine
 62
7
  6
BYLAYER
 10
29.5869641274
 20
13.6802154428
 11
29.5904550857
 21
13.6781999827
  0
LINE
  5
262
100
AcDbEntity
  8
0
100
AcDbLine
 62
7
  6
BYLAYER
 10
25.0436160234
 20
16.8207037017
 11
23.9122404631
 21
17.4738889089
  0
LINE
  5
263
100
AcDbEntity
  8
0
100
AcDbLine
 62
7
  6
BYLAYER
 10
24.2988975248
 20
17.4181336119
 11
25.5716950301
 21
16.6833002538
  0
LINE
  5
264
100
AcDbEntity
  8
0
100
AcDbLine
 62
7
  6
BYLAYER
 10
25.7483645674
 20
16.8103465073
 11
24.4755670621
 21
17.5451798654
  0
LINE
  5
265
100
AcDbEntity
  8
0
100
AcDbLine
 62
7
  6
BYLAYER
 10
24.5488002238
 20
17.6720241263
 11
25.821597729
 21
16.9371907681
  0
LINE
  5
266
100
AcDbEntity
  8
0
100
AcDbLine
 62
7
  6
BYLAYER
 10
25.8432885248
 20
17.1537165971
 11
24.5704910196
 21
17.8885499552
  0
LINE
  5
267
100
AcDbEntity
  8
0
100
AcDbLine
 62
7
  6
BYLAYER
 10
29.5869881307
 20
13.6802570187
 11
29.5904550857
 21
13.6781999827
  0
LINE
  5
268
100
AcDbEntity
  8
0
100
AcDbLine
 62
7
  6
BYLAYER
 10
29.5904550857
 20
13.6781999827
 11
29.8039114982
 21
13.5371198282
  0
LINE
  5
269
100
AcDbEntity
  8
0
100
AcDbLine
 62
7
  6
BYLAYER
 10
25.2634897234
 20
12.5218356497
 11
25.2871987596
 21
12.4992456896
  0
LINE
  5
26A
100
AcDbEntity
  8
0
100
AcDbLine
 62
7
  6
BYLAYER
 10
29.324498994
 20
19.4920943838
 11
29.2930844036
 21
19.5013312012
  0
LINE
  5
26B
100
AcDbEntity
  8
0
100
AcDbLine
 62
7
  6
BYLAYER
 10
30.4550975684
 20
15.1758130066
 11
30.4515852347
 21
15.1777855324
  0
LINE
  5
26C
100
AcDbEntity
  8
0
100
AcDbLine
 62
7
  6
BYLAYER
 10
24.328880872
 20
18.1955352716
 11
25.4602564323
 21
17.5423500644
  0
LINE
  5
26D
100
AcDbEntity
  8
0
100
AcDbLine
 62
7
  6
BYLAYER
 10
30.4550975684
 20
15.1758130066
 11
30.4516091692
 21
15.1778269892
  0
LINE
  5
26E
100
AcDbEntity
  8
0
100
AcDbLine
 62
7
  6
BYLAYER
 10
30.4291098247
 20
15.2167913108
 11
30.6471273162
 21
15.0909217009
  0
LINE
  5
26F
100
AcDbEntity
  8
0
100
AcDbLine
 62
7
  6
BYLAYER
 10
25.7264805299
 20
17.9319396751
 11
24.5951049697
 21
18.5851248823
  0
LINE
  5
270
100
AcDbEntity
  8
0
100
AcDbLine
 62
7
  6
BYLAYER
 10
26.3551148688
 20
17.7179342718
 11
25.0823173635
 21
18.45276763
  0
LINE
  5
271
100
AcDbEntity
  8
0
100
AcDbLine
 62
7
  6
BYLAYER
 10
25.1720093033
 20
18.5643462892
 11
26.4448068085
 21
17.8295129311
  0
LINE
  5
272
100
AcDbEntity
  8
0
100
AcDbLine
 62
7
  6
BYLAYER
 10
21.7299792361
 20
20.8008762099
 11
12.9140730067
 21
25.8906268991
  0
LINE
  5
273
100
AcDbEntity
  8
0
100
AcDbLine
 62
7
  6
BYLAYER
 10
27.5664564206
 20
17.4373837149
 11
27.4655128472
 21
17.4956621957
  0
LINE
  5
274
100
AcDbEntity
  8
0
100
AcDbLine
 62
7
  6
BYLAYER
 10
26.5114839489
 20
18.0585777071
 11
25.2386864436
 21
18.7934110652
  0
LINE
  5
275
100
AcDbEntity
  8
0
100
AcDbLine
 62
7
  6
BYLAYER
 10
25.1053831737
 20
19.2199216995
 11
26.2367587339
 21
18.5667364922
  0
LINE
  5
276
100
AcDbEntity
  8
0
100
AcDbLine
 62
7
  6
BYLAYER
 10
30.8090058275
 20
16.2154649776
 11
30.7573231211
 21
16.245303327
  0
LINE
  5
277
100
AcDbEntity
  8
0
100
AcDbLine
 62
7
  6
BYLAYER
 10
26.182318164
 20
17.6427185473
 11
26.178851209
 21
17.6447755833
  0
LINE
  5
278
100
AcDbEntity
  8
0
100
AcDbLine
 62
7
  6
BYLAYER
 10
26.178851209
 20
17.6447755833
 11
25.9653947965
 21
17.7858557378
  0
LINE
  5
279
100
AcDbEntity
  8
0
100
AcDbLine
 62
7
  6
BYLAYER
 10
27.0661006761
 20
18.4853786067
 11
26.7951970099
 21
18.6417813731
  0
LINE
  5
27A
100
AcDbEntity
  8
0
100
AcDbLine
 62
7
  6
BYLAYER
 10
28.0614273403
 20
17.9681000951
 11
28.2735602578
 21
17.8456278687
  0
LINE
  5
27B
100
AcDbEntity
  8
0
100
AcDbLine
 62
7
  6
BYLAYER
 10
30.7596197912
 20
16.4616512611
 11
31.0701529388
 21
16.2823689206
  0
LINE
  5
27C
100
AcDbEntity
  8
0
100
AcDbLine
 62
7
  6
BYLAYER
 10
26.5467832619
 20
18.8940122906
 11
25.4154077017
 21
19.5471974978
  0
LINE
  5
27D
100
AcDbEntity
  8
0
100
AcDbLine
 62
7
  6
BYLAYER
 10
25.8933415314
 20
19.308921121
 11
27.1661390366
 21
18.5740877629
  0
LINE
  5
27E
100
AcDbEntity
  8
0
100
AcDbLine
 62
7
  6
BYLAYER
 10
28.3684281926
 20
18.0776475793
 11
28.1562952751
 21
18.2001198057
  0
LINE
  5
27F
100
AcDbEntity
  8
0
100
AcDbLine
 62
7
  6
BYLAYER
 10
27.2732585845
 20
18.8000811001
 11
26.0004610793
 21
19.5349144583
  0
LINE
  5
280
100
AcDbEntity
  8
0
100
AcDbLine
 62
7
  6
BYLAYER
 10
27.9384557192
 20
18.7749745156
 11
27.9795210822
 21
18.7512659536
  0
LINE
  5
281
100
AcDbEntity
  8
0
100
AcDbLine
 62
7
  6
BYLAYER
 10
25.9845490845
 20
20.0518844155
 11
27.1159246447
 21
19.3986992083
  0
LINE
  5
282
100
AcDbEntity
  8
0
100
AcDbLine
 62
7
  6
BYLAYER
 10
30.9636242841
 20
17.2173643184
 11
30.8694662387
 21
17.2717252614
  0
LINE
  5
283
100
AcDbEntity
  8
0
100
AcDbLine
 62
7
  6
BYLAYER
 10
27.8328694816
 20
19.0603794488
 11
27.6834009382
 21
19.1466732004
  0
LINE
  5
284
100
AcDbEntity
  8
0
100
AcDbLine
 62
7
  6
BYLAYER
 10
27.6523144503
 20
19.2842081314
 11
27.936436814
 21
19.1201737191
  0
LINE
  5
285
100
AcDbEntity
  8
0
100
AcDbLine
 62
7
  6
BYLAYER
 10
30.937715529
 20
17.6268614524
 11
31.2664543431
 21
17.4370683033
  0
LINE
  5
286
100
AcDbEntity
  8
0
100
AcDbLine
 62
7
  6
BYLAYER
 10
27.4486219439
 20
19.6413578895
 11
26.3172463836
 21
20.2945430967
  0
LINE
  5
287
100
AcDbEntity
  8
0
100
AcDbLine
 62
7
  6
BYLAYER
 10
28.0766987492
 20
19.3276945454
 11
26.803901244
 21
20.0625279035
  0
LINE
  5
288
100
AcDbEntity
  8
0
100
AcDbLine
 62
7
  6
BYLAYER
 10
28.8421693664
 20
12.8763092765
 11
28.8670513236
 21
12.8518824392
  0
LINE
  5
289
100
AcDbEntity
  8
0
100
AcDbLine
 62
7
  6
BYLAYER
 10
24.9658052807
 20
13.2225641856
 11
25.003045238
 21
13.1681226996
  0
LINE
  5
28A
100
AcDbEntity
  8
0
100
AcDbLine
 62
7
  6
BYLAYER
 10
18.4661062766
 20
10.7069192666
 11
18.4661062766
 21
10.3131638256
  0
LINE
  5
28B
100
AcDbEntity
  8
0
100
AcDbLine
 62
7
  6
BYLAYER
 10
30.0226918189
 20
19.2761075288
 11
30.0209418047
 21
19.2771053093
  0
LINE
  5
28C
100
AcDbEntity
  8
0
100
AcDbLine
 62
7
  6
BYLAYER
 10
28.6031672584
 20
19.403751441
 11
28.5121832517
 21
19.4562798934
  0
LINE
  5
28D
100
AcDbEntity
  8
0
100
AcDbLine
 62
7
  6
BYLAYER
 10
30.9084159461
 20
18.1132332444
 11
30.7540062182
 21
18.2023797256
  0
LINE
  5
28E
100
AcDbEntity
  8
0
100
AcDbLine
 62
7
  6
BYLAYER
 10
28.49733642
 20
19.5494118936
 11
28.7032056201
 21
19.4305559444
  0
LINE
  5
28F
100
AcDbEntity
  8
0
100
AcDbLine
 62
7
  6
BYLAYER
 10
26.9064649005
 20
20.6347265355
 11
28.0378404608
 21
19.9815413282
  0
LINE
  5
290
100
AcDbEntity
  8
0
100
AcDbLine
 62
7
  6
BYLAYER
 10
28.8670513236
 20
19.6054620585
 11
28.5052116293
 21
19.8143655773
  0
LINE
  5
291
100
AcDbEntity
  8
0
100
AcDbLine
 62
7
  6
BYLAYER
 10
29.3244994863
 20
19.4920943494
 11
29.2779539143
 21
19.51896684
  0
LINE
  5
292
100
AcDbEntity
  8
0
100
AcDbLine
 62
7
  6
BYLAYER
 10
29.2605831414
 20
19.5727661817
 11
29.4141914271
 21
19.4840824029
  0
LINE
  5
293
100
AcDbEntity
  8
0
100
AcDbLine
 62
7
  6
BYLAYER
 10
30.9395577043
 20
18.639770969
 11
31.2226539128
 21
18.4763289944
  0
LINE
  5
294
100
AcDbEntity
  8
0
100
AcDbLine
 62
7
  6
BYLAYER
 10
28.3705377599
 20
20.1230461043
 11
27.2391621997
 21
20.7762313115
  0
LINE
  5
295
100
AcDbEntity
  8
0
100
AcDbLine
 62
7
  6
BYLAYER
 10
30.6471431703
 20
18.842019769
 11
30.4148882946
 21
18.9761091505
  0
LINE
  5
296
100
AcDbEntity
  8
0
100
AcDbLine
 62
7
  6
BYLAYER
 10
29.5904550857
 20
19.6144542425
 11
29.2907383642
 21
19.7874918577
  0
LINE
  5
297
100
AcDbEntity
  8
0
100
AcDbLine
 62
7
  6
BYLAYER
 10
30.1976112646
 20
19.3540582948
 11
29.9260142925
 21
19.5108613324
  0
LINE
  5
298
100
AcDbEntity
  8
0
100
AcDbLine
 62
7
  6
BYLAYER
 10
27.8083035825
 20
20.9287283321
 11
28.9396791427
 21
20.2755431249
  0
LINE
  5
299
100
AcDbEntity
  8
0
100
AcDbLine
 62
7
  6
BYLAYER
 10
30.6771819811
 20
19.4820643057
 11
30.9417365747
 21
19.3293270953
  0
LINE
  5
29A
100
AcDbEntity
  8
0
100
AcDbLine
 62
7
  6
BYLAYER
 10
29.2497036707
 20
20.306250679
 11
28.1183281105
 21
20.9594358863
  0
LINE
  5
29B
100
AcDbEntity
  8
0
100
AcDbLine
 62
7
  6
BYLAYER
 10
28.6286063145
 20
20.9138540689
 11
29.7599818747
 21
20.2606688616
  0
LINE
  5
29C
100
AcDbEntity
  8
0
100
AcDbLine
 62
7
  6
BYLAYER
 10
30.4428463813
 20
19.9379321949
 11
28.8948304121
 21
20.8316717321
  0
LINE
  5
29D
100
AcDbEntity
  8
0
100
AcDbLine
 62
7
  6
BYLAYER
 10
29.9477081773
 20
19.3193879584
 11
29.9459719303
 21
19.3204029719
  0
LINE
  5
29E
100
AcDbEntity
  8
0
100
AcDbLine
 62
7
  6
BYLAYER
 10
26.9271369283
 20
18.4466662895
 11
26.9022549711
 21
18.4710931268
  0
LINE
  5
29F
100
AcDbEntity
  8
0
100
AcDbLine
 62
7
  6
BYLAYER
 10
24.5704910196
 20
17.8885499552
 11
24.328880872
 21
18.1955352716
  0
LINE
  5
2A0
100
AcDbEntity
  8
0
100
AcDbLine
 62
7
  6
BYLAYER
 10
25.6774308458
 20
17.3644522495
 11
25.8432885248
 21
17.1537165971
  0
LINE
  5
2A1
100
AcDbEntity
  8
0
100
AcDbLine
 62
7
  6
BYLAYER
 10
28.0388830915
 20
12.2739193318
 11
28.0766987492
 21
12.2170348568
  0
LINE
  5
2A2
100
AcDbEntity
  8
0
100
AcDbLine
 62
7
  6
BYLAYER
 10
20.6014700818
 20
9.967962578
 11
20.6014700818
 21
18.5500005482
  0
LINE
  5
2A3
100
AcDbEntity
  8
0
100
AcDbLine
 62
7
  6
BYLAYER
 10
29.3618441927
 20
21.1594674719
 11
26.4919449584
 21
22.8163670833
  0
LINE
  5
2A4
100
AcDbEntity
  8
0
100
AcDbLine
 62
7
  6
BYLAYER
 10
30.4428463813
 20
19.9379321949
 11
30.4585598303
 21
19.9272955813
  0
LINE
  5
2A5
100
AcDbEntity
  8
0
100
AcDbLine
 62
7
  6
BYLAYER
 10
27.9596410081
 20
18.7716074096
 11
27.9795210822
 21
18.7512659536
  0
LINE
  5
2A6
100
AcDbEntity
  8
0
100
AcDbLine
 62
7
  6
BYLAYER
 10
30.0918754489
 20
13.9585233165
 11
29.9260177699
 21
14.1692589689
  0
LINE
  5
2A7
100
AcDbEntity
  8
0
100
AcDbLine
 62
7
  6
BYLAYER
 10
28.8670513236
 20
12.8518824392
 11
29.0139896763
 21
12.617610747
  0
LINE
  5
2A8
100
AcDbEntity
  8
0
100
AcDbLine
 62
7
  6
BYLAYER
 10
18.3419542552
 20
39.4988227743
 11
19.4520431055
 21
33.7849798991
  0
LWPOLYLINE
  5
2A9
100
AcDbEntity
  8
0
100
AcDbPolyline
 62
7
  6
BYLAYER
 90
5
 70
0
 10
29.9956609331
 20
23.0738855133
 10
30.1481688422
 20
22.97851783
 10
31.1026879434
 20
21.8385196303
 10
31.5266785496
 20
20.1343618442
 10
31.525186065
 20
19.1281664769
  0
LINE
  5
2AA
100
AcDbEntity
  8
0
100
AcDbLine
 62
7
  6
BYLAYER
 10
30.5058165713
 20
18.8011399164
 11
30.4821075359
 21
18.8237298752
  0
LINE
  5
2AB
100
AcDbEntity
  8
0
100
AcDbLine
 62
7
  6
BYLAYER
 10
27.7304232032
 20
19.0490562342
 11
27.6926075455
 21
19.1059407092
  0
LINE
  5
2AC
100
AcDbEntity
  8
0
100
AcDbLine
 62
7
  6
BYLAYER
 10
26.9022549711
 20
18.4710931268
 11
26.7553166184
 21
18.705364819
  0
LINE
  5
2AD
100
AcDbEntity
  8
0
100
AcDbLine
 62
7
  6
BYLAYER
 10
30.9417365747
 20
19.3293270953
 11
30.9893155766
 21
19.281683188
  0
LINE
  5
2AE
100
AcDbEntity
  8
0
100
AcDbLine
 62
7
  6
BYLAYER
 10
28.1562952751
 20
18.2001198057
 11
27.8508123861
 21
18.7292407231
  0
LINE
  5
2AF
100
AcDbEntity
  8
0
100
AcDbLine
 62
7
  6
BYLAYER
 10
27.9795210822
 20
18.7512659536
 11
28.3684281926
 21
18.0776475793
  0
LWPOLYLINE
  5
2B0
100
AcDbEntity
  8
0
100
AcDbPolyline
 62
7
  6
BYLAYER
 90
4
 70
0
 10
18.3423377758
 20
39.4968375035
 10
17.9331401113
 20
40.6431455822
 10
17.4417889979
 20
41.3736245648
 10
15.9592576893
 20
42.603035677
  0
LINE
  5
2B1
100
AcDbEntity
  8
0
100
AcDbLine
 62
7
  6
BYLAYER
 10
25.2386864436
 20
18.7934110652
 11
25.1053831737
 21
19.2199216995
  0
LINE
  5
2B2
100
AcDbEntity
  8
0
100
AcDbLine
 62
7
  6
BYLAYER
 10
26.4199754954
 20
18.3513636873
 11
26.5114839489
 21
18.0585777071
  0
LINE
  5
2B3
100
AcDbEntity
  8
0
100
AcDbLine
 62
7
  6
BYLAYER
 10
26.0004610793
 20
19.5349144583
 11
25.9845490845
 21
20.0518844155
  0
LINE
  5
2B4
100
AcDbEntity
  8
0
100
AcDbLine
 62
7
  6
BYLAYER
 10
21.9707160935
 20
31.1194510112
 11
30.7866223229
 21
26.0297003221
  0
LINE
  5
2B5
100
AcDbEntity
  8
0
100
AcDbLine
 62
7
  6
BYLAYER
 10
20.4744785327
 20
32.363446637
 11
31.5009068358
 21
25.9974793058
  0
LWPOLYLINE
  5
2B6
100
AcDbEntity
  8
0
100
AcDbPolyline
 62
7
  6
BYLAYER
 90
3
 70
0
 10
20.4744612731
 20
32.3634692846
 10
19.7960170045
 20
32.9893211715
 10
19.4520750022
 20
33.7849145656
  0
LINE
  5
2B7
100
AcDbEntity
  8
0
100
AcDbLine
 62
7
  6
BYLAYER
 10
30.803501014
 20
18.1004113804
 11
30.766261057
 21
18.1548528652
  0
LINE
  5
2B8
100
AcDbEntity
  8
0
100
AcDbLine
 62
7
  6
BYLAYER
 10
29.3493307993
 20
12.9716118787
 11
29.2578223458
 21
13.2643978589
  0
LINE
  5
2B9
100
AcDbEntity
  8
0
100
AcDbLine
 62
7
  6
BYLAYER
 10
28.0766987492
 20
12.2170348568
 11
28.1471054362
 21
11.9055368556
  0
LINE
  5
2BA
100
AcDbEntity
  8
0
100
AcDbLine
 62
7
  6
BYLAYER
 10
27.2623355064
 20
19.1549645274
 11
27.2732585845
 21
18.8000811001
  0
LWPOLYLINE
  5
2BB
100
AcDbEntity
  8
0
100
AcDbPolyline
 62
7
  6
BYLAYER
 90
7
 70
0
 10
17.2712061125
 20
11.1214684808
 10
16.6996433212
 20
10.4152787638
 10
15.3257099658
 20
9.6233817713
 10
13.5675491839
 20
9.1501416761
 10
11.632212434
 20
9.0517491754
 10
9.7575354215
 20
9.3403991218
 10
8.1563247882
 20
9.986602365
  0
LINE
  5
2BC
100
AcDbEntity
  8
0
100
AcDbLine
 62
7
  6
BYLAYER
 10
27.6926075455
 20
19.1059407092
 11
27.6222008585
 21
19.4174387104
  0
LINE
  5
2BD
100
AcDbEntity
  8
0
100
AcDbLine
 62
7
  6
BYLAYER
 10
28.5069707883
 20
12.1680110386
 11
28.4960477102
 21
12.5228944659
  0
LINE
  5
2BE
100
AcDbEntity
  8
0
100
AcDbLine
 62
7
  6
BYLAYER
 10
27.2732585845
 20
11.8169210491
 11
27.2623355064
 21
11.4494248129
  0
LINE
  5
2BF
100
AcDbEntity
  8
0
100
AcDbLine
 62
7
  6
BYLAYER
 10
28.4960477102
 20
19.5060545169
 11
28.5069707883
 21
19.8735507531
  0
LINE
  5
2C0
100
AcDbEntity
  8
0
100
AcDbLine
 62
7
  6
BYLAYER
 10
26.803901244
 20
20.0625279035
 11
26.9064649005
 21
20.6347265355
  0
LINE
  5
2C1
100
AcDbEntity
  8
0
100
AcDbLine
 62
7
  6
BYLAYER
 10
28.1471054362
 20
19.7204907007
 11
28.0766987492
 21
19.3276945454
  0
LINE
  5
2C2
100
AcDbEntity
  8
0
100
AcDbLine
 62
7
  6
BYLAYER
 10
27.6636770296
 20
20.5311431048
 11
27.8083035825
 21
20.9287283321
  0
LWPOLYLINE
  5
2C3
100
AcDbEntity
  8
0
100
AcDbPolyline
 62
7
  6
BYLAYER
 90
6
 70
0
 10
16.1035824927
 20
12.070892152
 10
15.2684358913
 20
11.5894892138
 10
13.5414041775
 20
11.1246484937
 10
11.6408598301
 20
11.0280477559
 10
9.7997103155
 20
11.3115281318
 10
8.2270351719
 20
11.9462074607
  0
LINE
  5
2C4
100
AcDbEntity
  8
0
100
AcDbLine
 62
7
  6
BYLAYER
 10
27.6222008585
 20
11.6024848653
 11
27.6926075455
 21
11.9952810206
  0
LINE
  5
2C5
100
AcDbEntity
  8
0
100
AcDbLine
 62
7
  6
BYLAYER
 10
26.5114839489
 20
11.6788081109
 11
26.4199754954
 21
11.2803579009
  0
LINE
  5
2C6
100
AcDbEntity
  8
0
100
AcDbLine
 62
7
  6
BYLAYER
 10
29.2578223458
 20
19.6441674552
 11
29.3493307993
 21
20.0426176651
  0
LINE
  5
2C7
100
AcDbEntity
  8
0
100
AcDbLine
 62
7
  6
BYLAYER
 10
27.46828775
 20
17.5495549024
 11
27.7864844767
 21
18.6314174305
  0
LINE
  5
2C8
100
AcDbEntity
  8
0
100
AcDbLine
 62
7
  6
BYLAYER
 10
29.0139896763
 20
20.0094025329
 11
28.8670513236
 21
19.6054620585
  0
LINE
  5
2C9
100
AcDbEntity
  8
0
100
AcDbLine
 62
7
  6
BYLAYER
 10
25.8432885248
 20
11.8121082106
 11
25.6774308458
 21
11.4098577501
  0
LINE
  5
2CA
100
AcDbEntity
  8
0
100
AcDbLine
 62
7
  6
BYLAYER
 10
28.5245425238
 20
20.724913191
 11
28.6286063145
 21
20.9138540689
  0
LINE
  5
2CB
100
AcDbEntity
  8
0
100
AcDbLine
 62
7
  6
BYLAYER
 10
23.7079595282
 20
12.3909965174
 11
23.8195650463
 21
12.5756070748
  0
LINE
  5
2CC
100
AcDbEntity
  8
0
100
AcDbLine
 62
7
  6
BYLAYER
 10
23.2849339056
 20
13.0939787386
 11
23.5569510851
 21
13.4180379552
  0
LINE
  5
2CD
100
AcDbEntity
  8
0
100
AcDbLine
 62
7
  6
BYLAYER
 10
23.0886325013
 20
14.0220101372
 11
23.5328845053
 21
14.3969292693
  0
LINE
  5
2CE
100
AcDbEntity
  8
0
100
AcDbLine
 62
7
  6
BYLAYER
 10
27.4952476587
 20
17.6412180548
 11
28.0614273403
 21
17.9681000951
  0
LINE
  5
2CF
100
AcDbEntity
  8
0
100
AcDbLine
 62
7
  6
BYLAYER
 10
28.2735602578
 20
17.8456278688
 11
27.5664564206
 21
17.4373837149
  0
LINE
  5
2D0
100
AcDbEntity
  8
0
100
AcDbLine
 62
7
  6
BYLAYER
 10
23.1324329316
 20
15.1118469069
 11
23.5880928434
 21
15.3565469125
  0
LINE
  5
2D1
100
AcDbEntity
  8
0
100
AcDbLine
 62
7
  6
BYLAYER
 10
24.8608903486
 20
14.6217135544
 11
24.5480943169
 21
14.4537347861
  0
LWPOLYLINE
  5
2D2
100
AcDbEntity
  8
0
100
AcDbPolyline
 62
7
  6
BYLAYER
 90
6
 70
0
 10
15.957158071
 20
12.1554284188
 10
14.9462105764
 20
11.7468451843
 10
12.7020205405
 20
11.3996335086
 10
10.3722457675
 20
11.5181378472
 10
8.2629367922
 20
12.0885067735
 10
6.6248027021
 20
13.0367710549
  0
LINE
  5
2D3
100
AcDbEntity
  8
0
100
AcDbLine
 62
7
  6
BYLAYER
 10
31.2685891502
 20
17.3121352559
 11
30.9636242841
 21
17.2173643184
  0
LINE
  5
2D4
100
AcDbEntity
  8
0
100
AcDbLine
 62
7
  6
BYLAYER
 10
31.9151314772
 20
25.0819070102
 11
31.9151314772
 21
16.49986904
  0
LINE
  5
2D5
100
AcDbEntity
  8
0
100
AcDbLine
 62
7
  6
BYLAYER
 10
26.7553166184
 20
11.3135730331
 11
26.9022549711
 21
11.7175135075
  0
LINE
  5
2D6
100
AcDbEntity
  8
0
100
AcDbLine
 62
7
  6
BYLAYER
 10
29.9260177699
 20
19.5108673554
 11
30.0918754489
 21
19.9131178159
  0
LINE
  5
2D7
100
AcDbEntity
  8
0
100
AcDbLine
 62
7
  6
BYLAYER
 10
29.8039114982
 20
20.0020111602
 11
29.5904550857
 21
19.6144542425
  0
LINE
  5
2D8
100
AcDbEntity
  8
0
100
AcDbLine
 62
7
  6
BYLAYER
 10
25.9653947965
 20
11.3209644058
 11
26.178851209
 21
11.7085213236
  0
LINE
  5
2D9
100
AcDbEntity
  8
0
100
AcDbLine
 62
7
  6
BYLAYER
 10
25.3142087263
 20
12.2077371668
 11
25.0853047485
 21
11.82909916
  0
LINE
  5
2DA
100
AcDbEntity
  8
0
100
AcDbLine
 62
7
  6
BYLAYER
 10
30.4550975684
 20
19.1152383992
 11
30.6840015462
 21
19.493876406
  0
LINE
  5
2DB
100
AcDbEntity
  8
0
100
AcDbLine
 62
7
  6
BYLAYER
 10
30.4630390353
 20
19.6988202924
 11
30.1976112646
 21
19.3540582948
  0
LINE
  5
2DC
100
AcDbEntity
  8
0
100
AcDbLine
 62
7
  6
BYLAYER
 10
25.3062672594
 20
11.6241552736
 11
25.5716950301
 21
11.9689172712
  0
LINE
  5
2DD
100
AcDbEntity
  8
0
100
AcDbLine
 62
7
  6
BYLAYER
 10
24.9603004672
 20
12.8387335199
 11
24.6839496185
 21
12.5095115211
  0
LINE
  5
2DE
100
AcDbEntity
  8
0
100
AcDbLine
 62
7
  6
BYLAYER
 10
30.8090058275
 20
18.4842420462
 11
31.0853566762
 21
18.8134640449
  0
LINE
  5
2DF
100
AcDbEntity
  8
0
100
AcDbLine
 62
7
  6
BYLAYER
 10
30.946453835
 20
19.1204918861
 11
30.6471431703
 21
18.842019769
  0
LINE
  5
2E0
100
AcDbEntity
  8
0
100
AcDbLine
 62
7
  6
BYLAYER
 10
24.8056820106
 20
13.6620959112
 11
24.5007171445
 21
13.4047258557
  0
LINE
  5
2E1
100
AcDbEntity
  8
0
100
AcDbLine
 62
7
  6
BYLAYER
 10
30.9636242841
 20
17.6608796549
 11
31.2685891502
 21
17.9182497103
  0
LINE
  5
2E2
100
AcDbEntity
  8
0
100
AcDbLine
 62
7
  6
BYLAYER
 10
31.2212119778
 20
18.3064380664
 11
30.9084159461
 21
18.1132332444
  0
LINE
  5
2E3
100
AcDbEntity
  8
0
100
AcDbLine
 62
7
  6
BYLAYER
 10
24.5480943169
 20
13.0165374996
 11
24.8608903486
 21
13.2097423216
  0
LINE
  5
2E4
100
AcDbEntity
  8
0
100
AcDbLine
 62
7
  6
BYLAYER
 10
30.9084159461
 20
16.7012620116
 11
31.2212119778
 21
16.8692407799
  0
LINE
  5
2E5
100
AcDbEntity
  8
0
100
AcDbLine
 62
7
  6
BYLAYER
 10
24.5007171445
 20
14.0108403101
 11
24.8056820106
 21
14.1056112476
  0
LINE
  5
2E6
100
AcDbEntity
  8
0
100
AcDbLine
 62
7
  6
BYLAYER
 10
15.9592577815
 20
42.6030358263
 11
15.9594140839
 21
42.6029455088
  0
LINE
  5
2E7
100
AcDbEntity
  8
0
100
AcDbLine
 62
7
  6
BYLAYER
 10
31.525186065
 20
19.1281664769
 11
31.202152842
 21
17.4741919524
  0
LINE
  5
2E8
100
AcDbEntity
  8
0
100
AcDbLine
 62
7
  6
BYLAYER
 10
30.9822678145
 20
16.6697668647
 11
30.8670606642
 21
16.3996216474
  0
LINE
  5
2E9
100
AcDbEntity
  8
0
100
AcDbLine
 62
7
  6
BYLAYER
 10
30.5702272392
 20
15.7035873317
 11
30.3622409777
 21
15.2158876219
  0
LINE
  5
2EA
100
AcDbEntity
  8
0
100
AcDbLine
 62
7
  6
BYLAYER
 10
24.8228524597
 20
12.2024836799
 11
25.1221631244
 21
12.480955797
  0
LWPOLYLINE
  5
2EB
100
AcDbEntity
  8
0
100
AcDbPolyline
 62
7
  6
BYLAYER
 90
7
 70
0
 10
15.9594140839
 20
42.6029455088
 10
13.9577781639
 20
43.3902140281
 10
11.7268209686
 20
43.6394498009
 10
9.4776181481
 20
43.2725062925
 10
7.5950776637
 20
42.2702748073
 10
6.3647193504
 20
40.8201541147
 10
5.8966742823
 20
39.5318238009
  0
LINE
  5
2EC
100
AcDbEntity
  8
0
100
AcDbLine
 62
7
  6
BYLAYER
 10
29.93286483
 20
14.395829023
 11
29.8255524933
 21
14.2372413056
  0
LINE
  5
2ED
100
AcDbEntity
  8
0
100
AcDbLine
 62
7
  6
BYLAYER
 10
29.195699201
 20
13.3064350353
 11
28.8850220841
 21
12.8473119157
  0
LINE
  5
2EE
100
AcDbEntity
  8
0
100
AcDbLine
 62
7
  6
BYLAYER
 10
27.5531043393
 20
11.4960778863
 11
27.3016019347
 21
11.2508031096
  0
ARC
  5
2EF
100
AcDbEntity
  8
0
100
AcDbCircle
 62
7
  6
BYLAYER
 10
10.4755965979
 20
16.5400318354
 40
5.703686378
100
AcDbArc
 50
237.292338343
 51
240.026019909
  0
ARC
  5
2F0
100
AcDbEntity
  8
0
100
AcDbCircle
 62
7
  6
BYLAYER
 10
7.9132481582
 20
12.2714068983
 40
2.1471208055
100
AcDbArc
 50
167.0293781313
 51
179.9636352589
  0
ARC
  5
2F1
100
AcDbEntity
  8
0
100
AcDbCircle
 62
7
  6
BYLAYER
 10
6.8098607983
 20
30.1075856235
 40
2.6937545427
100
AcDbArc
 50
168.9578282898
 51
179.9764810328
  0
ARC
  5
2F2
100
AcDbEntity
  8
0
100
AcDbCircle
 62
7
  6
BYLAYER
 10
24.9543788637
 20
16.5479760665
 40
5.6873966704
100
AcDbArc
 50
303.9576054136
 51
308.2580795684
  0
ARC
  5
2F3
100
AcDbEntity
  8
0
100
AcDbCircle
 62
7
  6
BYLAYER
 10
25.1966311024
 20
16.3263878365
 40
5.3149997356
100
AcDbArc
 50
303.7191318646
 51
307.6891943194
  0
ARC
  5
2F4
100
AcDbEntity
  8
0
100
AcDbCircle
 62
7
  6
BYLAYER
 10
25.9137358759
 20
15.6464485646
 40
3.9423059862
100
AcDbArc
 50
299.1307864022
 51
300.8689201192
  0
ARC
  5
2F5
100
AcDbEntity
  8
0
100
AcDbCircle
 62
7
  6
BYLAYER
 10
25.9204837242
 20
15.0889466193
 40
3.879594923
100
AcDbArc
 50
294.0525643243
 51
296.0166735048
  0
ARC
  5
2F6
100
AcDbEntity
  8
0
100
AcDbCircle
 62
7
  6
BYLAYER
 10
26.0588600643
 20
14.7703248303
 40
3.5322415072
100
AcDbArc
 50
289.9202308255
 51
294.1093493293
  0
ARC
  5
2F7
100
AcDbEntity
  8
0
100
AcDbCircle
 62
7
  6
BYLAYER
 10
25.652480322
 20
13.9913189461
 40
2.5318956302
100
AcDbArc
 50
200.757557057
 51
204.3307481473
  0
ARC
  5
2F8
100
AcDbEntity
  8
0
100
AcDbCircle
 62
7
  6
BYLAYER
 10
25.4808021057
 20
13.9126268251
 40
2.3430442565
100
AcDbArc
 50
204.3070072202
 51
208.0693770068
  0
ARC
  5
2F9
100
AcDbEntity
  8
0
100
AcDbCircle
 62
7
  6
BYLAYER
 10
26.1776526934
 20
13.0599156836
 40
1.8946100273
100
AcDbArc
 50
248.3062485497
 51
257.3846850867
  0
ARC
  5
2FA
100
AcDbEntity
  8
0
100
AcDbCircle
 62
7
  6
BYLAYER
 10
26.1584051422
 20
12.9528501108
 40
1.7933948516
100
AcDbArc
 50
222.6491906895
 51
227.131018582
  0
ARC
  5
2FB
100
AcDbEntity
  8
0
100
AcDbCircle
 62
7
  6
BYLAYER
 10
25.0182983358
 20
13.5973375014
 40
1.7810801106
100
AcDbArc
 50
222.6336885787
 51
227.1465206928
  0
ARC
  5
2FC
100
AcDbEntity
  8
0
100
AcDbCircle
 62
7
  6
BYLAYER
 10
26.114243831
 20
12.906020692
 40
1.7290291068
100
AcDbArc
 50
227.1478239075
 51
231.7417142895
  0
ARC
  5
2FD
100
AcDbEntity
  8
0
100
AcDbCircle
 62
7
  6
BYLAYER
 10
24.9773347944
 20
13.5527396631
 40
1.7205253047
100
AcDbArc
 50
227.1364649837
 51
231.7530732133
  0
ARC
  5
2FE
100
AcDbEntity
  8
0
100
AcDbCircle
 62
7
  6
BYLAYER
 10
26.3367678853
 20
12.9567894132
 40
1.6845905407
100
AcDbArc
 50
222.021933766
 51
232.2859009667
  0
ARC
  5
2FF
100
AcDbEntity
  8
0
100
AcDbCircle
 62
7
  6
BYLAYER
 10
26.3163014139
 20
12.968569058
 40
1.6845582638
100
AcDbArc
 50
247.7126984525
 51
257.9767968819
  0
ARC
  5
300
100
AcDbEntity
  8
0
100
AcDbCircle
 62
7
  6
BYLAYER
 10
20.0790648982
 20
20.3795683018
 40
11.5429903943
100
AcDbArc
 50
341.2551048851
 51
341.7394737579
  0
ARC
  5
301
100
AcDbEntity
  8
0
100
AcDbCircle
 62
7
  6
BYLAYER
 10
23.0508602841
 20
18.4457896552
 40
8.3861981707
100
AcDbArc
 50
323.9860489148
 51
327.3215127775
  0
ARC
  5
302
100
AcDbEntity
  8
0
100
AcDbCircle
 62
7
  6
BYLAYER
 10
23.0884729025
 20
18.4400387993
 40
8.35066202
100
AcDbArc
 50
332.6716502345
 51
336.0213196324
  0
ARC
  5
303
100
AcDbEntity
  8
0
100
AcDbCircle
 62
7
  6
BYLAYER
 10
23.1324324943
 20
18.4070672387
 40
8.2595936467
100
AcDbArc
 50
332.5640293907
 51
332.7328108712
  0
ARC
  5
304
100
AcDbEntity
  8
0
100
AcDbCircle
 62
7
  6
BYLAYER
 10
23.1307762266
 20
18.4041303198
 40
8.259559553
100
AcDbArc
 50
327.2674436432
 51
327.4362426697
  0
ARC
  5
305
100
AcDbEntity
  8
0
100
AcDbCircle
 62
7
  6
BYLAYER
 10
23.2022811347
 20
18.3715986655
 40
8.1812570257
100
AcDbArc
 50
332.7294968935
 51
336.1341424552
  0
ARC
  5
306
100
AcDbEntity
  8
0
100
AcDbCircle
 62
7
  6
BYLAYER
 10
23.2269309907
 20
18.3404569804
 40
8.1442446178
100
AcDbArc
 50
323.8583881427
 51
327.2784859584
  0
ARC
  5
307
100
AcDbEntity
  8
0
100
AcDbCircle
 62
7
  6
BYLAYER
 10
23.9446022175
 20
18.0787809454
 40
7.3827860859
100
AcDbArc
 50
341.5142138411
 51
341.9000601095
  0
ARC
  5
308
100
AcDbEntity
  8
0
100
AcDbCircle
 62
7
  6
BYLAYER
 10
23.8212455011
 20
17.8648581977
 40
7.3826544415
100
AcDbArc
 50
318.1001211018
 51
318.4859941468
  0
ARC
  5
309
100
AcDbEntity
  8
0
100
AcDbCircle
 62
7
  6
BYLAYER
 10
23.8381548937
 20
17.8038156986
 40
7.3695174327
100
AcDbArc
 50
314.7380266288
 51
318.3652900288
  0
ARC
  5
30A
100
AcDbEntity
  8
0
100
AcDbCircle
 62
7
  6
BYLAYER
 10
24.0947068644
 20
18.0682697176
 40
7.2770711841
100
AcDbArc
 50
341.6118338662
 51
345.2852172321
  0
ARC
  5
30B
100
AcDbEntity
  8
0
100
AcDbCircle
 62
7
  6
BYLAYER
 10
23.685093899
 20
18.0860498413
 40
7.2740843977
100
AcDbArc
 50
329.4232872314
 51
330.5769900197
  0
ARC
  5
30C
100
AcDbEntity
  8
0
100
AcDbCircle
 62
7
  6
BYLAYER
 10
24.1774387534
 20
18.0040510778
 40
7.1382546051
100
AcDbArc
 50
341.8895882113
 51
345.40520657
  0
ARC
  5
30D
100
AcDbEntity
  8
0
100
AcDbCircle
 62
7
  6
BYLAYER
 10
24.0677148427
 20
17.638263646
 40
7.0478784227
100
AcDbArc
 50
314.5724389455
 51
318.1331057545
  0
ARC
  5
30E
100
AcDbEntity
  8
0
100
AcDbCircle
 62
7
  6
BYLAYER
 10
24.1144817459
 20
17.8923222097
 40
6.8027197696
100
AcDbArc
 50
338.1912278613
 51
339.3970153221
  0
ARC
  5
30F
100
AcDbEntity
  8
0
100
AcDbCircle
 62
7
  6
BYLAYER
 10
24.0837428606
 20
17.7980570893
 40
6.7819660421
100
AcDbArc
 50
320.6013801083
 51
321.8108521845
  0
ARC
  5
310
100
AcDbEntity
  8
0
100
AcDbCircle
 62
7
  6
BYLAYER
 10
24.9476715275
 20
16.6576723369
 40
5.7293690578
100
AcDbArc
 50
307.6339062117
 51
308.4065641763
  0
ARC
  5
311
100
AcDbEntity
  8
0
100
AcDbCircle
 62
7
  6
BYLAYER
 10
25.7657255816
 20
17.7436971331
 40
5.5728565937
100
AcDbArc
 50
351.6976789613
 51
356.0866312496
  0
ARC
  5
312
100
AcDbEntity
  8
0
100
AcDbCircle
 62
7
  6
BYLAYER
 10
25.315492506
 20
17.5426660074
 40
5.550445089
100
AcDbArc
 50
347.7449271477
 51
349.125181296
  0
ARC
  5
313
100
AcDbEntity
  8
0
100
AcDbCircle
 62
7
  6
BYLAYER
 10
24.993175786
 20
16.9206798095
 40
5.5168729319
100
AcDbArc
 50
310.8707331716
 51
312.2593747777
  0
ARC
  5
314
100
AcDbEntity
  8
0
100
AcDbCircle
 62
7
  6
BYLAYER
 10
28.8746658442
 20
14.2878951255
 40
5.8010460574
100
AcDbArc
 50
171.8343778765
 51
173.8890719715
  0
ARC
  5
315
100
AcDbEntity
  8
0
100
AcDbCircle
 62
7
  6
BYLAYER
 10
29.0916353031
 20
14.532898181
 40
5.4593194881
100
AcDbArc
 50
168.7693705495
 51
169.1311907102
  0
ARC
  5
316
100
AcDbEntity
  8
0
100
AcDbCircle
 62
7
  6
BYLAYER
 10
28.5319832662
 20
14.323481049
 40
5.4565225751
100
AcDbArc
 50
173.8775622198
 51
176.0181051622
  0
ARC
  5
317
100
AcDbEntity
  8
0
100
AcDbCircle
 62
7
  6
BYLAYER
 10
28.2168502998
 20
13.6702969705
 40
4.0081957623
100
AcDbArc
 50
184.3135126622
 51
186.9325667523
  0
ARC
  5
318
100
AcDbEntity
  8
0
100
AcDbCircle
 62
7
  6
BYLAYER
 10
28.8917967846
 20
13.9471228388
 40
3.9769778027
100
AcDbArc
 50
179.1385007168
 51
180.8615020102
  0
ARC
  5
319
100
AcDbEntity
  8
0
100
AcDbCircle
 62
7
  6
BYLAYER
 10
27.0340440918
 20
14.3184184777
 40
3.9565301115
100
AcDbArc
 50
184.2964093973
 51
186.9496700171
  0
ARC
  5
31A
100
AcDbEntity
  8
0
100
AcDbCircle
 62
7
  6
BYLAYER
 10
27.9152541476
 20
13.6347111694
 40
3.7045095222
100
AcDbArc
 50
186.9492297001
 51
189.7093798682
  0
ARC
  5
31B
100
AcDbEntity
  8
0
100
AcDbCircle
 62
7
  6
BYLAYER
 10
26.7353250849
 20
14.2807878229
 40
3.6554528345
100
AcDbArc
 50
186.9307052446
 51
189.7279043237
  0
ARC
  5
31C
100
AcDbEntity
  8
0
100
AcDbCircle
 62
7
  6
BYLAYER
 10
27.5128674019
 20
13.7870068237
 40
2.5849999716
100
AcDbArc
 50
193.8519325817
 51
196.147670427
  0
ARC
  5
31D
100
AcDbEntity
  8
0
100
AcDbCircle
 62
7
  6
BYLAYER
 10
26.8150004949
 20
13.3510623869
 40
2.5656009125
100
AcDbArc
 50
200.7810357081
 51
204.3072694962
  0
ARC
  5
31E
100
AcDbEntity
  8
0
100
AcDbCircle
 62
7
  6
BYLAYER
 10
26.4539541137
 20
14.3771227207
 40
2.5589984148
100
AcDbArc
 50
283.8401137935
 51
286.1591471842
  0
ARC
  5
31F
100
AcDbEntity
  8
0
100
AcDbCircle
 62
7
  6
BYLAYER
 10
26.6389881199
 20
13.2726271344
 40
2.3729057443
100
AcDbArc
 50
204.3306890686
 51
208.0456951584
  0
ARC
  5
320
100
AcDbEntity
  8
0
100
AcDbCircle
 62
7
  6
BYLAYER
 10
26.701186701
 20
13.4381036573
 40
1.6972967277
100
AcDbArc
 50
213.5833160956
 51
216.6235195612
  0
ARC
  5
321
100
AcDbEntity
  8
0
100
AcDbCircle
 62
7
  6
BYLAYER
 10
26.5497600422
 20
13.5118541344
 40
1.6842461648
100
AcDbArc
 50
263.3636025684
 51
266.4273344282
  0
ARC
  5
322
100
AcDbEntity
  8
0
100
AcDbCircle
 62
7
  6
BYLAYER
 10
29.3999815756
 20
15.7229964912
 40
5.5138275845
100
AcDbArc
 50
123.9930054223
 51
126.1112752758
  0
ARC
  5
323
100
AcDbEntity
  8
0
100
AcDbCircle
 62
7
  6
BYLAYER
 10
29.4654306831
 20
15.1806629592
 40
5.4591516153
100
AcDbArc
 50
130.8689023531
 51
131.2304732888
  0
ARC
  5
324
100
AcDbEntity
  8
0
100
AcDbCircle
 62
7
  6
BYLAYER
 10
32.6613157099
 20
12.8995990957
 40
8.567637355
100
AcDbArc
 50
152.7634870889
 51
154.3447467211
  0
ARC
  5
325
100
AcDbEntity
  8
0
100
AcDbCircle
 62
7
  6
BYLAYER
 10
31.533491749
 20
13.5590241781
 40
8.5675931864
100
AcDbArc
 50
145.6555195841
 51
147.2367844758
  0
ARC
  5
326
100
AcDbEntity
  8
0
100
AcDbCircle
 62
7
  6
BYLAYER
 10
31.516943866
 20
13.5592486915
 40
8.5531235159
100
AcDbArc
 50
152.7621453797
 51
154.3460884303
  0
ARC
  5
327
100
AcDbEntity
  8
0
100
AcDbCircle
 62
7
  6
BYLAYER
 10
32.6527661199
 20
12.9138649389
 40
8.5530737261
100
AcDbArc
 50
145.654177343
 51
147.2381267169
  0
ARC
  5
328
100
AcDbEntity
  8
0
100
AcDbCircle
 62
7
  6
BYLAYER
 10
32.5688737226
 20
12.9441885808
 40
8.4650034726
100
AcDbArc
 50
154.3459001335
 51
155.9397166367
  0
ARC
  5
329
100
AcDbEntity
  8
0
100
AcDbCircle
 62
7
  6
BYLAYER
 10
31.448638262
 20
13.6167973986
 40
8.464939254
100
AcDbArc
 50
144.060541254
 51
145.6543656419
  0
ARC
  5
32A
100
AcDbEntity
  8
0
100
AcDbCircle
 62
7
  6
BYLAYER
 10
31.4187272571
 20
13.6060699116
 40
8.444318056
100
AcDbArc
 50
154.3439478804
 51
155.9416688899
  0
ARC
  5
32B
100
AcDbEntity
  8
0
100
AcDbCircle
 62
7
  6
BYLAYER
 10
32.5630927813
 20
12.9755232797
 40
8.4442483715
100
AcDbArc
 50
144.0585884593
 51
145.6563184366
  0
ARC
  5
32C
100
AcDbEntity
  8
0
100
AcDbCircle
 62
7
  6
BYLAYER
 10
32.5721147102
 20
12.9489637117
 40
8.1868877647
100
AcDbArc
 50
152.5605253506
 51
156.1331092393
  0
ARC
  5
32D
100
AcDbEntity
  8
0
100
AcDbCircle
 62
7
  6
BYLAYER
 10
32.5460099662
 20
12.9799344143
 40
8.1487039325
100
AcDbArc
 50
143.8587874074
 51
147.4481094291
  0
ARC
  5
32E
100
AcDbEntity
  8
0
100
AcDbCircle
 62
7
  6
BYLAYER
 10
31.7423822437
 20
13.2594507996
 40
7.5798682092
100
AcDbArc
 50
161.7273775152
 51
163.4420161726
  0
ARC
  5
32F
100
AcDbEntity
  8
0
100
AcDbCircle
 62
7
  6
BYLAYER
 10
30.7623054329
 20
14.174973415
 40
7.5797277418
100
AcDbArc
 50
136.5581683495
 51
138.272828003
  0
ARC
  5
330
100
AcDbEntity
  8
0
100
AcDbCircle
 62
7
  6
BYLAYER
 10
30.5689738726
 20
13.9258206214
 40
7.535821027
100
AcDbArc
 50
161.7223660713
 51
163.4470276165
  0
ARC
  5
331
100
AcDbEntity
  8
0
100
AcDbCircle
 62
7
  6
BYLAYER
 10
31.8612432009
 20
13.5516000973
 40
7.535676385
100
AcDbArc
 50
136.5531562731
 51
138.2778400794
  0
ARC
  5
332
100
AcDbEntity
  8
0
100
AcDbCircle
 62
7
  6
BYLAYER
 10
31.4798523649
 20
13.3381393585
 40
7.3057998917
100
AcDbArc
 50
163.4467865335
 51
165.2038286673
  0
ARC
  5
333
100
AcDbEntity
  8
0
100
AcDbCircle
 62
7
  6
BYLAYER
 10
30.5628844879
 20
14.3629945719
 40
7.305646942
100
AcDbArc
 50
134.796330897
 51
136.5533973627
  0
ARC
  5
334
100
AcDbEntity
  8
0
100
AcDbCircle
 62
7
  6
BYLAYER
 10
32.0842126468
 20
13.2369255782
 40
7.2740846883
100
AcDbArc
 50
149.4232872316
 51
150.5769900346
  0
ARC
  5
335
100
AcDbEntity
  8
0
100
AcDbCircle
 62
7
  6
BYLAYER
 10
30.8113621572
 20
13.9717897729
 40
7.2740233874
100
AcDbArc
 50
149.423286321
 51
150.5769891239
  0
ARC
  5
336
100
AcDbEntity
  8
0
100
AcDbCircle
 62
7
  6
BYLAYER
 10
30.3024061699
 20
14.0042524826
 40
7.2579554289
100
AcDbArc
 50
163.4409948618
 51
165.209620339
  0
ARC
  5
337
100
AcDbEntity
  8
0
100
AcDbCircle
 62
7
  6
BYLAYER
 10
31.6600260162
 20
13.7432462906
 40
7.2577986918
100
AcDbArc
 50
134.7905385614
 51
136.5591896982
  0
ARC
  5
338
100
AcDbEntity
  8
0
100
AcDbCircle
 62
7
  6
BYLAYER
 10
31.6246452567
 20
13.3094102696
 40
7.1723721204
100
AcDbArc
 50
161.5015773616
 51
165.3976348509
  0
ARC
  5
339
100
AcDbEntity
  8
0
100
AcDbCircle
 62
7
  6
BYLAYER
 10
31.7192579297
 20
13.6672484704
 40
7.0727172772
100
AcDbArc
 50
134.5751035619
 51
138.5260518175
  0
ARC
  5
33A
100
AcDbEntity
  8
0
100
AcDbCircle
 62
7
  6
BYLAYER
 10
31.6548245473
 20
13.4306533562
 40
6.8027197683
100
AcDbArc
 50
158.1912278506
 51
159.3970153477
  0
ARC
  5
33B
100
AcDbEntity
  8
0
100
AcDbCircle
 62
7
  6
BYLAYER
 10
30.428878698
 20
14.2467999354
 40
6.8026378965
100
AcDbArc
 50
140.6032219545
 51
141.8090084477
  0
ARC
  5
33C
100
AcDbEntity
  8
0
100
AcDbCircle
 62
7
  6
BYLAYER
 10
30.3627710164
 20
14.1729581285
 40
6.7820662171
100
AcDbArc
 50
158.1893959066
 51
159.3988453864
  0
ARC
  5
33D
100
AcDbEntity
  8
0
100
AcDbCircle
 62
7
  6
BYLAYER
 10
31.6855633558
 20
13.5249185373
 40
6.7819659431
100
AcDbArc
 50
140.6013800618
 51
141.8108522477
  0
ARC
  5
33E
100
AcDbEntity
  8
0
100
AcDbCircle
 62
7
  6
BYLAYER
 10
30.0628019809
 20
13.6276015058
 40
5.8582409076
100
AcDbArc
 50
171.8444090731
 51
173.8790407749
  0
ARC
  5
33F
100
AcDbEntity
  8
0
100
AcDbCircle
 62
7
  6
BYLAYER
 10
30.4538138225
 20
13.7803095516
 40
5.5504451235
100
AcDbArc
 50
167.744927154
 51
169.1251813056
  0
ARC
  5
340
100
AcDbEntity
  8
0
100
AcDbCircle
 62
7
  6
BYLAYER
 10
30.776130425
 20
14.4022958472
 40
5.5168728085
100
AcDbArc
 50
130.8707330966
 51
132.2593748726
  0
ARC
  5
341
100
AcDbEntity
  8
0
100
AcDbCircle
 62
7
  6
BYLAYER
 10
29.7206357209
 20
13.6652322104
 40
5.514012935
100
AcDbArc
 50
173.8887223928
 51
176.0069449892
  0
ARC
  5
342
100
AcDbEntity
  8
0
100
AcDbCircle
 62
7
  6
BYLAYER
 10
29.6036545757
 20
15.4454862478
 40
5.8580567287
100
AcDbArc
 50
126.1209577394
 51
128.1556318775
  0
ARC
  5
343
100
AcDbEntity
  8
0
100
AcDbCircle
 62
7
  6
BYLAYER
 10
30.7004926488
 20
14.8379043989
 40
5.8008600284
100
AcDbArc
 50
126.1109256873
 51
128.1656639296
  0
ARC
  5
344
100
AcDbEntity
  8
0
100
AcDbCircle
 62
7
  6
BYLAYER
 10
30.4983326603
 20
15.1168838922
 40
5.456335804
100
AcDbArc
 50
123.9818443425
 51
126.1224363556
  0
ARC
  5
345
100
AcDbEntity
  8
0
100
AcDbCircle
 62
7
  6
BYLAYER
 10
30.6022734963
 20
14.9536748462
 40
5.367124068
100
AcDbArc
 50
123.7276406503
 51
128.4839698821
  0
ARC
  5
346
100
AcDbEntity
  8
0
100
AcDbCircle
 62
7
  6
BYLAYER
 10
29.7537603451
 20
16.4166532017
 40
3.9563630273
100
AcDbArc
 50
113.0499932276
 51
115.7033287675
  0
ARC
  5
347
100
AcDbEntity
  8
0
100
AcDbCircle
 62
7
  6
BYLAYER
 10
29.8555703568
 20
15.6765271033
 40
3.9423058669
100
AcDbArc
 50
119.130786281
 51
120.8689202662
  0
ARC
  5
348
100
AcDbEntity
  8
0
100
AcDbCircle
 62
7
  6
BYLAYER
 10
28.6437144623
 20
17.0227664378
 40
4.0080284164
100
AcDbArc
 50
113.067097603
 51
115.6862243921
  0
ARC
  5
349
100
AcDbEntity
  8
0
100
AcDbCircle
 62
7
  6
BYLAYER
 10
26.8775095569
 20
17.3758527276
 40
3.9769777558
100
AcDbArc
 50
359.1385006884
 51
0.8615020205
  0
ARC
  5
34A
100
AcDbEntity
  8
0
100
AcDbCircle
 62
7
  6
BYLAYER
 10
28.5237394555
 20
17.3017423262
 40
3.7043504741
100
AcDbArc
 50
110.2902045537
 51
113.0504335385
  0
ARC
  5
34B
100
AcDbEntity
  8
0
100
AcDbCircle
 62
7
  6
BYLAYER
 10
29.6369949549
 20
16.694159571
 40
3.6552943363
100
AcDbArc
 50
110.2716789734
 51
113.0689591188
  0
ARC
  5
34C
100
AcDbEntity
  8
0
100
AcDbCircle
 62
7
  6
BYLAYER
 10
28.2564389334
 20
17.5359687538
 40
2.5849999294
100
AcDbArc
 50
13.8519325212
 51
16.1476704658
  0
ARC
  5
34D
100
AcDbEntity
  8
0
100
AcDbCircle
 62
7
  6
BYLAYER
 10
28.2192827667
 20
18.3963695888
 40
2.5654911216
100
AcDbArc
 50
95.6918880635
 51
99.2182224526
  0
ARC
  5
34E
100
AcDbEntity
  8
0
100
AcDbCircle
 62
7
  6
BYLAYER
 10
29.3153521445
 20
16.945852968
 40
2.5589982868
100
AcDbArc
 50
103.8401135451
 51
106.159147464
  0
ARC
  5
34F
100
AcDbEntity
  8
0
100
AcDbCircle
 62
7
  6
BYLAYER
 10
29.3462832005
 20
17.7766194165
 40
2.5317872265
100
AcDbArc
 50
95.6684087033
 51
99.2417018128
  0
ARC
  5
350
100
AcDbEntity
  8
0
100
AcDbCircle
 62
7
  6
BYLAYER
 10
28.1992075541
 20
18.5880063656
 40
2.3728083479
100
AcDbArc
 50
91.9533598607
 51
95.6684676862
  0
ARC
  5
351
100
AcDbEntity
  8
0
100
AcDbCircle
 62
7
  6
BYLAYER
 10
29.3285974429
 20
17.9646310087
 40
2.3429483365
100
AcDbArc
 50
91.9296775647
 51
95.6921499823
  0
ARC
  5
352
100
AcDbEntity
  8
0
100
AcDbCircle
 62
7
  6
BYLAYER
 10
29.297734655
 20
18.4552795082
 40
1.8746615953
100
AcDbArc
 50
42.5655510062
 51
51.7408450561
  0
ARC
  5
353
100
AcDbEntity
  8
0
100
AcDbCircle
 62
7
  6
BYLAYER
 10
28.2358570095
 20
19.1640348721
 40
1.7933541864
100
AcDbArc
 50
72.8676436655
 51
77.3495398712
  0
ARC
  5
354
100
AcDbEntity
  8
0
100
AcDbCircle
 62
7
  6
BYLAYER
 10
29.3703993363
 20
18.5227584349
 40
1.7810410454
100
AcDbArc
 50
72.8521429924
 51
77.3650405443
  0
ARC
  5
355
100
AcDbEntity
  8
0
100
AcDbCircle
 62
7
  6
BYLAYER
 10
28.2543296707
 20
19.2256821624
 40
1.7290007801
100
AcDbArc
 50
68.2568984347
 51
72.8508396464
  0
ARC
  5
356
100
AcDbEntity
  8
0
100
AcDbCircle
 62
7
  6
BYLAYER
 10
29.3885380764
 20
18.5805206302
 40
1.7204985748
100
AcDbArc
 50
68.2455413415
 51
72.8621967396
  0
ARC
  5
357
100
AcDbEntity
  8
0
100
AcDbCircle
 62
7
  6
BYLAYER
 10
29.0681196205
 20
17.8848719284
 40
1.6972966945
100
AcDbArc
 50
33.5833159947
 51
36.6235196359
  0
ARC
  5
358
100
AcDbEntity
  8
0
100
AcDbCircle
 62
7
  6
BYLAYER
 10
29.4325384094
 20
18.3661861528
 40
1.6845905407
100
AcDbArc
 50
42.021933766
 51
52.2859009667
  0
ARC
  5
359
100
AcDbEntity
  8
0
100
AcDbCircle
 62
7
  6
BYLAYER
 10
29.4530048808
 20
18.354406508
 40
1.6845582638
100
AcDbArc
 50
67.7126984525
 51
77.9767968819
  0
ARC
  5
35A
100
AcDbEntity
  8
0
100
AcDbCircle
 62
7
  6
BYLAYER
 10
29.2195462563
 20
17.8111215042
 40
1.6842460922
100
AcDbArc
 50
83.3636022767
 51
86.4273347668
  0
SPLINE
  5
35B
100
AcDbEntity
  8
0
100
AcDbSpline
 62
7
  6
BYLAYER
 70
0
 71
3
 72
13
 73
9
 74
0
 42
0.0000001
 43
0.0000001
 44
0.0000000001
 40
0.0
 40
0.0
 40
0.0
 40
0.0
 40
0.0979040366
 40
0.1998259091
 40
0.3090158293
 40
0.4275400284
 40
0.6951022745
 40
1.0
 40
1.0
 40
1.0
 40
1.0
 10
27.4914612976
 20
17.4299607326
 30
0.0
 10
27.4877775105
 20
17.4320886125
 30
0.0
 10
27.4807873406
 20
17.4374229536
 30
0.0
 10
27.4723768944
 20
17.4480403326
 30
0.0
 10
27.4660748677
 20
17.4610125659
 30
0.0
 10
27.4603881115
 20
17.4818735219
 30
0.0
 10
27.4596075658
 20
17.5122927629
 30
0.0
 10
27.464549414
 20
17.5368446348
 30
0.0
 10
27.46828775
 20
17.5495549024
 30
0.0
  0
SPLINE
  5
35C
100
AcDbEntity
  8
0
100
AcDbSpline
 62
7
  6
BYLAYER
 70
0
 71
3
 72
12
 73
8
 74
0
 42
0.0000001
 43
0.0000001
 44
0.0000000001
 40
0.0
 40
0.0
 40
0.0
 40
0.0
 40
0.1002365916
 40
0.203889498
 40
0.4315525286
 40
0.6973507936
 40
1.0
 40
1.0
 40
1.0
 40
1.0
 10
29.2930697288
 20
19.5013057607
 30
0.0
 10
29.2885362892
 20
19.5039161654
 30
0.0
 10
29.2799222231
 20
19.5103597273
 30
0.0
 10
29.2653271928
 20
19.5277331668
 30
0.0
 10
29.2534361503
 20
19.5573584037
 30
0.0
 10
29.2501141189
 20
19.5991700599
 30
0.0
 10
29.2542868777
 20
19.6287731614
 30
0.0
 10
29.2578223458
 20
19.6441674552
 30
0.0
  0
SPLINE
  5
35D
100
AcDbEntity
  8
0
100
AcDbSpline
 62
7
  6
BYLAYER
 70
0
 71
3
 72
13
 73
9
 74
0
 42
0.0000001
 43
0.0000001
 44
0.0000000001
 40
0.0
 40
0.0
 40
0.0
 40
0.0
 40
0.1958034786
 40
0.3094644764
 40
0.4333773082
 40
0.5665152228
 40
0.7071099856
 40
1.0
 40
1.0
 40
1.0
 40
1.0
 10
30.4303235437
 20
18.8974017012
 30
0.0
 10
30.4213692767
 20
18.9094406406
 30
0.0
 10
30.4127161654
 20
18.9326065677
 30
0.0
 10
30.4095026953
 20
18.9656630706
 30
0.0
 10
30.4109525391
 20
18.9941541042
 30
0.0
 10
30.4164173263
 20
19.0241995015
 30
0.0
 10
30.4289550386
 20
19.0658357269
 30
0.0
 10
30.4434864643
 20
19.0960320694
 30
0.0
 10
30.4550975684
 20
19.1152383992
 30
0.0
  0
SPLINE
  5
35E
100
AcDbEntity
  8
0
100
AcDbSpline
 62
7
  6
BYLAYER
 70
0
 71
3
 72
13
 73
9
 74
0
 42
0.0000001
 43
0.0000001
 44
0.0000000001
 40
0.0
 40
0.0
 40
0.0
 40
0.0
 40
0.1007256378
 40
0.2115248168
 40
0.3313918659
 40
0.4588267767
 40
0.7280598882
 40
1.0
 40
1.0
 40
1.0
 40
1.0
 10
30.7394556887
 20
18.2548932479
 30
0.0
 10
30.7371395579
 20
18.2628836014
 30
0.0
 10
30.7340462482
 20
18.2801951188
 30
0.0
 10
30.733622087
 20
18.3076527592
 30
0.0
 10
30.7372654357
 20
18.3370903374
 30
0.0
 10
30.7475081313
 20
18.3785878458
 30
0.0
 10
30.7693597761
 20
18.4297305242
 30
0.0
 10
30.7945654422
 20
18.4670389417
 30
0.0
 10
30.8090058275
 20
18.4842420462
 30
0.0
  0
SPLINE
  5
35F
100
AcDbEntity
  8
0
100
AcDbSpline
 62
7
  6
BYLAYER
 70
0
 71
3
 72
12
 73
8
 74
0
 42
0.0000001
 43
0.0000001
 44
0.0000000001
 40
0.0
 40
0.0
 40
0.0
 40
0.0
 40
0.1112625879
 40
0.2309612447
 40
0.4867385373
 40
0.7497011573
 40
1.0
 40
1.0
 40
1.0
 40
1.0
 10
30.8540377583
 20
17.435648498
 30
0.0
 10
30.8538923473
 20
17.4451931867
 30
0.0
 10
30.8551423941
 20
17.4650458438
 30
0.0
 10
30.8629699186
 20
17.5061460212
 30
0.0
 10
30.8823613929
 20
17.5578558949
 30
0.0
 10
30.9170314289
 20
17.6143914438
 30
0.0
 10
30.9472130365
 20
17.6470296538
 30
0.0
 10
30.9636242841
 20
17.6608796549
 30
0.0
  0
SPLINE
  5
360
100
AcDbEntity
  8
0
100
AcDbSpline
 62
7
  6
BYLAYER
 70
0
 71
3
 72
12
 73
8
 74
0
 42
0.0000001
 43
0.0000001
 44
0.0000000001
 40
0.0
 40
0.0
 40
0.0
 40
0.0
 40
0.2517456604
 40
0.51518262
 40
0.7704067326
 40
0.889497849
 40
1.0
 40
1.0
 40
1.0
 40
1.0
 10
30.7662611738
 20
16.4954976272
 30
0.0
 10
30.7703282515
 20
16.5166802742
 30
0.0
 10
30.7839832409
 20
16.559089383
 30
0.0
 10
30.8161878618
 20
16.6170970657
 30
0.0
 10
30.8516283104
 20
16.6592864553
 30
0.0
 10
30.8834728116
 20
16.6860849784
 30
0.0
 10
30.9000748035
 20
16.6967826234
 30
0.0
 10
30.9084159461
 20
16.7012620116
 30
0.0
  0
SPLINE
  5
361
100
AcDbEntity
  8
0
100
AcDbSpline
 62
7
  6
BYLAYER
 70
0
 71
3
 72
13
 73
9
 74
0
 42
0.0000001
 43
0.0000001
 44
0.0000000001
 40
0.0
 40
0.0
 40
0.0
 40
0.0
 40
0.2733839751
 40
0.5429742611
 40
0.6702024179
 40
0.7896516405
 40
0.8998861252
 40
1.0
 40
1.0
 40
1.0
 40
1.0
 10
30.4821077643
 20
15.4985103638
 30
0.0
 10
30.4900212359
 20
15.5195635488
 30
0.0
 10
30.5101104562
 20
15.5598248901
 30
0.0
 10
30.5438700826
 20
15.603920947
 30
0.0
 10
30.5748913654
 20
15.6330526026
 30
0.0
 10
30.5986255
 20
15.650488765
 30
0.0
 10
30.6226121701
 20
15.6633669268
 30
0.0
 10
30.6391065038
 20
15.6689827246
 30
0.0
 10
30.6471431703
 20
15.6707854731
 30
0.0
  0
SPLINE
  5
362
100
AcDbEntity
  8
0
100
AcDbSpline
 62
7
  6
BYLAYER
 70
0
 71
3
 72
13
 73
9
 74
0
 42
0.0000001
 43
0.0000001
 44
0.0000000001
 40
0.0
 40
0.0
 40
0.0
 40
0.0
 40
0.2941701183
 40
0.4349608909
 40
0.5680284095
 40
0.6916577606
 40
0.8049070968
 40
1.0
 40
1.0
 40
1.0
 40
1.0
 10
30.0209421152
 20
14.5126297422
 30
0.0
 10
30.0319489524
 20
14.5321453913
 30
0.0
 10
30.0510556005
 20
14.559570789
 30
0.0
 10
30.0810881999
 20
14.590804278
 30
0.0
 10
30.1044680374
 20
14.6101471668
 30
0.0
 10
30.1284444557
 20
14.6251832649
 30
0.0
 10
30.1586266288
 20
14.6382958905
 30
0.0
 10
30.1829040419
 20
14.641796069
 30
0.0
 10
30.1976112646
 20
14.6396753123
 30
0.0
  0
SPLINE
  5
363
100
AcDbEntity
  8
0
100
AcDbSpline
 62
7
  6
BYLAYER
 70
0
 71
3
 72
13
 73
9
 74
0
 42
0.0000001
 43
0.0000001
 44
0.0000000001
 40
0.0
 40
0.0
 40
0.0
 40
0.0
 40
0.195093859
 40
0.3083438056
 40
0.4319736082
 40
0.5650412797
 40
0.7058317913
 40
1.0
 40
1.0
 40
1.0
 40
1.0
 10
29.9260177699
 20
14.1692589689
 30
0.0
 10
29.9168276177
 20
14.1809358037
 30
0.0
 10
29.9077203633
 20
14.2037112232
 30
0.0
 10
29.9039852933
 20
14.2364066221
 30
0.0
 10
29.9050188203
 20
14.264689276
 30
0.0
 10
29.9100803887
 20
14.2946086302
 30
0.0
 10
29.9221131109
 20
14.3362347318
 30
0.0
 10
29.9363109001
 20
14.3664945039
 30
0.0
 10
29.9477084968
 20
14.3857846855
 30
0.0
  0
SPLINE
  5
364
100
AcDbEntity
  8
0
100
AcDbSpline
 62
7
  6
BYLAYER
 70
0
 71
3
 72
14
 73
10
 74
0
 42
0.0000001
 43
0.0000001
 44
0.0000000001
 40
0.0
 40
0.0
 40
0.0
 40
0.0
 40
0.3069767834
 40
0.4481187973
 40
0.5784277674
 40
0.6973672777
 40
0.8056379652
 40
0.9053485559
 40
1.0
 40
1.0
 40
1.0
 40
1.0
 10
29.4141919033
 20
13.6050418975
 30
0.0
 10
29.4270553568
 20
13.6213931806
 30
0.0
 10
29.4481886505
 20
13.6436455223
 30
0.0
 10
29.479901631
 20
13.6668327417
 30
0.0
 10
29.5032656358
 20
13.679460074
 30
0.0
 10
29.526276775
 20
13.687432537
 30
0.0
 10
29.5483954472
 20
13.6905214057
 30
0.0
 10
29.5690170958
 20
13.688431166
 30
0.0
 10
29.5814659209
 20
13.683521871
 30
0.0
 10
29.5870240895
 20
13.6803193441
 30
0.0
  0
SPLINE
  5
365
100
AcDbEntity
  8
0
100
AcDbSpline
 62
7
  6
BYLAYER
 70
0
 71
3
 72
13
 73
9
 74
0
 42
0.0000001
 43
0.0000001
 44
0.0000000001
 40
0.0
 40
0.0
 40
0.0
 40
0.0
 40
0.1001147534
 40
0.2103500754
 40
0.3297999368
 40
0.4570284388
 40
0.7266182415
 40
1.0
 40
1.0
 40
1.0
 40
1.0
 10
29.2578223458
 20
13.2643978589
 30
0.0
 10
29.2553652842
 20
13.2722593533
 30
0.0
 10
29.2519816268
 20
13.2893520692
 30
0.0
 10
29.2511411971
 20
13.3165646381
 30
0.0
 10
29.2543743518
 20
13.3458374737
 30
0.0
 10
29.2640924908
 20
13.3872689212
 30
0.0
 10
29.285400881
 20
13.4385539814
 30
0.0
 10
29.3102236117
 20
13.476082615
 30
0.0
 10
29.3244994037
 20
13.493462538
 30
0.0
  0
SPLINE
  5
366
100
AcDbEntity
  8
0
100
AcDbSpline
 62
7
  6
BYLAYER
 70
0
 71
3
 72
12
 73
8
 74
0
 42
0.0000001
 43
0.0000001
 44
0.0000000001
 40
0.0
 40
0.0
 40
0.0
 40
0.0
 40
0.3020858321
 40
0.5675013353
 40
0.7953660248
 40
0.8993461559
 40
1.0
 40
1.0
 40
1.0
 40
1.0
 10
28.7032061529
 20
12.8375974415
 30
0.0
 10
28.7146365789
 20
12.8479812381
 30
0.0
 10
28.7378702334
 20
12.865722757
 30
0.0
 10
28.7751202864
 20
12.882959289
 30
0.0
 10
28.8061099228
 20
12.887088963
 30
0.0
 10
28.8280157719
 20
12.8830844361
 30
0.0
 10
28.837726056
 20
12.8789041322
 30
0.0
 10
28.8421792315
 20
12.8763263487
 30
0.0
  0
SPLINE
  5
367
100
AcDbEntity
  8
0
100
AcDbSpline
 62
7
  6
BYLAYER
 70
0
 71
3
 72
12
 73
8
 74
0
 42
0.0000001
 43
0.0000001
 44
0.0000000001
 40
0.0
 40
0.0
 40
0.0
 40
0.0
 40
0.1105032806
 40
0.2295953225
 40
0.4848203314
 40
0.748256609
 40
1.0
 40
1.0
 40
1.0
 40
1.0
 10
28.4960477102
 20
12.5228944659
 30
0.0
 10
28.4957564307
 20
12.5323579408
 30
0.0
 10
28.4967199076
 20
12.5520847686
 30
0.0
 10
28.504005889
 20
12.5930626125
 30
0.0
 10
28.5228226715
 20
12.6448500142
 30
0.0
 10
28.5569562903
 20
12.7017441409
 30
0.0
 10
28.5868560944
 20
12.7347742504
 30
0.0
 10
28.6031671678
 20
12.7488877281
 30
0.0
  0
SPLINE
  5
368
100
AcDbEntity
  8
0
100
AcDbSpline
 62
7
  6
BYLAYER
 70
0
 71
3
 72
11
 73
7
 74
0
 42
0.0000001
 43
0.0000001
 44
0.0000000001
 40
0.0
 40
0.0
 40
0.0
 40
0.0
 40
0.2904636934
 40
0.5505318289
 40
0.7832971093
 40
1.0
 40
1.0
 40
1.0
 40
1.0
 10
27.9364373678
 20
12.2625964456
 30
0.0
 10
27.9453949813
 20
12.2679484689
 30
0.0
 10
27.963251391
 20
12.2767492212
 30
0.0
 10
27.9907540919
 20
12.2838073365
 30
0.0
 10
28.0166027872
 20
12.283414408
 30
0.0
 10
28.0321565731
 20
12.2778384531
 30
0.0
 10
28.0388982238
 20
12.2739455407
 30
0.0
  0
SPLINE
  5
369
100
AcDbEntity
  8
0
100
AcDbSpline
 62
7
  6
BYLAYER
 70
0
 71
3
 72
12
 73
8
 74
0
 42
0.0000001
 43
0.0000001
 44
0.0000000001
 40
0.0
 40
0.0
 40
0.0
 40
0.0
 40
0.2503010682
 40
0.5132644843
 40
0.7690409538
 40
0.8887385816
 40
1.0
 40
1.0
 40
1.0
 40
1.0
 10
27.6926075455
 20
11.9952810206
 30
0.0
 10
27.6963963792
 20
12.0164187762
 30
0.0
 10
27.7095710149
 20
12.0588762195
 30
0.0
 10
27.7411970494
 20
12.117169447
 30
0.0
 10
27.7762831723
 20
12.1598179781
 30
0.0
 10
27.8079630499
 20
12.1871467093
 30
0.0
 10
27.8245308124
 20
12.1981554565
 30
0.0
 10
27.8328693887
 20
12.2028017987
 30
0.0
  0
SPLINE
  5
36A
100
AcDbEntity
  8
0
100
AcDbSpline
 62
7
  6
BYLAYER
 70
0
 71
3
 72
13
 73
9
 74
0
 42
0.0000001
 43
0.0000001
 44
0.0000000001
 40
0.0
 40
0.0
 40
0.0
 40
0.0
 40
0.2719423852
 40
0.5411761264
 40
0.6686107623
 40
0.7884771306
 40
0.8992753153
 40
1.0
 40
1.0
 40
1.0
 40
1.0
 10
26.9022549711
 20
11.7175135075
 30
0.0
 10
26.9099330565
 20
11.738620927
 30
0.0
 10
26.9296400883
 20
11.7791040433
 30
0.0
 10
26.9630049484
 20
11.8235996166
 30
0.0
 10
26.9938213134
 20
11.8532187287
 30
0.0
 10
27.0174931361
 20
11.8710925615
 30
0.0
 10
27.0414840412
 20
11.8844537415
 30
0.0
 10
27.0580227597
 20
11.8904303666
 30
0.0
 10
27.0661005882
 20
11.8924196035
 30
0.0
  0
SPLINE
  5
36B
100
AcDbEntity
  8
0
100
AcDbSpline
 62
7
  6
BYLAYER
 70
0
 71
3
 72
13
 73
9
 74
0
 42
0.0000001
 43
0.0000001
 44
0.0000000001
 40
0.0
 40
0.0
 40
0.0
 40
0.0
 40
0.2928920852
 40
0.4334871925
 40
0.566625039
 40
0.6905374655
 40
0.8041977682
 40
1.0
 40
1.0
 40
1.0
 40
1.0
 10
26.178851209
 20
11.7085213236
 30
0.0
 10
26.1896787327
 20
11.7281800523
 30
0.0
 10
26.2085636555
 20
11.755862866
 30
0.0
 10
26.2383526575
 20
11.7875389481
 30
0.0
 10
26.26164016
 20
11.8072941632
 30
0.0
 10
26.2855889941
 20
11.8227950665
 30
0.0
 10
26.3158232317
 20
11.8365400004
 30
0.0
 10
26.3402118649
 20
11.8406286049
 30
0.0
 10
26.3551147912
 20
11.8388931755
 30
0.0
  0
SPLINE
  5
36C
100
AcDbEntity
  8
0
100
AcDbSpline
 62
7
  6
BYLAYER
 70
0
 71
3
 72
14
 73
10
 74
0
 42
0.0000001
 43
0.0000001
 44
0.0000000001
 40
0.0
 40
0.0
 40
0.0
 40
0.0
 40
0.3071129349
 40
0.4484655877
 40
0.5789662636
 40
0.69800206
 40
0.8062212379
 40
0.9057154734
 40
1.0
 40
1.0
 40
1.0
 40
1.0
 10
25.5716950301
 20
11.9689172712
 30
0.0
 10
25.5846058189
 20
11.9856869911
 30
0.0
 10
25.6058933937
 20
12.008540262
 30
0.0
 10
25.6379525317
 20
12.0324340146
 30
0.0
 10
25.6616256203
 20
12.0455004526
 30
0.0
 10
25.6849716907
 20
12.0538075604
 30
0.0
 10
25.7074298489
 20
12.0571107202
 30
0.0
 10
25.7283688507
 20
12.0550984952
 30
0.0
 10
25.7410062838
 20
12.0501491481
 30
0.0
 10
25.7466348637
 20
12.0469033647
 30
0.0
  0
SPLINE
  5
36D
100
AcDbEntity
  8
0
100
AcDbSpline
 62
7
  6
BYLAYER
 70
0
 71
3
 72
12
 73
8
 74
0
 42
0.0000001
 43
0.0000001
 44
0.0000000001
 40
0.0
 40
0.0
 40
0.0
 40
0.0
 40
0.3026484074
 40
0.5684460999
 40
0.796109457
 40
0.8997628378
 40
1.0
 40
1.0
 40
1.0
 40
1.0
 10
25.1221631244
 20
12.480955797
 30
0.0
 10
25.1337268375
 20
12.4917144236
 30
0.0
 10
25.1572766758
 20
12.5101291592
 30
0.0
 10
25.1951463944
 20
12.5281575921
 30
0.0
 10
25.2267471386
 20
12.5326723184
 30
0.0
 10
25.2490899319
 20
12.5287197359
 30
0.0
 10
25.2589770712
 20
12.5244817827
 30
0.0
 10
25.2635044039
 20
12.5218610552
 30
0.0
  0
SPLINE
  5
36E
100
AcDbEntity
  8
0
100
AcDbSpline
 62
7
  6
BYLAYER
 70
0
 71
3
 72
11
 73
7
 74
0
 42
0.0000001
 43
0.0000001
 44
0.0000000001
 40
0.0
 40
0.0
 40
0.0
 40
0.0
 40
0.2914490142
 40
0.5518817525
 40
0.784247637
 40
1.0
 40
1.0
 40
1.0
 40
1.0
 10
24.8608903486
 20
13.2097423216
 30
0.0
 10
24.8700356602
 20
13.215391109
 30
0.0
 10
24.8882808199
 20
13.2247152262
 30
0.0
 10
24.9164562872
 20
13.2323435156
 30
0.0
 10
24.9429713969
 20
13.2322192935
 30
0.0
 10
24.9589300685
 20
13.2265707092
 30
0.0
 10
24.9658214751
 20
13.2225922363
 30
0.0
  0
SPLINE
  5
36F
100
AcDbEntity
  8
0
100
AcDbSpline
 62
7
  6
BYLAYER
 70
0
 71
3
 72
33
 73
29
 74
0
 42
0.0000001
 43
0.0000001
 44
0.0000000001
 40
0.0
 40
0.0
 40
0.0
 40
0.0
 40
0.0225212416
 40
0.0454857738
 40
0.069253536
 40
0.0941479451
 40
0.1204139695
 40
0.1482027962
 40
0.177591514
 40
0.2085885403
 40
0.2411445318
 40
0.2751597211
 40
0.3469355143
 40
0.4224860178
 40
0.5000023889
 40
0.5775183323
 40
0.6530676427
 40
0.7248419078
 40
0.7588563714
 40
0.791411823
 40
0.8224083787
 40
0.8517968616
 40
0.8795855084
 40
0.9058514486
 40
0.9307458109
 40
0.9545138001
 40
0.9774786455
 40
1.0
 40
1.0
 40
1.0
 40
1.0
 10
26.8346575189
 20
13.8428319113
 30
0.0
 10
26.8002415294
 20
13.8627025602
 30
0.0
 10
26.7340600065
 20
13.9089145024
 30
0.0
 10
26.6465648608
 20
13.9949702439
 30
0.0
 10
26.5713414638
 20
14.0971590672
 30
0.0
 10
26.5090569931
 20
14.2142623574
 30
0.0
 10
26.4602064914
 20
14.3451116131
 30
0.0
 10
26.4251360143
 20
14.4884261428
 30
0.0
 10
26.4041441611
 20
14.6428514979
 30
0.0
 10
26.3973651903
 20
14.8069291728
 30
0.0
 10
26.4048363252
 20
14.9791248921
 30
0.0
 10
26.4342323646
 20
15.2216736777
 30
0.0
 10
26.506959402
 20
15.534369488
 30
0.0
 10
26.6442455488
 20
15.9075586834
 30
0.0
 10
26.8280081616
 20
16.2715598505
 30
0.0
 10
27.0513583911
 20
16.6127028128
 30
0.0
 10
27.305901752
 20
16.9181874621
 30
0.0
 10
27.5403350247
 20
17.1375161267
 30
0.0
 10
27.7356864181
 20
17.2842452884
 30
0.0
 10
27.8810733378
 20
17.3768129905
 30
0.0
 10
28.0265565953
 20
17.452979467
 30
0.0
 10
28.1707869577
 20
17.5120131309
 30
0.0
 10
28.3124357798
 20
17.5532968198
 30
0.0
 10
28.4501792044
 20
17.5764160369
 30
0.0
 10
28.5827361474
 20
17.581025894
 30
0.0
 10
28.7088467077
 20
17.5669733362
 30
0.0
 10
28.8271210413
 20
17.5342248748
 30
0.0
 10
28.9002326138
 20
17.5000144032
 30
0.0
 10
28.9346487758
 20
17.4801436547
 30
0.0
  0
SPLINE
  5
370
100
AcDbEntity
  8
0
100
AcDbSpline
 62
7
  6
BYLAYER
 70
0
 71
3
 72
15
 73
11
 74
0
 42
0.0000001
 43
0.0000001
 44
0.0000000001
 40
0.0
 40
0.0
 40
0.0
 40
0.0
 40
0.1549094791
 40
0.3064515134
 40
0.4501760521
 40
0.5832763069
 40
0.7040057825
 40
0.8120425932
 40
0.9091782804
 40
1.0
 40
1.0
 40
1.0
 40
1.0
 10
27.8096534596
 20
18.6850239335
 30
0.0
 10
27.8145296131
 20
18.6934697259
 30
0.0
 10
27.8251392599
 20
18.7096407334
 30
0.0
 10
27.8432997351
 20
18.7314812682
 30
0.0
 10
27.8630571143
 20
18.7499515262
 30
0.0
 10
27.883628071
 20
18.7643784286
 30
0.0
 10
27.9043218212
 20
18.7742050952
 30
0.0
 10
27.9244424331
 20
18.7790859564
 30
0.0
 10
27.9433250636
 20
18.7786115287
 30
0.0
 10
27.954700555
 20
18.7744856511
 30
0.0
 10
27.9596474125
 20
18.7716184882
 30
0.0
  0
SPLINE
  5
371
100
AcDbEntity
  8
0
100
AcDbSpline
 62
7
  6
BYLAYER
 70
0
 71
3
 72
9
 73
5
 74
0
 42
0.0000001
 43
0.0000001
 44
0.0000000001
 40
0.0
 40
0.0
 40
0.0
 40
0.0
 40
0.244484965
 40
1.0
 40
1.0
 40
1.0
 40
1.0
 10
27.7864844767
 20
18.6314174305
 30
0.0
 10
27.7878291588
 20
18.6359893227
 30
0.0
 10
27.7939309989
 20
18.6545088769
 30
0.0
 10
27.8022901809
 20
18.6722702899
 30
0.0
 10
27.8096534596
 20
18.6850239335
 30
0.0
  0
SPLINE
  5
372
100
AcDbEntity
  8
0
100
AcDbSpline
 62
7
  6
BYLAYER
 70
0
 71
3
 72
11
 73
7
 74
0
 42
0.0000001
 43
0.0000001
 44
0.0000000001
 40
0.0
 40
0.0
 40
0.0
 40
0.0
 40
0.2382342504
 40
0.481524896
 40
0.7342114057
 40
1.0
 40
1.0
 40
1.0
 40
1.0
 10
23.8618670915
 20
11.6331748104
 30
0.0
 10
23.956908253
 20
11.5783012013
 30
0.0
 10
24.1595087835
 20
11.4846025856
 30
0.0
 10
24.4882251654
 20
11.3984391564
 30
0.0
 10
24.8391559691
 20
11.3666772044
 30
0.0
 10
25.0784948167
 20
11.3813285472
 30
0.0
 10
25.1999512966
 20
11.396800967
 30
0.0
  0
SPLINE
  5
373
100
AcDbEntity
  8
0
100
AcDbSpline
 62
7
  6
BYLAYER
 70
0
 71
3
 72
11
 73
7
 74
0
 42
0.0000001
 43
0.0000001
 44
0.0000000001
 40
0.0
 40
0.0
 40
0.0
 40
0.0
 40
0.265787619
 40
0.5184744366
 40
0.7617661524
 40
1.0
 40
1.0
 40
1.0
 40
1.0
 10
30.2355287878
 20
20.1189278499
 30
0.0
 10
30.188200592
 20
20.2318372132
 30
0.0
 10
30.0812234125
 20
20.4464156342
 30
0.0
 10
29.8782638192
 20
20.7344227578
 30
0.0
 10
29.6393055892
 20
20.9759978797
 30
0.0
 10
29.4568773324
 20
21.1045984944
 30
0.0
 10
29.3618441927
 20
21.1594674719
 30
0.0
  0
SPLINE
  5
374
100
AcDbEntity
  8
0
100
AcDbSpline
 62
7
  6
BYLAYER
 70
0
 71
3
 72
11
 73
7
 74
0
 42
0.0000001
 43
0.0000001
 44
0.0000000001
 40
0.0
 40
0.0
 40
0.0
 40
0.0
 40
0.2157509452
 40
0.4481162638
 40
0.7085495518
 40
1.0
 40
1.0
 40
1.0
 40
1.0
 10
28.5373867039
 20
19.4087531016
 30
0.0
 10
28.5304952453
 20
19.4127319878
 30
0.0
 10
28.517623483
 20
19.4237285163
 30
0.0
 10
28.5042577631
 20
19.4466299532
 30
0.0
 10
28.4967760094
 20
19.4748458987
 30
0.0
 10
28.495728339
 20
19.4953095882
 30
0.0
 10
28.4960477102
 20
19.5060545169
 30
0.0
  0
SPLINE
  5
375
100
AcDbEntity
  8
0
100
AcDbSpline
 62
7
  6
BYLAYER
 70
0
 71
3
 72
14
 73
10
 74
0
 42
0.0000001
 43
0.0000001
 44
0.0000000001
 40
0.0
 40
0.0
 40
0.0
 40
0.0
 40
0.0942839642
 40
0.1937779505
 40
0.3019970763
 40
0.4210329833
 40
0.55153393
 40
0.6928868945
 40
1.0
 40
1.0
 40
1.0
 40
1.0
 10
29.945951555
 20
19.3203676937
 30
0.0
 10
29.9403261509
 20
19.3236192163
 30
0.0
 10
29.9297208109
 20
19.3320888924
 30
0.0
 10
29.9175082431
 20
19.3492167392
 30
0.0
 10
29.9091393911
 20
19.3703180792
 30
0.0
 10
29.9046602201
 20
19.3946905057
 30
0.0
 10
29.904139349
 20
19.4217259236
 30
0.0
 10
29.9088022496
 20
19.4614378741
 30
0.0
 10
29.9179500442
 20
19.4913009031
 30
0.0
 10
29.9260177699
 20
19.5108673554
 30
0.0
  0
SPLINE
  5
376
100
AcDbEntity
  8
0
100
AcDbSpline
 62
7
  6
BYLAYER
 70
0
 71
3
 72
9
 73
5
 74
0
 42
0.0000001
 43
0.0000001
 44
0.0000000001
 40
0.0
 40
0.0
 40
0.0
 40
0.0
 40
0.2461487992
 40
1.0
 40
1.0
 40
1.0
 40
1.0
 10
30.9893570885
 20
19.2817008284
 30
0.0
 10
31.0021003079
 20
19.2578618834
 30
0.0
 10
31.0522183206
 20
19.1601362968
 30
0.0
 10
31.0957794034
 20
19.059077355
 30
0.0
 10
31.1250850346
 20
18.9816526928
 30
0.0
  0
SPLINE
  5
377
100
AcDbEntity
  8
0
100
AcDbSpline
 62
7
  6
BYLAYER
 70
0
 71
3
 72
9
 73
5
 74
0
 42
0.0000001
 43
0.0000001
 44
0.0000000001
 40
0.0
 40
0.0
 40
0.0
 40
0.0
 40
0.2455821283
 40
1.0
 40
1.0
 40
1.0
 40
1.0
 10
31.2797705266
 20
18.4056167127
 30
0.0
 10
31.2850306102
 20
18.3752109736
 30
0.0
 10
31.3048511053
 20
18.2511267354
 30
0.0
 10
31.3184003072
 20
18.1260583475
 30
0.0
 10
31.3254073776
 20
18.0315251452
 30
0.0
  0
SPLINE
  5
378
100
AcDbEntity
  8
0
100
AcDbSpline
 62
7
  6
BYLAYER
 70
0
 71
3
 72
11
 73
7
 74
0
 42
0.0000001
 43
0.0000001
 44
0.0000000001
 40
0.0
 40
0.0
 40
0.0
 40
0.0
 40
0.2167013383
 40
0.4494659609
 40
0.7095347637
 40
1.0
 40
1.0
 40
1.0
 40
1.0
 10
30.8954413691
 20
17.2216449541
 30
0.0
 10
30.8886988599
 20
17.2255369502
 30
0.0
 10
30.8760923981
 20
17.2362192115
 30
0.0
 10
30.862827143
 20
17.2584092821
 30
0.0
 10
30.8551880568
 20
17.2857576683
 30
0.0
 10
30.8538815491
 20
17.3056231006
 30
0.0
 10
30.8540377611
 20
17.3160571453
 30
0.0
  0
SPLINE
  5
379
100
AcDbEntity
  8
0
100
AcDbSpline
 62
7
  6
BYLAYER
 70
0
 71
3
 72
12
 73
8
 74
0
 42
0.0000001
 43
0.0000001
 44
0.0000000001
 40
0.0
 40
0.0
 40
0.0
 40
0.0
 40
0.1006531474
 40
0.2046327315
 40
0.4324970902
 40
0.6979132469
 40
1.0
 40
1.0
 40
1.0
 40
1.0
 10
30.7754037515
 20
16.2247821139
 30
0.0
 10
30.7709445648
 20
16.2273497682
 30
0.0
 10
30.7624688221
 20
16.2336690088
 30
0.0
 10
30.7480472565
 20
16.2506381502
 30
0.0
 10
30.7361282987
 20
16.279541749
 30
0.0
 10
30.7324303781
 20
16.3204209812
 30
0.0
 10
30.7361783008
 20
16.3494137484
 30
0.0
 10
30.739455811
 20
16.3645052576
 30
0.0
  0
SPLINE
  5
37A
100
AcDbEntity
  8
0
100
AcDbSpline
 62
7
  6
BYLAYER
 70
0
 71
3
 72
14
 73
10
 74
0
 42
0.0000001
 43
0.0000001
 44
0.0000000001
 40
0.0
 40
0.0
 40
0.0
 40
0.0
 40
0.0946508444
 40
0.1943610706
 40
0.3026316619
 40
0.4215713275
 40
0.5518806159
 40
0.69302298
 40
1.0
 40
1.0
 40
1.0
 40
1.0
 10
30.4515492593
 20
15.1777232613
 30
0.0
 10
30.4459965221
 20
15.1809354707
 30
0.0
 10
30.4355201583
 20
15.1892618527
 30
0.0
 10
30.4233986509
 20
15.2060758841
 30
0.0
 10
30.4150139744
 20
15.2267761479
 30
0.0
 10
30.4104124883
 20
15.2506912737
 30
0.0
 10
30.4096659167
 20
15.2772395513
 30
0.0
 10
30.413890109
 20
15.3162985735
 30
0.0
 10
30.4225947382
 20
15.3457275884
 30
0.0
 10
30.4303237771
 20
15.3650438909
 30
0.0
  0
SPLINE
  5
37B
100
AcDbEntity
  8
0
100
AcDbSpline
 62
7
  6
BYLAYER
 70
0
 71
3
 72
18
 73
14
 74
0
 42
0.0000001
 43
0.0000001
 44
0.0000000001
 40
0.0
 40
0.0
 40
0.0
 40
0.0
 40
0.006060593
 40
0.019490772
 40
0.0408951954
 40
0.0703357931
 40
0.1077907761
 40
0.153210591
 40
0.2673659938
 40
0.4112888513
 40
0.5832935086
 40
0.7806831891
 40
1.0
 40
1.0
 40
1.0
 40
1.0
 10
29.8342365084
 20
13.5148543024
 30
0.0
 10
29.8341350922
 20
13.5147175196
 30
0.0
 10
29.833459892
 20
13.5147776737
 30
0.0
 10
29.8324497321
 20
13.5150760758
 30
0.0
 10
29.8307134645
 20
13.5157382145
 30
0.0
 10
29.8284642724
 20
13.5167332574
 30
0.0
 10
29.8256040469
 20
13.5180864396
 30
0.0
 10
29.820650952
 20
13.5205503902
 30
0.0
 10
29.8130929991
 20
13.5245055332
 30
0.0
 10
29.8024716259
 20
13.5302656462
 30
0.0
 10
29.7898662632
 20
13.5372742816
 30
0.0
 10
29.7754719997
 20
13.5454223095
 30
0.0
 10
29.7653182896
 20
13.5512512819
 30
0.0
 10
29.7599818747
 20
13.5543321928
 30
0.0
  0
SPLINE
  5
37C
100
AcDbEntity
  8
0
100
AcDbSpline
 62
7
  6
BYLAYER
 70
0
 71
3
 72
12
 73
8
 74
0
 42
0.0000001
 43
0.0000001
 44
0.0000000001
 40
0.0
 40
0.0
 40
0.0
 40
0.0
 40
0.1386003129
 40
0.2312095223
 40
0.3434793841
 40
0.6307297666
 40
1.0
 40
1.0
 40
1.0
 40
1.0
 10
30.1096372061
 20
13.9178771801
 30
0.0
 10
30.1107871536
 20
13.9196651663
 30
0.0
 10
30.111167471
 20
13.9235280066
 30
0.0
 10
30.1100108056
 20
13.9286318379
 30
0.0
 10
30.1073076077
 20
13.935722948
 30
0.0
 10
30.101337183
 20
13.9459428902
 30
0.0
 10
30.0953783699
 20
13.9540725708
 30
0.0
 10
30.0918754489
 20
13.9585233165
 30
0.0
  0
SPLINE
  5
37D
100
AcDbEntity
  8
0
100
AcDbSpline
 62
7
  6
BYLAYER
 70
0
 71
3
 72
14
 73
10
 74
0
 42
0.0000001
 43
0.0000001
 44
0.0000000001
 40
0.0
 40
0.0
 40
0.0
 40
0.0
 40
0.0616640165
 40
0.1359016858
 40
0.22852936
 40
0.3419896205
 40
0.4767949398
 40
0.6325900655
 40
1.0
 40
1.0
 40
1.0
 40
1.0
 10
29.0253073012
 20
12.5690102901
 30
0.0
 10
29.0239555034
 20
12.5676776177
 30
0.0
 10
29.0202029591
 20
12.5655076099
 30
0.0
 10
29.0131664479
 20
12.5643983138
 30
0.0
 10
29.0045117587
 20
12.5649916089
 30
0.0
 10
28.9942406829
 20
12.5672648178
 30
0.0
 10
28.9824194478
 20
12.5711852799
 30
0.0
 10
28.9637305135
 20
12.5790325844
 30
0.0
 10
28.9494741956
 20
12.5866045288
 30
0.0
 10
28.9396791427
 20
12.5922595772
 30
0.0
  0
SPLINE
  5
37E
100
AcDbEntity
  8
0
100
AcDbSpline
 62
7
  6
BYLAYER
 70
0
 71
3
 72
11
 73
7
 74
0
 42
0.0000001
 43
0.0000001
 44
0.0000000001
 40
0.0
 40
0.0
 40
0.0
 40
0.0
 40
0.1942452515
 40
0.4183305159
 40
0.685854329
 40
1.0
 40
1.0
 40
1.0
 40
1.0
 10
29.3460998567
 20
12.907663339
 30
0.0
 10
29.3489663112
 20
12.9108801719
 30
0.0
 10
29.3535863752
 20
12.9192498057
 30
0.0
 10
29.3559867974
 20
12.9344695855
 30
0.0
 10
29.3545500815
 20
12.9523962127
 30
0.0
 10
29.3514095171
 20
12.964960915
 30
0.0
 10
29.3493307993
 20
12.9716118787
 30
0.0
  0
SPLINE
  5
37F
100
AcDbEntity
  8
0
100
AcDbSpline
 62
7
  6
BYLAYER
 70
0
 71
3
 72
13
 73
9
 74
0
 42
0.0000001
 43
0.0000001
 44
0.0000000001
 40
0.0
 40
0.0
 40
0.0
 40
0.0
 40
0.0920539455
 40
0.1897086384
 40
0.295995023
 40
0.4129508422
 40
0.6826900614
 40
1.0
 40
1.0
 40
1.0
 40
1.0
 10
28.1312346658
 20
11.8305666387
 30
0.0
 10
28.1287143912
 20
11.8288757813
 30
0.0
 10
28.1230850777
 20
11.8260059224
 30
0.0
 10
28.1135751377
 20
11.823547558
 30
0.0
 10
28.1029646497
 20
11.8228631131
 30
0.0
 10
28.0867267371
 20
11.8243449918
 30
0.0
 10
28.0642873365
 20
11.8310290328
 30
0.0
 10
28.0469003446
 20
11.8396833703
 30
0.0
 10
28.0378404608
 20
11.8449139783
 30
0.0
  0
SPLINE
  5
380
100
AcDbEntity
  8
0
100
AcDbSpline
 62
7
  6
BYLAYER
 70
0
 71
3
 72
11
 73
7
 74
0
 42
0.0000001
 43
0.0000001
 44
0.0000000001
 40
0.0
 40
0.0
 40
0.0
 40
0.0
 40
0.2162327444
 40
0.4504300798
 40
0.7109847095
 40
1.0
 40
1.0
 40
1.0
 40
1.0
 10
28.476037472
 20
12.0820700593
 30
0.0
 10
28.4813896397
 20
12.0862808337
 30
0.0
 10
28.4911293371
 20
12.0969522558
 30
0.0
 10
28.5010422554
 20
12.1172914996
 30
0.0
 10
28.5065364973
 20
12.1415305655
 30
0.0
 10
28.5072508161
 20
12.1589131235
 30
0.0
 10
28.5069707883
 20
12.1680110386
 30
0.0
  0
SPLINE
  5
381
100
AcDbEntity
  8
0
100
AcDbSpline
 62
7
  6
BYLAYER
 70
0
 71
3
 72
11
 73
7
 74
0
 42
0.0000001
 43
0.0000001
 44
0.0000000001
 40
0.0
 40
0.0
 40
0.0
 40
0.0
 40
0.2215572506
 40
0.4583421803
 40
0.717207952
 40
1.0
 40
1.0
 40
1.0
 40
1.0
 10
27.20571829
 20
11.3491235278
 30
0.0
 10
27.1992273511
 20
11.3467317412
 30
0.0
 10
27.1850191805
 20
11.3437338926
 30
0.0
 10
27.1624525256
 20
11.3448796832
 30
0.0
 10
27.1388785761
 20
11.351416654
 30
0.0
 10
27.1235712485
 20
11.3588110947
 30
0.0
 10
27.1159246447
 20
11.3632257636
 30
0.0
  0
SPLINE
  5
382
100
AcDbEntity
  8
0
100
AcDbSpline
 62
7
  6
BYLAYER
 70
0
 71
3
 72
11
 73
7
 74
0
 42
0.0000001
 43
0.0000001
 44
0.0000000001
 40
0.0
 40
0.0
 40
0.0
 40
0.0
 40
0.2255021372
 40
0.4645315247
 40
0.7225430398
 40
1.0
 40
1.0
 40
1.0
 40
1.0
 10
27.5525043086
 20
11.4966473607
 30
0.0
 10
27.5613858072
 20
11.5009373314
 30
0.0
 10
27.5784138492
 20
11.5126229559
 30
0.0
 10
27.5988324491
 20
11.5371713514
 30
0.0
 10
27.6139688376
 20
11.5677648616
 30
0.0
 10
27.6200597072
 20
11.590539466
 30
0.0
 10
27.6222008585
 20
11.6024848653
 30
0.0
  0
SPLINE
  5
383
100
AcDbEntity
  8
0
100
AcDbSpline
 62
7
  6
BYLAYER
 70
0
 71
3
 72
9
 73
5
 74
0
 42
0.0000001
 43
0.0000001
 44
0.0000000001
 40
0.0
 40
0.0
 40
0.0
 40
0.0
 40
0.2545051674
 40
1.0
 40
1.0
 40
1.0
 40
1.0
 10
27.5525081098
 20
11.4966380194
 30
0.0
 10
27.5237082052
 20
11.4827400499
 30
0.0
 10
27.4099275565
 20
11.4294321603
 30
0.0
 10
27.293637437
 20
11.3814394543
 30
0.0
 10
27.2057206281
 20
11.3491189091
 30
0.0
  0
SPLINE
  5
384
100
AcDbEntity
  8
0
100
AcDbSpline
 62
7
  6
BYLAYER
 70
0
 71
3
 72
11
 73
7
 74
0
 42
0.0000001
 43
0.0000001
 44
0.0000000001
 40
0.0
 40
0.0
 40
0.0
 40
0.0
 40
0.2289443345
 40
0.4705750614
 40
0.7281008009
 40
1.0
 40
1.0
 40
1.0
 40
1.0
 10
26.6295209935
 20
11.1950697147
 30
0.0
 10
26.6431194581
 20
11.197288325
 30
0.0
 10
26.6704423161
 20
11.2066481238
 30
0.0
 10
26.7062845398
 20
11.2327935564
 30
0.0
 10
26.7357167185
 20
11.26925336
 30
0.0
 10
26.7497228427
 20
11.2981954795
 30
0.0
 10
26.7553166184
 20
11.3135730331
 30
0.0
  0
SPLINE
  5
385
100
AcDbEntity
  8
0
100
AcDbSpline
 62
7
  6
BYLAYER
 70
0
 71
3
 72
9
 73
5
 74
0
 42
0.0000001
 43
0.0000001
 44
0.0000000001
 40
0.0
 40
0.0
 40
0.0
 40
0.0
 40
0.2540945193
 40
1.0
 40
1.0
 40
1.0
 40
1.0
 10
26.6295209604
 20
11.1950699664
 30
0.0
 10
26.6019820438
 20
11.1905764114
 30
0.0
 10
26.4933419415
 20
11.1745411726
 30
0.0
 10
26.3836782906
 20
11.1652708973
 30
0.0
 10
26.3018112006
 20
11.1625949669
 30
0.0
  0
SPLINE
  5
386
100
AcDbEntity
  8
0
100
AcDbSpline
 62
7
  6
BYLAYER
 70
0
 71
3
 72
12
 73
8
 74
0
 42
0.0000001
 43
0.0000001
 44
0.0000000001
 40
0.0
 40
0.0
 40
0.0
 40
0.0
 40
0.113158901
 40
0.2292350556
 40
0.4723259183
 40
0.7310393714
 40
1.0
 40
1.0
 40
1.0
 40
1.0
 10
25.7638635822
 20
11.2110495461
 30
0.0
 10
25.7728753466
 20
11.2090215892
 30
0.0
 10
25.7916054176
 20
11.2067945569
 30
0.0
 10
25.830247193
 20
11.2097010174
 30
0.0
 10
25.8786323981
 20
11.2273812211
 30
0.0
 10
25.9289237828
 20
11.2665322458
 30
0.0
 10
25.9548027551
 20
11.3017332249
 30
0.0
 10
25.9653947965
 20
11.3209644058
 30
0.0
  0
SPLINE
  5
387
100
AcDbEntity
  8
0
100
AcDbSpline
 62
7
  6
BYLAYER
 70
0
 71
3
 72
12
 73
8
 74
0
 42
0.0000001
 43
0.0000001
 44
0.0000000001
 40
0.0
 40
0.0
 40
0.0
 40
0.0
 40
0.2535304428
 40
0.5164290577
 40
0.6459184698
 40
0.7708485739
 40
1.0
 40
1.0
 40
1.0
 40
1.0
 10
29.3493307993
 20
20.0426176651
 30
0.0
 10
29.3549761642
 20
20.0671989661
 30
0.0
 10
29.3581213696
 20
20.1193736072
 30
0.0
 10
29.3440562275
 20
20.1829221149
 30
0.0
 10
29.3225242208
 20
20.2298805247
 30
0.0
 10
29.2960714626
 20
20.2701483288
 30
0.0
 10
29.2694457013
 20
20.2948528702
 30
0.0
 10
29.2497036707
 20
20.306250679
 30
0.0
  0
SPLINE
  5
388
100
AcDbEntity
  8
0
100
AcDbSpline
 62
7
  6
BYLAYER
 70
0
 71
3
 72
13
 73
9
 74
0
 42
0.0000001
 43
0.0000001
 44
0.0000000001
 40
0.0
 40
0.0
 40
0.0
 40
0.0
 40
0.113808238
 40
0.2367318904
 40
0.4982977621
 40
0.7605999393
 40
0.8845800654
 40
1.0
 40
1.0
 40
1.0
 40
1.0
 10
24.2638084919
 20
13.0099428734
 30
0.0
 10
24.2735275466
 20
13.0043317015
 30
0.0
 10
24.2948511868
 20
12.9945279655
 30
0.0
 10
24.3421522066
 20
12.9807479107
 30
0.0
 10
24.4063510542
 20
12.975156104
 30
0.0
 10
24.4702611899
 20
12.9839616858
 30
0.0
 10
24.5172293149
 20
12.9998817439
 30
0.0
 10
24.5384110922
 20
13.0105564592
 30
0.0
 10
24.5480943169
 20
13.0165374996
 30
0.0
  0
SPLINE
  5
389
100
AcDbEntity
  8
0
100
AcDbSpline
 62
7
  6
BYLAYER
 70
0
 71
3
 72
13
 73
9
 74
0
 42
0.0000001
 43
0.0000001
 44
0.0000000001
 40
0.0
 40
0.0
 40
0.0
 40
0.0
 40
0.1154169585
 40
0.2393917811
 40
0.501696788
 40
0.7632684137
 40
0.8861926385
 40
1.0
 40
1.0
 40
1.0
 40
1.0
 10
28.5069707883
 20
19.8735507531
 30
0.0
 10
28.5073089216
 20
19.8849269168
 30
0.0
 10
28.5059632029
 20
19.9086074895
 30
0.0
 10
28.4962659972
 20
19.9572425979
 30
0.0
 10
28.4719374248
 20
20.0169938758
 30
0.0
 10
28.43499431
 20
20.0697964452
 30
0.0
 10
28.3994091671
 20
20.1038704199
 30
0.0
 10
28.3802567559
 20
20.1174349662
 30
0.0
 10
28.3705377599
 20
20.1230461043
 30
0.0
  0
SPLINE
  5
38A
100
AcDbEntity
  8
0
100
AcDbSpline
 62
7
  6
BYLAYER
 70
0
 71
3
 72
12
 73
8
 74
0
 42
0.0000001
 43
0.0000001
 44
0.0000000001
 40
0.0
 40
0.0
 40
0.0
 40
0.0
 40
0.2291515534
 40
0.3540787477
 40
0.4835652556
 40
0.7464606675
 40
1.0
 40
1.0
 40
1.0
 40
1.0
 10
24.54472583
 20
12.1569447726
 30
0.0
 10
24.5644678723
 20
12.145546957
 30
0.0
 10
24.5991753554
 20
12.1348411931
 30
0.0
 10
24.6472741304
 20
12.1320669003
 30
0.0
 10
24.6987063945
 20
12.1368987365
 30
0.0
 10
24.7607739276
 20
12.1564919658
 30
0.0
 10
24.8043865017
 20
12.1853033552
 30
0.0
 10
24.8228524597
 20
12.2024836799
 30
0.0
  0
SPLINE
  5
38B
100
AcDbEntity
  8
0
100
AcDbSpline
 62
7
  6
BYLAYER
 70
0
 71
3
 72
13
 73
9
 74
0
 42
0.0000001
 43
0.0000001
 44
0.0000000001
 40
0.0
 40
0.0
 40
0.0
 40
0.0
 40
0.1107002283
 40
0.2264287782
 40
0.3474191474
 40
0.4734755371
 40
0.7352303652
 40
1.0
 40
1.0
 40
1.0
 40
1.0
 10
25.0436160234
 20
11.5483396729
 30
0.0
 10
25.0530652695
 20
11.5428842715
 30
0.0
 10
25.0738227794
 20
11.534069496
 30
0.0
 10
25.1077318727
 20
11.5278275669
 30
0.0
 10
25.1437092437
 20
11.5285044389
 30
0.0
 10
25.19307169
 20
11.5385673883
 30
0.0
 10
25.2519468315
 20
11.5671920479
 30
0.0
 10
25.2903473653
 20
11.6034770511
 30
0.0
 10
25.3062672594
 20
11.6241552736
 30
0.0
  0
SPLINE
  5
38C
100
AcDbEntity
  8
0
100
AcDbSpline
 62
7
  6
BYLAYER
 70
0
 71
3
 72
11
 73
7
 74
0
 42
0.0000001
 43
0.0000001
 44
0.0000000001
 40
0.0
 40
0.0
 40
0.0
 40
0.0
 40
0.2500778215
 40
0.4375541516
 40
0.6250345067
 40
1.0
 40
1.0
 40
1.0
 40
1.0
 10
25.8215981134
 20
12.0035876097
 30
0.0
 10
25.8184933008
 20
12.0052573238
 30
0.0
 10
25.8130073482
 20
12.0080786315
 30
0.0
 10
25.805317247
 20
12.0123824326
 30
0.0
 10
25.7962342804
 20
12.0177931947
 30
0.0
 10
25.7892395227
 20
12.0215330668
 30
0.0
 10
25.7846618905
 20
12.0241760395
 30
0.0
  0
SPLINE
  5
38D
100
AcDbEntity
  8
0
100
AcDbSpline
 62
7
  6
BYLAYER
 70
0
 71
3
 72
14
 73
10
 74
0
 42
0.0000001
 43
0.0000001
 44
0.0000000001
 40
0.0
 40
0.0
 40
0.0
 40
0.0
 40
0.1052344157
 40
0.223322205
 40
0.3511029645
 40
0.4851086251
 40
0.75493669
 40
0.8826521322
 40
1.0
 40
1.0
 40
1.0
 40
1.0
 10
27.6222008585
 20
19.4174387104
 30
0.0
 10
27.6199611723
 20
19.4273476805
 30
0.0
 10
27.6134324307
 20
19.4479828276
 30
0.0
 10
27.5993975762
 20
19.478896848
 30
0.0
 10
27.5809227855
 20
19.5106459947
 30
0.0
 10
27.5512139648
 20
19.552542554
 30
0.0
 10
27.5163876263
 20
19.5906556769
 30
0.0
 10
27.4781344514
 20
19.6224790409
 30
0.0
 10
27.4584326104
 20
19.6356938267
 30
0.0
 10
27.4486219439
 20
19.6413578895
 30
0.0
  0
SPLINE
  5
38E
100
AcDbEntity
  8
0
100
AcDbSpline
 62
7
  6
BYLAYER
 70
0
 71
3
 72
14
 73
10
 74
0
 42
0.0000001
 43
0.0000001
 44
0.0000000001
 40
0.0
 40
0.0
 40
0.0
 40
0.0
 40
0.0963087956
 40
0.2094597407
 40
0.3356076479
 40
0.4705858084
 40
0.747396585
 40
0.8792887964
 40
1.0
 40
1.0
 40
1.0
 40
1.0
 10
26.7553166184
 20
18.705364819
 30
0.0
 10
26.75048578
 20
18.7130668837
 30
0.0
 10
26.7389343865
 20
18.7291611819
 30
0.0
 10
26.7185328942
 20
18.7534236277
 30
0.0
 10
26.694176105
 20
18.7790480297
 30
0.0
 10
26.65732212
 20
18.8140042632
 30
0.0
 10
26.6176575295
 20
18.8467253111
 30
0.0
 10
26.5768638655
 20
18.875623665
 30
0.0
 10
26.5566519465
 20
18.8883147318
 30
0.0
 10
26.5467832619
 20
18.8940122906
 30
0.0
  0
SPLINE
  5
38F
100
AcDbEntity
  8
0
100
AcDbSpline
 62
7
  6
BYLAYER
 70
0
 71
3
 72
11
 73
7
 74
0
 42
0.0000001
 43
0.0000001
 44
0.0000000001
 40
0.0
 40
0.0
 40
0.0
 40
0.0
 40
0.2028340761
 40
0.4637219372
 40
0.7437978103
 40
1.0
 40
1.0
 40
1.0
 40
1.0
 10
25.9653947965
 20
17.7858557378
 30
0.0
 10
25.9495977938
 20
17.796296481
 30
0.0
 10
25.9130832539
 20
17.819558926
 30
0.0
 10
25.8540413807
 20
17.856105038
 30
0.0
 10
25.7903319897
 20
17.8945702454
 30
0.0
 10
25.7471939848
 20
17.9199810269
 30
0.0
 10
25.7264805299
 20
17.9319396751
 30
0.0
  0
SPLINE
  5
390
100
AcDbEntity
  8
0
100
AcDbSpline
 62
7
  6
BYLAYER
 70
0
 71
3
 72
11
 73
7
 74
0
 42
0.0000001
 43
0.0000001
 44
0.0000000001
 40
0.0
 40
0.0
 40
0.0
 40
0.0
 40
0.2562017811
 40
0.5362708669
 40
0.797156934
 40
1.0
 40
1.0
 40
1.0
 40
1.0
 10
24.8393350884
 20
16.3953501669
 30
0.0
 10
24.8600485053
 20
16.3833915406
 30
0.0
 10
24.9036236158
 20
16.3587392321
 30
0.0
 10
24.9687895891
 20
16.3227986326
 30
0.0
 10
25.0299602968
 20
16.289939714
 30
0.0
 10
25.0683637602
 20
16.2699476223
 30
0.0
 10
25.0853047485
 20
16.2614865976
 30
0.0
  0
SPLINE
  5
391
100
AcDbEntity
  8
0
100
AcDbSpline
 62
7
  6
BYLAYER
 70
0
 71
3
 72
12
 73
8
 74
0
 42
0.0000001
 43
0.0000001
 44
0.0000000001
 40
0.0
 40
0.0
 40
0.0
 40
0.0
 40
0.3692829548
 40
0.6565275094
 40
0.7687924908
 40
0.8614019044
 40
1.0
 40
1.0
 40
1.0
 40
1.0
 10
30.4630390353
 20
14.6014010748
 30
0.0
 10
30.4686449279
 20
14.6005927145
 30
0.0
 10
30.4786645403
 20
14.5994967615
 30
0.0
 10
30.4905000908
 20
14.5994357208
 30
0.0
 10
30.4979923685
 20
14.6006400792
 30
0.0
 10
30.5029904976
 20
14.602189894
 30
0.0
 10
30.5061458704
 20
14.6044503212
 30
0.0
 10
30.5071191834
 20
14.6063401528
 30
0.0
  0
SPLINE
  5
392
100
AcDbEntity
  8
0
100
AcDbSpline
 62
7
  6
BYLAYER
 70
0
 71
3
 72
18
 73
14
 74
0
 42
0.0000001
 43
0.0000001
 44
0.0000000001
 40
0.0
 40
0.0
 40
0.0
 40
0.0
 40
0.2193216683
 40
0.4167153
 40
0.5887217131
 40
0.7326432542
 40
0.8467953341
 40
0.892213346
 40
0.9296677083
 40
0.9591084153
 40
0.9805129129
 40
0.9939422685
 40
1.0
 40
1.0
 40
1.0
 40
1.0
 10
30.6471273162
 20
15.0909217009
 30
0.0
 10
30.6524638335
 20
15.087840731
 30
0.0
 10
30.6625890356
 20
15.0819619542
 30
0.0
 10
30.676842994
 20
15.0735704083
 30
0.0
 10
30.6892156337
 20
15.0661585078
 30
0.0
 10
30.6995148684
 20
15.0598406473
 30
0.0
 10
30.7067191516
 20
15.0552733005
 30
0.0
 10
30.7113295756
 20
15.0522161542
 30
0.0
 10
30.7139316694
 20
15.0504159536
 30
0.0
 10
30.7159180936
 20
15.0489658512
 30
0.0
 10
30.7173598755
 20
15.047793432
 30
0.0
 10
30.7181233113
 20
15.0470681288
 30
0.0
 10
30.7185132584
 20
15.0465135919
 30
0.0
 10
30.7184454843
 20
15.0463574706
 30
0.0
  0
SPLINE
  5
393
100
AcDbEntity
  8
0
100
AcDbSpline
 62
7
  6
BYLAYER
 70
0
 71
3
 72
14
 73
10
 74
0
 42
0.0000001
 43
0.0000001
 44
0.0000000001
 40
0.0
 40
0.0
 40
0.0
 40
0.0
 40
0.120712097
 40
0.2526035268
 40
0.5294080414
 40
0.664383282
 40
0.7905321061
 40
0.9036879891
 40
1.0
 40
1.0
 40
1.0
 40
1.0
 10
24.4163094658
 20
15.2039029472
 30
0.0
 10
24.4261782053
 20
15.1982053567
 30
0.0
 10
24.4472751197
 20
15.1870472517
 30
0.0
 10
24.4926982591
 20
15.1661688267
 30
0.0
 10
24.5408669085
 20
15.1481793858
 30
0.0
 10
24.5895660065
 20
15.1337411512
 30
0.0
 10
24.6239358924
 20
15.1254592745
 30
0.0
 10
24.6551492946
 20
15.1199220614
 30
0.0
 10
24.6748637349
 20
15.1179647911
 30
0.0
 10
24.6839496185
 20
15.117632018
 30
0.0
  0
SPLINE
  5
394
100
AcDbEntity
  8
0
100
AcDbSpline
 62
7
  6
BYLAYER
 70
0
 71
3
 72
11
 73
7
 74
0
 42
0.0000001
 43
0.0000001
 44
0.0000000001
 40
0.0
 40
0.0
 40
0.0
 40
0.0
 40
0.3141511214
 40
0.5816667979
 40
0.8057507551
 40
1.0
 40
1.0
 40
1.0
 40
1.0
 10
30.946453835
 20
15.7379254787
 30
0.0
 10
30.953252986
 20
15.7394506333
 30
0.0
 10
30.9657042404
 20
15.7430125806
 30
0.0
 10
30.9819469076
 20
15.7507312826
 30
0.0
 10
30.9939269462
 20
15.7604194001
 30
0.0
 10
30.9988653403
 20
15.7686049799
 30
0.0
 10
31.0002178518
 20
15.7726957874
 30
0.0
  0
SPLINE
  5
395
100
AcDbEntity
  8
0
100
AcDbSpline
 62
7
  6
BYLAYER
 70
0
 71
3
 72
14
 73
10
 74
0
 42
0.0000001
 43
0.0000001
 44
0.0000000001
 40
0.0
 40
0.0
 40
0.0
 40
0.0
 40
0.367421022
 40
0.523218927
 40
0.6580238111
 40
0.7714811762
 40
0.864105179
 40
0.9383402254
 40
1.0
 40
1.0
 40
1.0
 40
1.0
 10
31.0701529388
 20
16.2823689206
 30
0.0
 10
31.0799481972
 20
16.2767137535
 30
0.0
 10
31.0936342517
 20
16.2681535147
 30
0.0
 10
31.1097752132
 20
16.2558923978
 30
0.0
 10
31.119081219
 20
16.2476155332
 30
0.0
 10
31.1261854828
 20
16.2398576009
 30
0.0
 10
31.1310265771
 20
16.2326594773
 30
0.0
 10
31.1335844354
 20
16.2260115965
 30
0.0
 10
31.1335816787
 20
16.2216770033
 30
0.0
 10
31.1331034635
 20
16.2198401252
 30
0.0
  0
SPLINE
  5
396
100
AcDbEntity
  8
0
100
AcDbSpline
 62
7
  6
BYLAYER
 70
0
 71
3
 72
11
 73
7
 74
0
 42
0.0000001
 43
0.0000001
 44
0.0000000001
 40
0.0
 40
0.0
 40
0.0
 40
0.0
 40
0.2890157104
 40
0.5495610013
 40
0.7837601342
 40
1.0
 40
1.0
 40
1.0
 40
1.0
 10
31.2212119778
 20
16.8692407799
 30
0.0
 10
31.2292307758
 20
16.8735470616
 30
0.0
 10
31.2439269502
 20
16.8828560387
 30
0.0
 10
31.2621704238
 20
16.8997332813
 30
0.0
 10
31.2748283125
 20
16.9184867754
 30
0.0
 10
31.2792000394
 20
16.9322571827
 30
0.0
 10
31.2801706314
 20
16.9389976745
 30
0.0
  0
SPLINE
  5
397
100
AcDbEntity
  8
0
100
AcDbSpline
 62
7
  6
BYLAYER
 70
0
 71
3
 72
13
 73
9
 74
0
 42
0.0000001
 43
0.0000001
 44
0.0000000001
 40
0.0
 40
0.0
 40
0.0
 40
0.0
 40
0.3173189964
 40
0.5870606598
 40
0.704014202
 40
0.8102972044
 40
0.9079489839
 40
1.0
 40
1.0
 40
1.0
 40
1.0
 10
31.2664543431
 20
17.4370683033
 30
0.0
 10
31.2755144669
 20
17.4318375567
 30
0.0
 10
31.2917032943
 20
17.4211072302
 30
0.0
 10
31.3087121553
 20
17.4050164393
 30
0.0
 10
31.3181146714
 20
17.3916952451
 30
0.0
 10
31.3228270812
 20
17.3821643601
 30
0.0
 10
31.325453037
 20
17.3726996804
 30
0.0
 10
31.3257825071
 20
17.3663898396
 30
0.0
 10
31.3255783737
 20
17.3633618884
 30
0.0
  0
SPLINE
  5
398
100
AcDbEntity
  8
0
100
AcDbSpline
 62
7
  6
BYLAYER
 70
0
 71
3
 72
14
 73
10
 74
0
 42
0.0000001
 43
0.0000001
 44
0.0000000001
 40
0.0
 40
0.0
 40
0.0
 40
0.0
 40
0.1173488319
 40
0.2450636695
 40
0.514885828
 40
0.6488884783
 40
0.7766698337
 40
0.8947626423
 40
1.0
 40
1.0
 40
1.0
 40
1.0
 10
24.2200080615
 20
14.0492035645
 30
0.0
 10
24.2298187854
 20
14.0435394686
 30
0.0
 10
24.2511142265
 20
14.0330849969
 30
0.0
 10
24.2978001952
 20
14.015869133
 30
0.0
 10
24.3482193026
 20
14.00476565
 30
0.0
 10
24.3993562401
 20
13.9999852886
 30
0.0
 10
24.4360893823
 20
13.9998596719
 30
0.0
 10
24.4698798484
 20
14.0031623658
 30
0.0
 10
24.4910156068
 20
14.0078254585
 30
0.0
 10
24.5007171445
 20
14.0108403101
 30
0.0
  0
SPLINE
  5
399
100
AcDbEntity
  8
0
100
AcDbSpline
 62
7
  6
BYLAYER
 70
0
 71
3
 72
11
 73
7
 74
0
 42
0.0000001
 43
0.0000001
 44
0.0000000001
 40
0.0
 40
0.0
 40
0.0
 40
0.0
 40
0.277453303
 40
0.5354560316
 40
0.7744898474
 40
1.0
 40
1.0
 40
1.0
 40
1.0
 10
31.2685891502
 20
17.9182497103
 30
0.0
 10
31.2778631701
 20
17.926076366
 30
0.0
 10
31.2945406671
 20
17.9427371968
 30
0.0
 10
31.3134659634
 20
17.9711415648
 30
0.0
 10
31.3245165996
 20
18.0010977032
 30
0.0
 10
31.3261227738
 20
18.0216871513
 30
0.0
 10
31.325397397
 20
18.0315237927
 30
0.0
  0
SPLINE
  5
39A
100
AcDbEntity
  8
0
100
AcDbSpline
 62
7
  6
BYLAYER
 70
0
 71
3
 72
11
 73
7
 74
0
 42
0.0000001
 43
0.0000001
 44
0.0000000001
 40
0.0
 40
0.0
 40
0.0
 40
0.0
 40
0.2827987929
 40
0.5416675393
 40
0.778448618
 40
1.0
 40
1.0
 40
1.0
 40
1.0
 10
31.2226539128
 20
18.4763289944
 30
0.0
 10
31.2303008109
 20
18.4719141556
 30
0.0
 10
31.244358848
 20
18.4623547265
 30
0.0
 10
31.2618076671
 20
18.4452074918
 30
0.0
 10
31.2740836365
 20
18.4262371216
 30
0.0
 10
31.2785912032
 20
18.4124335503
 30
0.0
 10
31.2797652791
 20
18.4056164142
 30
0.0
  0
SPLINE
  5
39B
100
AcDbEntity
  8
0
100
AcDbSpline
 62
7
  6
BYLAYER
 70
0
 71
3
 72
13
 73
9
 74
0
 42
0.0000001
 43
0.0000001
 44
0.0000000001
 40
0.0
 40
0.0
 40
0.0
 40
0.0
 40
0.2647601806
 40
0.5265183816
 40
0.6525776526
 40
0.7735709012
 40
0.8893001964
 40
1.0
 40
1.0
 40
1.0
 40
1.0
 10
30.0918754489
 20
19.9131178159
 30
0.0
 10
30.1018228862
 20
19.9372430856
 30
0.0
 10
30.1140461669
 20
19.9886406416
 30
0.0
 10
30.1093986086
 20
20.0539399132
 30
0.0
 10
30.0934319166
 20
20.1017213102
 30
0.0
 10
30.076028681
 20
20.1332173049
 30
0.0
 10
30.0536680704
 20
20.1594624708
 30
0.0
 10
30.0356551605
 20
20.173031157
 30
0.0
 10
30.0262059724
 20
20.1784865248
 30
0.0
  0
SPLINE
  5
39C
100
AcDbEntity
  8
0
100
AcDbSpline
 62
7
  6
BYLAYER
 70
0
 71
3
 72
11
 73
7
 74
0
 42
0.0000001
 43
0.0000001
 44
0.0000000001
 40
0.0
 40
0.0
 40
0.0
 40
0.0
 40
0.2718916678
 40
0.5294118029
 40
0.7710491493
 40
1.0
 40
1.0
 40
1.0
 40
1.0
 10
31.0853566762
 20
18.8134640449
 30
0.0
 10
31.0958764751
 20
18.8259964805
 30
0.0
 10
31.1139374741
 20
18.8525954099
 30
0.0
 10
31.1307957148
 20
18.8963126479
 30
0.0
 10
31.1355180036
 20
18.9404245655
 30
0.0
 10
31.1299629719
 20
18.9687668327
 30
0.0
 10
31.1250852234
 20
18.98165276
 30
0.0
  0
SPLINE
  5
39D
100
AcDbEntity
  8
0
100
AcDbSpline
 62
7
  6
BYLAYER
 70
0
 71
3
 72
11
 73
7
 74
0
 42
0.0000001
 43
0.0000001
 44
0.0000000001
 40
0.0
 40
0.0
 40
0.0
 40
0.0
 40
0.2499818411
 40
0.4374608822
 40
0.6249379526
 40
1.0
 40
1.0
 40
1.0
 40
1.0
 10
29.9846444042
 20
19.2987995265
 30
0.0
 10
29.9876961708
 20
19.2970375378
 30
0.0
 10
29.9929556341
 20
19.2938159548
 30
0.0
 10
30.0005674574
 20
19.2893810671
 30
0.0
 10
30.0097868036
 20
19.2842015832
 30
0.0
 10
30.0164449673
 20
19.2798859563
 30
0.0
 10
30.0209418047
 20
19.2771053093
 30
0.0
  0
SPLINE
  5
39E
100
AcDbEntity
  8
0
100
AcDbSpline
 62
7
  6
BYLAYER
 70
0
 71
3
 72
12
 73
8
 74
0
 42
0.0000001
 43
0.0000001
 44
0.0000000001
 40
0.0
 40
0.0
 40
0.0
 40
0.0
 40
0.2689501047
 40
0.5276632775
 40
0.7707603613
 40
0.8868396393
 40
1.0
 40
1.0
 40
1.0
 40
1.0
 10
30.6840015462
 20
19.493876406
 30
0.0
 10
30.6953593625
 20
19.512663764
 30
0.0
 10
30.7129042239
 20
19.5526739917
 30
0.0
 10
30.7216645907
 20
19.6158008037
 30
0.0
 10
30.7127849934
 20
19.6665432962
 30
0.0
 10
30.6959817508
 20
19.7014613359
 30
0.0
 10
30.6846886021
 20
19.716568742
 30
0.0
 10
30.6784267204
 20
19.7233592311
 30
0.0
  0
SPLINE
  5
39F
100
AcDbEntity
  8
0
100
AcDbSpline
 62
7
  6
BYLAYER
 70
0
 71
3
 72
11
 73
7
 74
0
 42
0.0000001
 43
0.0000001
 44
0.0000000001
 40
0.0
 40
0.0
 40
0.0
 40
0.0
 40
0.2078837077
 40
0.445819511
 40
0.7124403029
 40
1.0
 40
1.0
 40
1.0
 40
1.0
 10
24.9516209716
 20
18.3682814719
 30
0.0
 10
24.9626626227
 20
18.3689412932
 30
0.0
 10
24.9861251645
 20
18.3745527688
 30
0.0
 10
25.019909954
 20
18.3923133927
 30
0.0
 10
25.0529658605
 20
18.4188024791
 30
0.0
 10
25.0728569792
 20
18.440742133
 30
0.0
 10
25.0823174572
 20
18.452767749
 30
0.0
  0
SPLINE
  5
3A0
100
AcDbEntity
  8
0
100
AcDbSpline
 62
7
  6
BYLAYER
 70
0
 71
3
 72
14
 73
10
 74
0
 42
0.0000001
 43
0.0000001
 44
0.0000000001
 40
0.0
 40
0.0
 40
0.0
 40
0.0
 40
0.0946508445
 40
0.1943610707
 40
0.302631662
 40
0.4215713276
 40
0.5518806159
 40
0.69302298
 40
1.0
 40
1.0
 40
1.0
 40
1.0
 10
25.3177570354
 20
16.1452523047
 30
0.0
 10
25.3233097726
 20
16.1420400953
 30
0.0
 10
25.3337861364
 20
16.1337137133
 30
0.0
 10
25.3459076438
 20
16.116899682
 30
0.0
 10
25.3542923203
 20
16.0961994183
 30
0.0
 10
25.3588938064
 20
16.0722842925
 30
0.0
 10
25.359640378
 20
16.045736015
 30
0.0
 10
25.3554161857
 20
16.006676993
 30
0.0
 10
25.3467115567
 20
15.9772479781
 30
0.0
 10
25.3389825178
 20
15.9579316757
 30
0.0
  0
SPLINE
  5
3A1
100
AcDbEntity
  8
0
100
AcDbSpline
 62
7
  6
BYLAYER
 70
0
 71
3
 72
12
 73
8
 74
0
 42
0.0000001
 43
0.0000001
 44
0.0000000001
 40
0.0
 40
0.0
 40
0.0
 40
0.0
 40
0.1006531473
 40
0.2046327315
 40
0.4324970902
 40
0.6979132469
 40
1.0
 40
1.0
 40
1.0
 40
1.0
 10
24.9939025432
 20
15.0981934521
 30
0.0
 10
24.9983617299
 20
15.0956257979
 30
0.0
 10
25.0068374726
 20
15.0893065572
 30
0.0
 10
25.0212590382
 20
15.0723374158
 30
0.0
 10
25.0331779961
 20
15.0434338169
 30
0.0
 10
25.0368759166
 20
15.0025545846
 30
0.0
 10
25.0331279938
 20
14.9735618174
 30
0.0
 10
25.0298504837
 20
14.9584703081
 30
0.0
  0
SPLINE
  5
3A2
100
AcDbEntity
  8
0
100
AcDbSpline
 62
7
  6
BYLAYER
 70
0
 71
3
 72
11
 73
7
 74
0
 42
0.0000001
 43
0.0000001
 44
0.0000000001
 40
0.0
 40
0.0
 40
0.0
 40
0.0
 40
0.216701338
 40
0.4494659605
 40
0.7095347634
 40
1.0
 40
1.0
 40
1.0
 40
1.0
 10
24.8738649256
 20
14.1013306119
 30
0.0
 10
24.8806074348
 20
14.0974386157
 30
0.0
 10
24.8932138968
 20
14.0867563544
 30
0.0
 10
24.9064791519
 20
14.0645662836
 30
0.0
 10
24.9141182379
 20
14.0372178971
 30
0.0
 10
24.9154247456
 20
14.0173524646
 30
0.0
 10
24.9152685336
 20
14.0069184199
 30
0.0
  0
SPLINE
  5
3A3
100
AcDbEntity
  8
0
100
AcDbSpline
 62
7
  6
BYLAYER
 70
0
 71
3
 72
14
 73
10
 74
0
 42
0.0000001
 43
0.0000001
 44
0.0000000001
 40
0.0
 40
0.0
 40
0.0
 40
0.0
 40
0.1150790526
 40
0.2300096392
 40
0.3469872047
 40
0.4678617277
 40
0.5936247187
 40
0.72469142
 40
1.0
 40
1.0
 40
1.0
 40
1.0
 10
30.4585552642
 20
19.9272907077
 30
0.0
 10
30.4661829657
 20
19.921274755
 30
0.0
 10
30.4801357016
 20
19.9074793976
 30
0.0
 10
30.4957280463
 20
19.8823829901
 30
0.0
 10
30.5054087841
 20
19.8539574213
 30
0.0
 10
30.5089049753
 20
19.8232457355
 30
0.0
 10
30.5062318601
 20
19.7912754683
 30
0.0
 10
30.4944666959
 20
19.7477389204
 30
0.0
 10
30.4772167091
 20
19.717235559
 30
0.0
 10
30.4630390353
 20
19.6988202924
 30
0.0
  0
SPLINE
  5
3A4
100
AcDbEntity
  8
0
100
AcDbSpline
 62
7
  6
BYLAYER
 70
0
 71
3
 72
9
 73
5
 74
0
 42
0.0000001
 43
0.0000001
 44
0.0000000001
 40
0.0
 40
0.0
 40
0.0
 40
0.0
 40
0.2542758482
 40
1.0
 40
1.0
 40
1.0
 40
1.0
 10
31.2212119778
 20
16.8692407799
 30
0.0
 10
31.2267308548
 20
16.9065944655
 30
0.0
 10
31.2470002788
 20
17.0537034224
 30
0.0
 10
31.2614438461
 20
17.2016282753
 30
0.0
 10
31.2685891502
 20
17.3121352559
 30
0.0
  0
SPLINE
  5
3A5
100
AcDbEntity
  8
0
100
AcDbSpline
 62
7
  6
BYLAYER
 70
0
 71
3
 72
13
 73
9
 74
0
 42
0.0000001
 43
0.0000001
 44
0.0000000001
 40
0.0
 40
0.0
 40
0.0
 40
0.0
 40
0.1140265967
 40
0.2281584704
 40
0.344437254
 40
0.464531506
 40
0.7202527337
 40
1.0
 40
1.0
 40
1.0
 40
1.0
 10
30.9893579894
 20
19.2817011893
 30
0.0
 10
30.9925698302
 20
19.2756905108
 30
0.0
 10
30.9978496424
 20
19.2630042427
 30
0.0
 10
31.0018604322
 20
19.2426834509
 30
0.0
 10
31.0019171076
 20
19.2216096291
 30
0.0
 10
30.996649527
 20
19.1925290362
 30
0.0
 10
30.979823103
 20
19.1564046098
 30
0.0
 10
30.9586947996
 20
19.1318806127
 30
0.0
 10
30.946453835
 20
19.1204918861
 30
0.0
  0
SPLINE
  5
3A6
100
AcDbEntity
  8
0
100
AcDbSpline
 62
7
  6
BYLAYER
 70
0
 71
3
 72
11
 73
7
 74
0
 42
0.0000001
 43
0.0000001
 44
0.0000000001
 40
0.0
 40
0.0
 40
0.0
 40
0.0
 40
0.2202101299
 40
0.452084667
 40
0.7102078024
 40
1.0
 40
1.0
 40
1.0
 40
1.0
 10
31.2797652791
 20
18.4056164142
 30
0.0
 10
31.2812844493
 20
18.3967955284
 30
0.0
 10
31.2809451872
 20
18.377904138
 30
0.0
 10
31.269735374
 20
18.3507157
 30
0.0
 10
31.2492153533
 20
18.3260776661
 30
0.0
 10
31.2312334312
 20
18.3126280206
 30
0.0
 10
31.2212119778
 20
18.3064380664
 30
0.0
  0
SPLINE
  5
3A7
100
AcDbEntity
  8
0
100
AcDbSpline
 62
7
  6
BYLAYER
 70
0
 71
3
 72
9
 73
5
 74
0
 42
0.0000001
 43
0.0000001
 44
0.0000000001
 40
0.0
 40
0.0
 40
0.0
 40
0.0
 40
0.2446721529
 40
1.0
 40
1.0
 40
1.0
 40
1.0
 10
26.4199754954
 20
11.2803579009
 30
0.0
 10
26.4474637395
 20
11.2810441435
 30
0.0
 10
26.5597519617
 20
11.2859930824
 30
0.0
 10
26.6716306634
 20
11.299353319
 30
0.0
 10
26.7553166184
 20
11.3135730331
 30
0.0
  0
SPLINE
  5
3A8
100
AcDbEntity
  8
0
100
AcDbSpline
 62
7
  6
BYLAYER
 70
0
 71
3
 72
12
 73
8
 74
0
 42
0.0000001
 43
0.0000001
 44
0.0000000001
 40
0.0
 40
0.0
 40
0.0
 40
0.0
 40
0.100587745
 40
0.2029885703
 40
0.4258405854
 40
0.6893651184
 40
1.0
 40
1.0
 40
1.0
 40
1.0
 10
31.3255783737
 20
17.3633618884
 30
0.0
 10
31.3253953906
 20
17.3606476634
 30
0.0
 10
31.3244337047
 20
17.3551905586
 30
0.0
 10
31.3199948386
 20
17.3444755962
 30
0.0
 10
31.3094572376
 20
17.3320451047
 30
0.0
 10
31.2911642006
 20
17.3202961771
 30
0.0
 10
31.276611787
 20
17.314628372
 30
0.0
 10
31.2685891502
 20
17.3121352559
 30
0.0
  0
SPLINE
  5
3A9
100
AcDbEntity
  8
0
100
AcDbSpline
 62
7
  6
BYLAYER
 70
0
 71
3
 72
13
 73
9
 74
0
 42
0.0000001
 43
0.0000001
 44
0.0000000001
 40
0.0
 40
0.0
 40
0.0
 40
0.0
 40
0.075906808
 40
0.1578337778
 40
0.2523204228
 40
0.3634637873
 40
0.6428827766
 40
1.0
 40
1.0
 40
1.0
 40
1.0
 10
31.1331034635
 20
16.2198401252
 30
0.0
 10
31.132766666
 20
16.2185464485
 30
0.0
 10
31.1315689149
 20
16.2159631377
 30
0.0
 10
31.1284174052
 20
16.2127408361
 30
0.0
 10
31.1240400524
 20
16.2101160924
 30
0.0
 10
31.1159960008
 20
16.2071418285
 30
0.0
 10
31.1028647587
 20
16.2051972252
 30
0.0
 10
31.0916416741
 20
16.2051133581
 30
0.0
 10
31.0853566762
 20
16.205343548
 30
0.0
  0
SPLINE
  5
3AA
100
AcDbEntity
  8
0
100
AcDbSpline
 62
7
  6
BYLAYER
 70
0
 71
3
 72
16
 73
12
 74
0
 42
0.0000001
 43
0.0000001
 44
0.0000000001
 40
0.0
 40
0.0
 40
0.0
 40
0.0
 40
0.0068866057
 40
0.0199246775
 40
0.0687315923
 40
0.148796307
 40
0.2600614693
 40
0.4020677662
 40
0.5736325439
 40
0.7733992034
 40
1.0
 40
1.0
 40
1.0
 40
1.0
 10
30.7184454843
 20
15.0463574706
 30
0.0
 10
30.7184109235
 20
15.0462778579
 30
0.0
 10
30.7181296143
 20
15.0461787572
 30
0.0
 10
30.7172938476
 20
15.0462986544
 30
0.0
 10
30.71554999
 20
15.0468111081
 30
0.0
 10
30.712741806
 20
15.0479036301
 30
0.0
 10
30.7088717145
 20
15.0495547515
 30
0.0
 10
30.704000379
 20
15.0517717725
 30
0.0
 10
30.6981497854
 20
15.0545354038
 30
0.0
 10
30.6913711788
 20
15.0578268692
 30
0.0
 10
30.686556433
 20
15.0602129531
 30
0.0
 10
30.6840015462
 20
15.0614889684
 30
0.0
  0
SPLINE
  5
3AB
100
AcDbEntity
  8
0
100
AcDbSpline
 62
7
  6
BYLAYER
 70
0
 71
3
 72
14
 73
10
 74
0
 42
0.0000001
 43
0.0000001
 44
0.0000000001
 40
0.0
 40
0.0
 40
0.0
 40
0.0
 40
0.3071129349
 40
0.4484655877
 40
0.5789662636
 40
0.69800206
 40
0.8062212379
 40
0.9057154734
 40
1.0
 40
1.0
 40
1.0
 40
1.0
 10
30.1976112646
 20
19.3540582948
 30
0.0
 10
30.1847004758
 20
19.3372885749
 30
0.0
 10
30.163412901
 20
19.314435304
 30
0.0
 10
30.131353763
 20
19.2905415514
 30
0.0
 10
30.1076806744
 20
19.2774751134
 30
0.0
 10
30.084334604
 20
19.2691680056
 30
0.0
 10
30.0618764458
 20
19.2658648458
 30
0.0
 10
30.040937444
 20
19.2678770708
 30
0.0
 10
30.0283000109
 20
19.2728264179
 30
0.0
 10
30.022671431
 20
19.2760722013
 30
0.0
  0
SPLINE
  5
3AC
100
AcDbEntity
  8
0
100
AcDbSpline
 62
7
  6
BYLAYER
 70
0
 71
3
 72
13
 73
9
 74
0
 42
0.0000001
 43
0.0000001
 44
0.0000000001
 40
0.0
 40
0.0
 40
0.0
 40
0.0
 40
0.1958034777
 40
0.309464475
 40
0.4333773069
 40
0.5665152216
 40
0.7071099847
 40
1.0
 40
1.0
 40
1.0
 40
1.0
 10
25.3389827498
 20
12.4255738665
 30
0.0
 10
25.3479370168
 20
12.4135349271
 30
0.0
 10
25.3565901289
 20
12.3903690002
 30
0.0
 10
25.3598035995
 20
12.3573124971
 30
0.0
 10
25.3583537558
 20
12.3288214633
 30
0.0
 10
25.3528889687
 20
12.2987760656
 30
0.0
 10
25.3403512564
 20
12.2571398397
 30
0.0
 10
25.3258198305
 20
12.2269434968
 30
0.0
 10
25.3142087263
 20
12.2077371668
 30
0.0
  0
SPLINE
  5
3AD
100
AcDbEntity
  8
0
100
AcDbSpline
 62
7
  6
BYLAYER
 70
0
 71
3
 72
9
 73
5
 74
0
 42
0.0000001
 43
0.0000001
 44
0.0000000001
 40
0.0
 40
0.0
 40
0.0
 40
0.0
 40
0.2556280992
 40
1.0
 40
1.0
 40
1.0
 40
1.0
 10
24.6839496185
 20
12.5095115211
 30
0.0
 10
24.6939426498
 20
12.4825775137
 30
0.0
 10
24.7347932042
 20
12.3778793432
 30
0.0
 10
24.7828476867
 20
12.2759523197
 30
0.0
 10
24.8228524597
 20
12.2024836799
 30
0.0
  0
SPLINE
  5
3AE
100
AcDbEntity
  8
0
100
AcDbSpline
 62
7
  6
BYLAYER
 70
0
 71
3
 72
11
 73
7
 74
0
 42
0.0000001
 43
0.0000001
 44
0.0000000001
 40
0.0
 40
0.0
 40
0.0
 40
0.0
 40
0.215750946
 40
0.4481162643
 40
0.708549552
 40
1.0
 40
1.0
 40
1.0
 40
1.0
 10
27.2319195909
 20
11.9142224646
 30
0.0
 10
27.2388110495
 20
11.9102435782
 30
0.0
 10
27.2516828117
 20
11.8992470496
 30
0.0
 10
27.2650485316
 20
11.8763456127
 30
0.0
 10
27.2725302853
 20
11.8481296673
 30
0.0
 10
27.2735779557
 20
11.8276659778
 30
0.0
 10
27.2732585845
 20
11.8169210491
 30
0.0
  0
SPLINE
  5
3AF
100
AcDbEntity
  8
0
100
AcDbSpline
 62
7
  6
BYLAYER
 70
0
 71
3
 72
13
 73
9
 74
0
 42
0.0000001
 43
0.0000001
 44
0.0000000001
 40
0.0
 40
0.0
 40
0.0
 40
0.0
 40
0.1007256376
 40
0.2115248161
 40
0.331391865
 40
0.4588267758
 40
0.7280598876
 40
1.0
 40
1.0
 40
1.0
 40
1.0
 10
25.0298506056
 20
13.0680823196
 30
0.0
 10
25.0321667364
 20
13.060091966
 30
0.0
 10
25.0352600463
 20
13.0427804487
 30
0.0
 10
25.0356842078
 20
13.0153228082
 30
0.0
 10
25.0320408592
 20
12.9858852298
 30
0.0
 10
25.0217981637
 20
12.9443877211
 30
0.0
 10
24.9999465189
 20
12.8932450423
 30
0.0
 10
24.9747408527
 20
12.8559366245
 30
0.0
 10
24.9603004672
 20
12.8387335199
 30
0.0
  0
SPLINE
  5
3B0
100
AcDbEntity
  8
0
100
AcDbSpline
 62
7
  6
BYLAYER
 70
0
 71
3
 72
12
 73
8
 74
0
 42
0.0000001
 43
0.0000001
 44
0.0000000001
 40
0.0
 40
0.0
 40
0.0
 40
0.0
 40
0.1002365908
 40
0.2038894972
 40
0.4315525288
 40
0.6973507936
 40
1.0
 40
1.0
 40
1.0
 40
1.0
 10
26.4762365658
 20
11.8216698051
 30
0.0
 10
26.4807700054
 20
11.8190594006
 30
0.0
 10
26.4893840717
 20
11.812615839
 30
0.0
 10
26.5039791019
 20
11.7952423994
 30
0.0
 10
26.5158701443
 20
11.7656171623
 30
0.0
 10
26.5191921758
 20
11.7238055061
 30
0.0
 10
26.515019417
 20
11.6942024046
 30
0.0
 10
26.5114839489
 20
11.6788081109
 30
0.0
  0
SPLINE
  5
3B1
100
AcDbEntity
  8
0
100
AcDbSpline
 62
7
  6
BYLAYER
 70
0
 71
3
 72
9
 73
5
 74
0
 42
0.0000001
 43
0.0000001
 44
0.0000000001
 40
0.0
 40
0.0
 40
0.0
 40
0.0
 40
0.2556025115
 40
1.0
 40
1.0
 40
1.0
 40
1.0
 10
24.5007171445
 20
13.4047258557
 30
0.0
 10
24.5030403276
 20
13.3714788164
 30
0.0
 10
24.5137492614
 20
13.2415270438
 30
0.0
 10
24.5310719055
 20
13.11209545
 30
0.0
 10
24.5480943169
 20
13.0165374996
 30
0.0
  0
SPLINE
  5
3B2
100
AcDbEntity
  8
0
100
AcDbSpline
 62
7
  6
BYLAYER
 70
0
 71
3
 72
14
 73
10
 74
0
 42
0.0000001
 43
0.0000001
 44
0.0000000001
 40
0.0
 40
0.0
 40
0.0
 40
0.0
 40
0.0942839645
 40
0.1937779501
 40
0.3019970758
 40
0.4210329831
 40
0.55153393
 40
0.6928868944
 40
1.0
 40
1.0
 40
1.0
 40
1.0
 10
25.8233547396
 20
12.0026078722
 30
0.0
 10
25.8289801436
 20
11.9993563494
 30
0.0
 10
25.8395854835
 20
11.9908866734
 30
0.0
 10
25.8517980517
 20
11.9737588269
 30
0.0
 10
25.8601669037
 20
11.9526574869
 30
0.0
 10
25.8646460746
 20
11.9282850603
 30
0.0
 10
25.8651669457
 20
11.9012496424
 30
0.0
 10
25.8605040451
 20
11.8615376919
 30
0.0
 10
25.8513562505
 20
11.8316746629
 30
0.0
 10
25.8432885248
 20
11.8121082106
 30
0.0
  0
SPLINE
  5
3B3
100
AcDbEntity
  8
0
100
AcDbSpline
 62
7
  6
BYLAYER
 70
0
 71
3
 72
12
 73
8
 74
0
 42
0.0000001
 43
0.0000001
 44
0.0000000001
 40
0.0
 40
0.0
 40
0.0
 40
0.0
 40
0.1112625879
 40
0.2309612446
 40
0.4867385371
 40
0.7497011572
 40
1.0
 40
1.0
 40
1.0
 40
1.0
 10
24.9152685364
 20
13.8873270684
 30
0.0
 10
24.9154139474
 20
13.8777823797
 30
0.0
 10
24.9141639006
 20
13.8579297226
 30
0.0
 10
24.9063363761
 20
13.8168295451
 30
0.0
 10
24.8869449019
 20
13.7651196713
 30
0.0
 10
24.8522748659
 20
13.7085841223
 30
0.0
 10
24.8220932582
 20
13.6759459122
 30
0.0
 10
24.8056820106
 20
13.6620959112
 30
0.0
  0
SPLINE
  5
3B4
100
AcDbEntity
  8
0
100
AcDbSpline
 62
7
  6
BYLAYER
 70
0
 71
3
 72
12
 73
8
 74
0
 42
0.0000001
 43
0.0000001
 44
0.0000000001
 40
0.0
 40
0.0
 40
0.0
 40
0.0
 40
0.2891518356
 40
0.5601160621
 40
0.6842525844
 40
0.7992253251
 40
1.0
 40
1.0
 40
1.0
 40
1.0
 10
28.136427028
 20
18.0472731297
 30
0.0
 10
28.1441391728
 20
18.0606310305
 30
0.0
 10
28.1568290122
 20
18.0878792857
 30
0.0
 10
28.1659129223
 20
18.1235162555
 30
0.0
 10
28.1679092192
 20
18.1507386768
 30
0.0
 10
28.1665233244
 20
18.1741698965
 30
0.0
 10
28.1616502125
 20
18.1908446237
 30
0.0
 10
28.1562952751
 20
18.2001198057
 30
0.0
  0
SPLINE
  5
3B5
100
AcDbEntity
  8
0
100
AcDbSpline
 62
7
  6
BYLAYER
 70
0
 71
3
 72
10
 73
6
 74
0
 42
0.0000001
 43
0.0000001
 44
0.0000000001
 40
0.0
 40
0.0
 40
0.0
 40
0.0
 40
0.2284562192
 40
0.4750701915
 40
1.0
 40
1.0
 40
1.0
 40
1.0
 10
28.0614273403
 20
17.9681000951
 30
0.0
 10
28.0686865585
 20
17.9722911817
 30
0.0
 10
28.0830287092
 20
17.9823499972
 30
0.0
 10
28.1098773166
 20
18.0074616811
 30
0.0
 10
28.1267970561
 20
18.0305934365
 30
0.0
 10
28.136427028
 20
18.0472731297
 30
0.0
  0
SPLINE
  5
3B6
100
AcDbEntity
  8
0
100
AcDbSpline
 62
7
  6
BYLAYER
 70
0
 71
3
 72
9
 73
5
 74
0
 42
0.0000001
 43
0.0000001
 44
0.0000000001
 40
0.0
 40
0.0
 40
0.0
 40
0.0
 40
0.2564561968
 40
1.0
 40
1.0
 40
1.0
 40
1.0
 10
26.793801925
 20
20.0232855367
 30
0.0
 10
26.794895664
 20
20.0265740141
 30
0.0
 10
26.798945141
 20
20.0394665521
 30
0.0
 10
26.80212848
 20
20.0526377227
 30
0.0
 10
26.803901244
 20
20.0625279035
 30
0.0
  0
SPLINE
  5
3B7
100
AcDbEntity
  8
0
100
AcDbSpline
 62
7
  6
BYLAYER
 70
0
 71
3
 72
9
 73
5
 74
0
 42
0.0000001
 43
0.0000001
 44
0.0000000001
 40
0.0
 40
0.0
 40
0.0
 40
0.0
 40
0.2542758482
 40
1.0
 40
1.0
 40
1.0
 40
1.0
 10
24.5480943169
 20
14.4537347861
 30
0.0
 10
24.5425754399
 20
14.4163811005
 30
0.0
 10
24.5223060159
 20
14.2692721436
 30
0.0
 10
24.5078624486
 20
14.1213472907
 30
0.0
 10
24.5007171445
 20
14.0108403101
 30
0.0
  0
SPLINE
  5
3B8
100
AcDbEntity
  8
0
100
AcDbSpline
 62
7
  6
BYLAYER
 70
0
 71
3
 72
12
 73
8
 74
0
 42
0.0000001
 43
0.0000001
 44
0.0000000001
 40
0.0
 40
0.0
 40
0.0
 40
0.0
 40
0.2517433195
 40
0.5151796024
 40
0.7704046498
 40
0.8894967091
 40
1.0
 40
1.0
 40
1.0
 40
1.0
 10
25.8933414243
 20
19.3089210284
 30
0.0
 10
25.9096525092
 20
19.3230345163
 30
0.0
 10
25.9395523883
 20
19.3560646068
 30
0.0
 10
25.9736860589
 20
19.4129587832
 30
0.0
 10
25.9925028818
 20
19.4647462335
 30
0.0
 10
25.9997888794
 20
19.505724123
 30
0.0
 10
26.0007523591
 20
19.525450973
 30
0.0
 10
26.0004610793
 20
19.5349144583
 30
0.0
  0
SPLINE
  5
3B9
100
AcDbEntity
  8
0
100
AcDbSpline
 62
7
  6
BYLAYER
 70
0
 71
3
 72
12
 73
8
 74
0
 42
0.0000001
 43
0.0000001
 44
0.0000000001
 40
0.0
 40
0.0
 40
0.0
 40
0.0
 40
0.2517456607
 40
0.5151826203
 40
0.7704067328
 40
0.8894978491
 40
1.0
 40
1.0
 40
1.0
 40
1.0
 10
25.0030451207
 20
14.8274779375
 30
0.0
 10
24.998978043
 20
14.8062952905
 30
0.0
 10
24.9853230533
 20
14.763886182
 30
0.0
 10
24.9531184325
 20
14.7058784997
 30
0.0
 10
24.917677984
 20
14.6636891104
 30
0.0
 10
24.8858334829
 20
14.6368905876
 30
0.0
 10
24.8692314912
 20
14.6261929426
 30
0.0
 10
24.8608903486
 20
14.6217135544
 30
0.0
  0
SPLINE
  5
3BA
100
AcDbEntity
  8
0
100
AcDbSpline
 62
7
  6
BYLAYER
 70
0
 71
3
 72
13
 73
9
 74
0
 42
0.0000001
 43
0.0000001
 44
0.0000000001
 40
0.0
 40
0.0
 40
0.0
 40
0.0
 40
0.2733817094
 40
0.5429715266
 40
0.6702000466
 40
0.7896499198
 40
0.8998852486
 40
1.0
 40
1.0
 40
1.0
 40
1.0
 10
25.1720092071
 20
18.5643461721
 30
0.0
 10
25.1862850125
 20
18.5817261116
 30
0.0
 10
25.2111078208
 20
18.6192547485
 30
0.0
 10
25.2324162535
 20
18.6705398613
 30
0.0
 10
25.2421344215
 20
18.7119713543
 30
0.0
 10
25.2453675912
 20
18.7412442249
 30
0.0
 10
25.2445271674
 20
18.7684568261
 30
0.0
 10
25.2411435079
 20
18.7855495622
 30
0.0
 10
25.2386864436
 20
18.7934110652
 30
0.0
  0
SPLINE
  5
3BB
100
AcDbEntity
  8
0
100
AcDbSpline
 62
7
  6
BYLAYER
 70
0
 71
3
 72
12
 73
8
 74
0
 42
0.0000001
 43
0.0000001
 44
0.0000000001
 40
0.0
 40
0.0
 40
0.0
 40
0.0
 40
0.3026484074
 40
0.5684460999
 40
0.796109457
 40
0.8997628377
 40
1.0
 40
1.0
 40
1.0
 40
1.0
 10
30.6471431703
 20
18.842019769
 30
0.0
 10
30.6355794572
 20
18.8312611425
 30
0.0
 10
30.6120296189
 20
18.8128464069
 30
0.0
 10
30.5741599003
 20
18.7948179739
 30
0.0
 10
30.5425591561
 20
18.7903032476
 30
0.0
 10
30.5202163629
 20
18.7942558301
 30
0.0
 10
30.5103292235
 20
18.7984937833
 30
0.0
 10
30.5058018908
 20
18.8011145108
 30
0.0
  0
SPLINE
  5
3BC
100
AcDbEntity
  8
0
100
AcDbSpline
 62
7
  6
BYLAYER
 70
0
 71
3
 72
13
 73
9
 74
0
 42
0.0000001
 43
0.0000001
 44
0.0000000001
 40
0.0
 40
0.0
 40
0.0
 40
0.0
 40
0.2941681866
 40
0.4349587048
 40
0.5680263947
 40
0.6916562114
 40
0.804906162
 40
1.0
 40
1.0
 40
1.0
 40
1.0
 10
24.5488001449
 20
17.6720239929
 30
0.0
 10
24.560197755
 20
17.6913141972
 30
0.0
 10
24.5743956022
 20
17.7215739844
 30
0.0
 10
24.5864283682
 20
17.7632001313
 30
0.0
 10
24.5914899569
 20
17.7931195234
 30
0.0
 10
24.5925234999
 20
17.8214022149
 30
0.0
 10
24.5887884414
 20
17.854097656
 30
0.0
 10
24.5796811822
 20
17.8768731071
 30
0.0
 10
24.5704910196
 20
17.8885499552
 30
0.0
  0
SPLINE
  5
3BD
100
AcDbEntity
  8
0
100
AcDbSpline
 62
7
  6
BYLAYER
 70
0
 71
3
 72
13
 73
9
 74
0
 42
0.0000001
 43
0.0000001
 44
0.0000000001
 40
0.0
 40
0.0
 40
0.0
 40
0.0
 40
0.1950928352
 40
0.3083421852
 40
0.4319715824
 40
0.5650391611
 40
0.7058299568
 40
1.0
 40
1.0
 40
1.0
 40
1.0
 10
24.2988975248
 20
17.4181336119
 30
0.0
 10
24.3136048026
 20
17.4160128472
 30
0.0
 10
24.3378823135
 20
17.419513064
 30
0.0
 10
24.368064588
 20
17.4326257915
 30
0.0
 10
24.3920410867
 20
17.4476619969
 30
0.0
 10
24.4154209975
 20
17.467005007
 30
0.0
 10
24.4454536543
 20
17.4982386938
 30
0.0
 10
24.4645602584
 20
17.5256642756
 30
0.0
 10
24.4755671378
 20
17.5451799996
 30
0.0
  0
SPLINE
  5
3BE
100
AcDbEntity
  8
0
100
AcDbSpline
 62
7
  6
BYLAYER
 70
0
 71
3
 72
11
 73
7
 74
0
 42
0.0000001
 43
0.0000001
 44
0.0000000001
 40
0.0
 40
0.0
 40
0.0
 40
0.0
 40
0.2875768989
 40
0.5542041613
 40
0.7921330389
 40
1.0
 40
1.0
 40
1.0
 40
1.0
 10
24.0661849056
 20
16.6927647724
 30
0.0
 10
24.0718709418
 20
16.7069752321
 30
0.0
 10
24.0809277935
 20
16.7351802507
 30
0.0
 10
24.0873384945
 20
16.7770647183
 30
0.0
 10
24.0858206346
 20
16.8152126929
 30
0.0
 10
24.0789404065
 20
16.8383408778
 30
0.0
 10
24.0739858951
 20
16.8482328622
 30
0.0
  0
SPLINE
  5
3BF
100
AcDbEntity
  8
0
100
AcDbSpline
 62
7
  6
BYLAYER
 70
0
 71
3
 72
13
 73
9
 74
0
 42
0.0000001
 43
0.0000001
 44
0.0000000001
 40
0.0
 40
0.0
 40
0.0
 40
0.0
 40
0.1001138671
 40
0.2103483735
 40
0.3297976346
 40
0.4570258488
 40
0.7266161807
 40
1.0
 40
1.0
 40
1.0
 40
1.0
 10
23.8493656192
 20
16.3870234511
 30
0.0
 10
23.8574023147
 20
16.3888262061
 30
0.0
 10
23.8738967091
 20
16.3944420315
 30
0.0
 10
23.8978834617
 20
16.4073202628
 30
0.0
 10
23.9216176712
 20
16.424756525
 30
0.0
 10
23.952639036
 20
16.4538883382
 30
0.0
 10
23.9863987384
 20
16.4979846049
 30
0.0
 10
24.0064878532
 20
16.5382461667
 30
0.0
 10
24.0144013497
 20
16.5592994176
 30
0.0
  0
SPLINE
  5
3C0
100
AcDbEntity
  8
0
100
AcDbSpline
 62
7
  6
BYLAYER
 70
0
 71
3
 72
12
 73
8
 74
0
 42
0.0000001
 43
0.0000001
 44
0.0000000001
 40
0.0
 40
0.0
 40
0.0
 40
0.0
 40
0.1105021827
 40
0.2295933542
 40
0.4848175886
 40
0.7482545614
 40
1.0
 40
1.0
 40
1.0
 40
1.0
 10
23.5880928434
 20
15.3565469125
 30
0.0
 10
23.5964340159
 20
15.3610263168
 30
0.0
 10
23.6130360663
 20
15.3717240061
 30
0.0
 10
23.6448806705
 20
15.3985226501
 30
0.0
 10
23.6803211928
 20
15.4407122342
 30
0.0
 10
23.7125258644
 20
15.4987201487
 30
0.0
 10
23.7261806914
 20
15.5411294369
 30
0.0
 10
23.730247779
 20
15.5623121354
 30
0.0
  0
SPLINE
  5
3C1
100
AcDbEntity
  8
0
100
AcDbSpline
 62
7
  6
BYLAYER
 70
0
 71
3
 72
13
 73
9
 74
0
 42
0.0000001
 43
0.0000001
 44
0.0000000001
 40
0.0
 40
0.0
 40
0.0
 40
0.0
 40
0.2733839757
 40
0.5429742615
 40
0.6702024181
 40
0.7896516406
 40
0.8998861251
 40
1.0
 40
1.0
 40
1.0
 40
1.0
 10
25.2871985291
 20
15.8244651988
 30
0.0
 10
25.2792850575
 20
15.8034120141
 30
0.0
 10
25.2591958369
 20
15.7631506737
 30
0.0
 10
25.2254362108
 20
15.7190546175
 30
0.0
 10
25.1944149283
 20
15.6899229626
 30
0.0
 10
25.170680794
 20
15.6724868006
 30
0.0
 10
25.1466941242
 20
15.6596086391
 30
0.0
 10
25.1301997908
 20
15.6539928414
 30
0.0
 10
25.1221631244
 20
15.652190093
 30
0.0
  0
SPLINE
  5
3C2
100
AcDbEntity
  8
0
100
AcDbSpline
 62
7
  6
BYLAYER
 70
0
 71
3
 72
15
 73
11
 74
0
 42
0.0000001
 43
0.0000001
 44
0.0000000001
 40
0.0
 40
0.0
 40
0.0
 40
0.0
 40
0.1136526921
 40
0.2367221364
 40
0.3665849743
 40
0.4999937343
 40
0.6334030843
 40
0.7632677738
 40
0.8863410118
 40
1.0
 40
1.0
 40
1.0
 40
1.0
 10
27.6157365174
 20
17.1641636328
 30
0.0
 10
27.6172571092
 20
17.0721547994
 30
0.0
 10
27.6027721663
 20
16.8800373119
 30
0.0
 10
27.5375802499
 20
16.5896305342
 30
0.0
 10
27.430548791
 20
16.2948526152
 30
0.0
 10
27.2858664045
 20
16.0073070259
 30
0.0
 10
27.1092097131
 20
15.7382181674
 30
0.0
 10
26.9074602993
 20
15.4981138971
 30
0.0
 10
26.6885708847
 20
15.2964231632
 30
0.0
 10
26.5294417884
 20
15.1877955426
 30
0.0
 10
26.44900095
 20
15.143094901
 30
0.0
  0
SPLINE
  5
3C3
100
AcDbEntity
  8
0
100
AcDbSpline
 62
7
  6
BYLAYER
 70
0
 71
3
 72
19
 73
15
 74
0
 42
0.0000001
 43
0.0000001
 44
0.0000000001
 40
0.0
 40
0.0
 40
0.0
 40
0.0
 40
0.0551080354
 40
0.1129709899
 40
0.1733487058
 40
0.2359234438
 40
0.3660611288
 40
0.5000024803
 40
0.6339432369
 40
0.7640793159
 40
0.8266530989
 40
0.88702998
 40
0.9448923147
 40
1.0
 40
1.0
 40
1.0
 40
1.0
 10
26.4016340522
 20
14.7254356133
 30
0.0
 10
26.4543982489
 20
14.7530736413
 30
0.0
 10
26.5598700983
 20
14.814988261
 30
0.0
 10
26.7130061085
 20
14.9232762531
 30
0.0
 10
26.8635160189
 20
15.0482418768
 30
0.0
 10
27.0610852135
 20
15.2377246051
 30
0.0
 10
27.2905372334
 20
15.5074689519
 30
0.0
 10
27.5278898658
 20
15.8674676528
 30
0.0
 10
27.720971861
 20
16.2530232954
 30
0.0
 10
27.8398429221
 20
16.5866061133
 30
0.0
 10
27.9051482658
 20
16.8524453152
 30
0.0
 10
27.938112691
 20
17.0452715887
 30
0.0
 10
27.9553204366
 20
17.2320336738
 30
0.0
 10
27.9562024775
 20
17.3543312628
 30
0.0
 10
27.9537541753
 20
17.4138449737
 30
0.0
  0
SPLINE
  5
3C4
100
AcDbEntity
  8
0
100
AcDbSpline
 62
7
  6
BYLAYER
 70
0
 71
3
 72
13
 73
9
 74
0
 42
0.0000001
 43
0.0000001
 44
0.0000000001
 40
0.0
 40
0.0
 40
0.0
 40
0.0
 40
0.1106187777
 40
0.2269639537
 40
0.3488873139
 40
0.4758149587
 40
0.7379621905
 40
1.0
 40
1.0
 40
1.0
 40
1.0
 10
28.9396791427
 20
20.2755431249
 30
0.0
 10
28.9491698428
 20
20.2700637906
 30
0.0
 10
28.9673343419
 20
20.2564358984
 30
0.0
 10
28.9901503314
 20
20.2301830149
 30
0.0
 10
29.0083380389
 20
20.1986639355
 30
0.0
 10
29.0257258719
 20
20.1508966269
 30
0.0
 10
29.0328141423
 20
20.0857103672
 30
0.0
 10
29.0228639513
 20
20.0337983341
 30
0.0
 10
29.0139896763
 20
20.0094025329
 30
0.0
  0
SPLINE
  5
3C5
100
AcDbEntity
  8
0
100
AcDbSpline
 62
7
  6
BYLAYER
 70
0
 71
3
 72
12
 73
8
 74
0
 42
0.0000001
 43
0.0000001
 44
0.0000000001
 40
0.0
 40
0.0
 40
0.0
 40
0.0
 40
0.2307808958
 40
0.3568435036
 40
0.487218214
 40
0.7500916587
 40
1.0
 40
1.0
 40
1.0
 40
1.0
 10
28.0378404608
 20
19.9815413282
 30
0.0
 10
28.0577052429
 20
19.9700726504
 30
0.0
 10
28.0846605887
 20
19.9455139441
 30
0.0
 10
28.1122447708
 20
19.9056389139
 30
0.0
 10
28.135321478
 20
19.859270386
 30
0.0
 10
28.1519850063
 20
19.7967801304
 30
0.0
 10
28.1514878297
 20
19.7449399025
 30
0.0
 10
28.1471054362
 20
19.7204907007
 30
0.0
  0
SPLINE
  5
3C6
100
AcDbEntity
  8
0
100
AcDbSpline
 62
7
  6
BYLAYER
 70
0
 71
3
 72
12
 73
8
 74
0
 42
0.0000001
 43
0.0000001
 44
0.0000000001
 40
0.0
 40
0.0
 40
0.0
 40
0.0
 40
0.2498968644
 40
0.5127733881
 40
0.6431516536
 40
0.7692180319
 40
1.0
 40
1.0
 40
1.0
 40
1.0
 10
24.5007171445
 20
13.4047258557
 30
0.0
 10
24.4817356183
 20
13.3887067106
 30
0.0
 10
24.4370902005
 20
13.3623563023
 30
0.0
 10
24.3746410321
 20
13.3455415624
 30
0.0
 10
24.3229453978
 20
13.3423414385
 30
0.0
 10
24.2746196738
 20
13.3462920827
 30
0.0
 10
24.2398729226
 20
13.3573562065
 30
0.0
 10
24.2200080615
 20
13.3688249299
 30
0.0
  0
SPLINE
  5
3C7
100
AcDbEntity
  8
0
100
AcDbSpline
 62
7
  6
BYLAYER
 70
0
 71
3
 72
13
 73
9
 74
0
 42
0.0000001
 43
0.0000001
 44
0.0000000001
 40
0.0
 40
0.0
 40
0.0
 40
0.0
 40
0.2941701188
 40
0.4349608913
 40
0.5680284095
 40
0.6916577603
 40
0.8049070964
 40
1.0
 40
1.0
 40
1.0
 40
1.0
 10
25.7483641765
 20
16.8103458185
 30
0.0
 10
25.7373573396
 20
16.7908301699
 30
0.0
 10
25.7182506912
 20
16.7634047734
 30
0.0
 10
25.6882180921
 20
16.7321712856
 30
0.0
 10
25.6648382551
 20
16.7128283976
 30
0.0
 10
25.6408618373
 20
16.6977923003
 30
0.0
 10
25.6106796649
 20
16.6846796753
 30
0.0
 10
25.5864022524
 20
16.6811794971
 30
0.0
 10
25.5716950301
 20
16.6833002538
 30
0.0
  0
SPLINE
  5
3C8
100
AcDbEntity
  8
0
100
AcDbSpline
 62
7
  6
BYLAYER
 70
0
 71
3
 72
13
 73
9
 74
0
 42
0.0000001
 43
0.0000001
 44
0.0000000001
 40
0.0
 40
0.0
 40
0.0
 40
0.0
 40
0.1950938591
 40
0.3083438057
 40
0.4319736082
 40
0.5650412796
 40
0.7058317912
 40
1.0
 40
1.0
 40
1.0
 40
1.0
 10
25.8432885248
 20
17.1537165971
 30
0.0
 10
25.852478677
 20
17.1420397624
 30
0.0
 10
25.8615859313
 20
17.119264343
 30
0.0
 10
25.8653210014
 20
17.0865689444
 30
0.0
 10
25.8642874745
 20
17.0582862907
 30
0.0
 10
25.8592259062
 20
17.0283669367
 30
0.0
 10
25.8471931842
 20
16.9867408354
 30
0.0
 10
25.8329953953
 20
16.9564810634
 30
0.0
 10
25.8215977987
 20
16.9371908819
 30
0.0
  0
SPLINE
  5
3C9
100
AcDbEntity
  8
0
100
AcDbSpline
 62
7
  6
BYLAYER
 70
0
 71
3
 72
13
 73
9
 74
0
 42
0.0000001
 43
0.0000001
 44
0.0000000001
 40
0.0
 40
0.0
 40
0.0
 40
0.0
 40
0.2620264002
 40
0.5241772095
 40
0.6511083831
 40
0.7730353317
 40
0.8893817163
 40
1.0
 40
1.0
 40
1.0
 40
1.0
 10
24.6839496185
 20
12.5095115211
 30
0.0
 10
24.6672601524
 20
12.4896290443
 30
0.0
 10
24.627278946
 20
12.4550561498
 30
0.0
 10
24.5672826187
 20
12.4286008291
 30
0.0
 10
24.5172200336
 20
12.4197742931
 30
0.0
 10
24.4808289818
 20
12.4197653733
 30
0.0
 10
24.4466847013
 20
12.4263974673
 30
0.0
 10
24.4258001374
 20
12.4353142135
 30
0.0
 10
24.4163094658
 20
12.4407935314
 30
0.0
  0
SPLINE
  5
3CA
100
AcDbEntity
  8
0
100
AcDbSpline
 62
7
  6
BYLAYER
 70
0
 71
3
 72
9
 73
5
 74
0
 42
0.0000001
 43
0.0000001
 44
0.0000000001
 40
0.0
 40
0.0
 40
0.0
 40
0.0
 40
0.2556280992
 40
1.0
 40
1.0
 40
1.0
 40
1.0
 10
31.0853566762
 20
18.8134640449
 30
0.0
 10
31.0753636449
 20
18.8403980523
 30
0.0
 10
31.0345130905
 20
18.9450962228
 30
0.0
 10
30.986458608
 20
19.0470232463
 30
0.0
 10
30.946453835
 20
19.1204918861
 30
0.0
  0
SPLINE
  5
3CB
100
AcDbEntity
  8
0
100
AcDbSpline
 62
7
  6
BYLAYER
 70
0
 71
3
 72
14
 73
10
 74
0
 42
0.0000001
 43
0.0000001
 44
0.0000000001
 40
0.0
 40
0.0
 40
0.0
 40
0.0
 40
0.3069767831
 40
0.4481187965
 40
0.5784277661
 40
0.6973672762
 40
0.8056379639
 40
0.9053485551
 40
1.0
 40
1.0
 40
1.0
 40
1.0
 10
26.3551143862
 20
17.7179336619
 30
0.0
 10
26.3422509332
 20
17.7015823796
 30
0.0
 10
26.3211176396
 20
17.6793300396
 30
0.0
 10
26.2894046598
 20
17.6561428221
 30
0.0
 10
26.2660406559
 20
17.6435154907
 30
0.0
 10
26.2430295175
 20
17.6355430285
 30
0.0
 10
26.220910846
 20
17.6324541603
 30
0.0
 10
26.2002891983
 20
17.6345444002
 30
0.0
 10
26.1878403736
 20
17.6394536951
 30
0.0
 10
26.1822822052
 20
17.642656222
 30
0.0
  0
SPLINE
  5
3CC
100
AcDbEntity
  8
0
100
AcDbSpline
 62
7
  6
BYLAYER
 70
0
 71
3
 72
14
 73
10
 74
0
 42
0.0000001
 43
0.0000001
 44
0.0000000001
 40
0.0
 40
0.0
 40
0.0
 40
0.0
 40
0.2707049721
 40
0.403027154
 40
0.5313225001
 40
0.654843738
 40
0.7734893658
 40
0.8881375107
 40
1.0
 40
1.0
 40
1.0
 40
1.0
 10
25.0853047485
 20
11.82909916
 30
0.0
 10
25.0718180942
 20
11.8067904175
 30
0.0
 10
25.0463006509
 20
11.7763999425
 30
0.0
 10
25.0047156132
 20
11.7462879927
 30
0.0
 10
24.9712650343
 20
11.7300041365
 30
0.0
 10
24.9366348828
 20
11.7205484992
 30
0.0
 10
24.9020694423
 20
11.7184216515
 30
0.0
 10
24.8689905075
 20
11.7238396097
 30
0.0
 10
24.8486641591
 20
11.7324252906
 30
0.0
 10
24.8393350884
 20
11.7378113102
 30
0.0
  0
SPLINE
  5
3CD
100
AcDbEntity
  8
0
100
AcDbSpline
 62
7
  6
BYLAYER
 70
0
 71
3
 72
13
 73
9
 74
0
 42
0.0000001
 43
0.0000001
 44
0.0000000001
 40
0.0
 40
0.0
 40
0.0
 40
0.0
 40
0.1001147535
 40
0.2103500754
 40
0.3297999367
 40
0.4570284385
 40
0.726618241
 40
1.0
 40
1.0
 40
1.0
 40
1.0
 10
26.5114839489
 20
18.0585777071
 30
0.0
 10
26.5139410104
 20
18.0507162128
 30
0.0
 10
26.5173246679
 20
18.0336234971
 30
0.0
 10
26.5181650976
 20
18.0064109285
 30
0.0
 10
26.514931943
 20
17.9771380932
 30
0.0
 10
26.5052138043
 20
17.9357066461
 30
0.0
 10
26.4839054146
 20
17.8844215864
 30
0.0
 10
26.4590826844
 20
17.8468929529
 30
0.0
 10
26.4448068926
 20
17.82951303
 30
0.0
  0
SPLINE
  5
3CE
100
AcDbEntity
  8
0
100
AcDbSpline
 62
7
  6
BYLAYER
 70
0
 71
3
 72
11
 73
7
 74
0
 42
0.0000001
 43
0.0000001
 44
0.0000000001
 40
0.0
 40
0.0
 40
0.0
 40
0.0
 40
0.2499818411
 40
0.4374608822
 40
0.6249379526
 40
1.0
 40
1.0
 40
1.0
 40
1.0
 10
25.7846618905
 20
12.0241760395
 30
0.0
 10
25.7816101239
 20
12.0259380282
 30
0.0
 10
25.7763506606
 20
12.0291596112
 30
0.0
 10
25.7687388372
 20
12.0335944989
 30
0.0
 10
25.759519491
 20
12.0387739828
 30
0.0
 10
25.7528613274
 20
12.0430896097
 30
0.0
 10
25.7483644899
 20
12.0458702568
 30
0.0
  0
SPLINE
  5
3CF
100
AcDbEntity
  8
0
100
AcDbSpline
 62
7
  6
BYLAYER
 70
0
 71
3
 72
14
 73
10
 74
0
 42
0.0000001
 43
0.0000001
 44
0.0000000001
 40
0.0
 40
0.0
 40
0.0
 40
0.0
 40
0.2752975807
 40
0.4063636459
 40
0.5321298916
 40
0.6530077533
 40
0.769988407
 40
0.8849211921
 40
1.0
 40
1.0
 40
1.0
 40
1.0
 10
25.6774308458
 20
11.4098577501
 30
0.0
 10
25.6685717711
 20
11.3883720589
 30
0.0
 10
25.6507801822
 20
11.3581813911
 30
0.0
 10
25.6189589785
 20
11.3262232463
 30
0.0
 10
25.5926072658
 20
11.3079223027
 30
0.0
 10
25.564260656
 20
11.2955930065
 30
0.0
 10
25.5348012487
 20
11.2897642704
 30
0.0
 10
25.5052696481
 20
11.2907197059
 30
0.0
 10
25.4863454969
 20
11.2959060649
 30
0.0
 10
25.4773215186
 20
11.2995042123
 30
0.0
  0
SPLINE
  5
3D0
100
AcDbEntity
  8
0
100
AcDbSpline
 62
7
  6
BYLAYER
 70
0
 71
3
 72
13
 73
9
 74
0
 42
0.0000001
 43
0.0000001
 44
0.0000000001
 40
0.0
 40
0.0
 40
0.0
 40
0.0
 40
0.1147035046
 40
0.2389002555
 40
0.5027149923
 40
0.7648342294
 40
0.8872561153
 40
1.0
 40
1.0
 40
1.0
 40
1.0
 10
27.1159246447
 20
19.3986992083
 30
0.0
 10
27.1256712801
 20
19.393072113
 30
0.0
 10
27.1449723418
 20
19.3795812225
 30
0.0
 10
27.1812767818
 20
19.346027056
 30
0.0
 10
27.2198984966
 20
19.2945551721
 30
0.0
 10
27.2469926364
 20
19.2363771109
 30
0.0
 10
27.2592764409
 20
19.1890423744
 30
0.0
 10
27.2619951831
 20
19.1660214003
 30
0.0
 10
27.2623355064
 20
19.1549645274
 30
0.0
  0
SPLINE
  5
3D1
100
AcDbEntity
  8
0
100
AcDbSpline
 62
7
  6
BYLAYER
 70
0
 71
3
 72
12
 73
8
 74
0
 42
0.0000001
 43
0.0000001
 44
0.0000000001
 40
0.0
 40
0.0
 40
0.0
 40
0.0
 40
0.3020858307
 40
0.5675013324
 40
0.7953660224
 40
0.8993461546
 40
1.0
 40
1.0
 40
1.0
 40
1.0
 10
27.0661001344
 20
18.4853781178
 30
0.0
 10
27.0546697091
 20
18.4749943219
 30
0.0
 10
27.0314360553
 20
18.4572528053
 30
0.0
 10
26.9941860042
 20
18.4400162761
 30
0.0
 10
26.9631963698
 20
18.4358866032
 30
0.0
 10
26.941290522
 20
18.4398911302
 30
0.0
 10
26.9315802384
 20
18.444071434
 30
0.0
 10
26.9271270632
 20
18.4466492173
 30
0.0
  0
SPLINE
  5
3D2
100
AcDbEntity
  8
0
100
AcDbSpline
 62
7
  6
BYLAYER
 70
0
 71
3
 72
13
 73
9
 74
0
 42
0.0000001
 43
0.0000001
 44
0.0000000001
 40
0.0
 40
0.0
 40
0.0
 40
0.0
 40
0.2797374669
 40
0.5354549992
 40
0.6555526113
 40
0.7718349428
 40
0.8859699114
 40
1.0
 40
1.0
 40
1.0
 40
1.0
 10
26.4199754954
 20
11.2803579009
 30
0.0
 10
26.416233083
 20
11.2640625212
 30
0.0
 10
26.4055591679
 20
11.2335023855
 30
0.0
 10
26.3826871884
 20
11.2008673278
 30
0.0
 10
26.3601354588
 20
11.1817644271
 30
0.0
 10
26.341855681
 20
11.1712755397
 30
0.0
 10
26.3222505675
 20
11.1645883412
 30
0.0
 10
26.3086231121
 20
11.1628178064
 30
0.0
 10
26.3018113318
 20
11.1625940905
 30
0.0
  0
SPLINE
  5
3D3
100
AcDbEntity
  8
0
100
AcDbSpline
 62
7
  6
BYLAYER
 70
0
 71
3
 72
12
 73
8
 74
0
 42
0.0000001
 43
0.0000001
 44
0.0000000001
 40
0.0
 40
0.0
 40
0.0
 40
0.0
 40
0.1105032805
 40
0.2295953221
 40
0.4848203306
 40
0.7482566081
 40
1.0
 40
1.0
 40
1.0
 40
1.0
 10
27.2732585845
 20
18.8000811001
 30
0.0
 10
27.273549864
 20
18.7906176254
 30
0.0
 10
27.2725863872
 20
18.7708907978
 30
0.0
 10
27.2653004059
 20
18.7299129545
 30
0.0
 10
27.2464836239
 20
18.6781255535
 30
0.0
 10
27.2123500058
 20
18.6212314273
 30
0.0
 10
27.1824502025
 20
18.5882013177
 30
0.0
 10
27.1661391295
 20
18.57408784
 30
0.0
  0
SPLINE
  5
3D4
100
AcDbEntity
  8
0
100
AcDbSpline
 62
7
  6
BYLAYER
 70
0
 71
3
 72
11
 73
7
 74
0
 42
0.0000001
 43
0.0000001
 44
0.0000000001
 40
0.0
 40
0.0
 40
0.0
 40
0.0
 40
0.2897856598
 40
0.5479004649
 40
0.7797812822
 40
1.0
 40
1.0
 40
1.0
 40
1.0
 10
27.2623355064
 20
11.4494248129
 30
0.0
 10
27.2619855483
 20
11.437650815
 30
0.0
 10
27.2593292423
 20
11.4153528376
 30
0.0
 10
27.2482511066
 20
11.3852623623
 30
0.0
 10
27.2303094929
 20
11.3619590045
 30
0.0
 10
27.214117652
 20
11.3522185317
 30
0.0
 10
27.20571829
 20
11.3491235278
 30
0.0
  0
SPLINE
  5
3D5
100
AcDbEntity
  8
0
100
AcDbSpline
 62
7
  6
BYLAYER
 70
0
 71
3
 72
14
 73
10
 74
0
 42
0.0000001
 43
0.0000001
 44
0.0000000001
 40
0.0
 40
0.0
 40
0.0
 40
0.0
 40
0.1183300026
 40
0.2472865867
 40
0.5191963939
 40
0.6534832745
 40
0.7807672893
 40
0.8973853425
 40
1.0
 40
1.0
 40
1.0
 40
1.0
 10
26.2367587339
 20
18.5667364922
 30
0.0
 10
26.2465883034
 20
18.5610615161
 30
0.0
 10
26.2664307132
 20
18.5479717478
 30
0.0
 10
26.305379274
 20
18.5168710475
 30
0.0
 10
26.3415434888
 20
18.4800960363
 30
0.0
 10
26.3732248246
 20
18.4398700711
 30
0.0
 10
26.3933301978
 20
18.4096158184
 30
0.0
 10
26.4091348211
 20
18.3803243822
 30
0.0
 10
26.4170392775
 20
18.3607582666
 30
0.0
 10
26.4199754954
 20
18.3513636873
 30
0.0
  0
SPLINE
  5
3D6
100
AcDbEntity
  8
0
100
AcDbSpline
 62
7
  6
BYLAYER
 70
0
 71
3
 72
12
 73
8
 74
0
 42
0.0000001
 43
0.0000001
 44
0.0000000001
 40
0.0
 40
0.0
 40
0.0
 40
0.0
 40
0.3106304581
 40
0.5741437081
 40
0.797000834
 40
0.8994066704
 40
1.0
 40
1.0
 40
1.0
 40
1.0
 10
28.1471054362
 20
11.9055368556
 30
0.0
 10
28.1489576301
 20
11.8973422548
 30
0.0
 10
28.1513257295
 20
11.8819053743
 30
0.0
 10
28.1502964259
 20
11.8601881694
 30
0.0
 10
28.1448001882
 20
11.8448463975
 30
0.0
 10
28.1377394713
 20
11.8356441403
 30
0.0
 10
28.1334939561
 20
11.8320824012
 30
0.0
 10
28.1312346658
 20
11.8305666387
 30
0.0
  0
SPLINE
  5
3D7
100
AcDbEntity
  8
0
100
AcDbSpline
 62
7
  6
BYLAYER
 70
0
 71
3
 72
13
 73
9
 74
0
 42
0.0000001
 43
0.0000001
 44
0.0000000001
 40
0.0
 40
0.0
 40
0.0
 40
0.0
 40
0.1213800956
 40
0.2540782252
 40
0.5322261017
 40
0.7932060108
 40
0.9054308674
 40
1.0
 40
1.0
 40
1.0
 40
1.0
 10
25.4602564323
 20
17.5423500644
 30
0.0
 10
25.4701347178
 20
17.5366469626
 30
0.0
 10
25.4904727422
 20
17.5241174511
 30
0.0
 10
25.5319086894
 20
17.4960882515
 30
0.0
 10
25.5821535206
 20
17.4577763597
 30
0.0
 10
25.6282526929
 20
17.4173928284
 30
0.0
 10
25.6591379076
 20
17.3860923162
 30
0.0
 10
25.6719345976
 20
17.3714356793
 30
0.0
 10
25.6774308458
 20
17.3644522495
 30
0.0
  0
SPLINE
  5
3D8
100
AcDbEntity
  8
0
100
AcDbSpline
 62
7
  6
BYLAYER
 70
0
 71
3
 72
11
 73
7
 74
0
 42
0.0000001
 43
0.0000001
 44
0.0000000001
 40
0.0
 40
0.0
 40
0.0
 40
0.0
 40
0.2904636913
 40
0.5505318242
 40
0.7832971061
 40
1.0
 40
1.0
 40
1.0
 40
1.0
 10
27.8328689174
 20
19.0603791148
 30
0.0
 10
27.8239113049
 20
19.0550270922
 30
0.0
 10
27.8060548966
 20
19.0462263417
 30
0.0
 10
27.7785521981
 20
19.0391682293
 30
0.0
 10
27.7527035054
 20
19.0395611586
 30
0.0
 10
27.737149721
 20
19.0451371132
 30
0.0
 10
27.7304080709
 20
19.0490300253
 30
0.0
  0
SPLINE
  5
3D9
100
AcDbEntity
  8
0
100
AcDbSpline
 62
7
  6
BYLAYER
 70
0
 71
3
 72
12
 73
8
 74
0
 42
0.0000001
 43
0.0000001
 44
0.0000000001
 40
0.0
 40
0.0
 40
0.0
 40
0.0
 40
0.2503010674
 40
0.5132644827
 40
0.7690409523
 40
0.8887385809
 40
1.0
 40
1.0
 40
1.0
 40
1.0
 10
28.0766987492
 20
19.3276945454
 30
0.0
 10
28.0729099155
 20
19.3065567902
 30
0.0
 10
28.0597352802
 20
19.2640993476
 30
0.0
 10
28.0281092465
 20
19.205806121
 30
0.0
 10
27.9930231244
 20
19.1631575902
 30
0.0
 10
27.9613432477
 20
19.1358288588
 30
0.0
 10
27.9447754855
 20
19.1248201114
 30
0.0
 10
27.9364369093
 20
19.1201737692
 30
0.0
  0
SPLINE
  5
3DA
100
AcDbEntity
  8
0
100
AcDbSpline
 62
7
  6
BYLAYER
 70
0
 71
3
 72
13
 73
9
 74
0
 42
0.0000001
 43
0.0000001
 44
0.0000000001
 40
0.0
 40
0.0
 40
0.0
 40
0.0
 40
0.3571136158
 40
0.6365191566
 40
0.7476612808
 40
0.8421527117
 40
0.924086127
 40
1.0
 40
1.0
 40
1.0
 40
1.0
 10
29.0139896763
 20
12.617610747
 30
0.0
 10
29.0173315304
 20
12.6122826498
 30
0.0
 10
29.0228704947
 20
12.602521088
 30
0.0
 10
29.0277516774
 20
12.5901763861
 30
0.0
 10
29.0291974914
 20
12.5817226565
 30
0.0
 10
29.0291130107
 20
12.5766190245
 30
0.0
 10
29.027898077
 20
12.5722780589
 30
0.0
 10
29.0262593987
 20
12.5699489171
 30
0.0
 10
29.0253073012
 20
12.5690102901
 30
0.0
  0
SPLINE
  5
3DB
100
AcDbEntity
  8
0
100
AcDbSpline
 62
7
  6
BYLAYER
 70
0
 71
3
 72
16
 73
12
 74
0
 42
0.0000001
 43
0.0000001
 44
0.0000000001
 40
0.0
 40
0.0
 40
0.0
 40
0.0
 40
0.2266039582
 40
0.4263710644
 40
0.5979322326
 40
0.7399295487
 40
0.8511888011
 40
0.9312566332
 40
0.98006948
 40
0.993110162
 40
1.0
 40
1.0
 40
1.0
 40
1.0
 10
29.8039114982
 20
13.5371198282
 30
0.0
 10
29.8062940245
 20
13.5355451405
 30
0.0
 10
29.8107678169
 20
13.5325683146
 30
0.0
 10
29.8170075513
 20
13.5283433582
 30
0.0
 10
29.8223260116
 20
13.5246582503
 30
0.0
 10
29.8266813743
 20
13.5215479246
 30
0.0
 10
29.8300460522
 20
13.5190217061
 30
0.0
 10
29.8323962088
 20
13.5171357278
 30
0.0
 10
29.8337118461
 20
13.5158814654
 30
0.0
 10
29.83423356
 20
13.5152173396
 30
0.0
 10
29.8342882249
 20
13.5149240539
 30
0.0
 10
29.8342365084
 20
13.5148543024
 30
0.0
  0
SPLINE
  5
3DC
100
AcDbEntity
  8
0
100
AcDbSpline
 62
7
  6
BYLAYER
 70
0
 71
3
 72
9
 73
5
 74
0
 42
0.0000001
 43
0.0000001
 44
0.0000000001
 40
0.0
 40
0.0
 40
0.0
 40
0.0
 40
0.2444815876
 40
1.0
 40
1.0
 40
1.0
 40
1.0
 10
28.5069707883
 20
19.8735507531
 30
0.0
 10
28.4769962432
 20
19.8627006981
 30
0.0
 10
28.3550269717
 20
19.8165765519
 30
0.0
 10
28.2356451998
 20
19.7636794421
 30
0.0
 10
28.1471054362
 20
19.7204907007
 30
0.0
  0
SPLINE
  5
3DD
100
AcDbEntity
  8
0
100
AcDbSpline
 62
7
  6
BYLAYER
 70
0
 71
3
 72
13
 73
9
 74
0
 42
0.0000001
 43
0.0000001
 44
0.0000000001
 40
0.0
 40
0.0
 40
0.0
 40
0.0
 40
0.0945646341
 40
0.2067839146
 40
0.4677656867
 40
0.7459208172
 40
0.8786203196
 40
1.0
 40
1.0
 40
1.0
 40
1.0
 10
25.3062672594
 20
16.7215744912
 30
0.0
 10
25.2974717651
 20
16.7228427867
 30
0.0
 10
25.278381385
 20
16.7265966481
 30
0.0
 10
25.2358327009
 20
16.7376941575
 30
0.0
 10
25.1778096786
 20
16.7574253131
 30
0.0
 10
25.1195072501
 20
16.7817827304
 30
0.0
 10
25.0745143674
 20
16.8036524318
 30
0.0
 10
25.0534942607
 20
16.8150006277
 30
0.0
 10
25.0436160234
 20
16.8207037017
 30
0.0
  0
SPLINE
  5
3DE
100
AcDbEntity
  8
0
100
AcDbSpline
 62
7
  6
BYLAYER
 70
0
 71
3
 72
13
 73
9
 74
0
 42
0.0000001
 43
0.0000001
 44
0.0000000001
 40
0.0
 40
0.0
 40
0.0
 40
0.0
 40
0.2719423834
 40
0.5411761235
 40
0.6686107591
 40
0.7884771281
 40
0.8992753143
 40
1.0
 40
1.0
 40
1.0
 40
1.0
 10
28.8670513236
 20
19.6054620585
 30
0.0
 10
28.8593732384
 20
19.5843546396
 30
0.0
 10
28.8396662072
 20
19.5438715243
 30
0.0
 10
28.8063013483
 20
19.4993759518
 30
0.0
 10
28.7754849843
 20
19.46975684
 30
0.0
 10
28.7518131623
 20
19.4518830071
 30
0.0
 10
28.7278222579
 20
19.4385218264
 30
0.0
 10
28.7112835398
 20
19.4325452007
 30
0.0
 10
28.7032057114
 20
19.4305559636
 30
0.0
  0
SPLINE
  5
3DF
100
AcDbEntity
  8
0
100
AcDbSpline
 62
7
  6
BYLAYER
 70
0
 71
3
 72
9
 73
5
 74
0
 42
0.0000001
 43
0.0000001
 44
0.0000000001
 40
0.0
 40
0.0
 40
0.0
 40
0.0
 40
0.2446721529
 40
1.0
 40
1.0
 40
1.0
 40
1.0
 10
29.3493307993
 20
20.0426176651
 30
0.0
 10
29.3218425552
 20
20.0419314226
 30
0.0
 10
29.209554333
 20
20.0369824836
 30
0.0
 10
29.0976756313
 20
20.023622247
 30
0.0
 10
29.0139896763
 20
20.0094025329
 30
0.0
  0
SPLINE
  5
3E0
100
AcDbEntity
  8
0
100
AcDbSpline
 62
7
  6
BYLAYER
 70
0
 71
3
 72
14
 73
10
 74
0
 42
0.0000001
 43
0.0000001
 44
0.0000000001
 40
0.0
 40
0.0
 40
0.0
 40
0.0
 40
0.1026097973
 40
0.2192218267
 40
0.346504805
 40
0.4807948679
 40
0.7527121428
 40
0.8816702515
 40
1.0
 40
1.0
 40
1.0
 40
1.0
 10
24.8228524597
 20
15.5850500873
 30
0.0
 10
24.8132488594
 20
15.5828958515
 30
0.0
 10
24.7923529911
 20
15.5799582288
 30
0.0
 10
24.7590847506
 20
15.579000251
 30
0.0
 10
24.7228315681
 20
15.5812845177
 30
0.0
 10
24.6721533501
 20
15.5886082694
 30
0.0
 10
24.6222220565
 20
15.6015397637
 30
0.0
 10
24.5758128399
 20
15.6197194431
 30
0.0
 10
24.5545553556
 20
15.6303583149
 30
0.0
 10
24.54472583
 20
15.6360332658
 30
0.0
  0
SPLINE
  5
3E1
100
AcDbEntity
  8
0
100
AcDbSpline
 62
7
  6
BYLAYER
 70
0
 71
3
 72
13
 73
9
 74
0
 42
0.0000001
 43
0.0000001
 44
0.0000000001
 40
0.0
 40
0.0
 40
0.0
 40
0.0
 40
0.2928920833
 40
0.4334871901
 40
0.5666250364
 40
0.6905374629
 40
0.8041977663
 40
1.0
 40
1.0
 40
1.0
 40
1.0
 10
29.5904550857
 20
19.6144542425
 30
0.0
 10
29.5796275622
 20
19.5947955142
 30
0.0
 10
29.5607426399
 20
19.567112701
 30
0.0
 10
29.5309536388
 20
19.5354366195
 30
0.0
 10
29.5076661369
 20
19.5156814045
 30
0.0
 10
29.4837173034
 20
19.5001805011
 30
0.0
 10
29.4534830664
 20
19.4864355668
 30
0.0
 10
29.4290944336
 20
19.482346961
 30
0.0
 10
29.4141915074
 20
19.48408239
 30
0.0
  0
SPLINE
  5
3E2
100
AcDbEntity
  8
0
100
AcDbSpline
 62
7
  6
BYLAYER
 70
0
 71
3
 72
33
 73
29
 74
0
 42
0.0000001
 43
0.0000001
 44
0.0000000001
 40
0.0
 40
0.0
 40
0.0
 40
0.0
 40
0.0225212416
 40
0.0454857738
 40
0.069253536
 40
0.0941479451
 40
0.1204139695
 40
0.1482027962
 40
0.177591514
 40
0.2085885403
 40
0.2411445318
 40
0.2751597211
 40
0.3469355143
 40
0.4224860178
 40
0.5000023889
 40
0.5775183323
 40
0.6530676427
 40
0.7248419078
 40
0.7588563714
 40
0.791411823
 40
0.8224083787
 40
0.8517968616
 40
0.8795855084
 40
0.9058514486
 40
0.9307458109
 40
0.9545138001
 40
0.9774786455
 40
1.0
 40
1.0
 40
1.0
 40
1.0
 10
28.9346487758
 20
17.4801436547
 30
0.0
 10
28.9690647653
 20
17.4602730058
 30
0.0
 10
29.0352462882
 20
17.4140610636
 30
0.0
 10
29.1227414339
 20
17.3280053222
 30
0.0
 10
29.1979648309
 20
17.2258164989
 30
0.0
 10
29.2602493016
 20
17.1087132087
 30
0.0
 10
29.3090998033
 20
16.9778639529
 30
0.0
 10
29.3441702804
 20
16.8345494232
 30
0.0
 10
29.3651621336
 20
16.6801240682
 30
0.0
 10
29.3719411043
 20
16.5160463932
 30
0.0
 10
29.3644699695
 20
16.3438506739
 30
0.0
 10
29.3350739301
 20
16.1013018883
 30
0.0
 10
29.2623468927
 20
15.788606078
 30
0.0
 10
29.1250607459
 20
15.4154168826
 30
0.0
 10
28.9412981331
 20
15.0514157155
 30
0.0
 10
28.7179479036
 20
14.7102727532
 30
0.0
 10
28.4634045427
 20
14.4047881039
 30
0.0
 10
28.22897127
 20
14.1854594394
 30
0.0
 10
28.0336198766
 20
14.0387302776
 30
0.0
 10
27.8882329569
 20
13.9461625755
 30
0.0
 10
27.7427496994
 20
13.8699960991
 30
0.0
 10
27.598519337
 20
13.8109624352
 30
0.0
 10
27.4568705149
 20
13.7696787462
 30
0.0
 10
27.3191270903
 20
13.7465595291
 30
0.0
 10
27.1865701473
 20
13.741949672
 30
0.0
 10
27.060459587
 20
13.7560022298
 30
0.0
 10
26.9421852534
 20
13.7887506912
 30
0.0
 10
26.8690736809
 20
13.8229611628
 30
0.0
 10
26.8346575189
 20
13.8428319113
 30
0.0
  0
SPLINE
  5
3E3
100
AcDbEntity
  8
0
100
AcDbSpline
 62
7
  6
BYLAYER
 70
0
 71
3
 72
10
 73
6
 74
0
 42
0.0000001
 43
0.0000001
 44
0.0000000001
 40
0.0
 40
0.0
 40
0.0
 40
0.0
 40
0.5249298085
 40
0.7715437808
 40
1.0
 40
1.0
 40
1.0
 40
1.0
 10
28.3485599456
 20
17.9248009034
 30
0.0
 10
28.3389299737
 20
17.9081212102
 30
0.0
 10
28.3220102341
 20
17.8849894547
 30
0.0
 10
28.2951616267
 20
17.8598777708
 30
0.0
 10
28.2808194761
 20
17.8498189553
 30
0.0
 10
28.2735602578
 20
17.8456278688
 30
0.0
  0
SPLINE
  5
3E4
100
AcDbEntity
  8
0
100
AcDbSpline
 62
7
  6
BYLAYER
 70
0
 71
3
 72
12
 73
8
 74
0
 42
0.0000001
 43
0.0000001
 44
0.0000000001
 40
0.0
 40
0.0
 40
0.0
 40
0.0
 40
0.2007746749
 40
0.3157474156
 40
0.4398839379
 40
0.7108481644
 40
1.0
 40
1.0
 40
1.0
 40
1.0
 10
28.3684281926
 20
18.0776475793
 30
0.0
 10
28.3737831301
 20
18.0683723973
 30
0.0
 10
28.378656242
 20
18.0516976701
 30
0.0
 10
28.3800421367
 20
18.0282664505
 30
0.0
 10
28.3780458398
 20
18.0010440291
 30
0.0
 10
28.3689619297
 20
17.9654070594
 30
0.0
 10
28.3562720904
 20
17.9381588042
 30
0.0
 10
28.3485599456
 20
17.9248009034
 30
0.0
  0
SPLINE
  5
3E5
100
AcDbEntity
  8
0
100
AcDbSpline
 62
7
  6
BYLAYER
 70
0
 71
3
 72
13
 73
9
 74
0
 42
0.0000001
 43
0.0000001
 44
0.0000000001
 40
0.0
 40
0.0
 40
0.0
 40
0.0
 40
0.1127389549
 40
0.2351544737
 40
0.4972762863
 40
0.7610984592
 40
0.8852967265
 40
1.0
 40
1.0
 40
1.0
 40
1.0
 10
24.5480943169
 20
14.4537347861
 30
0.0
 10
24.5383490502
 20
14.4485013505
 30
0.0
 10
24.5170541535
 20
14.439345448
 30
0.0
 10
24.4699199346
 20
14.4263169249
 30
0.0
 10
24.4059891246
 20
14.4206910976
 30
0.0
 10
24.3421012238
 20
14.4284022156
 30
0.0
 10
24.294889277
 20
14.4430651172
 30
0.0
 10
24.2735550883
 20
14.4530346269
 30
0.0
 10
24.2638084919
 20
14.4586616997
 30
0.0
  0
SPLINE
  5
3E6
100
AcDbEntity
  8
0
100
AcDbSpline
 62
7
  6
BYLAYER
 70
0
 71
3
 72
11
 73
7
 74
0
 42
0.0000001
 43
0.0000001
 44
0.0000000001
 40
0.0
 40
0.0
 40
0.0
 40
0.0
 40
0.2914490142
 40
0.5518817526
 40
0.7842476371
 40
1.0
 40
1.0
 40
1.0
 40
1.0
 10
30.9084159461
 20
18.1132332444
 30
0.0
 10
30.8992706345
 20
18.107584457
 30
0.0
 10
30.8810254748
 20
18.0982603398
 30
0.0
 10
30.8528500075
 20
18.0906320504
 30
0.0
 10
30.8263348978
 20
18.0907562725
 30
0.0
 10
30.8103762262
 20
18.0964048569
 30
0.0
 10
30.8034848196
 20
18.1003833297
 30
0.0
  0
SPLINE
  5
3E7
100
AcDbEntity
  8
0
100
AcDbSpline
 62
7
  6
BYLAYER
 70
0
 71
3
 72
9
 73
5
 74
0
 42
0.0000001
 43
0.0000001
 44
0.0000000001
 40
0.0
 40
0.0
 40
0.0
 40
0.0
 40
0.2556025115
 40
1.0
 40
1.0
 40
1.0
 40
1.0
 10
31.2685891502
 20
17.9182497103
 30
0.0
 10
31.2662659671
 20
17.9514967497
 30
0.0
 10
31.2555570333
 20
18.0814485222
 30
0.0
 10
31.2382343892
 20
18.2108801161
 30
0.0
 10
31.2212119778
 20
18.3064380664
 30
0.0
  0
SPLINE
  5
3E8
100
AcDbEntity
  8
0
100
AcDbSpline
 62
7
  6
BYLAYER
 70
0
 71
3
 72
14
 73
10
 74
0
 42
0.0000001
 43
0.0000001
 44
0.0000000001
 40
0.0
 40
0.0
 40
0.0
 40
0.0
 40
0.1118632416
 40
0.2265104237
 40
0.3451526465
 40
0.4686704005
 40
0.5969619514
 40
0.7292838325
 40
1.0
 40
1.0
 40
1.0
 40
1.0
 10
29.7599818747
 20
20.2606688616
 30
0.0
 10
29.7693109688
 20
20.2552828285
 30
0.0
 10
29.7869096372
 20
20.2419728392
 30
0.0
 10
29.8081415531
 20
20.2160355481
 30
0.0
 10
29.8235823625
 20
20.1850385805
 30
0.0
 10
29.8327091625
 20
20.1503215553
 30
0.0
 10
29.8353328423
 20
20.1132115098
 30
0.0
 10
29.8300487831
 20
20.0621412441
 30
0.0
 10
29.8164884664
 20
20.024846225
 30
0.0
 10
29.8039114982
 20
20.0020111602
 30
0.0
  0
SPLINE
  5
3E9
100
AcDbEntity
  8
0
100
AcDbSpline
 62
7
  6
BYLAYER
 70
0
 71
3
 72
11
 73
7
 74
0
 42
0.0000001
 43
0.0000001
 44
0.0000000001
 40
0.0
 40
0.0
 40
0.0
 40
0.0
 40
0.2894950395
 40
0.549126519
 40
0.7822794044
 40
1.0
 40
1.0
 40
1.0
 40
1.0
 10
27.5664564206
 20
17.4373837149
 30
0.0
 10
27.5598795589
 20
17.4335865847
 30
0.0
 10
27.5467822631
 20
17.4273665525
 30
0.0
 10
27.5266607766
 20
17.4224920564
 30
0.0
 10
27.5077708024
 20
17.4229703099
 30
0.0
 10
27.4964069447
 20
17.4271039598
 30
0.0
 10
27.4914612976
 20
17.4299607326
 30
0.0
  0
SPLINE
  5
3EA
100
AcDbEntity
  8
0
100
AcDbSpline
 62
7
  6
BYLAYER
 70
0
 71
3
 72
11
 73
7
 74
0
 42
0.0000001
 43
0.0000001
 44
0.0000000001
 40
0.0
 40
0.0
 40
0.0
 40
0.0
 40
0.2500778215
 40
0.4375541516
 40
0.6250345067
 40
1.0
 40
1.0
 40
1.0
 40
1.0
 10
29.9477081773
 20
19.3193879584
 30
0.0
 10
29.9508129903
 20
19.3177182442
 30
0.0
 10
29.9562989435
 20
19.3148969361
 30
0.0
 10
29.9639890455
 20
19.3105931347
 30
0.0
 10
29.973072013
 20
19.305182372
 30
0.0
 10
29.9800667715
 20
19.3014424995
 30
0.0
 10
29.9846444042
 20
19.2987995265
 30
0.0
  0
SPLINE
  5
3EB
100
AcDbEntity
  8
0
100
AcDbSpline
 62
7
  6
BYLAYER
 70
0
 71
3
 72
39
 73
35
 74
0
 42
0.0000001
 43
0.0000001
 44
0.0000000001
 40
0.0
 40
0.0
 40
0.0
 40
0.0
 40
0.0225217907
 40
0.0454768542
 40
0.0692366067
 40
0.0941278471
 40
0.1203877353
 40
0.1481701503
 40
0.1775528453
 40
0.2085434519
 40
0.2410920169
 40
0.2750994814
 40
0.3104256728
 40
0.3468983276
 40
0.3843183488
 40
0.4224660282
 40
0.4611072206
 40
0.4999974803
 40
0.5388877705
 40
0.577529067
 40
0.615676926
 40
0.6530971986
 40
0.6895701711
 40
0.7248966915
 40
0.7589044807
 40
0.791453386
 40
0.8224443625
 40
0.8518274978
 40
0.8796104354
 40
0.9058708452
 40
0.9307625558
 40
0.9545227204
 40
0.9774781045
 40
1.0
 40
1.0
 40
1.0
 40
1.0
 10
29.3618441927
 20
21.1594674719
 30
0.0
 10
29.2716857236
 20
21.2115219766
 30
0.0
 10
29.0802170326
 20
21.3011598542
 30
0.0
 10
28.7704446918
 20
21.386861758
 30
0.0
 10
28.4401884383
 20
21.4236905308
 30
0.0
 10
28.0930219774
 20
21.4116025787
 30
0.0
 10
27.7322532235
 20
21.351090093
 30
0.0
 10
27.3612754097
 20
21.2429408347
 30
0.0
 10
26.9835250575
 20
21.0883353339
 30
0.0
 10
26.6024870596
 20
20.8888529875
 30
0.0
 10
26.2217193701
 20
20.6464152389
 30
0.0
 10
25.8448036428
 20
20.3633386751
 30
0.0
 10
25.4752831393
 20
20.0423450411
 30
0.0
 10
25.116673641
 20
19.6864824774
 30
0.0
 10
24.7723937364
 20
19.2991431342
 30
0.0
 10
24.445711623
 20
18.8840405929
 30
0.0
 10
24.1397623573
 20
18.4451320519
 30
0.0
 10
23.8574746685
 20
17.9866149893
 30
0.0
 10
23.6015327911
 20
17.5128866939
 30
0.0
 10
23.3744022695
 20
17.0284706132
 30
0.0
 10
23.1782547965
 20
16.5380013371
 30
0.0
 10
23.0149493011
 20
16.046172805
 30
0.0
 10
22.8860674793
 20
15.5576724458
 30
0.0
 10
22.7928386471
 20
15.0771569972
 30
0.0
 10
22.7361441129
 20
14.609195636
 30
0.0
 10
22.7165686214
 20
14.1582175894
 30
0.0
 10
22.7343289851
 20
13.7284824415
 30
0.0
 10
22.789309207
 20
13.3240317797
 30
0.0
 10
22.8811346999
 20
12.9486730428
 30
0.0
 10
23.0091114615
 20
12.6059736231
 30
0.0
 10
23.1722228621
 20
12.2992656051
 30
0.0
 10
23.3692430953
 20
12.0316608785
 30
0.0
 10
23.5983467603
 20
11.8062330733
 30
0.0
 10
23.7717082031
 20
11.6852295571
 30
0.0
 10
23.8618670915
 20
11.6331748104
 30
0.0
  0
SPLINE
  5
3EC
100
AcDbEntity
  8
0
100
AcDbSpline
 62
7
  6
BYLAYER
 70
0
 71
3
 72
9
 73
5
 74
0
 42
0.0000001
 43
0.0000001
 44
0.0000000001
 40
0.0
 40
0.0
 40
0.0
 40
0.0
 40
0.2431368269
 40
1.0
 40
1.0
 40
1.0
 40
1.0
 10
23.5328845053
 20
14.3969292693
 30
0.0
 10
23.5353969983
 20
14.3990496462
 30
0.0
 10
23.5455572277
 20
14.4079750195
 30
0.0
 10
23.5550413979
 20
14.4176618186
 30
0.0
 10
23.5618358825
 20
14.4253151047
 30
0.0
  0
SPLINE
  5
3ED
100
AcDbEntity
  8
0
100
AcDbSpline
 62
7
  6
BYLAYER
 70
0
 71
3
 72
31
 73
27
 74
0
 42
0.0000001
 43
0.0000001
 44
0.0000000001
 40
0.0
 40
0.0
 40
0.0
 40
0.0
 40
0.0213275365
 40
0.0428835415
 40
0.0648840229
 40
0.0875241785
 40
0.1109683376
 40
0.1353502367
 40
0.1607675523
 40
0.1872873656
 40
0.2149451298
 40
0.2437492863
 40
0.2736845327
 40
0.3047125805
 40
0.3367787339
 40
0.3698094862
 40
0.4383909426
 40
0.509661006
 40
0.582668496
 40
0.6563834251
 40
0.7297427726
 40
0.801702644
 40
0.8712774844
 40
0.9376055689
 40
0.9693430765
 40
1.0
 40
1.0
 40
1.0
 40
1.0
 10
22.5208708476
 20
10.1268766551
 30
0.0
 10
22.4290294568
 20
10.1798921421
 30
0.0
 10
22.2509999587
 20
10.2984805243
 30
0.0
 10
22.0066730637
 20
10.5103781245
 30
0.0
 10
21.7857002227
 20
10.7553950477
 30
0.0
 10
21.5894134065
 20
11.0320921206
 30
0.0
 10
21.4186814303
 20
11.3387926227
 30
0.0
 10
21.2744740895
 20
11.6738304438
 30
0.0
 10
21.1573652288
 20
12.0353114578
 30
0.0
 10
21.0680075542
 20
12.4213100449
 30
0.0
 10
21.0067651105
 20
12.8297359945
 30
0.0
 10
20.9739469103
 20
13.2584120201
 30
0.0
 10
20.9697190419
 20
13.7050419338
 30
0.0
 10
20.9940346487
 20
14.1672387142
 30
0.0
 10
21.0468248267
 20
14.6425266095
 30
0.0
 10
21.1560519912
 20
15.2984411404
 30
0.0
 10
21.3632804442
 20
16.1342741336
 30
0.0
 10
21.7132370403
 20
17.1345851647
 30
0.0
 10
22.1601916963
 20
18.1235358443
 30
0.0
 10
22.6945844579
 20
19.0799603187
 30
0.0
 10
23.3050047663
 20
19.9834880863
 30
0.0
 10
23.9784831643
 20
20.8148422317
 30
0.0
 10
24.700609564
 20
21.5563123832
 30
0.0
 10
25.3396745827
 20
22.0941377757
 30
0.0
 10
25.8625949479
 20
22.463690078
 30
0.0
 10
26.1262903598
 20
22.6275812901
 30
0.0
 10
26.2583007795
 20
22.7037970864
 30
0.0
  0
SPLINE
  5
3EE
100
AcDbEntity
  8
0
100
AcDbSpline
 62
7
  6
BYLAYER
 70
0
 71
3
 72
26
 73
22
 74
0
 42
0.0000001
 43
0.0000001
 44
0.0000000001
 40
0.0
 40
0.0
 40
0.0
 40
0.0
 40
0.0216660571
 40
0.043481569
 40
0.0655888557
 40
0.0881218841
 40
0.1112009998
 40
0.1349322626
 40
0.1846488782
 40
0.2378137423
 40
0.2946622243
 40
0.3552034956
 40
0.4192599433
 40
0.486502775
 40
0.5564831754
 40
0.6286601631
 40
0.7024262429
 40
0.7771273028
 40
0.8520744913
 40
0.9266035764
 40
1.0
 40
1.0
 40
1.0
 40
1.0
 10
21.7583776553
 20
8.8061697105
 30
0.0
 10
21.8465792781
 20
8.7552512817
 30
0.0
 10
22.0289512514
 20
8.6620484948
 30
0.0
 10
22.3167173578
 20
8.5500292955
 30
0.0
 10
22.6181070668
 20
8.4659755772
 30
0.0
 10
22.9319847072
 20
8.4102336832
 30
0.0
 10
23.2572388162
 20
8.3828592768
 30
0.0
 10
23.7114624886
 20
8.384378018
 30
0.0
 10
24.3043416535
 20
8.4609215149
 30
0.0
 10
25.0295410025
 20
8.6635816415
 30
0.0
 10
25.7703453797
 20
8.9749339078
 30
0.0
 10
26.5169203276
 20
9.390456353
 30
0.0
 10
27.2594647547
 20
9.9043964576
 30
0.0
 10
27.9880399497
 20
10.509754714
 30
0.0
 10
28.6928416623
 20
11.1982781041
 30
0.0
 10
29.3643207266
 20
11.9605870172
 30
0.0
 10
29.9933328895
 20
12.786303544
 30
0.0
 10
30.5712506495
 20
13.6641430247
 30
0.0
 10
31.0902937477
 20
14.5821596996
 30
0.0
 10
31.543192978
 20
15.5277036232
 30
0.0
 10
31.7997438454
 20
16.1747274286
 30
0.0
 10
31.9151314772
 20
16.49986904
 30
0.0
  0
SPLINE
  5
3EF
100
AcDbEntity
  8
0
100
AcDbSpline
 62
7
  6
BYLAYER
 70
0
 71
3
 72
23
 73
19
 74
0
 42
0.0000001
 43
0.0000001
 44
0.0000000001
 40
0.0
 40
0.0
 40
0.0
 40
0.0
 40
0.0510517542
 40
0.1053186405
 40
0.162691575
 40
0.2229319214
 40
0.285702158
 40
0.3505845837
 40
0.4170985878
 40
0.4847215132
 40
0.5529005074
 40
0.6210676139
 40
0.6886565335
 40
0.7551180469
 40
0.8199261496
 40
0.8826028301
 40
0.9427568234
 40
1.0
 40
1.0
 40
1.0
 40
1.0
 10
17.4758634089
 20
11.2866159536
 30
0.0
 10
17.3448224343
 20
11.1675237583
 30
0.0
 10
17.0587272614
 20
10.9388252889
 30
0.0
 10
16.5818234163
 20
10.6355056487
 30
0.0
 10
16.0496766271
 20
10.3648829537
 30
0.0
 10
15.4689420492
 20
10.130202401
 30
0.0
 10
14.8467209275
 20
9.9342902613
 30
0.0
 10
14.1906813928
 20
9.7795858361
 30
0.0
 10
13.5089393362
 20
9.667932815
 30
0.0
 10
12.8099267296
 20
9.6007402814
 30
0.0
 10
12.1023093261
 20
9.5788627341
 30
0.0
 10
11.3948669369
 20
9.6025126367
 30
0.0
 10
10.696365996
 20
9.6714451055
 30
0.0
 10
10.0154706263
 20
9.7848169807
 30
0.0
 10
9.3606063908
 20
9.9411523389
 30
0.0
 10
8.7397851595
 20
10.1386204198
 30
0.0
 10
8.1608584985
 20
10.3747923164
 30
0.0
 10
7.7979450122
 20
10.5609501131
 30
0.0
 10
7.6259969103
 20
10.6602221502
 30
0.0
  0
SPLINE
  5
3F0
100
AcDbEntity
  8
0
100
AcDbSpline
 62
7
  6
BYLAYER
 70
0
 71
3
 72
15
 73
11
 74
0
 42
0.0000001
 43
0.0000001
 44
0.0000000001
 40
0.0
 40
0.0
 40
0.0
 40
0.0
 40
0.1485550617
 40
0.2895093594
 40
0.422733182
 40
0.5486412726
 40
0.6680022145
 40
0.7819400174
 40
0.8919875407
 40
1.0
 40
1.0
 40
1.0
 40
1.0
 10
7.6259969103
 20
7.7208134485
 30
0.0
 10
7.4828097788
 20
7.8034807072
 30
0.0
 10
7.2102528861
 20
7.9762686806
 30
0.0
 10
6.8375759721
 20
8.2646589084
 30
0.0
 10
6.5152429243
 20
8.5732031127
 30
0.0
 10
6.2464861424
 20
8.8989853958
 30
0.0
 10
6.0339846361
 20
9.2391222741
 30
0.0
 10
5.880185168
 20
9.5905804418
 30
0.0
 10
5.7869770947
 20
9.9497639647
 30
0.0
 10
5.7661278278
 20
10.1929492369
 30
0.0
 10
5.7661278862
 20
10.3131638606
 30
0.0
  0
SPLINE
  5
3F1
100
AcDbEntity
  8
0
100
AcDbSpline
 62
7
  6
BYLAYER
 70
0
 71
3
 72
15
 73
11
 74
0
 42
0.0000001
 43
0.0000001
 44
0.0000000001
 40
0.0
 40
0.0
 40
0.0
 40
0.0
 40
0.1485550617
 40
0.2895093594
 40
0.422733182
 40
0.5486412726
 40
0.6680022145
 40
0.7819400174
 40
0.8919875407
 40
1.0
 40
1.0
 40
1.0
 40
1.0
 10
7.6259969103
 20
10.6602221502
 30
0.0
 10
7.4828097788
 20
10.7428894089
 30
0.0
 10
7.2102528861
 20
10.9156773822
 30
0.0
 10
6.8375759721
 20
11.20406761
 30
0.0
 10
6.5152429243
 20
11.5126118143
 30
0.0
 10
6.2464861424
 20
11.8383940975
 30
0.0
 10
6.0339846361
 20
12.1785309758
 30
0.0
 10
5.880185168
 20
12.5299891434
 30
0.0
 10
5.7869770947
 20
12.8891726664
 30
0.0
 10
5.7661278278
 20
13.1323579386
 30
0.0
 10
5.7661278862
 20
13.2525725623
 30
0.0
  0
SPLINE
  5
3F2
100
AcDbEntity
  8
0
100
AcDbSpline
 62
7
  6
BYLAYER
 70
0
 71
3
 72
29
 73
25
 74
0
 42
0.0000001
 43
0.0000001
 44
0.0000000001
 40
0.0
 40
0.0
 40
0.0
 40
0.0
 40
0.0213284461
 40
0.0428853152
 40
0.0648868933
 40
0.0875275949
 40
0.1109733634
 40
0.135355597
 40
0.1607747403
 40
0.1872953165
 40
0.2149545068
 40
0.2437602709
 40
0.3046971413
 40
0.3697728886
 40
0.4383575823
 40
0.5096312958
 40
0.5826430095
 40
0.6563623413
 40
0.7297255498
 40
0.8016903149
 40
0.8712681078
 40
0.9376035413
 40
0.9693435472
 40
1.0
 40
1.0
 40
1.0
 40
1.0
 10
18.4660846669
 20
10.3131637906
 30
0.0
 10
18.4660846232
 20
10.2230809839
 30
0.0
 10
18.4544842665
 20
10.0417399634
 30
0.0
 10
18.4023551105
 20
9.7719948287
 30
0.0
 10
18.3159444179
 20
9.5053719771
 30
0.0
 10
18.1957848613
 20
9.2434291058
 30
0.0
 10
18.0426232651
 20
8.9875905442
 30
0.0
 10
17.8574400493
 20
8.7391622012
 30
0.0
 10
17.6412052754
 20
8.4995130435
 30
0.0
 10
17.3952156685
 20
8.2698012654
 30
0.0
 10
17.1207389243
 20
8.0512839823
 30
0.0
 10
16.7111799092
 20
7.7711139924
 30
0.0
 10
16.1350857915
 20
7.4578024815
 30
0.0
 10
15.3713150257
 20
7.150111014
 30
0.0
 10
14.5382682219
 20
6.9100195807
 30
0.0
 10
13.653676661
 20
6.7425945908
 30
0.0
 10
12.7362943666
 20
6.6513606766
 30
0.0
 10
11.8056866194
 20
6.6382722993
 30
0.0
 10
10.881702719
 20
6.7035800183
 30
0.0
 10
9.9840375779
 20
6.845938617
 30
0.0
 10
9.1318142832
 20
7.062245466
 30
0.0
 10
8.4646939442
 20
7.3039627826
 30
0.0
 10
7.9707039597
 20
7.5317000312
 30
0.0
 10
7.7381310056
 20
7.656074263
 30
0.0
 10
7.6259969103
 20
7.7208134485
 30
0.0
  0
SPLINE
  5
3F3
100
AcDbEntity
  8
0
100
AcDbSpline
 62
7
  6
BYLAYER
 70
0
 71
3
 72
18
 73
14
 74
0
 42
0.0000001
 43
0.0000001
 44
0.0000000001
 40
0.0
 40
0.0
 40
0.0
 40
0.0
 40
0.125773411
 40
0.2552169012
 40
0.3863896125
 40
0.5172656954
 40
0.6458345054
 40
0.7086714226
 40
0.7702314889
 40
0.8303107422
 40
0.8887407406
 40
0.9453621696
 40
1.0
 40
1.0
 40
1.0
 40
1.0
 10
15.4921666477
 20
12.4129304448
 30
0.0
 10
15.1160070552
 20
12.3118502799
 30
0.0
 10
14.3418934118
 20
12.1453415155
 30
0.0
 10
13.1523271035
 20
12.0024839055
 30
0.0
 10
11.938911382
 20
11.9648449628
 30
0.0
 10
10.7296493092
 20
12.0333424783
 30
0.0
 10
9.7406558103
 20
12.1786536283
 30
0.0
 10
8.9753960899
 20
12.3474711787
 30
0.0
 10
8.4239632491
 20
12.4977621334
 30
0.0
 10
7.8939259625
 20
12.6718813185
 30
0.0
 10
7.3882746516
 20
12.8688025528
 30
0.0
 10
6.91008612
 20
13.0874200004
 30
0.0
 10
6.6058133003
 20
13.2496775276
 30
0.0
 10
6.4592755789
 20
13.3342792065
 30
0.0
  0
SPLINE
  5
3F4
100
AcDbEntity
  8
0
100
AcDbSpline
 62
7
  6
BYLAYER
 70
0
 71
3
 72
15
 73
11
 74
0
 42
0.0000001
 43
0.0000001
 44
0.0000000001
 40
0.0
 40
0.0
 40
0.0
 40
0.0
 40
0.148574205
 40
0.2895120449
 40
0.4227288316
 40
0.5486424549
 40
0.6680038396
 40
0.7819407218
 40
0.8919880057
 40
1.0
 40
1.0
 40
1.0
 40
1.0
 10
6.4592755789
 20
13.3342792065
 30
0.0
 10
6.2788589953
 20
13.4384404132
 30
0.0
 10
5.9354649199
 20
13.6561110767
 30
0.0
 10
5.465978145
 20
14.0194634093
 30
0.0
 10
5.0598985347
 20
14.4081529975
 30
0.0
 10
4.721313703
 20
14.8185917682
 30
0.0
 10
4.4535804524
 20
15.2471083974
 30
0.0
 10
4.259813018
 20
15.689891827
 30
0.0
 10
4.1424339144
 20
16.1424127759
 30
0.0
 10
4.1161121411
 20
16.4487815104
 30
0.0
 10
4.1161121434
 20
16.6002324375
 30
0.0
  0
SPLINE
  5
3F5
100
AcDbEntity
  8
0
100
AcDbSpline
 62
7
  6
BYLAYER
 70
0
 71
3
 72
15
 73
11
 74
0
 42
0.0000001
 43
0.0000001
 44
0.0000000001
 40
0.0
 40
0.0
 40
0.0
 40
0.0
 40
0.1484729998
 40
0.2894667185
 40
0.4227513796
 40
0.5486589981
 40
0.6679939989
 40
0.7819275581
 40
0.8919838442
 40
1.0
 40
1.0
 40
1.0
 40
1.0
 10
31.9151314772
 20
25.0819070102
 30
0.0
 10
31.9151314772
 20
25.1339538359
 30
0.0
 10
31.9109045199
 20
25.2354939684
 30
0.0
 10
31.8909430283
 20
25.3825718587
 30
0.0
 10
31.8575502093
 20
25.5191229518
 30
0.0
 10
31.8110035596
 20
25.6437465542
 30
0.0
 10
31.7516866763
 20
25.7552629893
 30
0.0
 10
31.6800297898
 20
25.8525432869
 30
0.0
 10
31.5967542052
 20
25.9345574698
 30
0.0
 10
31.5336888883
 20
25.9785298999
 30
0.0
 10
31.5008954549
 20
25.9974595745
 30
0.0
  0
SPLINE
  5
3F6
100
AcDbEntity
  8
0
100
AcDbSpline
 62
7
  6
BYLAYER
 70
0
 71
3
 72
15
 73
11
 74
0
 42
0.0000001
 43
0.0000001
 44
0.0000000001
 40
0.0
 40
0.0
 40
0.0
 40
0.0
 40
0.1485637139
 40
0.2895074103
 40
0.4227262008
 40
0.5486371596
 40
0.6679996638
 40
0.7819365854
 40
0.8919851595
 40
1.0
 40
1.0
 40
1.0
 40
1.0
 10
26.2583007795
 20
22.7037970864
 30
0.0
 10
26.4268623252
 20
22.8011155593
 30
0.0
 10
26.7634242388
 20
22.9772775683
 30
0.0
 10
27.2767702497
 20
23.1874317362
 30
0.0
 10
27.781012224
 20
23.334429173
 30
0.0
 10
28.2713123932
 20
23.4166463436
 30
0.0
 10
28.7431383461
 20
23.4331037676
 30
0.0
 10
29.1919528053
 20
23.3830158692
 30
0.0
 10
29.6129784299
 20
23.2666214565
 30
0.0
 10
29.8731711205
 20
23.1447539645
 30
0.0
 10
29.9957307115
 20
23.0740063817
 30
0.0
  0
SPLINE
  5
3F7
100
AcDbEntity
  8
0
100
AcDbSpline
 62
7
  6
BYLAYER
 70
0
 71
3
 72
15
 73
11
 74
0
 42
0.0000001
 43
0.0000001
 44
0.0000000001
 40
0.0
 40
0.0
 40
0.0
 40
0.0
 40
0.1080109655
 40
0.2180573526
 40
0.3319945283
 40
0.4513548535
 40
0.5772627065
 40
0.710487607
 40
0.851444301
 40
1.0
 40
1.0
 40
1.0
 40
1.0
 10
5.7661277851
 20
12.2727696424
 30
0.0
 10
5.7661275272
 20
12.1525566932
 30
0.0
 10
5.7869776535
 20
11.9093745583
 30
0.0
 10
5.8801819518
 20
11.5501938617
 30
0.0
 10
6.033981303
 20
11.1987385902
 30
0.0
 10
6.2464781897
 20
10.8586009258
 30
0.0
 10
6.5152350073
 20
10.5328182663
 30
0.0
 10
6.8375689895
 20
10.2242698936
 30
0.0
 10
7.2102502818
 20
9.9358778429
 30
0.0
 10
7.4828091788
 20
9.7630868548
 30
0.0
 10
7.6259969103
 20
9.6804192496
 30
0.0
  0
SPLINE
  5
3F8
100
AcDbEntity
  8
0
100
AcDbSpline
 62
7
  6
BYLAYER
 70
0
 71
3
 72
9
 73
5
 74
0
 42
0.0000001
 43
0.0000001
 44
0.0000000001
 40
0.0
 40
0.0
 40
0.0
 40
0.0
 40
0.5112553358
 40
1.0
 40
1.0
 40
1.0
 40
1.0
 10
27.3068724932
 20
11.2237788158
 30
0.0
 10
27.1378857718
 20
11.0867178515
 30
0.0
 10
26.7977042277
 20
10.8302606852
 30
0.0
 10
26.4384364684
 20
10.601086718
 30
0.0
 10
26.2583007795
 20
10.4970859504
 30
0.0
  0
SPLINE
  5
3F9
100
AcDbEntity
  8
0
100
AcDbSpline
 62
7
  6
BYLAYER
 70
0
 71
3
 72
12
 73
8
 74
0
 42
0.0000001
 43
0.0000001
 44
0.0000000001
 40
0.0
 40
0.0
 40
0.0
 40
0.0
 40
0.1141971386
 40
0.2295721934
 40
0.4679337548
 40
0.723258321
 40
1.0
 40
1.0
 40
1.0
 40
1.0
 10
31.5008954549
 20
25.9974595745
 30
0.0
 10
31.4766191754
 20
26.011472809
 30
0.0
 10
31.4259751436
 20
26.0365900124
 30
0.0
 10
31.3172873388
 20
26.0744835782
 30
0.0
 10
31.1679971882
 20
26.0971378626
 30
0.0
 10
30.9781399922
 20
26.0842573401
 30
0.0
 10
30.8509513313
 20
26.0515181656
 30
0.0
 10
30.7866223229
 20
26.0297003221
 30
0.0
  0
SPLINE
  5
3FA
100
AcDbEntity
  8
0
100
AcDbSpline
 62
7
  6
BYLAYER
 70
0
 71
3
 72
15
 73
11
 74
0
 42
0.0000001
 43
0.0000001
 44
0.0000000001
 40
0.0
 40
0.0
 40
0.0
 40
0.0
 40
0.1121403791
 40
0.2242088325
 40
0.3384673417
 40
0.4569756142
 40
0.581400703
 40
0.7129588589
 40
0.852445387
 40
1.0
 40
1.0
 40
1.0
 40
1.0
 10
5.8967007213
 20
39.5319626888
 30
0.0
 10
5.8697901416
 20
39.3931266264
 30
0.0
 10
5.8412327599
 20
39.1098934396
 30
0.0
 10
5.8786545122
 20
38.6823051637
 30
0.0
 10
5.996081258
 20
38.2611070232
 30
0.0
 10
6.1915593175
 20
37.8529407612
 30
0.0
 10
6.461962402
 20
37.4635149092
 30
0.0
 10
6.8036319162
 20
37.0980563162
 30
0.0
 10
7.2119351236
 20
36.7614556569
 30
0.0
 10
7.5165942624
 20
36.5644109906
 30
0.0
 10
7.6777403053
 20
36.4713623497
 30
0.0
  0
SPLINE
  5
3FB
100
AcDbEntity
  8
0
100
AcDbSpline
 62
7
  6
BYLAYER
 70
0
 71
3
 72
11
 73
7
 74
0
 42
0.0000001
 43
0.0000001
 44
0.0000000001
 40
0.0
 40
0.0
 40
0.0
 40
0.0
 40
0.2710760272
 40
0.5270114099
 40
0.7691697601
 40
1.0
 40
1.0
 40
1.0
 40
1.0
 10
6.4592755789
 20
26.7148156386
 30
0.0
 10
6.2176279418
 20
26.854343884
 30
0.0
 10
5.7643783023
 20
27.1561190739
 30
0.0
 10
5.174479389
 20
27.6888879959
 30
0.0
 10
4.7044819825
 20
28.2782757782
 30
0.0
 10
4.4725859859
 20
28.7102107406
 30
0.0
 10
4.3812156869
 20
28.9295499336
 30
0.0
  0
SPLINE
  5
3FC
100
AcDbEntity
  8
0
100
AcDbSpline
 62
7
  6
BYLAYER
 70
0
 71
3
 72
14
 73
10
 74
0
 42
0.0000001
 43
0.0000001
 44
0.0000000001
 40
0.0
 40
0.0
 40
0.0
 40
0.0
 40
0.2548797492
 40
0.3836403938
 40
0.5126620103
 40
0.6410781669
 40
0.7672762851
 40
0.8883538917
 40
1.0
 40
1.0
 40
1.0
 40
1.0
 10
11.044100745
 20
14.9919202367
 30
0.0
 10
10.6349874323
 20
15.2281207679
 30
0.0
 10
10.0347994872
 20
15.6109509477
 30
0.0
 10
9.2567123139
 20
16.1563175776
 30
0.0
 10
8.6789778109
 20
16.5789868574
 30
0.0
 10
8.1090589363
 20
17.0041455781
 30
0.0
 10
7.5487279625
 20
17.4175784021
 30
0.0
 10
7.0037456886
 20
17.7992521822
 30
0.0
 10
6.6384820952
 20
18.0293152048
 30
0.0
 10
6.4592755789
 20
18.1327777946
 30
0.0
  0
SPLINE
  5
3FD
100
AcDbEntity
  8
0
100
AcDbSpline
 62
7
  6
BYLAYER
 70
0
 71
3
 72
15
 73
11
 74
0
 42
0.0000001
 43
0.0000001
 44
0.0000000001
 40
0.0
 40
0.0
 40
0.0
 40
0.0
 40
0.1214030119
 40
0.2486794652
 40
0.3794212088
 40
0.5112214388
 40
0.6415025987
 40
0.767780807
 40
0.8879185916
 40
1.0
 40
1.0
 40
1.0
 40
1.0
 10
21.7299792361
 20
20.8008762099
 30
0.0
 10
21.648744293
 20
20.734626402
 30
0.0
 10
21.4908289319
 20
20.5882859856
 30
0.0
 10
21.2758641211
 20
20.3403272529
 30
0.0
 10
21.0820498063
 20
20.0644501507
 30
0.0
 10
20.9149131878
 20
19.768687318
 30
0.0
 10
20.7792753406
 20
19.461408819
 30
0.0
 10
20.6789149747
 20
19.1513590544
 30
0.0
 10
20.616824575
 20
18.8474423615
 30
0.0
 10
20.6014700818
 20
18.6467762809
 30
0.0
 10
20.6014700818
 20
18.5500005482
 30
0.0
  0
SPLINE
  5
3FE
100
AcDbEntity
  8
0
100
AcDbSpline
 62
7
  6
BYLAYER
 70
0
 71
3
 72
15
 73
11
 74
0
 42
0.0000001
 43
0.0000001
 44
0.0000000001
 40
0.0
 40
0.0
 40
0.0
 40
0.0
 40
0.1137611632
 40
0.2308453422
 40
0.3512073095
 40
0.4748075295
 40
0.60159035
 40
0.7314733296
 40
0.8643405174
 40
1.0
 40
1.0
 40
1.0
 40
1.0
 10
30.7866223229
 20
26.0297003221
 30
0.0
 10
30.4091385284
 20
25.9016728187
 30
0.0
 10
29.650249454
 20
25.6204855001
 30
0.0
 10
28.5195269136
 20
25.1336548014
 30
0.0
 10
27.383040104
 20
24.5768770214
 30
0.0
 10
26.2438078969
 20
23.9517394711
 30
0.0
 10
25.104694596
 20
23.2597844088
 30
0.0
 10
23.9685283385
 20
22.50278422
 30
0.0
 10
22.8384012817
 20
21.6827198346
 30
0.0
 10
22.0983440928
 20
21.1012900472
 30
0.0
 10
21.7299792361
 20
20.8008762099
 30
0.0
  0
SPLINE
  5
3FF
100
AcDbEntity
  8
0
100
AcDbSpline
 62
7
  6
BYLAYER
 70
0
 71
3
 72
15
 73
11
 74
0
 42
0.0000001
 43
0.0000001
 44
0.0000000001
 40
0.0
 40
0.0
 40
0.0
 40
0.0
 40
0.1485637139
 40
0.2895074103
 40
0.4227262008
 40
0.5486371596
 40
0.6679996638
 40
0.7819365854
 40
0.8919851595
 40
1.0
 40
1.0
 40
1.0
 40
1.0
 10
26.2583007795
 20
10.4970859504
 30
0.0
 10
26.0897392338
 20
10.3997674775
 30
0.0
 10
25.7531773202
 20
10.2236054685
 30
0.0
 10
25.2398313093
 20
10.0134513006
 30
0.0
 10
24.735589335
 20
9.8664538638
 30
0.0
 10
24.2452891658
 20
9.7842366933
 30
0.0
 10
23.7734632129
 20
9.7677792692
 30
0.0
 10
23.3246487537
 20
9.8178671677
 30
0.0
 10
22.9036231292
 20
9.9342615803
 30
0.0
 10
22.6434304385
 20
10.0561290723
 30
0.0
 10
22.5208708476
 20
10.1268766551
 30
0.0
  0
SPLINE
  5
400
100
AcDbEntity
  8
0
100
AcDbSpline
 62
7
  6
BYLAYER
 70
0
 71
3
 72
15
 73
11
 74
0
 42
0.0000001
 43
0.0000001
 44
0.0000000001
 40
0.0
 40
0.0
 40
0.0
 40
0.0
 40
0.1400288054
 40
0.2748955628
 40
0.4051225537
 40
0.5311744385
 40
0.6534313756
 40
0.7721867878
 40
0.8876545185
 40
1.0
 40
1.0
 40
1.0
 40
1.0
 10
12.9140730067
 20
25.8906268991
 30
0.0
 10
12.6123209839
 20
25.9340951829
 30
0.0
 10
12.0194945456
 20
26.0162989875
 30
0.0
 10
11.1458549814
 20
26.1376072028
 30
0.0
 10
10.3031388645
 20
26.2603112826
 30
0.0
 10
9.4888668407
 20
26.3875728002
 30
0.0
 10
8.700955585
 20
26.5213630828
 30
0.0
 10
7.9378698596
 20
26.6631926425
 30
0.0
 10
7.1984943617
 20
26.8139005633
 30
0.0
 10
6.7145234029
 20
26.9226341034
 30
0.0
 10
6.4765272151
 20
26.9790676962
 30
0.0
  0
SPLINE
  5
401
100
AcDbEntity
  8
0
100
AcDbSpline
 62
7
  6
BYLAYER
 70
0
 71
3
 72
9
 73
5
 74
0
 42
0.0000001
 43
0.0000001
 44
0.0000000001
 40
0.0
 40
0.0
 40
0.0
 40
0.0
 40
0.2433823952
 40
1.0
 40
1.0
 40
1.0
 40
1.0
 10
6.4592783407
 20
26.7148172315
 30
0.0
 10
6.4592783215
 20
26.7363090003
 30
0.0
 10
6.4607981131
 20
26.8246102331
 30
0.0
 10
6.4681416876
 20
26.9127845345
 30
0.0
 10
6.4765296835
 20
26.9790686732
 30
0.0
  0
SPLINE
  5
402
100
AcDbEntity
  8
0
100
AcDbSpline
 62
7
  6
BYLAYER
 70
0
 71
3
 72
11
 73
7
 74
0
 42
0.0000001
 43
0.0000001
 44
0.0000000001
 40
0.0
 40
0.0
 40
0.0
 40
0.0
 40
0.25080262
 40
0.50093817
 40
0.7501453602
 40
1.0
 40
1.0
 40
1.0
 40
1.0
 10
6.4286068554
 20
27.007357498
 30
0.0
 10
6.432615523
 20
27.004996241
 30
0.0
 10
6.440483428
 20
27.0000489239
 30
0.0
 10
6.4524539301
 20
26.9929518549
 30
0.0
 10
6.464519291
 20
26.9860542904
 30
0.0
 10
6.472513452
 20
26.9813853542
 30
0.0
 10
6.4765272218
 20
26.9790677511
 30
0.0
  0
SPLINE
  5
403
100
AcDbEntity
  8
0
100
AcDbSpline
 62
7
  6
BYLAYER
 70
0
 71
3
 72
13
 73
9
 74
0
 42
0.0000001
 43
0.0000001
 44
0.0000000001
 40
0.0
 40
0.0
 40
0.0
 40
0.0
 40
0.1123305635
 40
0.2275023215
 40
0.4680798514
 40
0.7251700474
 40
0.8601384539
 40
1.0
 40
1.0
 40
1.0
 40
1.0
 10
4.381221122
 20
28.9295508097
 30
0.0
 10
4.425814992
 20
28.8320523226
 30
0.0
 10
4.5267423861
 20
28.6392696511
 30
0.0
 10
4.7732814796
 20
28.2659228694
 30
0.0
 10
5.166324165
 20
27.8280790368
 30
0.0
 10
5.6415607175
 20
27.4508861024
 30
0.0
 10
6.0757036092
 20
27.1869054734
 30
0.0
 10
6.3086401903
 20
27.0659016187
 30
0.0
 10
6.4286068554
 20
27.007357498
 30
0.0
  0
SPLINE
  5
404
100
AcDbEntity
  8
0
100
AcDbSpline
 62
7
  6
BYLAYER
 70
0
 71
3
 72
11
 73
7
 74
0
 42
0.0000001
 43
0.0000001
 44
0.0000000001
 40
0.0
 40
0.0
 40
0.0
 40
0.0
 40
0.308665432
 40
0.575168798
 40
0.8039120443
 40
1.0
 40
1.0
 40
1.0
 40
1.0
 10
19.4377646625
 20
33.4458310733
 30
0.0
 10
19.4438250031
 20
33.4803943946
 30
0.0
 10
19.4536663288
 20
33.5450755612
 30
0.0
 10
19.4615947112
 20
33.636208897
 30
0.0
 10
19.4617271723
 20
33.7149112651
 30
0.0
 10
19.456319887
 20
33.7630749248
 30
0.0
 10
19.4520751762
 20
33.7849593186
 30
0.0
  0
SPLINE
  5
405
100
AcDbEntity
  8
0
100
AcDbSpline
 62
7
  6
BYLAYER
 70
0
 71
3
 72
24
 73
20
 74
0
 42
0.0000001
 43
0.0000001
 44
0.0000000001
 40
0.0
 40
0.0
 40
0.0
 40
0.0
 40
0.0813851552
 40
0.1628350005
 40
0.2437558473
 40
0.323523258
 40
0.4014902913
 40
0.4769974867
 40
0.5493902314
 40
0.6180601672
 40
0.682450794
 40
0.7421481253
 40
0.7968418518
 40
0.8464163085
 40
0.8909442437
 40
0.9308445329
 40
0.9668313897
 40
0.9836916276
 40
1.0
 40
1.0
 40
1.0
 40
1.0
 10
12.3791348474
 20
29.3705674409
 30
0.0
 10
12.6023126503
 20
29.4192117263
 30
0.0
 10
13.046600955
 20
29.5271028317
 30
0.0
 10
13.7040806606
 20
29.7168381585
 30
0.0
 10
14.349265348
 20
29.9308653712
 30
0.0
 10
14.9769346154
 20
30.1651223744
 30
0.0
 10
15.5819058079
 20
30.4155518529
 30
0.0
 10
16.1588934458
 20
30.6784413176
 30
0.0
 10
16.702766403
 20
30.9501528892
 30
0.0
 10
17.20848005
 20
31.2275230126
 30
0.0
 10
17.6715027324
 20
31.5076861406
 30
0.0
 10
18.0876731222
 20
31.788432687
 30
0.0
 10
18.4535693225
 20
32.0680670847
 30
0.0
 10
18.7662898131
 20
32.3455416085
 30
0.0
 10
19.0236775755
 20
32.6207330159
 30
0.0
 10
19.224076113
 20
32.8940435487
 30
0.0
 10
19.3448726015
 20
33.1262723177
 30
0.0
 10
19.4085768766
 20
33.3099133672
 30
0.0
 10
19.4298498048
 20
33.4007645838
 30
0.0
 10
19.437766641
 20
33.4458462022
 30
0.0
  0
SPLINE
  5
406
100
AcDbEntity
  8
0
100
AcDbSpline
 62
7
  6
BYLAYER
 70
0
 71
3
 72
15
 73
11
 74
0
 42
0.0000001
 43
0.0000001
 44
0.0000000001
 40
0.0
 40
0.0
 40
0.0
 40
0.0
 40
0.1039003068
 40
0.2144203487
 40
0.3314073086
 40
0.4545370426
 40
0.5834726437
 40
0.7178505254
 40
0.857052686
 40
1.0
 40
1.0
 40
1.0
 40
1.0
 10
6.4765377187
 20
26.9790433624
 30
0.0
 10
6.6752858588
 20
27.0758229047
 30
0.0
 10
7.0852168145
 20
27.276015903
 30
0.0
 10
7.7198741899
 20
27.5832396045
 30
0.0
 10
8.3940234413
 20
27.9027538237
 30
0.0
 10
9.1087351647
 20
28.2280133296
 30
0.0
 10
9.864441314
 20
28.5521508621
 30
0.0
 10
10.6620953094
 20
28.8644639808
 30
0.0
 10
11.5014397896
 20
29.1498994677
 30
0.0
 10
12.0819736865
 20
29.3058114199
 30
0.0
 10
12.3791382267
 20
29.3705554362
 30
0.0
  0
SPLINE
  5
407
100
AcDbEntity
  8
0
100
AcDbSpline
 62
7
  6
BYLAYER
 70
0
 71
3
 72
32
 73
28
 74
0
 42
0.0000001
 43
0.0000001
 44
0.0000000001
 40
0.0
 40
0.0
 40
0.0
 40
0.0
 40
0.0312909166
 40
0.063685989
 40
0.1314064852
 40
0.2024939117
 40
0.2760505151
 40
0.3510135776
 40
0.4262295193
 40
0.5005011812
 40
0.5726512033
 40
0.6075922222
 40
0.6416025528
 40
0.6745677271
 40
0.7063916673
 40
0.7369927329
 40
0.7663134857
 40
0.7943207433
 40
0.8210109919
 40
0.8464177591
 40
0.8706111737
 40
0.8937099492
 40
0.9158763189
 40
0.9373226407
 40
0.9583011199
 40
0.9790949407
 40
1.0
 40
1.0
 40
1.0
 40
1.0
 10
7.6777403053
 20
36.4713623497
 30
0.0
 10
7.7934900274
 20
36.4045445727
 30
0.0
 10
8.0340956669
 20
36.2770867522
 30
0.0
 10
8.5466385774
 20
36.0475616691
 30
0.0
 10
9.2409805916
 20
35.8122863291
 30
0.0
 10
10.1282430063
 20
35.6164680329
 30
0.0
 10
11.0611620061
 20
35.5059299051
 30
0.0
 10
12.0177647326
 20
35.4815322541
 30
0.0
 10
12.9757881779
 20
35.5418668537
 30
0.0
 10
13.9129619655
 20
35.6836841695
 30
0.0
 10
14.666701482
 20
35.8675933769
 30
0.0
 10
15.2406142674
 20
36.0522318455
 30
0.0
 10
15.6480555291
 20
36.2060393836
 30
0.0
 10
16.034665397
 20
36.3757049265
 30
0.0
 10
16.3982269162
 20
36.5601285177
 30
0.0
 10
16.7366115506
 20
36.7582643074
 30
0.0
 10
17.0478619972
 20
36.9689583749
 30
0.0
 10
17.3301751179
 20
37.1910466569
 30
0.0
 10
17.5818704289
 20
37.4233807325
 30
0.0
 10
17.801508182
 20
37.6647074449
 30
0.0
 10
17.9876734388
 20
37.9138919345
 30
0.0
 10
18.13927365
 20
38.1696273059
 30
0.0
 10
18.2551652531
 20
38.4307118562
 30
0.0
 10
18.3345564866
 20
38.6957472609
 30
0.0
 10
18.3767063868
 20
38.9633331051
 30
0.0
 10
18.3812261036
 20
39.2318429627
 30
0.0
 10
18.3592667258
 20
39.4092664502
 30
0.0
 10
18.3423185774
 20
39.4969338164
 30
0.0
  0
SPLINE
  5
408
100
AcDbEntity
  8
0
100
AcDbSpline
 62
7
  6
BYLAYER
 70
0
 71
3
 72
16
 73
12
 74
0
 42
0.0000001
 43
0.0000001
 44
0.0000000001
 40
0.0
 40
0.0
 40
0.0
 40
0.0
 40
0.1091169072
 40
0.2292351576
 40
0.2928632927
 40
0.3583146946
 40
0.4925987974
 40
0.6280336155
 40
0.7602555746
 40
0.8851600604
 40
1.0
 40
1.0
 40
1.0
 40
1.0
 10
9.5282689916
 20
39.5914526387
 30
0.0
 10
9.4180395767
 20
39.5130181593
 30
0.0
 10
9.196435441
 20
39.3339836493
 30
0.0
 10
8.9390648763
 20
39.0769218728
 30
0.0
 10
8.7375980253
 20
38.8425262
 30
0.0
 10
8.5371666524
 20
38.5846166568
 30
0.0
 10
8.3062158492
 20
38.2382705254
 30
0.0
 10
8.0715198699
 20
37.7978089093
 30
0.0
 10
7.8840463588
 20
37.3477739547
 30
0.0
 10
7.7510423679
 20
36.9053820546
 30
0.0
 10
7.6956173045
 20
36.6126188823
 30
0.0
 10
7.6777419896
 20
36.4713631094
 30
0.0
  0
SPLINE
  5
409
100
AcDbEntity
  8
0
100
AcDbSpline
 62
7
  6
BYLAYER
 70
0
 71
3
 72
13
 73
9
 74
0
 42
0.0000001
 43
0.0000001
 44
0.0000000001
 40
0.0
 40
0.0
 40
0.0
 40
0.0
 40
0.2679845311
 40
0.523332771
 40
0.6461062048
 40
0.7659472607
 40
0.8835552247
 40
1.0
 40
1.0
 40
1.0
 40
1.0
 10
14.7039435616
 20
42.579611828
 30
0.0
 10
14.8102809498
 20
42.6267338453
 30
0.0
 10
15.0252217643
 20
42.7035164422
 30
0.0
 10
15.3045636748
 20
42.7476512767
 30
0.0
 10
15.5211525299
 20
42.7418328156
 30
0.0
 10
15.676061134
 20
42.7173934471
 30
0.0
 10
15.8234630188
 20
42.6724307136
 30
0.0
 10
15.9155107419
 20
42.6283422126
 30
0.0
 10
15.9592397354
 20
42.6030046064
 30
0.0
  0
SPLINE
  5
40A
100
AcDbEntity
  8
0
100
AcDbSpline
 62
7
  6
BYLAYER
 70
0
 71
3
 72
35
 73
31
 74
0
 42
0.0000001
 43
0.0000001
 44
0.0000000001
 40
0.0
 40
0.0
 40
0.0
 40
0.0
 40
0.0309289906
 40
0.0635971693
 40
0.097796723
 40
0.1333003837
 40
0.1698687544
 40
0.2072441159
 40
0.2833198036
 40
0.3595068853
 40
0.3971013393
 40
0.4340801346
 40
0.5054717228
 40
0.5396660815
 40
0.5727028827
 40
0.6045118591
 40
0.6350600123
 40
0.6643407945
 40
0.6923833661
 40
0.7192662852
 40
0.7451122524
 40
0.770084173
 40
0.7943978366
 40
0.8183287877
 40
0.8421805083
 40
0.8662631145
 40
0.8908929444
 40
0.9163810915
 40
0.94297242
 40
1.0
 40
1.0
 40
1.0
 40
1.0
 10
14.7039411879
 20
42.5796108113
 30
0.0
 10
14.6244050714
 20
42.6255237442
 30
0.0
 10
14.4566412628
 20
42.7127429943
 30
0.0
 10
14.1894631797
 20
42.8270710396
 30
0.0
 10
13.9023171449
 20
42.9274671715
 30
0.0
 10
13.5982618011
 20
43.0125975321
 30
0.0
 10
13.2803920952
 20
43.0811471314
 30
0.0
 10
12.8400728798
 20
43.1498495586
 30
0.0
 10
12.2771284628
 20
43.1896941893
 30
0.0
 10
11.712567709
 20
43.1655008866
 30
0.0
 10
11.2685312673
 20
43.1067230081
 30
0.0
 10
10.8430308195
 20
43.023268725
 30
0.0
 10
10.435984321
 20
42.9012539228
 30
0.0
 10
10.0568109886
 20
42.7402708264
 30
0.0
 10
9.7956510432
 20
42.6043322359
 30
0.0
 10
9.5562104272
 20
42.4523203946
 30
0.0
 10
9.3404254446
 20
42.2859001613
 30
0.0
 10
9.1501550547
 20
42.1067002613
 30
0.0
 10
8.9872624885
 20
41.9163054171
 30
0.0
 10
8.8537246257
 20
41.7163572269
 30
0.0
 10
8.7506994642
 20
41.5091750607
 30
0.0
 10
8.6793213204
 20
41.2970276358
 30
0.0
 10
8.6407954858
 20
41.0822101331
 30
0.0
 10
8.636366884
 20
40.8672814015
 30
0.0
 10
8.6659690096
 20
40.6550446432
 30
0.0
 10
8.7294717981
 20
40.4482072316
 30
0.0
 10
8.8267045855
 20
40.2495150144
 30
0.0
 10
8.9572890299
 20
40.0618540693
 30
0.0
 10
9.1780740295
 20
39.8237072207
 30
0.0
 10
9.381634138
 20
39.6761324179
 30
0.0
 10
9.5282715736
 20
39.5914544568
 30
0.0
  0
SPLINE
  5
40B
100
AcDbEntity
  8
0
100
AcDbSpline
 62
7
  6
BYLAYER
 70
0
 71
3
 72
36
 73
32
 74
0
 42
0.0000001
 43
0.0000001
 44
0.0000000001
 40
0.0
 40
0.0
 40
0.0
 40
0.0
 40
0.0317815088
 40
0.0650968734
 40
0.0998642681
 40
0.1359587509
 40
0.1732258916
 40
0.2114742877
 40
0.2504768217
 40
0.2899823459
 40
0.3694352304
 40
0.4477796557
 40
0.5229102685
 40
0.5587090781
 40
0.5930386307
 40
0.6257152586
 40
0.6566227655
 40
0.6856861843
 40
0.7128748701
 40
0.7382338615
 40
0.7619324531
 40
0.7842441065
 40
0.8055550083
 40
0.8263709238
 40
0.8472662223
 40
0.8688076824
 40
0.8915133138
 40
0.9158067251
 40
0.9419246285
 40
0.9699773055
 40
1.0
 40
1.0
 40
1.0
 40
1.0
 10
9.5282713691
 20
39.591454286
 30
0.0
 10
9.6073366313
 20
39.5458166747
 30
0.0
 10
9.7746192263
 20
39.461378058
 30
0.0
 10
10.0423197254
 20
39.3572874043
 30
0.0
 10
10.3299079692
 20
39.2733209057
 30
0.0
 10
10.6343356234
 20
39.2101981434
 30
0.0
 10
10.9524972229
 20
39.1686217922
 30
0.0
 10
11.2810224278
 20
39.1479848782
 30
0.0
 10
11.6166085792
 20
39.1476948538
 30
0.0
 10
12.0698100639
 20
39.1737330903
 30
0.0
 10
12.6321063651
 20
39.2536058229
 30
0.0
 10
13.2825143791
 20
39.4150325277
 30
0.0
 10
13.7950364488
 20
39.599880088
 30
0.0
 10
14.1744022
 20
39.7740816366
 30
0.0
 10
14.4351167311
 20
39.9131805981
 30
0.0
 10
14.6742695182
 20
40.0616158945
 30
0.0
 10
14.8898407777
 20
40.2181146756
 30
0.0
 10
15.0799776731
 20
40.3814822195
 30
0.0
 10
15.242892269
 20
40.5506116629
 30
0.0
 10
15.3767955828
 20
40.7245767442
 30
0.0
 10
15.4803789365
 20
40.9022371017
 30
0.0
 10
15.5523817416
 20
41.0825755544
 30
0.0
 10
15.5913835502
 20
41.2645272879
 30
0.0
 10
15.5958584476
 20
41.4465907234
 30
0.0
 10
15.5657926511
 20
41.6268568307
 30
0.0
 10
15.501532457
 20
41.8036368744
 30
0.0
 10
15.4035713134
 20
41.9753981359
 30
0.0
 10
15.2727283501
 20
42.1405635852
 30
0.0
 10
15.1108770505
 20
42.2981767185
 30
0.0
 10
14.9197323164
 20
42.4470087832
 30
0.0
 10
14.7786241211
 20
42.5364873541
 30
0.0
 10
14.7039409757
 20
42.5796107435
 30
0.0
  0
SPLINE
  5
40C
100
AcDbEntity
  8
0
100
AcDbSpline
 62
7
  6
BYLAYER
 70
0
 71
3
 72
11
 73
7
 74
0
 42
0.0000001
 43
0.0000001
 44
0.0000000001
 40
0.0
 40
0.0
 40
0.0
 40
0.0
 40
0.2477368801
 40
0.494981992
 40
0.7451575574
 40
1.0
 40
1.0
 40
1.0
 40
1.0
 10
21.9707160935
 20
31.1194510112
 30
0.0
 10
21.873638673
 20
31.2487211364
 30
0.0
 10
21.6596684576
 20
31.4923454222
 30
0.0
 10
21.2959438082
 20
31.8163478968
 30
0.0
 10
20.8992012735
 20
32.1064605458
 30
0.0
 10
20.6187866915
 20
32.2801496785
 30
0.0
 10
20.4747644728
 20
32.3632946223
 30
0.0
  0
SPLINE
  5
40D
100
AcDbEntity
  8
0
100
AcDbSpline
 62
7
  6
BYLAYER
 70
0
 71
3
 72
15
 73
11
 74
0
 42
0.0000001
 43
0.0000001
 44
0.0000000001
 40
0.0
 40
0.0
 40
0.0
 40
0.0
 40
0.1130902796
 40
0.232155901
 40
0.3566272824
 40
0.4850612325
 40
0.6157688904
 40
0.7466461441
 40
0.8753523858
 40
1.0
 40
1.0
 40
1.0
 40
1.0
 10
19.4377630164
 20
33.4458527578
 30
0.0
 10
19.460489774
 20
33.3095066183
 30
0.0
 10
19.5312223697
 20
33.0331380932
 30
0.0
 10
19.7081492867
 20
32.632589676
 30
0.0
 10
19.9607992601
 20
32.252061149
 30
0.0
 10
20.2807482817
 20
31.9064876227
 30
0.0
 10
20.6587222788
 20
31.6127693603
 30
0.0
 10
21.0764330569
 20
31.3786789775
 30
0.0
 10
21.5171552431
 20
31.2119480788
 30
0.0
 10
21.8201808362
 20
31.1429671971
 30
0.0
 10
21.9707083632
 20
31.119450231
 30
0.0
  0
SPLINE
  5
40E
100
AcDbEntity
  8
0
100
AcDbSpline
 62
7
  6
BYLAYER
 70
0
 71
3
 72
25
 73
21
 74
0
 42
0.0000001
 43
0.0000001
 44
0.0000000001
 40
0.0
 40
0.0
 40
0.0
 40
0.0
 40
0.018277941
 40
0.0368242741
 40
0.0557984425
 40
0.0753526446
 40
0.1167127185
 40
0.1618741718
 40
0.2114513835
 40
0.2657664648
 40
0.3248613119
 40
0.38855039
 40
0.4564608446
 40
0.5280689954
 40
0.6027662335
 40
0.6798924551
 40
0.7587826025
 40
0.838808858
 40
0.9194094201
 40
1.0
 40
1.0
 40
1.0
 40
1.0
 10
21.9707160934
 20
31.1194510113
 30
0.0
 10
21.9684712493
 20
31.0520882442
 30
0.0
 10
21.9571973314
 20
30.9165062116
 30
0.0
 10
21.9201616081
 20
30.713802944
 30
0.0
 10
21.8628180344
 20
30.5109763719
 30
0.0
 10
21.7572054863
 20
30.235597381
 30
0.0
 10
21.5700374024
 20
29.8900438423
 30
0.0
 10
21.2687849961
 20
29.4869201542
 30
0.0
 10
20.8884563865
 20
29.0885727029
 30
0.0
 10
20.4313901448
 20
28.6970302659
 30
0.0
 10
19.9011484151
 20
28.3147173353
 30
0.0
 10
19.3025344158
 20
27.9447804916
 30
0.0
 10
18.6415803955
 20
27.5908443134
 30
0.0
 10
17.9253742946
 20
27.2567715809
 30
0.0
 10
17.1617344166
 20
26.9465795253
 30
0.0
 10
16.3588778151
 20
26.6641995866
 30
0.0
 10
15.5250972716
 20
26.4133103657
 30
0.0
 10
14.6683497654
 20
26.1974052563
 30
0.0
 10
13.7964427572
 20
26.0198840373
 30
0.0
 10
13.2087838187
 20
25.9288476372
 30
0.0
 10
12.9140730067
 20
25.8906268991
 30
0.0
  0
SPLINE
  5
40F
100
AcDbEntity
  8
0
100
AcDbSpline
 62
7
  6
BYLAYER
 70
0
 71
3
 72
13
 73
9
 74
0
 42
0.0000001
 43
0.0000001
 44
0.0000000001
 40
0.0
 40
0.0
 40
0.0
 40
0.0
 40
0.247464409
 40
0.5238524172
 40
0.6601196981
 40
0.7878495375
 40
0.9021491111
 40
1.0
 40
1.0
 40
1.0
 40
1.0
 10
12.3791353573
 20
29.3705675521
 30
0.0
 10
12.4309167513
 20
29.0847590618
 30
0.0
 10
12.5358837602
 20
28.4788924683
 30
0.0
 10
12.6588805691
 20
27.713880021
 30
0.0
 10
12.7533529383
 20
27.0866736658
 30
0.0
 10
12.8163806036
 20
26.6471391488
 30
0.0
 10
12.8697066178
 20
26.2517802139
 30
0.0
 10
12.9006115672
 20
26.0046874263
 30
0.0
 10
12.9140723206
 20
25.8906264687
 30
0.0
  0
SPLINE
  5
410
100
AcDbEntity
  8
0
100
AcDbSpline
 62
7
  6
BYLAYER
 70
0
 71
3
 72
14
 73
10
 74
0
 42
0.0000001
 43
0.0000001
 44
0.0000000001
 40
0.0
 40
0.0
 40
0.0
 40
0.0
 40
0.1093145246
 40
0.2214260968
 40
0.3374489769
 40
0.4582751079
 40
0.7165700405
 40
0.8551364449
 40
1.0
 40
1.0
 40
1.0
 40
1.0
 10
5.7918825235
 20
13.8615826523
 30
0.0
 10
5.8072987995
 20
13.7630955359
 30
0.0
 10
5.8524217956
 20
13.5655337832
 30
0.0
 10
5.9600434994
 20
13.2763929383
 30
0.0
 10
6.1075282968
 20
12.9935175151
 30
0.0
 10
6.3611594823
 20
12.6189813524
 30
0.0
 10
6.6875401276
 20
12.2730140936
 30
0.0
 10
7.0698346646
 20
11.9597083051
 30
0.0
 10
7.2824467724
 20
11.8121304297
 30
0.0
 10
7.3935934456
 20
11.7407303376
 30
0.0
  0
ENDSEC
  0
SECTION
  2
OBJECTS
  0
DICTIONARY
  5
C
100
AcDbDictionary
280
0
281
1
  3
ACAD_GROUP
350
D
  3
ACAD_MLINESTYLE
350
17
  3
ACAD_LAYOUT
350
1A
  3
ACAD_PLOTSETTINGS
350
19
  3
ACAD_PLOTSTYLENAME
350
E
  0
DICTIONARY
  5
D
102
{ACAD_REACTORS
330
C
102
}
100
AcDbDictionary
280
0
281
1
  0
ACDBDICTIONARYWDFLT
  5
E
102
{ACAD_REACTORS
330
C
102
}
100
AcDbDictionary
281
1
  3
Normal
350
F
100
AcDbDictionaryWithDefault
340
F
  0
DICTIONARY
  5
17
102
{ACAD_REACTORS
330
C
102
}
100
AcDbDictionary
280
0
281
1
  3
Standard
350
18
  0
DICTIONARY
  5
19
102
{ACAD_REACTORS
330
C
102
}
100
AcDbDictionary
281
1
  0
DICTIONARY
  5
1A
102
{ACAD_REACTORS
330
C
102
}
100
AcDbDictionary
281
1
  3
Model
350
411
  3
Layout1
350
412
  0
ACDBPLACEHOLDER
  5
F
102
{ACAD_REACTORS
330
E
102
}
  0
MLINESTYLE
  5
18
102
{ACAD_REACTORS
330
17
102
}
100
AcDbMlineStyle
  2
STANDARD
 70
0
  3

 62
256
 51
90.0
 52
90.0
 71
2
 49
0.5
 62
256
  6
BYLAYER
 49
-0.5
 62
256
  6
BYLAYER
  0
LAYOUT
  5
411
102
{ACAD_REACTORS
330
1A
102
}
100
AcDbPlotSettings
  1

  2
none_device
  4

  6

 40
0.0
 41
0.0
 42
0.0
 43
0.0
 44
210.0
 45
297.0
 46
0.0
 47
0.0
 48
0.0
 49
0.0
140
0.0
141
0.0
142
1.0
143
1.0
 70
1024
 72
1
 73
0
 74
0
  7

 75
0
147
1.0
148
0.0
149
0.0
100
AcDbLayout
  1
Model
 70
0
 71
0
 10
0.0
 20
0.0
 11
210.0
 21
297.0
 12
0.0
 22
0.0
 32
0.0
 14
0.0
 24
0.0
 34
0.0
 15
0.0
 25
0.0
 35
0.0
146
0.0
 13
0.0
 23
0.0
 33
0.0
 16
1.0
 26
0.0
 36
0.0
 17
0.0
 27
1.0
 37
0.0
 76
0
330
210
345
0
346
0
  0
LAYOUT
  5
412
102
{ACAD_REACTORS
330
1A
102
}
100
AcDbPlotSettings
  1

  2
none_device
  4

  6

 40
0.0
 41
0.0
 42
0.0
 43
0.0
 44
210.0
 45
297.0
 46
0.0
 47
0.0
 48
0.0
 49
0.0
140
0.0
141
0.0
142
1.0
143
1.0
 70
0
 72
1
 73
0
 74
0
  7

 75
0
147
1.0
148
0.0
149
0.0
100
AcDbLayout
  1
Layout1
 70
0
 71
1
 10
0.0
 20
0.0
 11
210.0
 21
297.0
 12
0.0
 22
0.0
 32
0.0
 14
0.0
 24
0.0
 34
0.0
 15
0.0
 25
0.0
 35
0.0
146
0.0
 13
0.0
 23
0.0
 33
0.0
 16
1.0
 26
0.0
 36
0.0
 17
0.0
 27
1.0
 37
0.0
 76
0
330
211
345
0
346
0
  0
ENDSEC
  0
EOF
