999
DXF file: C:\Users\sesa63760\Dev\_Creo\CAD\MCADID0004835_3D-CAD\drw0001_1.dxf
999
Pro/ENGINEER 2019471 by Parametric Technology Corporation
  0
SECTION
  2
HEADER
  9
$ACADVER
  1
AC1024
  9
$DWGCODEPAGE
  3
ANSI_1252
  9
$EXTMAX
 10
122.1625463838
 20
172.7727441713
 30
0.0
  9
$EXTMIN
 10
0.0
 20
0.0
 30
0.0
  9
$LIMMIN
 10
0.0
 20
0.0
  9
$LIMMAX
 10
122.1625463838
 20
172.7727441713
  9
$VIEWCTR
 10
61.0812731919
 20
86.3863720857
  9
$VIEWSIZE
 40
172.7727441713
  9
$CLAYER
  8
0
  9
$LTSCALE
 40
11.2622233238
  9
$CELTYPE
  6
BYLAYER
  9
$DIMSCALE
 40
1.0
  9
$DIMASZ
 40
1.4543160284
  9
$DIMEXO
 40
1.0
  9
$DIMDLI
 40
7.7811724782
  9
$DIMEXE
 40
1.0
  9
$DIMCEN
 40
1.8429092712
  9
$DIMLFAC
 40
1.0
  9
$DIMBLK
  1
_FILLED
  9
$DIMALT
 70
0
  9
$DIMALTF
 40
0.0393700787
  9
$DIMTXT
 40
2.0360424397
  9
$DIMTOL
 70
1
  9
$DIMLIM
 70
0
  9
$DIMTFAC
 40
1.0
  9
$DIMTP
 40
0.01
  9
$DIMTM
 40
0.01
  9
$DIMGAP
 40
0.625
  9
$DIMDSEP
 70
46
  9
$AUNITS
 70
0
  9
$PDMODE
 70
3
  9
$PDSIZE
 40
0.3125
  9
$HANDSEED
  5
3DB
  9
$TILEMODE
 70
1
  9
$MEASUREMENT
 70
1
  9
$INSUNITS
 70
4
  0
ENDSEC
  0
SECTION
  2
CLASSES
  0
CLASS
  1
ACDBDICTIONARYWDFLT
  2
AcDbDictionaryWithDefault
  3
AutoCAD 2000
 90
0
 91
1
280
0
281
0
  0
CLASS
  1
ACDBPLACEHOLDER
  2
AcDbPlaceHolder
  3
AutoCAD 2000
 90
0
 91
1
280
0
281
0
  0
CLASS
  1
LAYOUT
  2
AcDbLayout
  3
AutoCAD 2000
 90
0
 91
0
280
0
281
0
  0
ENDSEC
  0
SECTION
  2
TABLES
  0
TABLE
  2
VPORT
  5
8
100
AcDbSymbolTable
 70
2
  0
VPORT
  5
1F4
100
AcDbSymbolTableRecord
100
AcDbViewportTableRecord
  2
*ACTIVE
 70
0
 10
0.0
 20
0.0
 11
1.0
 21
1.0
 12
61.0812731919
 22
86.3863720857
 13
0.0
 23
0.0
 14
1.0
 24
1.0
 15
0.0
 25
0.0
 16
0.0
 26
0.0
 36
1.0
 17
0.0
 27
0.0
 37
0.0
 40
172.7727441713
 41
0.7070707071
 42
50.0
 43
0.0
 44
0.0
 50
0.0
 51
0.0
 71
0
 72
100
 73
1
 74
1
 75
0
 76
0
 77
0
 78
0
  0
ENDTAB
  0
TABLE
  2
LTYPE
  5
5
100
AcDbSymbolTable
 70
6
  0
LTYPE
  5
14
100
AcDbSymbolTableRecord
100
AcDbLinetypeTableRecord
  2
BYBLOCK
 70
0
  3

 72
65
 73
0
 40
0.0
  0
LTYPE
  5
15
100
AcDbSymbolTableRecord
100
AcDbLinetypeTableRecord
  2
BYLAYER
 70
0
  3

 72
65
 73
0
 40
0.0
  0
LTYPE
  5
16
100
AcDbSymbolTableRecord
100
AcDbLinetypeTableRecord
  2
CONTINUOUS
 70
64
  3
Solid line
 72
65
 73
0
 40
0.0
  0
LTYPE
  5
1F5
100
AcDbSymbolTableRecord
100
AcDbLinetypeTableRecord
  2
CENTER
 70
64
  3
____ _ ____ _ ____ _ ____ _ ____ _ ____ _ ____
 72
65
 73
4
 40
0.6
 49
0.375
 74
0
 49
-0.075
 74
0
 49
0.075
 74
0
 49
-0.075
 74
0
  0
LTYPE
  5
1F6
100
AcDbSymbolTableRecord
100
AcDbLinetypeTableRecord
  2
HIDDEN
 70
64
  3
- - - - - - - - - - - - - - - - - - - -
 72
65
 73
2
 40
0.2
 49
0.1
 74
0
 49
-0.1
 74
0
  0
LTYPE
  5
1F7
100
AcDbSymbolTableRecord
100
AcDbLinetypeTableRecord
  2
PHANTOM
 70
64
  3
_____ _ _ _____ _ _ _____ _ _ _____
 72
65
 73
6
 40
0.8
 49
0.45
 74
0
 49
-0.05
 74
0
 49
0.1
 74
0
 49
-0.05
 74
0
 49
0.1
 74
0
 49
-0.05
 74
0
  0
LTYPE
  5
1F8
100
AcDbSymbolTableRecord
100
AcDbLinetypeTableRecord
  2
DOT
 70
64
  3
. . . . . . . . . . . . . . . . . . . .
 72
65
 73
2
 40
0.2
 49
0.1
 74
0
 49
-0.1
 74
0
  0
LTYPE
  5
1F9
100
AcDbSymbolTableRecord
100
AcDbLinetypeTableRecord
  2
DASHED
 70
64
  3
- - - - - - - - - - - - - - - - - - - -
 72
65
 73
2
 40
0.2
 49
0.1
 74
0
 49
-0.1
 74
0
  0
ENDTAB
  0
TABLE
  2
LAYER
  5
2
100
AcDbSymbolTable
 70
36
  0
LAYER
  5
10
100
AcDbSymbolTableRecord
100
AcDbLayerTableRecord
  2
0
 70
0
 62
7
  6
CONTINUOUS
370
-3
390
F
  0
LAYER
  5
1FA
100
AcDbSymbolTableRecord
100
AcDbLayerTableRecord
  2
DEFAULT_1
 70
0
 62
7
  6
CENTER
370
-3
390
F
  0
LAYER
  5
1FB
100
AcDbSymbolTableRecord
100
AcDbLayerTableRecord
  2
DEFAULT_2
 70
0
 62
7
  6
HIDDEN
370
-3
390
F
  0
LAYER
  5
1FC
100
AcDbSymbolTableRecord
100
AcDbLayerTableRecord
  2
DEFAULT_3
 70
0
 62
7
  6
PHANTOM
370
-3
390
F
  0
LAYER
  5
1FD
100
AcDbSymbolTableRecord
100
AcDbLayerTableRecord
  2
00_COMPONENTS
 70
0
 62
7
  6
CONTINUOUS
370
-3
390
F
  0
LAYER
  5
1FE
100
AcDbSymbolTableRecord
100
AcDbLayerTableRecord
  2
01_1_DEFAULT_DATUMS
 70
0
 62
7
  6
CONTINUOUS
370
-3
390
F
  0
LAYER
  5
1FF
100
AcDbSymbolTableRecord
100
AcDbLayerTableRecord
  2
01_PLANES
 70
0
 62
7
  6
CONTINUOUS
370
-3
390
F
  0
LAYER
  5
200
100
AcDbSymbolTableRecord
100
AcDbLayerTableRecord
  2
02_COORD_SYS
 70
0
 62
7
  6
CONTINUOUS
370
-3
390
F
  0
LAYER
  5
201
100
AcDbSymbolTableRecord
100
AcDbLayerTableRecord
  2
03_AXES
 70
0
 62
7
  6
CONTINUOUS
370
-3
390
F
  0
LAYER
  5
202
100
AcDbSymbolTableRecord
100
AcDbLayerTableRecord
  2
04_POINTS
 70
0
 62
7
  6
CONTINUOUS
370
-3
390
F
  0
LAYER
  5
203
100
AcDbSymbolTableRecord
100
AcDbLayerTableRecord
  2
05_CURVES
 70
0
 62
7
  6
CONTINUOUS
370
-3
390
F
  0
LAYER
  5
204
100
AcDbSymbolTableRecord
100
AcDbLayerTableRecord
  2
06_SURFS
 70
0
 62
7
  6
CONTINUOUS
370
-3
390
F
  0
LAYER
  5
205
100
AcDbSymbolTableRecord
100
AcDbLayerTableRecord
  2
07_COSMETICS
 70
0
 62
7
  6
CONTINUOUS
370
-3
390
F
  0
LAYER
  5
206
100
AcDbSymbolTableRecord
100
AcDbLayerTableRecord
  2
10_NOTES
 70
0
 62
7
  6
CONTINUOUS
370
-3
390
F
  0
LAYER
  5
207
100
AcDbSymbolTableRecord
100
AcDbLayerTableRecord
  2
11_NOTES_PUB
 70
0
 62
7
  6
CONTINUOUS
370
-3
390
F
  0
LAYER
  5
208
100
AcDbSymbolTableRecord
100
AcDbLayerTableRecord
  2
13_REF_GTOL
 70
0
 62
7
  6
CONTINUOUS
370
-3
390
F
  0
LAYER
  5
209
100
AcDbSymbolTableRecord
100
AcDbLayerTableRecord
  2
16_MISC
 70
0
 62
7
  6
CONTINUOUS
370
-3
390
F
  0
LAYER
  5
20A
100
AcDbSymbolTableRecord
100
AcDbLayerTableRecord
  2
17_NO_PRINT
 70
0
 62
7
  6
CONTINUOUS
370
-3
390
F
  0
LAYER
  5
20B
100
AcDbSymbolTableRecord
100
AcDbLayerTableRecord
  2
18_DATUM_CAMS_JOINTS
 70
0
 62
7
  6
CONTINUOUS
370
-3
390
F
  0
LAYER
  5
20C
100
AcDbSymbolTableRecord
100
AcDbLayerTableRecord
  2
19_DATUM_FUNCTIONAL
 70
0
 62
7
  6
CONTINUOUS
370
-3
390
F
  0
LAYER
  5
20D
100
AcDbSymbolTableRecord
100
AcDbLayerTableRecord
  2
20_DATUM_KINEMATIC_SCHEME
 70
0
 62
7
  6
CONTINUOUS
370
-3
390
F
  0
ENDTAB
  0
TABLE
  2
STYLE
  5
3
100
AcDbSymbolTable
 70
1
  0
STYLE
  5
11
100
AcDbSymbolTableRecord
100
AcDbTextStyleTableRecord
  2
STANDARD
 70
0
 40
0.0
 41
1.0
 50
0.0
 71
0
 42
0.2
  3
ARIAL.TTF
  4

  0
STYLE
  5
20E
100
AcDbSymbolTableRecord
100
AcDbTextStyleTableRecord
  2
TEXTSTYLE_1
 70
0
 40
0.0
 41
0.8
 50
0.0
 71
0
 42
0.2
  3
gdt
  4

  0
ENDTAB
  0
TABLE
  2
VIEW
  5
6
100
AcDbSymbolTable
 70
0
  0
ENDTAB
  0
TABLE
  2
UCS
  5
7
100
AcDbSymbolTable
 70
0
  0
ENDTAB
  0
TABLE
  2
APPID
  5
9
100
AcDbSymbolTable
 70
1
  0
APPID
  5
20F
100
AcDbSymbolTableRecord
100
AcDbRegAppTableRecord
  2
ACAD
 70
0
  0
ENDTAB
  0
TABLE
  2
BLOCK_RECORD
  5
1
100
AcDbSymbolTable
 70
0
  0
BLOCK_RECORD
  5
210
100
AcDbSymbolTableRecord
100
AcDbBlockTableRecord
  2
*Model_Space
  0
BLOCK_RECORD
  5
211
100
AcDbSymbolTableRecord
100
AcDbBlockTableRecord
  2
*Paper_Space
  0
BLOCK_RECORD
  5
212
100
AcDbSymbolTableRecord
100
AcDbBlockTableRecord
  2
_FILLED
  0
ENDTAB
  0
TABLE
  2
DIMSTYLE
  5
A
100
AcDbSymbolTable
 70
1
100
AcDbDimStyleTable
 71
0
  0
DIMSTYLE
105
213
100
AcDbSymbolTableRecord
100
AcDbDimStyleTableRecord
  2
STANDARD
 70
0
  3

  4

 40
1.0
 41
1.4543160284
 42
1.0
 43
0.38
 44
1.0
 45
0.0
 46
0.0
 47
0.01
 48
0.01
140
2.0360424397
141
0.09
142
0.0
143
25.4
144
1.0
145
0.0
146
1.0
147
0.625
 71
1
 72
0
 73
0
 74
0
 75
0
 76
0
 77
1
 78
8
 79
2
170
0
171
1
172
0
173
0
174
0
175
0
176
0
177
0
178
0
270
2
179
2
271
2
272
2
273
2
274
2
275
0
280
0
281
0
282
0
283
1
284
8
285
0
286
0
287
3
288
0
340
11
278
46
341
212
342
212
343
212
344
212
  0
ENDTAB
  0
ENDSEC
  0
SECTION
  2
BLOCKS
  0
BLOCK
  5
20
100
AcDbEntity
  8
0
100
AcDbBlockBegin
  2
*Model_Space
 70
0
 10
0.0
 20
0.0
 30
0.0
  3
*Model_Space
  1

  0
ENDBLK
  5
21
100
AcDbEntity
  8
0
100
AcDbBlockEnd
  0
BLOCK
  5
1C
100
AcDbEntity
  8
0
100
AcDbBlockBegin
  2
*Paper_Space
 70
0
 10
0.0
 20
0.0
 30
0.0
  3
*Paper_Space
  1

  0
ENDBLK
  5
1D
100
AcDbEntity
  8
0
100
AcDbBlockEnd
  0
BLOCK
  5
214
100
AcDbEntity
  8
0
100
AcDbBlockBegin
  2
_FILLED
 70
64
 10
0.0
 20
0.0
  3
_FILLED
  1

  0
SOLID
  5
215
100
AcDbEntity
  8
0
  6
BYBLOCK
 62
0
100
AcDbTrace
 10
0.0
 20
0.0
 11
-1.0
 21
0.25
 12
-1.0
 22
-0.25
 13
-1.0
 23
-0.25
  0
ENDBLK
  5
216
100
AcDbEntity
  8
0
  6
BYBLOCK
 62
0
100
AcDbBlockEnd
  0
ENDSEC
  0
SECTION
  2
ENTITIES
  0
LINE
  5
217
100
AcDbEntity
  8
0
100
AcDbLine
 62
7
  6
BYLAYER
 10
14.1577286471
 20
104.9257244848
 11
14.1577286471
 21
96.7607003135
  0
LINE
  5
218
100
AcDbEntity
  8
0
100
AcDbLine
 62
7
  6
BYLAYER
 10
15.7577971729
 20
104.9257244868
 11
15.7800045118
 21
104.3363789543
  0
LINE
  5
219
100
AcDbEntity
  8
0
100
AcDbLine
 62
7
  6
BYLAYER
 10
18.6533722315
 20
101.3054002026
 11
18.6986083812
 21
99.5768037224
  0
LINE
  5
21A
100
AcDbEntity
  8
0
100
AcDbLine
 62
7
  6
BYLAYER
 10
16.7282950243
 20
101.3713420156
 11
16.2151160731
 21
100.8581654666
  0
LINE
  5
21B
100
AcDbEntity
  8
0
100
AcDbLine
 62
7
  6
BYLAYER
 10
22.8113568055
 20
115.0711224343
 11
22.8113610786
 21
114.4785586213
  0
LINE
  5
21C
100
AcDbEntity
  8
0
100
AcDbLine
 62
7
  6
BYLAYER
 10
23.2572436536
 20
110.3680172768
 11
23.4749863814
 21
113.3675939876
  0
LINE
  5
21D
100
AcDbEntity
  8
0
100
AcDbLine
 62
7
  6
BYLAYER
 10
16.7482744769
 20
101.458961687
 11
16.7550889408
 21
101.4290758008
  0
LINE
  5
21E
100
AcDbEntity
  8
0
100
AcDbLine
 62
7
  6
BYLAYER
 10
17.0225278634
 20
102.5960306054
 11
16.7008272402
 21
104.1221186567
  0
LINE
  5
21F
100
AcDbEntity
  8
0
100
AcDbLine
 62
7
  6
BYLAYER
 10
22.2403094073
 20
110.3440807479
 11
22.0055641207
 21
113.3330068268
  0
LINE
  5
220
100
AcDbEntity
  8
0
100
AcDbLine
 62
7
  6
BYLAYER
 10
24.656335258
 20
113.910279589
 11
24.595537478
 21
114.8283197159
  0
LINE
  5
221
100
AcDbEntity
  8
0
100
AcDbLine
 62
7
  6
BYLAYER
 10
46.2028572096
 20
118.1714925375
 11
45.3140009197
 21
117.8752084945
  0
LINE
  5
222
100
AcDbEntity
  8
0
100
AcDbLine
 62
7
  6
BYLAYER
 10
17.9705425842
 20
100.5534059952
 11
17.9141109549
 21
100.7120154527
  0
LINE
  5
223
100
AcDbEntity
  8
0
100
AcDbLine
 62
7
  6
BYLAYER
 10
34.3361144972
 20
92.8635306997
 11
34.3706370635
 21
92.5246374737
  0
LINE
  5
224
100
AcDbEntity
  8
0
100
AcDbLine
 62
7
  6
BYLAYER
 10
34.3950574117
 20
100.6827333264
 11
34.3153564716
 21
103.7283233086
  0
LINE
  5
225
100
AcDbEntity
  8
0
100
AcDbLine
 62
7
  6
BYLAYER
 10
34.6577286471
 20
105.5381012976
 11
34.6577286471
 21
107.0065929914
  0
LINE
  5
226
100
AcDbEntity
  8
0
100
AcDbLine
 62
7
  6
BYLAYER
 10
35.1509266886
 20
100.5176308822
 11
35.4075521035
 21
103.4897580251
  0
LINE
  5
227
100
AcDbEntity
  8
0
100
AcDbLine
 62
7
  6
BYLAYER
 10
34.6921633702
 20
105.3269143388
 11
34.6663475813
 21
105.0864456785
  0
LINE
  5
228
100
AcDbEntity
  8
0
100
AcDbLine
 62
7
  6
BYLAYER
 10
34.3039874451
 20
92.6783912141
 11
34.3361144972
 21
92.8635306997
  0
LINE
  5
229
100
AcDbEntity
  8
0
100
AcDbLine
 62
7
  6
BYLAYER
 10
37.1158990908
 20
102.2437199644
 11
37.083779645
 21
102.1300096029
  0
LINE
  5
22A
100
AcDbEntity
  8
0
100
AcDbLine
 62
7
  6
BYLAYER
 10
32.8872241415
 20
93.0876678807
 11
37.083779645
 21
102.1300096029
  0
LINE
  5
22B
100
AcDbEntity
  8
0
100
AcDbLine
 62
7
  6
BYLAYER
 10
40.4973391897
 20
109.4852255334
 11
43.9793427969
 21
116.9879182698
  0
LINE
  5
22C
100
AcDbEntity
  8
0
100
AcDbLine
 62
7
  6
BYLAYER
 10
45.4282331527
 20
116.7637810888
 11
41.8617154711
 21
109.0789854015
  0
LINE
  5
22D
100
AcDbEntity
  8
0
100
AcDbLine
 62
7
  6
BYLAYER
 10
38.5326700008
 20
101.9058724219
 11
34.3361144972
 21
92.8635306997
  0
LINE
  5
22E
100
AcDbEntity
  8
0
100
AcDbLine
 62
7
  6
BYLAYER
 10
50.2396067331
 20
117.2163580544
 11
49.962559781
 21
116.9090922152
  0
LINE
  5
22F
100
AcDbEntity
  8
0
100
AcDbLine
 62
7
  6
BYLAYER
 10
28.3528975132
 20
92.9423567543
 11
28.075850561
 21
92.6350909151
  0
LINE
  5
230
100
AcDbEntity
  8
0
100
AcDbLine
 62
7
  6
BYLAYER
 10
36.5732819231
 20
101.0300372933
 11
36.670733543
 21
102.7605106218
  0
LINE
  5
231
100
AcDbEntity
  8
0
100
AcDbLine
 62
7
  6
BYLAYER
 10
40.2044941174
 20
118.7687473321
 11
40.1783249806
 21
118.4226717609
  0
LINE
  5
232
100
AcDbEntity
  8
0
100
AcDbLine
 62
7
  6
BYLAYER
 10
38.1371323135
 20
91.4287772086
 11
38.1109631768
 21
91.0827016374
  0
LINE
  5
233
100
AcDbEntity
  8
0
100
AcDbLine
 62
7
  6
BYLAYER
 10
44.011412852
 20
117.101630457
 11
43.9793427969
 21
116.9879182699
  0
LINE
  5
234
100
AcDbEntity
  8
0
100
AcDbLine
 62
7
  6
BYLAYER
 10
35.6394309162
 20
92.111013458
 11
38.8301136685
 21
98.9859955117
  0
LINE
  5
235
100
AcDbEntity
  8
0
100
AcDbLine
 62
7
  6
BYLAYER
 10
43.1195307048
 20
108.2284265003
 11
45.7256768205
 21
113.8439041786
  0
LINE
  5
236
100
AcDbEntity
  8
0
100
AcDbLine
 62
7
  6
BYLAYER
 10
46.4659442099
 20
113.0649113455
 11
43.6570541128
 21
107.0125800712
  0
LINE
  5
237
100
AcDbEntity
  8
0
100
AcDbLine
 62
7
  6
BYLAYER
 10
39.580529517
 20
98.2288696203
 11
36.7075467193
 21
92.0384374438
  0
LINE
  5
238
100
AcDbEntity
  8
0
100
AcDbLine
 62
7
  6
BYLAYER
 10
60.4459425045
 20
111.3238606555
 11
59.9137371581
 21
111.1639072512
  0
LINE
  5
239
100
AcDbEntity
  8
0
100
AcDbLine
 62
7
  6
BYLAYER
 10
18.4017201361
 20
98.6875417183
 11
17.8695147896
 21
98.5275883141
  0
LINE
  5
23A
100
AcDbEntity
  8
0
100
AcDbLine
 62
7
  6
BYLAYER
 10
38.8301136685
 20
98.9859955117
 11
38.5326700008
 21
101.9058724219
  0
LINE
  5
23B
100
AcDbEntity
  8
0
100
AcDbLine
 62
7
  6
BYLAYER
 10
41.2990556571
 20
99.5665414571
 11
41.1619091403
 21
102.5995834446
  0
LINE
  5
23C
100
AcDbEntity
  8
0
100
AcDbLine
 62
7
  6
BYLAYER
 10
39.4557055138
 20
99.2813735252
 11
39.4366208578
 21
102.3326797892
  0
LINE
  5
23D
100
AcDbEntity
  8
0
100
AcDbLine
 62
7
  6
BYLAYER
 10
43.1472809489
 20
115.195069931
 11
43.1927501836
 21
117.7053253164
  0
LINE
  5
23E
100
AcDbEntity
  8
0
100
AcDbLine
 62
7
  6
BYLAYER
 10
42.0966436927
 20
99.4913306564
 11
42.3143864204
 21
102.4909073673
  0
LINE
  5
23F
100
AcDbEntity
  8
0
100
AcDbLine
 62
7
  6
BYLAYER
 10
43.6303999486
 20
105.2607232092
 11
43.6491097128
 21
105.0864456785
  0
LINE
  5
240
100
AcDbEntity
  8
0
100
AcDbLine
 62
7
  6
BYLAYER
 10
43.855646229
 20
102.8258029961
 11
43.649080336
 21
104.7647298855
  0
LINE
  5
241
100
AcDbEntity
  8
0
100
AcDbLine
 62
7
  6
BYLAYER
 10
43.2395311523
 20
103.2038318377
 11
43.1867974014
 21
103.7686462488
  0
LINE
  5
242
100
AcDbEntity
  8
0
100
AcDbLine
 62
7
  6
BYLAYER
 10
44.3883354225
 20
105.2866222491
 11
44.4618928061
 21
102.4757942898
  0
LINE
  5
243
100
AcDbEntity
  8
0
100
AcDbLine
 62
7
  6
BYLAYER
 10
43.649089293
 20
105.0864449503
 11
43.649080336
 21
104.7647298855
  0
LINE
  5
244
100
AcDbEntity
  8
0
100
AcDbLine
 62
7
  6
BYLAYER
 10
43.6577286471
 20
105.5381012976
 11
43.6577286471
 21
107.0065929914
  0
LINE
  5
245
100
AcDbEntity
  8
0
100
AcDbLine
 62
7
  6
BYLAYER
 10
46.6270937152
 20
114.1167383037
 11
46.7307382616
 21
117.1580135953
  0
LINE
  5
246
100
AcDbEntity
  8
0
100
AcDbLine
 62
7
  6
BYLAYER
 10
62.100341221
 20
108.9932835029
 11
61.5871622699
 21
108.480106954
  0
LINE
  5
247
100
AcDbEntity
  8
0
100
AcDbLine
 62
7
  6
BYLAYER
 10
33.27466176
 20
91.9339767629
 11
33.7878481125
 21
91.420802681
  0
LINE
  5
248
100
AcDbEntity
  8
0
100
AcDbLine
 62
7
  6
BYLAYER
 10
45.7256768205
 20
113.8439041786
 11
45.4282331527
 21
116.7637810888
  0
LINE
  5
249
100
AcDbEntity
  8
0
100
AcDbLine
 62
7
  6
BYLAYER
 10
50.2144678128
 20
83.847536777
 11
50.2144678128
 21
82.2928494284
  0
LINE
  5
24A
100
AcDbEntity
  8
0
100
AcDbLine
 62
7
  6
BYLAYER
 10
33.0014563745
 20
91.9762404751
 11
32.1126000846
 21
91.679956432
  0
LINE
  5
24B
100
AcDbEntity
  8
0
100
AcDbLine
 62
7
  6
BYLAYER
 10
43.1162212647
 20
103.362088321
 11
43.084074478
 21
103.4758024057
  0
LINE
  5
24C
100
AcDbEntity
  8
0
100
AcDbLine
 62
7
  6
BYLAYER
 10
51.8300151673
 20
81.2388253122
 11
51.8300151673
 21
82.8718301465
  0
LINE
  5
24D
100
AcDbEntity
  8
0
100
AcDbLine
 62
7
  6
BYLAYER
 10
53.9331482525
 20
79.9255388145
 11
53.9331482525
 21
80.0246083286
  0
LINE
  5
24E
100
AcDbEntity
  8
0
100
AcDbLine
 62
7
  6
BYLAYER
 10
54.8118367409
 20
78.7008063528
 11
54.8118367409
 21
79.51730877
  0
LINE
  5
24F
100
AcDbEntity
  8
0
100
AcDbLine
 62
7
  6
BYLAYER
 10
53.779815157
 20
95.8714887511
 11
53.7182406126
 21
95.0232511489
  0
LWPOLYLINE
  5
250
100
AcDbEntity
  8
0
100
AcDbPolyline
 62
7
  6
BYLAYER
 90
4
 70
0
 10
58.0056276348
 20
95.4433125267
 10
61.7366041852
 20
98.729205089
 10
63.7926244387
 20
102.4680180197
 10
64.1575907496
 20
104.9257244715
  0
LINE
  5
251
100
AcDbEntity
  8
0
100
AcDbLine
 62
7
  6
BYLAYER
 10
54.8118367409
 20
78.7008063528
 11
62.3947437554
 21
74.322911988
  0
LINE
  5
252
100
AcDbEntity
  8
0
100
AcDbLine
 62
7
  6
BYLAYER
 10
97.8478799938
 20
54.6709997117
 11
51.8300151673
 21
81.2388253122
  0
LINE
  5
253
100
AcDbEntity
  8
0
100
AcDbLine
 62
7
  6
BYLAYER
 10
97.8478799938
 20
56.3040045459
 11
51.8300151673
 21
82.8718301465
  0
LINE
  5
254
100
AcDbEntity
  8
0
100
AcDbLine
 62
7
  6
BYLAYER
 10
50.2144678128
 20
82.2928494284
 11
48.5966903293
 21
83.4878105779
  0
LINE
  5
255
100
AcDbEntity
  8
0
100
AcDbLine
 62
7
  6
BYLAYER
 10
62.6304362645
 20
73.3653900476
 11
62.4459692766
 21
73.6035386286
  0
LINE
  5
256
100
AcDbEntity
  8
0
100
AcDbLine
 62
7
  6
BYLAYER
 10
62.4459692766
 20
74.1342651997
 11
62.2230764241
 21
74.4220219257
  0
LINE
  5
257
100
AcDbEntity
  8
0
100
AcDbLine
 62
7
  6
BYLAYER
 10
55.5040962155
 20
95.3728903482
 11
55.5041004887
 21
94.7803265353
  0
LINE
  5
258
100
AcDbEntity
  8
0
100
AcDbLine
 62
7
  6
BYLAYER
 10
60.3056386814
 20
108.9006752936
 11
60.3449147099
 21
109.2980429744
  0
LWPOLYLINE
  5
259
100
AcDbEntity
  8
0
100
AcDbPolyline
 62
7
  6
BYLAYER
 90
7
 70
0
 10
28.3244717536
 20
92.0382628889
 10
29.9907722024
 20
91.4975039809
 10
36.5987349883
 20
90.5679902062
 10
43.4037803415
 20
90.7018797967
 10
49.8922533817
 20
91.8904534269
 10
55.5929706866
 20
94.0495718359
 10
58.0056276348
 20
95.4433125267
  0
LINE
  5
25A
100
AcDbEntity
  8
0
100
AcDbLine
 62
7
  6
BYLAYER
 10
53.5863821124
 20
85.1237401943
 11
57.4848929878
 21
82.8729848099
  0
LINE
  5
25B
100
AcDbEntity
  8
0
100
AcDbLine
 62
7
  6
BYLAYER
 10
65.2161121038
 20
78.4094643504
 11
95.7265272666
 21
60.7946664431
  0
LINE
  5
25C
100
AcDbEntity
  8
0
100
AcDbLine
 62
7
  6
BYLAYER
 10
57.5123170109
 20
81.6792301492
 11
57.4346011284
 21
82.1607880833
  0
LINE
  5
25D
100
AcDbEntity
  8
0
100
AcDbLine
 62
7
  6
BYLAYER
 10
60.1300206026
 20
104.6639553729
 11
60.0503196626
 21
107.7095453552
  0
LINE
  5
25E
100
AcDbEntity
  8
0
100
AcDbLine
 62
7
  6
BYLAYER
 10
59.9065690272
 20
83.0030004764
 11
59.9065690272
 21
84.4102222925
  0
LINE
  5
25F
100
AcDbEntity
  8
0
100
AcDbLine
 62
7
  6
BYLAYER
 10
62.3065690272
 20
73.9806487671
 11
62.3065690272
 21
74.3142322059
  0
LINE
  5
260
100
AcDbEntity
  8
0
100
AcDbLine
 62
7
  6
BYLAYER
 10
62.3947437554
 20
75.1394144051
 11
62.3947437554
 21
74.322911988
  0
LINE
  5
261
100
AcDbEntity
  8
0
100
AcDbLine
 62
7
  6
BYLAYER
 10
62.5181450428
 20
104.1402693296
 11
62.5158133503
 21
104.1174796113
  0
LINE
  5
262
100
AcDbEntity
  8
0
100
AcDbLine
 62
7
  6
BYLAYER
 10
60.9899860883
 20
104.3496704313
 11
61.2929294307
 21
107.2554183641
  0
LINE
  5
263
100
AcDbEntity
  8
0
100
AcDbLine
 62
7
  6
BYLAYER
 10
62.5181450428
 20
104.1402693296
 11
62.513835137
 21
104.1175480444
  0
LINE
  5
264
100
AcDbEntity
  8
0
100
AcDbLine
 62
7
  6
BYLAYER
 10
16.655088806
 20
101.5290746116
 11
15.766228243
 21
101.8253543815
  0
LINE
  5
265
100
AcDbEntity
  8
0
100
AcDbLine
 62
7
  6
BYLAYER
 10
64.8185146347
 20
85.4178220696
 11
64.8216053168
 21
85.416731174
  0
LINE
  5
266
100
AcDbEntity
  8
0
100
AcDbLine
 62
7
  6
BYLAYER
 10
64.8155492168
 20
85.4150151318
 11
64.8185395013
 21
85.4138426549
  0
LINE
  5
267
100
AcDbEntity
  8
0
100
AcDbLine
 62
7
  6
BYLAYER
 10
100.6762541271
 20
62.0193706859
 11
72.7637351455
 21
78.1343064651
  0
LINE
  5
268
100
AcDbEntity
  8
0
100
AcDbLine
 62
7
  6
BYLAYER
 10
58.7394676335
 20
86.2310379158
 11
57.4661274185
 21
86.9661846005
  0
LINE
  5
269
100
AcDbEntity
  8
0
100
AcDbLine
 62
7
  6
BYLAYER
 10
59.5128876995
 20
86.1111251551
 11
60.3704651066
 21
85.6160138092
  0
LINE
  5
26A
100
AcDbEntity
  8
0
100
AcDbLine
 62
7
  6
BYLAYER
 10
69.5634291646
 20
80.308573606
 11
72.5428733782
 21
78.5884296021
  0
LINE
  5
26B
100
AcDbEntity
  8
0
100
AcDbLine
 62
7
  6
BYLAYER
 10
100.6762541271
 20
63.6523755202
 11
70.1658389643
 21
81.2671734275
  0
LINE
  5
26C
100
AcDbEntity
  8
0
100
AcDbLine
 62
7
  6
BYLAYER
 10
61.5163267787
 20
86.260858644
 11
58.6968244842
 21
87.8886622269
  0
LINE
  5
26D
100
AcDbEntity
  8
0
100
AcDbLine
 62
7
  6
BYLAYER
 10
22.7744021155
 20
109.399808388
 11
31.7361178864
 21
104.2258764253
  0
LINE
  5
26E
100
AcDbEntity
  8
0
100
AcDbLine
 62
7
  6
BYLAYER
 10
41.5860755026
 20
98.5391293954
 11
50.0494289098
 21
93.6529205684
  0
LINE
  5
26F
100
AcDbEntity
  8
0
100
AcDbLine
 62
7
  6
BYLAYER
 10
26.2624537739
 20
116.6119011001
 11
26.5848356457
 21
116.3197466847
  0
LINE
  5
270
100
AcDbEntity
  8
0
100
AcDbLine
 62
7
  6
BYLAYER
 10
52.0530035203
 20
93.2395478694
 11
51.7306216484
 21
93.5317022848
  0
LINE
  5
271
100
AcDbEntity
  8
0
100
AcDbLine
 62
7
  6
BYLAYER
 10
63.0021620884
 20
84.4677512275
 11
62.982436628
 21
84.510703149
  0
LINE
  5
272
100
AcDbEntity
  8
0
100
AcDbLine
 62
7
  6
BYLAYER
 10
62.5354527823
 20
105.5150700153
 11
62.5576601213
 21
104.9257244827
  0
LINE
  5
273
100
AcDbEntity
  8
0
100
AcDbLine
 62
7
  6
BYLAYER
 10
62.9582524043
 20
84.406515119
 11
62.9582524043
 21
84.2025272928
  0
LINE
  5
274
100
AcDbEntity
  8
0
100
AcDbLine
 62
7
  6
BYLAYER
 10
63.0021846965
 20
85.5598049039
 11
63.0021859455
 21
84.2445677982
  0
LINE
  5
275
100
AcDbEntity
  8
0
100
AcDbLine
 62
7
  6
BYLAYER
 10
63.6504990618
 20
86.0207091664
 11
63.6504990618
 21
84.7842835352
  0
LINE
  5
276
100
AcDbEntity
  8
0
100
AcDbLine
 62
7
  6
BYLAYER
 10
63.9065586187
 20
86.5692617996
 11
63.9065794357
 21
83.6825517223
  0
LINE
  5
277
100
AcDbEntity
  8
0
100
AcDbLine
 62
7
  6
BYLAYER
 10
64.1577286471
 20
104.9257244848
 11
64.1577286471
 21
96.7607003135
  0
LINE
  5
278
100
AcDbEntity
  8
0
100
AcDbLine
 62
7
  6
BYLAYER
 10
64.1626310962
 20
84.9257031056
 11
64.1626310962
 21
85.1018593304
  0
LINE
  5
279
100
AcDbEntity
  8
0
100
AcDbLine
 62
7
  6
BYLAYER
 10
64.810953358
 20
85.3945097199
 11
64.810953358
 21
84.3949462662
  0
LINE
  5
27A
100
AcDbEntity
  8
0
100
AcDbLine
 62
7
  6
BYLAYER
 10
64.8548877824
 20
84.3547276036
 11
64.8548877824
 21
85.3253707451
  0
LINE
  5
27B
100
AcDbEntity
  8
0
100
AcDbLine
 62
7
  6
BYLAYER
 10
65.9065690272
 20
78.1750612954
 11
65.9065690272
 21
78.5359855861
  0
LINE
  5
27C
100
AcDbEntity
  8
0
100
AcDbLine
 62
7
  6
BYLAYER
 10
64.8125949542
 20
85.4074805818
 11
64.810953358
 21
85.3944949587
  0
LINE
  5
27D
100
AcDbEntity
  8
0
100
AcDbLine
 62
7
  6
BYLAYER
 10
63.0005431003
 20
85.5551237306
 11
63.0021846965
 21
85.5676957623
  0
LINE
  5
27E
100
AcDbEntity
  8
0
100
AcDbLine
 62
7
  6
BYLAYER
 10
60.8555290212
 20
83.2827397996
 11
62.982436628
 21
84.510703149
  0
LINE
  5
27F
100
AcDbEntity
  8
0
100
AcDbLine
 62
7
  6
BYLAYER
 10
63.9821697563
 20
85.0878958943
 11
66.1090773631
 21
86.3158592437
  0
LINE
  5
280
100
AcDbEntity
  8
0
100
AcDbLine
 62
7
  6
BYLAYER
 10
64.7497336402
 20
85.4408211189
 11
64.1626310962
 21
85.1018593304
  0
LINE
  5
281
100
AcDbEntity
  8
0
100
AcDbLine
 62
7
  6
BYLAYER
 10
62.9582524043
 20
84.406515119
 11
62.3711498602
 21
84.0675533305
  0
LINE
  5
282
100
AcDbEntity
  8
0
100
AcDbLine
 62
7
  6
BYLAYER
 10
51.4950917685
 20
94.065256884
 11
42.0966436927
 21
99.4913306564
  0
LINE
  5
283
100
AcDbEntity
  8
0
100
AcDbLine
 62
7
  6
BYLAYER
 10
33.4395418685
 20
104.4893976536
 11
23.2572436536
 21
110.3680172768
  0
LINE
  5
284
100
AcDbEntity
  8
0
100
AcDbLine
 62
7
  6
BYLAYER
 10
62.4365727255
 20
88.9954924546
 11
108.454437552
 21
62.427666854
  0
LINE
  5
285
100
AcDbEntity
  8
0
100
AcDbLine
 62
7
  6
BYLAYER
 10
53.779815157
 20
95.8714887511
 11
42.3143864204
 21
102.4909073673
  0
LINE
  5
286
100
AcDbEntity
  8
0
100
AcDbLine
 62
7
  6
BYLAYER
 10
34.6577286471
 20
106.9113807893
 11
23.4749863814
 21
113.3675939876
  0
LINE
  5
287
100
AcDbEntity
  8
0
100
AcDbLine
 62
7
  6
BYLAYER
 10
62.9944714681
 20
85.6341961675
 11
63.016267928
 21
85.5729695157
  0
LINE
  5
288
100
AcDbEntity
  8
0
100
AcDbLine
 62
7
  6
BYLAYER
 10
62.9952966041
 20
85.6342124675
 11
63.0170642721
 21
85.5729858408
  0
LINE
  5
289
100
AcDbEntity
  8
0
100
AcDbLine
 62
7
  6
BYLAYER
 10
60.3449147099
 20
109.2980429744
 11
60.4012240224
 21
109.0680063068
  0
LINE
  5
28A
100
AcDbEntity
  8
0
100
AcDbLine
 62
7
  6
BYLAYER
 10
67.9065690272
 20
83.0030004764
 11
67.9065690272
 21
84.4102222925
  0
LINE
  5
28B
100
AcDbEntity
  8
0
100
AcDbLine
 62
7
  6
BYLAYER
 10
24.5356421372
 20
113.9799602185
 11
34.9768985914
 21
107.9518343683
  0
LINE
  5
28C
100
AcDbEntity
  8
0
100
AcDbLine
 62
7
  6
BYLAYER
 10
43.3750421762
 20
103.1032735981
 11
54.8404709128
 21
96.4838549819
  0
LINE
  5
28D
100
AcDbEntity
  8
0
100
AcDbLine
 62
7
  6
BYLAYER
 10
61.5603683534
 20
108.4223731687
 11
61.5671828172
 21
108.3924872826
  0
LINE
  5
28E
100
AcDbEntity
  8
0
100
AcDbLine
 62
7
  6
BYLAYER
 10
72.8341578009
 20
76.2669402128
 11
72.8341578009
 21
77.8182948054
  0
LINE
  5
28F
100
AcDbEntity
  8
0
100
AcDbLine
 62
7
  6
BYLAYER
 10
70.3008210436
 20
81.6792301492
 11
70.378536926
 21
82.1607880833
  0
LINE
  5
290
100
AcDbEntity
  8
0
100
AcDbLine
 62
7
  6
BYLAYER
 10
65.1827017899
 20
73.3653900476
 11
65.2707114052
 21
73.4790112717
  0
LINE
  5
291
100
AcDbEntity
  8
0
100
AcDbLine
 62
7
  6
BYLAYER
 10
65.8219392238
 20
78.1484362758
 11
65.7450883615
 21
78.1040666746
  0
LINE
  5
292
100
AcDbEntity
  8
0
100
AcDbLine
 62
7
  6
BYLAYER
 10
56.7304606864
 20
95.4883616992
 11
55.7040953828
 21
95.4883592321
  0
LINE
  5
293
100
AcDbEntity
  8
0
100
AcDbLine
 62
7
  6
BYLAYER
 10
59.3991770342
 20
97.4808378082
 11
58.8931408245
 21
97.6669599751
  0
LINE
  5
294
100
AcDbEntity
  8
0
100
AcDbLine
 62
7
  6
BYLAYER
 10
19.4223164696
 20
112.1844889945
 11
18.9162802599
 21
112.3706111614
  0
LINE
  5
295
100
AcDbEntity
  8
0
100
AcDbLine
 62
7
  6
BYLAYER
 10
44.5276091817
 20
118.4306462885
 11
45.0407955341
 21
117.9174722067
  0
LINE
  5
296
100
AcDbEntity
  8
0
100
AcDbLine
 62
7
  6
BYLAYER
 10
72.8288159372
 20
77.8221156214
 11
72.8322049907
 21
77.8268018609
  0
LINE
  5
297
100
AcDbEntity
  8
0
100
AcDbLine
 62
7
  6
BYLAYER
 10
72.8560543777
 20
77.8142759053
 11
72.8599786962
 21
77.8188256931
  0
LINE
  5
298
100
AcDbEntity
  8
0
100
AcDbLine
 62
7
  6
BYLAYER
 10
65.1826805579
 20
73.36539554
 11
64.8950570909
 21
73.1241819822
  0
LINE
  5
299
100
AcDbEntity
  8
0
100
AcDbLine
 62
7
  6
BYLAYER
 10
60.2260685805
 20
103.606194736
 11
46.2491382549
 21
101.4439509922
  0
LINE
  5
29A
100
AcDbEntity
  8
0
100
AcDbLine
 62
7
  6
BYLAYER
 10
34.5289805004
 20
99.6308320033
 11
20.8868989429
 21
97.5203896664
  0
LINE
  5
29B
100
AcDbEntity
  8
0
100
AcDbLine
 62
7
  6
BYLAYER
 10
19.8207033239
 20
98.4280675871
 11
34.3950574117
 21
100.6827333264
  0
LINE
  5
29C
100
AcDbEntity
  8
0
100
AcDbLine
 62
7
  6
BYLAYER
 10
44.7838875672
 20
102.2898947334
 11
60.1300206026
 21
104.6639553729
  0
LINE
  5
29D
100
AcDbEntity
  8
0
100
AcDbLine
 62
7
  6
BYLAYER
 10
63.1348816063
 20
105.5301814391
 11
62.5354527823
 21
105.5150700153
  0
LINE
  5
29E
100
AcDbEntity
  8
0
100
AcDbLine
 62
7
  6
BYLAYER
 10
15.7800045118
 20
104.3363789543
 11
15.1805756878
 21
104.3212675304
  0
LINE
  5
29F
100
AcDbEntity
  8
0
100
AcDbLine
 62
7
  6
BYLAYER
 10
60.0503196626
 20
107.7095453552
 11
44.3883354225
 21
105.2866222491
  0
LINE
  5
2A0
100
AcDbEntity
  8
0
100
AcDbLine
 62
7
  6
BYLAYER
 10
34.3153564716
 20
103.7283233086
 11
18.6533722315
 21
101.3054002026
  0
LINE
  5
2A1
100
AcDbEntity
  8
0
100
AcDbLine
 62
7
  6
BYLAYER
 10
59.6620850627
 20
108.546048767
 11
44.0001008225
 21
106.1231256609
  0
LINE
  5
2A2
100
AcDbEntity
  8
0
100
AcDbLine
 62
7
  6
BYLAYER
 10
33.9271218717
 20
104.5648267204
 11
18.2651376315
 21
102.1419036144
  0
LINE
  5
2A3
100
AcDbEntity
  8
0
100
AcDbLine
 62
7
  6
BYLAYER
 10
62.5492290512
 20
108.026094588
 11
61.6603684881
 21
108.322374358
  0
LINE
  5
2A4
100
AcDbEntity
  8
0
100
AcDbLine
 62
7
  6
BYLAYER
 10
22.6113619113
 20
114.3630897375
 11
21.5849966077
 21
114.3630872704
  0
LINE
  5
2A5
100
AcDbEntity
  8
0
100
AcDbLine
 62
7
  6
BYLAYER
 10
97.8478799938
 20
56.3040045459
 11
97.8478799938
 21
54.6709997117
  0
LINE
  5
2A6
100
AcDbEntity
  8
0
100
AcDbLine
 62
7
  6
BYLAYER
 10
100.6762541271
 20
63.6523755202
 11
100.6762541271
 21
62.0193706859
  0
LINE
  5
2A7
100
AcDbEntity
  8
0
100
AcDbLine
 62
7
  6
BYLAYER
 10
104.9189478056
 20
54.6710167084
 11
104.9189478056
 21
56.3040215427
  0
LINE
  5
2A8
100
AcDbEntity
  8
0
100
AcDbLine
 62
7
  6
BYLAYER
 10
108.4544669916
 20
58.345242312
 11
108.4544669916
 21
56.7122374778
  0
LINE
  5
2A9
100
AcDbEntity
  8
0
100
AcDbLine
 62
7
  6
BYLAYER
 10
109.9189183659
 20
58.7534412504
 11
109.9189183659
 21
60.3864460846
  0
LINE
  5
2AA
100
AcDbEntity
  8
0
100
AcDbLine
 62
7
  6
BYLAYER
 10
108.4544669916
 20
58.345242312
 11
104.9189478056
 21
56.3040215427
  0
LINE
  5
2AB
100
AcDbEntity
  8
0
100
AcDbLine
 62
7
  6
BYLAYER
 10
108.4544669916
 20
56.7122374778
 11
104.9189478056
 21
54.6710167084
  0
ARC
  5
2AC
100
AcDbEntity
  8
0
100
AcDbCircle
 62
7
  6
BYLAYER
 10
-6.0013029247
 20
77.3273309863
 40
70.19618094
100
AcDbArc
 50
5.1940592119
 51
6.1813836272
  0
ARC
  5
2AD
100
AcDbEntity
  8
0
100
AcDbCircle
 62
7
  6
BYLAYER
 10
39.1624249078
 20
77.4104636699
 40
41.3714096415
100
AcDbArc
 50
86.543837532
 51
88.5566727518
  0
ARC
  5
2AE
100
AcDbEntity
  8
0
100
AcDbCircle
 62
7
  6
BYLAYER
 10
39.1919867543
 20
77.9136204384
 40
40.867385884
100
AcDbArc
 50
84.5135771694
 51
86.5426813854
  0
ARC
  5
2AF
100
AcDbEntity
  8
0
100
AcDbCircle
 62
7
  6
BYLAYER
 10
39.1578030397
 20
77.9266420567
 40
40.5088865168
100
AcDbArc
 50
88.5564207786
 51
91.9249883188
  0
ARC
  5
2B0
100
AcDbEntity
  8
0
100
AcDbCircle
 62
7
  6
BYLAYER
 10
39.2642979974
 20
78.6845525069
 40
40.0930719142
100
AcDbArc
 50
82.4565897991
 51
84.511106678
  0
ARC
  5
2B1
100
AcDbEntity
  8
0
100
AcDbCircle
 62
7
  6
BYLAYER
 10
39.1331629787
 20
78.488874383
 40
39.9461442067
100
AcDbArc
 50
91.9167550405
 51
95.3194264774
  0
ARC
  5
2B2
100
AcDbEntity
  8
0
100
AcDbCircle
 62
7
  6
BYLAYER
 10
39.000966268
 20
79.8060756754
 40
38.6223611297
100
AcDbArc
 50
95.3053154928
 51
98.7865245925
  0
ARC
  5
2B3
100
AcDbEntity
  8
0
100
AcDbCircle
 62
7
  6
BYLAYER
 10
39.1702636925
 20
79.3595789868
 40
38.5561494336
100
AcDbArc
 50
84.0115480469
 51
88.4576436187
  0
ARC
  5
2B4
100
AcDbEntity
  8
0
100
AcDbCircle
 62
7
  6
BYLAYER
 10
39.6681738171
 20
81.2999265023
 40
37.4461542609
100
AcDbArc
 50
77.8006033278
 51
79.9499255023
  0
ARC
  5
2B5
100
AcDbEntity
  8
0
100
AcDbCircle
 62
7
  6
BYLAYER
 10
38.673957336
 20
81.8404156237
 40
36.5619458934
100
AcDbArc
 50
98.7670630859
 51
102.3797568518
  0
ARC
  5
2B6
100
AcDbEntity
  8
0
100
AcDbCircle
 62
7
  6
BYLAYER
 10
39.9975107284
 20
82.8431211866
 40
35.8682143943
100
AcDbArc
 50
75.5822504994
 51
77.793894971
  0
ARC
  5
2B7
100
AcDbEntity
  8
0
100
AcDbCircle
 62
7
  6
BYLAYER
 10
40.4269587932
 20
84.533443048
 40
34.1241995205
100
AcDbArc
 50
73.2882543257
 51
75.573939163
  0
ARC
  5
2B8
100
AcDbEntity
  8
0
100
AcDbCircle
 62
7
  6
BYLAYER
 10
38.0810563769
 20
84.4636037677
 40
33.8726438445
100
AcDbArc
 50
102.3514597742
 51
106.1562680937
  0
ARC
  5
2B9
100
AcDbEntity
  8
0
100
AcDbCircle
 62
7
  6
BYLAYER
 10
61.291382518
 20
75.8084589393
 40
9.7245645711
100
AcDbArc
 50
80.0823815781
 51
80.4981078381
  0
ARC
  5
2BA
100
AcDbEntity
  8
0
100
AcDbCircle
 62
7
  6
BYLAYER
 10
62.3910555466
 20
75.7889155473
 40
9.2032953986
100
AcDbArc
 50
80.8537264072
 51
81.27752612
  0
ARC
  5
2BB
100
AcDbEntity
  8
0
100
AcDbCircle
 62
7
  6
BYLAYER
 10
56.0522617564
 20
84.4319555188
 40
1.0732674612
100
AcDbArc
 50
180.0085678467
 51
186.9369726134
  0
ARC
  5
2BC
100
AcDbEntity
  8
0
100
AcDbCircle
 62
7
  6
BYLAYER
 10
62.8226011936
 20
85.5215883158
 40
0.1597191744
100
AcDbArc
 50
307.5720791483
 51
310.5270573071
  0
ARC
  5
2BD
100
AcDbEntity
  8
0
100
AcDbCircle
 62
7
  6
BYLAYER
 10
36.2483712646
 20
89.4296532447
 40
28.9584727947
100
AcDbArc
 50
110.17177136
 51
112.7307400394
  0
ARC
  5
2BE
100
AcDbEntity
  8
0
100
AcDbCircle
 62
7
  6
BYLAYER
 10
35.4242904325
 20
91.3748678337
 40
26.8459169656
100
AcDbArc
 50
112.7127217226
 51
115.4050330769
  0
ARC
  5
2BF
100
AcDbEntity
  8
0
100
AcDbCircle
 62
7
  6
BYLAYER
 10
34.5120333475
 20
93.2748956672
 40
24.7382564628
100
AcDbArc
 50
115.3844195392
 51
118.2278462255
  0
ARC
  5
2C0
100
AcDbEntity
  8
0
100
AcDbCircle
 62
7
  6
BYLAYER
 10
32.2539082111
 20
97.1478096343
 40
20.2531839198
100
AcDbArc
 50
121.7879476902
 51
125.0380912721
  0
ARC
  5
2C1
100
AcDbEntity
  8
0
100
AcDbCircle
 62
7
  6
BYLAYER
 10
31.1461756235
 20
98.7110354357
 40
18.3372907208
100
AcDbArc
 50
125.0084136421
 51
128.4819673899
  0
ARC
  5
2C2
100
AcDbEntity
  8
0
100
AcDbCircle
 62
7
  6
BYLAYER
 10
30.0288429396
 20
100.1014469498
 40
16.5535929562
100
AcDbArc
 50
128.4492811469
 51
132.1681127143
  0
ARC
  5
2C3
100
AcDbEntity
  8
0
100
AcDbCircle
 62
7
  6
BYLAYER
 10
29.4350663119
 20
101.131900368
 40
14.9135802123
100
AcDbArc
 50
132.1740281483
 51
135.3128577183
  0
ARC
  5
2C4
100
AcDbEntity
  8
0
100
AcDbCircle
 62
7
  6
BYLAYER
 10
29.2956664749
 20
101.2775527032
 40
14.7120460708
100
AcDbArc
 50
132.1525239047
 51
135.3343619619
  0
ARC
  5
2C5
100
AcDbEntity
  8
0
100
AcDbCircle
 62
7
  6
BYLAYER
 10
28.4053890362
 20
102.1472290935
 40
13.467508946
100
AcDbArc
 50
135.3032857863
 51
138.9652389995
  0
ARC
  5
2C6
100
AcDbEntity
  8
0
100
AcDbCircle
 62
7
  6
BYLAYER
 10
50.7548207575
 20
102.5800222206
 40
13.0526836816
100
AcDbArc
 50
37.7261912211
 51
42.0584345916
  0
ARC
  5
2C7
100
AcDbEntity
  8
0
100
AcDbCircle
 62
7
  6
BYLAYER
 10
51.7516809155
 20
103.3609441894
 40
11.786388428
100
AcDbArc
 50
33.0505648684
 51
37.6887696247
  0
ARC
  5
2C8
100
AcDbEntity
  8
0
100
AcDbCircle
 62
7
  6
BYLAYER
 10
52.6530073938
 20
103.9561111023
 40
10.7063169314
100
AcDbArc
 50
28.0658495181
 51
33.0115079081
  0
ARC
  5
2C9
100
AcDbEntity
  8
0
100
AcDbCircle
 62
7
  6
BYLAYER
 10
54.2115619188
 20
104.7081468393
 40
8.9735985242
100
AcDbArc
 50
16.13205415
 51
21.6999229886
  0
ARC
  5
2CA
100
AcDbEntity
  8
0
100
AcDbCircle
 62
7
  6
BYLAYER
 10
54.6915549568
 20
104.8519810281
 40
8.4725424869
100
AcDbArc
 50
10.3109348686
 51
16.099570554
  0
ARC
  5
2CB
100
AcDbEntity
  8
0
100
AcDbCircle
 62
7
  6
BYLAYER
 10
55.0030538559
 20
104.9123980228
 40
8.155260812
100
AcDbArc
 50
4.3444746292
 51
10.2850375057
  0
ARC
  5
2CC
100
AcDbEntity
  8
0
100
AcDbCircle
 62
7
  6
BYLAYER
 10
23.3066787755
 20
104.9383652576
 40
8.1495006593
100
AcDbArc
 50
184.3427165606
 51
190.0379969632
  0
ARC
  5
2CD
100
AcDbEntity
  8
0
100
AcDbCircle
 62
7
  6
BYLAYER
 10
54.7349722545
 20
104.9260724365
 40
7.82274026
100
AcDbArc
 50
354.2348508091
 51
359.9974514941
  0
ARC
  5
2CE
100
AcDbEntity
  8
0
100
AcDbCircle
 62
7
  6
BYLAYER
 10
23.5804850396
 20
104.9253765331
 40
7.82274026
100
AcDbArc
 50
174.2348508091
 51
179.9974514941
  0
ARC
  5
2CF
100
AcDbEntity
  8
0
100
AcDbCircle
 62
7
  6
BYLAYER
 10
24.3906593486
 20
102.0507661081
 40
7.4250189417
100
AcDbArc
 50
176.2178338658
 51
176.8551175865
  0
ARC
  5
2D0
100
AcDbEntity
  8
0
100
AcDbCircle
 62
7
  6
BYLAYER
 10
38.1500044516
 20
108.9362478122
 40
4.3492257892
100
AcDbArc
 50
240.0056255013
 51
241.9764706651
  0
ARC
  5
2D1
100
AcDbEntity
  8
0
100
AcDbCircle
 62
7
  6
BYLAYER
 10
31.8384678285
 20
97.4241627173
 40
4.1417910028
100
AcDbArc
 50
45.4272576701
 51
51.883193419
  0
ARC
  5
2D2
100
AcDbEntity
  8
0
100
AcDbCircle
 62
7
  6
BYLAYER
 10
49.0768575332
 20
110.783754802
 40
4.1364382972
100
AcDbArc
 50
126.3161201833
 51
127.2700635821
  0
ARC
  5
2D3
100
AcDbEntity
  8
0
100
AcDbCircle
 62
7
  6
BYLAYER
 10
38.019964991
 20
107.0043061054
 40
4.0286930107
100
AcDbArc
 50
237.7567460364
 51
240.0176468797
  0
ARC
  5
2D4
100
AcDbEntity
  8
0
100
AcDbCircle
 62
7
  6
BYLAYER
 10
32.098450044
 20
97.6882340044
 40
3.7712179614
100
AcDbArc
 50
43.8716053657
 51
45.4253121183
  0
ARC
  5
2D5
100
AcDbEntity
  8
0
100
AcDbCircle
 62
7
  6
BYLAYER
 10
39.8659397464
 20
100.6200183206
 40
1.9464248523
100
AcDbArc
 50
244.6068843734
 51
246.6116764741
  0
ARC
  5
2D6
100
AcDbEntity
  8
0
100
AcDbCircle
 62
7
  6
BYLAYER
 10
34.5741795745
 20
102.0401991393
 40
1.707850289
100
AcDbArc
 50
81.2835680195
 51
98.716707424
  0
ARC
  5
2D7
100
AcDbEntity
  8
0
100
AcDbCircle
 62
7
  6
BYLAYER
 10
43.741818297
 20
107.803366464
 40
1.699976182
100
AcDbArc
 50
267.1638259981
 51
278.738964896
  0
ARC
  5
2D8
100
AcDbEntity
  8
0
100
AcDbCircle
 62
7
  6
BYLAYER
 10
31.9037041251
 20
94.240836112
 40
1.5799368761
100
AcDbArc
 50
258.3520662394
 51
261.2178360611
  0
ARC
  5
2D9
100
AcDbEntity
  8
0
100
AcDbCircle
 62
7
  6
BYLAYER
 10
46.4117531691
 20
115.6106128576
 40
1.5799368761
100
AcDbArc
 50
78.3520662393
 51
81.2178360611
  0
ARC
  5
2DA
100
AcDbEntity
  8
0
100
AcDbCircle
 62
7
  6
BYLAYER
 10
53.284636371
 20
95.9133708958
 40
0.9909600693
100
AcDbArc
 50
296.0563105204
 51
299.9802827853
  0
ARC
  5
2DB
100
AcDbEntity
  8
0
100
AcDbCircle
 62
7
  6
BYLAYER
 10
25.0308209231
 20
113.9380780738
 40
0.9909600693
100
AcDbArc
 50
116.0563105204
 51
119.9802827853
  0
ARC
  5
2DC
100
AcDbEntity
  8
0
100
AcDbCircle
 62
7
  6
BYLAYER
 10
55.7038670471
 20
95.1489233924
 40
0.3394359165
100
AcDbArc
 50
89.961457598
 51
98.7322012205
  0
ARC
  5
2DD
100
AcDbEntity
  8
0
100
AcDbCircle
 62
7
  6
BYLAYER
 10
33.1011428008
 20
91.6533662665
 40
0.3383440915
100
AcDbArc
 50
89.9463265618
 51
98.747171275
  0
ARC
  5
2DE
100
AcDbEntity
  8
0
100
AcDbCircle
 62
7
  6
BYLAYER
 10
33.1017844457
 20
91.6535074771
 40
0.3382028884
100
AcDbArc
 50
81.2522135521
 51
90.05500681
  0
ARC
  5
2DF
100
AcDbEntity
  8
0
100
AcDbCircle
 62
7
  6
BYLAYER
 10
132.6120987083
 20
77.4498917291
 40
68.9875154078
100
AcDbArc
 50
173.7518068405
 51
174.8168985607
  0
ARC
  5
2E0
100
AcDbEntity
  8
0
100
AcDbCircle
 62
7
  6
BYLAYER
 10
98.4585930938
 20
59.4161685476
 40
42.5138475108
100
AcDbArc
 50
142.0894044803
 51
142.2422143762
  0
ARC
  5
2E1
100
AcDbEntity
  8
0
100
AcDbCircle
 62
7
  6
BYLAYER
 10
96.1418468619
 20
62.2170913824
 40
39.9936970591
100
AcDbArc
 50
143.4187261854
 51
143.5806906553
  0
ARC
  5
2E2
100
AcDbEntity
  8
0
100
AcDbCircle
 62
7
  6
BYLAYER
 10
64.2746040562
 20
77.6662691601
 40
7.7599219296
100
AcDbArc
 50
85.7760671567
 51
86.0240265422
  0
ARC
  5
2E3
100
AcDbEntity
  8
0
100
AcDbCircle
 62
7
  6
BYLAYER
 10
64.2009540291
 20
77.9227473158
 40
7.7261787251
100
AcDbArc
 50
98.9387142494
 51
111.2059298055
  0
ARC
  5
2E4
100
AcDbEntity
  8
0
100
AcDbCircle
 62
7
  6
BYLAYER
 10
63.6137422091
 20
77.926842225
 40
7.7218343336
100
AcDbArc
 50
68.7936897741
 51
80.2876770633
  0
ARC
  5
2E5
100
AcDbEntity
  8
0
100
AcDbCircle
 62
7
  6
BYLAYER
 10
63.9065690272
 20
80.2268922582
 40
6.5
100
AcDbArc
 50
74.8831394578
 51
105.1322204769
  0
ARC
  5
2E6
100
AcDbEntity
  8
0
100
AcDbCircle
 62
7
  6
BYLAYER
 10
68.792814853
 20
81.3237946592
 40
5.3690436002
100
AcDbArc
 50
319.2461486902
 51
321.8112026105
  0
ARC
  5
2E7
100
AcDbEntity
  8
0
100
AcDbCircle
 62
7
  6
BYLAYER
 10
64.052999332
 20
83.2428185534
 40
2.3057870618
100
AcDbArc
 50
70.6099457195
 51
72.4121548618
  0
ARC
  5
2E8
100
AcDbEntity
  8
0
100
AcDbCircle
 62
7
  6
BYLAYER
 10
64.0759814766
 20
83.3091268779
 40
2.2356097111
100
AcDbArc
 50
70.1583681214
 51
70.5173455591
  0
ARC
  5
2E9
100
AcDbEntity
  8
0
100
AcDbCircle
 62
7
  6
BYLAYER
 10
64.0823886189
 20
83.3268886418
 40
2.2167276633
100
AcDbArc
 50
69.8384905303
 51
70.1583178267
  0
ARC
  5
2EA
100
AcDbEntity
  8
0
100
AcDbCircle
 62
7
  6
BYLAYER
 10
-44.9361098918
 20
124.5270720274
 40
116.4419137657
100
AcDbArc
 50
339.9894005945
 51
340.3866133702
  0
ARC
  5
2EB
100
AcDbEntity
  8
0
100
AcDbCircle
 62
7
  6
BYLAYER
 10
330.9320950573
 20
180.9246422824
 40
284.3779865872
100
AcDbArc
 50
199.4370507678
 51
199.5776316626
  0
ARC
  5
2EC
100
AcDbEntity
  8
0
100
AcDbCircle
 62
7
  6
BYLAYER
 10
189.5381106379
 20
130.5972536827
 40
134.2943142782
100
AcDbArc
 50
199.588698947
 51
200.0453081699
  0
SPLINE
  5
2ED
100
AcDbEntity
  8
0
100
AcDbSpline
 62
7
  6
BYLAYER
 70
0
 71
3
 72
9
 73
5
 74
0
 42
0.0000001
 43
0.0000001
 44
0.0000000001
 40
0.0
 40
0.0
 40
0.0
 40
0.0
 40
0.4867156245
 40
1.0
 40
1.0
 40
1.0
 40
1.0
 10
68.5027439691
 20
85.1625230979
 30
0.0
 10
68.3089502276
 20
85.2744074356
 30
0.0
 10
67.8980618517
 20
85.4826620976
 30
0.0
 10
67.4695918583
 20
85.651207205
 30
0.0
 10
67.2465632518
 20
85.7283333853
 30
0.0
  0
SPLINE
  5
2EE
100
AcDbEntity
  8
0
100
AcDbSpline
 62
7
  6
BYLAYER
 70
0
 71
3
 72
18
 73
14
 74
0
 42
0.0000001
 43
0.0000001
 44
0.0000000001
 40
0.0
 40
0.0
 40
0.0
 40
0.0
 40
0.156775609
 40
0.3041099816
 40
0.4411366489
 40
0.5676906355
 40
0.6844957946
 40
0.7398302254
 40
0.7934912064
 40
0.8458718981
 40
0.8974224027
 40
0.9486302054
 40
1.0
 40
1.0
 40
1.0
 40
1.0
 10
60.5762901113
 20
85.7316831024
 30
0.0
 10
60.3215267024
 20
85.6439343882
 30
0.0
 10
59.8349993022
 20
85.4499754464
 30
0.0
 10
59.1641016372
 20
85.0932736007
 30
0.0
 10
58.5849876285
 20
84.6852362339
 30
0.0
 10
58.1090718959
 20
84.2332285538
 30
0.0
 10
57.8009880409
 20
83.8183798256
 30
0.0
 10
57.6198222695
 20
83.4744476495
 30
0.0
 10
57.5175005175
 20
83.2160256578
 30
0.0
 10
57.4469915454
 20
82.9538763952
 30
0.0
 10
57.4086753952
 20
82.689342074
 30
0.0
 10
57.4028435455
 20
82.423873702
 30
0.0
 10
57.4205366035
 20
82.2479503615
 30
0.0
 10
57.4346014888
 20
82.1607881027
 30
0.0
  0
SPLINE
  5
2EF
100
AcDbEntity
  8
0
100
AcDbSpline
 62
7
  6
BYLAYER
 70
0
 71
3
 72
15
 73
11
 74
0
 42
0.0000001
 43
0.0000001
 44
0.0000000001
 40
0.0
 40
0.0
 40
0.0
 40
0.0
 40
0.1503235831
 40
0.2919120605
 40
0.4248410703
 40
0.5497444224
 40
0.6677597058
 40
0.7806061414
 40
0.8905046563
 40
1.0
 40
1.0
 40
1.0
 40
1.0
 10
68.5027439691
 20
85.1625230979
 30
0.0
 10
68.6661824467
 20
85.0681639836
 30
0.0
 10
68.975401656
 20
84.8701417042
 30
0.0
 10
69.3924039533
 20
84.5358547053
 30
0.0
 10
69.7441448209
 20
84.1765333351
 30
0.0
 10
70.0261942866
 20
83.7961864969
 30
0.0
 10
70.2347082038
 20
83.3989642315
 30
0.0
 10
70.3664121011
 20
82.9894911102
 30
0.0
 10
70.4189073607
 20
82.573281917
 30
0.0
 10
70.4004341067
 20
82.2964964686
 30
0.0
 10
70.3785312268
 20
82.1607883899
 30
0.0
  0
SPLINE
  5
2F0
100
AcDbEntity
  8
0
100
AcDbSpline
 62
7
  6
BYLAYER
 70
0
 71
3
 72
11
 73
7
 74
0
 42
0.0000001
 43
0.0000001
 44
0.0000000001
 40
0.0
 40
0.0
 40
0.0
 40
0.0
 40
0.2348254881
 40
0.4777107612
 40
0.7319454702
 40
1.0
 40
1.0
 40
1.0
 40
1.0
 10
70.3008154127
 20
81.6792304521
 30
0.0
 10
70.2812003285
 20
81.5576973294
 30
0.0
 10
70.2202791986
 20
81.3134227065
 30
0.0
 10
70.0691269079
 20
80.9591854171
 30
0.0
 10
69.8590614231
 20
80.6159631245
 30
0.0
 10
69.6861485423
 20
80.402601758
 30
0.0
 10
69.5915627526
 20
80.2986735154
 30
0.0
  0
SPLINE
  5
2F1
100
AcDbEntity
  8
0
100
AcDbSpline
 62
7
  6
BYLAYER
 70
0
 71
3
 72
15
 73
11
 74
0
 42
0.0000001
 43
0.0000001
 44
0.0000000001
 40
0.0
 40
0.0
 40
0.0
 40
0.0
 40
0.1037290764
 40
0.214166519
 40
0.3313197192
 40
0.4548962507
 40
0.584359403
 40
0.718976128
 40
0.8578584977
 40
1.0
 40
1.0
 40
1.0
 40
1.0
 10
69.5915627526
 20
80.2986735154
 30
0.0
 10
69.4784609116
 20
80.1744003491
 30
0.0
 10
69.2271786831
 20
79.9336208336
 30
0.0
 10
68.7982003955
 20
79.6094085891
 30
0.0
 10
68.3106587807
 20
79.3145095328
 30
0.0
 10
67.7704433094
 20
79.0523861575
 30
0.0
 10
67.1839547764
 20
78.8260469358
 30
0.0
 10
66.5581776668
 20
78.6381598362
 30
0.0
 10
65.9006216635
 20
78.4909540333
 30
0.0
 10
65.4502743996
 20
78.4217296814
 30
0.0
 10
65.221675121
 20
78.3941145104
 30
0.0
  0
SPLINE
  5
2F2
100
AcDbEntity
  8
0
100
AcDbSpline
 62
7
  6
BYLAYER
 70
0
 71
3
 72
15
 73
11
 74
0
 42
0.0000001
 43
0.0000001
 44
0.0000000001
 40
0.0
 40
0.0
 40
0.0
 40
0.0
 40
0.1308697536
 40
0.2626323665
 40
0.3939421604
 40
0.523466873
 40
0.6499322872
 40
0.7721589601
 40
0.88912807
 40
1.0
 40
1.0
 40
1.0
 40
1.0
 10
65.221675121
 20
78.3941145104
 30
0.0
 10
64.960235888
 20
78.3625322187
 30
0.0
 10
64.4330421026
 20
78.3185465823
 30
0.0
 10
63.639757843
 20
78.309292379
 30
0.0
 10
62.8504818882
 20
78.3564474546
 30
0.0
 10
62.0772496658
 20
78.4592959791
 30
0.0
 10
61.3317882486
 20
78.6162856717
 30
0.0
 10
60.6253366848
 20
78.8250523231
 30
0.0
 10
59.9686759857
 20
79.082442894
 30
0.0
 10
59.5587964202
 20
79.2899270834
 30
0.0
 10
59.3655853034
 20
79.4014750501
 30
0.0
  0
SPLINE
  5
2F3
100
AcDbEntity
  8
0
100
AcDbSpline
 62
7
  6
BYLAYER
 70
0
 71
3
 72
14
 73
10
 74
0
 42
0.0000001
 43
0.0000001
 44
0.0000000001
 40
0.0
 40
0.0
 40
0.0
 40
0.0
 40
0.1077813042
 40
0.2186736454
 40
0.3339126776
 40
0.4544796326
 40
0.7138181344
 40
0.8536017505
 40
1.0
 40
1.0
 40
1.0
 40
1.0
 10
57.512317367
 20
81.6792301684
 30
0.0
 10
57.5296657654
 20
81.5717194739
 30
0.0
 10
57.581259818
 20
81.3559349235
 30
0.0
 10
57.7055863259
 20
81.0412284647
 30
0.0
 10
57.8765267128
 20
80.7343517017
 30
0.0
 10
58.1716131891
 20
80.32913022
 30
0.0
 10
58.5504447482
 20
79.9594558801
 30
0.0
 10
58.9921816308
 20
79.6292986003
 30
0.0
 10
59.2374823842
 20
79.4754336318
 30
0.0
 10
59.3655853034
 20
79.4014750501
 30
0.0
  0
SPLINE
  5
2F4
100
AcDbEntity
  8
0
100
AcDbSpline
 62
7
  6
BYLAYER
 70
0
 71
3
 72
14
 73
10
 74
0
 42
0.0000001
 43
0.0000001
 44
0.0000000001
 40
0.0
 40
0.0
 40
0.0
 40
0.0
 40
0.1077813042
 40
0.2186736454
 40
0.3339126776
 40
0.4544796326
 40
0.7138181344
 40
0.8536017505
 40
1.0
 40
1.0
 40
1.0
 40
1.0
 10
57.4346014888
 20
82.1607881027
 30
0.0
 10
57.4521607401
 20
82.0519707208
 30
0.0
 10
57.5043818679
 20
81.8335635202
 30
0.0
 10
57.630219443
 20
81.5150321121
 30
0.0
 10
57.8032374433
 20
81.204425562
 30
0.0
 10
58.1019104071
 20
80.7942790093
 30
0.0
 10
58.4853462935
 20
80.4201116392
 30
0.0
 10
58.9324520561
 20
80.0859416204
 30
0.0
 10
59.1807342004
 20
79.9302065736
 30
0.0
 10
59.3103940853
 20
79.8553490976
 30
0.0
  0
SPLINE
  5
2F5
100
AcDbEntity
  8
0
100
AcDbSpline
 62
7
  6
BYLAYER
 70
0
 71
3
 72
25
 73
21
 74
0
 42
0.0000001
 43
0.0000001
 44
0.0000000001
 40
0.0
 40
0.0
 40
0.0
 40
0.0
 40
0.0213696411
 40
0.0432044533
 40
0.0656763047
 40
0.0889316398
 40
0.1381809228
 40
0.1916009716
 40
0.249358521
 40
0.3112766149
 40
0.3769109195
 40
0.4456152331
 40
0.5165963751
 40
0.5889613946
 40
0.6617599432
 40
0.7340242219
 40
0.8048078336
 40
0.873226682
 40
0.9384994042
 40
1.0
 40
1.0
 40
1.0
 40
1.0
 10
70.3785312268
 20
82.1607883899
 30
0.0
 10
70.3642084574
 20
82.072045927
 30
0.0
 10
70.3243058386
 20
81.894220739
 30
0.0
 10
70.2326163469
 20
81.6330174701
 30
0.0
 10
70.1092027928
 20
81.3763875482
 30
0.0
 10
69.8993084531
 20
81.0357335923
 30
0.0
 10
69.5562519055
 20
80.6279945519
 30
0.0
 10
69.0415506057
 20
80.1878369034
 30
0.0
 10
68.4262989022
 20
79.7946461688
 30
0.0
 10
67.7225743507
 20
79.4556552004
 30
0.0
 10
66.9439847321
 20
79.1771015916
 30
0.0
 10
66.1057024733
 20
78.9643201818
 30
0.0
 10
65.2241371796
 20
78.8214330462
 30
0.0
 10
64.3166153149
 20
78.751239646
 30
0.0
 10
63.4010120979
 20
78.7551192615
 30
0.0
 10
62.4953704971
 20
78.8329988773
 30
0.0
 10
61.6175357871
 20
78.9833372495
 30
0.0
 10
60.7847158983
 20
79.2032228622
 30
0.0
 10
60.0133559904
 20
79.4883015276
 30
0.0
 10
59.5344367409
 20
79.7260009364
 30
0.0
 10
59.3103940853
 20
79.8553490976
 30
0.0
  0
SPLINE
  5
2F6
100
AcDbEntity
  8
0
100
AcDbSpline
 62
7
  6
BYLAYER
 70
0
 71
3
 72
16
 73
12
 74
0
 42
0.0000001
 43
0.0000001
 44
0.0000000001
 40
0.0
 40
0.0
 40
0.0
 40
0.0
 40
0.1199891428
 40
0.2508362304
 40
0.3882025626
 40
0.5268938206
 40
0.6615650911
 40
0.7873592232
 40
0.8457904981
 40
0.9007880364
 40
1.0
 40
1.0
 40
1.0
 40
1.0
 10
64.8950570909
 20
73.1241819822
 30
0.0
 10
64.8108938398
 20
73.0755905966
 30
0.0
 10
64.6236813881
 20
72.9930840513
 30
0.0
 10
64.3178396959
 20
72.9154646668
 30
0.0
 10
63.9889093497
 20
72.8814655007
 30
0.0
 10
63.6553834016
 20
72.8930929088
 30
0.0
 10
63.3359707424
 20
72.9496547791
 30
0.0
 10
63.0902978229
 20
73.0336740339
 30
0.0
 10
62.9173557394
 20
73.1218337243
 30
0.0
 10
62.7728175621
 20
73.2156561667
 30
0.0
 10
62.6796510114
 20
73.3018678796
 30
0.0
 10
62.6304396031
 20
73.3653909115
 30
0.0
  0
SPLINE
  5
2F7
100
AcDbEntity
  8
0
100
AcDbSpline
 62
7
  6
BYLAYER
 70
0
 71
3
 72
25
 73
21
 74
0
 42
0.0000001
 43
0.0000001
 44
0.0000000001
 40
0.0
 40
0.0
 40
0.0
 40
0.0
 40
0.0623832239
 40
0.1287222452
 40
0.1983149034
 40
0.2702914047
 40
0.3436688435
 40
0.41740089
 40
0.4904255401
 40
0.5617122486
 40
0.630309722
 40
0.6953976182
 40
0.7563455377
 40
0.8127830829
 40
0.8646837331
 40
0.9124584544
 40
0.9351028857
 40
0.9571080477
 40
0.9786681899
 40
1.0
 40
1.0
 40
1.0
 40
1.0
 10
66.7350079278
 20
81.3700374583
 30
0.0
 10
66.591295434
 20
81.2870655066
 30
0.0
 10
66.2833187245
 20
81.1352156364
 30
0.0
 10
65.7865112748
 20
80.9552057238
 30
0.0
 10
65.2496388159
 20
80.8189126036
 30
0.0
 10
64.6841830394
 20
80.729250274
 30
0.0
 10
64.1021380489
 20
80.6881035763
 30
0.0
 10
63.5159222422
 20
80.6963519306
 30
0.0
 10
62.9380397448
 20
80.7538188481
 30
0.0
 10
62.3808049561
 20
80.8592823537
 30
0.0
 10
61.8560558697
 20
81.0105131911
 30
0.0
 10
61.3748842193
 20
81.2043615403
 30
0.0
 10
60.9474040386
 20
81.4368572946
 30
0.0
 10
60.5825526553
 20
81.7034777437
 30
0.0
 10
60.2881506072
 20
81.9990602459
 30
0.0
 10
60.1038549943
 20
82.2702497254
 30
0.0
 10
60.0011596267
 20
82.4941560995
 30
0.0
 10
59.9467139423
 20
82.6621106465
 30
0.0
 10
59.9138972787
 20
82.8320283227
 30
0.0
 10
59.9065759897
 20
82.9462560622
 30
0.0
 10
59.9065733633
 20
83.0030004793
 30
0.0
  0
SPLINE
  5
2F8
100
AcDbEntity
  8
0
100
AcDbSpline
 62
7
  6
BYLAYER
 70
0
 71
3
 72
11
 73
7
 74
0
 42
0.0000001
 43
0.0000001
 44
0.0000000001
 40
0.0
 40
0.0
 40
0.0
 40
0.0
 40
0.222676073
 40
0.4538955423
 40
0.710484231
 40
1.0
 40
1.0
 40
1.0
 40
1.0
 10
63.002175059
 20
85.5677018348
 30
0.0
 10
63.0021733077
 20
85.5731279204
 30
0.0
 10
63.0001723867
 20
85.5843037296
 30
0.0
 10
62.9910083943
 20
85.599375771
 30
0.0
 10
62.9765940329
 20
85.6120012318
 30
0.0
 10
62.9647446894
 20
85.6182860069
 30
0.0
 10
62.9582502721
 20
85.621041527
 30
0.0
  0
SPLINE
  5
2F9
100
AcDbEntity
  8
0
100
AcDbSpline
 62
7
  6
BYLAYER
 70
0
 71
3
 72
9
 73
5
 74
0
 42
0.0000001
 43
0.0000001
 44
0.0000000001
 40
0.0
 40
0.0
 40
0.0
 40
0.0
 40
0.4960140811
 40
1.0
 40
1.0
 40
1.0
 40
1.0
 10
66.406940097
 20
85.1257845802
 30
0.0
 10
66.1549203939
 20
85.1992796846
 30
0.0
 10
65.6383817304
 20
85.3197142224
 30
0.0
 10
65.1121715478
 20
85.3854673961
 30
0.0
 10
64.8461593668
 20
85.4051135751
 30
0.0
  0
SPLINE
  5
2FA
100
AcDbEntity
  8
0
100
AcDbSpline
 62
7
  6
BYLAYER
 70
0
 71
3
 72
11
 73
7
 74
0
 42
0.0000001
 43
0.0000001
 44
0.0000000001
 40
0.0
 40
0.0
 40
0.0
 40
0.0
 40
0.2251065441
 40
0.4648916266
 40
0.7226274044
 40
1.0
 40
1.0
 40
1.0
 40
1.0
 10
66.9576090332
 20
85.8259703383
 30
0.0
 10
66.8042891573
 20
85.8601809095
 30
0.0
 10
66.4796889719
 20
85.898031075
 30
0.0
 10
65.9742341334
 20
85.8651958455
 30
0.0
 10
65.444822535
 20
85.7461340044
 30
0.0
 10
65.0937687004
 20
85.615558353
 30
0.0
 10
64.9164226885
 20
85.5379991624
 30
0.0
  0
SPLINE
  5
2FB
100
AcDbEntity
  8
0
100
AcDbSpline
 62
7
  6
BYLAYER
 70
0
 71
3
 72
9
 73
5
 74
0
 42
0.0000001
 43
0.0000001
 44
0.0000000001
 40
0.0
 40
0.0
 40
0.0
 40
0.0
 40
0.2384657149
 40
1.0
 40
1.0
 40
1.0
 40
1.0
 10
65.7439132185
 20
84.5700206053
 30
0.0
 10
65.7217943402
 20
84.5495301827
 30
0.0
 10
65.6262776968
 20
84.4665954424
 30
0.0
 10
65.5208192531
 20
84.3954429979
 30
0.0
 10
65.4374317164
 20
84.3472994685
 30
0.0
  0
SPLINE
  5
2FC
100
AcDbEntity
  8
0
100
AcDbSpline
 62
7
  6
BYLAYER
 70
0
 71
3
 72
9
 73
5
 74
0
 42
0.0000001
 43
0.0000001
 44
0.0000000001
 40
0.0
 40
0.0
 40
0.0
 40
0.0
 40
0.517415267
 40
1.0
 40
1.0
 40
1.0
 40
1.0
 10
62.2097610259
 20
86.5015109815
 30
0.0
 10
62.0060673683
 20
86.446421942
 30
0.0
 10
61.6178394564
 20
86.3182099404
 30
0.0
 10
61.2485703182
 20
86.1415884136
 30
0.0
 10
61.0781301266
 20
86.0431853105
 30
0.0
  0
SPLINE
  5
2FD
100
AcDbEntity
  8
0
100
AcDbSpline
 62
7
  6
BYLAYER
 70
0
 71
3
 72
14
 73
10
 74
0
 42
0.0000001
 43
0.0000001
 44
0.0000000001
 40
0.0
 40
0.0
 40
0.0
 40
0.0
 40
0.1109715517
 40
0.2235526791
 40
0.3392399792
 40
0.4593271654
 40
0.5848505108
 40
0.7165685985
 40
1.0
 40
1.0
 40
1.0
 40
1.0
 10
67.9065686823
 20
84.4102222925
 30
0.0
 10
67.9065688931
 20
84.4764375383
 30
0.0
 10
67.8965575657
 20
84.6100356735
 30
0.0
 10
67.851777877
 20
84.8081290314
 30
0.0
 10
67.777657583
 20
85.0030287777
 30
0.0
 10
67.674902618
 20
85.1931937359
 30
0.0
 10
67.5443845194
 20
85.3772902372
 30
0.0
 10
67.3296215525
 20
85.6186838945
 30
0.0
 10
67.137272893
 20
85.7776935744
 30
0.0
 10
66.998965249
 20
85.8750202512
 30
0.0
  0
SPLINE
  5
2FE
100
AcDbEntity
  8
0
100
AcDbSpline
 62
7
  6
BYLAYER
 70
0
 71
3
 72
11
 73
7
 74
0
 42
0.0000001
 43
0.0000001
 44
0.0000000001
 40
0.0
 40
0.0
 40
0.0
 40
0.0
 40
0.2315195206
 40
0.4761200694
 40
0.7327651976
 40
1.0
 40
1.0
 40
1.0
 40
1.0
 10
66.998965249
 20
85.8750202512
 30
0.0
 10
66.9018568858
 20
85.9433551168
 30
0.0
 10
66.6943290783
 20
86.0729874544
 30
0.0
 10
66.357732662
 20
86.2412157655
 30
0.0
 10
65.9910127492
 20
86.3868269682
 30
0.0
 10
65.7340122941
 20
86.4662236233
 30
0.0
 10
65.6016948685
 20
86.5019656559
 30
0.0
  0
SPLINE
  5
2FF
100
AcDbEntity
  8
0
100
AcDbSpline
 62
7
  6
BYLAYER
 70
0
 71
3
 72
15
 73
11
 74
0
 42
0.0000001
 43
0.0000001
 44
0.0000000001
 40
0.0
 40
0.0
 40
0.0
 40
0.0
 40
0.1080119452
 40
0.2180596203
 40
0.3319964562
 40
0.4513567907
 40
0.5772739753
 40
0.7104898865
 40
0.8514199359
 40
1.0
 40
1.0
 40
1.0
 40
1.0
 10
67.9065646911
 20
83.0030004735
 30
0.0
 10
67.906568196
 20
82.9272759703
 30
0.0
 10
67.8934061629
 20
82.7740932523
 30
0.0
 10
67.834723938
 20
82.5478333621
 30
0.0
 10
67.7378328451
 20
82.3264486901
 30
0.0
 10
67.6039765814
 20
82.1121859621
 30
0.0
 10
67.4346812334
 20
81.9069709171
 30
0.0
 10
67.231647732
 20
81.7126305151
 30
0.0
 10
66.9969135805
 20
81.5309512535
 30
0.0
 10
66.8252182984
 20
81.4221201292
 30
0.0
 10
66.7350079278
 20
81.3700374583
 30
0.0
  0
SPLINE
  5
300
100
AcDbEntity
  8
0
100
AcDbSpline
 62
7
  6
BYLAYER
 70
0
 71
3
 72
9
 73
5
 74
0
 42
0.0000001
 43
0.0000001
 44
0.0000000001
 40
0.0
 40
0.0
 40
0.0
 40
0.0
 40
0.2357916985
 40
1.0
 40
1.0
 40
1.0
 40
1.0
 10
64.1626389926
 20
84.9257031056
 30
0.0
 10
64.1541442466
 20
84.9319075308
 30
0.0
 10
64.1152396014
 20
84.9541878467
 30
0.0
 10
64.0684060386
 20
84.9611727105
 30
0.0
 10
64.0344411237
 20
84.9582159402
 30
0.0
  0
SPLINE
  5
301
100
AcDbEntity
  8
0
100
AcDbSpline
 62
7
  6
BYLAYER
 70
0
 71
3
 72
9
 73
5
 74
0
 42
0.0000001
 43
0.0000001
 44
0.0000000001
 40
0.0
 40
0.0
 40
0.0
 40
0.0
 40
0.2567513776
 40
1.0
 40
1.0
 40
1.0
 40
1.0
 10
65.0516644287
 20
84.1703529658
 30
0.0
 10
64.9801334907
 20
84.2400714502
 30
0.0
 10
64.6970900934
 20
84.5069845069
 30
0.0
 10
64.3961419909
 20
84.7551562919
 30
0.0
 10
64.1626389926
 20
84.9257031056
 30
0.0
  0
SPLINE
  5
302
100
AcDbEntity
  8
0
100
AcDbSpline
 62
7
  6
BYLAYER
 70
0
 71
3
 72
9
 73
5
 74
0
 42
0.0000001
 43
0.0000001
 44
0.0000000001
 40
0.0
 40
0.0
 40
0.0
 40
0.0
 40
0.2406171261
 40
1.0
 40
1.0
 40
1.0
 40
1.0
 10
65.4374317164
 20
84.3472994685
 30
0.0
 10
65.4079294981
 20
84.3302664565
 30
0.0
 10
65.2835521853
 20
84.2625528606
 30
0.0
 10
65.1528270506
 20
84.2067534067
 30
0.0
 10
65.0516644287
 20
84.1703529658
 30
0.0
  0
SPLINE
  5
303
100
AcDbEntity
  8
0
100
AcDbSpline
 62
7
  6
BYLAYER
 70
0
 71
3
 72
15
 73
11
 74
0
 42
0.0000001
 43
0.0000001
 44
0.0000000001
 40
0.0
 40
0.0
 40
0.0
 40
0.0
 40
0.1486072722
 40
0.2895005166
 40
0.4227239227
 40
0.5486437433
 40
0.6680015967
 40
0.7819389474
 40
0.8919876691
 40
1.0
 40
1.0
 40
1.0
 40
1.0
 10
61.0781301266
 20
86.0431853105
 30
0.0
 10
60.9879030853
 20
85.9910930149
 30
0.0
 10
60.8162053895
 20
85.8822766882
 30
0.0
 10
60.5814853087
 20
85.7005804564
 30
0.0
 10
60.3784626577
 20
85.5062565451
 30
0.0
 10
60.2091548127
 20
85.3010436694
 30
0.0
 10
60.075303678
 20
85.086775939
 30
0.0
 10
59.978416338
 20
84.8653911482
 30
0.0
 10
59.9197207986
 20
84.639131971
 30
0.0
 10
59.9065692818
 20
84.4859471931
 30
0.0
 10
59.9065693597
 20
84.4102222925
 30
0.0
  0
SPLINE
  5
304
100
AcDbEntity
  8
0
100
AcDbSpline
 62
7
  6
BYLAYER
 70
0
 71
3
 72
9
 73
5
 74
0
 42
0.0000001
 43
0.0000001
 44
0.0000000001
 40
0.0
 40
0.0
 40
0.0
 40
0.0
 40
0.261010631
 40
1.0
 40
1.0
 40
1.0
 40
1.0
 10
62.9582502721
 20
85.621041527
 30
0.0
 10
62.8837228458
 20
85.6526628125
 30
0.0
 10
62.595328242
 20
85.7667870604
 30
0.0
 10
62.2948130061
 20
85.8516176334
 30
0.0
 10
62.069224836
 20
85.8922263136
 30
0.0
  0
SPLINE
  5
305
100
AcDbEntity
  8
0
100
AcDbSpline
 62
7
  6
BYLAYER
 70
0
 71
3
 72
9
 73
5
 74
0
 42
0.0000001
 43
0.0000001
 44
0.0000000001
 40
0.0
 40
0.0
 40
0.0
 40
0.0
 40
0.5038354593
 40
1.0
 40
1.0
 40
1.0
 40
1.0
 10
62.8967116364
 20
85.3996015258
 30
0.0
 10
62.6427507405
 20
85.378570515
 30
0.0
 10
62.140398125
 20
85.3123185769
 30
0.0
 10
61.6471477417
 20
85.1960147403
 30
0.0
 10
61.4062324813
 20
85.1257584336
 30
0.0
  0
SPLINE
  5
306
100
AcDbEntity
  8
0
100
AcDbSpline
 62
7
  6
BYLAYER
 70
0
 71
3
 72
11
 73
7
 74
0
 42
0.0000001
 43
0.0000001
 44
0.0000000001
 40
0.0
 40
0.0
 40
0.0
 40
0.0
 40
0.236275921
 40
0.4831404832
 40
0.7384999384
 40
1.0
 40
1.0
 40
1.0
 40
1.0
 10
63.7867218441
 20
84.8857700464
 30
0.0
 10
63.5969860823
 20
84.7498354906
 30
0.0
 10
63.2217978379
 20
84.4536938818
 30
0.0
 10
62.6877115386
 20
83.9556964409
 30
0.0
 10
62.1761809736
 20
83.4002383699
 30
0.0
 10
61.8578909464
 20
83.0003763275
 30
0.0
 10
61.7040606914
 20
82.7928508942
 30
0.0
  0
SPLINE
  5
307
100
AcDbEntity
  8
0
100
AcDbSpline
 62
7
  6
BYLAYER
 70
0
 71
3
 72
10
 73
6
 74
0
 42
0.0000001
 43
0.0000001
 44
0.0000000001
 40
0.0
 40
0.0
 40
0.0
 40
0.0
 40
0.2059856007
 40
0.451897242
 40
1.0
 40
1.0
 40
1.0
 40
1.0
 10
63.906573417
 20
84.7591631203
 30
0.0
 10
63.9065733602
 20
84.7680159228
 30
0.0
 10
63.9027567066
 20
84.7873737307
 30
0.0
 10
63.8865546028
 20
84.8272566286
 30
0.0
 10
63.8679452423
 20
84.8562353159
 30
0.0
 10
63.8539697584
 20
84.8751979665
 30
0.0
  0
SPLINE
  5
308
100
AcDbEntity
  8
0
100
AcDbSpline
 62
7
  6
BYLAYER
 70
0
 71
3
 72
10
 73
6
 74
0
 42
0.0000001
 43
0.0000001
 44
0.0000000001
 40
0.0
 40
0.0
 40
0.0
 40
0.0
 40
0.5489014815
 40
0.793396646
 40
1.0
 40
1.0
 40
1.0
 40
1.0
 10
63.9505069583
 20
84.8630322251
 30
0.0
 10
63.9386651016
 20
84.8458536419
 30
0.0
 10
63.9229844245
 20
84.8197842215
 30
0.0
 10
63.9096028653
 20
84.7841287432
 30
0.0
 10
63.9065733666
 20
84.7670164513
 30
0.0
 10
63.906573417
 20
84.7591631203
 30
0.0
  0
SPLINE
  5
309
100
AcDbEntity
  8
0
100
AcDbSpline
 62
7
  6
BYLAYER
 70
0
 71
3
 72
9
 73
5
 74
0
 42
0.0000001
 43
0.0000001
 44
0.0000000001
 40
0.0
 40
0.0
 40
0.0
 40
0.0
 40
0.4935492133
 40
1.0
 40
1.0
 40
1.0
 40
1.0
 10
64.0344411237
 20
84.9582159402
 30
0.0
 10
64.0189723095
 20
84.9441478441
 30
0.0
 10
63.989153231
 20
84.9139420826
 30
0.0
 10
63.9626843285
 20
84.8807089492
 30
0.0
 10
63.9505069583
 20
84.8630436479
 30
0.0
  0
SPLINE
  5
30A
100
AcDbEntity
  8
0
100
AcDbSpline
 62
7
  6
BYLAYER
 70
0
 71
3
 72
9
 73
5
 74
0
 42
0.0000001
 43
0.0000001
 44
0.0000000001
 40
0.0
 40
0.0
 40
0.0
 40
0.0
 40
0.2631312763
 40
1.0
 40
1.0
 40
1.0
 40
1.0
 10
62.6203145959
 20
83.8678224257
 30
0.0
 10
62.596523794
 20
83.882680191
 30
0.0
 10
62.5076844527
 20
83.9415652101
 30
0.0
 10
62.4252850879
 20
84.0106390653
 30
0.0
 10
62.3711498602
 20
84.0675533305
 30
0.0
  0
SPLINE
  5
30B
100
AcDbEntity
  8
0
100
AcDbSpline
 62
7
  6
BYLAYER
 70
0
 71
3
 72
11
 73
7
 74
0
 42
0.0000001
 43
0.0000001
 44
0.0000000001
 40
0.0
 40
0.0
 40
0.0
 40
0.0
 40
0.2662205889
 40
0.5190067331
 40
0.7620670285
 40
1.0
 40
1.0
 40
1.0
 40
1.0
 10
62.4459737477
 20
73.6035397829
 30
0.0
 10
62.423742997
 20
73.6322404157
 30
0.0
 10
62.3840297514
 20
73.6911689879
 30
0.0
 10
62.3396050733
 20
73.7856003593
 30
0.0
 10
62.3126201174
 20
73.8824617379
 30
0.0
 10
62.3065748982
 20
73.948202885
 30
0.0
 10
62.3065720156
 20
73.9806487672
 30
0.0
  0
SPLINE
  5
30C
100
AcDbEntity
  8
0
100
AcDbSpline
 62
7
  6
BYLAYER
 70
0
 71
3
 72
9
 73
5
 74
0
 42
0.0000001
 43
0.0000001
 44
0.0000000001
 40
0.0
 40
0.0
 40
0.0
 40
0.0
 40
0.5227268264
 40
1.0
 40
1.0
 40
1.0
 40
1.0
 10
63.0964549271
 20
74.0213509987
 30
0.0
 10
62.9677821523
 20
74.0542627338
 30
0.0
 10
62.7254858214
 20
74.1339745704
 30
0.0
 10
62.4986932177
 20
74.2521418801
 30
0.0
 10
62.3976502535
 20
74.3191927367
 30
0.0
  0
SPLINE
  5
30D
100
AcDbEntity
  8
0
100
AcDbSpline
 62
7
  6
BYLAYER
 70
0
 71
3
 72
9
 73
5
 74
0
 42
0.0000001
 43
0.0000001
 44
0.0000000001
 40
0.0
 40
0.0
 40
0.0
 40
0.0
 40
0.2452655916
 40
1.0
 40
1.0
 40
1.0
 40
1.0
 10
64.8109633406
 20
85.3945043652
 30
0.0
 10
64.8109637456
 20
85.3932864553
 30
0.0
 10
64.8111334909
 20
85.3883216044
 30
0.0
 10
64.8119741494
 20
85.3833850132
 30
0.0
 10
64.8129327472
 20
85.3797619129
 30
0.0
  0
SPLINE
  5
30E
100
AcDbEntity
  8
0
100
AcDbSpline
 62
7
  6
BYLAYER
 70
0
 71
3
 72
9
 73
5
 74
0
 42
0.0000001
 43
0.0000001
 44
0.0000000001
 40
0.0
 40
0.0
 40
0.0
 40
0.0
 40
0.2208110053
 40
1.0
 40
1.0
 40
1.0
 40
1.0
 10
64.8129327472
 20
85.3797619129
 30
0.0
 10
64.8142408874
 20
85.3748176879
 30
0.0
 10
64.822940027
 20
85.3531410782
 30
0.0
 10
64.8403138629
 20
85.3360153002
 30
0.0
 10
64.8548877824
 20
85.3253707451
 30
0.0
  0
SPLINE
  5
30F
100
AcDbEntity
  8
0
100
AcDbSpline
 62
7
  6
BYLAYER
 70
0
 71
3
 72
15
 73
11
 74
0
 42
0.0000001
 43
0.0000001
 44
0.0000000001
 40
0.0
 40
0.0
 40
0.0
 40
0.0
 40
0.1153910735
 40
0.2402583718
 40
0.3716806092
 40
0.5060785817
 40
0.6396194174
 40
0.7685418848
 40
0.8895093371
 40
1.0
 40
1.0
 40
1.0
 40
1.0
 10
65.0379445875
 20
73.3274635599
 30
0.0
 10
64.9557401796
 20
73.2800031062
 30
0.0
 10
64.7751829296
 20
73.1970716597
 30
0.0
 10
64.4807693256
 20
73.1114325706
 30
0.0
 10
64.1623276712
 20
73.0621420317
 30
0.0
 10
63.8332172049
 20
73.0513200676
 30
0.0
 10
63.5071779844
 20
73.0793792693
 30
0.0
 10
63.1977841309
 20
73.1451937112
 30
0.0
 10
62.9179855944
 20
73.2459801107
 30
0.0
 10
62.7502648857
 20
73.3386283566
 30
0.0
 10
62.6756389293
 20
73.3905128446
 30
0.0
  0
SPLINE
  5
310
100
AcDbEntity
  8
0
100
AcDbSpline
 62
7
  6
BYLAYER
 70
0
 71
3
 72
9
 73
5
 74
0
 42
0.0000001
 43
0.0000001
 44
0.0000000001
 40
0.0
 40
0.0
 40
0.0
 40
0.0
 40
0.2651139278
 40
1.0
 40
1.0
 40
1.0
 40
1.0
 10
62.6756389293
 20
73.3905128446
 30
0.0
 10
62.6528629834
 20
73.4063480626
 30
0.0
 10
62.5689198165
 20
73.4687635502
 30
0.0
 10
62.4930604964
 20
73.5427492364
 30
0.0
 10
62.4459737477
 20
73.6035397829
 30
0.0
  0
SPLINE
  5
311
100
AcDbEntity
  8
0
100
AcDbSpline
 62
7
  6
BYLAYER
 70
0
 71
3
 72
17
 73
13
 74
0
 42
0.0000001
 43
0.0000001
 44
0.0000000001
 40
0.0
 40
0.0
 40
0.0
 40
0.0
 40
0.0480953165
 40
0.0967512808
 40
0.1464967938
 40
0.1978023862
 40
0.3064395
 40
0.4249758587
 40
0.5542430175
 40
0.6939928521
 40
0.8431444919
 40
1.0
 40
1.0
 40
1.0
 40
1.0
 10
59.9065693597
 20
84.4102222925
 30
0.0
 10
59.9065694206
 20
84.3509754924
 30
0.0
 10
59.9145613222
 20
84.2316417019
 30
0.0
 10
59.9503551834
 20
84.0542702197
 30
0.0
 10
60.0097073036
 20
83.8791448731
 30
0.0
 10
60.1217221216
 20
83.6457915444
 30
0.0
 10
60.3225719974
 20
83.364264674
 30
0.0
 10
60.642083046
 20
83.0600649416
 30
0.0
 10
61.0368085226
 20
82.7885116736
 30
0.0
 10
61.4976189978
 20
82.555324785
 30
0.0
 10
62.0139849635
 20
82.3654671342
 30
0.0
 10
62.3800448136
 20
82.2724923662
 30
0.0
 10
62.5693403479
 20
82.2337256876
 30
0.0
  0
SPLINE
  5
312
100
AcDbEntity
  8
0
100
AcDbSpline
 62
7
  6
BYLAYER
 70
0
 71
3
 72
15
 73
11
 74
0
 42
0.0000001
 43
0.0000001
 44
0.0000000001
 40
0.0
 40
0.0
 40
0.0
 40
0.0
 40
0.1281609347
 40
0.2587506545
 40
0.390069243
 40
0.5203875692
 40
0.6480163653
 40
0.7713773326
 40
0.8890784977
 40
1.0
 40
1.0
 40
1.0
 40
1.0
 10
62.5693403479
 20
82.2337256876
 30
0.0
 10
62.7486583267
 20
82.1970023573
 30
0.0
 10
63.1141488507
 20
82.1388955574
 30
0.0
 10
63.6702785079
 20
82.0973009837
 30
0.0
 10
64.2310665614
 20
82.1008663042
 30
0.0
 10
64.785508724
 20
82.1495336518
 30
0.0
 10
65.3227962544
 20
82.242348067
 30
0.0
 10
65.8324931413
 20
82.3775263007
 30
0.0
 10
66.3046240078
 20
82.5524203417
 30
0.0
 10
66.5978134255
 20
82.6980504643
 30
0.0
 10
66.7350079278
 20
82.7772592744
 30
0.0
  0
SPLINE
  5
313
100
AcDbEntity
  8
0
100
AcDbSpline
 62
7
  6
BYLAYER
 70
0
 71
3
 72
9
 73
5
 74
0
 42
0.0000001
 43
0.0000001
 44
0.0000000001
 40
0.0
 40
0.0
 40
0.0
 40
0.0
 40
0.2384656722
 40
1.0
 40
1.0
 40
1.0
 40
1.0
 10
62.069224836
 20
85.8922263136
 30
0.0
 10
62.0913437103
 20
85.9127167325
 30
0.0
 10
62.1868603516
 20
85.9956514751
 30
0.0
 10
62.2923187966
 20
86.0668039182
 30
0.0
 10
62.3757063381
 20
86.1149474503
 30
0.0
  0
SPLINE
  5
314
100
AcDbEntity
  8
0
100
AcDbSpline
 62
7
  6
BYLAYER
 70
0
 71
3
 72
11
 73
7
 74
0
 42
0.0000001
 43
0.0000001
 44
0.0000000001
 40
0.0
 40
0.0
 40
0.0
 40
0.0
 40
0.2616063105
 40
0.516878408
 40
0.763638827
 40
1.0
 40
1.0
 40
1.0
 40
1.0
 10
60.8555290212
 20
83.2827397996
 30
0.0
 10
61.0037346812
 20
83.493321478
 30
0.0
 10
61.3118531076
 20
83.8988875503
 30
0.0
 10
61.8114119546
 20
84.461545546
 30
0.0
 10
62.3368983853
 20
84.9648362373
 30
0.0
 10
62.7083441037
 20
85.2630553581
 30
0.0
 10
62.8967153618
 20
85.399603947
 30
0.0
  0
SPLINE
  5
315
100
AcDbEntity
  8
0
100
AcDbSpline
 62
7
  6
BYLAYER
 70
0
 71
3
 72
9
 73
5
 74
0
 42
0.0000001
 43
0.0000001
 44
0.0000000001
 40
0.0
 40
0.0
 40
0.0
 40
0.0
 40
0.5199601603
 40
1.0
 40
1.0
 40
1.0
 40
1.0
 10
61.7040606914
 20
82.7928508942
 30
0.0
 10
61.5469329579
 20
82.8583375869
 30
0.0
 10
61.2515963674
 20
83.0017643662
 30
0.0
 10
60.9782639108
 20
83.1845816117
 30
0.0
 10
60.8555290212
 20
83.2827397996
 30
0.0
  0
SPLINE
  5
316
100
AcDbEntity
  8
0
100
AcDbSpline
 62
7
  6
BYLAYER
 70
0
 71
3
 72
11
 73
7
 74
0
 42
0.0000001
 43
0.0000001
 44
0.0000000001
 40
0.0
 40
0.0
 40
0.0
 40
0.0
 40
0.2895214144
 40
0.5491683981
 40
0.7823256153
 40
1.0
 40
1.0
 40
1.0
 40
1.0
 10
62.9582524043
 20
84.406515119
 30
0.0
 10
62.9648298871
 20
84.4103126078
 30
0.0
 10
62.9767664168
 20
84.4185454414
 30
0.0
 10
62.9910488023
 20
84.4335361639
 30
0.0
 10
63.000075751
 20
84.450135095
 30
0.0
 10
63.002182466
 20
84.462040978
 30
0.0
 10
63.0021825483
 20
84.4677512274
 30
0.0
  0
SPLINE
  5
317
100
AcDbEntity
  8
0
100
AcDbSpline
 62
7
  6
BYLAYER
 70
0
 71
3
 72
13
 73
9
 74
0
 42
0.0000001
 43
0.0000001
 44
0.0000000001
 40
0.0
 40
0.0
 40
0.0
 40
0.0
 40
0.3048643974
 40
0.4347512935
 40
0.5505210883
 40
0.6560444938
 40
0.7591944744
 40
1.0
 40
1.0
 40
1.0
 40
1.0
 10
63.8626310962
 20
85.9580393057
 30
0.0
 10
63.8682205264
 20
85.9563849868
 30
0.0
 10
63.8764268797
 20
85.9545678003
 30
0.0
 10
63.8869951983
 20
85.9545135709
 30
0.0
 10
63.8936465446
 20
85.9557978132
 30
0.0
 10
63.8992856446
 20
85.9586219248
 30
0.0
 10
63.9053019319
 20
85.9650298559
 30
0.0
 10
63.9065646753
 20
85.972038867
 30
0.0
 10
63.9065646374
 20
85.9766431484
 30
0.0
  0
SPLINE
  5
318
100
AcDbEntity
  8
0
100
AcDbSpline
 62
7
  6
BYLAYER
 70
0
 71
3
 72
10
 73
6
 74
0
 42
0.0000001
 43
0.0000001
 44
0.0000000001
 40
0.0
 40
0.0
 40
0.0
 40
0.0
 40
0.5467224331
 40
0.7873028863
 40
1.0
 40
1.0
 40
1.0
 40
1.0
 10
63.7786969307
 20
86.0043883791
 30
0.0
 10
63.792815557
 20
85.9939802481
 30
0.0
 10
63.813898537
 20
85.9798939354
 30
0.0
 10
63.8424878692
 20
85.9652778751
 30
0.0
 10
63.856087763
 20
85.9599873766
 30
0.0
 10
63.8626310962
 20
85.9580507285
 30
0.0
  0
SPLINE
  5
319
100
AcDbEntity
  8
0
100
AcDbSpline
 62
7
  6
BYLAYER
 70
0
 71
3
 72
13
 73
9
 74
0
 42
0.0000001
 43
0.0000001
 44
0.0000000001
 40
0.0
 40
0.0
 40
0.0
 40
0.0
 40
0.2275449282
 40
0.3265090417
 40
0.4313914742
 40
0.5496223294
 40
0.6839297903
 40
1.0
 40
1.0
 40
1.0
 40
1.0
 10
63.9065646374
 20
85.9766431484
 30
0.0
 10
63.9065646788
 20
85.9716064626
 30
0.0
 10
63.9081775906
 20
85.9637561628
 30
0.0
 10
63.9156395968
 20
85.9573725675
 30
0.0
 10
63.9224710814
 20
85.9549617574
 30
0.0
 10
63.9304174839
 20
85.9543361268
 30
0.0
 10
63.9429820452
 20
85.9556023821
 30
0.0
 10
63.9526090278
 20
85.9585202085
 30
0.0
 10
63.959168296
 20
85.9609538479
 30
0.0
  0
SPLINE
  5
31A
100
AcDbEntity
  8
0
100
AcDbSpline
 62
7
  6
BYLAYER
 70
0
 71
3
 72
9
 73
5
 74
0
 42
0.0000001
 43
0.0000001
 44
0.0000000001
 40
0.0
 40
0.0
 40
0.0
 40
0.0
 40
0.2441765655
 40
1.0
 40
1.0
 40
1.0
 40
1.0
 10
65.2612048158
 20
73.4890712407
 30
0.0
 10
65.2533378817
 20
73.4818449922
 30
0.0
 10
65.2206668397
 20
73.4527455223
 30
0.0
 10
65.1862575124
 20
73.4256134097
 30
0.0
 10
65.1595118449
 20
73.4061715312
 30
0.0
  0
SPLINE
  5
31B
100
AcDbEntity
  8
0
100
AcDbSpline
 62
7
  6
BYLAYER
 70
0
 71
3
 72
9
 73
5
 74
0
 42
0.0000001
 43
0.0000001
 44
0.0000000001
 40
0.0
 40
0.0
 40
0.0
 40
0.0
 40
0.2445503783
 40
1.0
 40
1.0
 40
1.0
 40
1.0
 10
65.1595118449
 20
73.4061715312
 30
0.0
 10
65.1499602303
 20
73.3992283008
 30
0.0
 10
65.1105052633
 20
73.3713850722
 30
0.0
 10
65.0695357001
 20
73.3457025884
 30
0.0
 10
65.0379445875
 20
73.3274635599
 30
0.0
  0
SPLINE
  5
31C
100
AcDbEntity
  8
0
100
AcDbSpline
 62
7
  6
BYLAYER
 70
0
 71
3
 72
11
 73
7
 74
0
 42
0.0000001
 43
0.0000001
 44
0.0000000001
 40
0.0
 40
0.0
 40
0.0
 40
0.0
 40
0.2516984303
 40
0.5141439987
 40
0.7690999252
 40
1.0
 40
1.0
 40
1.0
 40
1.0
 10
63.9821697563
 20
85.0878958943
 30
0.0
 10
63.9969490718
 20
85.0830223102
 30
0.0
 10
64.0283372615
 20
85.0765356823
 30
0.0
 10
64.0761376427
 20
85.0757506144
 30
0.0
 10
64.1220068103
 20
85.0835280859
 30
0.0
 10
64.1502675238
 20
85.0947212611
 30
0.0
 10
64.1626310962
 20
85.1018593304
 30
0.0
  0
SPLINE
  5
31D
100
AcDbEntity
  8
0
100
AcDbSpline
 62
7
  6
BYLAYER
 70
0
 71
3
 72
9
 73
5
 74
0
 42
0.0000001
 43
0.0000001
 44
0.0000000001
 40
0.0
 40
0.0
 40
0.0
 40
0.0
 40
0.5199667422
 40
1.0
 40
1.0
 40
1.0
 40
1.0
 10
66.1090773631
 20
86.3158592437
 30
0.0
 10
66.266207086
 20
86.2503717218
 30
0.0
 10
66.5615436133
 20
86.106944715
 30
0.0
 10
66.8348758262
 20
85.9241271806
 30
0.0
 10
66.9576090332
 20
85.8259703383
 30
0.0
  0
SPLINE
  5
31E
100
AcDbEntity
  8
0
100
AcDbSpline
 62
7
  6
BYLAYER
 70
0
 71
3
 72
11
 73
7
 74
0
 42
0.0000001
 43
0.0000001
 44
0.0000000001
 40
0.0
 40
0.0
 40
0.0
 40
0.0
 40
0.2741128435
 40
0.5306169674
 40
0.7714565757
 40
1.0
 40
1.0
 40
1.0
 40
1.0
 10
64.0264162559
 20
86.0518332825
 30
0.0
 10
64.2054118751
 20
86.1289396694
 30
0.0
 10
64.5612644565
 20
86.2579301018
 30
0.0
 10
65.0998814844
 20
86.3717706008
 30
0.0
 10
65.6177136047
 20
86.3971779261
 30
0.0
 10
65.9509204103
 20
86.3531626007
 30
0.0
 10
66.1090773631
 20
86.3158592437
 30
0.0
  0
SPLINE
  5
31F
100
AcDbEntity
  8
0
100
AcDbSpline
 62
7
  6
BYLAYER
 70
0
 71
3
 72
11
 73
7
 74
0
 42
0.0000001
 43
0.0000001
 44
0.0000000001
 40
0.0
 40
0.0
 40
0.0
 40
0.0
 40
0.1896712284
 40
0.4198597283
 40
0.6901957586
 40
1.0
 40
1.0
 40
1.0
 40
1.0
 10
63.9065401117
 20
86.5693588524
 30
0.0
 10
63.9178008108
 20
86.5376807767
 30
0.0
 10
63.9395542911
 20
86.4664367397
 30
0.0
 10
63.9692267506
 20
86.3477227434
 30
0.0
 10
63.9988182444
 20
86.2071405997
 30
0.0
 10
64.0171123049
 20
86.105938016
 30
0.0
 10
64.0263713714
 20
86.0518101771
 30
0.0
  0
SPLINE
  5
320
100
AcDbEntity
  8
0
100
AcDbSpline
 62
7
  6
BYLAYER
 70
0
 71
3
 72
11
 73
7
 74
0
 42
0.0000001
 43
0.0000001
 44
0.0000000001
 40
0.0
 40
0.0
 40
0.0
 40
0.0
 40
0.3123460303
 40
0.5836086922
 40
0.8129717717
 40
1.0
 40
1.0
 40
1.0
 40
1.0
 10
63.7786868866
 20
86.0044272511
 30
0.0
 10
63.7885248113
 20
86.0639873212
 30
0.0
 10
63.808037066
 20
86.1750928938
 30
0.0
 10
63.8395903866
 20
86.3290471581
 30
0.0
 10
63.8711631639
 20
86.4581739134
 30
0.0
 10
63.8944352139
 20
86.5352990173
 30
0.0
 10
63.9065401117
 20
86.5693588524
 30
0.0
  0
SPLINE
  5
321
100
AcDbEntity
  8
0
100
AcDbSpline
 62
7
  6
BYLAYER
 70
0
 71
3
 72
10
 73
6
 74
0
 42
0.0000001
 43
0.0000001
 44
0.0000000001
 40
0.0
 40
0.0
 40
0.0
 40
0.0
 40
0.2207301706
 40
0.4679123583
 40
1.0
 40
1.0
 40
1.0
 40
1.0
 10
63.6504990618
 20
86.0207091664
 30
0.0
 10
63.6593194395
 20
86.0169667632
 30
0.0
 10
63.6787539503
 20
86.0107382044
 30
0.0
 10
63.7215182935
 20
86.0029389136
 30
0.0
 10
63.7556834094
 20
86.0024275404
 30
0.0
 10
63.7786969307
 20
86.0043883791
 30
0.0
  0
SPLINE
  5
322
100
AcDbEntity
  8
0
100
AcDbSpline
 62
7
  6
BYLAYER
 70
0
 71
3
 72
9
 73
5
 74
0
 42
0.0000001
 43
0.0000001
 44
0.0000000001
 40
0.0
 40
0.0
 40
0.0
 40
0.0
 40
0.2395219914
 40
1.0
 40
1.0
 40
1.0
 40
1.0
 10
62.7614736257
 20
86.291893953
 30
0.0
 10
62.8345963721
 20
86.278730948
 30
0.0
 10
63.1381243434
 20
86.2141126153
 30
0.0
 10
63.4333422003
 20
86.1128467789
 30
0.0
 10
63.6504990618
 20
86.0207091664
 30
0.0
  0
SPLINE
  5
323
100
AcDbEntity
  8
0
100
AcDbSpline
 62
7
  6
BYLAYER
 70
0
 71
3
 72
9
 73
5
 74
0
 42
0.0000001
 43
0.0000001
 44
0.0000000001
 40
0.0
 40
0.0
 40
0.0
 40
0.0
 40
0.2406171692
 40
1.0
 40
1.0
 40
1.0
 40
1.0
 10
62.3757063381
 20
86.1149474503
 30
0.0
 10
62.4052085616
 20
86.1319804653
 30
0.0
 10
62.5295858758
 20
86.1996940588
 30
0.0
 10
62.6603110096
 20
86.2554935141
 30
0.0
 10
62.7614736257
 20
86.291893953
 30
0.0
  0
SPLINE
  5
324
100
AcDbEntity
  8
0
100
AcDbSpline
 62
7
  6
BYLAYER
 70
0
 71
3
 72
9
 73
5
 74
0
 42
0.0000001
 43
0.0000001
 44
0.0000000001
 40
0.0
 40
0.0
 40
0.0
 40
0.0
 40
0.2515603889
 40
1.0
 40
1.0
 40
1.0
 40
1.0
 10
62.9582511552
 20
85.4358987322
 30
0.0
 10
62.9643081809
 20
85.4446851619
 30
0.0
 10
62.9857088123
 20
85.481438461
 30
0.0
 10
62.9971805935
 20
85.5235514423
 30
0.0
 10
63.0005431003
 20
85.5551237306
 30
0.0
  0
SPLINE
  5
325
100
AcDbEntity
  8
0
100
AcDbSpline
 62
7
  6
BYLAYER
 70
0
 71
3
 72
9
 73
5
 74
0
 42
0.0000001
 43
0.0000001
 44
0.0000000001
 40
0.0
 40
0.0
 40
0.0
 40
0.0
 40
0.2508370056
 40
1.0
 40
1.0
 40
1.0
 40
1.0
 10
62.9263878423
 20
85.4001859013
 30
0.0
 10
62.9294356223
 20
85.4027903413
 30
0.0
 10
62.9412036719
 20
85.4136182171
 30
0.0
 10
62.951455375
 20
85.4260505517
 30
0.0
 10
62.9582511552
 20
85.435908632
 30
0.0
  0
SPLINE
  5
326
100
AcDbEntity
  8
0
100
AcDbSpline
 62
7
  6
BYLAYER
 70
0
 71
3
 72
16
 73
12
 74
0
 42
0.0000001
 43
0.0000001
 44
0.0000000001
 40
0.0
 40
0.0
 40
0.0
 40
0.0
 40
0.0980101139
 40
0.1518305029
 40
0.208774353
 40
0.3310961598
 40
0.4624988515
 40
0.5993206978
 40
0.7373470497
 40
0.8722502136
 40
1.0
 40
1.0
 40
1.0
 40
1.0
 10
62.4459737477
 20
74.1342663541
 30
0.0
 10
62.4963859852
 20
74.0691824917
 30
0.0
 10
62.5897769437
 20
73.9798080839
 30
0.0
 10
62.7341580303
 20
73.880104652
 30
0.0
 10
62.9056038053
 20
73.7849151334
 30
0.0
 10
63.1497417782
 20
73.6893561974
 30
0.0
 10
63.4702836604
 20
73.6151638847
 30
0.0
 10
63.8108376603
 20
73.5820806853
 30
0.0
 10
64.1557872931
 20
73.5916285383
 30
0.0
 10
64.4892307809
 20
73.6433404333
 30
0.0
 10
64.7015485543
 20
73.7066969366
 30
0.0
 10
64.8015319886
 20
73.7456527829
 30
0.0
  0
SPLINE
  5
327
100
AcDbEntity
  8
0
100
AcDbSpline
 62
7
  6
BYLAYER
 70
0
 71
3
 72
15
 73
11
 74
0
 42
0.0000001
 43
0.0000001
 44
0.0000000001
 40
0.0
 40
0.0
 40
0.0
 40
0.0
 40
0.1486056667
 40
0.2894981457
 40
0.4227209642
 40
0.5486408582
 40
0.6679989744
 40
0.7819367023
 40
0.8919864957
 40
1.0
 40
1.0
 40
1.0
 40
1.0
 10
66.7350079278
 20
82.7772592744
 30
0.0
 10
66.825233994
 20
82.829351007
 30
0.0
 10
66.9969302923
 20
82.9381664049
 30
0.0
 10
67.2316490863
 20
83.1198608918
 30
0.0
 10
67.4346714355
 20
83.3141838209
 30
0.0
 10
67.6039796256
 20
83.5193961569
 30
0.0
 10
67.7378319223
 20
83.7336637445
 30
0.0
 10
67.8347204814
 20
83.9550493274
 30
0.0
 10
67.8934168657
 20
84.1813102409
 30
0.0
 10
67.9065684411
 20
84.3344965694
 30
0.0
 10
67.9065686823
 20
84.4102222925
 30
0.0
  0
SPLINE
  5
328
100
AcDbEntity
  8
0
100
AcDbSpline
 62
7
  6
BYLAYER
 70
0
 71
3
 72
9
 73
5
 74
0
 42
0.0000001
 43
0.0000001
 44
0.0000000001
 40
0.0
 40
0.0
 40
0.0
 40
0.0
 40
0.2430914153
 40
1.0
 40
1.0
 40
1.0
 40
1.0
 10
64.8548877824
 20
85.3253707451
 30
0.0
 10
64.9312600512
 20
85.269589675
 30
0.0
 10
65.2409787144
 20
85.0340584058
 30
0.0
 10
65.533034725
 20
84.7755558514
 30
0.0
 10
65.7439132185
 20
84.5700206053
 30
0.0
  0
SPLINE
  5
329
100
AcDbEntity
  8
0
100
AcDbSpline
 62
7
  6
BYLAYER
 70
0
 71
3
 72
15
 73
11
 74
0
 42
0.0000001
 43
0.0000001
 44
0.0000000001
 40
0.0
 40
0.0
 40
0.0
 40
0.0
 40
0.1080093033
 40
0.2180578442
 40
0.3319965508
 40
0.4513564153
 40
0.5772780069
 40
0.7105025073
 40
0.8513946645
 40
1.0
 40
1.0
 40
1.0
 40
1.0
 10
43.657728229
 20
107.0065929914
 30
0.0
 10
43.6577277337
 20
107.0917822144
 30
0.0
 10
43.642933312
 20
107.2641147773
 30
0.0
 10
43.5769000721
 20
107.518658207
 30
0.0
 10
43.4679000911
 20
107.767721947
 30
0.0
 10
43.3173115225
 20
108.0087786097
 30
0.0
 10
43.1268334532
 20
108.2396475155
 30
0.0
 10
42.8984268686
 20
108.4582634622
 30
0.0
 10
42.634363227
 20
108.6626716576
 30
0.0
 10
42.4412017161
 20
108.7850885441
 30
0.0
 10
42.3396959145
 20
108.8436916838
 30
0.0
  0
SPLINE
  5
32A
100
AcDbEntity
  8
0
100
AcDbSpline
 62
7
  6
BYLAYER
 70
0
 71
3
 72
12
 73
8
 74
0
 42
0.0000001
 43
0.0000001
 44
0.0000000001
 40
0.0
 40
0.0
 40
0.0
 40
0.0
 40
0.282614891
 40
0.5419474741
 40
0.7795207034
 40
0.8915513403
 40
1.0
 40
1.0
 40
1.0
 40
1.0
 10
35.9757613796
 20
103.7010026052
 30
0.0
 10
35.8193150352
 20
103.7913249009
 30
0.0
 10
35.529705404
 20
103.9839371801
 30
0.0
 10
35.1608612185
 20
104.3221706186
 30
0.0
 10
34.925829457
 20
104.6362756127
 30
0.0
 10
34.792137606
 20
104.8973838086
 30
0.0
 10
34.7430942325
 20
105.0299623911
 30
0.0
 10
34.7232486792
 20
105.096381373
 30
0.0
  0
SPLINE
  5
32B
100
AcDbEntity
  8
0
100
AcDbSpline
 62
7
  6
BYLAYER
 70
0
 71
3
 72
9
 73
5
 74
0
 42
0.0000001
 43
0.0000001
 44
0.0000000001
 40
0.0
 40
0.0
 40
0.0
 40
0.0
 40
0.5035608776
 40
1.0
 40
1.0
 40
1.0
 40
1.0
 10
34.7232486792
 20
105.096381373
 30
0.0
 10
34.7017328957
 20
105.1683902717
 30
0.0
 10
34.6688702758
 20
105.3145604295
 30
0.0
 10
34.6577300791
 20
105.464009608
 30
0.0
 10
34.6577336055
 20
105.5381012895
 30
0.0
  0
SPLINE
  5
32C
100
AcDbEntity
  8
0
100
AcDbSpline
 62
7
  6
BYLAYER
 70
0
 71
3
 72
25
 73
21
 74
0
 42
0.0000001
 43
0.0000001
 44
0.0000000001
 40
0.0
 40
0.0
 40
0.0
 40
0.0
 40
0.0213321238
 40
0.0428925511
 40
0.0648979959
 40
0.0875427263
 40
0.1353178746
 40
0.187218133
 40
0.2436549254
 40
0.3046024062
 40
0.369690177
 40
0.4382875692
 40
0.5095740651
 40
0.5825983615
 40
0.6563300133
 40
0.7297072603
 40
0.8016839334
 40
0.8712769554
 40
0.937616447
 40
1.0
 40
1.0
 40
1.0
 40
1.0
 10
43.6577236887
 20
105.5381013057
 30
0.0
 10
43.6577206504
 20
105.474263115
 30
0.0
 10
43.6494840347
 20
105.3457555651
 30
0.0
 10
43.6125647338
 20
105.1545962361
 30
0.0
 10
43.5513117186
 20
104.9656458685
 30
0.0
 10
43.4357780424
 20
104.7137495631
 30
0.0
 10
43.2284443683
 20
104.4086623792
 30
0.0
 10
42.8972438255
 20
104.0761357264
 30
0.0
 10
42.4867911716
 20
103.7761917596
 30
0.0
 10
42.0058814676
 20
103.5146361466
 30
0.0
 10
41.4645674387
 20
103.2965571325
 30
0.0
 10
40.8742283097
 20
103.1264220671
 30
0.0
 10
40.2473435031
 20
103.007774884
 30
0.0
 10
39.5972309638
 20
102.943123259
 30
0.0
 10
38.9377432887
 20
102.9338416906
 30
0.0
 10
38.2829459576
 20
102.9801287205
 30
0.0
 10
37.6468089013
 20
103.0809957045
 30
0.0
 10
37.0428256788
 20
103.2343223498
 30
0.0
 10
36.4839148038
 20
103.4368308957
 30
0.0
 10
36.137438911
 20
103.6076601506
 30
0.0
 10
35.9757613796
 20
103.7010026052
 30
0.0
  0
SPLINE
  5
32D
100
AcDbEntity
  8
0
100
AcDbSpline
 62
7
  6
BYLAYER
 70
0
 71
3
 72
25
 73
21
 74
0
 42
0.0000001
 43
0.0000001
 44
0.0000000001
 40
0.0
 40
0.0
 40
0.0
 40
0.0
 40
0.0623843431
 40
0.1287234816
 40
0.1983169072
 40
0.2702944428
 40
0.3436710675
 40
0.4174020999
 40
0.4904272682
 40
0.5617148706
 40
0.6303133507
 40
0.6954018118
 40
0.7563487188
 40
0.8127852871
 40
0.8646855366
 40
0.9124590915
 40
0.9351034039
 40
0.9571083125
 40
0.9786683139
 40
1.0
 40
1.0
 40
1.0
 40
1.0
 10
42.3396959145
 20
108.8436916838
 30
0.0
 10
42.1780161843
 20
108.9370353065
 30
0.0
 10
41.8315391463
 20
109.1078659108
 30
0.0
 10
41.2726247711
 20
109.310373307
 30
0.0
 10
40.668638787
 20
109.4637017666
 30
0.0
 10
40.0324990434
 20
109.5645672365
 30
0.0
 10
39.3777024509
 20
109.610854029
 30
0.0
 10
38.7182154434
 20
109.6015718382
 30
0.0
 10
38.0680984567
 20
109.5369193181
 30
0.0
 10
37.4412044096
 20
109.4182690685
 30
0.0
 10
36.8508572403
 20
109.2481290363
 30
0.0
 10
36.3095408362
 20
109.0300451141
 30
0.0
 10
35.8286331184
 20
108.768485634
 30
0.0
 10
35.418185196
 20
108.4685388533
 30
0.0
 10
35.0869913039
 20
108.1360124246
 30
0.0
 10
34.8796660914
 20
107.8309271026
 30
0.0
 10
34.7641344703
 20
107.5790380078
 30
0.0
 10
34.7028863319
 20
107.3900901268
 30
0.0
 10
34.6659684338
 20
107.1989351252
 30
0.0
 10
34.657728694
 20
107.0704299147
 30
0.0
 10
34.6577290651
 20
107.0065929914
 30
0.0
  0
SPLINE
  5
32E
100
AcDbEntity
  8
0
100
AcDbSpline
 62
7
  6
BYLAYER
 70
0
 71
3
 72
15
 73
11
 74
0
 42
0.0000001
 43
0.0000001
 44
0.0000000001
 40
0.0
 40
0.0
 40
0.0
 40
0.0
 40
0.1151950189
 40
0.2385700154
 40
0.3677733913
 40
0.4999967191
 40
0.6322216166
 40
0.761426953
 40
0.8848049205
 40
1.0
 40
1.0
 40
1.0
 40
1.0
 10
36.1065897876
 20
105.0969482046
 30
0.0
 10
36.3204996955
 20
104.9830267278
 30
0.0
 10
36.782786559
 20
104.7823728558
 30
0.0
 10
37.5283599434
 20
104.5689420722
 30
0.0
 10
38.3290183684
 20
104.4378938736
 30
0.0
 10
39.1576083664
 20
104.3937209365
 30
0.0
 10
39.9862038624
 20
104.4378684239
 30
0.0
 10
40.7868799461
 20
104.5688933893
 30
0.0
 10
41.5324704936
 20
104.7823020342
 30
0.0
 10
41.9947713221
 20
104.9829392207
 30
0.0
 10
42.2086863762
 20
105.0968513055
 30
0.0
  0
SPLINE
  5
32F
100
AcDbEntity
  8
0
100
AcDbSpline
 62
7
  6
BYLAYER
 70
0
 71
3
 72
15
 73
11
 74
0
 42
0.0000001
 43
0.0000001
 44
0.0000000001
 40
0.0
 40
0.0
 40
0.0
 40
0.0
 40
0.1498376617
 40
0.2917178273
 40
0.4255788865
 40
0.5517123067
 40
0.6708326029
 40
0.7841105202
 40
0.8931658756
 40
1.0
 40
1.0
 40
1.0
 40
1.0
 10
42.2086863762
 20
105.0968513055
 30
0.0
 10
42.3195929232
 20
105.1559102439
 30
0.0
 10
42.5308690219
 20
105.2799877094
 30
0.0
 10
42.8205498495
 20
105.4894214453
 30
0.0
 10
43.0716825381
 20
105.7152300795
 30
0.0
 10
43.2815343595
 20
105.9551885487
 30
0.0
 10
43.4477380915
 20
106.2069536785
 30
0.0
 10
43.5682372026
 20
106.4680440446
 30
0.0
 10
43.6413329131
 20
106.7355621682
 30
0.0
 10
43.6577287499
 20
106.9170038039
 30
0.0
 10
43.657728229
 20
107.0065929914
 30
0.0
  0
SPLINE
  5
330
100
AcDbEntity
  8
0
100
AcDbSpline
 62
7
  6
BYLAYER
 70
0
 71
3
 72
25
 73
21
 74
0
 42
0.0000001
 43
0.0000001
 44
0.0000000001
 40
0.0
 40
0.0
 40
0.0
 40
0.0
 40
0.0665604157
 40
0.1383940389
 40
0.2139911233
 40
0.2915599651
 40
0.3691268659
 40
0.4447288827
 40
0.5165533038
 40
0.5831192718
 40
0.6434792189
 40
0.6974757296
 40
0.7460422493
 40
0.769012578
 40
0.7915571885
 40
0.8141022166
 40
0.8370740584
 40
0.8856373027
 40
0.9396447956
 40
1.0
 40
1.0
 40
1.0
 40
1.0
 10
38.4506248099
 20
106.762861978
 30
0.0
 10
38.4990279024
 20
106.7349173343
 30
0.0
 10
38.6048833833
 20
106.6856309213
 30
0.0
 10
38.7772516229
 20
106.6332311387
 30
0.0
 10
38.9638771713
 20
106.6009952594
 30
0.0
 10
39.157726244
 20
106.590108402
 30
0.0
 10
39.3515844895
 20
106.6009940789
 30
0.0
 10
39.5381905678
 20
106.6332318718
 30
0.0
 10
39.7106043867
 20
106.6856462199
 30
0.0
 10
39.8624854692
 20
106.7563504699
 30
0.0
 10
39.9883179144
 20
106.8430244252
 30
0.0
 10
40.0834692861
 20
106.9429538618
 30
0.0
 10
40.1345259084
 20
107.0370873002
 30
0.0
 10
40.1544369088
 20
107.1138810606
 30
0.0
 10
40.1593471191
 20
107.1711002098
 30
0.0
 10
40.1544407091
 20
107.2283215879
 30
0.0
 10
40.134526121
 20
107.3051122196
 30
0.0
 10
40.083476293
 20
107.3992650161
 30
0.0
 10
39.9883393324
 20
107.4991684046
 30
0.0
 10
39.9087229075
 20
107.5540104732
 30
0.0
 10
39.8648324843
 20
107.5793502857
 30
0.0
  0
SPLINE
  5
331
100
AcDbEntity
  8
0
100
AcDbSpline
 62
7
  6
BYLAYER
 70
0
 71
3
 72
25
 73
21
 74
0
 42
0.0000001
 43
0.0000001
 44
0.0000000001
 40
0.0
 40
0.0
 40
0.0
 40
0.0
 40
0.0665604157
 40
0.1383940389
 40
0.2139911233
 40
0.2915599651
 40
0.3691268659
 40
0.4447288827
 40
0.5165533038
 40
0.5831192718
 40
0.6434792189
 40
0.6974757296
 40
0.7460422493
 40
0.769012578
 40
0.7915571885
 40
0.8141022166
 40
0.8370740584
 40
0.8856373027
 40
0.9396447956
 40
1.0
 40
1.0
 40
1.0
 40
1.0
 10
39.8648324843
 20
107.5793502857
 30
0.0
 10
39.8164293918
 20
107.6072949294
 30
0.0
 10
39.7105739108
 20
107.6565813424
 30
0.0
 10
39.5382056712
 20
107.7089811251
 30
0.0
 10
39.3515801229
 20
107.7412170044
 30
0.0
 10
39.1577310502
 20
107.7521038618
 30
0.0
 10
38.9638728047
 20
107.7412181849
 30
0.0
 10
38.7772667263
 20
107.708980392
 30
0.0
 10
38.6048529074
 20
107.6565660439
 30
0.0
 10
38.452971825
 20
107.5858617938
 30
0.0
 10
38.3271393798
 20
107.4991878385
 30
0.0
 10
38.231988008
 20
107.3992584019
 30
0.0
 10
38.1809313858
 20
107.3051249636
 30
0.0
 10
38.1610203854
 20
107.2283312031
 30
0.0
 10
38.156110175
 20
107.1711120539
 30
0.0
 10
38.1610165851
 20
107.1138906758
 30
0.0
 10
38.1809311731
 20
107.0371000441
 30
0.0
 10
38.2319810011
 20
106.9429472477
 30
0.0
 10
38.3271179617
 20
106.8430438592
 30
0.0
 10
38.4067343866
 20
106.7882017905
 30
0.0
 10
38.4506248099
 20
106.762861978
 30
0.0
  0
SPLINE
  5
332
100
AcDbEntity
  8
0
100
AcDbSpline
 62
7
  6
BYLAYER
 70
0
 71
3
 72
15
 73
11
 74
0
 42
0.0000001
 43
0.0000001
 44
0.0000000001
 40
0.0
 40
0.0
 40
0.0
 40
0.0
 40
0.1080093034
 40
0.2180578442
 40
0.3319965509
 40
0.4513564154
 40
0.5772780068
 40
0.7105025086
 40
0.8513946615
 40
1.0
 40
1.0
 40
1.0
 40
1.0
 10
34.6577290651
 20
107.0065929914
 30
0.0
 10
34.6577295605
 20
106.9214037684
 30
0.0
 10
34.6725239822
 20
106.7490712055
 30
0.0
 10
34.738557222
 20
106.4945277757
 30
0.0
 10
34.8475572033
 20
106.245464036
 30
0.0
 10
34.9981457706
 20
106.0044073719
 30
0.0
 10
35.1886238451
 20
105.7735384717
 30
0.0
 10
35.4170304117
 20
105.5549225037
 30
0.0
 10
35.6810941023
 20
105.3505143852
 30
0.0
 10
35.874255521
 20
105.2280973444
 30
0.0
 10
35.9757613796
 20
105.169494299
 30
0.0
  0
SPLINE
  5
333
100
AcDbEntity
  8
0
100
AcDbSpline
 62
7
  6
BYLAYER
 70
0
 71
3
 72
14
 73
10
 74
0
 42
0.0000001
 43
0.0000001
 44
0.0000000001
 40
0.0
 40
0.0
 40
0.0
 40
0.0
 40
0.289269348
 40
0.4225298258
 40
0.5484745467
 40
0.6678701106
 40
0.7818326042
 40
0.8919169694
 40
1.0
 40
1.0
 40
1.0
 40
1.0
 10
54.8118367409
 20
78.7008063528
 30
0.0
 10
54.6801545508
 20
78.7768313808
 30
0.0
 10
54.4957394302
 20
78.9037985658
 30
0.0
 10
54.2870986852
 20
79.1034774194
 30
0.0
 10
54.1601203972
 20
79.257400244
 30
0.0
 10
54.0597326926
 20
79.4180806343
 30
0.0
 10
53.9870544986
 20
79.5841090128
 30
0.0
 10
53.9430083021
 20
79.753814489
 30
0.0
 10
53.9331671104
 20
79.8687256282
 30
0.0
 10
53.933165318
 20
79.9255388018
 30
0.0
  0
SPLINE
  5
334
100
AcDbEntity
  8
0
100
AcDbSpline
 62
7
  6
BYLAYER
 70
0
 71
3
 72
11
 73
7
 74
0
 42
0.0000001
 43
0.0000001
 44
0.0000000001
 40
0.0
 40
0.0
 40
0.0
 40
0.0
 40
0.265556459
 40
0.5252520974
 40
0.7720202633
 40
1.0
 40
1.0
 40
1.0
 40
1.0
 10
64.6674643647
 20
73.817829632
 30
0.0
 10
64.4591320844
 20
73.8117627036
 30
0.0
 10
64.0459204508
 20
73.8244320719
 30
0.0
 10
63.4454613469
 20
73.9164218426
 30
0.0
 10
62.8901929382
 20
74.0772580804
 30
0.0
 10
62.5497014367
 20
74.2334491529
 30
0.0
 10
62.3947437554
 20
74.322911988
 30
0.0
  0
SPLINE
  5
335
100
AcDbEntity
  8
0
100
AcDbSpline
 62
7
  6
BYLAYER
 70
0
 71
3
 72
9
 73
5
 74
0
 42
0.0000001
 43
0.0000001
 44
0.0000000001
 40
0.0
 40
0.0
 40
0.0
 40
0.0
 40
0.2429633326
 40
1.0
 40
1.0
 40
1.0
 40
1.0
 10
71.8969089214
 20
74.9605697984
 30
0.0
 10
71.8665695407
 20
74.9430534533
 30
0.0
 10
71.7404385847
 20
74.8731496291
 30
0.0
 10
71.6096407221
 20
74.8117644166
 30
0.0
 10
71.5089088422
 20
74.7697127801
 30
0.0
  0
SPLINE
  5
336
100
AcDbEntity
  8
0
100
AcDbSpline
 62
7
  6
BYLAYER
 70
0
 71
3
 72
9
 73
5
 74
0
 42
0.0000001
 43
0.0000001
 44
0.0000000001
 40
0.0
 40
0.0
 40
0.0
 40
0.0
 40
0.2429322615
 40
1.0
 40
1.0
 40
1.0
 40
1.0
 10
73.4067765573
 20
77.771308522
 30
0.0
 10
73.3690844305
 20
77.7050872986
 30
0.0
 10
73.2067946571
 20
77.4365819805
 30
0.0
 10
73.017118518
 20
77.1849400158
 30
0.0
 10
72.8622369901
 20
77.0049460599
 30
0.0
  0
SPLINE
  5
337
100
AcDbEntity
  8
0
100
AcDbSpline
 62
7
  6
BYLAYER
 70
0
 71
3
 72
11
 73
7
 74
0
 42
0.0000001
 43
0.0000001
 44
0.0000000001
 40
0.0
 40
0.0
 40
0.0
 40
0.0
 40
0.2374438991
 40
0.4802309348
 40
0.733241386
 40
1.0
 40
1.0
 40
1.0
 40
1.0
 10
72.8341437473
 20
77.8182948085
 30
0.0
 10
72.8341443068
 20
77.8846491424
 30
0.0
 10
72.8214905194
 20
78.0191707758
 30
0.0
 10
72.7650495463
 20
78.2172351354
 30
0.0
 10
72.6721028926
 20
78.4100298888
 30
0.0
 10
72.5892399424
 20
78.5300574435
 30
0.0
 10
72.5428733782
 20
78.5884296021
 30
0.0
  0
SPLINE
  5
338
100
AcDbEntity
  8
0
100
AcDbSpline
 62
7
  6
BYLAYER
 70
0
 71
3
 72
14
 73
10
 74
0
 42
0.0000001
 43
0.0000001
 44
0.0000000001
 40
0.0
 40
0.0
 40
0.0
 40
0.0
 40
0.1080369295
 40
0.21812257
 40
0.3321018956
 40
0.4514989111
 40
0.5774453129
 40
0.7107164224
 40
1.0
 40
1.0
 40
1.0
 40
1.0
 10
72.8341549711
 20
76.2669402033
 30
0.0
 10
72.8341554854
 20
76.2063661697
 30
0.0
 10
72.8236253928
 20
76.083824435
 30
0.0
 10
72.7766763889
 20
75.902818617
 30
0.0
 10
72.6991628025
 20
75.7257067349
 30
0.0
 10
72.5920914097
 20
75.5542986506
 30
0.0
 10
72.4566412282
 20
75.3901132017
 30
0.0
 10
72.2340931968
 20
75.1771055083
 30
0.0
 10
72.0373743085
 20
75.0416670433
 30
0.0
 10
71.8969089214
 20
74.9605697984
 30
0.0
  0
SPLINE
  5
339
100
AcDbEntity
  8
0
100
AcDbSpline
 62
7
  6
BYLAYER
 70
0
 71
3
 72
14
 73
10
 74
0
 42
0.0000001
 43
0.0000001
 44
0.0000000001
 40
0.0
 40
0.0
 40
0.0
 40
0.0
 40
0.2892827984
 40
0.4225481139
 40
0.5484953813
 40
0.6678938386
 40
0.7818678972
 40
0.8919515929
 40
1.0
 40
1.0
 40
1.0
 40
1.0
 10
55.9162291331
 20
85.7381654431
 30
0.0
 10
55.7757640527
 20
85.6570683752
 30
0.0
 10
55.5790493546
 20
85.5216311233
 30
0.0
 10
55.3564992572
 20
85.3086291787
 30
0.0
 10
55.2210564295
 20
85.14444088
 30
0.0
 10
55.113973836
 20
84.9730409481
 30
0.0
 10
55.0364698681
 20
84.7959294382
 30
0.0
 10
54.9894975823
 20
84.6149254713
 30
0.0
 10
54.978994818
 20
84.4923755251
 30
0.0
 10
54.9789943072
 20
84.4317950254
 30
0.0
  0
SPLINE
  5
33A
100
AcDbEntity
  8
0
100
AcDbSpline
 62
7
  6
BYLAYER
 70
0
 71
3
 72
15
 73
11
 74
0
 42
0.0000001
 43
0.0000001
 44
0.0000000001
 40
0.0
 40
0.0
 40
0.0
 40
0.0
 40
0.1259358553
 40
0.2554836419
 40
0.3866792972
 40
0.5175391332
 40
0.6460646927
 40
0.7703704429
 40
0.8888073723
 40
1.0
 40
1.0
 40
1.0
 40
1.0
 10
59.5128876995
 20
86.1111251551
 30
0.0
 10
59.3627932811
 20
86.1508644803
 30
0.0
 10
59.0540756932
 20
86.2161861029
 30
0.0
 10
58.5799956751
 20
86.2718311411
 30
0.0
 10
58.0967636577
 20
86.2857184636
 30
0.0
 10
57.6154218186
 20
86.2575705251
 30
0.0
 10
57.1468604929
 20
86.1879857633
 30
0.0
 10
56.7016363932
 20
86.0785608199
 30
0.0
 10
56.2899004824
 20
85.9317376863
 30
0.0
 10
56.034952007
 20
85.8067097172
 30
0.0
 10
55.9162291331
 20
85.7381654431
 30
0.0
  0
SPLINE
  5
33B
100
AcDbEntity
  8
0
100
AcDbSpline
 62
7
  6
BYLAYER
 70
0
 71
3
 72
11
 73
7
 74
0
 42
0.0000001
 43
0.0000001
 44
0.0000000001
 40
0.0
 40
0.0
 40
0.0
 40
0.0
 40
0.2217464288
 40
0.4637591089
 40
0.7242441055
 40
1.0
 40
1.0
 40
1.0
 40
1.0
 10
68.5833156164
 20
79.4539383334
 30
0.0
 10
68.4164213917
 20
79.2982568361
 30
0.0
 10
68.0357944156
 20
79.0057937068
 30
0.0
 10
67.3809617103
 20
78.6450536346
 30
0.0
 10
66.6337863782
 20
78.3510495433
 30
0.0
 10
66.0994503566
 20
78.2079583046
 30
0.0
 10
65.8219392238
 20
78.1484362758
 30
0.0
  0
SPLINE
  5
33C
100
AcDbEntity
  8
0
100
AcDbSpline
 62
7
  6
BYLAYER
 70
0
 71
3
 72
14
 73
10
 74
0
 42
0.0000001
 43
0.0000001
 44
0.0000000001
 40
0.0
 40
0.0
 40
0.0
 40
0.0
 40
0.2892827984
 40
0.4225481139
 40
0.5484953813
 40
0.6678938386
 40
0.7818678972
 40
0.8919515929
 40
1.0
 40
1.0
 40
1.0
 40
1.0
 10
71.8969089214
 20
76.5119243909
 30
0.0
 10
72.0373740017
 20
76.5930214588
 30
0.0
 10
72.2340886998
 20
76.7284587107
 30
0.0
 10
72.4566387972
 20
76.9414606553
 30
0.0
 10
72.5920816249
 20
77.105648954
 30
0.0
 10
72.6991642184
 20
77.2770488859
 30
0.0
 10
72.7766681863
 20
77.4541603958
 30
0.0
 10
72.8236404722
 20
77.6351643627
 30
0.0
 10
72.8341432364
 20
77.7577143089
 30
0.0
 10
72.8341437473
 20
77.8182948085
 30
0.0
  0
SPLINE
  5
33D
100
AcDbEntity
  8
0
100
AcDbSpline
 62
7
  6
BYLAYER
 70
0
 71
3
 72
11
 73
7
 74
0
 42
0.0000001
 43
0.0000001
 44
0.0000000001
 40
0.0
 40
0.0
 40
0.0
 40
0.0
 40
0.2651137523
 40
0.5250680797
 40
0.7721427945
 40
1.0
 40
1.0
 40
1.0
 40
1.0
 10
69.3781314807
 20
75.9767244704
 30
0.0
 10
69.6081725434
 20
75.9660693541
 30
0.0
 10
70.0655862111
 20
75.9733494861
 30
0.0
 10
70.7314487366
 20
76.0677658604
 30
0.0
 10
71.34779913
 20
76.2412384592
 30
0.0
 10
71.7255003556
 20
76.4129622001
 30
0.0
 10
71.8969089214
 20
76.5119243909
 30
0.0
  0
SPLINE
  5
33E
100
AcDbEntity
  8
0
100
AcDbSpline
 62
7
  6
BYLAYER
 70
0
 71
3
 72
14
 73
10
 74
0
 42
0.0000001
 43
0.0000001
 44
0.0000000001
 40
0.0
 40
0.0
 40
0.0
 40
0.0
 40
0.1101299319
 40
0.2226621351
 40
0.3387786229
 40
0.4594751066
 40
0.5855182556
 40
0.7174629957
 40
1.0
 40
1.0
 40
1.0
 40
1.0
 10
61.6146317003
 20
104.1221185968
 30
0.0
 10
61.577164752
 20
103.7731454988
 30
0.0
 10
61.4520234151
 20
103.0719983737
 30
0.0
 10
61.1209446142
 20
102.0412787944
 30
0.0
 10
60.6477149235
 20
101.0303695751
 30
0.0
 10
60.0360458616
 20
100.0461000222
 30
0.0
 10
59.2903217377
 20
99.094348983
 30
0.0
 10
58.0972724506
 20
97.8488341425
 30
0.0
 10
57.0544725348
 20
97.0247802611
 30
0.0
 10
56.3098931734
 20
96.5184421428
 30
0.0
  0
SPLINE
  5
33F
100
AcDbEntity
  8
0
100
AcDbSpline
 62
7
  6
BYLAYER
 70
0
 71
3
 72
11
 73
7
 74
0
 42
0.0000001
 43
0.0000001
 44
0.0000000001
 40
0.0
 40
0.0
 40
0.0
 40
0.0
 40
0.2179913811
 40
0.4527828127
 40
0.7125772122
 40
1.0
 40
1.0
 40
1.0
 40
1.0
 10
54.0707834426
 20
95.4275292596
 30
0.0
 10
54.0669779963
 20
95.3921818851
 30
0.0
 10
54.047123028
 20
95.319682191
 30
0.0
 10
53.9854606442
 20
95.2197248603
 30
0.0
 10
53.8946064559
 20
95.1289243211
 30
0.0
 10
53.8204160552
 20
95.0784412429
 30
0.0
 10
53.7798210449
 20
95.0550038427
 30
0.0
  0
SPLINE
  5
340
100
AcDbEntity
  8
0
100
AcDbSpline
 62
7
  6
BYLAYER
 70
0
 71
3
 72
13
 73
9
 74
0
 42
0.0000001
 43
0.0000001
 44
0.0000000001
 40
0.0
 40
0.0
 40
0.0
 40
0.0
 40
0.0950824223
 40
0.1960054328
 40
0.3056549236
 40
0.4255800488
 40
0.6959049561
 40
1.0
 40
1.0
 40
1.0
 40
1.0
 10
60.4013425298
 20
109.0680020623
 30
0.0
 10
60.3980798004
 20
109.0376372127
 30
0.0
 10
60.3826453727
 20
108.9757222276
 30
0.0
 10
60.3356186038
 20
108.8886025643
 30
0.0
 10
60.2662159805
 20
108.8073797554
 30
0.0
 10
60.1413719785
 20
108.7053388552
 30
0.0
 10
59.9389325382
 20
108.6054859727
 30
0.0
 10
59.758609517
 20
108.5609811872
 30
0.0
 10
59.6620850627
 20
108.546048767
 30
0.0
  0
SPLINE
  5
341
100
AcDbEntity
  8
0
100
AcDbSpline
 62
7
  6
BYLAYER
 70
0
 71
3
 72
9
 73
5
 74
0
 42
0.0000001
 43
0.0000001
 44
0.0000000001
 40
0.0
 40
0.0
 40
0.0
 40
0.0
 40
0.7421727446
 40
1.0
 40
1.0
 40
1.0
 40
1.0
 10
16.7550889421
 20
101.4290758008
 30
0.0
 10
16.7550926084
 20
101.4214585711
 30
0.0
 10
16.7532564126
 20
101.4110990114
 30
0.0
 10
16.7493884956
 20
101.4015887683
 30
0.0
 10
16.748273438
 20
101.399188984
 30
0.0
  0
SPLINE
  5
342
100
AcDbEntity
  8
0
100
AcDbSpline
 62
7
  6
BYLAYER
 70
0
 71
3
 72
9
 73
5
 74
0
 42
0.0000001
 43
0.0000001
 44
0.0000000001
 40
0.0
 40
0.0
 40
0.0
 40
0.0
 40
0.2378417646
 40
1.0
 40
1.0
 40
1.0
 40
1.0
 10
16.748273438
 20
101.399188984
 30
0.0
 10
16.7471250847
 20
101.3967175419
 30
0.0
 10
16.741767173
 20
101.3865734227
 30
0.0
 10
16.7344700987
 20
101.3775170611
 30
0.0
 10
16.7282950243
 20
101.3713420156
 30
0.0
  0
SPLINE
  5
343
100
AcDbEntity
  8
0
100
AcDbSpline
 62
7
  6
BYLAYER
 70
0
 71
3
 72
9
 73
5
 74
0
 42
0.0000001
 43
0.0000001
 44
0.0000000001
 40
0.0
 40
0.0
 40
0.0
 40
0.0
 40
0.5105156446
 40
1.0
 40
1.0
 40
1.0
 40
1.0
 10
33.1012688879
 20
117.9751777091
 30
0.0
 10
31.9691956251
 20
117.800044953
 30
0.0
 10
29.765847613
 20
117.3564989037
 30
0.0
 10
27.6156667634
 20
116.6988975106
 30
0.0
 10
26.5848356457
 20
116.3197466847
 30
0.0
  0
SPLINE
  5
344
100
AcDbEntity
  8
0
100
AcDbSpline
 62
7
  6
BYLAYER
 70
0
 71
3
 72
9
 73
5
 74
0
 42
0.0000001
 43
0.0000001
 44
0.0000000001
 40
0.0
 40
0.0
 40
0.0
 40
0.0
 40
0.5027765225
 40
1.0
 40
1.0
 40
1.0
 40
1.0
 10
40.1783249806
 20
118.4226717609
 30
0.0
 10
38.9890973691
 20
118.4526461102
 30
0.0
 10
36.6200305915
 20
118.4082662993
 30
0.0
 10
34.2639052233
 20
118.1550386001
 30
0.0
 10
33.1012688879
 20
117.9751777091
 30
0.0
  0
SPLINE
  5
345
100
AcDbEntity
  8
0
100
AcDbSpline
 62
7
  6
BYLAYER
 70
0
 71
3
 72
9
 73
5
 74
0
 42
0.0000001
 43
0.0000001
 44
0.0000000001
 40
0.0
 40
0.0
 40
0.0
 40
0.0
 40
0.248338836
 40
1.0
 40
1.0
 40
1.0
 40
1.0
 10
44.5276091817
 20
118.4306462885
 30
0.0
 10
44.1716675774
 20
118.4778219101
 30
0.0
 10
42.7358454305
 20
118.648234895
 30
0.0
 10
41.2909188739
 20
118.7413641172
 30
0.0
 10
40.2044941174
 20
118.7687473321
 30
0.0
  0
SPLINE
  5
346
100
AcDbEntity
  8
0
100
AcDbSpline
 62
7
  6
BYLAYER
 70
0
 71
3
 72
9
 73
5
 74
0
 42
0.0000001
 43
0.0000001
 44
0.0000000001
 40
0.0
 40
0.0
 40
0.0
 40
0.0
 40
0.2454830152
 40
1.0
 40
1.0
 40
1.0
 40
1.0
 10
50.2396067331
 20
117.2163580544
 30
0.0
 10
49.9144281488
 20
117.3140879335
 30
0.0
 10
48.5836901881
 20
117.6917528529
 30
0.0
 10
47.2304653887
 20
117.9893104571
 30
0.0
 10
46.2028572096
 20
118.1714925375
 30
0.0
  0
SPLINE
  5
347
100
AcDbEntity
  8
0
100
AcDbSpline
 62
7
  6
BYLAYER
 70
0
 71
3
 72
9
 73
5
 74
0
 42
0.0000001
 43
0.0000001
 44
0.0000000001
 40
0.0
 40
0.0
 40
0.0
 40
0.0
 40
0.4841947314
 40
1.0
 40
1.0
 40
1.0
 40
1.0
 10
55.7039584379
 20
114.4786376854
 30
0.0
 10
54.8310607297
 20
114.9825940111
 30
0.0
 10
52.9562934267
 20
115.9012537307
 30
0.0
 10
50.990855139
 20
116.6000460917
 30
0.0
 10
49.962559781
 20
116.9090922152
 30
0.0
  0
SPLINE
  5
348
100
AcDbEntity
  8
0
100
AcDbSpline
 62
7
  6
BYLAYER
 70
0
 71
3
 72
9
 73
5
 74
0
 42
0.0000001
 43
0.0000001
 44
0.0000000001
 40
0.0
 40
0.0
 40
0.0
 40
0.0
 40
0.4786596796
 40
1.0
 40
1.0
 40
1.0
 40
1.0
 10
59.9137371581
 20
111.1639072512
 30
0.0
 10
59.3395063372
 20
111.8007593323
 30
0.0
 10
58.0103089498
 20
113.0168510359
 30
0.0
 10
56.5128051434
 20
114.0116603866
 30
0.0
 10
55.7039584379
 20
114.4786376854
 30
0.0
  0
SPLINE
  5
349
100
AcDbEntity
  8
0
100
AcDbSpline
 62
7
  6
BYLAYER
 70
0
 71
3
 72
9
 73
5
 74
0
 42
0.0000001
 43
0.0000001
 44
0.0000000001
 40
0.0
 40
0.0
 40
0.0
 40
0.0
 40
0.4876361068
 40
1.0
 40
1.0
 40
1.0
 40
1.0
 10
62.100341221
 20
108.9932835029
 30
0.0
 10
61.8817718418
 20
109.4042104815
 30
0.0
 10
61.3751313869
 20
110.216712989
 30
0.0
 10
60.7734289729
 20
110.9606609955
 30
0.0
 10
60.4459425045
 20
111.3238606555
 30
0.0
  0
SPLINE
  5
34A
100
AcDbEntity
  8
0
100
AcDbSpline
 62
7
  6
BYLAYER
 70
0
 71
3
 72
9
 73
5
 74
0
 42
0.0000001
 43
0.0000001
 44
0.0000000001
 40
0.0
 40
0.0
 40
0.0
 40
0.0
 40
0.2917955223
 40
1.0
 40
1.0
 40
1.0
 40
1.0
 10
61.6603684881
 20
108.322374358
 30
0.0
 10
61.6494657131
 20
108.3260085294
 30
0.0
 10
61.6132964819
 20
108.3406286192
 30
0.0
 10
61.5789253305
 20
108.367186466
 30
0.0
 10
61.5671828172
 20
108.3924872826
 30
0.0
  0
SPLINE
  5
34B
100
AcDbEntity
  8
0
100
AcDbSpline
 62
7
  6
BYLAYER
 70
0
 71
3
 72
9
 73
5
 74
0
 42
0.0000001
 43
0.0000001
 44
0.0000000001
 40
0.0
 40
0.0
 40
0.0
 40
0.0
 40
0.4941863076
 40
1.0
 40
1.0
 40
1.0
 40
1.0
 10
63.1348816063
 20
105.5301814391
 30
0.0
 10
63.102940121
 20
105.9525131302
 30
0.0
 10
62.9702364411
 20
106.8032105135
 30
0.0
 10
62.7094078536
 20
107.6232700574
 30
0.0
 10
62.5492290512
 20
108.026094588
 30
0.0
  0
SPLINE
  5
34C
100
AcDbEntity
  8
0
100
AcDbSpline
 62
7
  6
BYLAYER
 70
0
 71
3
 72
11
 73
7
 74
0
 42
0.0000001
 43
0.0000001
 44
0.0000000001
 40
0.0
 40
0.0
 40
0.0
 40
0.0
 40
0.2569507408
 40
0.5080464715
 40
0.7550457027
 40
1.0
 40
1.0
 40
1.0
 40
1.0
 10
16.5550390971
 20
108.4222645085
 30
0.0
 10
16.424760319
 20
108.1415520933
 30
0.0
 10
16.1943991028
 20
107.573320919
 30
0.0
 10
15.9429199984
 20
106.6976247567
 30
0.0
 10
15.7914812216
 20
105.8137912835
 30
0.0
 10
15.7577507429
 20
105.2207465617
 30
0.0
 10
15.7577447874
 20
104.9257244871
 30
0.0
  0
SPLINE
  5
34D
100
AcDbEntity
  8
0
100
AcDbSpline
 62
7
  6
BYLAYER
 70
0
 71
3
 72
9
 73
5
 74
0
 42
0.0000001
 43
0.0000001
 44
0.0000000001
 40
0.0
 40
0.0
 40
0.0
 40
0.0
 40
0.5174065233
 40
1.0
 40
1.0
 40
1.0
 40
1.0
 10
18.8321475246
 20
111.6196545575
 30
0.0
 10
18.3545563337
 20
111.1362712788
 30
0.0
 10
17.4964009807
 20
110.1341424479
 30
0.0
 10
16.8218531135
 20
108.9971701689
 30
0.0
 10
16.5550390971
 20
108.4222645085
 30
0.0
  0
SPLINE
  5
34E
100
AcDbEntity
  8
0
100
AcDbSpline
 62
7
  6
BYLAYER
 70
0
 71
3
 72
9
 73
5
 74
0
 42
0.0000001
 43
0.0000001
 44
0.0000000001
 40
0.0
 40
0.0
 40
0.0
 40
0.0
 40
0.259546283
 40
1.0
 40
1.0
 40
1.0
 40
1.0
 10
21.5849966077
 20
114.3630872704
 30
0.0
 10
21.3399987758
 20
114.2110264933
 30
0.0
 10
20.408091234
 20
113.606226421
 30
0.0
 10
19.5258376803
 20
112.9230248662
 30
0.0
 10
18.9162802599
 20
112.3706111614
 30
0.0
  0
SPLINE
  5
34F
100
AcDbEntity
  8
0
100
AcDbSpline
 62
7
  6
BYLAYER
 70
0
 71
3
 72
9
 73
5
 74
0
 42
0.0000001
 43
0.0000001
 44
0.0000000001
 40
0.0
 40
0.0
 40
0.0
 40
0.0
 40
0.2572953458
 40
1.0
 40
1.0
 40
1.0
 40
1.0
 10
26.2624537739
 20
116.6119011001
 30
0.0
 10
25.9580989318
 20
116.4999560998
 30
0.0
 10
24.7823615754
 20
116.045842594
 30
0.0
 10
23.6360393159
 20
115.5140221478
 30
0.0
 10
22.8113568055
 20
115.0711224343
 30
0.0
  0
SPLINE
  5
350
100
AcDbEntity
  8
0
100
AcDbSpline
 62
7
  6
BYLAYER
 70
0
 71
3
 72
13
 73
9
 74
0
 42
0.0000001
 43
0.0000001
 44
0.0000000001
 40
0.0
 40
0.0
 40
0.0
 40
0.0
 40
0.0950571339
 40
0.1960390875
 40
0.3056788065
 40
0.4255997911
 40
0.6959209046
 40
1.0
 40
1.0
 40
1.0
 40
1.0
 10
34.6663769581
 20
105.086719084
 30
0.0
 10
34.6631126347
 20
105.0563644311
 30
0.0
 10
34.6476224435
 20
104.9944597395
 30
0.0
 10
34.6006580904
 20
104.9073077261
 30
0.0
 10
34.531203742
 20
104.8261098141
 30
0.0
 10
34.4063632548
 20
104.7240981135
 30
0.0
 10
34.2039419532
 20
104.6242542308
 30
0.0
 10
34.0236354295
 20
104.579757455
 30
0.0
 10
33.9271218717
 20
104.5648267204
 30
0.0
  0
SPLINE
  5
351
100
AcDbEntity
  8
0
100
AcDbSpline
 62
7
  6
BYLAYER
 70
0
 71
3
 72
15
 73
11
 74
0
 42
0.0000001
 43
0.0000001
 44
0.0000000001
 40
0.0
 40
0.0
 40
0.0
 40
0.0
 40
0.1462386572
 40
0.287699795
 40
0.4234502636
 40
0.5527704051
 40
0.6751439866
 40
0.7903351612
 40
0.8984568955
 40
1.0
 40
1.0
 40
1.0
 40
1.0
 10
31.5847190325
 20
92.6934353742
 30
0.0
 10
30.8151130823
 20
92.8522518359
 30
0.0
 10
29.3110469792
 20
93.2162555086
 30
0.0
 10
27.1423218915
 20
93.9117202254
 30
0.0
 10
25.1185873307
 20
94.7408105767
 30
0.0
 10
23.2642657475
 20
95.6935915029
 30
0.0
 10
21.6015730504
 20
96.7590545996
 30
0.0
 10
20.1503220482
 20
97.9250980664
 30
0.0
 10
18.928601024
 20
99.1782516342
 30
0.0
 10
18.2577697904
 20
100.0894749954
 30
0.0
 10
17.9705425842
 20
100.5534059952
 30
0.0
  0
SPLINE
  5
352
100
AcDbEntity
  8
0
100
AcDbSpline
 62
7
  6
BYLAYER
 70
0
 71
3
 72
13
 73
9
 74
0
 42
0.0000001
 43
0.0000001
 44
0.0000000001
 40
0.0
 40
0.0
 40
0.0
 40
0.0
 40
0.1950474105
 40
0.3105750831
 40
0.4371493579
 40
0.5726279869
 40
0.7139915558
 40
1.0
 40
1.0
 40
1.0
 40
1.0
 10
32.8872241415
 20
93.0876678807
 30
0.0
 10
32.8499355376
 20
93.0073219164
 30
0.0
 10
32.7481776635
 20
92.8993357765
 30
0.0
 10
32.5782060998
 20
92.7970533865
 30
0.0
 10
32.4186558623
 20
92.7319704913
 30
0.0
 10
32.2407976965
 20
92.6861775375
 30
0.0
 10
31.9870274514
 20
92.6524441668
 30
0.0
 10
31.7908408635
 20
92.659565945
 30
0.0
 10
31.662482214
 20
92.6794224826
 30
0.0
  0
SPLINE
  5
353
100
AcDbEntity
  8
0
100
AcDbSpline
 62
7
  6
BYLAYER
 70
0
 71
3
 72
13
 73
9
 74
0
 42
0.0000001
 43
0.0000001
 44
0.0000000001
 40
0.0
 40
0.0
 40
0.0
 40
0.0
 40
0.3044779109
 40
0.5765215117
 40
0.6968862817
 40
0.8063240401
 40
0.9063235349
 40
1.0
 40
1.0
 40
1.0
 40
1.0
 10
35.1227071106
 20
92.1461236532
 30
0.0
 10
35.0173876043
 20
92.1572078368
 30
0.0
 10
34.8193665322
 20
92.1968112874
 30
0.0
 10
34.5949946053
 20
92.2962523169
 30
0.0
 10
34.4552062144
 20
92.4020576852
 30
0.0
 10
34.377376044
 20
92.4873918192
 30
0.0
 10
34.3246088954
 20
92.5797890967
 30
0.0
 10
34.3074346314
 20
92.6459945505
 30
0.0
 10
34.303955178
 20
92.6783900589
 30
0.0
  0
SPLINE
  5
354
100
AcDbEntity
  8
0
100
AcDbSpline
 62
7
  6
BYLAYER
 70
0
 71
3
 72
14
 73
10
 74
0
 42
0.0000001
 43
0.0000001
 44
0.0000000001
 40
0.0
 40
0.0
 40
0.0
 40
0.0
 40
0.1135196119
 40
0.2320517905
 40
0.3548446354
 40
0.481049343
 40
0.6097112907
 40
0.7398115277
 40
1.0
 40
1.0
 40
1.0
 40
1.0
 10
53.7199198162
 20
95.0231292536
 30
0.0
 10
53.0727701628
 20
94.7059178794
 30
0.0
 10
51.7200542486
 20
94.1170475873
 30
0.0
 10
49.5870713031
 20
93.3856165294
 30
0.0
 10
47.3278362977
 20
92.7939550739
 30
0.0
 10
44.9699454681
 20
92.3491737404
 30
0.0
 10
42.5415221135
 20
92.0566548704
 30
0.0
 10
39.2503965889
 20
91.8744262522
 30
0.0
 10
36.7655156226
 20
91.9732288894
 30
0.0
 10
35.1227071106
 20
92.1461236532
 30
0.0
  0
SPLINE
  5
355
100
AcDbEntity
  8
0
100
AcDbSpline
 62
7
  6
BYLAYER
 70
0
 71
3
 72
9
 73
5
 74
0
 42
0.0000001
 43
0.0000001
 44
0.0000000001
 40
0.0
 40
0.0
 40
0.0
 40
0.0
 40
0.2798205437
 40
1.0
 40
1.0
 40
1.0
 40
1.0
 10
43.3750421762
 20
103.1032735981
 30
0.0
 10
43.3452380734
 20
103.1204806156
 30
0.0
 10
43.2424780076
 20
103.1873195291
 30
0.0
 10
43.1535093731
 20
103.2817461005
 30
0.0
 10
43.1162212647
 20
103.362088321
 30
0.0
  0
SPLINE
  5
356
100
AcDbEntity
  8
0
100
AcDbSpline
 62
7
  6
BYLAYER
 70
0
 71
3
 72
13
 73
9
 74
0
 42
0.0000001
 43
0.0000001
 44
0.0000000001
 40
0.0
 40
0.0
 40
0.0
 40
0.0
 40
0.111010262
 40
0.2324259761
 40
0.4946543272
 40
0.7598408824
 40
0.8846859788
 40
1.0
 40
1.0
 40
1.0
 40
1.0
 10
56.3098931734
 20
96.5184421428
 30
0.0
 10
56.2630050785
 20
96.4865567173
 30
0.0
 10
56.157950379
 20
96.4296903708
 30
0.0
 10
55.9190176557
 20
96.34530721
 30
0.0
 10
55.5870963259
 20
96.2997959164
 30
0.0
 10
55.2519228812
 20
96.3302691053
 30
0.0
 10
55.0035260056
 20
96.4028776104
 30
0.0
 10
54.8914807931
 20
96.45440508
 30
0.0
 10
54.8404709128
 20
96.4838549819
 30
0.0
  0
SPLINE
  5
357
100
AcDbEntity
  8
0
100
AcDbSpline
 62
7
  6
BYLAYER
 70
0
 71
3
 72
11
 73
7
 74
0
 42
0.0000001
 43
0.0000001
 44
0.0000000001
 40
0.0
 40
0.0
 40
0.0
 40
0.0
 40
0.2874232588
 40
0.5472177448
 40
0.7820090125
 40
1.0
 40
1.0
 40
1.0
 40
1.0
 10
24.5356421372
 20
113.9799602185
 30
0.0
 10
24.4950463298
 20
114.0033976886
 30
0.0
 10
24.4208544596
 20
114.0538809836
 30
0.0
 10
24.3299984051
 20
114.144682276
 30
0.0
 10
24.2683347223
 20
114.2446406418
 30
0.0
 10
24.248479333
 20
114.3171412345
 30
0.0
 10
24.2446738419
 20
114.3524890343
 30
0.0
  0
SPLINE
  5
358
100
AcDbEntity
  8
0
100
AcDbSpline
 62
7
  6
BYLAYER
 70
0
 71
3
 72
9
 73
5
 74
0
 42
0.0000001
 43
0.0000001
 44
0.0000000001
 40
0.0
 40
0.0
 40
0.0
 40
0.0
 40
0.2531199313
 40
1.0
 40
1.0
 40
1.0
 40
1.0
 10
17.0403898162
 20
102.5501431247
 30
0.0
 10
17.0386400959
 20
102.5539131314
 30
0.0
 10
17.0319584294
 20
102.5689130686
 30
0.0
 10
17.0262205184
 20
102.5843358897
 30
0.0
 10
17.0225278634
 20
102.5960306054
 30
0.0
  0
SPLINE
  5
359
100
AcDbEntity
  8
0
100
AcDbSpline
 62
7
  6
BYLAYER
 70
0
 71
3
 72
13
 73
9
 74
0
 42
0.0000001
 43
0.0000001
 44
0.0000000001
 40
0.0
 40
0.0
 40
0.0
 40
0.0
 40
0.2860075809
 40
0.4273709933
 40
0.5628496374
 40
0.6894240755
 40
0.8049520128
 40
1.0
 40
1.0
 40
1.0
 40
1.0
 10
18.2651376315
 20
102.1419036144
 30
0.0
 10
18.1367791811
 20
102.1220464462
 30
0.0
 10
17.940592653
 20
102.1149237606
 30
0.0
 10
17.6868221268
 20
102.1486558767
 30
0.0
 10
17.5089633057
 20
102.1944479632
 30
0.0
 10
17.3494121227
 20
102.2595300729
 30
0.0
 10
17.1794390379
 20
102.3618116784
 30
0.0
 10
17.077679636
 20
102.4697972166
 30
0.0
 10
17.0403898162
 20
102.5501431247
 30
0.0
  0
SPLINE
  5
35A
100
AcDbEntity
  8
0
100
AcDbSpline
 62
7
  6
BYLAYER
 70
0
 71
3
 72
13
 73
9
 74
0
 42
0.0000001
 43
0.0000001
 44
0.0000000001
 40
0.0
 40
0.0
 40
0.0
 40
0.0
 40
0.0956036586
 40
0.1946477322
 40
0.3017518346
 40
0.4197389644
 40
0.6901977214
 40
1.0
 40
1.0
 40
1.0
 40
1.0
 10
17.9141116015
 20
100.7120154759
 30
0.0
 10
17.9105832313
 20
100.7447869922
 30
0.0
 10
17.9134863693
 20
100.8130254923
 30
0.0
 10
17.9485282623
 20
100.9123523252
 30
0.0
 10
18.0119817654
 20
101.0056218167
 30
0.0
 10
18.1367423028
 20
101.1238456864
 30
0.0
 10
18.3524393489
 20
101.2392553947
 30
0.0
 10
18.5478184807
 20
101.289070942
 30
0.0
 10
18.6533722315
 20
101.3054002026
 30
0.0
  0
SPLINE
  5
35B
100
AcDbEntity
  8
0
100
AcDbSpline
 62
7
  6
BYLAYER
 70
0
 71
3
 72
9
 73
5
 74
0
 42
0.0000001
 43
0.0000001
 44
0.0000000001
 40
0.0
 40
0.0
 40
0.0
 40
0.0
 40
0.7421727446
 40
1.0
 40
1.0
 40
1.0
 40
1.0
 10
61.5603683521
 20
108.4223731687
 30
0.0
 10
61.5603646857
 20
108.4299903984
 30
0.0
 10
61.5622008815
 20
108.4403499581
 30
0.0
 10
61.5660687985
 20
108.4498602012
 30
0.0
 10
61.5671838561
 20
108.4522599855
 30
0.0
  0
SPLINE
  5
35C
100
AcDbEntity
  8
0
100
AcDbSpline
 62
7
  6
BYLAYER
 70
0
 71
3
 72
9
 73
5
 74
0
 42
0.0000001
 43
0.0000001
 44
0.0000000001
 40
0.0
 40
0.0
 40
0.0
 40
0.0
 40
0.2378417646
 40
1.0
 40
1.0
 40
1.0
 40
1.0
 10
61.5671838561
 20
108.4522599855
 30
0.0
 10
61.5683322094
 20
108.4547314277
 30
0.0
 10
61.5736901212
 20
108.4648755469
 30
0.0
 10
61.5809871954
 20
108.4739319084
 30
0.0
 10
61.5871622699
 20
108.480106954
 30
0.0
  0
SPLINE
  5
35D
100
AcDbEntity
  8
0
100
AcDbSpline
 62
7
  6
BYLAYER
 70
0
 71
3
 72
11
 73
7
 74
0
 42
0.0000001
 43
0.0000001
 44
0.0000000001
 40
0.0
 40
0.0
 40
0.0
 40
0.0
 40
0.2784352745
 40
0.532918069
 40
0.7700796713
 40
1.0
 40
1.0
 40
1.0
 40
1.0
 10
35.4075521035
 20
103.4897580251
 30
0.0
 10
35.2795956449
 20
103.6011453969
 30
0.0
 10
35.0514245719
 20
103.8353072588
 30
0.0
 10
34.7986993467
 20
104.2354067953
 30
0.0
 10
34.6611357029
 20
104.6582526993
 30
0.0
 10
34.6513943887
 20
104.947158809
 30
0.0
 10
34.6663475814
 20
105.0864456788
 30
0.0
  0
SPLINE
  5
35E
100
AcDbEntity
  8
0
100
AcDbSpline
 62
7
  6
BYLAYER
 70
0
 71
3
 72
9
 73
5
 74
0
 42
0.0000001
 43
0.0000001
 44
0.0000000001
 40
0.0
 40
0.0
 40
0.0
 40
0.0
 40
0.5367022383
 40
1.0
 40
1.0
 40
1.0
 40
1.0
 10
34.8329945618
 20
103.7283245529
 30
0.0
 10
34.9440109869
 20
103.7111507837
 30
0.0
 10
35.1482884256
 20
103.6581673359
 30
0.0
 10
35.3344102209
 20
103.5534287625
 30
0.0
 10
35.4075521035
 20
103.4897580251
 30
0.0
  0
SPLINE
  5
35F
100
AcDbEntity
  8
0
100
AcDbSpline
 62
7
  6
BYLAYER
 70
0
 71
3
 72
12
 73
8
 74
0
 42
0.0000001
 43
0.0000001
 44
0.0000000001
 40
0.0
 40
0.0
 40
0.0
 40
0.0
 40
0.3015625794
 40
0.5643870683
 40
0.7913833531
 40
0.8965772496
 40
1.0
 40
1.0
 40
1.0
 40
1.0
 10
36.6709198216
 20
102.7604392756
 30
0.0
 10
36.7394566636
 20
102.7341717438
 30
0.0
 10
36.863956139
 20
102.6734469629
 30
0.0
 10
37.0145371844
 20
102.5499199771
 30
0.0
 10
37.0935791861
 20
102.4239798781
 30
0.0
 10
37.1183029917
 20
102.3200446827
 30
0.0
 10
37.1186216732
 20
102.2687463778
 30
0.0
 10
37.1159232265
 20
102.243719097
 30
0.0
  0
SPLINE
  5
360
100
AcDbEntity
  8
0
100
AcDbSpline
 62
7
  6
BYLAYER
 70
0
 71
3
 72
10
 73
6
 74
0
 42
0.0000001
 43
0.0000001
 44
0.0000000001
 40
0.0
 40
0.0
 40
0.0
 40
0.0
 40
0.5137574489
 40
0.7624157101
 40
1.0
 40
1.0
 40
1.0
 40
1.0
 10
39.4366208578
 20
102.3326797892
 30
0.0
 10
38.9550095051
 20
102.315413881
 30
0.0
 10
38.2352477558
 20
102.3554657786
 30
0.0
 10
37.3151452583
 20
102.5431396841
 30
0.0
 10
36.8790517159
 20
102.6807624288
 30
0.0
 10
36.6709198216
 20
102.7604392756
 30
0.0
  0
SPLINE
  5
361
100
AcDbEntity
  8
0
100
AcDbSpline
 62
7
  6
BYLAYER
 70
0
 71
3
 72
9
 73
5
 74
0
 42
0.0000001
 43
0.0000001
 44
0.0000000001
 40
0.0
 40
0.0
 40
0.0
 40
0.0
 40
0.4746140186
 40
1.0
 40
1.0
 40
1.0
 40
1.0
 10
38.7914871795
 20
102.1646883891
 30
0.0
 10
38.8834700865
 20
102.2177944282
 30
0.0
 10
39.0957092018
 20
102.2980290348
 30
0.0
 10
39.3191216707
 20
102.3284674089
 30
0.0
 10
39.4366208578
 20
102.3326797892
 30
0.0
  0
SPLINE
  5
362
100
AcDbEntity
  8
0
100
AcDbSpline
 62
7
  6
BYLAYER
 70
0
 71
3
 72
9
 73
5
 74
0
 42
0.0000001
 43
0.0000001
 44
0.0000000001
 40
0.0
 40
0.0
 40
0.0
 40
0.0
 40
0.2245233449
 40
1.0
 40
1.0
 40
1.0
 40
1.0
 10
38.5326700008
 20
101.9058724219
 30
0.0
 10
38.5443095593
 20
101.9309522441
 30
0.0
 10
38.6078122833
 20
102.0373395202
 30
0.0
 10
38.7087842942
 20
102.1169401411
 30
0.0
 10
38.7914871795
 20
102.1646883891
 30
0.0
  0
SPLINE
  5
363
100
AcDbEntity
  8
0
100
AcDbSpline
 62
7
  6
BYLAYER
 70
0
 71
3
 72
11
 73
7
 74
0
 42
0.0000001
 43
0.0000001
 44
0.0000000001
 40
0.0
 40
0.0
 40
0.0
 40
0.0
 40
0.2560908008
 40
0.5115013709
 40
0.7610772924
 40
1.0
 40
1.0
 40
1.0
 40
1.0
 10
42.4332689993
 20
113.6622585278
 30
0.0
 10
41.1889930263
 20
113.7735282751
 30
0.0
 10
38.6905671846
 20
113.8678028935
 30
0.0
 10
34.9791231046
 20
113.6339966819
 30
0.0
 10
31.3938117128
 20
113.0332701816
 30
0.0
 10
29.0949603619
 20
112.3817124708
 30
0.0
 10
27.9959483058
 20
111.9937086113
 30
0.0
  0
SPLINE
  5
364
100
AcDbEntity
  8
0
100
AcDbSpline
 62
7
  6
BYLAYER
 70
0
 71
3
 72
11
 73
7
 74
0
 42
0.0000001
 43
0.0000001
 44
0.0000000001
 40
0.0
 40
0.0
 40
0.0
 40
0.0
 40
0.2915416648
 40
0.5501371718
 40
0.7815986044
 40
1.0
 40
1.0
 40
1.0
 40
1.0
 10
53.779815157
 20
95.8714887511
 30
0.0
 10
53.8269464876
 20
95.8442780803
 30
0.0
 10
53.9118483668
 20
95.7851034094
 30
0.0
 10
54.0107552879
 20
95.6756841893
 30
0.0
 10
54.0682524167
 20
95.5540332685
 30
0.0
 10
54.0751473697
 20
95.4680641545
 30
0.0
 10
54.0707834426
 20
95.4275292596
 30
0.0
  0
SPLINE
  5
365
100
AcDbEntity
  8
0
100
AcDbSpline
 62
7
  6
BYLAYER
 70
0
 71
3
 72
11
 73
7
 74
0
 42
0.0000001
 43
0.0000001
 44
0.0000000001
 40
0.0
 40
0.0
 40
0.0
 40
0.0
 40
0.254233259
 40
0.5164595385
 40
0.7700165263
 40
1.0
 40
1.0
 40
1.0
 40
1.0
 10
41.1619091403
 20
102.5995834446
 30
0.0
 10
41.2583410702
 20
102.6272775903
 30
0.0
 10
41.4605095113
 20
102.6629038191
 30
0.0
 10
41.7658871792
 20
102.6617905663
 30
0.0
 10
42.0568856313
 20
102.6084884754
 30
0.0
 10
42.2357855053
 20
102.5362866001
 30
0.0
 10
42.3143864204
 20
102.4909073673
 30
0.0
  0
SPLINE
  5
366
100
AcDbEntity
  8
0
100
AcDbSpline
 62
7
  6
BYLAYER
 70
0
 71
3
 72
11
 73
7
 74
0
 42
0.0000001
 43
0.0000001
 44
0.0000000001
 40
0.0
 40
0.0
 40
0.0
 40
0.0
 40
0.2197364988
 40
0.4603816462
 40
0.7212715769
 40
1.0
 40
1.0
 40
1.0
 40
1.0
 10
43.1867974014
 20
103.7686462488
 30
0.0
 10
43.0735998589
 20
103.6372614017
 30
0.0
 10
42.8072963002
 20
103.3864998777
 30
0.0
 10
42.3326332378
 20
103.0687178631
 30
0.0
 10
41.7770097113
 20
102.7993102896
 30
0.0
 10
41.373344326
 20
102.6603052082
 30
0.0
 10
41.1619091403
 20
102.5995834446
 30
0.0
  0
SPLINE
  5
367
100
AcDbEntity
  8
0
100
AcDbSpline
 62
7
  6
BYLAYER
 70
0
 71
3
 72
15
 73
11
 74
0
 42
0.0000001
 43
0.0000001
 44
0.0000000001
 40
0.0
 40
0.0
 40
0.0
 40
0.0
 40
0.1113125826
 40
0.223333801
 40
0.3380348571
 40
0.4571443903
 40
0.5820653849
 40
0.7138063027
 40
0.8530373098
 40
1.0
 40
1.0
 40
1.0
 40
1.0
 10
16.7008296181
 20
104.1221187418
 30
0.0
 10
16.6565690065
 20
104.5341886679
 30
0.0
 10
16.6360279173
 20
105.3699913081
 30
0.0
 10
16.8152094381
 20
106.6212337537
 30
0.0
 10
17.2016959493
 20
107.8550706378
 30
0.0
 10
17.7906544246
 20
109.0590375311
 30
0.0
 10
18.5752591875
 20
110.2222641265
 30
0.0
 10
19.5473785257
 20
111.3348275099
 30
0.0
 10
20.6975623326
 20
112.3870031148
 30
0.0
 10
21.5530991097
 20
113.0253159423
 30
0.0
 10
22.0055641207
 20
113.3330068268
 30
0.0
  0
SPLINE
  5
368
100
AcDbEntity
  8
0
100
AcDbSpline
 62
7
  6
BYLAYER
 70
0
 71
3
 72
10
 73
6
 74
0
 42
0.0000001
 43
0.0000001
 44
0.0000000001
 40
0.0
 40
0.0
 40
0.0
 40
0.0
 40
0.2373588766
 40
0.4788573624
 40
1.0
 40
1.0
 40
1.0
 40
1.0
 10
43.0840745169
 20
103.4758024071
 30
0.0
 10
43.0813755582
 20
103.5008305065
 30
0.0
 10
43.0816937535
 20
103.5521522729
 30
0.0
 10
43.1064030534
 20
103.6560307242
 30
0.0
 10
43.1507213492
 20
103.7267739034
 30
0.0
 10
43.1867974014
 20
103.7686462488
 30
0.0
  0
SPLINE
  5
369
100
AcDbEntity
  8
0
100
AcDbSpline
 62
7
  6
BYLAYER
 70
0
 71
3
 72
11
 73
7
 74
0
 42
0.0000001
 43
0.0000001
 44
0.0000000001
 40
0.0
 40
0.0
 40
0.0
 40
0.0
 40
0.2534455275
 40
0.5034938155
 40
0.7517425915
 40
1.0
 40
1.0
 40
1.0
 40
1.0
 10
61.2929294307
 20
107.2554183641
 30
0.0
 10
61.3735940217
 20
106.9999519153
 30
0.0
 10
61.5090750809
 20
106.4841929962
 30
0.0
 10
61.6318132334
 20
105.697724886
 30
0.0
 10
61.671532226
 20
104.9081925268
 30
0.0
 10
61.6426444897
 20
104.3830341597
 30
0.0
 10
61.6146317003
 20
104.1221185968
 30
0.0
  0
SPLINE
  5
36A
100
AcDbEntity
  8
0
100
AcDbSpline
 62
7
  6
BYLAYER
 70
0
 71
3
 72
9
 73
5
 74
0
 42
0.0000001
 43
0.0000001
 44
0.0000000001
 40
0.0
 40
0.0
 40
0.0
 40
0.0
 40
0.2531199313
 40
1.0
 40
1.0
 40
1.0
 40
1.0
 10
61.2750674779
 20
107.3013058449
 30
0.0
 10
61.2768171983
 20
107.2975358382
 30
0.0
 10
61.2834988647
 20
107.2825359009
 30
0.0
 10
61.2892367757
 20
107.2671130798
 30
0.0
 10
61.2929294307
 20
107.2554183641
 30
0.0
  0
SPLINE
  5
36B
100
AcDbEntity
  8
0
100
AcDbSpline
 62
7
  6
BYLAYER
 70
0
 71
3
 72
13
 73
9
 74
0
 42
0.0000001
 43
0.0000001
 44
0.0000000001
 40
0.0
 40
0.0
 40
0.0
 40
0.0
 40
0.2860075809
 40
0.4273709933
 40
0.5628496374
 40
0.6894240755
 40
0.8049520128
 40
1.0
 40
1.0
 40
1.0
 40
1.0
 10
60.0503196626
 20
107.7095453552
 30
0.0
 10
60.178678113
 20
107.7294025234
 30
0.0
 10
60.3748646411
 20
107.7365252089
 30
0.0
 10
60.6286351673
 20
107.7027930928
 30
0.0
 10
60.8064939885
 20
107.6570010063
 30
0.0
 10
60.9660451715
 20
107.5919188966
 30
0.0
 10
61.1360182562
 20
107.4896372911
 30
0.0
 10
61.2377776582
 20
107.3816517529
 30
0.0
 10
61.2750674779
 20
107.3013058449
 30
0.0
  0
SPLINE
  5
36C
100
AcDbEntity
  8
0
100
AcDbSpline
 62
7
  6
BYLAYER
 70
0
 71
3
 72
13
 73
9
 74
0
 42
0.0000001
 43
0.0000001
 44
0.0000000001
 40
0.0
 40
0.0
 40
0.0
 40
0.0
 40
0.0950571339
 40
0.1960390875
 40
0.3056788065
 40
0.4255997911
 40
0.6959209046
 40
1.0
 40
1.0
 40
1.0
 40
1.0
 10
43.649080336
 20
104.7647298855
 30
0.0
 10
43.6523446595
 20
104.7950845384
 30
0.0
 10
43.6678348507
 20
104.8569892301
 30
0.0
 10
43.7147992037
 20
104.9441412435
 30
0.0
 10
43.7842535521
 20
105.0253391554
 30
0.0
 10
43.9090940393
 20
105.1273508561
 30
0.0
 10
44.111515341
 20
105.2271947387
 30
0.0
 10
44.2918218647
 20
105.2716915145
 30
0.0
 10
44.3883354225
 20
105.2866222491
 30
0.0
  0
SPLINE
  5
36D
100
AcDbEntity
  8
0
100
AcDbSpline
 62
7
  6
BYLAYER
 70
0
 71
3
 72
9
 73
5
 74
0
 42
0.0000001
 43
0.0000001
 44
0.0000000001
 40
0.0
 40
0.0
 40
0.0
 40
0.0
 40
0.2541357164
 40
1.0
 40
1.0
 40
1.0
 40
1.0
 10
46.7307382616
 20
117.1580135953
 30
0.0
 10
47.0166607387
 20
117.0990104183
 30
0.0
 10
48.1387277003
 20
116.8525873964
 30
0.0
 10
49.2483786617
 20
116.5488058491
 30
0.0
 10
50.0644568973
 20
116.2876822321
 30
0.0
  0
SPLINE
  5
36E
100
AcDbEntity
  8
0
100
AcDbSpline
 62
7
  6
BYLAYER
 70
0
 71
3
 72
9
 73
5
 74
0
 42
0.0000001
 43
0.0000001
 44
0.0000000001
 40
0.0
 40
0.0
 40
0.0
 40
0.0
 40
0.5175117469
 40
1.0
 40
1.0
 40
1.0
 40
1.0
 10
50.0644568973
 20
116.2876822321
 30
0.0
 10
51.0910951526
 20
115.959184935
 30
0.0
 10
53.0430542529
 20
115.2182199257
 30
0.0
 10
54.8905633153
 20
114.2406382941
 30
0.0
 10
55.7410111299
 20
113.705203835
 30
0.0
  0
SPLINE
  5
36F
100
AcDbEntity
  8
0
100
AcDbSpline
 62
7
  6
BYLAYER
 70
0
 71
3
 72
11
 73
7
 74
0
 42
0.0000001
 43
0.0000001
 44
0.0000000001
 40
0.0
 40
0.0
 40
0.0
 40
0.0
 40
0.2715569003
 40
0.4656097059
 40
0.6515128993
 40
1.0
 40
1.0
 40
1.0
 40
1.0
 10
55.7410111299
 20
113.705203835
 30
0.0
 10
56.2330137204
 20
113.3954433343
 30
0.0
 10
57.054043936
 20
112.8268923525
 30
0.0
 10
58.1274622042
 20
111.9337480339
 30
0.0
 10
59.2414223786
 20
110.8409848534
 30
0.0
 10
59.952171145
 20
109.9324045906
 30
0.0
 10
60.3449147099
 20
109.2980429744
 30
0.0
  0
SPLINE
  5
370
100
AcDbEntity
  8
0
100
AcDbSpline
 62
7
  6
BYLAYER
 70
0
 71
3
 72
13
 73
9
 74
0
 42
0.0000001
 43
0.0000001
 44
0.0000000001
 40
0.0
 40
0.0
 40
0.0
 40
0.0
 40
0.1950474105
 40
0.3105750831
 40
0.4371493579
 40
0.5726279869
 40
0.7139915558
 40
1.0
 40
1.0
 40
1.0
 40
1.0
 10
45.4282331527
 20
116.7637810888
 30
0.0
 10
45.4655217566
 20
116.8441270532
 30
0.0
 10
45.5672796306
 20
116.9521131931
 30
0.0
 10
45.7372511944
 20
117.054395583
 30
0.0
 10
45.8968014319
 20
117.1194784782
 30
0.0
 10
46.0746595977
 20
117.1652714321
 30
0.0
 10
46.3284298428
 20
117.1990048027
 30
0.0
 10
46.5246164306
 20
117.1918830246
 30
0.0
 10
46.6529750801
 20
117.172026487
 30
0.0
  0
SPLINE
  5
371
100
AcDbEntity
  8
0
100
AcDbSpline
 62
7
  6
BYLAYER
 70
0
 71
3
 72
11
 73
7
 74
0
 42
0.0000001
 43
0.0000001
 44
0.0000000001
 40
0.0
 40
0.0
 40
0.0
 40
0.0
 40
0.2569843432
 40
0.5132818909
 40
0.7628165349
 40
1.0
 40
1.0
 40
1.0
 40
1.0
 10
42.9069905916
 20
114.6800955621
 30
0.0
 10
41.5104077005
 20
114.8182863515
 30
0.0
 10
38.7032494203
 20
114.938022078
 30
0.0
 10
34.5384911082
 20
114.6616612375
 30
0.0
 10
30.5367647806
 20
113.9408516471
 30
0.0
 10
27.9883294262
 20
113.15501733
 30
0.0
 10
26.7807548533
 20
112.6865227307
 30
0.0
  0
SPLINE
  5
372
100
AcDbEntity
  8
0
100
AcDbSpline
 62
7
  6
BYLAYER
 70
0
 71
3
 72
14
 73
10
 74
0
 42
0.0000001
 43
0.0000001
 44
0.0000000001
 40
0.0
 40
0.0
 40
0.0
 40
0.0
 40
0.3100736398
 40
0.4523521114
 40
0.583074695
 40
0.7014133449
 40
0.8081173383
 40
0.9059866866
 40
1.0
 40
1.0
 40
1.0
 40
1.0
 10
43.1927501836
 20
117.7053253164
 30
0.0
 10
43.3073538929
 20
117.6932640316
 30
0.0
 10
43.4739176179
 20
117.6586558717
 30
0.0
 10
43.6743116848
 20
117.5748038986
 30
0.0
 10
43.7993878366
 20
117.4993417429
 30
0.0
 10
43.8995083627
 20
117.4117278477
 30
0.0
 10
43.9712941025
 20
117.3140743548
 30
0.0
 10
44.0114762494
 20
117.2090040501
 30
0.0
 10
44.0152204391
 20
117.1363661511
 30
0.0
 10
44.011473421
 20
117.1016282793
 30
0.0
  0
SPLINE
  5
373
100
AcDbEntity
  8
0
100
AcDbSpline
 62
7
  6
BYLAYER
 70
0
 71
3
 72
9
 73
5
 74
0
 42
0.0000001
 43
0.0000001
 44
0.0000000001
 40
0.0
 40
0.0
 40
0.0
 40
0.0
 40
0.2456369108
 40
1.0
 40
1.0
 40
1.0
 40
1.0
 10
24.595537478
 20
114.8283197159
 30
0.0
 10
24.7489572344
 20
114.9035210106
 30
0.0
 10
25.3768249574
 20
115.2029310259
 30
0.0
 10
26.0172584206
 20
115.4758545959
 30
0.0
 10
26.5056778388
 20
115.6676210063
 30
0.0
  0
SPLINE
  5
374
100
AcDbEntity
  8
0
100
AcDbSpline
 62
7
  6
BYLAYER
 70
0
 71
3
 72
11
 73
7
 74
0
 42
0.0000001
 43
0.0000001
 44
0.0000000001
 40
0.0
 40
0.0
 40
0.0
 40
0.0
 40
0.2370114873
 40
0.4853312784
 40
0.7410903392
 40
1.0
 40
1.0
 40
1.0
 40
1.0
 10
26.5056778388
 20
115.6676210063
 30
0.0
 10
27.5328707791
 20
116.0709241833
 30
0.0
 10
29.6873963898
 20
116.7704550766
 30
0.0
 10
33.0678933391
 20
117.4887524097
 30
0.0
 10
36.6030942197
 20
117.8878526237
 30
0.0
 10
39.0029891814
 20
117.9342797495
 30
0.0
 10
40.2080389315
 20
117.9017595387
 30
0.0
  0
SPLINE
  5
375
100
AcDbEntity
  8
0
100
AcDbSpline
 62
7
  6
BYLAYER
 70
0
 71
3
 72
13
 73
9
 74
0
 42
0.0000001
 43
0.0000001
 44
0.0000000001
 40
0.0
 40
0.0
 40
0.0
 40
0.0
 40
0.111010262
 40
0.2324259761
 40
0.4946543272
 40
0.7598408824
 40
0.8846859788
 40
1.0
 40
1.0
 40
1.0
 40
1.0
 10
22.0055641207
 20
113.3330068268
 30
0.0
 10
22.0524522157
 20
113.3648922522
 30
0.0
 10
22.1575069151
 20
113.4217585987
 30
0.0
 10
22.3964396385
 20
113.5061417595
 30
0.0
 10
22.7283609682
 20
113.5516530532
 30
0.0
 10
23.0635344129
 20
113.5211798643
 30
0.0
 10
23.3119312885
 20
113.4485713592
 30
0.0
 10
23.4239765011
 20
113.3970438895
 30
0.0
 10
23.4749863814
 20
113.3675939876
 30
0.0
  0
SPLINE
  5
376
100
AcDbEntity
  8
0
100
AcDbSpline
 62
7
  6
BYLAYER
 70
0
 71
3
 72
9
 73
5
 74
0
 42
0.0000001
 43
0.0000001
 44
0.0000000001
 40
0.0
 40
0.0
 40
0.0
 40
0.0
 40
0.4965900267
 40
1.0
 40
1.0
 40
1.0
 40
1.0
 10
61.3139327474
 20
102.7799198059
 30
0.0
 10
61.2878558089
 20
103.0443113524
 30
0.0
 10
61.2067888548
 20
103.5742677726
 30
0.0
 10
61.0710794639
 20
104.0928460128
 30
0.0
 10
60.9899860883
 20
104.3496704313
 30
0.0
  0
SPLINE
  5
377
100
AcDbEntity
  8
0
100
AcDbSpline
 62
7
  6
BYLAYER
 70
0
 71
3
 72
11
 73
7
 74
0
 42
0.0000001
 43
0.0000001
 44
0.0000000001
 40
0.0
 40
0.0
 40
0.0
 40
0.0
 40
0.2184018267
 40
0.449863435
 40
0.7084588259
 40
1.0
 40
1.0
 40
1.0
 40
1.0
 10
24.2446738419
 20
114.3524890343
 30
0.0
 10
24.2403099599
 20
114.3930235205
 30
0.0
 10
24.2472046799
 20
114.4789916805
 30
0.0
 10
24.3047004845
 20
114.6006414978
 30
0.0
 10
24.4036054361
 20
114.7100599804
 30
0.0
 10
24.4885057625
 20
114.7692344901
 30
0.0
 10
24.5356362492
 20
114.7964451268
 30
0.0
  0
SPLINE
  5
378
100
AcDbEntity
  8
0
100
AcDbSpline
 62
7
  6
BYLAYER
 70
0
 71
3
 72
9
 73
5
 74
0
 42
0.0000001
 43
0.0000001
 44
0.0000000001
 40
0.0
 40
0.0
 40
0.0
 40
0.0
 40
0.2640492606
 40
1.0
 40
1.0
 40
1.0
 40
1.0
 10
35.6053105818
 20
98.9526236978
 30
0.0
 10
35.5039385087
 20
99.0005784301
 30
0.0
 10
35.1252605662
 20
99.1926960375
 30
0.0
 10
34.7676593628
 20
99.4290238305
 30
0.0
 10
34.5289805004
 20
99.6308320033
 30
0.0
  0
SPLINE
  5
379
100
AcDbEntity
  8
0
100
AcDbSpline
 62
7
  6
BYLAYER
 70
0
 71
3
 72
9
 73
5
 74
0
 42
0.0000001
 43
0.0000001
 44
0.0000000001
 40
0.0
 40
0.0
 40
0.0
 40
0.0
 40
0.2642117619
 40
1.0
 40
1.0
 40
1.0
 40
1.0
 10
36.0600151597
 20
99.9289708947
 30
0.0
 10
35.9741042617
 20
99.9707516251
 30
0.0
 10
35.6535605957
 20
100.1378916624
 30
0.0
 10
35.3515886941
 20
100.3429526076
 30
0.0
 10
35.1509266886
 20
100.5176308822
 30
0.0
  0
SPLINE
  5
37A
100
AcDbEntity
  8
0
100
AcDbSpline
 62
7
  6
BYLAYER
 70
0
 71
3
 72
11
 73
7
 74
0
 42
0.0000001
 43
0.0000001
 44
0.0000000001
 40
0.0
 40
0.0
 40
0.0
 40
0.0
 40
0.2569507408
 40
0.5080464715
 40
0.7550457027
 40
1.0
 40
1.0
 40
1.0
 40
1.0
 10
61.7604181971
 20
101.429184461
 30
0.0
 10
61.8906969752
 20
101.7098968762
 30
0.0
 10
62.1210581914
 20
102.2781280505
 30
0.0
 10
62.3725372957
 20
103.1538242128
 30
0.0
 10
62.5239760726
 20
104.037657686
 30
0.0
 10
62.5577065513
 20
104.6307024078
 30
0.0
 10
62.5577125068
 20
104.9257244824
 30
0.0
  0
SPLINE
  5
37B
100
AcDbEntity
  8
0
100
AcDbSpline
 62
7
  6
BYLAYER
 70
0
 71
3
 72
9
 73
5
 74
0
 42
0.0000001
 43
0.0000001
 44
0.0000000001
 40
0.0
 40
0.0
 40
0.0
 40
0.0
 40
0.4443524906
 40
1.0
 40
1.0
 40
1.0
 40
1.0
 10
35.1509266886
 20
100.5176308822
 30
0.0
 10
35.1040609486
 20
100.4819441299
 30
0.0
 10
34.9947983711
 20
100.4066219019
 30
0.0
 10
34.8811341417
 20
100.3382648513
 30
0.0
 10
34.8171009309
 20
100.301856446
 30
0.0
  0
SPLINE
  5
37C
100
AcDbEntity
  8
0
100
AcDbSpline
 62
7
  6
BYLAYER
 70
0
 71
3
 72
10
 73
6
 74
0
 42
0.0000001
 43
0.0000001
 44
0.0000000001
 40
0.0
 40
0.0
 40
0.0
 40
0.0
 40
0.5527311818
 40
0.7926406018
 40
1.0
 40
1.0
 40
1.0
 40
1.0
 10
34.8171009309
 20
100.301856446
 30
0.0
 10
34.7798824423
 20
100.1721956552
 30
0.0
 10
34.7143649971
 20
99.9893746988
 30
0.0
 10
34.6101445495
 20
99.7685946765
 30
0.0
 10
34.5563201965
 20
99.6734185932
 30
0.0
 10
34.5289805004
 20
99.6308320033
 30
0.0
  0
SPLINE
  5
37D
100
AcDbEntity
  8
0
100
AcDbSpline
 62
7
  6
BYLAYER
 70
0
 71
3
 72
9
 73
5
 74
0
 42
0.0000001
 43
0.0000001
 44
0.0000000001
 40
0.0
 40
0.0
 40
0.0
 40
0.0
 40
0.2390748847
 40
1.0
 40
1.0
 40
1.0
 40
1.0
 10
55.5626742705
 20
95.4545389799
 30
0.0
 10
55.5658037454
 20
95.4563457723
 30
0.0
 10
55.5791129864
 20
95.4635212381
 30
0.0
 10
55.5931823818
 20
95.469248599
 30
0.0
 10
55.6040927641
 20
95.4728878581
 30
0.0
  0
SPLINE
  5
37E
100
AcDbEntity
  8
0
100
AcDbSpline
 62
7
  6
BYLAYER
 70
0
 71
3
 72
9
 73
5
 74
0
 42
0.0000001
 43
0.0000001
 44
0.0000000001
 40
0.0
 40
0.0
 40
0.0
 40
0.0
 40
0.2434272519
 40
1.0
 40
1.0
 40
1.0
 40
1.0
 10
55.6040927641
 20
95.4728878581
 30
0.0
 10
55.6079134144
 20
95.4741622714
 30
0.0
 10
55.6237283405
 20
95.4790350069
 30
0.0
 10
55.6399641683
 20
95.4825132752
 30
0.0
 10
55.6523351262
 20
95.484424812
 30
0.0
  0
SPLINE
  5
37F
100
AcDbEntity
  8
0
100
AcDbSpline
 62
7
  6
BYLAYER
 70
0
 71
3
 72
11
 73
7
 74
0
 42
0.0000001
 43
0.0000001
 44
0.0000000001
 40
0.0
 40
0.0
 40
0.0
 40
0.0
 40
0.2485348059
 40
0.4968483707
 40
0.7467897646
 40
1.0
 40
1.0
 40
1.0
 40
1.0
 10
60.5014022854
 20
100.5996152838
 30
0.0
 10
60.5314902751
 20
100.8496608064
 30
0.0
 10
60.5654776635
 20
101.3530912671
 30
0.0
 10
60.5361356235
 20
102.1106425135
 30
0.0
 10
60.4264075243
 20
102.8655428744
 30
0.0
 10
60.3012019857
 20
103.3608543972
 30
0.0
 10
60.2260685805
 20
103.606194736
 30
0.0
  0
SPLINE
  5
380
100
AcDbEntity
  8
0
100
AcDbSpline
 62
7
  6
BYLAYER
 70
0
 71
3
 72
9
 73
5
 74
0
 42
0.0000001
 43
0.0000001
 44
0.0000000001
 40
0.0
 40
0.0
 40
0.0
 40
0.0
 40
0.7420567429
 40
1.0
 40
1.0
 40
1.0
 40
1.0
 10
55.5040962155
 20
95.3728903482
 30
0.0
 10
55.5040961606
 20
95.3805051689
 30
0.0
 10
55.5059398685
 20
95.3908598386
 30
0.0
 10
55.509797284
 20
95.4003722665
 30
0.0
 10
55.5109104975
 20
95.4027737519
 30
0.0
  0
SPLINE
  5
381
100
AcDbEntity
  8
0
100
AcDbSpline
 62
7
  6
BYLAYER
 70
0
 71
3
 72
9
 73
5
 74
0
 42
0.0000001
 43
0.0000001
 44
0.0000000001
 40
0.0
 40
0.0
 40
0.0
 40
0.0
 40
0.2376275419
 40
1.0
 40
1.0
 40
1.0
 40
1.0
 10
55.5109104975
 20
95.4027737519
 30
0.0
 10
55.5120558496
 20
95.4052445686
 30
0.0
 10
55.5174059346
 20
95.4153961286
 30
0.0
 10
55.5247126392
 20
95.4244501019
 30
0.0
 10
55.5308929718
 20
95.4306261905
 30
0.0
  0
SPLINE
  5
382
100
AcDbEntity
  8
0
100
AcDbSpline
 62
7
  6
BYLAYER
 70
0
 71
3
 72
9
 73
5
 74
0
 42
0.0000001
 43
0.0000001
 44
0.0000000001
 40
0.0
 40
0.0
 40
0.0
 40
0.0
 40
0.2369538389
 40
1.0
 40
1.0
 40
1.0
 40
1.0
 10
55.5308929718
 20
95.4306261905
 30
0.0
 10
55.5331187152
 20
95.4328504056
 30
0.0
 10
55.542875137
 20
95.4418722801
 30
0.0
 10
55.5538990238
 20
95.4494726191
 30
0.0
 10
55.5626742705
 20
95.4545389799
 30
0.0
  0
SPLINE
  5
383
100
AcDbEntity
  8
0
100
AcDbSpline
 62
7
  6
BYLAYER
 70
0
 71
3
 72
11
 73
7
 74
0
 42
0.0000001
 43
0.0000001
 44
0.0000000001
 40
0.0
 40
0.0
 40
0.0
 40
0.0
 40
0.2236757578
 40
0.4630811893
 40
0.7214443359
 40
1.0
 40
1.0
 40
1.0
 40
1.0
 10
34.7991360943
 20
104.7983282151
 30
0.0
 10
34.841364382
 20
104.6838387921
 30
0.0
 10
34.9549424645
 20
104.4559040025
 30
0.0
 10
35.1944719322
 20
104.1412367669
 30
0.0
 10
35.5029559574
 20
103.8487627558
 30
0.0
 10
35.7420712298
 20
103.6779663444
 30
0.0
 10
35.8705970982
 20
103.5968752498
 30
0.0
  0
SPLINE
  5
384
100
AcDbEntity
  8
0
100
AcDbSpline
 62
7
  6
BYLAYER
 70
0
 71
3
 72
9
 73
5
 74
0
 42
0.0000001
 43
0.0000001
 44
0.0000000001
 40
0.0
 40
0.0
 40
0.0
 40
0.0
 40
0.236828439
 40
1.0
 40
1.0
 40
1.0
 40
1.0
 10
60.9899860883
 20
104.3496704313
 30
0.0
 10
60.9887021295
 20
104.348240018
 30
0.0
 10
60.9831790961
 20
104.3422914439
 30
0.0
 10
60.9772855089
 20
104.3366924159
 30
0.0
 10
60.9726489963
 20
104.332585243
 30
0.0
  0
SPLINE
  5
385
100
AcDbEntity
  8
0
100
AcDbSpline
 62
7
  6
BYLAYER
 70
0
 71
3
 72
10
 73
6
 74
0
 42
0.0000001
 43
0.0000001
 44
0.0000000001
 40
0.0
 40
0.0
 40
0.0
 40
0.0
 40
0.1736654678
 40
0.3958575717
 40
1.0
 40
1.0
 40
1.0
 40
1.0
 10
60.9726489956
 20
104.3325852361
 30
0.0
 10
60.9570927224
 20
104.3188049857
 30
0.0
 10
60.9181949318
 20
104.2913382188
 30
0.0
 10
60.8129425406
 20
104.2341847851
 30
0.0
 10
60.7204064882
 20
104.1981931199
 30
0.0
 10
60.6521994118
 20
104.1742244349
 30
0.0
  0
SPLINE
  5
386
100
AcDbEntity
  8
0
100
AcDbSpline
 62
7
  6
BYLAYER
 70
0
 71
3
 72
9
 73
5
 74
0
 42
0.0000001
 43
0.0000001
 44
0.0000000001
 40
0.0
 40
0.0
 40
0.0
 40
0.0
 40
0.535509468
 40
1.0
 40
1.0
 40
1.0
 40
1.0
 10
60.6521994118
 20
104.1742244349
 30
0.0
 10
60.5936437273
 20
104.0612695256
 30
0.0
 10
60.4665148909
 20
103.859146317
 30
0.0
 10
60.3078229317
 20
103.6803225823
 30
0.0
 10
60.2260685805
 20
103.606194736
 30
0.0
  0
SPLINE
  5
387
100
AcDbEntity
  8
0
100
AcDbSpline
 62
7
  6
BYLAYER
 70
0
 71
3
 72
9
 73
5
 74
0
 42
0.0000001
 43
0.0000001
 44
0.0000000001
 40
0.0
 40
0.0
 40
0.0
 40
0.0
 40
0.2557474966
 40
1.0
 40
1.0
 40
1.0
 40
1.0
 10
33.1532201003
 20
91.9877761821
 30
0.0
 10
33.1574008562
 20
91.9871294369
 30
0.0
 10
33.1736948742
 20
91.984275582
 30
0.0
 10
33.1897728401
 20
91.9801323271
 30
0.0
 10
33.2014530579
 20
91.9762416705
 30
0.0
  0
SPLINE
  5
388
100
AcDbEntity
  8
0
100
AcDbSpline
 62
7
  6
BYLAYER
 70
0
 71
3
 72
9
 73
5
 74
0
 42
0.0000001
 43
0.0000001
 44
0.0000000001
 40
0.0
 40
0.0
 40
0.0
 40
0.0
 40
0.2604785095
 40
1.0
 40
1.0
 40
1.0
 40
1.0
 10
33.2014530579
 20
91.9762416705
 30
0.0
 10
33.2051889791
 20
91.9749972427
 30
0.0
 10
33.2194193812
 20
91.9698975863
 30
0.0
 10
33.2331995105
 20
91.9634814737
 30
0.0
 10
33.2428799171
 20
91.9578893112
 30
0.0
  0
SPLINE
  5
389
100
AcDbEntity
  8
0
100
AcDbSpline
 62
7
  6
BYLAYER
 70
0
 71
3
 72
9
 73
5
 74
0
 42
0.0000001
 43
0.0000001
 44
0.0000000001
 40
0.0
 40
0.0
 40
0.0
 40
0.0
 40
0.2639883107
 40
1.0
 40
1.0
 40
1.0
 40
1.0
 10
33.2428799171
 20
91.9578893112
 30
0.0
 10
33.2459150962
 20
91.9561359536
 30
0.0
 10
33.2572193604
 20
91.9491751933
 30
0.0
 10
33.2677513212
 20
91.9408870365
 30
0.0
 10
33.27466176
 20
91.9339767629
 30
0.0
  0
SPLINE
  5
38A
100
AcDbEntity
  8
0
100
AcDbSpline
 62
7
  6
BYLAYER
 70
0
 71
3
 72
9
 73
5
 74
0
 42
0.0000001
 43
0.0000001
 44
0.0000000001
 40
0.0
 40
0.0
 40
0.0
 40
0.0
 40
0.2429862767
 40
1.0
 40
1.0
 40
1.0
 40
1.0
 10
33.0014563745
 20
91.9762404751
 30
0.0
 10
33.0052695893
 20
91.9775115407
 30
0.0
 10
33.021082862
 20
91.9823782107
 30
0.0
 10
33.037314291
 20
91.9858584027
 30
0.0
 10
33.0496892618
 20
91.9877750846
 30
0.0
  0
SPLINE
  5
38B
100
AcDbEntity
  8
0
100
AcDbSpline
 62
7
  6
BYLAYER
 70
0
 71
3
 72
9
 73
5
 74
0
 42
0.0000001
 43
0.0000001
 44
0.0000000001
 40
0.0
 40
0.0
 40
0.0
 40
0.0
 40
0.480249453
 40
1.0
 40
1.0
 40
1.0
 40
1.0
 10
60.1300206026
 20
104.6639553729
 30
0.0
 10
60.2203297035
 20
104.5932144366
 30
0.0
 10
60.4019238552
 20
104.4376362793
 30
0.0
 10
60.5703013516
 20
104.2675336321
 30
0.0
 10
60.6521994118
 20
104.1742244349
 30
0.0
  0
SPLINE
  5
38C
100
AcDbEntity
  8
0
100
AcDbSpline
 62
7
  6
BYLAYER
 70
0
 71
3
 72
9
 73
5
 74
0
 42
0.0000001
 43
0.0000001
 44
0.0000000001
 40
0.0
 40
0.0
 40
0.0
 40
0.0
 40
0.4404563195
 40
1.0
 40
1.0
 40
1.0
 40
1.0
 10
22.2403094073
 20
110.3440807479
 30
0.0
 10
22.3135528344
 20
110.2977868244
 30
0.0
 10
22.4817094505
 20
110.1956583904
 30
0.0
 10
22.6506756706
 20
110.0949237499
 30
0.0
 10
22.7450668977
 20
110.0382967493
 30
0.0
  0
SPLINE
  5
38D
100
AcDbEntity
  8
0
100
AcDbSpline
 62
7
  6
BYLAYER
 70
0
 71
3
 72
15
 73
11
 74
0
 42
0.0000001
 43
0.0000001
 44
0.0000000001
 40
0.0
 40
0.0
 40
0.0
 40
0.0
 40
0.1450661946
 40
0.2835239243
 40
0.4154703648
 40
0.5413258402
 40
0.6617161754
 40
0.7775127457
 40
0.8898349957
 40
1.0
 40
1.0
 40
1.0
 40
1.0
 10
22.2403094073
 20
110.3440807479
 30
0.0
 10
21.850977874
 20
110.0793226762
 30
0.0
 10
21.1094357903
 20
109.5324242037
 30
0.0
 10
20.0953728144
 20
108.6409688552
 30
0.0
 10
19.2123533076
 20
107.7030102374
 30
0.0
 10
18.4667997788
 20
106.7248717267
 30
0.0
 10
17.8640901257
 20
105.7129551071
 30
0.0
 10
17.4090052977
 20
104.6739381001
 30
0.0
 10
17.1055065496
 20
103.6153779899
 30
0.0
 10
17.0053965251
 20
102.8973162185
 30
0.0
 10
16.9818117392
 20
102.5405450222
 30
0.0
  0
SPLINE
  5
38E
100
AcDbEntity
  8
0
100
AcDbSpline
 62
7
  6
BYLAYER
 70
0
 71
3
 72
9
 73
5
 74
0
 42
0.0000001
 43
0.0000001
 44
0.0000000001
 40
0.0
 40
0.0
 40
0.0
 40
0.0
 40
0.5576913523
 40
1.0
 40
1.0
 40
1.0
 40
1.0
 10
22.7450668977
 20
110.0382967493
 30
0.0
 10
22.7482901507
 20
109.9195143665
 30
0.0
 10
22.7555715448
 20
109.7065633931
 30
0.0
 10
22.7673321244
 20
109.49378458
 30
0.0
 10
22.7744021155
 20
109.399808388
 30
0.0
  0
SPLINE
  5
38F
100
AcDbEntity
  8
0
100
AcDbSpline
 62
7
  6
BYLAYER
 70
0
 71
3
 72
9
 73
5
 74
0
 42
0.0000001
 43
0.0000001
 44
0.0000000001
 40
0.0
 40
0.0
 40
0.0
 40
0.0
 40
0.2095175599
 40
1.0
 40
1.0
 40
1.0
 40
1.0
 10
23.2572436536
 20
110.3680172768
 30
0.0
 10
23.2215793426
 20
110.3448264677
 30
0.0
 10
23.0509586736
 20
110.2347554594
 30
0.0
 10
22.8796766511
 20
110.1257111536
 30
0.0
 10
22.7450668977
 20
110.0382967493
 30
0.0
  0
SPLINE
  5
390
100
AcDbEntity
  8
0
100
AcDbSpline
 62
7
  6
BYLAYER
 70
0
 71
3
 72
14
 73
10
 74
0
 42
0.0000001
 43
0.0000001
 44
0.0000000001
 40
0.0
 40
0.0
 40
0.0
 40
0.0
 40
0.2824256756
 40
0.4143017878
 40
0.5402873692
 40
0.6609535617
 40
0.7770872936
 40
0.8897031955
 40
1.0
 40
1.0
 40
1.0
 40
1.0
 10
22.7744021155
 20
109.399808388
 30
0.0
 10
22.0703466808
 20
108.9158321352
 30
0.0
 10
21.0851686995
 20
108.128484889
 30
0.0
 10
19.9609045513
 20
106.9393979866
 30
0.0
 10
19.2598691975
 20
106.0312558353
 30
0.0
 10
18.6868505683
 20
105.0925266695
 30
0.0
 10
18.2459625589
 20
104.1288510904
 30
0.0
 10
17.9407086702
 20
103.1467588506
 30
0.0
 10
17.8284436612
 20
102.4793083069
 30
0.0
 10
17.7961861114
 20
102.1472156301
 30
0.0
  0
SPLINE
  5
391
100
AcDbEntity
  8
0
100
AcDbSpline
 62
7
  6
BYLAYER
 70
0
 71
3
 72
11
 73
7
 74
0
 42
0.0000001
 43
0.0000001
 44
0.0000000001
 40
0.0
 40
0.0
 40
0.0
 40
0.0
 40
0.1719302666
 40
0.3937388633
 40
0.6688751499
 40
1.0
 40
1.0
 40
1.0
 40
1.0
 10
45.7256768205
 20
113.8439041786
 30
0.0
 10
45.742991234
 20
113.8275809839
 30
0.0
 10
45.7868270376
 20
113.7947267122
 30
0.0
 10
45.8668412131
 20
113.7480168698
 30
0.0
 10
45.9702022398
 20
113.6982610388
 30
0.0
 10
46.0478533498
 20
113.6663654679
 30
0.0
 10
46.0906119072
 20
113.6498736453
 30
0.0
  0
SPLINE
  5
392
100
AcDbEntity
  8
0
100
AcDbSpline
 62
7
  6
BYLAYER
 70
0
 71
3
 72
9
 73
5
 74
0
 42
0.0000001
 43
0.0000001
 44
0.0000000001
 40
0.0
 40
0.0
 40
0.0
 40
0.0
 40
0.540696271
 40
1.0
 40
1.0
 40
1.0
 40
1.0
 10
46.0906119072
 20
113.6498736453
 30
0.0
 10
46.1430654664
 20
113.5357500087
 30
0.0
 10
46.2552384053
 20
113.3313927899
 30
0.0
 10
46.3944745518
 20
113.1441304051
 30
0.0
 10
46.4659442099
 20
113.0649113455
 30
0.0
  0
SPLINE
  5
393
100
AcDbEntity
  8
0
100
AcDbSpline
 62
7
  6
BYLAYER
 70
0
 71
3
 72
9
 73
5
 74
0
 42
0.0000001
 43
0.0000001
 44
0.0000000001
 40
0.0
 40
0.0
 40
0.0
 40
0.0
 40
0.4804652057
 40
1.0
 40
1.0
 40
1.0
 40
1.0
 10
46.5719434607
 20
114.0754910048
 30
0.0
 10
46.4899893494
 20
114.0131423362
 30
0.0
 10
46.3239582282
 20
113.8773603196
 30
0.0
 10
46.1677868998
 20
113.7301388018
 30
0.0
 10
46.0906119073
 20
113.6498736453
 30
0.0
  0
SPLINE
  5
394
100
AcDbEntity
  8
0
100
AcDbSpline
 62
7
  6
BYLAYER
 70
0
 71
3
 72
13
 73
9
 74
0
 42
0.0000001
 43
0.0000001
 44
0.0000000001
 40
0.0
 40
0.0
 40
0.0
 40
0.0
 40
0.2191506603
 40
0.3371494641
 40
0.4605223139
 40
0.5889695309
 40
0.7220674085
 40
1.0
 40
1.0
 40
1.0
 40
1.0
 10
58.4581444272
 20
108.3758446094
 30
0.0
 10
57.775740308
 20
109.0700341952
 30
0.0
 10
56.6084256535
 20
110.0262953414
 30
0.0
 10
54.8781798331
 20
111.119064371
 30
0.0
 10
53.4244673397
 20
111.8877683173
 30
0.0
 10
51.8591476658
 20
112.5787640207
 30
0.0
 10
49.6071413957
 20
113.4013150587
 30
0.0
 10
47.8361533001
 20
113.8672358601
 30
0.0
 10
46.6270937152
 20
114.1167383037
 30
0.0
  0
SPLINE
  5
395
100
AcDbEntity
  8
0
100
AcDbSpline
 62
7
  6
BYLAYER
 70
0
 71
3
 72
11
 73
7
 74
0
 42
0.0000001
 43
0.0000001
 44
0.0000000001
 40
0.0
 40
0.0
 40
0.0
 40
0.0
 40
0.2227837296
 40
0.4651603078
 40
0.7252786778
 40
1.0
 40
1.0
 40
1.0
 40
1.0
 10
57.104571449
 20
108.1801098639
 30
0.0
 10
56.4484444682
 20
108.7637997031
 30
0.0
 10
54.9657490328
 20
109.8585164194
 30
0.0
 10
52.4368001099
 20
111.2085956317
 30
0.0
 10
49.5696462728
 20
112.3075385067
 30
0.0
 10
47.5257714232
 20
112.8425261454
 30
0.0
 10
46.4659442099
 20
113.0649113455
 30
0.0
  0
SPLINE
  5
396
100
AcDbEntity
  8
0
100
AcDbSpline
 62
7
  6
BYLAYER
 70
0
 71
3
 72
9
 73
5
 74
0
 42
0.0000001
 43
0.0000001
 44
0.0000000001
 40
0.0
 40
0.0
 40
0.0
 40
0.0
 40
0.4730292841
 40
1.0
 40
1.0
 40
1.0
 40
1.0
 10
41.2990556571
 20
99.5665414571
 30
0.0
 10
41.3638560126
 20
99.5163399476
 30
0.0
 10
41.4991207054
 20
99.4079851319
 30
0.0
 10
41.6318675917
 20
99.2965670438
 30
0.0
 10
41.7010332287
 20
99.2369413727
 30
0.0
  0
SPLINE
  5
397
100
AcDbEntity
  8
0
100
AcDbSpline
 62
7
  6
BYLAYER
 70
0
 71
3
 72
10
 73
6
 74
0
 42
0.0000001
 43
0.0000001
 44
0.0000000001
 40
0.0
 40
0.0
 40
0.0
 40
0.0
 40
0.5314115886
 40
0.7755594105
 40
1.0
 40
1.0
 40
1.0
 40
1.0
 10
39.0932852816
 20
98.8335204102
 30
0.0
 10
39.1523981766
 20
98.7079382178
 30
0.0
 10
39.2610487923
 20
98.533796683
 30
0.0
 10
39.4378747966
 20
98.3409911571
 30
0.0
 10
39.5324218647
 20
98.2623679971
 30
0.0
 10
39.580529517
 20
98.2288696203
 30
0.0
  0
SPLINE
  5
398
100
AcDbEntity
  8
0
100
AcDbSpline
 62
7
  6
BYLAYER
 70
0
 71
3
 72
9
 73
5
 74
0
 42
0.0000001
 43
0.0000001
 44
0.0000000001
 40
0.0
 40
0.0
 40
0.0
 40
0.0
 40
0.491730325
 40
1.0
 40
1.0
 40
1.0
 40
1.0
 10
39.4557055138
 20
99.2813735252
 30
0.0
 10
39.3900390388
 20
99.2133821485
 30
0.0
 10
39.2625066418
 20
99.0692407774
 30
0.0
 10
39.1474034575
 20
98.9148671748
 30
0.0
 10
39.0932852816
 20
98.8335204102
 30
0.0
  0
SPLINE
  5
399
100
AcDbEntity
  8
0
100
AcDbSpline
 62
7
  6
BYLAYER
 70
0
 71
3
 72
9
 73
5
 74
0
 42
0.0000001
 43
0.0000001
 44
0.0000000001
 40
0.0
 40
0.0
 40
0.0
 40
0.0
 40
0.4912886262
 40
1.0
 40
1.0
 40
1.0
 40
1.0
 10
41.2990556571
 20
99.5665414571
 30
0.0
 10
41.0049217745
 20
99.482069575
 30
0.0
 10
40.3941462686
 20
99.3505362206
 30
0.0
 10
39.7723779598
 20
99.2927263252
 30
0.0
 10
39.4557055138
 20
99.2813735252
 30
0.0
  0
SPLINE
  5
39A
100
AcDbEntity
  8
0
100
AcDbSpline
 62
7
  6
BYLAYER
 70
0
 71
3
 72
10
 73
6
 74
0
 42
0.0000001
 43
0.0000001
 44
0.0000000001
 40
0.0
 40
0.0
 40
0.0
 40
0.0
 40
0.5613068582
 40
0.7990959882
 40
1.0
 40
1.0
 40
1.0
 40
1.0
 10
41.7010332287
 20
99.2369413727
 30
0.0
 10
41.6892932771
 20
99.1049770001
 30
0.0
 10
41.6673721827
 20
98.9173894941
 30
0.0
 10
41.624175104
 20
98.6852829734
 30
0.0
 10
41.5994888319
 20
98.5846122459
 30
0.0
 10
41.5860755026
 20
98.5391293954
 30
0.0
  0
SPLINE
  5
39B
100
AcDbEntity
  8
0
100
AcDbSpline
 62
7
  6
BYLAYER
 70
0
 71
3
 72
9
 73
5
 74
0
 42
0.0000001
 43
0.0000001
 44
0.0000000001
 40
0.0
 40
0.0
 40
0.0
 40
0.0
 40
0.2151605381
 40
1.0
 40
1.0
 40
1.0
 40
1.0
 10
42.0966436927
 20
99.4913306564
 30
0.0
 10
42.0683637016
 20
99.4729415202
 30
0.0
 10
41.9366794894
 20
99.3878553058
 30
0.0
 10
41.8044987903
 20
99.3035419019
 30
0.0
 10
41.7010332287
 20
99.2369413727
 30
0.0
  0
SPLINE
  5
39C
100
AcDbEntity
  8
0
100
AcDbSpline
 62
7
  6
BYLAYER
 70
0
 71
3
 72
9
 73
5
 74
0
 42
0.0000001
 43
0.0000001
 44
0.0000000001
 40
0.0
 40
0.0
 40
0.0
 40
0.0
 40
0.49187661
 40
1.0
 40
1.0
 40
1.0
 40
1.0
 10
41.5860755026
 20
98.5391293954
 30
0.0
 10
41.2649453088
 20
98.4500038518
 30
0.0
 10
40.6003205388
 20
98.3095212936
 30
0.0
 10
39.9244781522
 20
98.2438918557
 30
0.0
 10
39.580529517
 20
98.2288696203
 30
0.0
  0
SPLINE
  5
39D
100
AcDbEntity
  8
0
100
AcDbSpline
 62
7
  6
BYLAYER
 70
0
 71
3
 72
9
 73
5
 74
0
 42
0.0000001
 43
0.0000001
 44
0.0000000001
 40
0.0
 40
0.0
 40
0.0
 40
0.0
 40
0.4205167951
 40
1.0
 40
1.0
 40
1.0
 40
1.0
 10
38.8301136685
 20
98.9859955117
 30
0.0
 10
38.8542960745
 20
98.9631975047
 30
0.0
 10
38.9197653515
 20
98.9177863919
 30
0.0
 10
38.9898902576
 20
98.8812888515
 30
0.0
 10
39.0312610142
 20
98.8616437531
 30
0.0
  0
SPLINE
  5
39E
100
AcDbEntity
  8
0
100
AcDbSpline
 62
7
  6
BYLAYER
 70
0
 71
3
 72
19
 73
15
 74
0
 42
0.0000001
 43
0.0000001
 44
0.0000000001
 40
0.0
 40
0.0
 40
0.0
 40
0.0
 40
0.0611978401
 40
0.1261481572
 40
0.264426724
 40
0.4086911463
 40
0.5516040773
 40
0.6860460469
 40
0.7483187942
 40
0.8065657799
 40
0.8605639393
 40
0.9104090379
 40
0.9565823045
 40
1.0
 40
1.0
 40
1.0
 40
1.0
 10
36.0066931645
 20
103.5147353686
 30
0.0
 10
36.1578948007
 20
103.4274410381
 30
0.0
 10
36.4809598085
 20
103.2667546997
 30
0.0
 10
37.1889255716
 20
103.0032191968
 30
0.0
 10
38.1635638102
 20
102.7928791293
 30
0.0
 10
39.3807225144
 20
102.7319902118
 30
0.0
 10
40.5815285978
 20
102.8619357533
 30
0.0
 10
41.519680959
 20
103.1280640961
 30
0.0
 10
42.1815428576
 20
103.4328932524
 30
0.0
 10
42.6078612954
 20
103.6925566109
 30
0.0
 10
42.9685842861
 20
103.984409213
 30
0.0
 10
43.2567856356
 20
104.3036146078
 30
0.0
 10
43.466315692
 20
104.6446446256
 30
0.0
 10
43.5516528197
 20
104.8883028432
 30
0.0
 10
43.5783215307
 20
105.0092644261
 30
0.0
  0
SPLINE
  5
39F
100
AcDbEntity
  8
0
100
AcDbSpline
 62
7
  6
BYLAYER
 70
0
 71
3
 72
9
 73
5
 74
0
 42
0.0000001
 43
0.0000001
 44
0.0000000001
 40
0.0
 40
0.0
 40
0.0
 40
0.0
 40
0.2599467245
 40
1.0
 40
1.0
 40
1.0
 40
1.0
 10
16.655088806
 20
101.5290746116
 30
0.0
 10
16.6588160741
 20
101.5278322186
 30
0.0
 10
16.6730418289
 20
101.522728725
 30
0.0
 10
16.6868191871
 20
101.5163158855
 30
0.0
 10
16.6965074114
 20
101.5107258175
 30
0.0
  0
SPLINE
  5
3A0
100
AcDbEntity
  8
0
100
AcDbSpline
 62
7
  6
BYLAYER
 70
0
 71
3
 72
9
 73
5
 74
0
 42
0.0000001
 43
0.0000001
 44
0.0000000001
 40
0.0
 40
0.0
 40
0.0
 40
0.0
 40
0.2638936732
 40
1.0
 40
1.0
 40
1.0
 40
1.0
 10
16.6965074114
 20
101.5107258175
 30
0.0
 10
16.6995430397
 20
101.5089742716
 30
0.0
 10
16.7108538596
 20
101.5020186298
 30
0.0
 10
16.721385002
 20
101.4937234836
 30
0.0
 10
16.7282954294
 20
101.4868085039
 30
0.0
  0
SPLINE
  5
3A1
100
AcDbEntity
  8
0
100
AcDbSpline
 62
7
  6
BYLAYER
 70
0
 71
3
 72
9
 73
5
 74
0
 42
0.0000001
 43
0.0000001
 44
0.0000000001
 40
0.0
 40
0.0
 40
0.0
 40
0.0
 40
0.4941863076
 40
1.0
 40
1.0
 40
1.0
 40
1.0
 10
15.1805756878
 20
104.3212675304
 30
0.0
 10
15.2125171732
 20
103.8989358394
 30
0.0
 10
15.3452208531
 20
103.048238456
 30
0.0
 10
15.6060494406
 20
102.2281789121
 30
0.0
 10
15.766228243
 20
101.8253543815
 30
0.0
  0
SPLINE
  5
3A2
100
AcDbEntity
  8
0
100
AcDbSpline
 62
7
  6
BYLAYER
 70
0
 71
3
 72
26
 73
22
 74
0
 42
0.0000001
 43
0.0000001
 44
0.0000000001
 40
0.0
 40
0.0
 40
0.0
 40
0.0
 40
0.0623814484
 40
0.1287158885
 40
0.1983058111
 40
0.2702788122
 40
0.3436528349
 40
0.4173811656
 40
0.490402201
 40
0.5616855432
 40
0.6302799222
 40
0.695364787
 40
0.7563097593
 40
0.8127445355
 40
0.8392685392
 40
0.8646904691
 40
0.912462824
 40
0.9351061128
 40
0.9571101491
 40
0.9786692894
 40
1.0
 40
1.0
 40
1.0
 40
1.0
 10
56.8353245774
 20
115.1318283316
 30
0.0
 10
55.937103298
 20
115.6504048973
 30
0.0
 10
54.0122563615
 20
116.5994600832
 30
0.0
 10
50.9071973812
 20
117.7244738209
 30
0.0
 10
47.5517721588
 20
118.5763072077
 30
0.0
 10
44.0176693384
 20
119.1366663231
 30
0.0
 10
40.3799029564
 20
119.3938266708
 30
0.0
 10
36.7160692152
 20
119.3422604335
 30
0.0
 10
33.1043228033
 20
118.9830881726
 30
0.0
 10
29.6216089347
 20
118.3239323145
 30
0.0
 10
26.3419603703
 20
117.3787494127
 30
0.0
 10
23.3345560997
 20
116.1671496431
 30
0.0
 10
20.6631182518
 20
114.7142073661
 30
0.0
 10
18.7237632779
 20
113.2971782397
 30
0.0
 10
17.405156517
 20
112.0659255856
 30
0.0
 10
16.2936167953
 20
110.8340815625
 30
0.0
 10
15.3906740234
 20
109.505306082
 30
0.0
 10
14.7489232851
 20
108.1060001773
 30
0.0
 10
14.4086087361
 20
107.0562728282
 30
0.0
 10
14.203537972
 20
105.9942954724
 30
0.0
 10
14.1577366516
 20
105.2803746253
 30
0.0
 10
14.157748342
 20
104.9257244968
 30
0.0
  0
SPLINE
  5
3A3
100
AcDbEntity
  8
0
100
AcDbSpline
 62
7
  6
BYLAYER
 70
0
 71
3
 72
9
 73
5
 74
0
 42
0.0000001
 43
0.0000001
 44
0.0000000001
 40
0.0
 40
0.0
 40
0.0
 40
0.0
 40
0.2372140382
 40
1.0
 40
1.0
 40
1.0
 40
1.0
 10
16.7482744769
 20
101.458961687
 30
0.0
 10
16.7471302249
 20
101.4614271311
 30
0.0
 10
16.741774103
 20
101.4715725796
 30
0.0
 10
16.7344735971
 20
101.4806262662
 30
0.0
 10
16.7282954294
 20
101.4868085039
 30
0.0
  0
SPLINE
  5
3A4
100
AcDbEntity
  8
0
100
AcDbSpline
 62
7
  6
BYLAYER
 70
0
 71
3
 72
9
 73
5
 74
0
 42
0.0000001
 43
0.0000001
 44
0.0000000001
 40
0.0
 40
0.0
 40
0.0
 40
0.0
 40
0.2260493438
 40
1.0
 40
1.0
 40
1.0
 40
1.0
 10
16.7282954294
 20
101.4868085039
 30
0.0
 10
16.723769508
 20
101.4913374068
 30
0.0
 10
16.7021626819
 20
101.5097904013
 30
0.0
 10
16.6758856471
 20
101.522142497
 30
0.0
 10
16.655088806
 20
101.5290746116
 30
0.0
  0
SPLINE
  5
3A5
100
AcDbEntity
  8
0
100
AcDbSpline
 62
7
  6
BYLAYER
 70
0
 71
3
 72
9
 73
5
 74
0
 42
0.0000001
 43
0.0000001
 44
0.0000000001
 40
0.0
 40
0.0
 40
0.0
 40
0.0
 40
0.5123638932
 40
1.0
 40
1.0
 40
1.0
 40
1.0
 10
17.8695147896
 20
98.5275883141
 30
0.0
 10
17.5420283213
 20
98.890787974
 30
0.0
 10
16.9403259072
 20
99.6347359805
 30
0.0
 10
16.4336854523
 20
100.447238488
 30
0.0
 10
16.2151160731
 20
100.8581654666
 30
0.0
  0
SPLINE
  5
3A6
100
AcDbEntity
  8
0
100
AcDbSpline
 62
7
  6
BYLAYER
 70
0
 71
3
 72
9
 73
5
 74
0
 42
0.0000001
 43
0.0000001
 44
0.0000000001
 40
0.0
 40
0.0
 40
0.0
 40
0.0
 40
0.5213403204
 40
1.0
 40
1.0
 40
1.0
 40
1.0
 10
22.6114988563
 20
95.3728112842
 30
0.0
 10
21.8026521508
 20
95.8397885829
 30
0.0
 10
20.3051483443
 20
96.8345979336
 30
0.0
 10
18.9759509569
 20
98.0506896373
 30
0.0
 10
18.4017201361
 20
98.6875417183
 30
0.0
  0
SPLINE
  5
3A7
100
AcDbEntity
  8
0
100
AcDbSpline
 62
7
  6
BYLAYER
 70
0
 71
3
 72
9
 73
5
 74
0
 42
0.0000001
 43
0.0000001
 44
0.0000000001
 40
0.0
 40
0.0
 40
0.0
 40
0.0
 40
0.5158052686
 40
1.0
 40
1.0
 40
1.0
 40
1.0
 10
28.3528975132
 20
92.9423567543
 30
0.0
 10
27.3246021552
 20
93.2514028779
 30
0.0
 10
25.3591638674
 20
93.9501952388
 30
0.0
 10
23.4843965645
 20
94.8688549584
 30
0.0
 10
22.6114988563
 20
95.3728112842
 30
0.0
  0
SPLINE
  5
3A8
100
AcDbEntity
  8
0
100
AcDbSpline
 62
7
  6
BYLAYER
 70
0
 71
3
 72
9
 73
5
 74
0
 42
0.0000001
 43
0.0000001
 44
0.0000000001
 40
0.0
 40
0.0
 40
0.0
 40
0.0
 40
0.254308591
 40
1.0
 40
1.0
 40
1.0
 40
1.0
 10
32.1126000846
 20
91.679956432
 30
0.0
 10
31.766249187
 20
91.7413601152
 30
0.0
 10
30.4077658985
 20
92.0016943971
 30
0.0
 10
29.0636218096
 20
92.3382239956
 30
0.0
 10
28.075850561
 20
92.6350909151
 30
0.0
  0
SPLINE
  5
3A9
100
AcDbEntity
  8
0
100
AcDbSpline
 62
7
  6
BYLAYER
 70
0
 71
3
 72
9
 73
5
 74
0
 42
0.0000001
 43
0.0000001
 44
0.0000000001
 40
0.0
 40
0.0
 40
0.0
 40
0.0
 40
0.2539755766
 40
1.0
 40
1.0
 40
1.0
 40
1.0
 10
33.1532201003
 20
91.9877761821
 30
0.0
 10
33.1404230918
 20
91.9897558249
 30
0.0
 10
33.0896521036
 20
91.994506255
 30
0.0
 10
33.0375413408
 20
91.9882687409
 30
0.0
 10
33.0014563745
 20
91.9762404751
 30
0.0
  0
SPLINE
  5
3AA
100
AcDbEntity
  8
0
100
AcDbSpline
 62
7
  6
BYLAYER
 70
0
 71
3
 72
9
 73
5
 74
0
 42
0.0000001
 43
0.0000001
 44
0.0000000001
 40
0.0
 40
0.0
 40
0.0
 40
0.0
 40
0.4584392879
 40
1.0
 40
1.0
 40
1.0
 40
1.0
 10
33.27466176
 20
91.9339767629
 30
0.0
 10
33.2601419782
 20
91.9484961975
 30
0.0
 10
33.2208726556
 20
91.9724178705
 30
0.0
 10
33.1771918603
 20
91.9840678527
 30
0.0
 10
33.1532201003
 20
91.9877761821
 30
0.0
  0
SPLINE
  5
3AB
100
AcDbEntity
  8
0
100
AcDbSpline
 62
7
  6
BYLAYER
 70
0
 71
3
 72
9
 73
5
 74
0
 42
0.0000001
 43
0.0000001
 44
0.0000000001
 40
0.0
 40
0.0
 40
0.0
 40
0.0
 40
0.2514011091
 40
1.0
 40
1.0
 40
1.0
 40
1.0
 10
38.1109631768
 20
91.0827016374
 30
0.0
 10
37.7475975956
 20
91.0918602264
 30
0.0
 10
36.3027874177
 20
91.147286599
 30
0.0
 10
34.8608051893
 20
91.2785955986
 30
0.0
 10
33.7878481125
 20
91.420802681
 30
0.0
  0
SPLINE
  5
3AC
100
AcDbEntity
  8
0
100
AcDbSpline
 62
7
  6
BYLAYER
 70
0
 71
3
 72
9
 73
5
 74
0
 42
0.0000001
 43
0.0000001
 44
0.0000000001
 40
0.0
 40
0.0
 40
0.0
 40
0.0
 40
0.4972234775
 40
1.0
 40
1.0
 40
1.0
 40
1.0
 10
45.2141884063
 20
91.8762712604
 30
0.0
 10
44.0515520709
 20
91.6964103694
 30
0.0
 10
41.6954267026
 20
91.4431826702
 30
0.0
 10
39.3263599251
 20
91.3988028593
 30
0.0
 10
38.1371323135
 20
91.4287772086
 30
0.0
  0
SPLINE
  5
3AD
100
AcDbEntity
  8
0
100
AcDbSpline
 62
7
  6
BYLAYER
 70
0
 71
3
 72
9
 73
5
 74
0
 42
0.0000001
 43
0.0000001
 44
0.0000000001
 40
0.0
 40
0.0
 40
0.0
 40
0.0
 40
0.4894843554
 40
1.0
 40
1.0
 40
1.0
 40
1.0
 10
51.7306216484
 20
93.5317022848
 30
0.0
 10
50.6997905308
 20
93.1525514589
 30
0.0
 10
48.5496096812
 20
92.4949500659
 30
0.0
 10
46.346261669
 20
92.0514040165
 30
0.0
 10
45.2141884063
 20
91.8762712604
 30
0.0
  0
SPLINE
  5
3AE
100
AcDbEntity
  8
0
100
AcDbSpline
 62
7
  6
BYLAYER
 70
0
 71
3
 72
9
 73
5
 74
0
 42
0.0000001
 43
0.0000001
 44
0.0000000001
 40
0.0
 40
0.0
 40
0.0
 40
0.0
 40
0.2426396679
 40
1.0
 40
1.0
 40
1.0
 40
1.0
 10
55.5041004887
 20
94.7803265353
 30
0.0
 10
55.2346740155
 20
94.6356297504
 30
0.0
 10
54.1128543421
 20
94.0606641483
 30
0.0
 10
52.9489017204
 20
93.56906891
 30
0.0
 10
52.0530035203
 20
93.2395478694
 30
0.0
  0
SPLINE
  5
3AF
100
AcDbEntity
  8
0
100
AcDbSpline
 62
7
  6
BYLAYER
 70
0
 71
3
 72
10
 73
6
 74
0
 42
0.0000001
 43
0.0000001
 44
0.0000000001
 40
0.0
 40
0.0
 40
0.0
 40
0.0
 40
0.547689002
 40
0.7816220467
 40
1.0
 40
1.0
 40
1.0
 40
1.0
 10
55.5626742705
 20
95.4545389799
 30
0.0
 10
55.5461338994
 20
95.4449894492
 30
0.0
 10
55.5237949398
 20
95.4274082979
 30
0.0
 10
55.5069167153
 20
95.3963882271
 30
0.0
 10
55.5040961606
 20
95.3805056785
 30
0.0
 10
55.5040962155
 20
95.3728903482
 30
0.0
  0
SPLINE
  5
3B0
100
AcDbEntity
  8
0
100
AcDbSpline
 62
7
  6
BYLAYER
 70
0
 71
3
 72
9
 73
5
 74
0
 42
0.0000001
 43
0.0000001
 44
0.0000000001
 40
0.0
 40
0.0
 40
0.0
 40
0.0
 40
0.5255663101
 40
1.0
 40
1.0
 40
1.0
 40
1.0
 10
55.7040953828
 20
95.4883592321
 30
0.0
 10
55.6784153276
 20
95.4883591704
 30
0.0
 10
55.6294221934
 20
95.4830480441
 30
0.0
 10
55.5827501803
 20
95.4661297426
 30
0.0
 10
55.5626742705
 20
95.4545389799
 30
0.0
  0
SPLINE
  5
3B1
100
AcDbEntity
  8
0
100
AcDbSpline
 62
7
  6
BYLAYER
 70
0
 71
3
 72
9
 73
5
 74
0
 42
0.0000001
 43
0.0000001
 44
0.0000000001
 40
0.0
 40
0.0
 40
0.0
 40
0.0
 40
0.2406921155
 40
1.0
 40
1.0
 40
1.0
 40
1.0
 10
59.3991770342
 20
97.4808378082
 30
0.0
 10
59.2010264948
 20
97.3012631366
 30
0.0
 10
58.3589266654
 20
96.5760671571
 30
0.0
 10
57.4472343292
 20
95.933235665
 30
0.0
 10
56.7304606864
 20
95.4883616992
 30
0.0
  0
SPLINE
  5
3B2
100
AcDbEntity
  8
0
100
AcDbSpline
 62
7
  6
BYLAYER
 70
0
 71
3
 72
11
 73
7
 74
0
 42
0.0000001
 43
0.0000001
 44
0.0000000001
 40
0.0
 40
0.0
 40
0.0
 40
0.0
 40
0.2348212088
 40
0.4790202306
 40
0.7338068185
 40
1.0
 40
1.0
 40
1.0
 40
1.0
 10
61.7604181971
 20
101.429184461
 30
0.0
 10
61.6035743857
 20
101.0912322193
 30
0.0
 10
61.2423564962
 20
100.4203536248
 30
0.0
 10
60.5815647286
 20
99.4593429579
 30
0.0
 10
59.7962374679
 20
98.5311194648
 30
0.0
 10
59.2060961814
 20
97.9505769443
 30
0.0
 10
58.8931408245
 20
97.6669599751
 30
0.0
  0
SPLINE
  5
3B3
100
AcDbEntity
  8
0
100
AcDbSpline
 62
7
  6
BYLAYER
 70
0
 71
3
 72
9
 73
5
 74
0
 42
0.0000001
 43
0.0000001
 44
0.0000000001
 40
0.0
 40
0.0
 40
0.0
 40
0.0
 40
0.5278919258
 40
1.0
 40
1.0
 40
1.0
 40
1.0
 10
61.5871622699
 20
108.480106954
 30
0.0
 10
61.5790837635
 20
108.4720284854
 30
0.0
 10
61.5656742451
 20
108.454413621
 30
0.0
 10
61.5603634342
 20
108.4325905927
 30
0.0
 10
61.5603683521
 20
108.4223731687
 30
0.0
  0
SPLINE
  5
3B4
100
AcDbEntity
  8
0
100
AcDbSpline
 62
7
  6
BYLAYER
 70
0
 71
3
 72
15
 73
11
 74
0
 42
0.0000001
 43
0.0000001
 44
0.0000000001
 40
0.0
 40
0.0
 40
0.0
 40
0.0
 40
0.1485903121
 40
0.2895080158
 40
0.4227234284
 40
0.5486444318
 40
0.6680023314
 40
0.781938964
 40
0.8919878849
 40
1.0
 40
1.0
 40
1.0
 40
1.0
 10
21.4801327167
 20
86.5545964667
 30
0.0
 10
20.9162690019
 20
86.8801359695
 30
0.0
 10
19.8431432793
 20
87.560299161
 30
0.0
 10
18.3760634333
 20
88.6958322834
 30
0.0
 10
17.1071265316
 20
89.9104534876
 30
0.0
 10
16.0489354711
 20
91.1930049718
 30
0.0
 10
15.2123587578
 20
92.5322018458
 30
0.0
 10
14.6068155759
 20
93.9158709389
 30
0.0
 10
14.2399147397
 20
95.3299957279
 30
0.0
 10
14.1577634903
 20
96.287415007
 30
0.0
 10
14.1577477102
 20
96.760700329
 30
0.0
  0
SPLINE
  5
3B5
100
AcDbEntity
  8
0
100
AcDbSpline
 62
7
  6
BYLAYER
 70
0
 71
3
 72
13
 73
9
 74
0
 42
0.0000001
 43
0.0000001
 44
0.0000000001
 40
0.0
 40
0.0
 40
0.0
 40
0.0
 40
0.1161624347
 40
0.233271115
 40
0.3522331752
 40
0.4738871433
 40
0.7278447044
 40
1.0
 40
1.0
 40
1.0
 40
1.0
 10
64.157709584
 20
96.760700298
 30
0.0
 10
64.1577198772
 20
96.4519824549
 30
0.0
 10
64.1231145302
 20
95.8314859421
 30
0.0
 10
63.9679175698
 20
94.9065426726
 30
0.0
 10
63.7101403301
 20
93.9895451533
 30
0.0
 10
63.2246222669
 20
92.7659025089
 30
0.0
 10
62.3523740508
 20
91.2692764407
 30
0.0
 10
61.4459226529
 20
90.1958870682
 30
0.0
 10
60.9408746591
 20
89.678126698
 30
0.0
  0
SPLINE
  5
3B6
100
AcDbEntity
  8
0
100
AcDbSpline
 62
7
  6
BYLAYER
 70
0
 71
3
 72
23
 73
19
 74
0
 42
0.0000001
 43
0.0000001
 44
0.0000000001
 40
0.0
 40
0.0
 40
0.0
 40
0.0
 40
0.0498944661
 40
0.1031222308
 40
0.1596324226
 40
0.2192230146
 40
0.281570335
 40
0.3462547231
 40
0.4127829428
 40
0.4806079383
 40
0.549146543
 40
0.617796147
 40
0.6859511882
 40
0.7530188582
 40
0.8184382363
 40
0.881690741
 40
0.9423361773
 40
1.0
 40
1.0
 40
1.0
 40
1.0
 10
60.9408746591
 20
89.678126698
 30
0.0
 10
60.4541389625
 20
89.179139557
 30
0.0
 10
59.3757563084
 20
88.2168977556
 30
0.0
 10
57.5456930882
 20
86.9350329153
 30
0.0
 10
55.4748317252
 20
85.7834710058
 30
0.0
 10
53.1904708744
 20
84.7770391091
 30
0.0
 10
50.7222108018
 20
83.9284183704
 30
0.0
 10
48.1022848381
 20
83.248577662
 30
0.0
 10
45.3649539261
 20
82.7463414933
 30
0.0
 10
42.5461001785
 20
82.4282772007
 30
0.0
 10
39.6827248339
 20
82.2985557061
 30
0.0
 10
36.8124448177
 20
82.3588879957
 30
0.0
 10
33.9729873058
 20
82.6084912201
 30
0.0
 10
31.2016172947
 20
83.0440618513
 30
0.0
 10
28.5347602409
 20
83.6599360969
 30
0.0
 10
26.0071183795
 20
84.4480452297
 30
0.0
 10
23.6521707942
 20
85.3981625087
 30
0.0
 10
22.1778146868
 20
86.151798706
 30
0.0
 10
21.4801327167
 20
86.5545964667
 30
0.0
  0
SPLINE
  5
3B7
100
AcDbEntity
  8
0
100
AcDbSpline
 62
7
  6
BYLAYER
 70
0
 71
3
 72
15
 73
11
 74
0
 42
0.0000001
 43
0.0000001
 44
0.0000000001
 40
0.0
 40
0.0
 40
0.0
 40
0.0
 40
0.1080117066
 40
0.2180603091
 40
0.3319967858
 40
0.4513547191
 40
0.5772757969
 40
0.7104914272
 40
0.8514096313
 40
1.0
 40
1.0
 40
1.0
 40
1.0
 10
64.1577089522
 20
104.9257244728
 30
0.0
 10
64.1576933513
 20
105.3990079923
 30
0.0
 10
64.0755426698
 20
106.3564240237
 30
0.0
 10
63.7086447782
 20
107.7705455226
 30
0.0
 10
63.103102833
 20
109.1542130627
 30
0.0
 10
62.2665273521
 20
110.4934102962
 30
0.0
 10
61.2083376702
 20
111.7759647497
 30
0.0
 10
59.9393984661
 20
112.9905886482
 30
0.0
 10
58.4723159054
 20
114.126123686
 30
0.0
 10
57.3991884922
 20
114.8062887133
 30
0.0
 10
56.8353245774
 20
115.1318283316
 30
0.0
  0
SPLINE
  5
3B8
100
AcDbEntity
  8
0
100
AcDbSpline
 62
7
  6
BYLAYER
 70
0
 71
3
 72
9
 73
5
 74
0
 42
0.0000001
 43
0.0000001
 44
0.0000000001
 40
0.0
 40
0.0
 40
0.0
 40
0.0
 40
0.4584392879
 40
1.0
 40
1.0
 40
1.0
 40
1.0
 10
45.0407955341
 20
117.9174722067
 30
0.0
 10
45.055315316
 20
117.902952772
 30
0.0
 10
45.0945846385
 20
117.8790310991
 30
0.0
 10
45.1382654339
 20
117.8673811168
 30
0.0
 10
45.1622371938
 20
117.8636727874
 30
0.0
  0
SPLINE
  5
3B9
100
AcDbEntity
  8
0
100
AcDbSpline
 62
7
  6
BYLAYER
 70
0
 71
3
 72
9
 73
5
 74
0
 42
0.0000001
 43
0.0000001
 44
0.0000000001
 40
0.0
 40
0.0
 40
0.0
 40
0.0
 40
0.2482602933
 40
1.0
 40
1.0
 40
1.0
 40
1.0
 10
15.7973122513
 20
105.7111796399
 30
0.0
 10
15.8088705084
 20
105.8257952826
 30
0.0
 10
15.8655378859
 20
106.2864072328
 30
0.0
 10
15.9626528427
 20
106.7419445578
 30
0.0
 10
16.0565572541
 20
107.0778869224
 30
0.0
  0
SPLINE
  5
3BA
100
AcDbEntity
  8
0
100
AcDbSpline
 62
7
  6
BYLAYER
 70
0
 71
3
 72
9
 73
5
 74
0
 42
0.0000001
 43
0.0000001
 44
0.0000000001
 40
0.0
 40
0.0
 40
0.0
 40
0.0
 40
0.2466746399
 40
1.0
 40
1.0
 40
1.0
 40
1.0
 10
16.0565572541
 20
107.0778869224
 30
0.0
 10
16.0883151654
 20
107.1915006244
 30
0.0
 10
16.2267472157
 20
107.6493369832
 30
0.0
 10
16.4033761097
 20
108.0954754174
 30
0.0
 10
16.5550390971
 20
108.4222645085
 30
0.0
  0
SPLINE
  5
3BB
100
AcDbEntity
  8
0
100
AcDbSpline
 62
7
  6
BYLAYER
 70
0
 71
3
 72
10
 73
6
 74
0
 42
0.0000001
 43
0.0000001
 44
0.0000000001
 40
0.0
 40
0.0
 40
0.0
 40
0.0
 40
0.547689002
 40
0.7816220467
 40
1.0
 40
1.0
 40
1.0
 40
1.0
 10
22.7527830237
 20
114.3969099896
 30
0.0
 10
22.7693233947
 20
114.4064595203
 30
0.0
 10
22.7916623543
 20
114.4240406716
 30
0.0
 10
22.8085405789
 20
114.4550607424
 30
0.0
 10
22.8113611336
 20
114.4709432911
 30
0.0
 10
22.8113610786
 20
114.4785586213
 30
0.0
  0
SPLINE
  5
3BC
100
AcDbEntity
  8
0
100
AcDbSpline
 62
7
  6
BYLAYER
 70
0
 71
3
 72
9
 73
5
 74
0
 42
0.0000001
 43
0.0000001
 44
0.0000000001
 40
0.0
 40
0.0
 40
0.0
 40
0.0
 40
0.5255663101
 40
1.0
 40
1.0
 40
1.0
 40
1.0
 10
22.6113619113
 20
114.3630897375
 30
0.0
 10
22.6370419666
 20
114.3630897992
 30
0.0
 10
22.6860351008
 20
114.3684009255
 30
0.0
 10
22.7327071138
 20
114.3853192269
 30
0.0
 10
22.7527830237
 20
114.3969099896
 30
0.0
  0
SPLINE
  5
3BD
100
AcDbEntity
  8
0
100
AcDbSpline
 62
7
  6
BYLAYER
 70
0
 71
3
 72
9
 73
5
 74
0
 42
0.0000001
 43
0.0000001
 44
0.0000000001
 40
0.0
 40
0.0
 40
0.0
 40
0.0
 40
0.2454230212
 40
1.0
 40
1.0
 40
1.0
 40
1.0
 10
16.5550390971
 20
108.4222645085
 30
0.0
 10
16.6067007202
 20
108.5335800982
 30
0.0
 10
16.8260644458
 20
108.9830015879
 30
0.0
 10
17.0799696375
 20
109.4153857374
 30
0.0
 10
17.2876040768
 20
109.730430428
 30
0.0
  0
SPLINE
  5
3BE
100
AcDbEntity
  8
0
100
AcDbSpline
 62
7
  6
BYLAYER
 70
0
 71
3
 72
9
 73
5
 74
0
 42
0.0000001
 43
0.0000001
 44
0.0000000001
 40
0.0
 40
0.0
 40
0.0
 40
0.0
 40
0.244826357
 40
1.0
 40
1.0
 40
1.0
 40
1.0
 10
17.2876040768
 20
109.730430428
 30
0.0
 10
17.3586917464
 20
109.8382920764
 30
0.0
 10
17.6568459642
 20
110.2736912912
 30
0.0
 10
17.9851727394
 20
110.6882455832
 30
0.0
 10
18.2466933156
 20
110.9888747812
 30
0.0
  0
SPLINE
  5
3BF
100
AcDbEntity
  8
0
100
AcDbSpline
 62
7
  6
BYLAYER
 70
0
 71
3
 72
10
 73
6
 74
0
 42
0.0000001
 43
0.0000001
 44
0.0000000001
 40
0.0
 40
0.0
 40
0.0
 40
0.0
 40
0.2369973061
 40
0.4832500873
 40
1.0
 40
1.0
 40
1.0
 40
1.0
 10
21.4801327167
 20
94.719620638
 30
0.0
 10
21.9814230903
 20
94.4302070533
 30
0.0
 10
23.0256483068
 20
93.8775255097
 30
0.0
 10
25.256475674
 20
92.8803273679
 30
0.0
 10
27.027094098
 20
92.2811277983
 30
0.0
 10
28.2423899432
 20
91.9406151801
 30
0.0
  0
SPLINE
  5
3C0
100
AcDbEntity
  8
0
100
AcDbSpline
 62
7
  6
BYLAYER
 70
0
 71
3
 72
9
 73
5
 74
0
 42
0.0000001
 43
0.0000001
 44
0.0000000001
 40
0.0
 40
0.0
 40
0.0
 40
0.0
 40
0.5278919258
 40
1.0
 40
1.0
 40
1.0
 40
1.0
 10
16.7282950243
 20
101.3713420156
 30
0.0
 10
16.7363735307
 20
101.3794204842
 30
0.0
 10
16.749783049
 20
101.3970353485
 30
0.0
 10
16.7550938599
 20
101.4188583769
 30
0.0
 10
16.7550889421
 20
101.4290758008
 30
0.0
  0
SPLINE
  5
3C1
100
AcDbEntity
  8
0
100
AcDbSpline
 62
7
  6
BYLAYER
 70
0
 71
3
 72
9
 73
5
 74
0
 42
0.0000001
 43
0.0000001
 44
0.0000000001
 40
0.0
 40
0.0
 40
0.0
 40
0.0
 40
0.2466525224
 40
1.0
 40
1.0
 40
1.0
 40
1.0
 10
26.5848356457
 20
116.3197466847
 30
0.0
 10
26.7530160447
 20
116.3816052531
 30
0.0
 10
27.4371541452
 20
116.6261489422
 30
0.0
 10
28.1300579898
 20
116.8460681202
 30
0.0
 10
28.6557200253
 20
116.9984932815
 30
0.0
  0
SPLINE
  5
3C2
100
AcDbEntity
  8
0
100
AcDbSpline
 62
7
  6
BYLAYER
 70
0
 71
3
 72
15
 73
11
 74
0
 42
0.0000001
 43
0.0000001
 44
0.0000000001
 40
0.0
 40
0.0
 40
0.0
 40
0.0
 40
0.1080117066
 40
0.2180603091
 40
0.3319967858
 40
0.4513547191
 40
0.5772757969
 40
0.7104914272
 40
0.8514096313
 40
1.0
 40
1.0
 40
1.0
 40
1.0
 10
14.157748342
 20
104.9257244968
 30
0.0
 10
14.1577639429
 20
104.4524409773
 30
0.0
 10
14.2399146244
 20
103.4950249458
 30
0.0
 10
14.606812516
 20
102.0809034469
 30
0.0
 10
15.2123544612
 20
100.6972359068
 30
0.0
 10
16.048929942
 20
99.3580386733
 30
0.0
 10
17.107119624
 20
98.0754842199
 30
0.0
 10
18.376058828
 20
96.8608603214
 30
0.0
 10
19.8431413888
 20
95.7253252835
 30
0.0
 10
20.916268802
 20
95.0451602563
 30
0.0
 10
21.4801327167
 20
94.719620638
 30
0.0
  0
SPLINE
  5
3C3
100
AcDbEntity
  8
0
100
AcDbSpline
 62
7
  6
BYLAYER
 70
0
 71
3
 72
9
 73
5
 74
0
 42
0.0000001
 43
0.0000001
 44
0.0000000001
 40
0.0
 40
0.0
 40
0.0
 40
0.0
 40
0.2397073692
 40
1.0
 40
1.0
 40
1.0
 40
1.0
 10
61.6189498828
 20
108.3407231521
 30
0.0
 10
61.6220881159
 20
108.3389124037
 30
0.0
 10
61.6353981684
 20
108.3317386406
 30
0.0
 10
61.6494664005
 20
108.3260083003
 30
0.0
 10
61.6603684881
 20
108.322374358
 30
0.0
  0
SPLINE
  5
3C4
100
AcDbEntity
  8
0
100
AcDbSpline
 62
7
  6
BYLAYER
 70
0
 71
3
 72
9
 73
5
 74
0
 42
0.0000001
 43
0.0000001
 44
0.0000000001
 40
0.0
 40
0.0
 40
0.0
 40
0.0
 40
0.2549520517
 40
1.0
 40
1.0
 40
1.0
 40
1.0
 10
55.7039584379
 20
114.4786376854
 30
0.0
 10
55.8434035671
 20
114.3981308238
 30
0.0
 10
56.3868600402
 20
114.0763723706
 30
0.0
 10
56.9160477825
 20
113.7303513249
 30
0.0
 10
57.2999528798
 20
113.458277472
 30
0.0
  0
SPLINE
  5
3C5
100
AcDbEntity
  8
0
100
AcDbSpline
 62
7
  6
BYLAYER
 70
0
 71
3
 72
9
 73
5
 74
0
 42
0.0000001
 43
0.0000001
 44
0.0000000001
 40
0.0
 40
0.0
 40
0.0
 40
0.0
 40
0.2554081964
 40
1.0
 40
1.0
 40
1.0
 40
1.0
 10
57.2999528798
 20
113.458277472
 30
0.0
 10
57.4244768856
 20
113.3700272084
 30
0.0
 10
57.9077866007
 20
113.0185804773
 30
0.0
 10
58.3737145369
 20
112.6430533807
 30
0.0
 10
58.7081017763
 20
112.3495175316
 30
0.0
  0
SPLINE
  5
3C6
100
AcDbEntity
  8
0
100
AcDbSpline
 62
7
  6
BYLAYER
 70
0
 71
3
 72
9
 73
5
 74
0
 42
0.0000001
 43
0.0000001
 44
0.0000000001
 40
0.0
 40
0.0
 40
0.0
 40
0.0
 40
0.2556131084
 40
1.0
 40
1.0
 40
1.0
 40
1.0
 10
58.7081017763
 20
112.3495175316
 30
0.0
 10
58.8164105416
 20
112.2544406218
 30
0.0
 10
59.23502147
 20
111.8767271257
 30
0.0
 10
59.632685639
 20
111.4756081184
 30
0.0
 10
59.9137371581
 20
111.1639072512
 30
0.0
  0
SPLINE
  5
3C7
100
AcDbEntity
  8
0
100
AcDbSpline
 62
7
  6
BYLAYER
 70
0
 71
3
 72
9
 73
5
 74
0
 42
0.0000001
 43
0.0000001
 44
0.0000000001
 40
0.0
 40
0.0
 40
0.0
 40
0.0
 40
0.2532613693
 40
1.0
 40
1.0
 40
1.0
 40
1.0
 10
49.962559781
 20
116.9090922152
 30
0.0
 10
50.1378857566
 20
116.8563993651
 30
0.0
 10
50.8283633019
 20
116.6424308653
 30
0.0
 10
51.5115012039
 20
116.4046509426
 30
0.0
 10
52.0161364211
 20
116.2130381263
 30
0.0
  0
SPLINE
  5
3C8
100
AcDbEntity
  8
0
100
AcDbSpline
 62
7
  6
BYLAYER
 70
0
 71
3
 72
9
 73
5
 74
0
 42
0.0000001
 43
0.0000001
 44
0.0000000001
 40
0.0
 40
0.0
 40
0.0
 40
0.0
 40
0.2539524537
 40
1.0
 40
1.0
 40
1.0
 40
1.0
 10
52.0161364211
 20
116.2130381263
 30
0.0
 10
52.1811975356
 20
116.1503634974
 30
0.0
 10
52.8288850273
 20
115.8976181013
 30
0.0
 10
53.4672384785
 20
115.6208172051
 30
0.0
 10
53.9366041513
 20
115.4000638368
 30
0.0
  0
SPLINE
  5
3C9
100
AcDbEntity
  8
0
100
AcDbSpline
 62
7
  6
BYLAYER
 70
0
 71
3
 72
9
 73
5
 74
0
 42
0.0000001
 43
0.0000001
 44
0.0000000001
 40
0.0
 40
0.0
 40
0.0
 40
0.0
 40
0.2545481464
 40
1.0
 40
1.0
 40
1.0
 40
1.0
 10
53.9366041513
 20
115.4000638368
 30
0.0
 10
54.089663921
 20
115.3280763403
 30
0.0
 10
54.6881231898
 20
115.0392899177
 30
0.0
 10
55.2749776653
 20
114.7263042469
 30
0.0
 10
55.7039584379
 20
114.4786376854
 30
0.0
  0
SPLINE
  5
3CA
100
AcDbEntity
  8
0
100
AcDbSpline
 62
7
  6
BYLAYER
 70
0
 71
3
 72
9
 73
5
 74
0
 42
0.0000001
 43
0.0000001
 44
0.0000000001
 40
0.0
 40
0.0
 40
0.0
 40
0.0
 40
0.2539755766
 40
1.0
 40
1.0
 40
1.0
 40
1.0
 10
45.1622371938
 20
117.8636727874
 30
0.0
 10
45.1750342023
 20
117.8616931446
 30
0.0
 10
45.2258051906
 20
117.8569427145
 30
0.0
 10
45.2779159534
 20
117.8631802287
 30
0.0
 10
45.3140009197
 20
117.8752084945
 30
0.0
  0
SPLINE
  5
3CB
100
AcDbEntity
  8
0
100
AcDbSpline
 62
7
  6
BYLAYER
 70
0
 71
3
 72
9
 73
5
 74
0
 42
0.0000001
 43
0.0000001
 44
0.0000000001
 40
0.0
 40
0.0
 40
0.0
 40
0.0
 40
0.2560681823
 40
1.0
 40
1.0
 40
1.0
 40
1.0
 10
51.8300151673
 20
81.2388253122
 30
0.0
 10
51.687381607
 20
81.3211729737
 30
0.0
 10
51.1346213924
 20
81.6500324478
 30
0.0
 10
50.5993416284
 20
82.0085648083
 30
0.0
 10
50.2144678128
 20
82.2928494284
 30
0.0
  0
SPLINE
  5
3CC
100
AcDbEntity
  8
0
100
AcDbSpline
 62
7
  6
BYLAYER
 70
0
 71
3
 72
15
 73
11
 74
0
 42
0.0000001
 43
0.0000001
 44
0.0000000001
 40
0.0
 40
0.0
 40
0.0
 40
0.0
 40
0.1141464977
 40
0.2373352781
 40
0.3669759338
 40
0.4999994786
 40
0.633023096
 40
0.7626639634
 40
0.8858530776
 40
1.0
 40
1.0
 40
1.0
 40
1.0
 10
104.9189478056
 20
54.6710167084
 30
0.0
 10
104.6769304307
 20
54.531288746
 30
0.0
 10
104.1476462767
 20
54.2848560502
 30
0.0
 10
103.2858031503
 20
54.0228518183
 30
0.0
 10
102.352676749
 20
53.8616752981
 30
0.0
 10
101.3834198621
 20
53.807228206
 30
0.0
 10
100.4141622003
 20
53.8616706978
 30
0.0
 10
99.48103351
 20
54.0228427874
 30
0.0
 10
98.6191866732
 20
54.2848429223
 30
0.0
 10
98.0898992767
 20
54.5312729746
 30
0.0
 10
97.8478799938
 20
54.6709997117
 30
0.0
  0
SPLINE
  5
3CD
100
AcDbEntity
  8
0
100
AcDbSpline
 62
7
  6
BYLAYER
 70
0
 71
3
 72
9
 73
5
 74
0
 42
0.0000001
 43
0.0000001
 44
0.0000000001
 40
0.0
 40
0.0
 40
0.0
 40
0.0
 40
0.2321195146
 40
1.0
 40
1.0
 40
1.0
 40
1.0
 10
101.3772706307
 20
61.4397710623
 30
0.0
 10
101.3330854341
 20
61.494853185
 30
0.0
 10
101.1290124901
 20
61.7211616919
 30
0.0
 10
100.8785594899
 20
61.9025722725
 30
0.0
 10
100.6762541271
 20
62.0193706859
 30
0.0
  0
SPLINE
  5
3CE
100
AcDbEntity
  8
0
100
AcDbSpline
 62
7
  6
BYLAYER
 70
0
 71
3
 72
18
 73
14
 74
0
 42
0.0000001
 43
0.0000001
 44
0.0000000001
 40
0.0
 40
0.0
 40
0.0
 40
0.0
 40
0.0428464145
 40
0.0874631691
 40
0.1352819726
 40
0.1872334349
 40
0.2437234349
 40
0.3047274027
 40
0.4383598686
 40
0.5826662595
 40
0.7297882768
 40
0.8713402078
 40
1.0
 40
1.0
 40
1.0
 40
1.0
 10
101.7013702794
 20
62.2235209822
 30
0.0
 10
101.7013532267
 20
62.1238897833
 30
0.0
 10
101.6747621148
 20
61.9196382039
 30
0.0
 10
101.5575577412
 20
61.6247539687
 30
0.0
 10
101.3675468891
 20
61.3451390747
 30
0.0
 10
101.109893245
 20
61.0864670346
 30
0.0
 10
100.7906738162
 20
60.8531703419
 30
0.0
 10
100.2764366437
 20
60.5735824815
 30
0.0
 10
99.5229084677
 20
60.3219068569
 30
0.0
 10
98.5396494401
 20
60.1838418399
 30
0.0
 10
97.5282835824
 20
60.2117936551
 30
0.0
 10
96.5722451442
 20
60.4030444962
 30
0.0
 10
95.9856209419
 20
60.645082024
 30
0.0
 10
95.7265272666
 20
60.7946664431
 30
0.0
  0
SPLINE
  5
3CF
100
AcDbEntity
  8
0
100
AcDbSpline
 62
7
  6
BYLAYER
 70
0
 71
3
 72
12
 73
8
 74
0
 42
0.0000001
 43
0.0000001
 44
0.0000000001
 40
0.0
 40
0.0
 40
0.0
 40
0.0
 40
0.108160086
 40
0.2183661675
 40
0.4513442184
 40
0.7104418196
 40
1.0
 40
1.0
 40
1.0
 40
1.0
 10
109.918881612
 20
60.3864460846
 30
0.0
 10
109.9188816108
 20
60.4811006291
 30
0.0
 10
109.9024677087
 20
60.6726032799
 30
0.0
 10
109.802894794
 20
61.056461964
 30
0.0
 10
109.5476466042
 20
61.527258267
 30
0.0
 10
109.0719693353
 20
62.0267521773
 30
0.0
 10
108.6738914869
 20
62.3009679319
 30
0.0
 10
108.454437552
 20
62.427666854
 30
0.0
  0
SPLINE
  5
3D0
100
AcDbEntity
  8
0
100
AcDbSpline
 62
7
  6
BYLAYER
 70
0
 71
3
 72
9
 73
5
 74
0
 42
0.0000001
 43
0.0000001
 44
0.0000000001
 40
0.0
 40
0.0
 40
0.0
 40
0.0
 40
0.2453477481
 40
1.0
 40
1.0
 40
1.0
 40
1.0
 10
62.4365727255
 20
88.9954924546
 30
0.0
 10
62.3120087156
 20
89.0674078923
 30
0.0
 10
61.8009606407
 20
89.354708249
 30
0.0
 10
61.2770899783
 20
89.6190766633
 30
0.0
 10
60.8762739656
 20
89.8063533288
 30
0.0
  0
SPLINE
  5
3D1
100
AcDbEntity
  8
0
100
AcDbSpline
 62
7
  6
BYLAYER
 70
0
 71
3
 72
12
 73
8
 74
0
 42
0.0000001
 43
0.0000001
 44
0.0000000001
 40
0.0
 40
0.0
 40
0.0
 40
0.0
 40
0.1081603296
 40
0.2183666174
 40
0.4513448629
 40
0.7104422948
 40
1.0
 40
1.0
 40
1.0
 40
1.0
 10
109.918881612
 20
58.7534412504
 30
0.0
 10
109.9188816132
 20
58.6587877134
 30
0.0
 10
109.9024680664
 20
58.4672871448
 30
0.0
 10
109.8028973171
 20
58.0834326328
 30
0.0
 10
109.5476547236
 20
57.6126410672
 30
0.0
 10
109.0719871169
 20
57.1131508436
 30
0.0
 10
108.6739168227
 20
56.8389361405
 30
0.0
 10
108.4544669916
 20
56.7122374778
 30
0.0
  0
SPLINE
  5
3D2
100
AcDbEntity
  8
0
100
AcDbSpline
 62
7
  6
BYLAYER
 70
0
 71
3
 72
11
 73
7
 74
0
 42
0.0000001
 43
0.0000001
 44
0.0000000001
 40
0.0
 40
0.0
 40
0.0
 40
0.0
 40
0.2897475214
 40
0.5490801456
 40
0.7822227295
 40
1.0
 40
1.0
 40
1.0
 40
1.0
 10
100.6762541271
 20
63.6523755202
 30
0.0
 10
100.8298551692
 20
63.5636959233
 30
0.0
 10
101.1085046364
 20
63.3718232585
 30
0.0
 10
101.4414764731
 20
63.0218189389
 30
0.0
 10
101.652099032
 20
62.6346972235
 30
0.0
 10
101.7013930959
 20
62.3568282688
 30
0.0
 10
101.7013702794
 20
62.2235209822
 30
0.0
  0
SPLINE
  5
3D3
100
AcDbEntity
  8
0
100
AcDbSpline
 62
7
  6
BYLAYER
 70
0
 71
3
 72
12
 73
8
 74
0
 42
0.0000001
 43
0.0000001
 44
0.0000000001
 40
0.0
 40
0.0
 40
0.0
 40
0.0
 40
0.2895577052
 40
0.5486551371
 40
0.7816333826
 40
0.8918396704
 40
1.0
 40
1.0
 40
1.0
 40
1.0
 10
108.4544669916
 20
58.345242312
 30
0.0
 10
108.6739168227
 20
58.4719409748
 30
0.0
 10
109.0719871169
 20
58.7461556779
 30
0.0
 10
109.5476547236
 20
59.2456459015
 30
0.0
 10
109.8028973171
 20
59.7164374671
 30
0.0
 10
109.9024680664
 20
60.1002919791
 30
0.0
 10
109.9188816132
 20
60.2917925477
 30
0.0
 10
109.918881612
 20
60.3864460846
 30
0.0
  0
SPLINE
  5
3D4
100
AcDbEntity
  8
0
100
AcDbSpline
 62
7
  6
BYLAYER
 70
0
 71
3
 72
15
 73
11
 74
0
 42
0.0000001
 43
0.0000001
 44
0.0000000001
 40
0.0
 40
0.0
 40
0.0
 40
0.0
 40
0.1141469224
 40
0.2373360366
 40
0.366976904
 40
0.5000005214
 40
0.6330240662
 40
0.7626647219
 40
0.8858535023
 40
1.0
 40
1.0
 40
1.0
 40
1.0
 10
97.8478799938
 20
56.3040045459
 30
0.0
 10
98.0898992767
 20
56.1642778089
 30
0.0
 10
98.6191866732
 20
55.9178477566
 30
0.0
 10
99.48103351
 20
55.6558476217
 30
0.0
 10
100.4141622003
 20
55.4946755321
 30
0.0
 10
101.3834198621
 20
55.4402330402
 30
0.0
 10
102.352676749
 20
55.4946801324
 30
0.0
 10
103.2858031503
 20
55.6558566526
 30
0.0
 10
104.1476462767
 20
55.9178608844
 30
0.0
 10
104.6769304307
 20
56.1642935802
 30
0.0
 10
104.9189478056
 20
56.3040215427
 30
0.0
  0
SPLINE
  5
3D5
100
AcDbEntity
  8
0
100
AcDbSpline
 62
7
  6
BYLAYER
 70
0
 71
3
 72
9
 73
5
 74
0
 42
0.0000001
 43
0.0000001
 44
0.0000000001
 40
0.0
 40
0.0
 40
0.0
 40
0.0
 40
0.2442868068
 40
1.0
 40
1.0
 40
1.0
 40
1.0
 10
50.2849564167
 20
83.8740932125
 30
0.0
 10
50.4061127721
 20
83.7856461846
 30
0.0
 10
50.907249692
 20
83.4307048465
 30
0.0
 10
51.4281335673
 20
83.1038513474
 30
0.0
 10
51.8300151673
 20
82.8718301465
 30
0.0
  0
ELLIPSE
  5
3D6
100
AcDbEntity
  8
0
100
AcDbEllipse
 62
7
  6
BYLAYER
 10
62.8521859455
 20
85.6992701656
 30
0.0
 11
-0.1047407642
 21
4.7387765974
 31
0.0
 40
0.0226587839
 41
-1.824821541
 42
-1.6370929146
  0
ELLIPSE
  5
3D7
100
AcDbEntity
  8
0
100
AcDbEllipse
 62
7
  6
BYLAYER
 10
64.960952109
 20
85.8724778391
 30
0.0
 11
0.1075193233
 21
4.6163148201
 31
0.0
 40
0.0226571461
 41
-4.6198770456
 42
-4.6108165151
  0
ELLIPSE
  5
3D8
100
AcDbEntity
  8
0
100
AcDbEllipse
 62
7
  6
BYLAYER
 10
64.0565646374
 20
86.394614377
 30
0.0
 11
-0.1047407642
 21
4.7387765974
 31
0.0
 40
0.0226587839
 41
-4.6212484184
 42
-4.433519792
  0
ENDSEC
  0
SECTION
  2
OBJECTS
  0
DICTIONARY
  5
C
100
AcDbDictionary
280
0
281
1
  3
ACAD_GROUP
350
D
  3
ACAD_MLINESTYLE
350
17
  3
ACAD_LAYOUT
350
1A
  3
ACAD_PLOTSETTINGS
350
19
  3
ACAD_PLOTSTYLENAME
350
E
  0
DICTIONARY
  5
D
102
{ACAD_REACTORS
330
C
102
}
100
AcDbDictionary
280
0
281
1
  0
ACDBDICTIONARYWDFLT
  5
E
102
{ACAD_REACTORS
330
C
102
}
100
AcDbDictionary
281
1
  3
Normal
350
F
100
AcDbDictionaryWithDefault
340
F
  0
DICTIONARY
  5
17
102
{ACAD_REACTORS
330
C
102
}
100
AcDbDictionary
280
0
281
1
  3
Standard
350
18
  0
DICTIONARY
  5
19
102
{ACAD_REACTORS
330
C
102
}
100
AcDbDictionary
281
1
  0
DICTIONARY
  5
1A
102
{ACAD_REACTORS
330
C
102
}
100
AcDbDictionary
281
1
  3
Model
350
3D9
  3
Layout1
350
3DA
  0
ACDBPLACEHOLDER
  5
F
102
{ACAD_REACTORS
330
E
102
}
  0
MLINESTYLE
  5
18
102
{ACAD_REACTORS
330
17
102
}
100
AcDbMlineStyle
  2
STANDARD
 70
0
  3

 62
256
 51
90.0
 52
90.0
 71
2
 49
0.5
 62
256
  6
BYLAYER
 49
-0.5
 62
256
  6
BYLAYER
  0
LAYOUT
  5
3D9
102
{ACAD_REACTORS
330
1A
102
}
100
AcDbPlotSettings
  1

  2
none_device
  4

  6

 40
0.0
 41
0.0
 42
0.0
 43
0.0
 44
210.0
 45
297.0
 46
0.0
 47
0.0
 48
0.0
 49
0.0
140
0.0
141
0.0
142
1.0
143
1.0
 70
1024
 72
1
 73
0
 74
0
  7

 75
0
147
1.0
148
0.0
149
0.0
100
AcDbLayout
  1
Model
 70
0
 71
0
 10
0.0
 20
0.0
 11
210.0
 21
297.0
 12
0.0
 22
0.0
 32
0.0
 14
0.0
 24
0.0
 34
0.0
 15
0.0
 25
0.0
 35
0.0
146
0.0
 13
0.0
 23
0.0
 33
0.0
 16
1.0
 26
0.0
 36
0.0
 17
0.0
 27
1.0
 37
0.0
 76
0
330
210
345
0
346
0
  0
LAYOUT
  5
3DA
102
{ACAD_REACTORS
330
1A
102
}
100
AcDbPlotSettings
  1

  2
none_device
  4

  6

 40
0.0
 41
0.0
 42
0.0
 43
0.0
 44
210.0
 45
297.0
 46
0.0
 47
0.0
 48
0.0
 49
0.0
140
0.0
141
0.0
142
1.0
143
1.0
 70
0
 72
1
 73
0
 74
0
  7

 75
0
147
1.0
148
0.0
149
0.0
100
AcDbLayout
  1
Layout1
 70
0
 71
1
 10
0.0
 20
0.0
 11
210.0
 21
297.0
 12
0.0
 22
0.0
 32
0.0
 14
0.0
 24
0.0
 34
0.0
 15
0.0
 25
0.0
 35
0.0
146
0.0
 13
0.0
 23
0.0
 33
0.0
 16
1.0
 26
0.0
 36
0.0
 17
0.0
 27
1.0
 37
0.0
 76
0
330
211
345
0
346
0
  0
ENDSEC
  0
EOF
