999
DXF file: C:\Users\sesa63760\Dev\_Creo\CAD\MCADID0004359_3D-CAD\drw0001_1.dxf
999
Pro/ENGINEER 2019471 by Parametric Technology Corporation
  0
SECTION
  2
HEADER
  9
$ACADVER
  1
AC1024
  9
$DWGCODEPAGE
  3
ANSI_1252
  9
$EXTMAX
 10
71.994337113
 20
101.8205624883
 30
0.0
  9
$EXTMIN
 10
0.0
 20
0.0
 30
0.0
  9
$LIMMIN
 10
0.0
 20
0.0
  9
$LIMMAX
 10
71.994337113
 20
101.8205624883
  9
$VIEWCTR
 10
35.9971685565
 20
50.9102812442
  9
$VIEWSIZE
 40
101.8205624883
  9
$CLAYER
  8
0
  9
$LTSCALE
 40
6.6371922215
  9
$CELTYPE
  6
BYLAYER
  9
$DIMSCALE
 40
1.0
  9
$DIMASZ
 40
0.8570754418
  9
$DIMEXO
 40
1.0
  9
$DIMDLI
 40
4.5856964439
  9
$DIMEXE
 40
1.0
  9
$DIMCEN
 40
1.0860859999
  9
$DIMLFAC
 40
1.0
  9
$DIMBLK
  1
_FILLED
  9
$DIMALT
 70
0
  9
$DIMALTF
 40
0.0393700787
  9
$DIMTXT
 40
1.1999056185
  9
$DIMTOL
 70
1
  9
$DIMLIM
 70
0
  9
$DIMTFAC
 40
1.0
  9
$DIMTP
 40
0.01
  9
$DIMTM
 40
0.01
  9
$DIMGAP
 40
0.625
  9
$DIMDSEP
 70
46
  9
$AUNITS
 70
0
  9
$PDMODE
 70
3
  9
$PDSIZE
 40
0.3125
  9
$HANDSEED
  5
40F
  9
$TILEMODE
 70
1
  9
$MEASUREMENT
 70
1
  9
$INSUNITS
 70
4
  0
ENDSEC
  0
SECTION
  2
CLASSES
  0
CLASS
  1
ACDBDICTIONARYWDFLT
  2
AcDbDictionaryWithDefault
  3
AutoCAD 2000
 90
0
 91
1
280
0
281
0
  0
CLASS
  1
ACDBPLACEHOLDER
  2
AcDbPlaceHolder
  3
AutoCAD 2000
 90
0
 91
1
280
0
281
0
  0
CLASS
  1
LAYOUT
  2
AcDbLayout
  3
AutoCAD 2000
 90
0
 91
0
280
0
281
0
  0
ENDSEC
  0
SECTION
  2
TABLES
  0
TABLE
  2
VPORT
  5
8
100
AcDbSymbolTable
 70
2
  0
VPORT
  5
1F4
100
AcDbSymbolTableRecord
100
AcDbViewportTableRecord
  2
*ACTIVE
 70
0
 10
0.0
 20
0.0
 11
1.0
 21
1.0
 12
35.9971685565
 22
50.9102812442
 13
0.0
 23
0.0
 14
1.0
 24
1.0
 15
0.0
 25
0.0
 16
0.0
 26
0.0
 36
1.0
 17
0.0
 27
0.0
 37
0.0
 40
101.8205624883
 41
0.7070707071
 42
50.0
 43
0.0
 44
0.0
 50
0.0
 51
0.0
 71
0
 72
100
 73
1
 74
1
 75
0
 76
0
 77
0
 78
0
  0
ENDTAB
  0
TABLE
  2
LTYPE
  5
5
100
AcDbSymbolTable
 70
6
  0
LTYPE
  5
14
100
AcDbSymbolTableRecord
100
AcDbLinetypeTableRecord
  2
BYBLOCK
 70
0
  3

 72
65
 73
0
 40
0.0
  0
LTYPE
  5
15
100
AcDbSymbolTableRecord
100
AcDbLinetypeTableRecord
  2
BYLAYER
 70
0
  3

 72
65
 73
0
 40
0.0
  0
LTYPE
  5
16
100
AcDbSymbolTableRecord
100
AcDbLinetypeTableRecord
  2
CONTINUOUS
 70
64
  3
Solid line
 72
65
 73
0
 40
0.0
  0
LTYPE
  5
1F5
100
AcDbSymbolTableRecord
100
AcDbLinetypeTableRecord
  2
CENTER
 70
64
  3
____ _ ____ _ ____ _ ____ _ ____ _ ____ _ ____
 72
65
 73
4
 40
0.6
 49
0.375
 74
0
 49
-0.075
 74
0
 49
0.075
 74
0
 49
-0.075
 74
0
  0
LTYPE
  5
1F6
100
AcDbSymbolTableRecord
100
AcDbLinetypeTableRecord
  2
HIDDEN
 70
64
  3
- - - - - - - - - - - - - - - - - - - -
 72
65
 73
2
 40
0.2
 49
0.1
 74
0
 49
-0.1
 74
0
  0
LTYPE
  5
1F7
100
AcDbSymbolTableRecord
100
AcDbLinetypeTableRecord
  2
PHANTOM
 70
64
  3
_____ _ _ _____ _ _ _____ _ _ _____
 72
65
 73
6
 40
0.8
 49
0.45
 74
0
 49
-0.05
 74
0
 49
0.1
 74
0
 49
-0.05
 74
0
 49
0.1
 74
0
 49
-0.05
 74
0
  0
LTYPE
  5
1F8
100
AcDbSymbolTableRecord
100
AcDbLinetypeTableRecord
  2
DOT
 70
64
  3
. . . . . . . . . . . . . . . . . . . .
 72
65
 73
2
 40
0.2
 49
0.1
 74
0
 49
-0.1
 74
0
  0
LTYPE
  5
1F9
100
AcDbSymbolTableRecord
100
AcDbLinetypeTableRecord
  2
DASHED
 70
64
  3
- - - - - - - - - - - - - - - - - - - -
 72
65
 73
2
 40
0.2
 49
0.1
 74
0
 49
-0.1
 74
0
  0
ENDTAB
  0
TABLE
  2
LAYER
  5
2
100
AcDbSymbolTable
 70
36
  0
LAYER
  5
10
100
AcDbSymbolTableRecord
100
AcDbLayerTableRecord
  2
0
 70
0
 62
7
  6
CONTINUOUS
370
-3
390
F
  0
LAYER
  5
1FA
100
AcDbSymbolTableRecord
100
AcDbLayerTableRecord
  2
DEFAULT_1
 70
0
 62
7
  6
CENTER
370
-3
390
F
  0
LAYER
  5
1FB
100
AcDbSymbolTableRecord
100
AcDbLayerTableRecord
  2
DEFAULT_2
 70
0
 62
7
  6
HIDDEN
370
-3
390
F
  0
LAYER
  5
1FC
100
AcDbSymbolTableRecord
100
AcDbLayerTableRecord
  2
DEFAULT_3
 70
0
 62
7
  6
PHANTOM
370
-3
390
F
  0
LAYER
  5
1FD
100
AcDbSymbolTableRecord
100
AcDbLayerTableRecord
  2
00_COMPONENTS
 70
0
 62
7
  6
CONTINUOUS
370
-3
390
F
  0
LAYER
  5
1FE
100
AcDbSymbolTableRecord
100
AcDbLayerTableRecord
  2
01_1_DEFAULT_DATUMS
 70
0
 62
7
  6
CONTINUOUS
370
-3
390
F
  0
LAYER
  5
1FF
100
AcDbSymbolTableRecord
100
AcDbLayerTableRecord
  2
01_PLANES
 70
0
 62
7
  6
CONTINUOUS
370
-3
390
F
  0
LAYER
  5
200
100
AcDbSymbolTableRecord
100
AcDbLayerTableRecord
  2
02_COORD_SYS
 70
0
 62
7
  6
CONTINUOUS
370
-3
390
F
  0
LAYER
  5
201
100
AcDbSymbolTableRecord
100
AcDbLayerTableRecord
  2
03_AXES
 70
0
 62
7
  6
CONTINUOUS
370
-3
390
F
  0
LAYER
  5
202
100
AcDbSymbolTableRecord
100
AcDbLayerTableRecord
  2
04_POINTS
 70
0
 62
7
  6
CONTINUOUS
370
-3
390
F
  0
LAYER
  5
203
100
AcDbSymbolTableRecord
100
AcDbLayerTableRecord
  2
05_CURVES
 70
0
 62
7
  6
CONTINUOUS
370
-3
390
F
  0
LAYER
  5
204
100
AcDbSymbolTableRecord
100
AcDbLayerTableRecord
  2
06_SURFS
 70
0
 62
7
  6
CONTINUOUS
370
-3
390
F
  0
LAYER
  5
205
100
AcDbSymbolTableRecord
100
AcDbLayerTableRecord
  2
07_COSMETICS
 70
0
 62
7
  6
CONTINUOUS
370
-3
390
F
  0
LAYER
  5
206
100
AcDbSymbolTableRecord
100
AcDbLayerTableRecord
  2
10_NOTES
 70
0
 62
7
  6
CONTINUOUS
370
-3
390
F
  0
LAYER
  5
207
100
AcDbSymbolTableRecord
100
AcDbLayerTableRecord
  2
11_NOTES_PUB
 70
0
 62
7
  6
CONTINUOUS
370
-3
390
F
  0
LAYER
  5
208
100
AcDbSymbolTableRecord
100
AcDbLayerTableRecord
  2
13_REF_GTOL
 70
0
 62
7
  6
CONTINUOUS
370
-3
390
F
  0
LAYER
  5
209
100
AcDbSymbolTableRecord
100
AcDbLayerTableRecord
  2
16_MISC
 70
0
 62
7
  6
CONTINUOUS
370
-3
390
F
  0
LAYER
  5
20A
100
AcDbSymbolTableRecord
100
AcDbLayerTableRecord
  2
17_NO_PRINT
 70
0
 62
7
  6
CONTINUOUS
370
-3
390
F
  0
LAYER
  5
20B
100
AcDbSymbolTableRecord
100
AcDbLayerTableRecord
  2
18_DATUM_CAMS_JOINTS
 70
0
 62
7
  6
CONTINUOUS
370
-3
390
F
  0
LAYER
  5
20C
100
AcDbSymbolTableRecord
100
AcDbLayerTableRecord
  2
19_DATUM_FUNCTIONAL
 70
0
 62
7
  6
CONTINUOUS
370
-3
390
F
  0
LAYER
  5
20D
100
AcDbSymbolTableRecord
100
AcDbLayerTableRecord
  2
20_DATUM_KINEMATIC_SCHEME
 70
0
 62
7
  6
CONTINUOUS
370
-3
390
F
  0
ENDTAB
  0
TABLE
  2
STYLE
  5
3
100
AcDbSymbolTable
 70
1
  0
STYLE
  5
11
100
AcDbSymbolTableRecord
100
AcDbTextStyleTableRecord
  2
STANDARD
 70
0
 40
0.0
 41
1.0
 50
0.0
 71
0
 42
0.2
  3
ARIAL.TTF
  4

  0
STYLE
  5
20E
100
AcDbSymbolTableRecord
100
AcDbTextStyleTableRecord
  2
TEXTSTYLE_1
 70
0
 40
0.0
 41
0.8
 50
0.0
 71
0
 42
0.2
  3
gdt
  4

  0
ENDTAB
  0
TABLE
  2
VIEW
  5
6
100
AcDbSymbolTable
 70
0
  0
ENDTAB
  0
TABLE
  2
UCS
  5
7
100
AcDbSymbolTable
 70
0
  0
ENDTAB
  0
TABLE
  2
APPID
  5
9
100
AcDbSymbolTable
 70
1
  0
APPID
  5
20F
100
AcDbSymbolTableRecord
100
AcDbRegAppTableRecord
  2
ACAD
 70
0
  0
ENDTAB
  0
TABLE
  2
BLOCK_RECORD
  5
1
100
AcDbSymbolTable
 70
0
  0
BLOCK_RECORD
  5
210
100
AcDbSymbolTableRecord
100
AcDbBlockTableRecord
  2
*Model_Space
  0
BLOCK_RECORD
  5
211
100
AcDbSymbolTableRecord
100
AcDbBlockTableRecord
  2
*Paper_Space
  0
BLOCK_RECORD
  5
212
100
AcDbSymbolTableRecord
100
AcDbBlockTableRecord
  2
_FILLED
  0
ENDTAB
  0
TABLE
  2
DIMSTYLE
  5
A
100
AcDbSymbolTable
 70
1
100
AcDbDimStyleTable
 71
0
  0
DIMSTYLE
105
213
100
AcDbSymbolTableRecord
100
AcDbDimStyleTableRecord
  2
STANDARD
 70
0
  3

  4

 40
1.0
 41
0.8570754418
 42
1.0
 43
0.38
 44
1.0
 45
0.0
 46
0.0
 47
0.01
 48
0.01
140
1.1999056185
141
0.09
142
0.0
143
25.4
144
1.0
145
0.0
146
1.0
147
0.625
 71
1
 72
0
 73
0
 74
0
 75
0
 76
0
 77
1
 78
8
 79
2
170
0
171
1
172
0
173
0
174
0
175
0
176
0
177
0
178
0
270
2
179
2
271
2
272
2
273
2
274
2
275
0
280
0
281
0
282
0
283
1
284
8
285
0
286
0
287
3
288
0
340
11
278
46
341
212
342
212
343
212
344
212
  0
ENDTAB
  0
ENDSEC
  0
SECTION
  2
BLOCKS
  0
BLOCK
  5
20
100
AcDbEntity
  8
0
100
AcDbBlockBegin
  2
*Model_Space
 70
0
 10
0.0
 20
0.0
 30
0.0
  3
*Model_Space
  1

  0
ENDBLK
  5
21
100
AcDbEntity
  8
0
100
AcDbBlockEnd
  0
BLOCK
  5
1C
100
AcDbEntity
  8
0
100
AcDbBlockBegin
  2
*Paper_Space
 70
0
 10
0.0
 20
0.0
 30
0.0
  3
*Paper_Space
  1

  0
ENDBLK
  5
1D
100
AcDbEntity
  8
0
100
AcDbBlockEnd
  0
BLOCK
  5
214
100
AcDbEntity
  8
0
100
AcDbBlockBegin
  2
_FILLED
 70
64
 10
0.0
 20
0.0
  3
_FILLED
  1

  0
SOLID
  5
215
100
AcDbEntity
  8
0
  6
BYBLOCK
 62
0
100
AcDbTrace
 10
0.0
 20
0.0
 11
-1.0
 21
0.25
 12
-1.0
 22
-0.25
 13
-1.0
 23
-0.25
  0
ENDBLK
  5
216
100
AcDbEntity
  8
0
  6
BYBLOCK
 62
0
100
AcDbBlockEnd
  0
ENDSEC
  0
SECTION
  2
ENTITIES
  0
LINE
  5
217
100
AcDbEntity
  8
0
100
AcDbLine
 62
7
  6
BYLAYER
 10
10.3487104484
 20
72.8756996097
 11
19.5410603322
 21
78.18287361
  0
LINE
  5
218
100
AcDbEntity
  8
0
100
AcDbLine
 62
7
  6
BYLAYER
 10
19.5410662201
 20
77.3663887016
 11
11.7629240108
 21
72.8757030091
  0
LINE
  5
219
100
AcDbEntity
  8
0
100
AcDbLine
 62
7
  6
BYLAYER
 10
19.5410662201
 20
76.7540132988
 11
12.293264248
 21
72.5695178572
  0
LINE
  5
21A
100
AcDbEntity
  8
0
100
AcDbLine
 62
7
  6
BYLAYER
 10
19.1875319653
 20
74.6719881887
 11
16.3591166165
 21
73.0390115732
  0
LINE
  5
21B
100
AcDbEntity
  8
0
100
AcDbLine
 62
7
  6
BYLAYER
 10
8.3521674365
 20
66.8238814997
 11
8.3521714197
 21
66.2715248597
  0
LINE
  5
21C
100
AcDbEntity
  8
0
100
AcDbLine
 62
7
  6
BYLAYER
 10
10.3487104484
 20
72.8756996097
 11
10.3487104386
 21
48.3806270563
  0
LINE
  5
21D
100
AcDbEntity
  8
0
100
AcDbLine
 62
7
  6
BYLAYER
 10
22.0159708659
 20
73.0390251706
 11
19.187555517
 21
71.4060485551
  0
LINE
  5
21E
100
AcDbEntity
  8
0
100
AcDbLine
 62
7
  6
BYLAYER
 10
22.0159708659
 20
72.4674734786
 11
19.187555517
 21
70.8344968631
  0
LINE
  5
21F
100
AcDbEntity
  8
0
100
AcDbLine
 62
7
  6
BYLAYER
 10
11.4173779484
 20
49.930887662
 11
11.4173779484
 21
58.0439457632
  0
LINE
  5
220
100
AcDbEntity
  8
0
100
AcDbLine
 62
7
  6
BYLAYER
 10
11.9517116984
 20
47.4551547506
 11
11.9517116984
 21
48.6935451996
  0
LINE
  5
221
100
AcDbEntity
  8
0
100
AcDbLine
 62
7
  6
BYLAYER
 10
12.4860454485
 20
57.4269642524
 11
12.4860454485
 21
50.931560819
  0
LINE
  5
222
100
AcDbEntity
  8
0
100
AcDbLine
 62
7
  6
BYLAYER
 10
24.8444097665
 20
71.4060621525
 11
22.0159944176
 21
69.773085537
  0
LINE
  5
223
100
AcDbEntity
  8
0
100
AcDbLine
 62
7
  6
BYLAYER
 10
11.9517116984
 20
48.6935451996
 11
11.4173779484
 21
49.930887662
  0
LINE
  5
224
100
AcDbEntity
  8
0
100
AcDbLine
 62
7
  6
BYLAYER
 10
27.6728486671
 20
69.7730991344
 11
24.8444333182
 21
68.1401225189
  0
LINE
  5
225
100
AcDbEntity
  8
0
100
AcDbLine
 62
7
  6
BYLAYER
 10
16.3591166165
 20
72.4674598812
 11
16.3591166165
 21
73.0390115732
  0
LINE
  5
226
100
AcDbEntity
  8
0
100
AcDbLine
 62
7
  6
BYLAYER
 10
27.6728486671
 20
69.2015474424
 11
24.8444333182
 21
67.5685708269
  0
LINE
  5
227
100
AcDbEntity
  8
0
100
AcDbLine
 62
7
  6
BYLAYER
 10
11.4173779484
 20
58.0439457632
 11
11.9255707313
 21
58.3373492518
  0
LINE
  5
228
100
AcDbEntity
  8
0
100
AcDbLine
 62
7
  6
BYLAYER
 10
17.9140324875
 20
47.7977823377
 11
19.0296640283
 21
43.3687896883
  0
LINE
  5
229
100
AcDbEntity
  8
0
100
AcDbLine
 62
7
  6
BYLAYER
 10
19.187555517
 20
71.4060485551
 11
19.187555517
 21
70.8344968631
  0
LINE
  5
22A
100
AcDbEntity
  8
0
100
AcDbLine
 62
7
  6
BYLAYER
 10
19.5410662201
 20
77.3663887016
 11
19.5410662201
 21
76.7540132988
  0
LINE
  5
22B
100
AcDbEntity
  8
0
100
AcDbLine
 62
7
  6
BYLAYER
 10
30.5012875677
 20
68.1401361163
 11
27.6728722188
 21
66.5071595009
  0
LINE
  5
22C
100
AcDbEntity
  8
0
100
AcDbLine
 62
7
  6
BYLAYER
 10
10.3487104386
 20
48.3806270563
 11
11.9517116984
 21
47.4551547506
  0
LINE
  5
22D
100
AcDbEntity
  8
0
100
AcDbLine
 62
7
  6
BYLAYER
 10
19.0296640283
 20
43.3687896883
 11
22.3153608783
 21
41.4718347627
  0
LINE
  5
22E
100
AcDbEntity
  8
0
100
AcDbLine
 62
7
  6
BYLAYER
 10
36.3452071151
 20
33.3718830564
 11
52.7752939572
 21
23.8861832346
  0
LINE
  5
22F
100
AcDbEntity
  8
0
100
AcDbLine
 62
7
  6
BYLAYER
 10
22.0159708659
 20
72.4674734786
 11
22.0159708659
 21
73.0390251706
  0
LINE
  5
230
100
AcDbEntity
  8
0
100
AcDbLine
 62
7
  6
BYLAYER
 10
22.0159944176
 20
69.201533845
 11
22.0159944176
 21
69.773085537
  0
LINE
  5
231
100
AcDbEntity
  8
0
100
AcDbLine
 62
7
  6
BYLAYER
 10
33.3297264683
 20
66.5071730983
 11
30.5013111194
 21
64.8741964828
  0
LINE
  5
232
100
AcDbEntity
  8
0
100
AcDbLine
 62
7
  6
BYLAYER
 10
33.3297264683
 20
65.9356214063
 11
30.5013111194
 21
64.3026447908
  0
LINE
  5
233
100
AcDbEntity
  8
0
100
AcDbLine
 62
7
  6
BYLAYER
 10
28.7335574143
 20
63.0779249006
 11
36.5116996237
 21
67.5686105932
  0
LINE
  5
234
100
AcDbEntity
  8
0
100
AcDbLine
 62
7
  6
BYLAYER
 10
36.1581594809
 20
65.7315186994
 11
31.9155364576
 21
63.2820537762
  0
LINE
  5
235
100
AcDbEntity
  8
0
100
AcDbLine
 62
7
  6
BYLAYER
 10
36.1581594809
 20
65.6498698677
 11
31.986247431
 21
63.2412297003
  0
LINE
  5
236
100
AcDbEntity
  8
0
100
AcDbLine
 62
7
  6
BYLAYER
 10
36.1671404987
 20
35.6419306802
 11
35.0984729986
 21
36.2589121121
  0
LINE
  5
237
100
AcDbEntity
  8
0
100
AcDbLine
 62
7
  6
BYLAYER
 10
24.8444333182
 20
68.1401225189
 11
24.8444333182
 21
67.5685708269
  0
LINE
  5
238
100
AcDbEntity
  8
0
100
AcDbLine
 62
7
  6
BYLAYER
 10
22.3153608783
 20
41.4718347627
 11
23.4309923837
 21
44.6126361141
  0
LINE
  5
239
100
AcDbEntity
  8
0
100
AcDbLine
 62
7
  6
BYLAYER
 10
11.4173779484
 20
49.930887662
 11
12.8183280343
 21
50.7397217431
  0
LINE
  5
23A
100
AcDbEntity
  8
0
100
AcDbLine
 62
7
  6
BYLAYER
 10
11.9517116984
 20
48.6935451996
 11
14.1570825445
 21
49.9668090509
  0
LINE
  5
23B
100
AcDbEntity
  8
0
100
AcDbLine
 62
7
  6
BYLAYER
 10
57.7501185836
 20
39.4663067938
 11
57.8135274814
 21
39.468110332
  0
LINE
  5
23C
100
AcDbEntity
  8
0
100
AcDbLine
 62
7
  6
BYLAYER
 10
57.8003674192
 20
39.8297013213
 11
57.8541547631
 21
39.8277186577
  0
LINE
  5
23D
100
AcDbEntity
  8
0
100
AcDbLine
 62
7
  6
BYLAYER
 10
23.4309923837
 20
44.6126361141
 11
36.167140409
 21
37.259584913
  0
LINE
  5
23E
100
AcDbEntity
  8
0
100
AcDbLine
 62
7
  6
BYLAYER
 10
12.4860454485
 20
50.931560819
 11
17.9140324875
 21
47.7977823377
  0
LINE
  5
23F
100
AcDbEntity
  8
0
100
AcDbLine
 62
7
  6
BYLAYER
 10
27.6728486671
 20
69.2015474424
 11
27.6728486671
 21
69.7730991344
  0
LINE
  5
240
100
AcDbEntity
  8
0
100
AcDbLine
 62
7
  6
BYLAYER
 10
27.6728722188
 20
65.9356078089
 11
27.6728722188
 21
66.5071595009
  0
LINE
  5
241
100
AcDbEntity
  8
0
100
AcDbLine
 62
7
  6
BYLAYER
 10
11.9517116984
 20
47.4551547506
 11
15.229575534
 21
49.3476190219
  0
LINE
  5
242
100
AcDbEntity
  8
0
100
AcDbLine
 62
7
  6
BYLAYER
 10
64.0639164661
 20
42.1909228157
 11
64.0005075683
 21
42.1891192775
  0
LINE
  5
243
100
AcDbEntity
  8
0
100
AcDbLine
 62
7
  6
BYLAYER
 10
57.8771210981
 20
40.2016182263
 11
57.9215003029
 21
40.1970286472
  0
LINE
  5
244
100
AcDbEntity
  8
0
100
AcDbLine
 62
7
  6
BYLAYER
 10
30.5013111194
 20
64.8741964828
 11
30.5013111194
 21
64.3026447908
  0
LINE
  5
245
100
AcDbEntity
  8
0
100
AcDbLine
 62
7
  6
BYLAYER
 10
57.9797247851
 20
40.5788844452
 11
58.0149153058
 21
40.5727635532
  0
LINE
  5
246
100
AcDbEntity
  8
0
100
AcDbLine
 62
7
  6
BYLAYER
 10
35.0984729986
 20
36.2589121121
 11
36.3452071151
 21
33.3718830564
  0
LINE
  5
247
100
AcDbEntity
  8
0
100
AcDbLine
 62
7
  6
BYLAYER
 10
33.3297264683
 20
65.9356214063
 11
33.3297264683
 21
66.5071730983
  0
LINE
  5
248
100
AcDbEntity
  8
0
100
AcDbLine
 62
7
  6
BYLAYER
 10
40.4008531594
 20
58.383164722
 11
44.6434761827
 21
60.8326296452
  0
LINE
  5
249
100
AcDbEntity
  8
0
100
AcDbLine
 62
7
  6
BYLAYER
 10
58.1073031015
 20
40.9582812753
 11
58.1335890977
 21
40.9516928544
  0
LINE
  5
24A
100
AcDbEntity
  8
0
100
AcDbLine
 62
7
  6
BYLAYER
 10
58.2587675943
 20
41.3365718369
 11
58.2765276797
 21
41.3306144898
  0
LINE
  5
24B
100
AcDbEntity
  8
0
100
AcDbLine
 62
7
  6
BYLAYER
 10
36.1581594809
 20
65.7315186994
 11
36.1581594809
 21
65.6498698677
  0
LINE
  5
24C
100
AcDbEntity
  8
0
100
AcDbLine
 62
7
  6
BYLAYER
 10
36.167140409
 20
37.259584913
 11
36.1671404987
 21
35.6419306802
  0
LINE
  5
24D
100
AcDbEntity
  8
0
100
AcDbLine
 62
7
  6
BYLAYER
 10
58.4328260217
 20
41.7105286882
 11
58.4425377455
 21
41.7063436451
  0
LINE
  5
24E
100
AcDbEntity
  8
0
100
AcDbLine
 62
7
  6
BYLAYER
 10
9.1806207025
 20
64.4404074642
 11
10.3487104448
 21
63.7660257937
  0
LINE
  5
24F
100
AcDbEntity
  8
0
100
AcDbLine
 62
7
  6
BYLAYER
 10
55.7998288205
 20
38.5814926889
 11
58.6282677211
 21
36.9485296708
  0
LINE
  5
250
100
AcDbEntity
  8
0
100
AcDbLine
 62
7
  6
BYLAYER
 10
58.6933596918
 20
36.9269396193
 11
58.8429034893
 21
36.8406024207
  0
LINE
  5
251
100
AcDbEntity
  8
0
100
AcDbLine
 62
7
  6
BYLAYER
 10
58.4853757389
 20
37.0470270656
 11
55.6569368383
 21
38.6799900836
  0
LINE
  5
252
100
AcDbEntity
  8
0
100
AcDbLine
 62
7
  6
BYLAYER
 10
55.6046345421
 20
38.7225234573
 11
58.4330734427
 21
37.0895604392
  0
LINE
  5
253
100
AcDbEntity
  8
0
100
AcDbLine
 62
7
  6
BYLAYER
 10
58.9268823926
 20
36.8522996333
 11
59.0751495507
 21
36.7666994862
  0
LINE
  5
254
100
AcDbEntity
  8
0
100
AcDbLine
 62
7
  6
BYLAYER
 10
58.30525362
 20
37.211211818
 11
55.4768147195
 21
38.8441748361
  0
LINE
  5
255
100
AcDbEntity
  8
0
100
AcDbLine
 62
7
  6
BYLAYER
 10
55.4305470824
 20
38.8954545192
 11
58.258985983
 21
37.2624915011
  0
LINE
  5
256
100
AcDbEntity
  8
0
100
AcDbLine
 62
7
  6
BYLAYER
 10
59.1772989081
 20
36.8115841663
 11
59.3230244637
 21
36.7274513809
  0
LINE
  5
257
100
AcDbEntity
  8
0
100
AcDbLine
 62
7
  6
BYLAYER
 10
58.1473288334
 20
37.4062589773
 11
55.3188899329
 21
39.0392219954
  0
LINE
  5
258
100
AcDbEntity
  8
0
100
AcDbLine
 62
7
  6
BYLAYER
 10
55.2790516941
 20
39.0988104877
 11
58.1074905947
 21
37.4658474696
  0
LINE
  5
259
100
AcDbEntity
  8
0
100
AcDbLine
 62
7
  6
BYLAYER
 10
59.442472773
 20
36.8051405884
 11
59.5844134471
 21
36.7231929559
  0
LINE
  5
25A
100
AcDbEntity
  8
0
100
AcDbLine
 62
7
  6
BYLAYER
 10
58.0129487377
 20
37.6305044698
 11
55.1845098371
 21
39.2634674879
  0
LINE
  5
25B
100
AcDbEntity
  8
0
100
AcDbLine
 62
7
  6
BYLAYER
 10
55.1514408825
 20
39.3308564015
 11
57.9798797831
 21
37.6978933834
  0
LINE
  5
25C
100
AcDbEntity
  8
0
100
AcDbLine
 62
7
  6
BYLAYER
 10
59.7201416173
 20
36.8330238739
 11
59.857086422
 21
36.7539605427
  0
LINE
  5
25D
100
AcDbEntity
  8
0
100
AcDbLine
 62
7
  6
BYLAYER
 10
57.9032598165
 20
37.8820351121
 11
55.0748209159
 21
39.5149981301
  0
LINE
  5
25E
100
AcDbEntity
  8
0
100
AcDbLine
 62
7
  6
BYLAYER
 10
55.0488033781
 20
39.5896125265
 11
57.8772422786
 21
37.9566495084
  0
LINE
  5
25F
100
AcDbEntity
  8
0
100
AcDbLine
 62
7
  6
BYLAYER
 10
60.0160391528
 20
36.8903181512
 11
60.138717039
 21
36.8194916429
  0
LINE
  5
260
100
AcDbEntity
  8
0
100
AcDbLine
 62
7
  6
BYLAYER
 10
57.8191978969
 20
38.1587049333
 11
54.9907589963
 21
39.7916679514
  0
LINE
  5
261
100
AcDbEntity
  8
0
100
AcDbLine
 62
7
  6
BYLAYER
 10
54.9720148477
 20
39.8728712468
 11
57.8004537483
 21
38.2399082288
  0
LINE
  5
262
100
AcDbEntity
  8
0
100
AcDbLine
 62
7
  6
BYLAYER
 10
60.303401962
 20
36.9905286385
 11
60.4269025248
 21
36.9192271683
  0
LINE
  5
263
100
AcDbEntity
  8
0
100
AcDbLine
 62
7
  6
BYLAYER
 10
57.7614801657
 20
38.4581534842
 11
54.9330412651
 21
40.0911165023
  0
LINE
  5
264
100
AcDbEntity
  8
0
100
AcDbLine
 62
7
  6
BYLAYER
 10
54.9217304242
 20
40.1782158989
 11
57.7501693248
 21
38.5452528809
  0
LINE
  5
265
100
AcDbEntity
  8
0
100
AcDbLine
 62
7
  6
BYLAYER
 10
60.6067151138
 20
37.1172487888
 11
60.7191841825
 21
37.0523162106
  0
LINE
  5
266
100
AcDbEntity
  8
0
100
AcDbLine
 62
7
  6
BYLAYER
 10
57.7305990501
 20
38.7778259753
 11
54.9021601495
 21
40.4107889934
  0
LINE
  5
267
100
AcDbEntity
  8
0
100
AcDbLine
 62
7
  6
BYLAYER
 10
54.8983791164
 20
40.5030413899
 11
57.726818017
 21
38.8700783718
  0
LINE
  5
268
100
AcDbEntity
  8
0
100
AcDbLine
 62
7
  6
BYLAYER
 10
60.9112851324
 20
37.2763865503
 11
61.0130683681
 21
37.2176233011
  0
LINE
  5
269
100
AcDbEntity
  8
0
100
AcDbLine
 62
7
  6
BYLAYER
 10
57.726818017
 20
39.1149950736
 11
54.8983791164
 21
40.7479580917
  0
LINE
  5
26A
100
AcDbEntity
  8
0
100
AcDbLine
 62
7
  6
BYLAYER
 10
54.9021601495
 20
40.8445764231
 11
57.7305990501
 21
39.211613405
  0
LINE
  5
26B
100
AcDbEntity
  8
0
100
AcDbLine
 62
7
  6
BYLAYER
 10
22.3153608783
 20
41.4718347627
 11
25.5932247686
 21
43.3642990656
  0
LINE
  5
26C
100
AcDbEntity
  8
0
100
AcDbLine
 62
7
  6
BYLAYER
 10
61.2123660888
 20
37.4678240154
 11
61.3060477652
 21
37.4137380979
  0
LINE
  5
26D
100
AcDbEntity
  8
0
100
AcDbLine
 62
7
  6
BYLAYER
 10
57.7501693248
 20
39.4667841713
 11
54.9217304242
 21
41.0997471894
  0
LINE
  5
26E
100
AcDbEntity
  8
0
100
AcDbLine
 62
7
  6
BYLAYER
 10
54.9330412651
 20
41.1999071421
 11
57.7614801657
 21
39.566944124
  0
LINE
  5
26F
100
AcDbEntity
  8
0
100
AcDbLine
 62
7
  6
BYLAYER
 10
59.6570387336
 20
38.6635390505
 11
61.7783679091
 21
37.438816787
  0
LINE
  5
270
100
AcDbEntity
  8
0
100
AcDbLine
 62
7
  6
BYLAYER
 10
57.8004537483
 20
39.8301919277
 11
54.9720148477
 21
41.4631549458
  0
LINE
  5
271
100
AcDbEntity
  8
0
100
AcDbLine
 62
7
  6
BYLAYER
 10
54.9907589963
 20
41.5660019905
 11
57.8191978969
 21
39.9330389724
  0
LINE
  5
272
100
AcDbEntity
  8
0
100
AcDbLine
 62
7
  6
BYLAYER
 10
61.296303104
 20
38.1956514652
 11
59.8820836537
 21
39.0121329742
  0
LINE
  5
273
100
AcDbEntity
  8
0
100
AcDbLine
 62
7
  6
BYLAYER
 10
57.8772422786
 20
40.2021178761
 11
55.0488033781
 21
41.8350808942
  0
LINE
  5
274
100
AcDbEntity
  8
0
100
AcDbLine
 62
7
  6
BYLAYER
 10
55.0748209159
 20
41.9397375762
 11
57.9032598165
 21
40.3067745581
  0
LINE
  5
275
100
AcDbEntity
  8
0
100
AcDbLine
 62
7
  6
BYLAYER
 10
57.9798797831
 20
40.5793888754
 11
55.1514408825
 21
42.2123518935
  0
LINE
  5
276
100
AcDbEntity
  8
0
100
AcDbLine
 62
7
  6
BYLAYER
 10
55.1845098371
 20
42.3179253188
 11
58.0129487377
 21
40.6849623007
  0
LINE
  5
277
100
AcDbEntity
  8
0
100
AcDbLine
 62
7
  6
BYLAYER
 10
59.8820836537
 20
39.8286353913
 11
61.296303104
 21
39.0121538823
  0
LINE
  5
278
100
AcDbEntity
  8
0
100
AcDbLine
 62
7
  6
BYLAYER
 10
61.3212289193
 20
39.0265447226
 11
62.0283508637
 21
38.6182969135
  0
LINE
  5
279
100
AcDbEntity
  8
0
100
AcDbLine
 62
7
  6
BYLAYER
 10
58.1074905947
 20
40.9587861824
 11
55.2790516941
 21
42.5917492005
  0
LINE
  5
27A
100
AcDbEntity
  8
0
100
AcDbLine
 62
7
  6
BYLAYER
 10
55.3188899329
 20
42.697338654
 11
58.1473288334
 21
41.0643756359
  0
LINE
  5
27B
100
AcDbEntity
  8
0
100
AcDbLine
 62
7
  6
BYLAYER
 10
58.258985983
 20
41.3370729132
 11
55.4305470824
 21
42.9700359312
  0
LINE
  5
27C
100
AcDbEntity
  8
0
100
AcDbLine
 62
7
  6
BYLAYER
 10
55.4768147195
 20
43.0747405608
 11
58.30525362
 21
41.4417775428
  0
LINE
  5
27D
100
AcDbEntity
  8
0
100
AcDbLine
 62
7
  6
BYLAYER
 10
58.4330734427
 20
41.7110216586
 11
55.6046345421
 21
43.3439846767
  0
LINE
  5
27E
100
AcDbEntity
  8
0
100
AcDbLine
 62
7
  6
BYLAYER
 10
55.6569368383
 20
43.4469111794
 11
58.4853757389
 21
41.8139481613
  0
LINE
  5
27F
100
AcDbEntity
  8
0
100
AcDbLine
 62
7
  6
BYLAYER
 10
58.6282677211
 20
42.0774420199
 11
55.7998288205
 21
43.710405038
  0
LINE
  5
280
100
AcDbEntity
  8
0
100
AcDbLine
 62
7
  6
BYLAYER
 10
55.8577195511
 20
43.8106752812
 11
58.6861584517
 21
42.1777122631
  0
LINE
  5
281
100
AcDbEntity
  8
0
100
AcDbLine
 62
7
  6
BYLAYER
 10
58.8429034893
 20
42.4332078277
 11
56.0144645887
 21
44.0661708458
  0
LINE
  5
282
100
AcDbEntity
  8
0
100
AcDbLine
 62
7
  6
BYLAYER
 10
56.0774498504
 20
44.1629293592
 11
58.905888751
 21
42.5299663411
  0
LINE
  5
283
100
AcDbEntity
  8
0
100
AcDbLine
 62
7
  6
BYLAYER
 10
64.0283425369
 20
39.7729857518
 11
62.7026950612
 21
40.5383313643
  0
LINE
  5
284
100
AcDbEntity
  8
0
100
AcDbLine
 62
7
  6
BYLAYER
 10
59.0751495507
 20
42.7752838136
 11
56.2467106501
 21
44.4082468317
  0
LINE
  5
285
100
AcDbEntity
  8
0
100
AcDbLine
 62
7
  6
BYLAYER
 10
56.3142530748
 20
44.5006681057
 11
59.1426919754
 21
42.8677050876
  0
LINE
  5
286
100
AcDbEntity
  8
0
100
AcDbLine
 62
7
  6
BYLAYER
 10
59.3230244637
 20
43.1007515059
 11
56.4945855631
 21
44.733714524
  0
LINE
  5
287
100
AcDbEntity
  8
0
100
AcDbLine
 62
7
  6
BYLAYER
 10
56.5661089027
 20
44.8210100529
 11
59.3945478033
 21
43.1880470348
  0
LINE
  5
288
100
AcDbEntity
  8
0
100
AcDbLine
 62
7
  6
BYLAYER
 10
63.4875739587
 20
40.9016939901
 11
64.0283425369
 21
40.5894881689
  0
LINE
  5
289
100
AcDbEntity
  8
0
100
AcDbLine
 62
7
  6
BYLAYER
 10
64.0532683522
 20
40.6038790092
 11
64.7603902966
 21
40.1956312001
  0
LINE
  5
28A
100
AcDbEntity
  8
0
100
AcDbLine
 62
7
  6
BYLAYER
 10
59.5844134471
 20
43.406834129
 11
56.7559745465
 21
45.0397971471
  0
LINE
  5
28B
100
AcDbEntity
  8
0
100
AcDbLine
 62
7
  6
BYLAYER
 10
56.830868589
 20
45.1212221563
 11
59.6593074896
 21
43.4882591382
  0
LINE
  5
28C
100
AcDbEntity
  8
0
100
AcDbLine
 62
7
  6
BYLAYER
 10
59.857086422
 20
43.6909202939
 11
57.0286475215
 21
45.323883312
  0
LINE
  5
28D
100
AcDbEntity
  8
0
100
AcDbLine
 62
7
  6
BYLAYER
 10
57.1062732974
 20
45.3987431119
 11
59.934712198
 21
43.7657800938
  0
LINE
  5
28E
100
AcDbEntity
  8
0
100
AcDbLine
 62
7
  6
BYLAYER
 10
60.138717039
 20
43.9505862776
 11
57.3102781384
 21
45.5835492956
  0
LINE
  5
28F
100
AcDbEntity
  8
0
100
AcDbLine
 62
7
  6
BYLAYER
 10
57.389973372
 20
45.6512052089
 11
60.2184122726
 21
44.0182421908
  0
LINE
  5
290
100
AcDbEntity
  8
0
100
AcDbLine
 62
7
  6
BYLAYER
 10
52.7752939572
 20
48.3812543385
 11
10.3487104484
 21
72.8756996097
  0
LINE
  5
291
100
AcDbEntity
  8
0
100
AcDbLine
 62
7
  6
BYLAYER
 10
62.1569963161
 20
42.993690559
 11
64.2783254915
 21
41.7689682954
  0
LINE
  5
292
100
AcDbEntity
  8
0
100
AcDbLine
 62
7
  6
BYLAYER
 10
60.4269025248
 20
44.1836167014
 11
57.5984636242
 21
45.8165797195
  0
LINE
  5
293
100
AcDbEntity
  8
0
100
AcDbLine
 62
7
  6
BYLAYER
 10
64.063865725
 20
42.1904454382
 11
63.9680526639
 21
42.2457618834
  0
LINE
  5
294
100
AcDbEntity
  8
0
100
AcDbLine
 62
7
  6
BYLAYER
 10
57.6795483839
 20
45.8764545297
 11
60.5079872845
 21
44.2434915116
  0
LINE
  5
295
100
AcDbEntity
  8
0
100
AcDbLine
 62
7
  6
BYLAYER
 10
60.7191841825
 20
44.388023432
 11
57.8907452819
 21
46.0209864501
  0
LINE
  5
296
100
AcDbEntity
  8
0
100
AcDbLine
 62
7
  6
BYLAYER
 10
64.0872170327
 20
42.5422345359
 11
63.9811661895
 21
42.6034616336
  0
LINE
  5
297
100
AcDbEntity
  8
0
100
AcDbLine
 62
7
  6
BYLAYER
 10
57.972527781
 20
46.0725693265
 11
60.8009666816
 21
44.4396063084
  0
LINE
  5
298
100
AcDbEntity
  8
0
100
AcDbLine
 62
7
  6
BYLAYER
 10
11.7629240108
 20
72.8757030091
 11
28.7335574143
 21
63.0779249006
  0
LINE
  5
299
100
AcDbEntity
  8
0
100
AcDbLine
 62
7
  6
BYLAYER
 10
61.0130683681
 20
44.5620625432
 11
58.1846294675
 21
46.1950255613
  0
LINE
  5
29A
100
AcDbEntity
  8
0
100
AcDbLine
 62
7
  6
BYLAYER
 10
64.0834359996
 20
42.8794036342
 11
63.9680521627
 21
42.9460190164
  0
LINE
  5
29B
100
AcDbEntity
  8
0
100
AcDbLine
 62
7
  6
BYLAYER
 10
58.2664119666
 20
46.2378764169
 11
61.0948508672
 21
44.6049133988
  0
LINE
  5
29C
100
AcDbEntity
  8
0
100
AcDbLine
 62
7
  6
BYLAYER
 10
61.3060477652
 20
44.7042491947
 11
58.4776088647
 21
46.3372122127
  0
LINE
  5
29D
100
AcDbEntity
  8
0
100
AcDbLine
 62
7
  6
BYLAYER
 10
64.052554884
 20
43.1990761253
 11
63.9288224677
 21
43.2705114531
  0
LINE
  5
29E
100
AcDbEntity
  8
0
100
AcDbLine
 62
7
  6
BYLAYER
 10
58.5586936243
 20
46.3709654593
 11
61.3871325249
 21
44.7380024412
  0
LINE
  5
29F
100
AcDbEntity
  8
0
100
AcDbLine
 62
7
  6
BYLAYER
 10
61.5956227771
 20
44.8133703
 11
58.7671838765
 21
46.4463333181
  0
LINE
  5
2A0
100
AcDbEntity
  8
0
100
AcDbLine
 62
7
  6
BYLAYER
 10
63.9948371528
 20
43.4985246762
 11
63.8723818677
 21
43.5692226686
  0
LINE
  5
2A1
100
AcDbEntity
  8
0
100
AcDbLine
 62
7
  6
BYLAYER
 10
58.8468791101
 20
46.4707009847
 11
61.6753180107
 21
44.8377379666
  0
LINE
  5
2A2
100
AcDbEntity
  8
0
100
AcDbLine
 62
7
  6
BYLAYER
 10
61.8793228517
 20
44.8884948765
 11
59.0508839511
 21
46.5214578946
  0
LINE
  5
2A3
100
AcDbEntity
  8
0
100
AcDbLine
 62
7
  6
BYLAYER
 10
63.9107752332
 20
43.7751944974
 11
63.7735748027
 21
43.8544054109
  0
LINE
  5
2A4
100
AcDbEntity
  8
0
100
AcDbLine
 62
7
  6
BYLAYER
 10
59.1285097271
 20
46.5362320849
 11
61.9569486277
 21
44.9032690668
  0
LINE
  5
2A5
100
AcDbEntity
  8
0
100
AcDbLine
 62
7
  6
BYLAYER
 10
62.1547275601
 20
44.9289819877
 11
59.3262886595
 21
46.5619450057
  0
LINE
  5
2A6
100
AcDbEntity
  8
0
100
AcDbLine
 62
7
  6
BYLAYER
 10
63.801086312
 20
44.0267251397
 11
63.6588813512
 21
44.1088253547
  0
LINE
  5
2A7
100
AcDbEntity
  8
0
100
AcDbLine
 62
7
  6
BYLAYER
 10
59.4011827021
 20
46.5669996716
 11
62.2296216027
 21
44.9340366536
  0
LINE
  5
2A8
100
AcDbEntity
  8
0
100
AcDbLine
 62
7
  6
BYLAYER
 10
62.4194872464
 20
44.9344862118
 11
59.5910483458
 21
46.5674492298
  0
LINE
  5
2A9
100
AcDbEntity
  8
0
100
AcDbLine
 62
7
  6
BYLAYER
 10
63.6667062163
 20
44.2509706322
 11
63.5207099677
 21
44.3352596987
  0
LINE
  5
2AA
100
AcDbEntity
  8
0
100
AcDbLine
 62
7
  6
BYLAYER
 10
59.6625716854
 20
46.5627412467
 11
62.491010586
 21
44.9297782286
  0
LINE
  5
2AB
100
AcDbEntity
  8
0
100
AcDbLine
 62
7
  6
BYLAYER
 10
62.6713430743
 20
44.9049605887
 11
59.8429041737
 21
46.5379236068
  0
LINE
  5
2AC
100
AcDbEntity
  8
0
100
AcDbLine
 62
7
  6
BYLAYER
 10
63.5087814297
 20
44.4460177915
 11
63.3602394819
 21
44.5317765849
  0
LINE
  5
2AD
100
AcDbEntity
  8
0
100
AcDbLine
 62
7
  6
BYLAYER
 10
59.9104465984
 20
46.5234931414
 11
62.738885499
 21
44.8905301233
  0
LINE
  5
2AE
100
AcDbEntity
  8
0
100
AcDbLine
 62
7
  6
BYLAYER
 10
62.9081462988
 20
44.8406570207
 11
60.0797073982
 21
46.4736200388
  0
LINE
  5
2AF
100
AcDbEntity
  8
0
100
AcDbLine
 62
7
  6
BYLAYER
 10
63.3286593108
 20
44.6102025439
 11
63.1788389714
 21
44.6966994004
  0
LINE
  5
2B0
100
AcDbEntity
  8
0
100
AcDbLine
 62
7
  6
BYLAYER
 10
60.1426926598
 20
46.4495902068
 11
62.9711315604
 21
44.8166271887
  0
LINE
  5
2B1
100
AcDbEntity
  8
0
100
AcDbLine
 62
7
  6
BYLAYER
 10
63.1278765981
 20
44.7421241232
 11
60.2994376975
 21
46.3750871412
  0
LINE
  5
2B2
100
AcDbEntity
  8
0
100
AcDbLine
 62
7
  6
BYLAYER
 10
58.9145932892
 20
42.5239751698
 11
58.905888751
 21
42.5299663411
  0
LINE
  5
2B3
100
AcDbEntity
  8
0
100
AcDbLine
 62
7
  6
BYLAYER
 10
59.1570610069
 20
42.8557492071
 11
59.1426919754
 21
42.8677050876
  0
LINE
  5
2B4
100
AcDbEntity
  8
0
100
AcDbLine
 62
7
  6
BYLAYER
 10
52.7752939572
 20
48.3812543385
 11
61.967643841
 21
53.6884283388
  0
LINE
  5
2B5
100
AcDbEntity
  8
0
100
AcDbLine
 62
7
  6
BYLAYER
 10
31.9155364576
 20
63.2820537762
 11
40.4008531594
 21
58.383164722
  0
LINE
  5
2B6
100
AcDbEntity
  8
0
100
AcDbLine
 62
7
  6
BYLAYER
 10
30.5013111194
 20
64.3026447908
 11
27.6728722188
 21
65.9356078089
  0
LINE
  5
2B7
100
AcDbEntity
  8
0
100
AcDbLine
 62
7
  6
BYLAYER
 10
24.8444333182
 20
67.5685708269
 11
22.0159944176
 21
69.201533845
  0
LINE
  5
2B8
100
AcDbEntity
  8
0
100
AcDbLine
 62
7
  6
BYLAYER
 10
19.187555517
 20
70.8344968631
 11
16.3591166165
 21
72.4674598812
  0
LINE
  5
2B9
100
AcDbEntity
  8
0
100
AcDbLine
 62
7
  6
BYLAYER
 10
16.3591166165
 20
73.0390115732
 11
19.187555517
 21
71.4060485551
  0
LINE
  5
2BA
100
AcDbEntity
  8
0
100
AcDbLine
 62
7
  6
BYLAYER
 10
22.0159944176
 20
69.773085537
 11
24.8444333182
 21
68.1401225189
  0
LINE
  5
2BB
100
AcDbEntity
  8
0
100
AcDbLine
 62
7
  6
BYLAYER
 10
27.6728722188
 20
66.5071595009
 11
30.5013111194
 21
64.8741964828
  0
LINE
  5
2BC
100
AcDbEntity
  8
0
100
AcDbLine
 62
7
  6
BYLAYER
 10
59.4137745166
 20
43.1690463561
 11
59.3945478033
 21
43.1880470348
  0
LINE
  5
2BD
100
AcDbEntity
  8
0
100
AcDbLine
 62
7
  6
BYLAYER
 10
35.0984729986
 20
36.2589121121
 11
36.1671404302
 21
36.8759038584
  0
LINE
  5
2BE
100
AcDbEntity
  8
0
100
AcDbLine
 62
7
  6
BYLAYER
 10
33.3297264683
 20
66.5071730983
 11
30.5012875677
 21
68.1401361163
  0
LINE
  5
2BF
100
AcDbEntity
  8
0
100
AcDbLine
 62
7
  6
BYLAYER
 10
27.6728486671
 20
69.7730991344
 11
24.8444097665
 21
71.4060621525
  0
LINE
  5
2C0
100
AcDbEntity
  8
0
100
AcDbLine
 62
7
  6
BYLAYER
 10
22.0159708659
 20
73.0390251706
 11
19.1875319653
 21
74.6719881887
  0
LINE
  5
2C1
100
AcDbEntity
  8
0
100
AcDbLine
 62
7
  6
BYLAYER
 10
36.1581594809
 20
65.6498698677
 11
44.5727652093
 21
60.7918048894
  0
LINE
  5
2C2
100
AcDbEntity
  8
0
100
AcDbLine
 62
7
  6
BYLAYER
 10
44.6434761827
 20
60.8326296452
 11
36.1581594809
 21
65.7315186994
  0
LINE
  5
2C3
100
AcDbEntity
  8
0
100
AcDbLine
 62
7
  6
BYLAYER
 10
59.6825841943
 20
43.4612620466
 11
59.6593074896
 21
43.4882591382
  0
LINE
  5
2C4
100
AcDbEntity
  8
0
100
AcDbLine
 62
7
  6
BYLAYER
 10
62.2784481587
 20
38.3050006375
 11
62.0283508637
 21
38.6182969135
  0
LINE
  5
2C5
100
AcDbEntity
  8
0
100
AcDbLine
 62
7
  6
BYLAYER
 10
19.5410662201
 20
76.7540132988
 11
35.9813593865
 21
67.2624203422
  0
LINE
  5
2C6
100
AcDbEntity
  8
0
100
AcDbLine
 62
7
  6
BYLAYER
 10
36.5116996237
 20
67.5686105932
 11
19.5410662201
 21
77.3663887016
  0
LINE
  5
2C7
100
AcDbEntity
  8
0
100
AcDbLine
 62
7
  6
BYLAYER
 10
19.5410603322
 20
78.18287361
 11
61.967643841
 21
53.6884283388
  0
LINE
  5
2C8
100
AcDbEntity
  8
0
100
AcDbLine
 62
7
  6
BYLAYER
 10
63.7782452419
 20
40.9027844449
 11
64.0283425369
 21
40.5894881689
  0
LINE
  5
2C9
100
AcDbEntity
  8
0
100
AcDbLine
 62
7
  6
BYLAYER
 10
59.9612303101
 20
43.7299595271
 11
59.934712198
 21
43.7657800938
  0
LINE
  5
2CA
100
AcDbEntity
  8
0
100
AcDbLine
 62
7
  6
BYLAYER
 10
61.2755508734
 20
37.4693336366
 11
61.3060477652
 21
37.4137380979
  0
LINE
  5
2CB
100
AcDbEntity
  8
0
100
AcDbLine
 62
7
  6
BYLAYER
 10
52.7752939572
 20
23.8861832346
 11
52.7752939572
 21
48.3812543385
  0
LINE
  5
2CC
100
AcDbEntity
  8
0
100
AcDbLine
 62
7
  6
BYLAYER
 10
60.2473643848
 20
43.9728971759
 11
60.2184122726
 21
44.0182421908
  0
LINE
  5
2CD
100
AcDbEntity
  8
0
100
AcDbLine
 62
7
  6
BYLAYER
 10
60.5384841763
 20
44.1878959729
 11
60.5079872845
 21
44.2434915116
  0
LINE
  5
2CE
100
AcDbEntity
  8
0
100
AcDbLine
 62
7
  6
BYLAYER
 10
60.589205598
 20
39.4203875822
 11
59.8820836537
 21
39.0121329742
  0
LINE
  5
2CF
100
AcDbEntity
  8
0
100
AcDbLine
 62
7
  6
BYLAYER
 10
64.7603902966
 20
41.0121336172
 11
64.0283425369
 21
40.5894881689
  0
LINE
  5
2D0
100
AcDbEntity
  8
0
100
AcDbLine
 62
7
  6
BYLAYER
 10
62.0283508637
 20
39.4347993306
 11
61.296303104
 21
39.0121538823
  0
LINE
  5
2D1
100
AcDbEntity
  8
0
100
AcDbLine
 62
7
  6
BYLAYER
 10
61.296303104
 20
38.1956514652
 11
62.0283508637
 21
38.6182969135
  0
LINE
  5
2D2
100
AcDbEntity
  8
0
100
AcDbLine
 62
7
  6
BYLAYER
 10
64.0283425369
 20
39.7729857518
 11
64.7603902966
 21
40.1956312001
  0
LINE
  5
2D3
100
AcDbEntity
  8
0
100
AcDbLine
 62
7
  6
BYLAYER
 10
61.967643841
 20
53.6884283388
 11
61.967643841
 21
45.412398804
  0
LINE
  5
2D4
100
AcDbEntity
  8
0
100
AcDbLine
 62
7
  6
BYLAYER
 10
61.967643841
 20
37.3917770232
 11
61.967643841
 21
29.1933572349
  0
LINE
  5
2D5
100
AcDbEntity
  8
0
100
AcDbLine
 62
7
  6
BYLAYER
 10
52.7752939572
 20
23.8861832346
 11
61.967643841
 21
29.1933572349
  0
ARC
  5
2D6
100
AcDbEntity
  8
0
100
AcDbCircle
 62
7
  6
BYLAYER
 10
60.0512791865
 20
40.5711170182
 40
5.1567176033
100
AcDbArc
 50
172.9961453745
 51
174.1214381938
  0
ARC
  5
2D7
100
AcDbEntity
  8
0
100
AcDbCircle
 62
7
  6
BYLAYER
 10
58.2940337291
 20
41.5777023513
 40
5.1391465106
100
AcDbArc
 50
305.8801913006
 51
307.0093584458
  0
ARC
  5
2D8
100
AcDbEntity
  8
0
100
AcDbCircle
 62
7
  6
BYLAYER
 10
60.3741499955
 20
42.1741296123
 40
4.5788231529
100
AcDbArc
 50
121.6350227299
 51
122.85076872
  0
ARC
  5
2D9
100
AcDbEntity
  8
0
100
AcDbCircle
 62
7
  6
BYLAYER
 10
59.4470618675
 20
40.6182579285
 40
4.5505331211
100
AcDbArc
 50
177.1492469324
 51
178.3725187312
  0
ARC
  5
2DA
100
AcDbEntity
  8
0
100
AcDbCircle
 62
7
  6
BYLAYER
 10
58.6423565232
 20
41.0668146257
 40
4.5206800932
100
AcDbArc
 50
301.6288606626
 51
302.860272254
  0
ARC
  5
2DB
100
AcDbEntity
  8
0
100
AcDbCircle
 62
7
  6
BYLAYER
 10
58.8574933268
 20
40.6190319282
 40
3.9608129388
100
AcDbArc
 50
181.6781197855
 51
183.0201184016
  0
ARC
  5
2DC
100
AcDbEntity
  8
0
100
AcDbCircle
 62
7
  6
BYLAYER
 10
58.9413628606
 20
40.5452550735
 40
3.9193427701
100
AcDbArc
 50
296.9750067972
 51
298.3312301119
  0
ARC
  5
2DD
100
AcDbEntity
  8
0
100
AcDbCircle
 62
7
  6
BYLAYER
 10
58.3075236628
 20
40.5735453367
 40
3.4087946871
100
AcDbArc
 50
186.6597712259
 51
188.143114222
  0
ARC
  5
2DE
100
AcDbEntity
  8
0
100
AcDbCircle
 62
7
  6
BYLAYER
 10
59.1620447064
 20
40.0722279579
 40
3.3972458374
100
AcDbArc
 50
291.858682676
 51
293.3471149804
  0
ARC
  5
2DF
100
AcDbEntity
  8
0
100
AcDbCircle
 62
7
  6
BYLAYER
 10
57.8182344374
 20
40.4870312873
 40
2.9117277531
100
AcDbArc
 50
192.1766428936
 51
193.8244018158
  0
ARC
  5
2E0
100
AcDbEntity
  8
0
100
AcDbCircle
 62
7
  6
BYLAYER
 10
59.3302166706
 20
39.6064580531
 40
2.9018708823
100
AcDbArc
 50
286.1774707659
 51
287.8308803942
  0
ARC
  5
2E1
100
AcDbEntity
  8
0
100
AcDbCircle
 62
7
  6
BYLAYER
 10
60.2429551454
 20
38.7396488203
 40
2.4919240137
100
AcDbArc
 50
198.3134162332
 51
200.1390185132
  0
ARC
  5
2E2
100
AcDbEntity
  8
0
100
AcDbCircle
 62
7
  6
BYLAYER
 10
57.4054075067
 20
40.369435166
 40
2.482278463
100
AcDbArc
 50
198.3098690007
 51
200.1425657457
  0
ARC
  5
2E3
100
AcDbEntity
  8
0
100
AcDbCircle
 62
7
  6
BYLAYER
 10
59.4334829496
 20
39.1912973698
 40
2.4738736247
100
AcDbArc
 50
279.8593907211
 51
281.698373291
  0
ARC
  5
2E4
100
AcDbEntity
  8
0
100
AcDbCircle
 62
7
  6
BYLAYER
 10
59.4776160385
 20
38.8638559837
 40
2.1433254267
100
AcDbArc
 50
272.8561111682
 51
274.8724870795
  0
ARC
  5
2E5
100
AcDbEntity
  8
0
100
AcDbCircle
 62
7
  6
BYLAYER
 10
57.085019891
 20
40.2378246365
 40
2.1357245051
100
AcDbArc
 50
205.1294842034
 51
207.1529764827
  0
ARC
  5
2E6
100
AcDbEntity
  8
0
100
AcDbCircle
 62
7
  6
BYLAYER
 10
59.9134587915
 20
38.6048616184
 40
2.135724505
100
AcDbArc
 50
205.1294842034
 51
207.1529764827
  0
ARC
  5
2E7
100
AcDbEntity
  8
0
100
AcDbCircle
 62
7
  6
BYLAYER
 10
59.4808907143
 20
38.5792217635
 40
1.8584873696
100
AcDbArc
 50
265.1272293918
 51
267.3477555777
  0
ARC
  5
2E8
100
AcDbEntity
  8
0
100
AcDbCircle
 62
7
  6
BYLAYER
 10
56.8437169923
 20
40.1016975522
 40
1.8584832416
100
AcDbArc
 50
212.658226132
 51
214.8787003135
  0
ARC
  5
2E9
100
AcDbEntity
  8
0
100
AcDbCircle
 62
7
  6
BYLAYER
 10
59.6721558929
 20
38.4687345341
 40
1.8584832416
100
AcDbArc
 50
212.658226132
 51
214.8787003135
  0
ARC
  5
2EA
100
AcDbEntity
  8
0
100
AcDbCircle
 62
7
  6
BYLAYER
 10
56.4351528852
 20
40.8664420628
 40
1.8389268113
100
AcDbArc
 50
205.7950586426
 51
208.448061201
  0
ARC
  5
2EB
100
AcDbEntity
  8
0
100
AcDbCircle
 62
7
  6
BYLAYER
 10
56.3845134507
 20
40.8391771199
 40
1.78141415
100
AcDbArc
 50
208.4528861832
 51
209.3594029613
  0
ARC
  5
2EC
100
AcDbEntity
  8
0
100
AcDbCircle
 62
7
  6
BYLAYER
 10
56.2853375685
 20
40.7808625841
 40
1.6663869096
100
AcDbArc
 50
209.2837556668
 51
215.5593140501
  0
ARC
  5
2ED
100
AcDbEntity
  8
0
100
AcDbCircle
 62
7
  6
BYLAYER
 10
59.4563100509
 20
38.3851894045
 40
1.6627666531
100
AcDbArc
 50
256.7480978066
 51
259.1395896609
  0
ARC
  5
2EE
100
AcDbEntity
  8
0
100
AcDbCircle
 62
7
  6
BYLAYER
 10
56.687984356
 20
39.9834045838
 40
1.6627639159
100
AcDbArc
 50
220.8667591419
 51
223.2582096114
  0
ARC
  5
2EF
100
AcDbEntity
  8
0
100
AcDbCircle
 62
7
  6
BYLAYER
 10
59.5164232566
 20
38.3504415657
 40
1.6627639159
100
AcDbArc
 50
220.8667591419
 51
223.2582096114
  0
ARC
  5
2F0
100
AcDbEntity
  8
0
100
AcDbCircle
 62
7
  6
BYLAYER
 10
56.2103697715
 20
40.7279675011
 40
1.5746387706
100
AcDbArc
 50
215.5799195701
 51
218.4295164451
  0
ARC
  5
2F1
100
AcDbEntity
  8
0
100
AcDbCircle
 62
7
  6
BYLAYER
 10
59.4254852457
 20
38.2729112141
 40
1.5462567647
100
AcDbArc
 50
247.8663042332
 51
250.3764365037
  0
ARC
  5
2F2
100
AcDbEntity
  8
0
100
AcDbCircle
 62
7
  6
BYLAYER
 10
59.434612325
 20
38.2676205557
 40
1.5462554028
100
AcDbArc
 50
229.6301616839
 51
232.1402707663
  0
ARC
  5
2F3
100
AcDbEntity
  8
0
100
AcDbCircle
 62
7
  6
BYLAYER
 10
56.175496503
 20
40.7007461337
 40
1.5304005414
100
AcDbArc
 50
218.4426586623
 51
219.3485183485
  0
ARC
  5
2F4
100
AcDbEntity
  8
0
100
AcDbCircle
 62
7
  6
BYLAYER
 10
59.4145042098
 20
38.2435566914
 40
1.5150172491
100
AcDbArc
 50
240.0026273013
 51
241.2775867426
  0
ARC
  5
2F5
100
AcDbEntity
  8
0
100
AcDbCircle
 62
7
  6
BYLAYER
 10
56.1596637524
 20
40.6877418907
 40
1.5099118615
100
AcDbArc
 50
219.3478468928
 51
220.5854662461
  0
ARC
  5
2F6
100
AcDbEntity
  8
0
100
AcDbCircle
 62
7
  6
BYLAYER
 10
59.4070134875
 20
38.2304856851
 40
1.499952063
100
AcDbArc
 50
238.722707177
 51
240.0008068971
  0
ARC
  5
2F7
100
AcDbEntity
  8
0
100
AcDbCircle
 62
7
  6
BYLAYER
 10
56.1242971971
 20
40.656886648
 40
1.4629794217
100
AcDbArc
 50
220.5688700861
 51
224.1787749273
  0
ARC
  5
2F8
100
AcDbEntity
  8
0
100
AcDbCircle
 62
7
  6
BYLAYER
 10
55.3899225038
 20
38.8673849836
 40
0.2590098863
100
AcDbArc
 50
325.9933194413
 51
335.2984662036
  0
ARC
  5
2F9
100
AcDbEntity
  8
0
100
AcDbCircle
 62
7
  6
BYLAYER
 10
55.5811601447
 20
38.7127211461
 40
0.2550233278
100
AcDbArc
 50
329.0309933752
 51
332.1820523186
  0
ARC
  5
2FA
100
AcDbEntity
  8
0
100
AcDbCircle
 62
7
  6
BYLAYER
 10
58.2516175678
 20
41.2856455684
 40
0.0512888075
100
AcDbArc
 50
39.0777557363
 51
61.0176853932
  0
ARC
  5
2FB
100
AcDbEntity
  8
0
100
AcDbCircle
 62
7
  6
BYLAYER
 10
58.1099152271
 20
40.9086109585
 40
0.0490415302
100
AcDbArc
 50
47.8565048835
 51
61.2127451316
  0
ARC
  5
2FC
100
AcDbEntity
  8
0
100
AcDbCircle
 62
7
  6
BYLAYER
 10
57.9920447862
 20
40.531535653
 40
0.0471029546
100
AcDbArc
 50
56.8623826894
 51
60.9819838905
  0
ARC
  5
2FD
100
AcDbEntity
  8
0
100
AcDbCircle
 62
7
  6
BYLAYER
 10
58.924198649
 20
42.7202179296
 40
5.1668997046
100
AcDbArc
 50
352.9972541838
 51
354.1203293845
  0
ARC
  5
2FE
100
AcDbEntity
  8
0
100
AcDbCircle
 62
7
  6
BYLAYER
 10
59.5264520341
 20
42.6724071134
 40
4.5626239137
100
AcDbArc
 50
357.1508678073
 51
358.3708978563
  0
ARC
  5
2FF
100
AcDbEntity
  8
0
100
AcDbCircle
 62
7
  6
BYLAYER
 10
60.0761304851
 20
42.68433207
 40
3.9878262928
100
AcDbArc
 50
116.988443119
 51
118.3213896459
  0
ARC
  5
300
100
AcDbEntity
  8
0
100
AcDbCircle
 62
7
  6
BYLAYER
 10
60.1152344206
 20
42.6706328009
 40
3.9736912836
100
AcDbArc
 50
1.6802945275
 51
3.0179436595
  0
ARC
  5
301
100
AcDbEntity
  8
0
100
AcDbCircle
 62
7
  6
BYLAYER
 10
59.8375312894
 20
43.1843850337
 40
3.4336162544
100
AcDbArc
 50
111.8665661866
 51
113.3392314698
  0
ARC
  5
302
100
AcDbEntity
  8
0
100
AcDbCircle
 62
7
  6
BYLAYER
 10
59.6646730953
 20
43.6533444454
 40
2.9336470258
100
AcDbArc
 50
106.1864259279
 51
107.8219252322
  0
ARC
  5
303
100
AcDbEntity
  8
0
100
AcDbCircle
 62
7
  6
BYLAYER
 10
59.557150722
 20
44.0724346575
 40
2.5008060433
100
AcDbArc
 50
99.8692940146
 51
101.6884699976
  0
ARC
  5
304
100
AcDbEntity
  8
0
100
AcDbCircle
 62
7
  6
BYLAYER
 10
59.5079801107
 20
44.426336644
 40
2.1433254267
100
AcDbArc
 50
92.8561111681
 51
94.8724870795
  0
ARC
  5
305
100
AcDbEntity
  8
0
100
AcDbCircle
 62
7
  6
BYLAYER
 10
58.6437824057
 20
44.5957069629
 40
1.9258116413
100
AcDbArc
 50
93.4580214183
 51
95.8333881248
  0
ARC
  5
306
100
AcDbEntity
  8
0
100
AcDbCircle
 62
7
  6
BYLAYER
 10
59.5047054348
 20
44.7109708641
 40
1.8584873696
100
AcDbArc
 50
85.1272293918
 51
87.3477555777
  0
ARC
  5
307
100
AcDbEntity
  8
0
100
AcDbCircle
 62
7
  6
BYLAYER
 10
58.6378787086
 20
44.6875798692
 40
1.8337499508
100
AcDbArc
 50
91.2051746357
 51
93.4470409642
  0
ARC
  5
308
100
AcDbEntity
  8
0
100
AcDbCircle
 62
7
  6
BYLAYER
 10
58.6444438356
 20
44.9340705294
 40
1.5869458612
100
AcDbArc
 50
82.6989504028
 51
84.7878413289
  0
ARC
  5
309
100
AcDbEntity
  8
0
100
AcDbCircle
 62
7
  6
BYLAYER
 10
58.6481045709
 20
44.9636711175
 40
1.5571200603
100
AcDbArc
 50
82.0723977732
 51
82.6941422486
  0
ARC
  5
30A
100
AcDbEntity
  8
0
100
AcDbCircle
 62
7
  6
BYLAYER
 10
58.6507675352
 20
44.9825586323
 40
1.5380457707
100
AcDbArc
 50
80.8380297423
 51
82.0736090868
  0
ARC
  5
30B
100
AcDbEntity
  8
0
100
AcDbCircle
 62
7
  6
BYLAYER
 10
58.6538179906
 20
45.0016617938
 40
1.5187006128
100
AcDbArc
 50
80.1138749323
 51
80.8368911157
  0
ARC
  5
30C
100
AcDbEntity
  8
0
100
AcDbCircle
 62
7
  6
BYLAYER
 10
58.6603569678
 20
45.0380529736
 40
1.4817271402
100
AcDbArc
 50
76.077461642
 51
80.1213710911
  0
ARC
  5
30D
100
AcDbEntity
  8
0
100
AcDbCircle
 62
7
  6
BYLAYER
 10
60.0598329987
 20
46.5080306448
 40
0.2736957434
100
AcDbArc
 50
328.049197731
 51
330.9766562228
  0
ARC
  5
30E
100
AcDbEntity
  8
0
100
AcDbCircle
 62
7
  6
BYLAYER
 10
59.836992452
 20
46.5915599551
 40
0.269531421
100
AcDbArc
 50
325.1702815569
 51
334.0769650918
  0
ARC
  5
30F
100
AcDbEntity
  8
0
100
AcDbCircle
 62
7
  6
BYLAYER
 10
58.2911095484
 20
46.3062377474
 40
0.1609554659
100
AcDbArc
 50
303.0841280348
 51
306.3567757137
  0
ARC
  5
310
100
AcDbEntity
  8
0
100
AcDbCircle
 62
7
  6
BYLAYER
 10
59.9858631122
 20
43.7725696016
 40
0.0492153003
100
AcDbArc
 50
236.2706815682
 51
239.9678746468
  0
ARC
  5
311
100
AcDbEntity
  8
0
100
AcDbCircle
 62
7
  6
BYLAYER
 10
62.6105154943
 20
39.8450152128
 40
7.8311373906
100
AcDbArc
 50
149.5759051216
 51
150.4270697832
  0
ARC
  5
312
100
AcDbEntity
  8
0
100
AcDbCircle
 62
7
  6
BYLAYER
 10
65.4389543949
 20
38.2120521947
 40
7.8311373906
100
AcDbArc
 50
149.5759051216
 51
150.4270697832
  0
ARC
  5
313
100
AcDbEntity
  8
0
100
AcDbCircle
 62
7
  6
BYLAYER
 10
62.5530384782
 20
39.8786349618
 40
7.7645622259
100
AcDbArc
 50
146.5111019866
 51
147.3671266795
  0
ARC
  5
314
100
AcDbEntity
  8
0
100
AcDbCircle
 62
7
  6
BYLAYER
 10
65.3814773788
 20
38.2456719438
 40
7.7645622259
100
AcDbArc
 50
146.5111019866
 51
147.3671266795
  0
ARC
  5
315
100
AcDbEntity
  8
0
100
AcDbCircle
 62
7
  6
BYLAYER
 10
62.5526676755
 20
39.8779775522
 40
7.7645599369
100
AcDbArc
 50
152.6358601489
 51
153.4918821414
  0
ARC
  5
316
100
AcDbEntity
  8
0
100
AcDbCircle
 62
7
  6
BYLAYER
 10
65.381106576
 20
38.2450145341
 40
7.7645599369
100
AcDbArc
 50
152.6358601489
 51
153.4918821414
  0
ARC
  5
317
100
AcDbEntity
  8
0
100
AcDbCircle
 62
7
  6
BYLAYER
 10
62.3906464178
 20
39.9889725854
 40
7.5682199048
100
AcDbArc
 50
143.4062749072
 51
144.2770434085
  0
ARC
  5
318
100
AcDbEntity
  8
0
100
AcDbCircle
 62
7
  6
BYLAYER
 10
65.2190853184
 20
38.3560095673
 40
7.5682199048
100
AcDbArc
 50
143.4062749072
 51
144.2770434085
  0
ARC
  5
319
100
AcDbEntity
  8
0
100
AcDbCircle
 62
7
  6
BYLAYER
 10
62.3759223911
 20
39.9634388512
 40
7.5682154431
100
AcDbArc
 50
155.7259768987
 51
156.5967399066
  0
ARC
  5
31A
100
AcDbEntity
  8
0
100
AcDbCircle
 62
7
  6
BYLAYER
 10
65.2043612915
 20
38.3304758332
 40
7.5682154429
100
AcDbArc
 50
155.7259768987
 51
156.5967399066
  0
ARC
  5
31B
100
AcDbEntity
  8
0
100
AcDbCircle
 62
7
  6
BYLAYER
 10
62.1397400485
 20
40.1813342082
 40
7.2520311702
100
AcDbArc
 50
140.2248779823
 51
141.120778572
  0
ARC
  5
31C
100
AcDbEntity
  8
0
100
AcDbCircle
 62
7
  6
BYLAYER
 10
64.9681789491
 20
38.5483711901
 40
7.2520311702
100
AcDbArc
 50
140.2248779823
 51
141.120778572
  0
ARC
  5
31D
100
AcDbEntity
  8
0
100
AcDbCircle
 62
7
  6
BYLAYER
 10
62.08388514
 20
40.0845426532
 40
7.2520247583
100
AcDbArc
 50
158.8822979146
 51
159.7781900303
  0
ARC
  5
31E
100
AcDbEntity
  8
0
100
AcDbCircle
 62
7
  6
BYLAYER
 10
64.9123240406
 20
38.4515796351
 40
7.2520247583
100
AcDbArc
 50
158.8822979146
 51
159.7781900303
  0
ARC
  5
31F
100
AcDbEntity
  8
0
100
AcDbCircle
 62
7
  6
BYLAYER
 10
61.8214246479
 20
40.4556739505
 40
6.8317633037
100
AcDbArc
 50
136.9277495931
 51
137.8600278645
  0
ARC
  5
320
100
AcDbEntity
  8
0
100
AcDbCircle
 62
7
  6
BYLAYER
 10
64.6498635485
 20
38.8227109324
 40
6.8317633037
100
AcDbArc
 50
136.9277495931
 51
137.8600278645
  0
ARC
  5
321
100
AcDbEntity
  8
0
100
AcDbCircle
 62
7
  6
BYLAYER
 10
61.687148682
 20
40.2230343986
 40
6.8317552587
100
AcDbArc
 50
162.1431294182
 51
163.0753959468
  0
ARC
  5
322
100
AcDbEntity
  8
0
100
AcDbCircle
 62
7
  6
BYLAYER
 10
64.5155875826
 20
38.5900713805
 40
6.8317552587
100
AcDbArc
 50
162.1431294182
 51
163.0753959468
  0
ARC
  5
323
100
AcDbEntity
  8
0
100
AcDbCircle
 62
7
  6
BYLAYER
 10
61.4598819407
 20
40.8064724469
 40
6.327942642
100
AcDbArc
 50
133.471801004
 51
134.4529320289
  0
ARC
  5
324
100
AcDbEntity
  8
0
100
AcDbCircle
 62
7
  6
BYLAYER
 10
64.2883208413
 20
39.1735094288
 40
6.327942642
100
AcDbArc
 50
133.471801004
 51
134.4529320289
  0
ARC
  5
325
100
AcDbEntity
  8
0
100
AcDbCircle
 62
7
  6
BYLAYER
 10
61.2025841519
 20
40.360732127
 40
6.3279333502
100
AcDbArc
 50
165.5503333953
 51
166.5314490149
  0
ARC
  5
326
100
AcDbEntity
  8
0
100
AcDbCircle
 62
7
  6
BYLAYER
 10
64.0310230525
 20
38.727769109
 40
6.3279333502
100
AcDbArc
 50
165.5503333953
 51
166.5314490149
  0
ARC
  5
327
100
AcDbEntity
  8
0
100
AcDbCircle
 62
7
  6
BYLAYER
 10
61.08052475
 20
41.2230265731
 40
5.7644544845
100
AcDbArc
 50
129.8086445877
 51
130.8527183836
  0
ARC
  5
328
100
AcDbEntity
  8
0
100
AcDbCircle
 62
7
  6
BYLAYER
 10
63.9089636506
 20
39.590063555
 40
5.7644544845
100
AcDbArc
 50
129.8086445877
 51
130.8527183836
  0
ARC
  5
329
100
AcDbEntity
  8
0
100
AcDbCircle
 62
7
  6
BYLAYER
 10
60.6521674448
 20
40.4809797064
 40
5.7644443772
100
AcDbArc
 50
169.1506860964
 51
170.1947403238
  0
ARC
  5
32A
100
AcDbEntity
  8
0
100
AcDbCircle
 62
7
  6
BYLAYER
 10
63.4806063454
 20
38.8480166884
 40
5.7644443772
100
AcDbArc
 50
169.1506860964
 51
170.1947403238
  0
ARC
  5
32B
100
AcDbEntity
  8
0
100
AcDbCircle
 62
7
  6
BYLAYER
 10
60.7189243502
 20
41.6754381133
 40
5.1852044507
100
AcDbArc
 50
125.8852064137
 51
127.0043433327
  0
ARC
  5
32C
100
AcDbEntity
  8
0
100
AcDbCircle
 62
7
  6
BYLAYER
 10
62.8898364006
 20
38.9370116799
 40
5.1668997045
100
AcDbArc
 50
172.9972541838
 51
174.1203293845
  0
ARC
  5
32D
100
AcDbEntity
  8
0
100
AcDbCircle
 62
7
  6
BYLAYER
 10
63.5200013207
 20
40.0795272579
 40
5.1391465109
100
AcDbArc
 50
125.8801913006
 51
127.0093584458
  0
ARC
  5
32E
100
AcDbEntity
  8
0
100
AcDbCircle
 62
7
  6
BYLAYER
 10
62.2875830159
 20
38.984822496
 40
4.562623914
100
AcDbArc
 50
177.1508678074
 51
178.3708978563
  0
ARC
  5
32F
100
AcDbEntity
  8
0
100
AcDbCircle
 62
7
  6
BYLAYER
 10
63.1792408241
 20
40.5781812176
 40
4.5350624724
100
AcDbArc
 50
121.6291568904
 51
122.8566345595
  0
ARC
  5
330
100
AcDbEntity
  8
0
100
AcDbCircle
 62
7
  6
BYLAYER
 10
61.6988006291
 20
38.9865968086
 40
3.9736912835
100
AcDbArc
 50
181.6802945275
 51
183.0179436595
  0
ARC
  5
331
100
AcDbEntity
  8
0
100
AcDbCircle
 62
7
  6
BYLAYER
 10
62.8857921993
 20
41.0872028022
 40
3.9473736454
100
AcDbArc
 50
116.9816127945
 51
118.3282199703
  0
ARC
  5
332
100
AcDbEntity
  8
0
100
AcDbCircle
 62
7
  6
BYLAYER
 10
61.1484917893
 20
38.9422099018
 40
3.4214281301
100
AcDbArc
 50
186.6625099609
 51
188.140375487
  0
ARC
  5
333
100
AcDbEntity
  8
0
100
AcDbCircle
 62
7
  6
BYLAYER
 10
62.6519903432
 20
41.5850016517
 40
3.3972458373
100
AcDbArc
 50
111.858682676
 51
113.3471149804
  0
ARC
  5
334
100
AcDbEntity
  8
0
100
AcDbCircle
 62
7
  6
BYLAYER
 10
60.6578776448
 20
38.8566550949
 40
2.9232256192
100
AcDbArc
 50
192.1798836646
 51
193.8211610448
  0
ARC
  5
335
100
AcDbEntity
  8
0
100
AcDbCircle
 62
7
  6
BYLAYER
 10
62.4838183791
 20
42.0507715563
 40
2.9018708824
100
AcDbArc
 50
106.1774707659
 51
107.8308803942
  0
ARC
  5
336
100
AcDbEntity
  8
0
100
AcDbCircle
 62
7
  6
BYLAYER
 10
60.6655432605
 20
42.7150197077
 40
3.4214281301
100
AcDbArc
 50
6.6625099609
 51
8.140375487
  0
ARC
  5
337
100
AcDbEntity
  8
0
100
AcDbCircle
 62
7
  6
BYLAYER
 10
61.1561574048
 20
42.8005745146
 40
2.9232256194
100
AcDbArc
 50
12.1798836647
 51
13.8211610447
  0
ARC
  5
338
100
AcDbEntity
  8
0
100
AcDbCircle
 62
7
  6
BYLAYER
 10
61.5710799042
 20
42.9175807891
 40
2.4919240138
100
AcDbArc
 50
18.3134162333
 51
20.1390185131
  0
ARC
  5
339
100
AcDbEntity
  8
0
100
AcDbCircle
 62
7
  6
BYLAYER
 10
62.3805521001
 20
42.4659322397
 40
2.4738736247
100
AcDbArc
 50
99.8593907211
 51
101.698373291
  0
ARC
  5
33A
100
AcDbEntity
  8
0
100
AcDbCircle
 62
7
  6
BYLAYER
 10
62.3364190113
 20
42.7933736258
 40
2.1433254267
100
AcDbArc
 50
92.8561111682
 51
94.8724870795
  0
ARC
  5
33B
100
AcDbEntity
  8
0
100
AcDbCircle
 62
7
  6
BYLAYER
 10
61.9005762581
 20
43.052367991
 40
2.1357245051
100
AcDbArc
 50
25.1294842034
 51
27.1529764827
  0
ARC
  5
33C
100
AcDbEntity
  8
0
100
AcDbCircle
 62
7
  6
BYLAYER
 10
62.3331443354
 20
43.078007846
 40
1.8584873696
100
AcDbArc
 50
85.1272293918
 51
87.3477555777
  0
ARC
  5
33D
100
AcDbEntity
  8
0
100
AcDbCircle
 62
7
  6
BYLAYER
 10
62.1418791569
 20
43.1884950754
 40
1.8584832416
100
AcDbArc
 50
32.6582261319
 51
34.8787003135
  0
ARC
  5
33E
100
AcDbEntity
  8
0
100
AcDbCircle
 62
7
  6
BYLAYER
 10
62.3577249988
 20
43.272040205
 40
1.6627666531
100
AcDbArc
 50
76.7480978066
 51
79.1395896609
  0
ARC
  5
33F
100
AcDbEntity
  8
0
100
AcDbCircle
 62
7
  6
BYLAYER
 10
62.2976117931
 20
43.3067880438
 40
1.6627639159
100
AcDbArc
 50
40.8667591419
 51
43.2582096114
  0
ARC
  5
340
100
AcDbEntity
  8
0
100
AcDbCircle
 62
7
  6
BYLAYER
 10
62.388549804
 20
43.3843183954
 40
1.5462567647
100
AcDbArc
 50
67.8663042332
 51
70.3764365037
  0
ARC
  5
341
100
AcDbEntity
  8
0
100
AcDbCircle
 62
7
  6
BYLAYER
 10
62.3794227247
 20
43.3896090538
 40
1.5462554028
100
AcDbArc
 50
49.6301616839
 51
52.1402707663
  0
ARC
  5
342
100
AcDbEntity
  8
0
100
AcDbCircle
 62
7
  6
BYLAYER
 10
62.39953084
 20
43.4136729181
 40
1.515017249
100
AcDbArc
 50
60.0026273013
 51
61.2775867427
  0
ARC
  5
343
100
AcDbEntity
  8
0
100
AcDbCircle
 62
7
  6
BYLAYER
 10
62.4070215622
 20
43.4267439243
 40
1.499952063
100
AcDbArc
 50
58.7227071769
 51
60.000806897
  0
SPLINE
  5
344
100
AcDbEntity
  8
0
100
AcDbSpline
 62
7
  6
BYLAYER
 70
0
 71
3
 72
12
 73
8
 74
0
 42
0.0000001
 43
0.0000001
 44
0.0000000001
 40
0.0
 40
0.0
 40
0.0
 40
0.0
 40
0.2894832083
 40
0.5486755374
 40
0.7816290778
 40
0.8918324007
 40
1.0
 40
1.0
 40
1.0
 40
1.0
 10
22.1220873721
 20
44.0329271944
 30
0.0
 10
22.1220873721
 20
43.9290578642
 30
0.0
 10
22.1062894469
 20
43.7314923836
 30
0.0
 10
22.0264913755
 20
43.4601902819
 30
0.0
 10
21.9116468252
 20
43.2729986572
 30
0.0
 10
21.7957116922
 20
43.1590187205
 30
0.0
 10
21.7311147338
 20
43.1138802984
 30
0.0
 10
21.6975043497
 20
43.0944720634
 30
0.0
  0
SPLINE
  5
345
100
AcDbEntity
  8
0
100
AcDbSpline
 62
7
  6
BYLAYER
 70
0
 71
3
 72
12
 73
8
 74
0
 42
0.0000001
 43
0.0000001
 44
0.0000000001
 40
0.0
 40
0.0
 40
0.0
 40
0.0
 40
0.2894832083
 40
0.5486755374
 40
0.7816290778
 40
0.8918324007
 40
1.0
 40
1.0
 40
1.0
 40
1.0
 10
40.0826743908
 20
33.6636120296
 30
0.0
 10
40.0826743908
 20
33.5597426994
 30
0.0
 10
40.0668764656
 20
33.3621772187
 30
0.0
 10
39.9870783942
 20
33.090875117
 30
0.0
 10
39.8722338439
 20
32.9036834924
 30
0.0
 10
39.7562987109
 20
32.7897035557
 30
0.0
 10
39.6917017526
 20
32.7445651335
 30
0.0
 10
39.6580913684
 20
32.7251568986
 30
0.0
  0
SPLINE
  5
346
100
AcDbEntity
  8
0
100
AcDbSpline
 62
7
  6
BYLAYER
 70
0
 71
3
 72
12
 73
8
 74
0
 42
0.0000001
 43
0.0000001
 44
0.0000000001
 40
0.0
 40
0.0
 40
0.0
 40
0.0
 40
0.1081668378
 40
0.2183765485
 40
0.4513518201
 40
0.710453619
 40
1.0
 40
1.0
 40
1.0
 40
1.0
 10
61.7783821733
 20
37.438841467
 30
0.0
 10
61.819369038
 20
37.4151739367
 30
0.0
 10
61.9063956552
 20
37.3743978647
 30
0.0
 10
62.09750642
 20
37.3215542631
 30
0.0
 10
62.3651760327
 20
37.3143820779
 30
0.0
 10
62.7003728817
 20
37.3954787731
 30
0.0
 10
62.9186265046
 20
37.499289892
 30
0.0
 10
63.0283467003
 20
37.5626364984
 30
0.0
  0
SPLINE
  5
347
100
AcDbEntity
  8
0
100
AcDbSpline
 62
7
  6
BYLAYER
 70
0
 71
3
 72
11
 73
7
 74
0
 42
0.0000001
 43
0.0000001
 44
0.0000000001
 40
0.0
 40
0.0
 40
0.0
 40
0.0
 40
0.2186116406
 40
0.452575031
 40
0.7122545754
 40
1.0
 40
1.0
 40
1.0
 40
1.0
 10
60.8320215806
 20
44.3729754883
 30
0.0
 10
60.8271835326
 20
44.3757701873
 30
0.0
 10
60.8180984574
 20
44.3833244674
 30
0.0
 10
60.8083399848
 20
44.3989838252
 30
0.0
 10
60.8024286808
 20
44.4182371745
 30
0.0
 10
60.8010737237
 20
44.4322529611
 30
0.0
 10
60.8009666816
 20
44.4396063084
 30
0.0
  0
SPLINE
  5
348
100
AcDbEntity
  8
0
100
AcDbSpline
 62
7
  6
BYLAYER
 70
0
 71
3
 72
9
 73
5
 74
0
 42
0.0000001
 43
0.0000001
 44
0.0000000001
 40
0.0
 40
0.0
 40
0.0
 40
0.0
 40
0.23875291
 40
1.0
 40
1.0
 40
1.0
 40
1.0
 10
58.0742122224
 20
46.0109597308
 30
0.0
 10
58.0766317976
 20
46.0122423972
 30
0.0
 10
58.0866000724
 20
46.0179259346
 30
0.0
 10
58.095899328
 20
46.024751574
 30
0.0
 10
58.1025657382
 20
46.0303907541
 30
0.0
  0
SPLINE
  5
349
100
AcDbEntity
  8
0
100
AcDbSpline
 62
7
  6
BYLAYER
 70
0
 71
3
 72
10
 73
6
 74
0
 42
0.0000001
 43
0.0000001
 44
0.0000000001
 40
0.0
 40
0.0
 40
0.0
 40
0.0
 40
0.2502700445
 40
0.5135389034
 40
1.0
 40
1.0
 40
1.0
 40
1.0
 10
58.1025657382
 20
46.0303907541
 30
0.0
 10
58.1145264424
 20
46.0405084282
 30
0.0
 10
58.1365918042
 20
46.0643295097
 30
0.0
 10
58.1698810777
 20
46.117409258
 30
0.0
 10
58.1838024967
 20
46.1643690511
 30
0.0
 10
58.1842383949
 20
46.1948167745
 30
0.0
  0
SPLINE
  5
34A
100
AcDbEntity
  8
0
100
AcDbSpline
 62
7
  6
BYLAYER
 70
0
 71
3
 72
9
 73
5
 74
0
 42
0.0000001
 43
0.0000001
 44
0.0000000001
 40
0.0
 40
0.0
 40
0.0
 40
0.0
 40
0.2321418481
 40
1.0
 40
1.0
 40
1.0
 40
1.0
 10
57.773209836
 20
45.8221479848
 30
0.0
 10
57.777113424
 20
45.8238979282
 30
0.0
 10
57.7935126024
 20
45.8323598554
 30
0.0
 10
57.8081994158
 20
45.8439143796
 30
0.0
 10
57.8184010271
 20
45.8537199829
 30
0.0
  0
SPLINE
  5
34B
100
AcDbEntity
  8
0
100
AcDbSpline
 62
7
  6
BYLAYER
 70
0
 71
3
 72
10
 73
6
 74
0
 42
0.0000001
 43
0.0000001
 44
0.0000000001
 40
0.0
 40
0.0
 40
0.0
 40
0.0
 40
0.2578896802
 40
0.5237372562
 40
1.0
 40
1.0
 40
1.0
 40
1.0
 10
57.8184010271
 20
45.8537199829
 30
0.0
 10
57.8299378766
 20
45.8648089928
 30
0.0
 10
57.8508648725
 20
45.8900813894
 30
0.0
 10
57.8810892755
 20
45.944269079
 30
0.0
 10
57.892368302
 20
45.9912527347
 30
0.0
 10
57.8903545193
 20
46.0207361036
 30
0.0
  0
SPLINE
  5
34C
100
AcDbEntity
  8
0
100
AcDbSpline
 62
7
  6
BYLAYER
 70
0
 71
3
 72
9
 73
5
 74
0
 42
0.0000001
 43
0.0000001
 44
0.0000000001
 40
0.0
 40
0.0
 40
0.0
 40
0.0
 40
0.4566405579
 40
1.0
 40
1.0
 40
1.0
 40
1.0
 10
57.4601737721
 20
45.6001422484
 30
0.0
 10
57.4738073472
 20
45.6027457523
 30
0.0
 10
57.502216945
 20
45.6157003064
 30
0.0
 10
57.5252562057
 20
45.6359704619
 30
0.0
 10
57.5364560595
 20
45.6481086507
 30
0.0
  0
SPLINE
  5
34D
100
AcDbEntity
  8
0
100
AcDbSpline
 62
7
  6
BYLAYER
 70
0
 71
3
 72
10
 73
6
 74
0
 42
0.0000001
 43
0.0000001
 44
0.0000000001
 40
0.0
 40
0.0
 40
0.0
 40
0.0
 40
0.2655885195
 40
0.5338793991
 40
1.0
 40
1.0
 40
1.0
 40
1.0
 10
57.5364560595
 20
45.6481086507
 30
0.0
 10
57.5474775601
 20
45.6600535437
 30
0.0
 10
57.5671192867
 20
45.6865512854
 30
0.0
 10
57.5941103627
 20
45.7413889873
 30
0.0
 10
57.6026002419
 20
45.7881264787
 30
0.0
 10
57.5980765055
 20
45.8162899491
 30
0.0
  0
SPLINE
  5
34E
100
AcDbEntity
  8
0
100
AcDbSpline
 62
7
  6
BYLAYER
 70
0
 71
3
 72
10
 73
6
 74
0
 42
0.0000001
 43
0.0000001
 44
0.0000000001
 40
0.0
 40
0.0
 40
0.0
 40
0.0
 40
0.4360220749
 40
0.7052012045
 40
1.0
 40
1.0
 40
1.0
 40
1.0
 10
57.1547608706
 20
45.3561501206
 30
0.0
 10
57.1726302327
 20
45.35455108
 30
0.0
 10
57.2022436725
 20
45.3647389952
 30
0.0
 10
57.2352262638
 20
45.3890564974
 30
0.0
 10
57.2514345909
 20
45.405939785
 30
0.0
 10
57.2591362905
 20
45.4153109611
 30
0.0
  0
SPLINE
  5
34F
100
AcDbEntity
  8
0
100
AcDbSpline
 62
7
  6
BYLAYER
 70
0
 71
3
 72
9
 73
5
 74
0
 42
0.0000001
 43
0.0000001
 44
0.0000000001
 40
0.0
 40
0.0
 40
0.0
 40
0.0
 40
0.5120589766
 40
1.0
 40
1.0
 40
1.0
 40
1.0
 10
57.2591362905
 20
45.4153109611
 30
0.0
 10
57.2730953003
 20
45.4322958275
 30
0.0
 10
57.2959399103
 20
45.4691893564
 30
0.0
 10
57.3093394817
 20
45.5106982922
 30
0.0
 10
57.3121857934
 20
45.5314535288
 30
0.0
  0
SPLINE
  5
350
100
AcDbEntity
  8
0
100
AcDbSpline
 62
7
  6
BYLAYER
 70
0
 71
3
 72
9
 73
5
 74
0
 42
0.0000001
 43
0.0000001
 44
0.0000000001
 40
0.0
 40
0.0
 40
0.0
 40
0.0
 40
0.2717376324
 40
1.0
 40
1.0
 40
1.0
 40
1.0
 10
57.3121857934
 20
45.5314535288
 30
0.0
 10
57.3128257382
 20
45.5361199909
 30
0.0
 10
57.3144454775
 20
45.553366841
 30
0.0
 10
57.3131472295
 20
45.5710246598
 30
0.0
 10
57.3098979663
 20
45.5832225735
 30
0.0
  0
SPLINE
  5
351
100
AcDbEntity
  8
0
100
AcDbSpline
 62
7
  6
BYLAYER
 70
0
 71
3
 72
10
 73
6
 74
0
 42
0.0000001
 43
0.0000001
 44
0.0000000001
 40
0.0
 40
0.0
 40
0.0
 40
0.0
 40
0.4289834528
 40
0.7011908768
 40
1.0
 40
1.0
 40
1.0
 40
1.0
 10
56.8714481117
 20
45.0880044709
 30
0.0
 10
56.8913612404
 20
45.0846160384
 30
0.0
 10
56.9259023698
 20
45.0965240796
 30
0.0
 10
56.9625962845
 20
45.1255063926
 30
0.0
 10
56.9804892841
 20
45.145965563
 30
0.0
 10
56.9888077146
 20
45.1573130618
 30
0.0
  0
SPLINE
  5
352
100
AcDbEntity
  8
0
100
AcDbSpline
 62
7
  6
BYLAYER
 70
0
 71
3
 72
9
 73
5
 74
0
 42
0.0000001
 43
0.0000001
 44
0.0000000001
 40
0.0
 40
0.0
 40
0.0
 40
0.0
 40
0.5188647015
 40
1.0
 40
1.0
 40
1.0
 40
1.0
 10
56.9888077146
 20
45.1573130618
 30
0.0
 10
57.0018153151
 20
45.1750572423
 30
0.0
 10
57.0225142932
 20
45.2125541613
 30
0.0
 10
57.0334732129
 20
45.2543088416
 30
0.0
 10
57.0347978013
 20
45.2746671891
 30
0.0
  0
SPLINE
  5
353
100
AcDbEntity
  8
0
100
AcDbSpline
 62
7
  6
BYLAYER
 70
0
 71
3
 72
9
 73
5
 74
0
 42
0.0000001
 43
0.0000001
 44
0.0000000001
 40
0.0
 40
0.0
 40
0.0
 40
0.0
 40
0.2734832509
 40
1.0
 40
1.0
 40
1.0
 40
1.0
 10
57.0347978013
 20
45.2746671891
 30
0.0
 10
57.035090765
 20
45.2791699133
 30
0.0
 10
57.0354059367
 20
45.2956520676
 30
0.0
 10
57.0326427688
 20
45.3123586007
 30
0.0
 10
57.0282775395
 20
45.3235224256
 30
0.0
  0
SPLINE
  5
354
100
AcDbEntity
  8
0
100
AcDbSpline
 62
7
  6
BYLAYER
 70
0
 71
3
 72
10
 73
6
 74
0
 42
0.0000001
 43
0.0000001
 44
0.0000000001
 40
0.0
 40
0.0
 40
0.0
 40
0.0
 40
0.4268872514
 40
0.7010213493
 40
1.0
 40
1.0
 40
1.0
 40
1.0
 10
56.6023138378
 20
44.7957359375
 30
0.0
 10
56.6240358421
 20
44.7919174547
 30
0.0
 10
56.6619054073
 20
44.8064946788
 30
0.0
 10
56.7007068558
 20
44.8398966755
 30
0.0
 10
56.7193310848
 20
44.8633827229
 30
0.0
 10
56.7277766798
 20
44.8763161
 30
0.0
  0
SPLINE
  5
355
100
AcDbEntity
  8
0
100
AcDbSpline
 62
7
  6
BYLAYER
 70
0
 71
3
 72
10
 73
6
 74
0
 42
0.0000001
 43
0.0000001
 44
0.0000000001
 40
0.0
 40
0.0
 40
0.0
 40
0.0
 40
0.2886179785
 40
0.5629800303
 40
1.0
 40
1.0
 40
1.0
 40
1.0
 10
56.7277766798
 20
44.8763161
 30
0.0
 10
56.7367749726
 20
44.8900958648
 30
0.0
 10
56.7517880962
 20
44.9188707238
 30
0.0
 10
56.7684735233
 20
44.9730222537
 30
0.0
 10
56.7675081145
 20
45.0175050419
 30
0.0
 10
56.7556179112
 20
45.0394051755
 30
0.0
  0
SPLINE
  5
356
100
AcDbEntity
  8
0
100
AcDbSpline
 62
7
  6
BYLAYER
 70
0
 71
3
 72
10
 73
6
 74
0
 42
0.0000001
 43
0.0000001
 44
0.0000000001
 40
0.0
 40
0.0
 40
0.0
 40
0.0
 40
0.4240084022
 40
0.7005256991
 40
1.0
 40
1.0
 40
1.0
 40
1.0
 10
56.3438488514
 20
44.4826901012
 30
0.0
 10
56.3673761794
 20
44.4777333198
 30
0.0
 10
56.4093082633
 20
44.4950496878
 30
0.0
 10
56.4503606476
 20
44.5331624907
 30
0.0
 10
56.4697581842
 20
44.5600227786
 30
0.0
 10
56.4782702109
 20
44.5747174425
 30
0.0
  0
SPLINE
  5
357
100
AcDbEntity
  8
0
100
AcDbSpline
 62
7
  6
BYLAYER
 70
0
 71
3
 72
11
 73
7
 74
0
 42
0.0000001
 43
0.0000001
 44
0.0000000001
 40
0.0
 40
0.0
 40
0.0
 40
0.0
 40
0.2937763238
 40
0.5674672962
 40
0.8040680788
 40
1.0
 40
1.0
 40
1.0
 40
1.0
 10
56.4782702109
 20
44.5747174425
 30
0.0
 10
56.4864601108
 20
44.5888560055
 30
0.0
 10
56.499752265
 20
44.617729871
 30
0.0
 10
56.5102700342
 20
44.6615305144
 30
0.0
 10
56.5099079141
 20
44.7013511958
 30
0.0
 10
56.5007040454
 20
44.7245176877
 30
0.0
 10
56.4942453172
 20
44.7332948113
 30
0.0
  0
SPLINE
  5
358
100
AcDbEntity
  8
0
100
AcDbSpline
 62
7
  6
BYLAYER
 70
0
 71
3
 72
12
 73
8
 74
0
 42
0.0000001
 43
0.0000001
 44
0.0000000001
 40
0.0
 40
0.0
 40
0.0
 40
0.0
 40
0.2887489824
 40
0.5698855357
 40
0.6974802663
 40
0.8119273745
 40
1.0
 40
1.0
 40
1.0
 40
1.0
 10
56.2057417757
 20
44.2013774016
 30
0.0
 10
56.2202756367
 20
44.2175698808
 30
0.0
 10
56.244597593
 20
44.2535923499
 30
0.0
 10
56.262934993
 20
44.3035368456
 30
0.0
 10
56.2678367846
 20
44.3428771904
 30
0.0
 10
56.266145391
 20
44.3752633029
 30
0.0
 10
56.2563811464
 20
44.3977521864
 30
0.0
 10
56.2463896964
 20
44.4078029588
 30
0.0
  0
SPLINE
  5
359
100
AcDbEntity
  8
0
100
AcDbSpline
 62
7
  6
BYLAYER
 70
0
 71
3
 72
10
 73
6
 74
0
 42
0.0000001
 43
0.0000001
 44
0.0000000001
 40
0.0
 40
0.0
 40
0.0
 40
0.0
 40
0.5318456435
 40
0.781455071
 40
1.0
 40
1.0
 40
1.0
 40
1.0
 10
63.940881412
 20
41.9619358551
 30
0.0
 10
63.9513489197
 20
41.9909780052
 30
0.0
 10
63.9748709335
 20
42.0313762721
 30
0.0
 10
64.0169730096
 20
42.0716626315
 30
0.0
 10
64.0407020861
 20
42.0857653966
 30
0.0
 10
64.052554884
 20
42.0902854855
 30
0.0
  0
SPLINE
  5
35A
100
AcDbEntity
  8
0
100
AcDbSpline
 62
7
  6
BYLAYER
 70
0
 71
3
 72
18
 73
14
 74
0
 42
0.0000001
 43
0.0000001
 44
0.0000000001
 40
0.0
 40
0.0
 40
0.0
 40
0.0
 40
0.0450032962
 40
0.0929539341
 40
0.1459516848
 40
0.2051012893
 40
0.3409213553
 40
0.4928317388
 40
0.6465139389
 40
0.7873851085
 40
0.8496425612
 40
0.9053222694
 40
1.0
 40
1.0
 40
1.0
 40
1.0
 10
55.8577195511
 20
43.8106752812
 30
0.0
 10
55.8624260476
 20
43.8076270416
 30
0.0
 10
55.8733391999
 20
43.8030371275
 30
0.0
 10
55.8917209794
 20
43.8015951938
 30
0.0
 10
55.9114936031
 20
43.8054788401
 30
0.0
 10
55.939997705
 20
43.8178557967
 30
0.0
 10
55.974343818
 20
43.8452229256
 30
0.0
 10
56.0082126774
 20
43.8890780938
 30
0.0
 10
56.0321657829
 20
43.939750763
 30
0.0
 10
56.0416596624
 20
43.9837877335
 30
0.0
 10
56.0407915259
 20
44.0162120542
 30
0.0
 10
56.0350083871
 20
44.042155705
 30
0.0
 10
56.0236823978
 20
44.0587354758
 30
0.0
 10
56.0141656655
 20
44.0657065996
 30
0.0
  0
SPLINE
  5
35B
100
AcDbEntity
  8
0
100
AcDbSpline
 62
7
  6
BYLAYER
 70
0
 71
3
 72
18
 73
14
 74
0
 42
0.0000001
 43
0.0000001
 44
0.0000000001
 40
0.0
 40
0.0
 40
0.0
 40
0.0
 40
0.0950355881
 40
0.1509224546
 40
0.2130879046
 40
0.3537948796
 40
0.5075228612
 40
0.6593645329
 40
0.7953272252
 40
0.8545571824
 40
0.90735054
 40
0.9550168161
 40
1.0
 40
1.0
 40
1.0
 40
1.0
 10
55.6569368383
 20
43.4469111794
 30
0.0
 10
55.6677740226
 20
43.4421363447
 30
0.0
 10
55.6879485237
 20
43.4411209058
 30
0.0
 10
55.7132972141
 20
43.4491342516
 30
0.0
 10
55.7418589818
 20
43.4645258312
 30
0.0
 10
55.7752368308
 20
43.494750289
 30
0.0
 10
55.8071419534
 20
43.5408073514
 30
0.0
 10
55.8282060089
 20
43.5920839442
 30
0.0
 10
55.8347395586
 20
43.6355254761
 30
0.0
 10
55.8312935313
 20
43.6664112582
 30
0.0
 10
55.8247357904
 20
43.6854375273
 30
0.0
 10
55.8140309782
 20
43.7003971014
 30
0.0
 10
55.8045457271
 20
43.7073733447
 30
0.0
 10
55.7995544781
 20
43.7099243793
 30
0.0
  0
SPLINE
  5
35C
100
AcDbEntity
  8
0
100
AcDbSpline
 62
7
  6
BYLAYER
 70
0
 71
3
 72
10
 73
6
 74
0
 42
0.0000001
 43
0.0000001
 44
0.0000000001
 40
0.0
 40
0.0
 40
0.0
 40
0.0
 40
0.4219018191
 40
0.6977618004
 40
1.0
 40
1.0
 40
1.0
 40
1.0
 10
55.4768147195
 20
43.0747405608
 30
0.0
 10
55.4989198058
 20
43.068887053
 30
0.0
 10
55.5397444912
 20
43.0832612225
 30
0.0
 10
55.5802967266
 20
43.118285142
 30
0.0
 10
55.5998689809
 20
43.1433072678
 30
0.0
 10
55.6086512072
 20
43.1571354031
 30
0.0
  0
SPLINE
  5
35D
100
AcDbEntity
  8
0
100
AcDbSpline
 62
7
  6
BYLAYER
 70
0
 71
3
 72
13
 73
9
 74
0
 42
0.0000001
 43
0.0000001
 44
0.0000000001
 40
0.0
 40
0.0
 40
0.0
 40
0.0
 40
0.3049987011
 40
0.5830674472
 40
0.7049913456
 40
0.8135294857
 40
0.9101109242
 40
1.0
 40
1.0
 40
1.0
 40
1.0
 10
55.6086512072
 20
43.1571354031
 30
0.0
 10
55.6195185949
 20
43.1742467484
 30
0.0
 10
55.6365870876
 20
43.2094509951
 30
0.0
 10
55.6464096727
 20
43.2559945341
 30
0.0
 10
55.6448326607
 20
43.2899334777
 30
0.0
 10
55.6393088524
 20
43.3111784668
 30
0.0
 10
55.629108265
 20
43.3283033569
 30
0.0
 10
55.6192756752
 20
43.3363252022
 30
0.0
 10
55.6140683172
 20
43.3392533215
 30
0.0
  0
SPLINE
  5
35E
100
AcDbEntity
  8
0
100
AcDbSpline
 62
7
  6
BYLAYER
 70
0
 71
3
 72
10
 73
6
 74
0
 42
0.0000001
 43
0.0000001
 44
0.0000000001
 40
0.0
 40
0.0
 40
0.0
 40
0.0
 40
0.4295926301
 40
0.7046827834
 40
1.0
 40
1.0
 40
1.0
 40
1.0
 10
55.3188899329
 20
42.697338654
 30
0.0
 10
55.3428590318
 20
42.6946716964
 30
0.0
 10
55.3830334353
 20
42.7134177343
 30
0.0
 10
55.422966114
 20
42.7520928381
 30
0.0
 10
55.4415336915
 20
42.7786892188
 30
0.0
 10
55.4496622635
 20
42.7931386461
 30
0.0
  0
SPLINE
  5
35F
100
AcDbEntity
  8
0
100
AcDbSpline
 62
7
  6
BYLAYER
 70
0
 71
3
 72
10
 73
6
 74
0
 42
0.0000001
 43
0.0000001
 44
0.0000000001
 40
0.0
 40
0.0
 40
0.0
 40
0.0
 40
0.2987252485
 40
0.5743389515
 40
1.0
 40
1.0
 40
1.0
 40
1.0
 10
55.4496622635
 20
42.7931386461
 30
0.0
 10
55.4577846108
 20
42.8075770083
 30
0.0
 10
55.470818243
 20
42.837136818
 30
0.0
 10
55.4826978254
 20
42.8905924659
 30
0.0
 10
55.4773487919
 20
42.9345345078
 30
0.0
 10
55.461829368
 20
42.9523213316
 30
0.0
  0
SPLINE
  5
360
100
AcDbEntity
  8
0
100
AcDbSpline
 62
7
  6
BYLAYER
 70
0
 71
3
 72
11
 73
7
 74
0
 42
0.0000001
 43
0.0000001
 44
0.0000000001
 40
0.0
 40
0.0
 40
0.0
 40
0.0
 40
0.2007191437
 40
0.4416416375
 40
0.7137851121
 40
1.0
 40
1.0
 40
1.0
 40
1.0
 10
55.1845098371
 20
42.3179253188
 30
0.0
 10
55.1962059318
 20
42.3182316438
 30
0.0
 10
55.2217148567
 20
42.325591716
 30
0.0
 10
55.2565050829
 20
42.349108
 30
0.0
 10
55.2884459948
 20
42.3834951514
 30
0.0
 10
55.3057119816
 20
42.4113555226
 30
0.0
 10
55.3131023073
 20
42.4263131291
 30
0.0
  0
SPLINE
  5
361
100
AcDbEntity
  8
0
100
AcDbSpline
 62
7
  6
BYLAYER
 70
0
 71
3
 72
10
 73
6
 74
0
 42
0.0000001
 43
0.0000001
 44
0.0000000001
 40
0.0
 40
0.0
 40
0.0
 40
0.0
 40
0.2997355483
 40
0.5735985793
 40
1.0
 40
1.0
 40
1.0
 40
1.0
 10
55.3131023073
 20
42.4263131291
 30
0.0
 10
55.3198967926
 20
42.440064788
 30
0.0
 10
55.3305808561
 20
42.4678039782
 30
0.0
 10
55.3394681518
 20
42.5176881537
 30
0.0
 10
55.3328166722
 20
42.5574366999
 30
0.0
 10
55.3184172835
 20
42.5738316975
 30
0.0
  0
SPLINE
  5
362
100
AcDbEntity
  8
0
100
AcDbSpline
 62
7
  6
BYLAYER
 70
0
 71
3
 72
11
 73
7
 74
0
 42
0.0000001
 43
0.0000001
 44
0.0000000001
 40
0.0
 40
0.0
 40
0.0
 40
0.0
 40
0.2060984468
 40
0.4504866981
 40
0.7211489474
 40
1.0
 40
1.0
 40
1.0
 40
1.0
 10
55.0748209159
 20
41.9397375762
 30
0.0
 10
55.0870192744
 20
41.9415917632
 30
0.0
 10
55.1127018116
 20
41.9518466114
 30
0.0
 10
55.1470118346
 20
41.9786091264
 30
0.0
 10
55.1775803652
 20
42.0154222274
 30
0.0
 10
55.193564276
 20
42.0444426378
 30
0.0
 10
55.2001364199
 20
42.059788478
 30
0.0
  0
SPLINE
  5
363
100
AcDbEntity
  8
0
100
AcDbSpline
 62
7
  6
BYLAYER
 70
0
 71
3
 72
10
 73
6
 74
0
 42
0.0000001
 43
0.0000001
 44
0.0000000001
 40
0.0
 40
0.0
 40
0.0
 40
0.0
 40
0.2992884875
 40
0.5711200643
 40
1.0
 40
1.0
 40
1.0
 40
1.0
 10
55.2001364199
 20
42.059788478
 30
0.0
 10
55.2056235281
 20
42.0726007791
 30
0.0
 10
55.2140616203
 20
42.0981319712
 30
0.0
 10
55.220249455
 20
42.1439551098
 30
0.0
 10
55.2129540153
 20
42.1793683571
 30
0.0
 10
55.199969302
 20
42.1945444613
 30
0.0
  0
SPLINE
  5
364
100
AcDbEntity
  8
0
100
AcDbSpline
 62
7
  6
BYLAYER
 70
0
 71
3
 72
10
 73
6
 74
0
 42
0.0000001
 43
0.0000001
 44
0.0000000001
 40
0.0
 40
0.0
 40
0.0
 40
0.0
 40
0.2127181476
 40
0.461053277
 40
1.0
 40
1.0
 40
1.0
 40
1.0
 10
54.9907589963
 20
41.5660019905
 30
0.0
 10
55.0033009068
 20
41.5693821654
 30
0.0
 10
55.0289614428
 20
41.5823597818
 30
0.0
 10
55.0748323927
 20
41.6231029025
 30
0.0
 10
55.1004749262
 20
41.6657653233
 30
0.0
 10
55.1117283864
 20
41.696691752
 30
0.0
  0
SPLINE
  5
365
100
AcDbEntity
  8
0
100
AcDbSpline
 62
7
  6
BYLAYER
 70
0
 71
3
 72
10
 73
6
 74
0
 42
0.0000001
 43
0.0000001
 44
0.0000000001
 40
0.0
 40
0.0
 40
0.0
 40
0.0
 40
0.2949219552
 40
0.5636981546
 40
1.0
 40
1.0
 40
1.0
 40
1.0
 10
55.1117283864
 20
41.696691752
 30
0.0
 10
55.1158149063
 20
41.7079222058
 30
0.0
 10
55.1220143142
 20
41.7301064884
 30
0.0
 10
55.1261294865
 20
41.7702659846
 30
0.0
 10
55.1199044219
 20
41.800431492
 30
0.0
 10
55.1096562108
 20
41.8148381341
 30
0.0
  0
SPLINE
  5
366
100
AcDbEntity
  8
0
100
AcDbSpline
 62
7
  6
BYLAYER
 70
0
 71
3
 72
10
 73
6
 74
0
 42
0.0000001
 43
0.0000001
 44
0.0000000001
 40
0.0
 40
0.0
 40
0.0
 40
0.0
 40
0.2192879237
 40
0.4707826033
 40
1.0
 40
1.0
 40
1.0
 40
1.0
 10
54.9330412651
 20
41.1999071421
 30
0.0
 10
54.9457771716
 20
41.2047640062
 30
0.0
 10
54.971203346
 20
41.2202759338
 30
0.0
 10
55.0153002163
 20
41.2644196832
 30
0.0
 10
55.0391862046
 20
41.3086109781
 30
0.0
 10
55.0486324732
 20
41.3401207642
 30
0.0
  0
SPLINE
  5
367
100
AcDbEntity
  8
0
100
AcDbSpline
 62
7
  6
BYLAYER
 70
0
 71
3
 72
9
 73
5
 74
0
 42
0.0000001
 43
0.0000001
 44
0.0000000001
 40
0.0
 40
0.0
 40
0.0
 40
0.0
 40
0.5422269565
 40
1.0
 40
1.0
 40
1.0
 40
1.0
 10
55.0486324732
 20
41.3401207642
 30
0.0
 10
55.0531941645
 20
41.355337134
 30
0.0
 10
55.058775825
 20
41.3843734205
 30
0.0
 10
55.0559012637
 20
41.4142704588
 30
0.0
 10
55.0516324959
 20
41.4269841646
 30
0.0
  0
SPLINE
  5
368
100
AcDbEntity
  8
0
100
AcDbSpline
 62
7
  6
BYLAYER
 70
0
 71
3
 72
10
 73
6
 74
0
 42
0.0000001
 43
0.0000001
 44
0.0000000001
 40
0.0
 40
0.0
 40
0.0
 40
0.0
 40
0.2262128366
 40
0.4807408384
 40
1.0
 40
1.0
 40
1.0
 40
1.0
 10
54.9021601495
 20
40.8445764231
 30
0.0
 10
54.9149514546
 20
40.85084071
 30
0.0
 10
54.9399542419
 20
40.8687015798
 30
0.0
 10
54.9819785089
 20
40.9158412324
 30
0.0
 10
55.0039109137
 20
40.9612902267
 30
0.0
 10
55.0113869921
 20
40.9931176526
 30
0.0
  0
SPLINE
  5
369
100
AcDbEntity
  8
0
100
AcDbSpline
 62
7
  6
BYLAYER
 70
0
 71
3
 72
9
 73
5
 74
0
 42
0.0000001
 43
0.0000001
 44
0.0000000001
 40
0.0
 40
0.0
 40
0.0
 40
0.0
 40
0.2674124557
 40
1.0
 40
1.0
 40
1.0
 40
1.0
 10
55.0113869921
 20
40.9931176526
 30
0.0
 10
55.0124746999
 20
40.9977482808
 30
0.0
 10
55.0159252519
 20
41.0151886082
 30
0.0
 10
55.0169217213
 20
41.0332280374
 30
0.0
 10
55.0155491491
 20
41.0461866201
 30
0.0
  0
SPLINE
  5
36A
100
AcDbEntity
  8
0
100
AcDbSpline
 62
7
  6
BYLAYER
 70
0
 71
3
 72
10
 73
6
 74
0
 42
0.0000001
 43
0.0000001
 44
0.0000000001
 40
0.0
 40
0.0
 40
0.0
 40
0.0
 40
0.2333958502
 40
0.4908399237
 40
1.0
 40
1.0
 40
1.0
 40
1.0
 10
54.8983791164
 20
40.5030413899
 30
0.0
 10
54.9110978521
 20
40.5106293204
 30
0.0
 10
54.9354943129
 20
40.5306466868
 30
0.0
 10
54.9751627012
 20
40.5803571185
 30
0.0
 10
54.9949557311
 20
40.6267806582
 30
0.0
 10
55.0003097086
 20
40.6586429254
 30
0.0
  0
SPLINE
  5
36B
100
AcDbEntity
  8
0
100
AcDbSpline
 62
7
  6
BYLAYER
 70
0
 71
3
 72
9
 73
5
 74
0
 42
0.0000001
 43
0.0000001
 44
0.0000000001
 40
0.0
 40
0.0
 40
0.0
 40
0.0
 40
0.2607327097
 40
1.0
 40
1.0
 40
1.0
 40
1.0
 10
55.0003097086
 20
40.6586429254
 30
0.0
 10
55.0007742962
 20
40.6614077509
 30
0.0
 10
55.0023129617
 20
40.6720494335
 30
0.0
 10
55.0028647427
 20
40.6828476675
 30
0.0
 10
55.0025718328
 20
40.6907914075
 30
0.0
  0
SPLINE
  5
36C
100
AcDbEntity
  8
0
100
AcDbSpline
 62
7
  6
BYLAYER
 70
0
 71
3
 72
9
 73
5
 74
0
 42
0.0000001
 43
0.0000001
 44
0.0000000001
 40
0.0
 40
0.0
 40
0.0
 40
0.0
 40
0.2356300718
 40
1.0
 40
1.0
 40
1.0
 40
1.0
 10
54.9217304242
 20
40.1782158989
 30
0.0
 10
54.9258023445
 20
40.1810816757
 30
0.0
 10
54.9425090216
 20
40.1940521121
 30
0.0
 10
54.9570606038
 20
40.2096975115
 30
0.0
 10
54.9668799982
 20
40.2225225719
 30
0.0
  0
SPLINE
  5
36D
100
AcDbEntity
  8
0
100
AcDbSpline
 62
7
  6
BYLAYER
 70
0
 71
3
 72
9
 73
5
 74
0
 42
0.0000001
 43
0.0000001
 44
0.0000000001
 40
0.0
 40
0.0
 40
0.0
 40
0.0
 40
0.2380781533
 40
1.0
 40
1.0
 40
1.0
 40
1.0
 10
54.9720148477
 20
39.8728712468
 30
0.0
 10
54.9760150734
 20
39.8761241623
 30
0.0
 10
54.9922211429
 20
39.8905124418
 30
0.0
 10
55.006211877
 20
39.9073296566
 30
0.0
 10
55.0155143623
 20
39.9209578508
 30
0.0
  0
SPLINE
  5
36E
100
AcDbEntity
  8
0
100
AcDbSpline
 62
7
  6
BYLAYER
 70
0
 71
3
 72
9
 73
5
 74
0
 42
0.0000001
 43
0.0000001
 44
0.0000000001
 40
0.0
 40
0.0
 40
0.0
 40
0.0
 40
0.2606856654
 40
1.0
 40
1.0
 40
1.0
 40
1.0
 10
55.0155143623
 20
39.9209578508
 30
0.0
 10
55.0209987149
 20
39.9289924585
 30
0.0
 10
55.0402021004
 20
39.960966652
 30
0.0
 10
55.0528277016
 20
39.9973436111
 30
0.0
 10
55.0558735982
 20
40.0247637934
 30
0.0
  0
SPLINE
  5
36F
100
AcDbEntity
  8
0
100
AcDbSpline
 62
7
  6
BYLAYER
 70
0
 71
3
 72
9
 73
5
 74
0
 42
0.0000001
 43
0.0000001
 44
0.0000000001
 40
0.0
 40
0.0
 40
0.0
 40
0.0
 40
0.2405834385
 40
1.0
 40
1.0
 40
1.0
 40
1.0
 10
55.0488033781
 20
39.5896125265
 30
0.0
 10
55.0526977819
 20
39.5932218461
 30
0.0
 10
55.0682739428
 20
39.6088753415
 30
0.0
 10
55.0815880874
 20
39.6267391709
 30
0.0
 10
55.0902817107
 20
39.6410688035
 30
0.0
  0
SPLINE
  5
370
100
AcDbEntity
  8
0
100
AcDbSpline
 62
7
  6
BYLAYER
 70
0
 71
3
 72
9
 73
5
 74
0
 42
0.0000001
 43
0.0000001
 44
0.0000000001
 40
0.0
 40
0.0
 40
0.0
 40
0.0
 40
0.2593372564
 40
1.0
 40
1.0
 40
1.0
 40
1.0
 10
55.0902817107
 20
39.6410688035
 30
0.0
 10
55.0942684406
 20
39.6476400998
 30
0.0
 10
55.1084736844
 20
39.6736458778
 30
0.0
 10
55.1183133976
 20
39.7022128824
 30
0.0
 10
55.1218683059
 20
39.7238744557
 30
0.0
  0
SPLINE
  5
371
100
AcDbEntity
  8
0
100
AcDbSpline
 62
7
  6
BYLAYER
 70
0
 71
3
 72
9
 73
5
 74
0
 42
0.0000001
 43
0.0000001
 44
0.0000000001
 40
0.0
 40
0.0
 40
0.0
 40
0.0
 40
0.5031066229
 40
1.0
 40
1.0
 40
1.0
 40
1.0
 10
55.1514408825
 20
39.3308564015
 30
0.0
 10
55.1663841828
 20
39.3465015252
 30
0.0
 10
55.1917144607
 20
39.3818948984
 30
0.0
 10
55.2078547044
 20
39.4223598334
 30
0.0
 10
55.2127198216
 20
39.4431663946
 30
0.0
  0
SPLINE
  5
372
100
AcDbEntity
  8
0
100
AcDbSpline
 62
7
  6
BYLAYER
 70
0
 71
3
 72
9
 73
5
 74
0
 42
0.0000001
 43
0.0000001
 44
0.0000000001
 40
0.0
 40
0.0
 40
0.0
 40
0.0
 40
0.2485720058
 40
1.0
 40
1.0
 40
1.0
 40
1.0
 10
55.2790516941
 20
39.0988104877
 30
0.0
 10
55.2844011588
 20
39.1051043856
 30
0.0
 10
55.304536344
 20
39.1315591778
 30
0.0
 10
55.3196976371
 20
39.1618865064
 30
0.0
 10
55.3271753046
 20
39.1857108012
 30
0.0
  0
SPLINE
  5
373
100
AcDbEntity
  8
0
100
AcDbSpline
 62
7
  6
BYLAYER
 70
0
 71
3
 72
9
 73
5
 74
0
 42
0.0000001
 43
0.0000001
 44
0.0000000001
 40
0.0
 40
0.0
 40
0.0
 40
0.0
 40
0.2483802859
 40
1.0
 40
1.0
 40
1.0
 40
1.0
 10
55.4305470824
 20
38.8954545192
 30
0.0
 10
55.4339949288
 20
38.9000029871
 30
0.0
 10
55.4472145296
 20
38.9188059981
 30
0.0
 10
55.4579827732
 20
38.9393466767
 30
0.0
 10
55.4643654869
 20
38.9553955822
 30
0.0
  0
SPLINE
  5
374
100
AcDbEntity
  8
0
100
AcDbSpline
 62
7
  6
BYLAYER
 70
0
 71
3
 72
9
 73
5
 74
0
 42
0.0000001
 43
0.0000001
 44
0.0000000001
 40
0.0
 40
0.0
 40
0.0
 40
0.0
 40
0.4596147681
 40
1.0
 40
1.0
 40
1.0
 40
1.0
 10
64.0003853636
 20
42.1889080721
 30
0.0
 10
63.99181722
 20
42.1938874244
 30
0.0
 10
63.9766095904
 20
42.2108959314
 30
0.0
 10
63.9712742581
 20
42.2324193497
 30
0.0
 10
63.9700470001
 20
42.2440060075
 30
0.0
  0
SPLINE
  5
375
100
AcDbEntity
  8
0
100
AcDbSpline
 62
7
  6
BYLAYER
 70
0
 71
3
 72
9
 73
5
 74
0
 42
0.0000001
 43
0.0000001
 44
0.0000000001
 40
0.0
 40
0.0
 40
0.0
 40
0.0
 40
0.2323904614
 40
1.0
 40
1.0
 40
1.0
 40
1.0
 10
63.9700470001
 20
42.2440060075
 30
0.0
 10
63.96961149
 20
42.2481176991
 30
0.0
 10
63.9686828064
 20
42.2659089933
 30
0.0
 10
63.9710861336
 20
42.2837795291
 30
0.0
 10
63.974209157
 20
42.297074975
 30
0.0
  0
SPLINE
  5
376
100
AcDbEntity
  8
0
100
AcDbSpline
 62
7
  6
BYLAYER
 70
0
 71
3
 72
10
 73
6
 74
0
 42
0.0000001
 43
0.0000001
 44
0.0000000001
 40
0.0
 40
0.0
 40
0.0
 40
0.0
 40
0.5192591616
 40
0.7737871634
 40
1.0
 40
1.0
 40
1.0
 40
1.0
 10
63.974209157
 20
42.297074975
 30
0.0
 10
63.9816852354
 20
42.3289024009
 30
0.0
 10
64.0036176402
 20
42.3743513952
 30
0.0
 10
64.0456419072
 20
42.4214910478
 30
0.0
 10
64.0706446945
 20
42.4393519176
 30
0.0
 10
64.0834359996
 20
42.4456162045
 30
0.0
  0
SPLINE
  5
377
100
AcDbEntity
  8
0
100
AcDbSpline
 62
7
  6
BYLAYER
 70
0
 71
3
 72
11
 73
7
 74
0
 42
0.0000001
 43
0.0000001
 44
0.0000000001
 40
0.0
 40
0.0
 40
0.0
 40
0.0
 40
0.2069459361
 40
0.4359960832
 40
0.6998883251
 40
1.0
 40
1.0
 40
1.0
 40
1.0
 10
64.0139717237
 20
42.5357855823
 30
0.0
 10
64.0076685473
 20
42.5394532979
 30
0.0
 10
63.9960808539
 20
42.5503355426
 30
0.0
 10
63.9856698261
 20
42.5731916886
 30
0.0
 10
63.9818825707
 20
42.6011715429
 30
0.0
 10
63.9835339223
 20
42.621120222
 30
0.0
 10
63.9852864405
 20
42.6315497022
 30
0.0
  0
SPLINE
  5
378
100
AcDbEntity
  8
0
100
AcDbSpline
 62
7
  6
BYLAYER
 70
0
 71
3
 72
10
 73
6
 74
0
 42
0.0000001
 43
0.0000001
 44
0.0000000001
 40
0.0
 40
0.0
 40
0.0
 40
0.0
 40
0.5091600763
 40
0.7666041498
 40
1.0
 40
1.0
 40
1.0
 40
1.0
 10
63.9852864405
 20
42.6315497022
 30
0.0
 10
63.990640418
 20
42.6634119693
 30
0.0
 10
64.0104334479
 20
42.709835509
 30
0.0
 10
64.0501018362
 20
42.7595459408
 30
0.0
 10
64.0744982971
 20
42.7795633071
 30
0.0
 10
64.0872170327
 20
42.7871512377
 30
0.0
  0
SPLINE
  5
379
100
AcDbEntity
  8
0
100
AcDbSpline
 62
7
  6
BYLAYER
 70
0
 71
3
 72
13
 73
9
 74
0
 42
0.0000001
 43
0.0000001
 44
0.0000000001
 40
0.0
 40
0.0
 40
0.0
 40
0.0
 40
0.0885584178
 40
0.184927382
 40
0.2942491464
 40
0.417778971
 40
0.6990239823
 40
1.0
 40
1.0
 40
1.0
 40
1.0
 10
64.0004116282
 20
42.8669891555
 30
0.0
 10
63.9947602504
 20
42.8702756505
 30
0.0
 10
63.9842831092
 20
42.8796173471
 30
0.0
 10
63.9739725563
 20
42.8991342611
 30
0.0
 10
63.9690152849
 20
42.9231806757
 30
0.0
 10
63.9693814568
 20
42.9613434202
 30
0.0
 10
63.9835443153
 20
43.0123430245
 30
0.0
 10
64.0052091082
 20
43.0500285771
 30
0.0
 10
64.0187161509
 20
43.0676700557
 30
0.0
  0
SPLINE
  5
37A
100
AcDbEntity
  8
0
100
AcDbSpline
 62
7
  6
BYLAYER
 70
0
 71
3
 72
9
 73
5
 74
0
 42
0.0000001
 43
0.0000001
 44
0.0000000001
 40
0.0
 40
0.0
 40
0.0
 40
0.0
 40
0.2626548524
 40
1.0
 40
1.0
 40
1.0
 40
1.0
 10
64.0187161509
 20
43.0676700557
 30
0.0
 10
64.0220898419
 20
43.0720764162
 30
0.0
 10
64.0355048785
 20
43.0883934537
 30
0.0
 10
64.0511254692
 20
43.103010264
 30
0.0
 10
64.063865725
 20
43.1119767286
 30
0.0
  0
SPLINE
  5
37B
100
AcDbEntity
  8
0
100
AcDbSpline
 62
7
  6
BYLAYER
 70
0
 71
3
 72
13
 73
9
 74
0
 42
0.0000001
 43
0.0000001
 44
0.0000000001
 40
0.0
 40
0.0
 40
0.0
 40
0.0
 40
0.0893675144
 40
0.1859248574
 40
0.2946362291
 40
0.4169547833
 40
0.6962475081
 40
1.0
 40
1.0
 40
1.0
 40
1.0
 10
63.9598186259
 20
43.1796924894
 30
0.0
 10
63.954465173
 20
43.1828024724
 30
0.0
 10
63.9444819931
 20
43.1914527667
 30
0.0
 10
63.9343248557
 20
43.2095186626
 30
0.0
 10
63.9289418002
 20
43.2317942005
 30
0.0
 10
63.9280055926
 20
43.2673331078
 30
0.0
 10
63.9394564276
 20
43.3156214882
 30
0.0
 10
63.9582180428
 20
43.3518543242
 30
0.0
 10
63.9700817868
 20
43.3692347768
 30
0.0
  0
SPLINE
  5
37C
100
AcDbEntity
  8
0
100
AcDbSpline
 62
7
  6
BYLAYER
 70
0
 71
3
 72
9
 73
5
 74
0
 42
0.0000001
 43
0.0000001
 44
0.0000000001
 40
0.0
 40
0.0
 40
0.0
 40
0.0
 40
0.2599985753
 40
1.0
 40
1.0
 40
1.0
 40
1.0
 10
63.9700817868
 20
43.3692347768
 30
0.0
 10
63.9732558492
 20
43.3738847964
 30
0.0
 10
63.9860633476
 20
43.3913422318
 30
0.0
 10
64.0011489453
 20
43.4072116006
 30
0.0
 10
64.0135813014
 20
43.4173213807
 30
0.0
  0
SPLINE
  5
37D
100
AcDbEntity
  8
0
100
AcDbSpline
 62
7
  6
BYLAYER
 70
0
 71
3
 72
13
 73
9
 74
0
 42
0.0000001
 43
0.0000001
 44
0.0000000001
 40
0.0
 40
0.0
 40
0.0
 40
0.0
 40
0.0903618293
 40
0.1873649354
 40
0.2956475214
 40
0.4169271306
 40
0.6941990839
 40
1.0
 40
1.0
 40
1.0
 40
1.0
 10
63.8925355633
 20
43.471220686
 30
0.0
 10
63.8874750301
 20
43.4741478279
 30
0.0
 10
63.8779901659
 20
43.4821417351
 30
0.0
 10
63.8680573102
 20
43.4988084487
 30
0.0
 10
63.8623060605
 20
43.519341272
 30
0.0
 10
63.8602194134
 20
43.5522486522
 30
0.0
 10
63.8690775516
 20
43.5976511632
 30
0.0
 10
63.8850524108
 20
43.6322090025
 30
0.0
 10
63.8953144384
 20
43.6491238241
 30
0.0
  0
SPLINE
  5
37E
100
AcDbEntity
  8
0
100
AcDbSpline
 62
7
  6
BYLAYER
 70
0
 71
3
 72
9
 73
5
 74
0
 42
0.0000001
 43
0.0000001
 44
0.0000000001
 40
0.0
 40
0.0
 40
0.0
 40
0.0
 40
0.2573438846
 40
1.0
 40
1.0
 40
1.0
 40
1.0
 10
63.8953144384
 20
43.6491238241
 30
0.0
 10
63.8982602464
 20
43.6539793768
 30
0.0
 10
63.9103369878
 20
43.6724503813
 30
0.0
 10
63.9247719855
 20
43.6894392801
 30
0.0
 10
63.9367927711
 20
43.7005801011
 30
0.0
  0
SPLINE
  5
37F
100
AcDbEntity
  8
0
100
AcDbSpline
 62
7
  6
BYLAYER
 70
0
 71
3
 72
13
 73
9
 74
0
 42
0.0000001
 43
0.0000001
 44
0.0000000001
 40
0.0
 40
0.0
 40
0.0
 40
0.0
 40
0.0915614371
 40
0.1892415755
 40
0.297294591
 40
0.4177086687
 40
0.6929025095
 40
1.0
 40
1.0
 40
1.0
 40
1.0
 10
63.7991326864
 20
43.7390807818
 30
0.0
 10
63.7943633579
 20
43.7418262435
 30
0.0
 10
63.7853983459
 20
43.7492105779
 30
0.0
 10
63.7757259805
 20
43.7645121241
 30
0.0
 10
63.7696889431
 20
43.7833425739
 30
0.0
 10
63.7665926401
 20
43.8136236028
 30
0.0
 10
63.773012517
 20
43.8559940065
 30
0.0
 10
63.7863337554
 20
43.888680658
 30
0.0
 10
63.7950519944
 20
43.9049492829
 30
0.0
  0
SPLINE
  5
380
100
AcDbEntity
  8
0
100
AcDbSpline
 62
7
  6
BYLAYER
 70
0
 71
3
 72
9
 73
5
 74
0
 42
0.0000001
 43
0.0000001
 44
0.0000000001
 40
0.0
 40
0.0
 40
0.0
 40
0.0
 40
0.254701118
 40
1.0
 40
1.0
 40
1.0
 40
1.0
 10
63.7950519944
 20
43.9049492829
 30
0.0
 10
63.7977426668
 20
43.9099701981
 30
0.0
 10
63.8089688179
 20
43.92931598
 30
0.0
 10
63.8226421614
 20
43.9472823991
 30
0.0
 10
63.8341552666
 20
43.9593362261
 30
0.0
  0
SPLINE
  5
381
100
AcDbEntity
  8
0
100
AcDbSpline
 62
7
  6
BYLAYER
 70
0
 71
3
 72
13
 73
9
 74
0
 42
0.0000001
 43
0.0000001
 44
0.0000000001
 40
0.0
 40
0.0
 40
0.0
 40
0.0
 40
0.0878197431
 40
0.1842655699
 40
0.2943852679
 40
0.4191333439
 40
0.7021016395
 40
1.0
 40
1.0
 40
1.0
 40
1.0
 10
63.6804091927
 20
43.9809904105
 30
0.0
 10
63.6744725433
 20
43.9844003618
 30
0.0
 10
63.6634936257
 20
43.9943563846
 30
0.0
 10
63.6531447646
 20
44.0152806901
 30
0.0
 10
63.6486314719
 20
44.0409815259
 30
0.0
 10
63.650312666
 20
44.081548278
 30
0.0
 10
63.667053197
 20
44.1348859782
 30
0.0
 10
63.6915042553
 20
44.1736866345
 30
0.0
 10
63.706544455
 20
44.1913821399
 30
0.0
  0
SPLINE
  5
382
100
AcDbEntity
  8
0
100
AcDbSpline
 62
7
  6
BYLAYER
 70
0
 71
3
 72
13
 73
9
 74
0
 42
0.0000001
 43
0.0000001
 44
0.0000000001
 40
0.0
 40
0.0
 40
0.0
 40
0.0
 40
0.0885319859
 40
0.184965462
 40
0.2942691515
 40
0.4176252585
 40
0.6987432242
 40
1.0
 40
1.0
 40
1.0
 40
1.0
 10
63.5373851973
 20
44.1948978801
 30
0.0
 10
63.5317492506
 20
44.1981460565
 30
0.0
 10
63.5212984778
 20
44.2074307253
 30
0.0
 10
63.5110204015
 20
44.2268478036
 30
0.0
 10
63.5060329868
 20
44.2507575266
 30
0.0
 10
63.5062715554
 20
44.2887185961
 30
0.0
 10
63.5202269369
 20
44.3395212169
 30
0.0
 10
63.5416775978
 20
44.3770981994
 30
0.0
 10
63.5550490667
 20
44.3947381084
 30
0.0
  0
SPLINE
  5
383
100
AcDbEntity
  8
0
100
AcDbSpline
 62
7
  6
BYLAYER
 70
0
 71
3
 72
13
 73
9
 74
0
 42
0.0000001
 43
0.0000001
 44
0.0000000001
 40
0.0
 40
0.0
 40
0.0
 40
0.0
 40
0.0894161457
 40
0.1860674645
 40
0.2947373469
 40
0.4168703903
 40
0.6960949281
 40
1.0
 40
1.0
 40
1.0
 40
1.0
 10
63.3712883098
 20
44.3789915953
 30
0.0
 10
63.3659536561
 20
44.3820784195
 30
0.0
 10
63.3560057099
 20
44.3906865436
 30
0.0
 10
63.3458887831
 20
44.4086598625
 30
0.0
 10
63.3404723298
 20
44.4307950434
 30
0.0
 10
63.3394210824
 20
44.4661317789
 30
0.0
 10
63.3506853205
 20
44.5142029318
 30
0.0
 10
63.3692335544
 20
44.5503121702
 30
0.0
 10
63.380961607
 20
44.5676691703
 30
0.0
  0
SPLINE
  5
384
100
AcDbEntity
  8
0
100
AcDbSpline
 62
7
  6
BYLAYER
 70
0
 71
3
 72
13
 73
9
 74
0
 42
0.0000001
 43
0.0000001
 44
0.0000000001
 40
0.0
 40
0.0
 40
0.0
 40
0.0
 40
0.0904688629
 40
0.1875712385
 40
0.2957954492
 40
0.4168835819
 40
0.6941794875
 40
1.0
 40
1.0
 40
1.0
 40
1.0
 10
63.183529324
 20
44.531690312
 30
0.0
 10
63.178489587
 20
44.5346036059
 30
0.0
 10
63.1690480469
 20
44.5425654171
 30
0.0
 10
63.1591530909
 20
44.5591384153
 30
0.0
 10
63.1533717209
 20
44.5795289695
 30
0.0
 10
63.1511781867
 20
44.612236146
 30
0.0
 10
63.1598763229
 20
44.6574068049
 30
0.0
 10
63.17563923
 20
44.6918286018
 30
0.0
 10
63.1857673286
 20
44.7086999386
 30
0.0
  0
SPLINE
  5
385
100
AcDbEntity
  8
0
100
AcDbSpline
 62
7
  6
BYLAYER
 70
0
 71
3
 72
12
 73
8
 74
0
 42
0.0000001
 43
0.0000001
 44
0.0000000001
 40
0.0
 40
0.0
 40
0.0
 40
0.0
 40
0.0918215064
 40
0.189707875
 40
0.4169628249
 40
0.6926424437
 40
1.0
 40
1.0
 40
1.0
 40
1.0
 10
62.9757042701
 20
44.651681378
 30
0.0
 10
62.970957241
 20
44.6544183253
 30
0.0
 10
62.9620428472
 20
44.6617756886
 30
0.0
 10
62.9485442174
 20
44.6830637348
 30
0.0
 10
62.9421565939
 20
44.7195524374
 30
0.0
 10
62.9494422816
 20
44.767808943
 30
0.0
 10
62.9625436771
 20
44.800420084
 30
0.0
 10
62.9711315604
 20
44.8166271887
 30
0.0
  0
SPLINE
  5
386
100
AcDbEntity
  8
0
100
AcDbSpline
 62
7
  6
BYLAYER
 70
0
 71
3
 72
11
 73
7
 74
0
 42
0.0000001
 43
0.0000001
 44
0.0000000001
 40
0.0
 40
0.0
 40
0.0
 40
0.0
 40
0.190399872
 40
0.4174459846
 40
0.6916732558
 40
1.0
 40
1.0
 40
1.0
 40
1.0
 10
62.7495870054
 20
44.7379410689
 30
0.0
 10
62.7405137879
 20
44.7431682653
 30
0.0
 10
62.7245381716
 20
44.7616904417
 30
0.0
 10
62.7165136994
 20
44.7998523003
 30
0.0
 10
62.7211345495
 20
44.8446053633
 30
0.0
 10
62.7317632816
 20
44.8751416399
 30
0.0
 10
62.738885499
 20
44.8905301233
 30
0.0
  0
SPLINE
  5
387
100
AcDbEntity
  8
0
100
AcDbSpline
 62
7
  6
BYLAYER
 70
0
 71
3
 72
11
 73
7
 74
0
 42
0.0000001
 43
0.0000001
 44
0.0000000001
 40
0.0
 40
0.0
 40
0.0
 40
0.0
 40
0.1932821158
 40
0.4200431658
 40
0.6921930673
 40
1.0
 40
1.0
 40
1.0
 40
1.0
 10
62.5071124477
 20
44.7897440954
 30
0.0
 10
62.4986655146
 20
44.7946302429
 30
0.0
 10
62.4835782815
 20
44.811238162
 30
0.0
 10
62.4746474015
 20
44.8459060995
 30
0.0
 10
62.4769775967
 20
44.8869929427
 30
0.0
 10
62.4852660696
 20
44.9153385303
 30
0.0
 10
62.491010586
 20
44.9297782286
 30
0.0
  0
SPLINE
  5
388
100
AcDbEntity
  8
0
100
AcDbSpline
 62
7
  6
BYLAYER
 70
0
 71
3
 72
9
 73
5
 74
0
 42
0.0000001
 43
0.0000001
 44
0.0000000001
 40
0.0
 40
0.0
 40
0.0
 40
0.0
 40
0.7517511515
 40
1.0
 40
1.0
 40
1.0
 40
1.0
 10
59.8101435383
 20
46.4815427876
 30
0.0
 10
59.8200289026
 20
46.4945487814
 30
0.0
 10
59.8314313167
 20
46.5132594159
 30
0.0
 10
59.8404857015
 20
46.5330164488
 30
0.0
 10
59.8425794264
 20
46.5379882913
 30
0.0
  0
SPLINE
  5
389
100
AcDbEntity
  8
0
100
AcDbSpline
 62
7
  6
BYLAYER
 70
0
 71
3
 72
11
 73
7
 74
0
 42
0.0000001
 43
0.0000001
 44
0.0000000001
 40
0.0
 40
0.0
 40
0.0
 40
0.0
 40
0.1965393265
 40
0.4234502416
 40
0.6935247835
 40
1.0
 40
1.0
 40
1.0
 40
1.0
 10
62.2503531024
 20
44.8066550428
 30
0.0
 10
62.242523081
 20
44.8111914452
 30
0.0
 10
62.2283553308
 20
44.8259968069
 30
0.0
 10
62.2187425904
 20
44.8572299631
 30
0.0
 10
62.2190177879
 20
44.8946030062
 30
0.0
 10
62.2251547126
 20
44.9206513616
 30
0.0
 10
62.2296216027
 20
44.9340366536
 30
0.0
  0
SPLINE
  5
38A
100
AcDbEntity
  8
0
100
AcDbSpline
 62
7
  6
BYLAYER
 70
0
 71
3
 72
9
 73
5
 74
0
 42
0.0000001
 43
0.0000001
 44
0.0000000001
 40
0.0
 40
0.0
 40
0.0
 40
0.0
 40
0.2521491657
 40
1.0
 40
1.0
 40
1.0
 40
1.0
 10
59.5614212592
 20
46.5095469472
 30
0.0
 10
59.564485627
 20
46.5140697163
 30
0.0
 10
59.5760157592
 20
46.5324210816
 30
0.0
 10
59.5852595884
 20
46.5522066444
 30
0.0
 10
59.5907048334
 20
46.567467405
 30
0.0
  0
SPLINE
  5
38B
100
AcDbEntity
  8
0
100
AcDbSpline
 62
7
  6
BYLAYER
 70
0
 71
3
 72
11
 73
7
 74
0
 42
0.0000001
 43
0.0000001
 44
0.0000000001
 40
0.0
 40
0.0
 40
0.0
 40
0.0
 40
0.200187844
 40
0.4276675533
 40
0.6956750748
 40
1.0
 40
1.0
 40
1.0
 40
1.0
 10
61.9814913811
 20
44.7885163391
 30
0.0
 10
61.9742658375
 20
44.7926914416
 30
0.0
 10
61.9610715211
 20
44.8058340296
 30
0.0
 10
61.9509822266
 20
44.8336971011
 30
0.0
 10
61.9494625835
 20
44.8673457728
 30
0.0
 10
61.9536487907
 20
44.8910196213
 30
0.0
 10
61.9569486277
 20
44.9032690668
 30
0.0
  0
SPLINE
  5
38C
100
AcDbEntity
  8
0
100
AcDbSpline
 62
7
  6
BYLAYER
 70
0
 71
3
 72
9
 73
5
 74
0
 42
0.0000001
 43
0.0000001
 44
0.0000000001
 40
0.0
 40
0.0
 40
0.0
 40
0.0
 40
0.2421188941
 40
1.0
 40
1.0
 40
1.0
 40
1.0
 10
59.2596460236
 20
46.4527027464
 30
0.0
 10
59.263455669
 20
46.4562668497
 30
0.0
 10
59.2786245863
 20
46.4715832337
 30
0.0
 10
59.2916253775
 20
46.489024892
 30
0.0
 10
59.3000478896
 20
46.5030152615
 30
0.0
  0
SPLINE
  5
38D
100
AcDbEntity
  8
0
100
AcDbSpline
 62
7
  6
BYLAYER
 70
0
 71
3
 72
9
 73
5
 74
0
 42
0.0000001
 43
0.0000001
 44
0.0000000001
 40
0.0
 40
0.0
 40
0.0
 40
0.0
 40
0.2546729253
 40
1.0
 40
1.0
 40
1.0
 40
1.0
 10
59.3000478896
 20
46.5030152615
 30
0.0
 10
59.3028691237
 20
46.5077015245
 30
0.0
 10
59.3133158722
 20
46.526474061
 30
0.0
 10
59.3214324825
 20
46.5465526804
 30
0.0
 10
59.3259293128
 20
46.5619165164
 30
0.0
  0
SPLINE
  5
38E
100
AcDbEntity
  8
0
100
AcDbSpline
 62
7
  6
BYLAYER
 70
0
 71
3
 72
11
 73
7
 74
0
 42
0.0000001
 43
0.0000001
 44
0.0000000001
 40
0.0
 40
0.0
 40
0.0
 40
0.0
 40
0.2042450657
 40
0.432707098
 40
0.6986504937
 40
1.0
 40
1.0
 40
1.0
 40
1.0
 10
61.7028169858
 20
44.7354748648
 30
0.0
 10
61.6961898819
 20
44.7392906116
 30
0.0
 10
61.684011718
 20
44.7508984031
 30
0.0
 10
61.6736580397
 20
44.7754852976
 30
0.0
 10
61.6706162129
 20
44.805429502
 30
0.0
 10
61.6730657633
 20
44.8266822494
 30
0.0
 10
61.6753180107
 20
44.8377379666
 30
0.0
  0
SPLINE
  5
38F
100
AcDbEntity
  8
0
100
AcDbSpline
 62
7
  6
BYLAYER
 70
0
 71
3
 72
9
 73
5
 74
0
 42
0.0000001
 43
0.0000001
 44
0.0000000001
 40
0.0
 40
0.0
 40
0.0
 40
0.0
 40
0.2383179551
 40
1.0
 40
1.0
 40
1.0
 40
1.0
 10
58.9713310807
 20
46.3912161691
 30
0.0
 10
58.9769263232
 20
46.3958135099
 30
0.0
 10
58.99928266
 20
46.4164438356
 30
0.0
 10
59.0173908574
 20
46.4415657925
 30
0.0
 10
59.0282533749
 20
46.4620034565
 30
0.0
  0
SPLINE
  5
390
100
AcDbEntity
  8
0
100
AcDbSpline
 62
7
  6
BYLAYER
 70
0
 71
3
 72
9
 73
5
 74
0
 42
0.0000001
 43
0.0000001
 44
0.0000000001
 40
0.0
 40
0.0
 40
0.0
 40
0.0
 40
0.2572112527
 40
1.0
 40
1.0
 40
1.0
 40
1.0
 10
59.0282533749
 20
46.4620034565
 30
0.0
 10
59.0308091759
 20
46.4668121578
 30
0.0
 10
59.0401051656
 20
46.4858384061
 30
0.0
 10
59.0470212186
 20
46.5060488516
 30
0.0
 10
59.0505118358
 20
46.5213829838
 30
0.0
  0
SPLINE
  5
391
100
AcDbEntity
  8
0
100
AcDbSpline
 62
7
  6
BYLAYER
 70
0
 71
3
 72
11
 73
7
 74
0
 42
0.0000001
 43
0.0000001
 44
0.0000000001
 40
0.0
 40
0.0
 40
0.0
 40
0.0
 40
0.2087037424
 40
0.4385724316
 40
0.7024423528
 40
1.0
 40
1.0
 40
1.0
 40
1.0
 10
61.4167092306
 20
44.6479854093
 30
0.0
 10
61.4106799031
 20
44.6514533998
 30
0.0
 10
61.3995354469
 20
44.6616287698
 30
0.0
 10
61.3891465993
 20
44.683071017
 30
0.0
 10
61.3848609387
 20
44.7093594825
 30
0.0
 10
61.3858010217
 20
44.7281754106
 30
0.0
 10
61.3871325249
 20
44.7380024412
 30
0.0
  0
SPLINE
  5
392
100
AcDbEntity
  8
0
100
AcDbSpline
 62
7
  6
BYLAYER
 70
0
 71
3
 72
9
 73
5
 74
0
 42
0.0000001
 43
0.0000001
 44
0.0000000001
 40
0.0
 40
0.0
 40
0.0
 40
0.0
 40
0.4834792673
 40
1.0
 40
1.0
 40
1.0
 40
1.0
 10
58.6779483139
 20
46.2980426997
 30
0.0
 10
58.69273637
 20
46.3089903088
 30
0.0
 10
58.7198544563
 20
46.3363747227
 30
0.0
 10
58.7400775518
 20
46.3690331488
 30
0.0
 10
58.7483565701
 20
46.3868614305
 30
0.0
  0
SPLINE
  5
393
100
AcDbEntity
  8
0
100
AcDbSpline
 62
7
  6
BYLAYER
 70
0
 71
3
 72
9
 73
5
 74
0
 42
0.0000001
 43
0.0000001
 44
0.0000000001
 40
0.0
 40
0.0
 40
0.0
 40
0.0
 40
0.2597590633
 40
1.0
 40
1.0
 40
1.0
 40
1.0
 10
58.7483565701
 20
46.3868614305
 30
0.0
 10
58.7506270579
 20
46.3917507659
 30
0.0
 10
58.7587161491
 20
46.4108646475
 30
0.0
 10
58.7643679035
 20
46.4310444395
 30
0.0
 10
58.7668021675
 20
46.446212625
 30
0.0
  0
SPLINE
  5
394
100
AcDbEntity
  8
0
100
AcDbSpline
 62
7
  6
BYLAYER
 70
0
 71
3
 72
11
 73
7
 74
0
 42
0.0000001
 43
0.0000001
 44
0.0000000001
 40
0.0
 40
0.0
 40
0.0
 40
0.0
 40
0.213517646
 40
0.4452290053
 40
0.7070055557
 40
1.0
 40
1.0
 40
1.0
 40
1.0
 10
61.1256155768
 20
44.5268065378
 30
0.0
 10
61.1201858731
 20
44.529940545
 30
0.0
 10
61.1100687825
 20
44.5387589091
 30
0.0
 10
61.0998845175
 20
44.5572225954
 30
0.0
 10
61.0946378367
 20
44.5799339151
 30
0.0
 10
61.0943073157
 20
44.5963277397
 30
0.0
 10
61.0948508672
 20
44.6049133988
 30
0.0
  0
SPLINE
  5
395
100
AcDbEntity
  8
0
100
AcDbSpline
 62
7
  6
BYLAYER
 70
0
 71
3
 72
10
 73
6
 74
0
 42
0.0000001
 43
0.0000001
 44
0.0000000001
 40
0.0
 40
0.0
 40
0.0
 40
0.0
 40
0.2427605377
 40
0.5033340942
 40
1.0
 40
1.0
 40
1.0
 40
1.0
 10
58.3865257997
 20
46.1766136718
 30
0.0
 10
58.3988117138
 20
46.1856499751
 30
0.0
 10
58.4218584051
 20
46.2078007807
 30
0.0
 10
58.4580113225
 20
46.2593156535
 30
0.0
 10
58.4744267389
 20
46.3059695986
 30
0.0
 10
58.4772208185
 20
46.3370467671
 30
0.0
  0
SPLINE
  5
396
100
AcDbEntity
  8
0
100
AcDbSpline
 62
7
  6
BYLAYER
 70
0
 71
3
 72
15
 73
11
 74
0
 42
0.0000001
 43
0.0000001
 44
0.0000000001
 40
0.0
 40
0.0
 40
0.0
 40
0.0
 40
0.1125076041
 40
0.2332521699
 40
0.3602761699
 40
0.4911669837
 40
0.6232584183
 40
0.753811908
 40
0.8801558129
 40
1.0
 40
1.0
 40
1.0
 40
1.0
 10
8.3521750143
 20
66.823885875
 30
0.0
 10
8.3521752385
 20
66.9906939052
 30
0.0
 10
8.3795825157
 20
67.3368120718
 30
0.0
 10
8.490222836
 20
67.8606030158
 30
0.0
 10
8.6685500367
 20
68.3941578297
 30
0.0
 10
8.9091099215
 20
68.9211031325
 30
0.0
 10
9.2045610764
 20
69.4253976641
 30
0.0
 10
9.5459113012
 20
69.8915723786
 30
0.0
 10
9.9226025341
 20
70.3054343057
 30
0.0
 10
10.1987666138
 20
70.5458257097
 30
0.0
 10
10.3404305323
 20
70.6530799879
 30
0.0
  0
SPLINE
  5
397
100
AcDbEntity
  8
0
100
AcDbSpline
 62
7
  6
BYLAYER
 70
0
 71
3
 72
14
 73
10
 74
0
 42
0.0000001
 43
0.0000001
 44
0.0000000001
 40
0.0
 40
0.0
 40
0.0
 40
0.0
 40
0.1080463954
 40
0.2181320332
 40
0.3321059488
 40
0.4515025155
 40
0.57746516
 40
0.7107274916
 40
1.0
 40
1.0
 40
1.0
 40
1.0
 10
9.1806320607
 20
64.4404271374
 30
0.0
 10
9.1150514432
 20
64.4782899048
 30
0.0
 10
8.9889356017
 20
64.5662386671
 30
0.0
 10
8.8223733482
 20
64.7302453601
 30
0.0
 10
8.6790550606
 20
64.9248224687
 30
0.0
 10
8.5604272376
 20
65.1478831555
 30
0.0
 10
8.4673555631
 20
65.3971408382
 30
0.0
 10
8.3758390141
 20
65.7711867563
 30
0.0
 10
8.3521728879
 20
66.0687840773
 30
0.0
 10
8.3521714197
 20
66.2715248597
 30
0.0
  0
SPLINE
  5
398
100
AcDbEntity
  8
0
100
AcDbSpline
 62
7
  6
BYLAYER
 70
0
 71
3
 72
19
 73
15
 74
0
 42
0.0000001
 43
0.0000001
 44
0.0000000001
 40
0.0
 40
0.0
 40
0.0
 40
0.0
 40
0.0428394104
 40
0.0874448899
 40
0.1352571039
 40
0.1871950253
 40
0.2436735499
 40
0.3046656819
 40
0.4382689093
 40
0.5825434307
 40
0.7296392143
 40
0.871166535
 40
0.9376088396
 40
1.0
 40
1.0
 40
1.0
 40
1.0
 10
19.6475205215
 20
46.645169419
 30
0.0
 10
19.6980575205
 20
46.6743518867
 30
0.0
 10
19.8094748516
 20
46.7206157729
 30
0.0
 10
19.9933626187
 20
46.7476101091
 30
0.0
 10
20.190839567
 20
46.7330452773
 30
0.0
 10
20.3975090384
 20
46.6781503682
 30
0.0
 10
20.6093361295
 20
46.584557046
 30
0.0
 10
20.9017341321
 20
46.4055674259
 30
0.0
 10
21.2500730322
 20
46.0970885452
 30
0.0
 10
21.6080979902
 20
45.6387170739
 30
0.0
 10
21.8900154852
 20
45.1177627402
 30
0.0
 10
22.0460114982
 20
44.6567097789
 30
0.0
 10
22.1105069232
 20
44.2935420374
 30
0.0
 10
22.1220873721
 20
44.1179189294
 30
0.0
 10
22.1220873721
 20
44.0329271944
 30
0.0
  0
SPLINE
  5
399
100
AcDbEntity
  8
0
100
AcDbSpline
 62
7
  6
BYLAYER
 70
0
 71
3
 72
17
 73
13
 74
0
 42
0.0000001
 43
0.0000001
 44
0.0000000001
 40
0.0
 40
0.0
 40
0.0
 40
0.0
 40
0.0428570455
 40
0.087485165
 40
0.1353123244
 40
0.1872781392
 40
0.3045378316
 40
0.4381995438
 40
0.5825378192
 40
0.7296849502
 40
0.8713141218
 40
1.0
 40
1.0
 40
1.0
 40
1.0
 10
11.5738994657
 20
58.3898488598
 30
0.0
 10
11.5925275949
 20
58.4006042065
 30
0.0
 10
11.6335773556
 20
58.4177113467
 30
0.0
 10
11.7013680767
 20
58.4275990003
 30
0.0
 10
11.7741626593
 20
58.4222867805
 30
0.0
 10
11.8799238844
 20
58.3941063013
 30
0.0
 10
12.0151421665
 20
58.320206692
 30
0.0
 10
12.1645320586
 20
58.1879065
 30
0.0
 10
12.2965735754
 20
58.0188916684
 30
0.0
 10
12.4005314283
 20
57.8268020364
 30
0.0
 10
12.4679610275
 20
57.6273765505
 30
0.0
 10
12.4860454485
 20
57.4915521612
 30
0.0
 10
12.4860454485
 20
57.4269642524
 30
0.0
  0
SPLINE
  5
39A
100
AcDbEntity
  8
0
100
AcDbSpline
 62
7
  6
BYLAYER
 70
0
 71
3
 72
19
 73
15
 74
0
 42
0.0000001
 43
0.0000001
 44
0.0000000001
 40
0.0
 40
0.0
 40
0.0
 40
0.0
 40
0.0428394104
 40
0.0874448899
 40
0.1352571039
 40
0.1871950253
 40
0.2436735499
 40
0.3046656819
 40
0.4382689093
 40
0.5825434307
 40
0.7296392143
 40
0.871166535
 40
0.9376088396
 40
1.0
 40
1.0
 40
1.0
 40
1.0
 10
37.6081075402
 20
36.2758542542
 30
0.0
 10
37.6586445392
 20
36.3050367218
 30
0.0
 10
37.7700618703
 20
36.3513006081
 30
0.0
 10
37.9539496375
 20
36.3782949443
 30
0.0
 10
38.1514265857
 20
36.3637301125
 30
0.0
 10
38.3580960572
 20
36.3088352034
 30
0.0
 10
38.5699231482
 20
36.2152418811
 30
0.0
 10
38.8623211509
 20
36.0362522611
 30
0.0
 10
39.2106600509
 20
35.7277733804
 30
0.0
 10
39.568685009
 20
35.2694019091
 30
0.0
 10
39.850602504
 20
34.7484475753
 30
0.0
 10
40.006598517
 20
34.2873946141
 30
0.0
 10
40.0710939419
 20
33.9242268726
 30
0.0
 10
40.0826743908
 20
33.7486037646
 30
0.0
 10
40.0826743908
 20
33.6636120296
 30
0.0
  0
SPLINE
  5
39B
100
AcDbEntity
  8
0
100
AcDbSpline
 62
7
  6
BYLAYER
 70
0
 71
3
 72
10
 73
6
 74
0
 42
0.0000001
 43
0.0000001
 44
0.0000000001
 40
0.0
 40
0.0
 40
0.0
 40
0.0
 40
0.4642166529
 40
0.7318897833
 40
1.0
 40
1.0
 40
1.0
 40
1.0
 10
61.3875196436
 20
37.4739026785
 30
0.0
 10
61.3832630652
 20
37.5004029009
 30
0.0
 10
61.3904366217
 20
37.5443387217
 30
0.0
 10
61.4146172412
 20
37.596801562
 30
0.0
 10
61.4323480796
 20
37.6225159201
 30
0.0
 10
61.4423384853
 20
37.6343686877
 30
0.0
  0
SPLINE
  5
39C
100
AcDbEntity
  8
0
100
AcDbSpline
 62
7
  6
BYLAYER
 70
0
 71
3
 72
10
 73
6
 74
0
 42
0.0000001
 43
0.0000001
 44
0.0000000001
 40
0.0
 40
0.0
 40
0.0
 40
0.0
 40
0.4762635064
 40
0.7421108874
 40
1.0
 40
1.0
 40
1.0
 40
1.0
 10
61.0952420265
 20
37.2694601239
 30
0.0
 10
61.09322828
 20
37.2989429634
 30
0.0
 10
61.1045077869
 20
37.3459256647
 30
0.0
 10
61.1347319235
 20
37.400112053
 30
0.0
 10
61.1556585249
 20
37.4253838746
 30
0.0
 10
61.167195122
 20
37.4364726447
 30
0.0
  0
SPLINE
  5
39D
100
AcDbEntity
  8
0
100
AcDbSpline
 62
7
  6
BYLAYER
 70
0
 71
3
 72
9
 73
5
 74
0
 42
0.0000001
 43
0.0000001
 44
0.0000000001
 40
0.0
 40
0.0
 40
0.0
 40
0.0
 40
0.267597844
 40
1.0
 40
1.0
 40
1.0
 40
1.0
 10
61.167195122
 20
37.4364726447
 30
0.0
 10
61.1707494653
 20
37.4398890157
 30
0.0
 10
61.1844774663
 20
37.4521597629
 30
0.0
 10
61.2000737293
 20
37.4625250225
 30
0.0
 10
61.2123863131
 20
37.4680446428
 30
0.0
  0
SPLINE
  5
39E
100
AcDbEntity
  8
0
100
AcDbSpline
 62
7
  6
BYLAYER
 70
0
 71
3
 72
9
 73
5
 74
0
 42
0.0000001
 43
0.0000001
 44
0.0000000001
 40
0.0
 40
0.0
 40
0.0
 40
0.0
 40
0.5412117977
 40
1.0
 40
1.0
 40
1.0
 40
1.0
 10
61.2123863131
 20
37.4680446428
 30
0.0
 10
61.2230976519
 20
37.4728464393
 30
0.0
 10
61.2445117198
 20
37.4791449184
 30
0.0
 10
61.2669894635
 20
37.4744062785
 30
0.0
 10
61.2756087787
 20
37.4694339603
 30
0.0
  0
SPLINE
  5
39F
100
AcDbEntity
  8
0
100
AcDbSpline
 62
7
  6
BYLAYER
 70
0
 71
3
 72
10
 73
6
 74
0
 42
0.0000001
 43
0.0000001
 44
0.0000000001
 40
0.0
 40
0.0
 40
0.0
 40
0.0
 40
0.4864610932
 40
0.7497299533
 40
1.0
 40
1.0
 40
1.0
 40
1.0
 10
60.8013577511
 20
37.0953758355
 30
0.0
 10
60.8017936493
 20
37.1258235617
 30
0.0
 10
60.8157150666
 20
37.1727833595
 30
0.0
 10
60.8490043416
 20
37.2258631141
 30
0.0
 10
60.8710697054
 20
37.2496841984
 30
0.0
 10
60.8830304109
 20
37.2598018734
 30
0.0
  0
SPLINE
  5
3A0
100
AcDbEntity
  8
0
100
AcDbSpline
 62
7
  6
BYLAYER
 70
0
 71
3
 72
11
 73
7
 74
0
 42
0.0000001
 43
0.0000001
 44
0.0000000001
 40
0.0
 40
0.0
 40
0.0
 40
0.0
 40
0.3007378812
 40
0.5651663432
 40
0.7941173484
 40
1.0
 40
1.0
 40
1.0
 40
1.0
 10
60.8830304109
 20
37.2598018734
 30
0.0
 10
60.8912919984
 20
37.2667904293
 30
0.0
 10
60.9079895748
 20
37.2786547551
 30
0.0
 10
60.9345804733
 20
37.2898864741
 30
0.0
 10
60.9600686686
 20
37.2926177584
 30
0.0
 10
60.9755988231
 20
37.2879595423
 30
0.0
 10
60.9820134691
 20
37.2842541212
 30
0.0
  0
SPLINE
  5
3A1
100
AcDbEntity
  8
0
100
AcDbSpline
 62
7
  6
BYLAYER
 70
0
 71
3
 72
10
 73
6
 74
0
 42
0.0000001
 43
0.0000001
 44
0.0000000001
 40
0.0
 40
0.0
 40
0.0
 40
0.0
 40
0.4966659067
 40
0.7572394603
 40
1.0
 40
1.0
 40
1.0
 40
1.0
 10
60.5083753306
 20
36.9531458605
 30
0.0
 10
60.5111694102
 20
36.9842230291
 30
0.0
 10
60.5275848268
 20
37.0308769739
 30
0.0
 10
60.5637377438
 20
37.0823918469
 30
0.0
 10
60.5867844354
 20
37.1045426523
 30
0.0
 10
60.5990703494
 20
37.1135789558
 30
0.0
  0
SPLINE
  5
3A2
100
AcDbEntity
  8
0
100
AcDbSpline
 62
7
  6
BYLAYER
 70
0
 71
3
 72
11
 73
7
 74
0
 42
0.0000001
 43
0.0000001
 44
0.0000000001
 40
0.0
 40
0.0
 40
0.0
 40
0.0
 40
0.2967954839
 40
0.5591267309
 40
0.7894876495
 40
1.0
 40
1.0
 40
1.0
 40
1.0
 10
60.5990703494
 20
37.1135789558
 30
0.0
 10
60.60670152
 20
37.1191916903
 30
0.0
 10
60.6220093628
 20
37.1286021601
 30
0.0
 10
60.6460197596
 20
37.1370399259
 30
0.0
 10
60.6688082802
 20
37.1382473781
 30
0.0
 10
60.6826002206
 20
37.1337819168
 30
0.0
 10
60.6884194759
 20
37.1304230772
 30
0.0
  0
SPLINE
  5
3A3
100
AcDbEntity
  8
0
100
AcDbSpline
 62
7
  6
BYLAYER
 70
0
 71
3
 72
9
 73
5
 74
0
 42
0.0000001
 43
0.0000001
 44
0.0000000001
 40
0.0
 40
0.0
 40
0.0
 40
0.0
 40
0.238676118
 40
1.0
 40
1.0
 40
1.0
 40
1.0
 10
60.2187939816
 20
36.8439800025
 30
0.0
 10
60.2195788708
 20
36.8488707391
 30
0.0
 10
60.223650203
 20
36.8692304506
 30
0.0
 10
60.2305849677
 20
36.8890009611
 30
0.0
 10
60.237239579
 20
36.903331197
 30
0.0
  0
SPLINE
  5
3A4
100
AcDbEntity
  8
0
100
AcDbSpline
 62
7
  6
BYLAYER
 70
0
 71
3
 72
13
 73
9
 74
0
 42
0.0000001
 43
0.0000001
 44
0.0000000001
 40
0.0
 40
0.0
 40
0.0
 40
0.0
 40
0.3032788429
 40
0.5829368223
 40
0.7054143673
 40
0.8142406688
 40
0.9108098163
 40
1.0
 40
1.0
 40
1.0
 40
1.0
 10
60.237239579
 20
36.903331197
 30
0.0
 10
60.2461939973
 20
36.922613905
 30
0.0
 10
60.268274899
 20
36.957518538
 30
0.0
 10
60.3045290082
 20
36.9922555874
 30
0.0
 10
60.3360732823
 20
37.0096485623
 30
0.0
 10
60.3582972184
 20
37.0163442638
 30
0.0
 10
60.379263868
 20
37.0166929017
 30
0.0
 10
60.3919060178
 20
37.0123615991
 30
0.0
 10
60.3973258191
 20
37.0092442002
 30
0.0
  0
SPLINE
  5
3A5
100
AcDbEntity
  8
0
100
AcDbSpline
 62
7
  6
BYLAYER
 70
0
 71
3
 72
9
 73
5
 74
0
 42
0.0000001
 43
0.0000001
 44
0.0000000001
 40
0.0
 40
0.0
 40
0.0
 40
0.0
 40
0.2410265301
 40
1.0
 40
1.0
 40
1.0
 40
1.0
 10
59.9350843133
 20
36.7688096438
 30
0.0
 10
59.9362169665
 20
36.7737853411
 30
0.0
 10
59.9416523678
 20
36.7942551286
 30
0.0
 10
59.9498012544
 20
36.8139999144
 30
0.0
 10
59.9573427742
 20
36.8281891711
 30
0.0
  0
SPLINE
  5
3A6
100
AcDbEntity
  8
0
100
AcDbSpline
 62
7
  6
BYLAYER
 70
0
 71
3
 72
13
 73
9
 74
0
 42
0.0000001
 43
0.0000001
 44
0.0000000001
 40
0.0
 40
0.0
 40
0.0
 40
0.0
 40
0.3054364978
 40
0.5831093493
 40
0.7045056311
 40
0.812847639
 40
0.9098068103
 40
1.0
 40
1.0
 40
1.0
 40
1.0
 10
59.9573427742
 20
36.8281891711
 30
0.0
 10
59.966735709
 20
36.8458618373
 30
0.0
 10
59.988787185
 20
36.8775194516
 30
0.0
 10
60.0238864922
 20
36.9085535344
 30
0.0
 10
60.0537371155
 20
36.9236157321
 30
0.0
 10
60.0746342263
 20
36.929108163
 30
0.0
 10
60.0942757989
 20
36.9289327302
 30
0.0
 10
60.1060964445
 20
36.9247036652
 30
0.0
 10
60.1112180639
 20
36.9217547447
 30
0.0
  0
SPLINE
  5
3A7
100
AcDbEntity
  8
0
100
AcDbSpline
 62
7
  6
BYLAYER
 70
0
 71
3
 72
9
 73
5
 74
0
 42
0.0000001
 43
0.0000001
 44
0.0000000001
 40
0.0
 40
0.0
 40
0.0
 40
0.0
 40
0.2434120245
 40
1.0
 40
1.0
 40
1.0
 40
1.0
 10
59.6596668364
 20
36.7282761112
 30
0.0
 10
59.6611353852
 20
36.7332935439
 30
0.0
 10
59.6678621382
 20
36.7536962549
 30
0.0
 10
59.6771671301
 20
36.7732557361
 30
0.0
 10
59.6855482595
 20
36.7871773661
 30
0.0
  0
SPLINE
  5
3A8
100
AcDbEntity
  8
0
100
AcDbSpline
 62
7
  6
BYLAYER
 70
0
 71
3
 72
13
 73
9
 74
0
 42
0.0000001
 43
0.0000001
 44
0.0000000001
 40
0.0
 40
0.0
 40
0.0
 40
0.0
 40
0.306858291
 40
0.5824915898
 40
0.7029878882
 40
0.8110448877
 40
0.9086220388
 40
1.0
 40
1.0
 40
1.0
 40
1.0
 10
59.6855482595
 20
36.7871773661
 30
0.0
 10
59.6951916951
 20
36.8031957732
 30
0.0
 10
59.716976039
 20
36.8316210946
 30
0.0
 10
59.7507165169
 20
36.8590034076
 30
0.0
 10
59.7788064822
 20
36.8718596377
 30
0.0
 10
59.7983709122
 20
36.8762357812
 30
0.0
 10
59.8166971572
 20
36.8755924164
 30
0.0
 10
59.8277228433
 20
36.8714988657
 30
0.0
 10
59.8325436686
 20
36.8687132704
 30
0.0
  0
SPLINE
  5
3A9
100
AcDbEntity
  8
0
100
AcDbSpline
 62
7
  6
BYLAYER
 70
0
 71
3
 72
13
 73
9
 74
0
 42
0.0000001
 43
0.0000001
 44
0.0000000001
 40
0.0
 40
0.0
 40
0.0
 40
0.0
 40
0.2976698161
 40
0.580737805
 40
0.7055366638
 40
0.8156328152
 40
0.9121062034
 40
1.0
 40
1.0
 40
1.0
 40
1.0
 10
59.3948913157
 20
36.7227252226
 30
0.0
 10
59.4026850982
 20
36.7445679584
 30
0.0
 10
59.4236179873
 20
36.7853353159
 30
0.0
 10
59.4615948801
 20
36.8263612571
 30
0.0
 10
59.4958556217
 20
36.8481010436
 30
0.0
 10
59.5203604723
 20
36.8570390313
 30
0.0
 10
59.5436482891
 20
36.8585400626
 30
0.0
 10
59.557756712
 20
36.8540074119
 30
0.0
 10
59.5636819473
 20
36.8505745666
 30
0.0
  0
SPLINE
  5
3AA
100
AcDbEntity
  8
0
100
AcDbSpline
 62
7
  6
BYLAYER
 70
0
 71
3
 72
13
 73
9
 74
0
 42
0.0000001
 43
0.0000001
 44
0.0000000001
 40
0.0
 40
0.0
 40
0.0
 40
0.0
 40
0.3011593878
 40
0.5823012527
 40
0.7057139562
 40
0.814990793
 40
0.9114220373
 40
1.0
 40
1.0
 40
1.0
 40
1.0
 10
59.1430167228
 20
36.7522043362
 30
0.0
 10
59.1516003824
 20
36.7725874368
 30
0.0
 10
59.1730094496
 20
36.8101583903
 30
0.0
 10
59.2101565849
 20
36.84753892
 30
0.0
 10
59.2428951347
 20
36.8667055024
 30
0.0
 10
59.2660840185
 20
36.8743475566
 30
0.0
 10
59.2880292078
 20
36.8751491971
 30
0.0
 10
59.3012917565
 20
36.8707426894
 30
0.0
 10
59.306922602
 20
36.8674855141
 30
0.0
  0
SPLINE
  5
3AB
100
AcDbEntity
  8
0
100
AcDbSpline
 62
7
  6
BYLAYER
 70
0
 71
3
 72
13
 73
9
 74
0
 42
0.0000001
 43
0.0000001
 44
0.0000000001
 40
0.0
 40
0.0
 40
0.0
 40
0.0
 40
0.3039392575
 40
0.5831134824
 40
0.7052992835
 40
0.8139489646
 40
0.9105658655
 40
1.0
 40
1.0
 40
1.0
 40
1.0
 10
58.9061919627
 20
36.8164619467
 30
0.0
 10
58.9153570254
 20
36.8352922963
 30
0.0
 10
58.9369855706
 20
36.8696233499
 30
0.0
 10
58.97308042
 20
36.9033519809
 30
0.0
 10
59.0042057724
 20
36.9200649304
 30
0.0
 10
59.0260712082
 20
36.9264560574
 30
0.0
 10
59.0466853993
 20
36.9266718381
 30
0.0
 10
59.0591084979
 20
36.9223647214
 30
0.0
 10
59.0644480443
 20
36.9192885406
 30
0.0
  0
SPLINE
  5
3AC
100
AcDbEntity
  8
0
100
AcDbSpline
 62
7
  6
BYLAYER
 70
0
 71
3
 72
9
 73
5
 74
0
 42
0.0000001
 43
0.0000001
 44
0.0000000001
 40
0.0
 40
0.0
 40
0.0
 40
0.0
 40
0.253152662
 40
1.0
 40
1.0
 40
1.0
 40
1.0
 10
58.6864375408
 20
36.9149498307
 30
0.0
 10
58.689077569
 20
36.919708112
 30
0.0
 10
58.7000665639
 20
36.9381805314
 30
0.0
 10
58.7132188181
 20
36.955423784
 30
0.0
 10
58.7243233285
 20
36.9670173992
 30
0.0
  0
SPLINE
  5
3AD
100
AcDbEntity
  8
0
100
AcDbSpline
 62
7
  6
BYLAYER
 70
0
 71
3
 72
11
 73
7
 74
0
 42
0.0000001
 43
0.0000001
 44
0.0000000001
 40
0.0
 40
0.0
 40
0.0
 40
0.0
 40
0.305534001
 40
0.5733392997
 40
0.8007440416
 40
1.0
 40
1.0
 40
1.0
 40
1.0
 10
58.7243233285
 20
36.9670173992
 30
0.0
 10
58.7333682357
 20
36.9764606948
 30
0.0
 10
58.7520665318
 20
36.9926738331
 30
0.0
 10
58.7826389353
 20
37.0088962624
 30
0.0
 10
58.8124596809
 20
37.0146698217
 30
0.0
 10
58.8309430421
 20
37.0098077058
 30
0.0
 10
58.8383307796
 20
37.0055482315
 30
0.0
  0
SPLINE
  5
3AE
100
AcDbEntity
  8
0
100
AcDbSpline
 62
7
  6
BYLAYER
 70
0
 71
3
 72
13
 73
9
 74
0
 42
0.0000001
 43
0.0000001
 44
0.0000000001
 40
0.0
 40
0.0
 40
0.0
 40
0.0
 40
0.3072555474
 40
0.5824389985
 40
0.7026715557
 40
0.8106459178
 40
0.9083418643
 40
1.0
 40
1.0
 40
1.0
 40
1.0
 10
58.4856283244
 20
37.0468277243
 30
0.0
 10
58.4953782473
 20
37.0623816886
 30
0.0
 10
58.5167202452
 20
37.0902198422
 30
0.0
 10
58.5500888295
 20
37.1167741717
 30
0.0
 10
58.577760794
 20
37.1289670017
 30
0.0
 10
58.596965954
 20
37.1330657271
 30
0.0
 10
58.6149443229
 20
37.1323227051
 30
0.0
 10
58.6257646818
 20
37.1282799274
 30
0.0
 10
58.6305057258
 20
37.1255392975
 30
0.0
  0
SPLINE
  5
3AF
100
AcDbEntity
  8
0
100
AcDbSpline
 62
7
  6
BYLAYER
 70
0
 71
3
 72
11
 73
7
 74
0
 42
0.0000001
 43
0.0000001
 44
0.0000000001
 40
0.0
 40
0.0
 40
0.0
 40
0.0
 40
0.3087019647
 40
0.5827555173
 40
0.8097657392
 40
1.0
 40
1.0
 40
1.0
 40
1.0
 10
58.3054775469
 20
37.2109704919
 30
0.0
 10
58.3152563797
 20
37.2248515187
 30
0.0
 10
58.3361453001
 20
37.2495358788
 30
0.0
 10
58.3726011771
 20
37.2760058689
 30
0.0
 10
58.409672189
 20
37.288019544
 30
0.0
 10
58.4336901083
 20
37.2834785099
 30
0.0
 10
58.4427467399
 20
37.2782380142
 30
0.0
  0
SPLINE
  5
3B0
100
AcDbEntity
  8
0
100
AcDbSpline
 62
7
  6
BYLAYER
 70
0
 71
3
 72
11
 73
7
 74
0
 42
0.0000001
 43
0.0000001
 44
0.0000000001
 40
0.0
 40
0.0
 40
0.0
 40
0.0
 40
0.3082584671
 40
0.5802525251
 40
0.8069009568
 40
1.0
 40
1.0
 40
1.0
 40
1.0
 10
58.1475221912
 20
37.4059777252
 30
0.0
 10
58.1571724964
 20
37.418194627
 30
0.0
 10
58.1773779816
 20
37.4397447478
 30
0.0
 10
58.2117739604
 20
37.4624669338
 30
0.0
 10
58.2462834227
 20
37.4719200663
 30
0.0
 10
58.2682002456
 20
37.4672015083
 30
0.0
 10
58.2766498525
 20
37.4623317294
 30
0.0
  0
SPLINE
  5
3B1
100
AcDbEntity
  8
0
100
AcDbSpline
 62
7
  6
BYLAYER
 70
0
 71
3
 72
11
 73
7
 74
0
 42
0.0000001
 43
0.0000001
 44
0.0000000001
 40
0.0
 40
0.0
 40
0.0
 40
0.0
 40
0.3069732782
 40
0.5769437689
 40
0.8036446134
 40
1.0
 40
1.0
 40
1.0
 40
1.0
 10
58.0131098767
 20
37.6301856912
 30
0.0
 10
58.0224890979
 20
37.6407701732
 30
0.0
 10
58.0418232082
 20
37.6592938579
 30
0.0
 10
58.0740054538
 20
37.6784410469
 30
0.0
 10
58.1058925119
 20
37.6855848569
 30
0.0
 10
58.1257817228
 20
37.6807447903
 30
0.0
 10
58.133625857
 20
37.676239199
 30
0.0
  0
SPLINE
  5
3B2
100
AcDbEntity
  8
0
100
AcDbSpline
 62
7
  6
BYLAYER
 70
0
 71
3
 72
11
 73
7
 74
0
 42
0.0000001
 43
0.0000001
 44
0.0000000001
 40
0.0
 40
0.0
 40
0.0
 40
0.0
 40
0.3048402005
 40
0.5728307215
 40
0.7999940408
 40
1.0
 40
1.0
 40
1.0
 40
1.0
 10
57.9033873619
 20
37.8816815268
 30
0.0
 10
57.9123686187
 20
37.8906869491
 30
0.0
 10
57.9306614176
 20
37.9063181349
 30
0.0
 10
57.9605000236
 20
37.9220993613
 30
0.0
 10
57.9897147244
 20
37.9271720407
 30
0.0
 10
58.0076703819
 20
37.9223119146
 30
0.0
 10
58.0149023633
 20
37.9181488277
 30
0.0
  0
SPLINE
  5
3B3
100
AcDbEntity
  8
0
100
AcDbSpline
 62
7
  6
BYLAYER
 70
0
 71
3
 72
11
 73
7
 74
0
 42
0.0000001
 43
0.0000001
 44
0.0000000001
 40
0.0
 40
0.0
 40
0.0
 40
0.0
 40
0.3018573945
 40
0.5679055088
 40
0.7959459024
 40
1.0
 40
1.0
 40
1.0
 40
1.0
 10
57.8192907606
 20
38.158319558
 30
0.0
 10
57.827763169
 20
38.1658191923
 30
0.0
 10
57.8448637452
 20
38.1787189306
 30
0.0
 10
57.8722502323
 20
38.1913673976
 30
0.0
 10
57.8987653371
 20
38.1946209642
 30
0.0
 10
57.9148785217
 20
38.189838659
 30
0.0
 10
57.9214994865
 20
38.1860089235
 30
0.0
  0
SPLINE
  5
3B4
100
AcDbEntity
  8
0
100
AcDbSpline
 62
7
  6
BYLAYER
 70
0
 71
3
 72
11
 73
7
 74
0
 42
0.0000001
 43
0.0000001
 44
0.0000000001
 40
0.0
 40
0.0
 40
0.0
 40
0.0
 40
0.2980400539
 40
0.5621652522
 40
0.7915278573
 40
1.0
 40
1.0
 40
1.0
 40
1.0
 10
57.7615375554
 20
38.4577396067
 30
0.0
 10
57.7694064673
 20
38.4638249636
 30
0.0
 10
57.7851830523
 20
38.4741813099
 30
0.0
 10
57.8100317544
 20
38.4839478281
 30
0.0
 10
57.8338442566
 20
38.4856582182
 30
0.0
 10
57.84819997
 20
38.4810322604
 30
0.0
 10
57.8542164238
 20
38.4775371201
 30
0.0
  0
SPLINE
  5
3B5
100
AcDbEntity
  8
0
100
AcDbSpline
 62
7
  6
BYLAYER
 70
0
 71
3
 72
11
 73
7
 74
0
 42
0.0000001
 43
0.0000001
 44
0.0000000001
 40
0.0
 40
0.0
 40
0.0
 40
0.0
 40
0.2934405736
 40
0.5556371635
 40
0.7868004876
 40
1.0
 40
1.0
 40
1.0
 40
1.0
 10
57.7306204762
 20
38.7773871267
 30
0.0
 10
57.7378076036
 20
38.7821663045
 30
0.0
 10
57.7521478097
 20
38.790193178
 30
0.0
 10
57.7743958771
 20
38.7973440943
 30
0.0
 10
57.7955274324
 20
38.7978051838
 30
0.0
 10
57.808202512
 20
38.7933929227
 30
0.0
 10
57.8136234215
 20
38.790240454
 30
0.0
  0
SPLINE
  5
3B6
100
AcDbEntity
  8
0
100
AcDbSpline
 62
7
  6
BYLAYER
 70
0
 71
3
 72
11
 73
7
 74
0
 42
0.0000001
 43
0.0000001
 44
0.0000000001
 40
0.0
 40
0.0
 40
0.0
 40
0.0
 40
0.2881508776
 40
0.548392707
 40
0.7818410833
 40
1.0
 40
1.0
 40
1.0
 40
1.0
 10
57.7268032966
 20
39.114534998
 30
0.0
 10
57.7332467767
 20
39.1181310973
 30
0.0
 10
57.7460587128
 20
39.1240650264
 30
0.0
 10
57.7656673338
 20
39.1288913112
 30
0.0
 10
57.7841593191
 20
39.128387246
 30
0.0
 10
57.7952346301
 20
39.1242537667
 30
0.0
 10
57.800063326
 20
39.1214440272
 30
0.0
  0
SPLINE
  5
3B7
100
AcDbEntity
  8
0
100
AcDbSpline
 62
7
  6
BYLAYER
 70
0
 71
3
 72
17
 73
13
 74
0
 42
0.0000001
 43
0.0000001
 44
0.0000000001
 40
0.0
 40
0.0
 40
0.0
 40
0.0
 40
0.1433767533
 40
0.2915169259
 40
0.4381773761
 40
0.5773993453
 40
0.7042060617
 40
0.7620382827
 40
0.8159203642
 40
0.9125332725
 40
0.9569317802
 40
1.0
 40
1.0
 40
1.0
 40
1.0
 10
62.0283508637
 20
39.4347993306
 30
0.0
 10
62.0589399561
 20
39.5523645333
 30
0.0
 10
62.1414633185
 20
39.7864253327
 30
0.0
 10
62.3152243345
 20
40.1158439282
 30
0.0
 10
62.5323137456
 20
40.4143572476
 30
0.0
 10
62.7794186032
 20
40.6637405807
 30
0.0
 10
63.0052093385
 20
40.8231546916
 30
0.0
 10
63.1882037993
 20
40.9102022972
 30
0.0
 10
63.3561584447
 20
40.9651553093
 30
0.0
 10
63.5243509883
 20
40.9822168023
 30
0.0
 10
63.6782087373
 20
40.9512069625
 30
0.0
 10
63.7467299052
 20
40.9211795122
 30
0.0
 10
63.7783316014
 20
40.9029340256
 30
0.0
  0
SPLINE
  5
3B8
100
AcDbEntity
  8
0
100
AcDbSpline
 62
7
  6
BYLAYER
 70
0
 71
3
 72
11
 73
7
 74
0
 42
0.0000001
 43
0.0000001
 44
0.0000000001
 40
0.0
 40
0.0
 40
0.0
 40
0.0
 40
0.2770047589
 40
0.5324792699
 40
0.7708875734
 40
1.0
 40
1.0
 40
1.0
 40
1.0
 10
64.7603902966
 20
41.0121336172
 30
0.0
 10
64.7439129612
 20
41.095831419
 30
0.0
 10
64.7000294296
 20
41.2547718338
 30
0.0
 10
64.5951641776
 20
41.4695094885
 30
0.0
 10
64.4552981528
 20
41.6452256071
 30
0.0
 10
64.3394118702
 20
41.733661548
 30
0.0
 10
64.2783112273
 20
41.7689436154
 30
0.0
  0
SPLINE
  5
3B9
100
AcDbEntity
  8
0
100
AcDbSpline
 62
7
  6
BYLAYER
 70
0
 71
3
 72
15
 73
11
 74
0
 42
0.0000001
 43
0.0000001
 44
0.0000000001
 40
0.0
 40
0.0
 40
0.0
 40
0.0
 40
0.1120962207
 40
0.2322595862
 40
0.3585672018
 40
0.4888737838
 40
0.6206869172
 40
0.7514210133
 40
0.8786629155
 40
1.0
 40
1.0
 40
1.0
 40
1.0
 10
63.0283467003
 20
37.5626364984
 30
0.0
 10
63.1332721189
 20
37.6232148554
 30
0.0
 10
63.341219183
 20
37.7655048963
 30
0.0
 10
63.6318102721
 20
38.023164534
 30
0.0
 10
63.9050459325
 20
38.326196276
 30
0.0
 10
64.1531252039
 20
38.6657517362
 30
0.0
 10
64.3689162601
 20
39.0322277269
 30
0.0
 10
64.5463515979
 20
39.4151233427
 30
0.0
 10
64.6801765065
 20
39.8033832657
 30
0.0
 10
64.7396196339
 20
40.0661413833
 30
0.0
 10
64.7603902966
 20
40.1956312001
 30
0.0
  0
SPLINE
  5
3BA
100
AcDbEntity
  8
0
100
AcDbSpline
 62
7
  6
BYLAYER
 70
0
 71
3
 72
12
 73
8
 74
0
 42
0.0000001
 43
0.0000001
 44
0.0000000001
 40
0.0
 40
0.0
 40
0.0
 40
0.0
 40
0.2894832083
 40
0.5486755374
 40
0.7816290778
 40
0.8918324007
 40
1.0
 40
1.0
 40
1.0
 40
1.0
 10
37.1835245177
 20
35.3373991232
 30
0.0
 10
37.1835245177
 20
35.4412684533
 30
0.0
 10
37.199322443
 20
35.638833934
 30
0.0
 10
37.2791205143
 20
35.9101360357
 30
0.0
 10
37.3939650647
 20
36.0973276604
 30
0.0
 10
37.5099001977
 20
36.2113075971
 30
0.0
 10
37.574497156
 20
36.2564460192
 30
0.0
 10
37.6081075402
 20
36.2758542542
 30
0.0
  0
SPLINE
  5
3BB
100
AcDbEntity
  8
0
100
AcDbSpline
 62
7
  6
BYLAYER
 70
0
 71
3
 72
9
 73
5
 74
0
 42
0.0000001
 43
0.0000001
 44
0.0000000001
 40
0.0
 40
0.0
 40
0.0
 40
0.0
 40
0.2441873903
 40
1.0
 40
1.0
 40
1.0
 40
1.0
 10
58.4425072178
 20
41.7062903034
 30
0.0
 10
58.4444933752
 20
41.7051734787
 30
0.0
 10
58.452331483
 20
41.7000815198
 30
0.0
 10
58.4587191658
 20
41.6928458508
 30
0.0
 10
58.4623588957
 20
41.6868047641
 30
0.0
  0
SPLINE
  5
3BC
100
AcDbEntity
  8
0
100
AcDbSpline
 62
7
  6
BYLAYER
 70
0
 71
3
 72
14
 73
10
 74
0
 42
0.0000001
 43
0.0000001
 44
0.0000000001
 40
0.0
 40
0.0
 40
0.0
 40
0.0
 40
0.1030492978
 40
0.2269193353
 40
0.3675108379
 40
0.5163495523
 40
0.6625475673
 40
0.7958889066
 40
1.0
 40
1.0
 40
1.0
 40
1.0
 10
58.4623588957
 20
41.6868047641
 30
0.0
 10
58.4682782776
 20
41.6769799968
 30
0.0
 10
58.4751985602
 20
41.651773461
 30
0.0
 10
58.4730760022
 20
41.610568104
 30
0.0
 10
58.4602667289
 20
41.5659942676
 30
0.0
 10
58.438009003
 20
41.5226582804
 30
0.0
 10
58.4081938495
 20
41.4847667673
 30
0.0
 10
58.3677567118
 20
41.450093416
 30
0.0
 10
58.3272158047
 20
41.4359618758
 30
0.0
 10
58.30525362
 20
41.4417775428
 30
0.0
  0
SPLINE
  5
3BD
100
AcDbEntity
  8
0
100
AcDbSpline
 62
7
  6
BYLAYER
 70
0
 71
3
 72
11
 73
7
 74
0
 42
0.0000001
 43
0.0000001
 44
0.0000000001
 40
0.0
 40
0.0
 40
0.0
 40
0.0
 40
0.2895453772
 40
0.5491366158
 40
0.7822776227
 40
1.0
 40
1.0
 40
1.0
 40
1.0
 10
11.4173779484
 20
58.0439457632
 30
0.0
 10
11.4173779484
 20
58.0822121981
 30
0.0
 10
11.4232210037
 20
58.1550275064
 30
0.0
 10
11.4526570759
 20
58.2550898183
 30
0.0
 10
11.5023152977
 20
58.3363026119
 30
0.0
 10
11.5489804366
 20
58.3754613282
 30
0.0
 10
11.5738994657
 20
58.3898488598
 30
0.0
  0
SPLINE
  5
3BE
100
AcDbEntity
  8
0
100
AcDbSpline
 62
7
  6
BYLAYER
 70
0
 71
3
 72
14
 73
10
 74
0
 42
0.0000001
 43
0.0000001
 44
0.0000000001
 40
0.0
 40
0.0
 40
0.0
 40
0.0
 40
0.0976941963
 40
0.215745074
 40
0.3521866824
 40
0.4996149981
 40
0.6474380455
 40
0.7850187666
 40
1.0
 40
1.0
 40
1.0
 40
1.0
 10
58.2914326177
 20
41.3179767234
 30
0.0
 10
58.2983064103
 20
41.3095318629
 30
0.0
 10
58.3076864997
 20
41.2862824646
 30
0.0
 10
58.3086419687
 20
41.2466118525
 30
0.0
 10
58.2987579292
 20
41.2025127184
 30
0.0
 10
58.2789099704
 20
41.1584169256
 30
0.0
 10
58.2508834293
 20
41.1185359074
 30
0.0
 10
58.2110574523
 20
41.080213362
 30
0.0
 10
58.171143124
 20
41.0617259033
 30
0.0
 10
58.1473288334
 20
41.0643756359
 30
0.0
  0
SPLINE
  5
3BF
100
AcDbEntity
  8
0
100
AcDbSpline
 62
7
  6
BYLAYER
 70
0
 71
3
 72
14
 73
10
 74
0
 42
0.0000001
 43
0.0000001
 44
0.0000000001
 40
0.0
 40
0.0
 40
0.0
 40
0.0
 40
0.2014265989
 40
0.3335688992
 40
0.4792691878
 40
0.6283963497
 40
0.7700538981
 40
0.8954505885
 40
1.0
 40
1.0
 40
1.0
 40
1.0
 10
58.1428215879
 20
40.9449736193
 30
0.0
 10
58.1594204102
 20
40.9299265099
 30
0.0
 10
58.1682878278
 20
40.8880045769
 30
0.0
 10
58.159499224
 20
40.8360991966
 30
0.0
 10
58.1422692327
 20
40.7912342319
 30
0.0
 10
58.1163730436
 20
40.7499134453
 30
0.0
 10
58.0845357383
 20
40.7158090154
 30
0.0
 10
58.0499196211
 20
40.6925423664
 30
0.0
 10
58.0245733967
 20
40.6852667547
 30
0.0
 10
58.0129487377
 20
40.6849623007
 30
0.0
  0
SPLINE
  5
3C0
100
AcDbEntity
  8
0
100
AcDbSpline
 62
7
  6
BYLAYER
 70
0
 71
3
 72
14
 73
10
 74
0
 42
0.0000001
 43
0.0000001
 44
0.0000000001
 40
0.0
 40
0.0
 40
0.0
 40
0.0
 40
0.0897408907
 40
0.1964565743
 40
0.3235169932
 40
0.4664152356
 40
0.7590565233
 40
0.8897319421
 40
1.0
 40
1.0
 40
1.0
 40
1.0
 10
58.0177937032
 20
40.5709777828
 30
0.0
 10
58.0261501336
 20
40.5655209568
 30
0.0
 10
58.0403734152
 20
40.5472649297
 30
0.0
 10
58.0476867535
 20
40.5113068886
 30
0.0
 10
58.0438664144
 20
40.4691259935
 30
0.0
 10
58.0242950345
 20
40.4093952222
 30
0.0
 10
57.9880604154
 20
40.3554407285
 30
0.0
 10
57.9409219346
 20
40.3187732261
 30
0.0
 10
57.9153837608
 20
40.3086174339
 30
0.0
 10
57.9032598165
 20
40.3067745581
 30
0.0
  0
SPLINE
  5
3C1
100
AcDbEntity
  8
0
100
AcDbSpline
 62
7
  6
BYLAYER
 70
0
 71
3
 72
11
 73
7
 74
0
 42
0.0000001
 43
0.0000001
 44
0.0000000001
 40
0.0
 40
0.0
 40
0.0
 40
0.0
 40
0.2150417498
 40
0.4474548096
 40
0.7078720843
 40
1.0
 40
1.0
 40
1.0
 40
1.0
 10
57.9215393242
 20
40.1970965899
 30
0.0
 10
57.9268218831
 20
40.1940943566
 30
0.0
 10
57.9366356813
 20
40.185602628
 30
0.0
 10
57.9466499164
 20
40.1679537578
 30
0.0
 10
57.9521553685
 20
40.1462612424
 30
0.0
 10
57.9527929084
 20
40.1305566517
 30
0.0
 10
57.9524532091
 20
40.1223094587
 30
0.0
  0
SPLINE
  5
3C2
100
AcDbEntity
  8
0
100
AcDbSpline
 62
7
  6
BYLAYER
 70
0
 71
3
 72
11
 73
7
 74
0
 42
0.0000001
 43
0.0000001
 44
0.0000000001
 40
0.0
 40
0.0
 40
0.0
 40
0.0
 40
0.249603144
 40
0.5216844991
 40
0.7816230244
 40
1.0
 40
1.0
 40
1.0
 40
1.0
 10
57.9524532091
 20
40.1223094587
 30
0.0
 10
57.9516204913
 20
40.1020928065
 30
0.0
 10
57.9417724643
 20
40.0601495416
 30
0.0
 10
57.9118116077
 20
40.0036500237
 30
0.0
 10
57.8707818818
 20
39.9579941185
 30
0.0
 10
57.8362904911
 20
39.9376456037
 30
0.0
 10
57.8191978969
 20
39.9330389724
 30
0.0
  0
SPLINE
  5
3C3
100
AcDbEntity
  8
0
100
AcDbSpline
 62
7
  6
BYLAYER
 70
0
 71
3
 72
15
 73
11
 74
0
 42
0.0000001
 43
0.0000001
 44
0.0000000001
 40
0.0
 40
0.0
 40
0.0
 40
0.0
 40
0.0877257752
 40
0.1895335277
 40
0.3106509102
 40
0.4484554399
 40
0.5954975034
 40
0.7422745915
 40
0.8797086086
 40
1.0
 40
1.0
 40
1.0
 40
1.0
 10
57.8542608375
 20
39.8279024
 30
0.0
 10
57.8623163596
 20
39.8232525621
 30
0.0
 10
57.8767282085
 20
39.8077287728
 30
0.0
 10
57.886125866
 20
39.7753831388
 30
0.0
 10
57.8852271116
 20
39.7367287963
 30
0.0
 10
57.8744709808
 20
39.6947401721
 30
0.0
 10
57.8549266738
 20
39.653092987
 30
0.0
 10
57.8283639954
 20
39.6155495
 30
0.0
 10
57.7972364682
 20
39.5856827488
 30
0.0
 10
57.7733970418
 20
39.5714886493
 30
0.0
 10
57.7614801657
 20
39.566944124
 30
0.0
  0
SPLINE
  5
3C4
100
AcDbEntity
  8
0
100
AcDbSpline
 62
7
  6
BYLAYER
 70
0
 71
3
 72
15
 73
11
 74
0
 42
0.0000001
 43
0.0000001
 44
0.0000000001
 40
0.0
 40
0.0
 40
0.0
 40
0.0
 40
0.0872900241
 40
0.1876832016
 40
0.3066771478
 40
0.4422338336
 40
0.5878634005
 40
0.7349738787
 40
0.8750201273
 40
1.0
 40
1.0
 40
1.0
 40
1.0
 10
57.8136496861
 20
39.4683215374
 30
0.0
 10
57.8213872762
 20
39.4638248589
 30
0.0
 10
57.8353192348
 20
39.4491938669
 30
0.0
 10
57.8450611992
 20
39.41856605
 30
0.0
 10
57.8451152601
 20
39.3817756115
 30
0.0
 10
57.8359485733
 20
39.3415007443
 30
0.0
 10
57.8184100946
 20
39.3010016824
 30
0.0
 10
57.7939644575
 20
39.263691861
 30
0.0
 10
57.7647218615
 20
39.2328912658
 30
0.0
 10
57.7421066221
 20
39.2172490092
 30
0.0
 10
57.7305990501
 20
39.211613405
 30
0.0
  0
SPLINE
  5
3C5
100
AcDbEntity
  8
0
100
AcDbSpline
 62
7
  6
BYLAYER
 70
0
 71
3
 72
15
 73
11
 74
0
 42
0.0000001
 43
0.0000001
 44
0.0000000001
 40
0.0
 40
0.0
 40
0.0
 40
0.0
 40
0.0869667952
 40
0.1861472706
 40
0.3031806075
 40
0.4366037436
 40
0.5807967814
 40
0.7280831794
 40
0.8704911096
 40
1.0
 40
1.0
 40
1.0
 40
1.0
 10
57.800063326
 20
39.1214440272
 30
0.0
 10
57.8074928067
 20
39.1171209335
 30
0.0
 10
57.8209489201
 20
39.1033517387
 30
0.0
 10
57.830950051
 20
39.0744179126
 30
0.0
 10
57.8319165509
 20
39.0394937575
 30
0.0
 10
57.8242630317
 20
39.0009842135
 30
0.0
 10
57.8086869515
 20
38.9617626006
 30
0.0
 10
57.786369621
 20
38.9248998852
 30
0.0
 10
57.7591037867
 20
38.8934515659
 30
0.0
 10
57.7378108661
 20
38.8766366475
 30
0.0
 10
57.726818017
 20
38.8700783718
 30
0.0
  0
SPLINE
  5
3C6
100
AcDbEntity
  8
0
100
AcDbSpline
 62
7
  6
BYLAYER
 70
0
 71
3
 72
14
 73
10
 74
0
 42
0.0000001
 43
0.0000001
 44
0.0000000001
 40
0.0
 40
0.0
 40
0.0
 40
0.0
 40
0.0868734496
 40
0.1851773509
 40
0.3005357677
 40
0.4320945256
 40
0.5750054729
 40
0.7224864174
 40
1.0
 40
1.0
 40
1.0
 40
1.0
 10
57.8136234215
 20
38.790240454
 30
0.0
 10
57.8207481912
 20
38.7860971246
 30
0.0
 10
57.8337383528
 20
38.7731686336
 30
0.0
 10
57.8439055695
 20
38.7458900609
 30
0.0
 10
57.8457428602
 20
38.7128333587
 30
0.0
 10
57.8395269867
 20
38.6761399996
 30
0.0
 10
57.8258479043
 20
38.6382843323
 30
0.0
 10
57.7995441012
 20
38.591179717
 30
0.0
 10
57.7717000833
 20
38.5604060135
 30
0.0
 10
57.7501693248
 20
38.5452528809
 30
0.0
  0
SPLINE
  5
3C7
100
AcDbEntity
  8
0
100
AcDbSpline
 62
7
  6
BYLAYER
 70
0
 71
3
 72
12
 73
8
 74
0
 42
0.0000001
 43
0.0000001
 44
0.0000000001
 40
0.0
 40
0.0
 40
0.0
 40
0.0
 40
0.1081668378
 40
0.2183765485
 40
0.4513518201
 40
0.710453619
 40
1.0
 40
1.0
 40
1.0
 40
1.0
 10
64.2783112273
 20
41.7689436154
 30
0.0
 10
64.2373243626
 20
41.7926111457
 30
0.0
 10
64.1502977454
 20
41.8333872177
 30
0.0
 10
63.9591869806
 20
41.8862308192
 30
0.0
 10
63.6915173679
 20
41.8934030045
 30
0.0
 10
63.3563205189
 20
41.8123063093
 30
0.0
 10
63.138066896
 20
41.7084951904
 30
0.0
 10
63.0283467003
 20
41.645148584
 30
0.0
  0
SPLINE
  5
3C8
100
AcDbEntity
  8
0
100
AcDbSpline
 62
7
  6
BYLAYER
 70
0
 71
3
 72
13
 73
9
 74
0
 42
0.0000001
 43
0.0000001
 44
0.0000000001
 40
0.0
 40
0.0
 40
0.0
 40
0.0
 40
0.0868992624
 40
0.1845191141
 40
0.2983378008
 40
0.4281062006
 40
0.7162396035
 40
1.0
 40
1.0
 40
1.0
 40
1.0
 10
57.8542164238
 20
38.4775371201
 30
0.0
 10
57.8610378417
 20
38.4735743517
 30
0.0
 10
57.8735677043
 20
38.4614665938
 30
0.0
 10
57.8838250592
 20
38.4358027417
 30
0.0
 10
57.8864734395
 20
38.4046115308
 30
0.0
 10
57.8797426394
 20
38.356509852
 30
0.0
 10
57.8542495124
 20
38.2969632605
 30
0.0
 10
57.8204401374
 20
38.2561608199
 30
0.0
 10
57.8004537483
 20
38.2399082288
 30
0.0
  0
SPLINE
  5
3C9
100
AcDbEntity
  8
0
100
AcDbSpline
 62
7
  6
BYLAYER
 70
0
 71
3
 72
13
 73
9
 74
0
 42
0.0000001
 43
0.0000001
 44
0.0000000001
 40
0.0
 40
0.0
 40
0.0
 40
0.0
 40
0.0903618293
 40
0.1873649354
 40
0.2956475214
 40
0.4169271306
 40
0.6941990839
 40
1.0
 40
1.0
 40
1.0
 40
1.0
 10
57.9214994865
 20
38.1860089235
 30
0.0
 10
57.9265600196
 20
38.1830817816
 30
0.0
 10
57.9360448838
 20
38.1750878744
 30
0.0
 10
57.9459777395
 20
38.1584211608
 30
0.0
 10
57.9517289892
 20
38.1378883375
 30
0.0
 10
57.9538156363
 20
38.1049809573
 30
0.0
 10
57.9449574981
 20
38.0595784463
 30
0.0
 10
57.9289826389
 20
38.025020607
 30
0.0
 10
57.9187206113
 20
38.0081057854
 30
0.0
  0
SPLINE
  5
3CA
100
AcDbEntity
  8
0
100
AcDbSpline
 62
7
  6
BYLAYER
 70
0
 71
3
 72
9
 73
5
 74
0
 42
0.0000001
 43
0.0000001
 44
0.0000000001
 40
0.0
 40
0.0
 40
0.0
 40
0.0
 40
0.2573438846
 40
1.0
 40
1.0
 40
1.0
 40
1.0
 10
57.9187206113
 20
38.0081057854
 30
0.0
 10
57.9157748033
 20
38.0032502327
 30
0.0
 10
57.9036980619
 20
37.9847792282
 30
0.0
 10
57.8892630642
 20
37.9677903294
 30
0.0
 10
57.8772422786
 20
37.9566495084
 30
0.0
  0
SPLINE
  5
3CB
100
AcDbEntity
  8
0
100
AcDbSpline
 62
7
  6
BYLAYER
 70
0
 71
3
 72
13
 73
9
 74
0
 42
0.0000001
 43
0.0000001
 44
0.0000000001
 40
0.0
 40
0.0
 40
0.0
 40
0.0
 40
0.0915614371
 40
0.1892415755
 40
0.297294591
 40
0.4177086687
 40
0.6929025095
 40
1.0
 40
1.0
 40
1.0
 40
1.0
 10
58.0149023633
 20
37.9181488277
 30
0.0
 10
58.0196716918
 20
37.915403366
 30
0.0
 10
58.0286367038
 20
37.9080190316
 30
0.0
 10
58.0383090692
 20
37.8927174854
 30
0.0
 10
58.0443461066
 20
37.8738870356
 30
0.0
 10
58.0474424096
 20
37.8436060067
 30
0.0
 10
58.0410225327
 20
37.801235603
 30
0.0
 10
58.0277012943
 20
37.7685489515
 30
0.0
 10
58.0189830553
 20
37.7522803266
 30
0.0
  0
SPLINE
  5
3CC
100
AcDbEntity
  8
0
100
AcDbSpline
 62
7
  6
BYLAYER
 70
0
 71
3
 72
9
 73
5
 74
0
 42
0.0000001
 43
0.0000001
 44
0.0000000001
 40
0.0
 40
0.0
 40
0.0
 40
0.0
 40
0.254701118
 40
1.0
 40
1.0
 40
1.0
 40
1.0
 10
58.0189830553
 20
37.7522803266
 30
0.0
 10
58.0162923829
 20
37.7472594113
 30
0.0
 10
58.0050662318
 20
37.7279136295
 30
0.0
 10
57.9913928883
 20
37.7099472104
 30
0.0
 10
57.9798797831
 20
37.6978933834
 30
0.0
  0
SPLINE
  5
3CD
100
AcDbEntity
  8
0
100
AcDbSpline
 62
7
  6
BYLAYER
 70
0
 71
3
 72
11
 73
7
 74
0
 42
0.0000001
 43
0.0000001
 44
0.0000000001
 40
0.0
 40
0.0
 40
0.0
 40
0.0
 40
0.1901419794
 40
0.4174405248
 40
0.6913905976
 40
1.0
 40
1.0
 40
1.0
 40
1.0
 10
58.133625857
 20
37.676239199
 30
0.0
 10
58.1427509752
 20
37.6709978235
 30
0.0
 10
58.1588199688
 20
37.6523225374
 30
0.0
 10
58.166703488
 20
37.6138920271
 30
0.0
 10
58.1619664912
 20
37.5688591598
 30
0.0
 10
58.1511324995
 20
37.5381670442
 30
0.0
 10
58.1438851911
 20
37.5227010689
 30
0.0
  0
SPLINE
  5
3CE
100
AcDbEntity
  8
0
100
AcDbSpline
 62
7
  6
BYLAYER
 70
0
 71
3
 72
9
 73
5
 74
0
 42
0.0000001
 43
0.0000001
 44
0.0000000001
 40
0.0
 40
0.0
 40
0.0
 40
0.0
 40
0.2520747087
 40
1.0
 40
1.0
 40
1.0
 40
1.0
 10
58.1438851911
 20
37.5227010689
 30
0.0
 10
58.1414745404
 20
37.5175566674
 30
0.0
 10
58.1312140236
 20
37.4974855817
 30
0.0
 10
58.1184073199
 20
37.4786915124
 30
0.0
 10
58.1074905947
 20
37.4658474696
 30
0.0
  0
SPLINE
  5
3CF
100
AcDbEntity
  8
0
100
AcDbSpline
 62
7
  6
BYLAYER
 70
0
 71
3
 72
9
 73
5
 74
0
 42
0.0000001
 43
0.0000001
 44
0.0000000001
 40
0.0
 40
0.0
 40
0.0
 40
0.0
 40
0.2456443889
 40
1.0
 40
1.0
 40
1.0
 40
1.0
 10
54.7794635387
 20
40.0662267136
 30
0.0
 10
54.7713834545
 20
40.0829312826
 30
0.0
 10
54.7394873842
 20
40.1514140028
 30
0.0
 10
54.7115386358
 20
40.2217210845
 30
0.0
 10
54.6925634084
 20
40.2754535432
 30
0.0
  0
SPLINE
  5
3D0
100
AcDbEntity
  8
0
100
AcDbSpline
 62
7
  6
BYLAYER
 70
0
 71
3
 72
17
 73
13
 74
0
 42
0.0000001
 43
0.0000001
 44
0.0000000001
 40
0.0
 40
0.0
 40
0.0
 40
0.0
 40
0.1007638196
 40
0.1564055277
 40
0.2153401709
 40
0.3416522006
 40
0.4761935046
 40
0.614250501
 40
0.7507107191
 40
0.8806268634
 40
0.9418856033
 40
1.0
 40
1.0
 40
1.0
 40
1.0
 10
54.6925634084
 20
40.2754535432
 30
0.0
 10
54.6159410368
 20
40.4924263534
 30
0.0
 10
54.5494000461
 20
40.8485896675
 30
0.0
 10
54.5379655341
 20
41.3404637741
 30
0.0
 10
54.5798312855
 20
41.8898898541
 30
0.0
 10
54.7340024435
 20
42.6073360342
 30
0.0
 10
55.0568617518
 20
43.462261154
 30
0.0
 10
55.504660864
 20
44.2854072274
 30
0.0
 10
56.0530728175
 20
45.0319562112
 30
0.0
 10
56.5799443649
 20
45.5678989889
 30
0.0
 10
57.0275423527
 20
45.9206243491
 30
0.0
 10
57.2565382278
 20
46.0694733879
 30
0.0
 10
57.3714688991
 20
46.1358282459
 30
0.0
  0
SPLINE
  5
3D1
100
AcDbEntity
  8
0
100
AcDbSpline
 62
7
  6
BYLAYER
 70
0
 71
3
 72
18
 73
14
 74
0
 42
0.0000001
 43
0.0000001
 44
0.0000000001
 40
0.0
 40
0.0
 40
0.0
 40
0.0
 40
0.0449831839
 40
0.09264946
 40
0.1454428176
 40
0.2046727748
 40
0.3406354671
 40
0.4924771388
 40
0.6462051204
 40
0.7869120954
 40
0.8490775454
 40
0.9049644119
 40
1.0
 40
1.0
 40
1.0
 40
1.0
 10
58.6279933787
 20
42.0769613612
 30
0.0
 10
58.6329846277
 20
42.0744103266
 30
0.0
 10
58.6424698788
 20
42.0674340834
 30
0.0
 10
58.653174691
 20
42.0524745092
 30
0.0
 10
58.6597324319
 20
42.0334482401
 30
0.0
 10
58.6631784592
 20
42.002562458
 30
0.0
 10
58.6566449094
 20
41.9591209261
 30
0.0
 10
58.635580854
 20
41.9078443334
 30
0.0
 10
58.6036757314
 20
41.8617872709
 30
0.0
 10
58.5702978824
 20
41.8315628132
 30
0.0
 10
58.5417361146
 20
41.8161712336
 30
0.0
 10
58.5163874243
 20
41.8081578877
 30
0.0
 10
58.4962129232
 20
41.8091733266
 30
0.0
 10
58.4853757389
 20
41.8139481613
 30
0.0
  0
SPLINE
  5
3D2
100
AcDbEntity
  8
0
100
AcDbSpline
 62
7
  6
BYLAYER
 70
0
 71
3
 72
18
 73
14
 74
0
 42
0.0000001
 43
0.0000001
 44
0.0000000001
 40
0.0
 40
0.0
 40
0.0
 40
0.0
 40
0.0946777306
 40
0.1503574388
 40
0.2126148915
 40
0.3534860611
 40
0.5071682612
 40
0.6590786447
 40
0.7948987107
 40
0.8540483152
 40
0.9070460659
 40
0.9549967038
 40
1.0
 40
1.0
 40
1.0
 40
1.0
 10
58.8426045661
 20
42.4327435815
 30
0.0
 10
58.8521212984
 20
42.4257724577
 30
0.0
 10
58.8634472876
 20
42.4091926869
 30
0.0
 10
58.8692304265
 20
42.3832490361
 30
0.0
 10
58.870098563
 20
42.3508247154
 30
0.0
 10
58.8606046835
 20
42.3067877449
 30
0.0
 10
58.836651578
 20
42.2561150758
 30
0.0
 10
58.8027827186
 20
42.2122599075
 30
0.0
 10
58.7684366056
 20
42.1848927786
 30
0.0
 10
58.7399325037
 20
42.172515822
 30
0.0
 10
58.72015988
 20
42.1686321757
 30
0.0
 10
58.7017781005
 20
42.1700741094
 30
0.0
 10
58.6908649482
 20
42.1746640235
 30
0.0
 10
58.6861584517
 20
42.1777122631
 30
0.0
  0
SPLINE
  5
3D3
100
AcDbEntity
  8
0
100
AcDbSpline
 62
7
  6
BYLAYER
 70
0
 71
3
 72
17
 73
13
 74
0
 42
0.0000001
 43
0.0000001
 44
0.0000000001
 40
0.0
 40
0.0
 40
0.0
 40
0.0
 40
0.0974684355
 40
0.217976871
 40
0.3599169378
 40
0.512438689
 40
0.6621251786
 40
0.7960453278
 40
0.8546119064
 40
0.907317684
 40
0.9551196815
 40
1.0
 40
1.0
 40
1.0
 40
1.0
 10
59.074828597
 20
42.7748399407
 30
0.0
 10
59.0831467674
 20
42.7664723828
 30
0.0
 10
59.0957152564
 20
42.7416758832
 30
0.0
 10
59.096653803
 20
42.697299765
 30
0.0
 10
59.0844164726
 20
42.6481448394
 30
0.0
 10
59.0602073878
 20
42.5996613416
 30
0.0
 10
59.0271381809
 20
42.5580515685
 30
0.0
 10
58.9940587579
 20
42.5320897118
 30
0.0
 10
58.9667106215
 20
42.5201637573
 30
0.0
 10
58.9477006628
 20
42.5161458883
 30
0.0
 10
58.929898877
 20
42.5170556397
 30
0.0
 10
58.9191785343
 20
42.5210509993
 30
0.0
 10
58.9144659266
 20
42.523754087
 30
0.0
  0
SPLINE
  5
3D4
100
AcDbEntity
  8
0
100
AcDbSpline
 62
7
  6
BYLAYER
 70
0
 71
3
 72
16
 73
12
 74
0
 42
0.0000001
 43
0.0000001
 44
0.0000000001
 40
0.0
 40
0.0
 40
0.0
 40
0.0
 40
0.1013172437
 40
0.2255784778
 40
0.3691249943
 40
0.5208997823
 40
0.6682961058
 40
0.7995514872
 40
0.9082488398
 40
0.9554512726
 40
1.0
 40
1.0
 40
1.0
 40
1.0
 10
59.3226842178
 20
43.1003317932
 30
0.0
 10
59.3297859776
 20
43.0906808183
 30
0.0
 10
59.3394016781
 20
43.0645977406
 30
0.0
 10
59.3377794085
 20
43.0203425918
 30
0.0
 10
59.3237678475
 20
42.9723269856
 30
0.0
 10
59.298896594
 20
42.9258460021
 30
0.0
 10
59.2659958492
 20
42.8864627261
 30
0.0
 10
59.229013022
 20
42.8586991318
 30
0.0
 10
59.1957976135
 20
42.8474936508
 30
0.0
 10
59.1718388737
 20
42.8489679682
 30
0.0
 10
59.1615140842
 20
42.8529248742
 30
0.0
 10
59.1569489566
 20
42.8555549907
 30
0.0
  0
SPLINE
  5
3D5
100
AcDbEntity
  8
0
100
AcDbSpline
 62
7
  6
BYLAYER
 70
0
 71
3
 72
17
 73
13
 74
0
 42
0.0000001
 43
0.0000001
 44
0.0000000001
 40
0.0
 40
0.0
 40
0.0
 40
0.0
 40
0.1055998512
 40
0.2333519906
 40
0.3781076592
 40
0.4535645871
 40
0.529039326
 40
0.6739839246
 40
0.802515481
 40
0.9092488393
 40
0.9558511602
 40
1.0
 40
1.0
 40
1.0
 40
1.0
 10
59.5840568118
 20
43.4064421574
 30
0.0
 10
59.5898742438
 20
43.3957272406
 30
0.0
 10
59.5967612928
 20
43.368776402
 30
0.0
 10
59.5927452252
 20
43.3248059945
 30
0.0
 10
59.579901799
 20
43.2864021062
 30
0.0
 10
59.5644222601
 20
43.2559224563
 30
0.0
 10
59.5459429241
 20
43.2271379573
 30
0.0
 10
59.5191391146
 20
43.1966013322
 30
0.0
 10
59.4830967268
 20
43.1708200797
 30
0.0
 10
59.4510709579
 20
43.1607953686
 30
0.0
 10
59.428062278
 20
43.162506825
 30
0.0
 10
59.4181216839
 20
43.1663814089
 30
0.0
 10
59.4137118548
 20
43.1689379704
 30
0.0
  0
SPLINE
  5
3D6
100
AcDbEntity
  8
0
100
AcDbSpline
 62
7
  6
BYLAYER
 70
0
 71
3
 72
14
 73
10
 74
0
 42
0.0000001
 43
0.0000001
 44
0.0000000001
 40
0.0
 40
0.0
 40
0.0
 40
0.0
 40
0.239418129
 40
0.385709725
 40
0.5358850784
 40
0.6789452013
 40
0.8053621816
 40
0.9106955916
 40
1.0
 40
1.0
 40
1.0
 40
1.0
 10
59.8567164401
 20
43.6905594076
 30
0.0
 10
59.8664856227
 20
43.6655752802
 30
0.0
 10
59.8635978695
 20
43.6188737507
 30
0.0
 10
59.8423350705
 20
43.5629859969
 30
0.0
 10
59.816474159
 20
43.5205763322
 30
0.0
 10
59.7843656649
 20
43.485779454
 30
0.0
 10
59.7492081464
 20
43.461991388
 30
0.0
 10
59.7138854213
 20
43.4515029394
 30
0.0
 10
59.6912182955
 20
43.4562042451
 30
0.0
 10
59.6825667925
 20
43.461231971
 30
0.0
  0
SPLINE
  5
3D7
100
AcDbEntity
  8
0
100
AcDbSpline
 62
7
  6
BYLAYER
 70
0
 71
3
 72
14
 73
10
 74
0
 42
0.0000001
 43
0.0000001
 44
0.0000000001
 40
0.0
 40
0.0
 40
0.0
 40
0.0
 40
0.249218457
 40
0.3970539658
 40
0.546373092
 40
0.6867223763
 40
0.8096141189
 40
0.9119205274
 40
1.0
 40
1.0
 40
1.0
 40
1.0
 10
60.1383368669
 20
43.9502595554
 30
0.0
 10
60.1453934455
 20
43.9237687692
 30
0.0
 10
60.1398361956
 20
43.8775004076
 30
0.0
 10
60.1161567662
 20
43.8224010903
 30
0.0
 10
60.0893288764
 20
43.7819928888
 30
0.0
 10
60.0570662687
 20
43.7496084833
 30
0.0
 10
60.0224271468
 20
43.7283020487
 30
0.0
 10
59.9879805719
 20
43.7201755864
 30
0.0
 10
59.9665932029
 20
43.7262585696
 30
0.0
 10
59.9585353291
 20
43.731638708
 30
0.0
  0
SPLINE
  5
3D8
100
AcDbEntity
  8
0
100
AcDbSpline
 62
7
  6
BYLAYER
 70
0
 71
3
 72
14
 73
10
 74
0
 42
0.0000001
 43
0.0000001
 44
0.0000000001
 40
0.0
 40
0.0
 40
0.0
 40
0.0
 40
0.2556335871
 40
0.4030140748
 40
0.5504528583
 40
0.6885887473
 40
0.8100843613
 40
0.9121462235
 40
1.0
 40
1.0
 40
1.0
 40
1.0
 10
60.4265154061
 20
44.183326931
 30
0.0
 10
60.430801332
 20
44.1566439998
 30
0.0
 10
60.4234927294
 20
44.1124057524
 30
0.0
 10
60.3989907221
 20
44.0596554396
 30
0.0
 10
60.3726961497
 20
44.0218123561
 30
0.0
 10
60.3417066413
 20
43.991532502
 30
0.0
 10
60.3086911235
 20
43.9714487738
 30
0.0
 10
60.2759775266
 20
43.9633763831
 30
0.0
 10
60.255380211
 20
43.9682056031
 30
0.0
 10
60.2473339037
 20
43.9728443546
 30
0.0
  0
SPLINE
  5
3D9
100
AcDbEntity
  8
0
100
AcDbSpline
 62
7
  6
BYLAYER
 70
0
 71
3
 72
14
 73
10
 74
0
 42
0.0000001
 43
0.0000001
 44
0.0000000001
 40
0.0
 40
0.0
 40
0.0
 40
0.0
 40
0.2632035974
 40
0.4108453815
 40
0.5568473787
 40
0.6926693246
 40
0.8119739073
 40
0.9126396129
 40
1.0
 40
1.0
 40
1.0
 40
1.0
 10
60.7187934199
 20
44.3877730855
 30
0.0
 10
60.7206275252
 20
44.3609203357
 30
0.0
 10
60.7114668006
 20
44.3180926782
 30
0.0
 10
60.6856484293
 20
44.2673012575
 30
0.0
 10
60.6593416871
 20
44.2317978859
 30
0.0
 10
60.629045965
 20
44.2037423681
 30
0.0
 10
60.5971594836
 20
44.185420545
 30
0.0
 10
60.5657729996
 20
44.1785024854
 30
0.0
 10
60.5461644907
 20
44.183331618
 30
0.0
 10
60.5384262709
 20
44.1877956492
 30
0.0
  0
SPLINE
  5
3DA
100
AcDbEntity
  8
0
100
AcDbSpline
 62
7
  6
BYLAYER
 70
0
 71
3
 72
14
 73
10
 74
0
 42
0.0000001
 43
0.0000001
 44
0.0000000001
 40
0.0
 40
0.0
 40
0.0
 40
0.0
 40
0.2703143136
 40
0.4180515096
 40
0.5625956042
 40
0.696228859
 40
0.813515574
 40
0.9129618546
 40
1.0
 40
1.0
 40
1.0
 40
1.0
 10
61.0126772955
 20
44.5618537564
 30
0.0
 10
61.0122957104
 20
44.5351998338
 30
0.0
 10
61.0014863254
 20
44.4939278963
 30
0.0
 10
60.9745777618
 20
44.445325703
 30
0.0
 10
60.9483914515
 20
44.4121846636
 30
0.0
 10
60.9188733913
 20
44.3863161624
 30
0.0
 10
60.8881453737
 20
44.3697098927
 30
0.0
 10
60.858100345
 20
44.3638824315
 30
0.0
 10
60.8394538331
 20
44.3686822467
 30
0.0
 10
60.8320215806
 20
44.3729754883
 30
0.0
  0
SPLINE
  5
3DB
100
AcDbEntity
  8
0
100
AcDbSpline
 62
7
  6
BYLAYER
 70
0
 71
3
 72
13
 73
9
 74
0
 42
0.0000001
 43
0.0000001
 44
0.0000000001
 40
0.0
 40
0.0
 40
0.0
 40
0.0
 40
0.2893473921
 40
0.5483231349
 40
0.6677488587
 40
0.7817632276
 40
0.8919048406
 40
1.0
 40
1.0
 40
1.0
 40
1.0
 10
60.9070175249
 20
42.8698708476
 30
0.0
 10
61.0167298642
 20
42.9332129181
 30
0.0
 10
61.2348171373
 20
43.0370553069
 30
0.0
 10
61.5219504917
 20
43.1062537456
 30
0.0
 10
61.7380748424
 20
43.1137898288
 30
0.0
 10
61.8881635127
 20
43.0969904203
 30
0.0
 10
62.0289761072
 20
43.058098472
 30
0.0
 10
62.1160063383
 20
43.0173482431
 30
0.0
 10
62.1569891336
 20
42.9936781153
 30
0.0
  0
SPLINE
  5
3DC
100
AcDbEntity
  8
0
100
AcDbSpline
 62
7
  6
BYLAYER
 70
0
 71
3
 72
11
 73
7
 74
0
 42
0.0000001
 43
0.0000001
 44
0.0000000001
 40
0.0
 40
0.0
 40
0.0
 40
0.0
 40
0.1930430361
 40
0.420029574
 40
0.6917473201
 40
1.0
 40
1.0
 40
1.0
 40
1.0
 10
58.2766498525
 20
37.4623317294
 30
0.0
 10
58.285151809
 20
37.4574317798
 30
0.0
 10
58.3003185463
 20
37.4406587846
 30
0.0
 10
58.3091295462
 20
37.405735951
 30
0.0
 10
58.3067104975
 20
37.3643657192
 30
0.0
 10
58.2982242133
 20
37.3358578516
 30
0.0
 10
58.2923613977
 20
37.3213267015
 30
0.0
  0
SPLINE
  5
3DD
100
AcDbEntity
  8
0
100
AcDbSpline
 62
7
  6
BYLAYER
 70
0
 71
3
 72
9
 73
5
 74
0
 42
0.0000001
 43
0.0000001
 44
0.0000000001
 40
0.0
 40
0.0
 40
0.0
 40
0.0
 40
0.7517197252
 40
1.0
 40
1.0
 40
1.0
 40
1.0
 10
58.2923613977
 20
37.3213267015
 30
0.0
 10
58.2860094655
 20
37.3055832624
 30
0.0
 10
58.2753768812
 20
37.2854310095
 30
0.0
 10
58.2623731228
 20
37.2669598837
 30
0.0
 10
58.258985983
 20
37.2624915011
 30
0.0
  0
SPLINE
  5
3DE
100
AcDbEntity
  8
0
100
AcDbSpline
 62
7
  6
BYLAYER
 70
0
 71
3
 72
11
 73
7
 74
0
 42
0.0000001
 43
0.0000001
 44
0.0000000001
 40
0.0
 40
0.0
 40
0.0
 40
0.0
 40
0.1963246562
 40
0.4234109269
 40
0.6928990383
 40
1.0
 40
1.0
 40
1.0
 40
1.0
 10
58.4427467399
 20
37.2782380142
 30
0.0
 10
58.4506283641
 20
37.2736774205
 30
0.0
 10
58.4648733205
 20
37.2587155088
 30
0.0
 10
58.4743852501
 20
37.2272345707
 30
0.0
 10
58.4740475631
 20
37.1895812879
 30
0.0
 10
58.4677219087
 20
37.1633639463
 30
0.0
 10
58.4631449285
 20
37.1498752796
 30
0.0
  0
SPLINE
  5
3DF
100
AcDbEntity
  8
0
100
AcDbSpline
 62
7
  6
BYLAYER
 70
0
 71
3
 72
9
 73
5
 74
0
 42
0.0000001
 43
0.0000001
 44
0.0000000001
 40
0.0
 40
0.0
 40
0.0
 40
0.0
 40
0.2468763173
 40
1.0
 40
1.0
 40
1.0
 40
1.0
 10
58.4631449285
 20
37.1498752796
 30
0.0
 10
58.4613598885
 20
37.1446146472
 30
0.0
 10
58.4533506528
 20
37.1235777568
 30
0.0
 10
58.4425614615
 20
37.103602288
 30
0.0
 10
58.4330734427
 20
37.0895604392
 30
0.0
  0
SPLINE
  5
3E0
100
AcDbEntity
  8
0
100
AcDbSpline
 62
7
  6
BYLAYER
 70
0
 71
3
 72
9
 73
5
 74
0
 42
0.0000001
 43
0.0000001
 44
0.0000000001
 40
0.0
 40
0.0
 40
0.0
 40
0.0
 40
0.2431324384
 40
1.0
 40
1.0
 40
1.0
 40
1.0
 10
8.3521714197
 20
66.2715248597
 30
0.0
 10
8.3521711007
 20
66.3155731025
 30
0.0
 10
8.3553586553
 20
66.496736278
 30
0.0
 10
8.3708187135
 20
66.677622175
 30
0.0
 10
8.3884217448
 20
66.8136090886
 30
0.0
  0
SPLINE
  5
3E1
100
AcDbEntity
  8
0
100
AcDbSpline
 62
7
  6
BYLAYER
 70
0
 71
3
 72
12
 73
8
 74
0
 42
0.0000001
 43
0.0000001
 44
0.0000000001
 40
0.0
 40
0.0
 40
0.0
 40
0.0
 40
0.116839012
 40
0.2390046833
 40
0.4935574534
 40
0.7515383077
 40
1.0
 40
1.0
 40
1.0
 40
1.0
 10
8.3884217448
 20
66.8136090886
 30
0.0
 10
8.4097415581
 20
66.9783088814
 30
0.0
 10
8.4712121432
 20
67.3131004366
 30
0.0
 10
8.6614753723
 20
67.9891146575
 30
0.0
 10
9.0178801428
 20
68.8228510085
 30
0.0
 10
9.5950047215
 20
69.7423165475
 30
0.0
 10
10.0729760039
 20
70.2862974323
 30
0.0
 10
10.330113123
 20
70.5283787955
 30
0.0
  0
SPLINE
  5
3E2
100
AcDbEntity
  8
0
100
AcDbSpline
 62
7
  6
BYLAYER
 70
0
 71
3
 72
13
 73
9
 74
0
 42
0.0000001
 43
0.0000001
 44
0.0000000001
 40
0.0
 40
0.0
 40
0.0
 40
0.0
 40
0.0904688629
 40
0.1875712385
 40
0.2957954492
 40
0.4168835819
 40
0.6941794875
 40
1.0
 40
1.0
 40
1.0
 40
1.0
 10
58.6305057258
 20
37.1255392975
 30
0.0
 10
58.6355454628
 20
37.1226260036
 30
0.0
 10
58.6449870028
 20
37.1146641924
 30
0.0
 10
58.6548819588
 20
37.0980911942
 30
0.0
 10
58.6606633288
 20
37.07770064
 30
0.0
 10
58.662856863
 20
37.0449934635
 30
0.0
 10
58.6541587268
 20
36.9998228046
 30
0.0
 10
58.6383958197
 20
36.9654010077
 30
0.0
 10
58.6282677211
 20
36.9485296708
 30
0.0
  0
SPLINE
  5
3E3
100
AcDbEntity
  8
0
100
AcDbSpline
 62
7
  6
BYLAYER
 70
0
 71
3
 72
20
 73
16
 74
0
 42
0.0000001
 43
0.0000001
 44
0.0000000001
 40
0.0
 40
0.0
 40
0.0
 40
0.0
 40
0.0428304399
 40
0.0874304703
 40
0.1352313682
 40
0.1871634127
 40
0.2436322716
 40
0.3046132809
 40
0.3697386741
 40
0.4383735668
 40
0.5826247914
 40
0.7296910166
 40
0.8711893068
 40
0.9376087821
 40
1.0
 40
1.0
 40
1.0
 40
1.0
 10
59.6570459161
 20
38.6635514942
 30
0.0
 10
59.5954198017
 20
38.6991444301
 30
0.0
 10
59.4785663525
 20
38.7885406231
 30
0.0
 10
59.3380072086
 20
38.9663577996
 30
0.0
 10
59.2328972225
 20
39.1837596961
 30
0.0
 10
59.1648947179
 20
39.4355293599
 30
0.0
 10
59.1345983459
 20
39.7163073268
 30
0.0
 10
59.1423115663
 20
40.0203369557
 30
0.0
 10
59.1877697535
 20
40.3413605421
 30
0.0
 10
59.2990811977
 20
40.7903487277
 30
0.0
 10
59.5245971839
 20
41.3480528191
 30
0.0
 10
59.9027800617
 20
41.9632505773
 30
0.0
 10
60.2946118384
 20
42.4091461003
 30
0.0
 10
60.6388031228
 20
42.6987356506
 30
0.0
 10
60.81723821
 20
42.8180370454
 30
0.0
 10
60.9070175249
 20
42.8698708476
 30
0.0
  0
SPLINE
  5
3E4
100
AcDbEntity
  8
0
100
AcDbSpline
 62
7
  6
BYLAYER
 70
0
 71
3
 72
9
 73
5
 74
0
 42
0.0000001
 43
0.0000001
 44
0.0000000001
 40
0.0
 40
0.0
 40
0.0
 40
0.0
 40
0.527588389
 40
1.0
 40
1.0
 40
1.0
 40
1.0
 10
57.3714688991
 20
46.1358282459
 30
0.0
 10
57.5460851025
 20
46.2366423561
 30
0.0
 10
57.8930665535
 20
46.4021006259
 30
0.0
 10
58.2684417015
 20
46.4932123718
 30
0.0
 10
58.4480505569
 20
46.5115460796
 30
0.0
  0
SPLINE
  5
3E5
100
AcDbEntity
  8
0
100
AcDbSpline
 62
7
  6
BYLAYER
 70
0
 71
3
 72
9
 73
5
 74
0
 42
0.0000001
 43
0.0000001
 44
0.0000000001
 40
0.0
 40
0.0
 40
0.0
 40
0.0
 40
0.2534897465
 40
1.0
 40
1.0
 40
1.0
 40
1.0
 10
58.5993099696
 20
46.5209241725
 30
0.0
 10
58.6153155545
 20
46.5212572763
 30
0.0
 10
58.6784703901
 20
46.5217227125
 30
0.0
 10
58.7416579501
 20
46.5187416388
 30
0.0
 10
58.7886082084
 20
46.5144545966
 30
0.0
  0
SPLINE
  5
3E6
100
AcDbEntity
  8
0
100
AcDbSpline
 62
7
  6
BYLAYER
 70
0
 71
3
 72
19
 73
15
 74
0
 42
0.0000001
 43
0.0000001
 44
0.0000000001
 40
0.0
 40
0.0
 40
0.0
 40
0.0
 40
0.0428394104
 40
0.0874448899
 40
0.1352571039
 40
0.1871950253
 40
0.2436735499
 40
0.3046656819
 40
0.4382689093
 40
0.5825434307
 40
0.7296392143
 40
0.871166535
 40
0.9376088396
 40
1.0
 40
1.0
 40
1.0
 40
1.0
 10
21.6975043497
 20
43.0944720634
 30
0.0
 10
21.6469673506
 20
43.0652895958
 30
0.0
 10
21.5355500195
 20
43.0190257095
 30
0.0
 10
21.3516622524
 20
42.9920313733
 30
0.0
 10
21.1541853042
 20
43.0065962051
 30
0.0
 10
20.9475158327
 20
43.0614911142
 30
0.0
 10
20.7356887417
 20
43.1550844365
 30
0.0
 10
20.443290739
 20
43.3340740565
 30
0.0
 10
20.094951839
 20
43.6425529372
 30
0.0
 10
19.7369268809
 20
44.1009244085
 30
0.0
 10
19.4550093859
 20
44.6218787422
 30
0.0
 10
19.2990133729
 20
45.0829317035
 30
0.0
 10
19.2345179479
 20
45.446099445
 30
0.0
 10
19.222937499
 20
45.621722553
 30
0.0
 10
19.222937499
 20
45.706714288
 30
0.0
  0
SPLINE
  5
3E7
100
AcDbEntity
  8
0
100
AcDbSpline
 62
7
  6
BYLAYER
 70
0
 71
3
 72
15
 73
11
 74
0
 42
0.0000001
 43
0.0000001
 44
0.0000000001
 40
0.0
 40
0.0
 40
0.0
 40
0.0
 40
0.1120962207
 40
0.2322595862
 40
0.3585672018
 40
0.4888737838
 40
0.6206869172
 40
0.7514210133
 40
0.8786629155
 40
1.0
 40
1.0
 40
1.0
 40
1.0
 10
63.0283467003
 20
41.645148584
 30
0.0
 10
62.9234212817
 20
41.5845702269
 30
0.0
 10
62.7154742176
 20
41.4422801861
 30
0.0
 10
62.4248831285
 20
41.1846205483
 30
0.0
 10
62.1516474681
 20
40.8815888064
 30
0.0
 10
61.9035681967
 20
40.5420333462
 30
0.0
 10
61.6877771405
 20
40.1755573555
 30
0.0
 10
61.5103418027
 20
39.7926617397
 30
0.0
 10
61.3765168941
 20
39.4044018167
 30
0.0
 10
61.3170737667
 20
39.1416436991
 30
0.0
 10
61.296303104
 20
39.0121538823
 30
0.0
  0
SPLINE
  5
3E8
100
AcDbEntity
  8
0
100
AcDbSpline
 62
7
  6
BYLAYER
 70
0
 71
3
 72
12
 73
8
 74
0
 42
0.0000001
 43
0.0000001
 44
0.0000000001
 40
0.0
 40
0.0
 40
0.0
 40
0.0
 40
0.0918215064
 40
0.189707875
 40
0.4169628249
 40
0.6926424437
 40
1.0
 40
1.0
 40
1.0
 40
1.0
 10
58.8383307796
 20
37.0055482315
 30
0.0
 10
58.8430778087
 20
37.0028112842
 30
0.0
 10
58.8519922025
 20
36.9954539209
 30
0.0
 10
58.8654908323
 20
36.9741658747
 30
0.0
 10
58.8718784558
 20
36.9376771721
 30
0.0
 10
58.8645927681
 20
36.8894206665
 30
0.0
 10
58.8514913726
 20
36.8568095255
 30
0.0
 10
58.8429034893
 20
36.8406024207
 30
0.0
  0
SPLINE
  5
3E9
100
AcDbEntity
  8
0
100
AcDbSpline
 62
7
  6
BYLAYER
 70
0
 71
3
 72
9
 73
5
 74
0
 42
0.0000001
 43
0.0000001
 44
0.0000000001
 40
0.0
 40
0.0
 40
0.0
 40
0.0
 40
0.5250630851
 40
1.0
 40
1.0
 40
1.0
 40
1.0
 10
59.8820836537
 20
39.8286353913
 30
0.0
 10
59.8593637768
 20
39.6869936571
 30
0.0
 10
59.8345997259
 20
39.4137537652
 30
0.0
 10
59.8570197851
 20
39.1394466843
 30
0.0
 10
59.8820836537
 20
39.0121329742
 30
0.0
  0
SPLINE
  5
3EA
100
AcDbEntity
  8
0
100
AcDbSpline
 62
7
  6
BYLAYER
 70
0
 71
3
 72
19
 73
15
 74
0
 42
0.0000001
 43
0.0000001
 44
0.0000000001
 40
0.0
 40
0.0
 40
0.0
 40
0.0
 40
0.0428394104
 40
0.0874448899
 40
0.1352571039
 40
0.1871950253
 40
0.2436735499
 40
0.3046656819
 40
0.4382689093
 40
0.5825434307
 40
0.7296392143
 40
0.871166535
 40
0.9376088396
 40
1.0
 40
1.0
 40
1.0
 40
1.0
 10
39.6580913684
 20
32.7251568986
 30
0.0
 10
39.6075543694
 20
32.6959744309
 30
0.0
 10
39.4961370383
 20
32.6497105447
 30
0.0
 10
39.3122492711
 20
32.6227162085
 30
0.0
 10
39.1147723229
 20
32.6372810403
 30
0.0
 10
38.9081028514
 20
32.6921759494
 30
0.0
 10
38.6962757604
 20
32.7857692716
 30
0.0
 10
38.4038777577
 20
32.9647588916
 30
0.0
 10
38.0555388577
 20
33.2732377724
 30
0.0
 10
37.6975138996
 20
33.7316092437
 30
0.0
 10
37.4155964046
 20
34.2525635774
 30
0.0
 10
37.2596003916
 20
34.7136165387
 30
0.0
 10
37.1951049667
 20
35.0767842801
 30
0.0
 10
37.1835245177
 20
35.2524073882
 30
0.0
 10
37.1835245177
 20
35.3373991232
 30
0.0
  0
SPLINE
  5
3EB
100
AcDbEntity
  8
0
100
AcDbSpline
 62
7
  6
BYLAYER
 70
0
 71
3
 72
11
 73
7
 74
0
 42
0.0000001
 43
0.0000001
 44
0.0000000001
 40
0.0
 40
0.0
 40
0.0
 40
0.0
 40
0.190399872
 40
0.4174459846
 40
0.6916732558
 40
1.0
 40
1.0
 40
1.0
 40
1.0
 10
59.0644480443
 20
36.9192885406
 30
0.0
 10
59.0735212618
 20
36.9140613442
 30
0.0
 10
59.0894968781
 20
36.8955391678
 30
0.0
 10
59.0975213503
 20
36.8573773091
 30
0.0
 10
59.0929005002
 20
36.8126242462
 30
0.0
 10
59.0822717681
 20
36.7820879696
 30
0.0
 10
59.0751495507
 20
36.7666994862
 30
0.0
  0
SPLINE
  5
3EC
100
AcDbEntity
  8
0
100
AcDbSpline
 62
7
  6
BYLAYER
 70
0
 71
3
 72
11
 73
7
 74
0
 42
0.0000001
 43
0.0000001
 44
0.0000000001
 40
0.0
 40
0.0
 40
0.0
 40
0.0
 40
0.1932821158
 40
0.4200431658
 40
0.6921930673
 40
1.0
 40
1.0
 40
1.0
 40
1.0
 10
59.306922602
 20
36.8674855141
 30
0.0
 10
59.3153695351
 20
36.8625993666
 30
0.0
 10
59.3304567682
 20
36.8459914474
 30
0.0
 10
59.3393876482
 20
36.81132351
 30
0.0
 10
59.3370574531
 20
36.7702366668
 30
0.0
 10
59.3287689801
 20
36.7418910792
 30
0.0
 10
59.3230244637
 20
36.7274513809
 30
0.0
  0
SPLINE
  5
3ED
100
AcDbEntity
  8
0
100
AcDbSpline
 62
7
  6
BYLAYER
 70
0
 71
3
 72
11
 73
7
 74
0
 42
0.0000001
 43
0.0000001
 44
0.0000000001
 40
0.0
 40
0.0
 40
0.0
 40
0.0
 40
0.1965393265
 40
0.4234502416
 40
0.6935247835
 40
1.0
 40
1.0
 40
1.0
 40
1.0
 10
59.5636819473
 20
36.8505745666
 30
0.0
 10
59.5715119688
 20
36.8460381642
 30
0.0
 10
59.5856797189
 20
36.8312328026
 30
0.0
 10
59.5952924593
 20
36.7999996464
 30
0.0
 10
59.5950172618
 20
36.7626266033
 30
0.0
 10
59.5888803371
 20
36.7365782479
 30
0.0
 10
59.5844134471
 20
36.7231929559
 30
0.0
  0
SPLINE
  5
3EE
100
AcDbEntity
  8
0
100
AcDbSpline
 62
7
  6
BYLAYER
 70
0
 71
3
 72
11
 73
7
 74
0
 42
0.0000001
 43
0.0000001
 44
0.0000000001
 40
0.0
 40
0.0
 40
0.0
 40
0.0
 40
0.200187844
 40
0.4276675533
 40
0.6956750748
 40
1.0
 40
1.0
 40
1.0
 40
1.0
 10
59.8325436686
 20
36.8687132704
 30
0.0
 10
59.8397692122
 20
36.8645381679
 30
0.0
 10
59.8529635286
 20
36.8513955799
 30
0.0
 10
59.8630528231
 20
36.8235325084
 30
0.0
 10
59.8645724663
 20
36.7898838367
 30
0.0
 10
59.860386259
 20
36.7662099882
 30
0.0
 10
59.857086422
 20
36.7539605427
 30
0.0
  0
SPLINE
  5
3EF
100
AcDbEntity
  8
0
100
AcDbSpline
 62
7
  6
BYLAYER
 70
0
 71
3
 72
13
 73
9
 74
0
 42
0.0000001
 43
0.0000001
 44
0.0000000001
 40
0.0
 40
0.0
 40
0.0
 40
0.0
 40
0.2771873881
 40
0.5672408717
 40
0.69895197
 40
0.8144994825
 40
0.9130299759
 40
1.0
 40
1.0
 40
1.0
 40
1.0
 10
61.3056597191
 20
44.704083749
 30
0.0
 10
61.3033093574
 20
44.6779418355
 30
0.0
 10
61.2869608118
 20
44.6253891973
 30
0.0
 10
61.2480761611
 20
44.5703586724
 30
0.0
 10
61.2086950976
 20
44.5376703987
 30
0.0
 10
61.1791422129
 20
44.5227502025
 30
0.0
 10
61.1504490136
 20
44.5179136891
 30
0.0
 10
61.1327480679
 20
44.5226896872
 30
0.0
 10
61.1256155768
 20
44.5268065378
 30
0.0
  0
SPLINE
  5
3F0
100
AcDbEntity
  8
0
100
AcDbSpline
 62
7
  6
BYLAYER
 70
0
 71
3
 72
11
 73
7
 74
0
 42
0.0000001
 43
0.0000001
 44
0.0000000001
 40
0.0
 40
0.0
 40
0.0
 40
0.0
 40
0.2770047589
 40
0.5324792699
 40
0.7708875734
 40
1.0
 40
1.0
 40
1.0
 40
1.0
 10
61.296303104
 20
38.1956514652
 30
0.0
 10
61.3127804393
 20
38.1119536634
 30
0.0
 10
61.356663971
 20
37.9530132486
 30
0.0
 10
61.461529223
 20
37.7382755939
 30
0.0
 10
61.6013952478
 20
37.5625594753
 30
0.0
 10
61.7172815304
 20
37.4741235344
 30
0.0
 10
61.7783821733
 20
37.438841467
 30
0.0
  0
SPLINE
  5
3F1
100
AcDbEntity
  8
0
100
AcDbSpline
 62
7
  6
BYLAYER
 70
0
 71
3
 72
13
 73
9
 74
0
 42
0.0000001
 43
0.0000001
 44
0.0000000001
 40
0.0
 40
0.0
 40
0.0
 40
0.0
 40
0.2832196472
 40
0.5716645975
 40
0.7014505632
 40
0.8153148785
 40
0.9130397291
 40
1.0
 40
1.0
 40
1.0
 40
1.0
 10
61.5952410681
 20
44.8132496069
 30
0.0
 10
61.5911703636
 20
44.7878845683
 30
0.0
 10
61.5732678479
 20
44.7380824918
 30
0.0
 10
61.5342385721
 20
44.6864086509
 30
0.0
 10
61.4959878701
 20
44.656512518
 30
0.0
 10
61.4676527765
 20
44.6432190045
 30
0.0
 10
61.4403084416
 20
44.6392783883
 30
0.0
 10
61.4235466467
 20
44.6440526168
 30
0.0
 10
61.4167092306
 20
44.6479854093
 30
0.0
  0
SPLINE
  5
3F2
100
AcDbEntity
  8
0
100
AcDbSpline
 62
7
  6
BYLAYER
 70
0
 71
3
 72
9
 73
5
 74
0
 42
0.0000001
 43
0.0000001
 44
0.0000000001
 40
0.0
 40
0.0
 40
0.0
 40
0.0
 40
0.2410265301
 40
1.0
 40
1.0
 40
1.0
 40
1.0
 10
61.8789507364
 20
44.8884199657
 30
0.0
 10
61.8778180832
 20
44.8834442684
 30
0.0
 10
61.8723826819
 20
44.8629744809
 30
0.0
 10
61.8642337954
 20
44.8432296951
 30
0.0
 10
61.8566922755
 20
44.8290404384
 30
0.0
  0
SPLINE
  5
3F3
100
AcDbEntity
  8
0
100
AcDbSpline
 62
7
  6
BYLAYER
 70
0
 71
3
 72
13
 73
9
 74
0
 42
0.0000001
 43
0.0000001
 44
0.0000000001
 40
0.0
 40
0.0
 40
0.0
 40
0.0
 40
0.3054364978
 40
0.5831093493
 40
0.7045056311
 40
0.812847639
 40
0.9098068103
 40
1.0
 40
1.0
 40
1.0
 40
1.0
 10
61.8566922755
 20
44.8290404384
 30
0.0
 10
61.8472993407
 20
44.8113677722
 30
0.0
 10
61.8252478647
 20
44.7797101579
 30
0.0
 10
61.7901485575
 20
44.7486760751
 30
0.0
 10
61.7602979342
 20
44.7336138774
 30
0.0
 10
61.7394008234
 20
44.7281214465
 30
0.0
 10
61.7197592508
 20
44.7282968793
 30
0.0
 10
61.7079386052
 20
44.7325259443
 30
0.0
 10
61.7028169858
 20
44.7354748648
 30
0.0
  0
SPLINE
  5
3F4
100
AcDbEntity
  8
0
100
AcDbSpline
 62
7
  6
BYLAYER
 70
0
 71
3
 72
17
 73
13
 74
0
 42
0.0000001
 43
0.0000001
 44
0.0000000001
 40
0.0
 40
0.0
 40
0.0
 40
0.0
 40
0.1433767533
 40
0.2915169259
 40
0.4381773761
 40
0.5773993453
 40
0.7042060617
 40
0.7620382827
 40
0.8159203642
 40
0.9125332725
 40
0.9569317802
 40
1.0
 40
1.0
 40
1.0
 40
1.0
 10
64.0283425369
 20
39.7729857518
 30
0.0
 10
63.9977534445
 20
39.6554205491
 30
0.0
 10
63.9152300821
 20
39.4213597497
 30
0.0
 10
63.7414690661
 20
39.0919411542
 30
0.0
 10
63.524379655
 20
38.7934278348
 30
0.0
 10
63.2772747973
 20
38.5440445016
 30
0.0
 10
63.0514840621
 20
38.3846303908
 30
0.0
 10
62.8684896013
 20
38.2975827852
 30
0.0
 10
62.7005349559
 20
38.2426297731
 30
0.0
 10
62.5323424123
 20
38.2255682801
 30
0.0
 10
62.3784846633
 20
38.2565781198
 30
0.0
 10
62.3099634954
 20
38.2866055702
 30
0.0
 10
62.2783617992
 20
38.3048510568
 30
0.0
  0
SPLINE
  5
3F5
100
AcDbEntity
  8
0
100
AcDbSpline
 62
7
  6
BYLAYER
 70
0
 71
3
 72
9
 73
5
 74
0
 42
0.0000001
 43
0.0000001
 44
0.0000000001
 40
0.0
 40
0.0
 40
0.0
 40
0.0
 40
0.2434120245
 40
1.0
 40
1.0
 40
1.0
 40
1.0
 10
62.1543682133
 20
44.9289534983
 30
0.0
 10
62.1528996645
 20
44.9239360656
 30
0.0
 10
62.1461729115
 20
44.9035333546
 30
0.0
 10
62.1368679196
 20
44.8839738734
 30
0.0
 10
62.1284867902
 20
44.8700522434
 30
0.0
  0
SPLINE
  5
3F6
100
AcDbEntity
  8
0
100
AcDbSpline
 62
7
  6
BYLAYER
 70
0
 71
3
 72
13
 73
9
 74
0
 42
0.0000001
 43
0.0000001
 44
0.0000000001
 40
0.0
 40
0.0
 40
0.0
 40
0.0
 40
0.306858291
 40
0.5824915898
 40
0.7029878882
 40
0.8110448877
 40
0.9086220388
 40
1.0
 40
1.0
 40
1.0
 40
1.0
 10
62.1284867902
 20
44.8700522434
 30
0.0
 10
62.1188433546
 20
44.8540338363
 30
0.0
 10
62.0970590107
 20
44.8256085149
 30
0.0
 10
62.0633185328
 20
44.7982262019
 30
0.0
 10
62.0352285675
 20
44.7853699718
 30
0.0
 10
62.0156641376
 20
44.7809938283
 30
0.0
 10
61.9973378925
 20
44.7816371931
 30
0.0
 10
61.9863122064
 20
44.7857307438
 30
0.0
 10
61.9814913811
 20
44.7885163391
 30
0.0
  0
SPLINE
  5
3F7
100
AcDbEntity
  8
0
100
AcDbSpline
 62
7
  6
BYLAYER
 70
0
 71
3
 72
9
 73
5
 74
0
 42
0.0000001
 43
0.0000001
 44
0.0000000001
 40
0.0
 40
0.0
 40
0.0
 40
0.0
 40
0.2458212406
 40
1.0
 40
1.0
 40
1.0
 40
1.0
 10
62.419143734
 20
44.9345043869
 30
0.0
 10
62.4173539499
 20
44.9294883654
 30
0.0
 10
62.4094180032
 20
44.9093251277
 30
0.0
 10
62.3990252437
 20
44.8901108816
 30
0.0
 10
62.3898601598
 20
44.8765839291
 30
0.0
  0
SPLINE
  5
3F8
100
AcDbEntity
  8
0
100
AcDbSpline
 62
7
  6
BYLAYER
 70
0
 71
3
 72
11
 73
7
 74
0
 42
0.0000001
 43
0.0000001
 44
0.0000000001
 40
0.0
 40
0.0
 40
0.0
 40
0.0
 40
0.3085247105
 40
0.5829649023
 40
0.8102675715
 40
1.0
 40
1.0
 40
1.0
 40
1.0
 10
62.3898601598
 20
44.8765839291
 30
0.0
 10
62.3801407983
 20
44.8622389059
 30
0.0
 10
62.3588144721
 20
44.8369655282
 30
0.0
 10
62.3218436057
 20
44.8096590268
 30
0.0
 10
62.28416159
 20
44.796767458
 30
0.0
 10
62.2595733446
 20
44.8013132019
 30
0.0
 10
62.2503531024
 20
44.8066550428
 30
0.0
  0
SPLINE
  5
3F9
100
AcDbEntity
  8
0
100
AcDbSpline
 62
7
  6
BYLAYER
 70
0
 71
3
 72
9
 73
5
 74
0
 42
0.0000001
 43
0.0000001
 44
0.0000000001
 40
0.0
 40
0.0
 40
0.0
 40
0.0
 40
0.2482488485
 40
1.0
 40
1.0
 40
1.0
 40
1.0
 10
62.671018327
 20
44.9050252733
 30
0.0
 10
62.6689246021
 20
44.9000534308
 30
0.0
 10
62.6598702173
 20
44.8802963978
 30
0.0
 10
62.6484678031
 20
44.8615857633
 30
0.0
 10
62.6385824389
 20
44.8485797696
 30
0.0
  0
SPLINE
  5
3FA
100
AcDbEntity
  8
0
100
AcDbSpline
 62
7
  6
BYLAYER
 70
0
 71
3
 72
11
 73
7
 74
0
 42
0.0000001
 43
0.0000001
 44
0.0000000001
 40
0.0
 40
0.0
 40
0.0
 40
0.0
 40
0.308320282
 40
0.5805556294
 40
0.8074752757
 40
1.0
 40
1.0
 40
1.0
 40
1.0
 10
62.6385824389
 20
44.8485797696
 30
0.0
 10
62.6289475821
 20
44.8359033639
 30
0.0
 10
62.6083157118
 20
44.8137625791
 30
0.0
 10
62.5733135584
 20
44.7903365693
 30
0.0
 10
62.5381980525
 20
44.7800382668
 30
0.0
 10
62.5157187244
 20
44.7847657752
 30
0.0
 10
62.5071124477
 20
44.7897440954
 30
0.0
  0
SPLINE
  5
3FB
100
AcDbEntity
  8
0
100
AcDbSpline
 62
7
  6
BYLAYER
 70
0
 71
3
 72
10
 73
6
 74
0
 42
0.0000001
 43
0.0000001
 44
0.0000000001
 40
0.0
 40
0.0
 40
0.0
 40
0.0
 40
0.5550935267
 40
0.7970955845
 40
1.0
 40
1.0
 40
1.0
 40
1.0
 10
62.9078430871
 20
44.8407676628
 30
0.0
 10
62.8938122634
 20
44.8119402209
 30
0.0
 10
62.8661508966
 20
44.7729885756
 30
0.0
 10
62.8183570986
 20
44.7398109815
 30
0.0
 10
62.7931586194
 20
44.7318000197
 30
0.0
 10
62.7814634003
 20
44.7310508049
 30
0.0
  0
SPLINE
  5
3FC
100
AcDbEntity
  8
0
100
AcDbSpline
 62
7
  6
BYLAYER
 70
0
 71
3
 72
9
 73
5
 74
0
 42
0.0000001
 43
0.0000001
 44
0.0000000001
 40
0.0
 40
0.0
 40
0.0
 40
0.0
 40
0.2642116578
 40
1.0
 40
1.0
 40
1.0
 40
1.0
 10
62.7814634003
 20
44.7310508049
 30
0.0
 10
62.7785740439
 20
44.730865708
 30
0.0
 10
62.7676157847
 20
44.7308286021
 30
0.0
 10
62.7565734238
 20
44.7339161041
 30
0.0
 10
62.7495870054
 20
44.7379410689
 30
0.0
  0
SPLINE
  5
3FD
100
AcDbEntity
  8
0
100
AcDbSpline
 62
7
  6
BYLAYER
 70
0
 71
3
 72
11
 73
7
 74
0
 42
0.0000001
 43
0.0000001
 44
0.0000000001
 40
0.0
 40
0.0
 40
0.0
 40
0.0
 40
0.2915301221
 40
0.5645673191
 40
0.8023126913
 40
1.0
 40
1.0
 40
1.0
 40
1.0
 10
63.1275975089
 20
44.7422797788
 30
0.0
 10
63.1196459204
 20
44.7279481534
 30
0.0
 10
63.1018298216
 20
44.7014270742
 30
0.0
 10
63.0693936049
 20
44.6695377417
 30
0.0
 10
63.0347460404
 20
44.6490473562
 30
0.0
 10
63.0099073472
 20
44.6440288968
 30
0.0
 10
62.9988202404
 20
44.6448003999
 30
0.0
  0
SPLINE
  5
3FE
100
AcDbEntity
  8
0
100
AcDbSpline
 62
7
  6
BYLAYER
 70
0
 71
3
 72
9
 73
5
 74
0
 42
0.0000001
 43
0.0000001
 44
0.0000000001
 40
0.0
 40
0.0
 40
0.0
 40
0.0
 40
0.2583737391
 40
1.0
 40
1.0
 40
1.0
 40
1.0
 10
62.9988202404
 20
44.6448003999
 30
0.0
 10
62.9967380489
 20
44.6449452905
 30
0.0
 10
62.9887151038
 20
44.6459166092
 30
0.0
 10
62.9808944871
 20
44.6486889062
 30
0.0
 10
62.9757042701
 20
44.651681378
 30
0.0
  0
SPLINE
  5
3FF
100
AcDbEntity
  8
0
100
AcDbSpline
 62
7
  6
BYLAYER
 70
0
 71
3
 72
13
 73
9
 74
0
 42
0.0000001
 43
0.0000001
 44
0.0000000001
 40
0.0
 40
0.0
 40
0.0
 40
0.0
 40
0.3072555474
 40
0.5824389985
 40
0.7026715557
 40
0.8106459178
 40
0.9083418643
 40
1.0
 40
1.0
 40
1.0
 40
1.0
 10
63.3284067253
 20
44.6104018852
 30
0.0
 10
63.3186568024
 20
44.5948479209
 30
0.0
 10
63.2973148045
 20
44.5670097673
 30
0.0
 10
63.2639462202
 20
44.5404554378
 30
0.0
 10
63.2362742557
 20
44.5282626078
 30
0.0
 10
63.2170690957
 20
44.5241638824
 30
0.0
 10
63.1990907269
 20
44.5249069043
 30
0.0
 10
63.1882703679
 20
44.5289496821
 30
0.0
 10
63.183529324
 20
44.531690312
 30
0.0
  0
SPLINE
  5
400
100
AcDbEntity
  8
0
100
AcDbSpline
 62
7
  6
BYLAYER
 70
0
 71
3
 72
12
 73
8
 74
0
 42
0.0000001
 43
0.0000001
 44
0.0000000001
 40
0.0
 40
0.0
 40
0.0
 40
0.0
 40
0.2894832083
 40
0.5486755374
 40
0.7816290778
 40
0.8918324007
 40
1.0
 40
1.0
 40
1.0
 40
1.0
 10
19.222937499
 20
45.706714288
 30
0.0
 10
19.222937499
 20
45.8105836182
 30
0.0
 10
19.2387354242
 20
46.0081490988
 30
0.0
 10
19.3185334956
 20
46.2794512006
 30
0.0
 10
19.433378046
 20
46.4666428252
 30
0.0
 10
19.549313179
 20
46.5806227619
 30
0.0
 10
19.6139101373
 20
46.625761184
 30
0.0
 10
19.6475205215
 20
46.645169419
 30
0.0
  0
SPLINE
  5
401
100
AcDbEntity
  8
0
100
AcDbSpline
 62
7
  6
BYLAYER
 70
0
 71
3
 72
11
 73
7
 74
0
 42
0.0000001
 43
0.0000001
 44
0.0000000001
 40
0.0
 40
0.0
 40
0.0
 40
0.0
 40
0.3087019647
 40
0.5827555173
 40
0.8097657392
 40
1.0
 40
1.0
 40
1.0
 40
1.0
 10
63.5085575029
 20
44.4462591176
 30
0.0
 10
63.49877867
 20
44.4323780908
 30
0.0
 10
63.4778897496
 20
44.4076937307
 30
0.0
 10
63.4414338726
 20
44.3812237405
 30
0.0
 10
63.4043628607
 20
44.3692100655
 30
0.0
 10
63.3803449414
 20
44.3737510995
 30
0.0
 10
63.3712883098
 20
44.3789915953
 30
0.0
  0
SPLINE
  5
402
100
AcDbEntity
  8
0
100
AcDbSpline
 62
7
  6
BYLAYER
 70
0
 71
3
 72
11
 73
7
 74
0
 42
0.0000001
 43
0.0000001
 44
0.0000000001
 40
0.0
 40
0.0
 40
0.0
 40
0.0
 40
0.2042450657
 40
0.432707098
 40
0.6986504937
 40
1.0
 40
1.0
 40
1.0
 40
1.0
 10
60.1112180639
 20
36.9217547447
 30
0.0
 10
60.1178451679
 20
36.9179389979
 30
0.0
 10
60.1300233317
 20
36.9063312064
 30
0.0
 10
60.14037701
 20
36.8817443119
 30
0.0
 10
60.1434188368
 20
36.8518001075
 30
0.0
 10
60.1409692864
 20
36.8305473601
 30
0.0
 10
60.138717039
 20
36.8194916429
 30
0.0
  0
SPLINE
  5
403
100
AcDbEntity
  8
0
100
AcDbSpline
 62
7
  6
BYLAYER
 70
0
 71
3
 72
11
 73
7
 74
0
 42
0.0000001
 43
0.0000001
 44
0.0000000001
 40
0.0
 40
0.0
 40
0.0
 40
0.0
 40
0.3082584671
 40
0.5802525251
 40
0.8069009568
 40
1.0
 40
1.0
 40
1.0
 40
1.0
 10
63.6665128585
 20
44.2512518843
 30
0.0
 10
63.6568625533
 20
44.2390349825
 30
0.0
 10
63.6366570682
 20
44.2174848617
 30
0.0
 10
63.6022610893
 20
44.1947626757
 30
0.0
 10
63.567751627
 20
44.1853095432
 30
0.0
 10
63.5458348041
 20
44.1900281012
 30
0.0
 10
63.5373851973
 20
44.1948978801
 30
0.0
  0
SPLINE
  5
404
100
AcDbEntity
  8
0
100
AcDbSpline
 62
7
  6
BYLAYER
 70
0
 71
3
 72
11
 73
7
 74
0
 42
0.0000001
 43
0.0000001
 44
0.0000000001
 40
0.0
 40
0.0
 40
0.0
 40
0.0
 40
0.3069732782
 40
0.5769437689
 40
0.8036446134
 40
1.0
 40
1.0
 40
1.0
 40
1.0
 10
63.800925173
 20
44.0270439183
 30
0.0
 10
63.7915459518
 20
44.0164594363
 30
0.0
 10
63.7722118415
 20
43.9979357516
 30
0.0
 10
63.7400295959
 20
43.9787885626
 30
0.0
 10
63.7081425378
 20
43.9716447525
 30
0.0
 10
63.6882533269
 20
43.9764848192
 30
0.0
 10
63.6804091927
 20
43.9809904105
 30
0.0
  0
SPLINE
  5
405
100
AcDbEntity
  8
0
100
AcDbSpline
 62
7
  6
BYLAYER
 70
0
 71
3
 72
11
 73
7
 74
0
 42
0.0000001
 43
0.0000001
 44
0.0000000001
 40
0.0
 40
0.0
 40
0.0
 40
0.0
 40
0.2087037424
 40
0.4385724316
 40
0.7024423528
 40
1.0
 40
1.0
 40
1.0
 40
1.0
 10
60.3973258191
 20
37.0092442002
 30
0.0
 10
60.4033551466
 20
37.0057762097
 30
0.0
 10
60.4144996028
 20
36.9956008397
 30
0.0
 10
60.4248884504
 20
36.9741585925
 30
0.0
 10
60.429174111
 20
36.947870127
 30
0.0
 10
60.428234028
 20
36.9290541989
 30
0.0
 10
60.4269025248
 20
36.9192271683
 30
0.0
  0
SPLINE
  5
406
100
AcDbEntity
  8
0
100
AcDbSpline
 62
7
  6
BYLAYER
 70
0
 71
3
 72
11
 73
7
 74
0
 42
0.0000001
 43
0.0000001
 44
0.0000000001
 40
0.0
 40
0.0
 40
0.0
 40
0.0
 40
0.3048402005
 40
0.5728307215
 40
0.7999940408
 40
1.0
 40
1.0
 40
1.0
 40
1.0
 10
63.9106476878
 20
43.7755480827
 30
0.0
 10
63.901666431
 20
43.7665426604
 30
0.0
 10
63.8833736321
 20
43.7509114746
 30
0.0
 10
63.8535350261
 20
43.7351302482
 30
0.0
 10
63.8243203253
 20
43.7300575688
 30
0.0
 10
63.8063646678
 20
43.7349176949
 30
0.0
 10
63.7991326864
 20
43.7390807818
 30
0.0
  0
SPLINE
  5
407
100
AcDbEntity
  8
0
100
AcDbSpline
 62
7
  6
BYLAYER
 70
0
 71
3
 72
11
 73
7
 74
0
 42
0.0000001
 43
0.0000001
 44
0.0000000001
 40
0.0
 40
0.0
 40
0.0
 40
0.0
 40
0.2135182033
 40
0.4452292588
 40
0.707005324
 40
1.0
 40
1.0
 40
1.0
 40
1.0
 10
60.6884194759
 20
37.1304230772
 30
0.0
 10
60.6938490102
 20
37.1272891824
 30
0.0
 10
60.703965822
 20
37.118471229
 30
0.0
 10
60.7141499886
 20
37.1000083366
 30
0.0
 10
60.7193967133
 20
37.0772978695
 30
0.0
 10
60.7197272792
 20
37.0609046184
 30
0.0
 10
60.7191837463
 20
37.0523192528
 30
0.0
  0
SPLINE
  5
408
100
AcDbEntity
  8
0
100
AcDbSpline
 62
7
  6
BYLAYER
 70
0
 71
3
 72
11
 73
7
 74
0
 42
0.0000001
 43
0.0000001
 44
0.0000000001
 40
0.0
 40
0.0
 40
0.0
 40
0.0
 40
0.3018573945
 40
0.5679055088
 40
0.7959459024
 40
1.0
 40
1.0
 40
1.0
 40
1.0
 10
63.9947442891
 20
43.4989100515
 30
0.0
 10
63.9862718807
 20
43.4914104172
 30
0.0
 10
63.9691713046
 20
43.4785106789
 30
0.0
 10
63.9417848174
 20
43.4658622119
 30
0.0
 10
63.9152697126
 20
43.4626086453
 30
0.0
 10
63.899156528
 20
43.4673909505
 30
0.0
 10
63.8925355633
 20
43.471220686
 30
0.0
  0
SPLINE
  5
409
100
AcDbEntity
  8
0
100
AcDbSpline
 62
7
  6
BYLAYER
 70
0
 71
3
 72
11
 73
7
 74
0
 42
0.0000001
 43
0.0000001
 44
0.0000000001
 40
0.0
 40
0.0
 40
0.0
 40
0.0
 40
0.2186116406
 40
0.452575031
 40
0.7122545754
 40
1.0
 40
1.0
 40
1.0
 40
1.0
 10
60.9820134691
 20
37.2842541212
 30
0.0
 10
60.9868515171
 20
37.2814594222
 30
0.0
 10
60.9959365924
 20
37.2739051421
 30
0.0
 10
61.0056950649
 20
37.2582457843
 30
0.0
 10
61.0116063689
 20
37.238992435
 30
0.0
 10
61.012961326
 20
37.2249766484
 30
0.0
 10
61.0130683681
 20
37.2176233011
 30
0.0
  0
SPLINE
  5
40A
100
AcDbEntity
  8
0
100
AcDbSpline
 62
7
  6
BYLAYER
 70
0
 71
3
 72
11
 73
7
 74
0
 42
0.0000001
 43
0.0000001
 44
0.0000000001
 40
0.0
 40
0.0
 40
0.0
 40
0.0
 40
0.2980400539
 40
0.5621652522
 40
0.7915278573
 40
1.0
 40
1.0
 40
1.0
 40
1.0
 10
64.0524974943
 20
43.1994900028
 30
0.0
 10
64.0446285824
 20
43.1934046459
 30
0.0
 10
64.0288519974
 20
43.1830482996
 30
0.0
 10
64.0040032953
 20
43.1732817814
 30
0.0
 10
63.9801907931
 20
43.1715713913
 30
0.0
 10
63.9658350797
 20
43.1761973491
 30
0.0
 10
63.9598186259
 20
43.1796924894
 30
0.0
  0
SPLINE
  5
40B
100
AcDbEntity
  8
0
100
AcDbSpline
 62
7
  6
BYLAYER
 70
0
 71
3
 72
11
 73
7
 74
0
 42
0.0000001
 43
0.0000001
 44
0.0000000001
 40
0.0
 40
0.0
 40
0.0
 40
0.0
 40
0.2934405736
 40
0.5556371635
 40
0.7868004876
 40
1.0
 40
1.0
 40
1.0
 40
1.0
 10
64.0834145735
 20
42.8798424828
 30
0.0
 10
64.0762274462
 20
42.875063305
 30
0.0
 10
64.06188724
 20
42.8670364315
 30
0.0
 10
64.0396391726
 20
42.8598855152
 30
0.0
 10
64.0185076173
 20
42.8594244257
 30
0.0
 10
64.0058325377
 20
42.8638366868
 30
0.0
 10
64.0004116282
 20
42.8669891555
 30
0.0
  0
SPLINE
  5
40C
100
AcDbEntity
  8
0
100
AcDbSpline
 62
7
  6
BYLAYER
 70
0
 71
3
 72
11
 73
7
 74
0
 42
0.0000001
 43
0.0000001
 44
0.0000000001
 40
0.0
 40
0.0
 40
0.0
 40
0.0
 40
0.2881508776
 40
0.548392707
 40
0.7818410833
 40
1.0
 40
1.0
 40
1.0
 40
1.0
 10
64.0872317531
 20
42.5426946115
 30
0.0
 10
64.080788273
 20
42.5390985122
 30
0.0
 10
64.0679763369
 20
42.5331645831
 30
0.0
 10
64.0483677159
 20
42.5283382983
 30
0.0
 10
64.0298757306
 20
42.5288423635
 30
0.0
 10
64.0188004196
 20
42.5329758428
 30
0.0
 10
64.0139717237
 20
42.5357855823
 30
0.0
  0
ENDSEC
  0
SECTION
  2
OBJECTS
  0
DICTIONARY
  5
C
100
AcDbDictionary
280
0
281
1
  3
ACAD_GROUP
350
D
  3
ACAD_MLINESTYLE
350
17
  3
ACAD_LAYOUT
350
1A
  3
ACAD_PLOTSETTINGS
350
19
  3
ACAD_PLOTSTYLENAME
350
E
  0
DICTIONARY
  5
D
102
{ACAD_REACTORS
330
C
102
}
100
AcDbDictionary
280
0
281
1
  0
ACDBDICTIONARYWDFLT
  5
E
102
{ACAD_REACTORS
330
C
102
}
100
AcDbDictionary
281
1
  3
Normal
350
F
100
AcDbDictionaryWithDefault
340
F
  0
DICTIONARY
  5
17
102
{ACAD_REACTORS
330
C
102
}
100
AcDbDictionary
280
0
281
1
  3
Standard
350
18
  0
DICTIONARY
  5
19
102
{ACAD_REACTORS
330
C
102
}
100
AcDbDictionary
281
1
  0
DICTIONARY
  5
1A
102
{ACAD_REACTORS
330
C
102
}
100
AcDbDictionary
281
1
  3
Model
350
40D
  3
Layout1
350
40E
  0
ACDBPLACEHOLDER
  5
F
102
{ACAD_REACTORS
330
E
102
}
  0
MLINESTYLE
  5
18
102
{ACAD_REACTORS
330
17
102
}
100
AcDbMlineStyle
  2
STANDARD
 70
0
  3

 62
256
 51
90.0
 52
90.0
 71
2
 49
0.5
 62
256
  6
BYLAYER
 49
-0.5
 62
256
  6
BYLAYER
  0
LAYOUT
  5
40D
102
{ACAD_REACTORS
330
1A
102
}
100
AcDbPlotSettings
  1

  2
none_device
  4

  6

 40
0.0
 41
0.0
 42
0.0
 43
0.0
 44
210.0
 45
297.0
 46
0.0
 47
0.0
 48
0.0
 49
0.0
140
0.0
141
0.0
142
1.0
143
1.0
 70
1024
 72
1
 73
0
 74
0
  7

 75
0
147
1.0
148
0.0
149
0.0
100
AcDbLayout
  1
Model
 70
0
 71
0
 10
0.0
 20
0.0
 11
210.0
 21
297.0
 12
0.0
 22
0.0
 32
0.0
 14
0.0
 24
0.0
 34
0.0
 15
0.0
 25
0.0
 35
0.0
146
0.0
 13
0.0
 23
0.0
 33
0.0
 16
1.0
 26
0.0
 36
0.0
 17
0.0
 27
1.0
 37
0.0
 76
0
330
210
345
0
346
0
  0
LAYOUT
  5
40E
102
{ACAD_REACTORS
330
1A
102
}
100
AcDbPlotSettings
  1

  2
none_device
  4

  6

 40
0.0
 41
0.0
 42
0.0
 43
0.0
 44
210.0
 45
297.0
 46
0.0
 47
0.0
 48
0.0
 49
0.0
140
0.0
141
0.0
142
1.0
143
1.0
 70
0
 72
1
 73
0
 74
0
  7

 75
0
147
1.0
148
0.0
149
0.0
100
AcDbLayout
  1
Layout1
 70
0
 71
1
 10
0.0
 20
0.0
 11
210.0
 21
297.0
 12
0.0
 22
0.0
 32
0.0
 14
0.0
 24
0.0
 34
0.0
 15
0.0
 25
0.0
 35
0.0
146
0.0
 13
0.0
 23
0.0
 33
0.0
 16
1.0
 26
0.0
 36
0.0
 17
0.0
 27
1.0
 37
0.0
 76
0
330
211
345
0
346
0
  0
ENDSEC
  0
EOF
