999
DXF file: C:\Users\sesa63760\Dev\_Creo\CAD\MCADID0004676_3D-CAD\drw0001_1.dxf
999
Pro/ENGINEER 2019471 by Parametric Technology Corporation
  0
SECTION
  2
HEADER
  9
$ACADVER
  1
AC1024
  9
$DWGCODEPAGE
  3
ANSI_1252
  9
$EXTMAX
 10
65.4905305137
 20
92.6223217265
 30
0.0
  9
$EXTMIN
 10
0.0
 20
0.0
 30
0.0
  9
$LIMMIN
 10
0.0
 20
0.0
  9
$LIMMAX
 10
65.4905305137
 20
92.6223217265
  9
$VIEWCTR
 10
32.7452652569
 20
46.3111608633
  9
$VIEWSIZE
 40
92.6223217265
  9
$CLAYER
  8
0
  9
$LTSCALE
 40
6.037603194
  9
$CELTYPE
  6
BYLAYER
  9
$DIMSCALE
 40
1.0
  9
$DIMASZ
 40
0.7796491728
  9
$DIMEXO
 40
1.0
  9
$DIMDLI
 40
4.1714349341
  9
$DIMEXE
 40
1.0
  9
$DIMCEN
 40
0.9879714317
  9
$DIMLFAC
 40
1.0
  9
$DIMBLK
  1
_FILLED
  9
$DIMALT
 70
0
  9
$DIMALTF
 40
0.0393700787
  9
$DIMTXT
 40
1.0915088419
  9
$DIMTOL
 70
1
  9
$DIMLIM
 70
0
  9
$DIMTFAC
 40
1.0
  9
$DIMTP
 40
0.01
  9
$DIMTM
 40
0.01
  9
$DIMGAP
 40
0.625
  9
$DIMDSEP
 70
46
  9
$AUNITS
 70
0
  9
$PDMODE
 70
3
  9
$PDSIZE
 40
0.3125
  9
$HANDSEED
  5
394
  9
$TILEMODE
 70
1
  9
$MEASUREMENT
 70
1
  9
$INSUNITS
 70
4
  0
ENDSEC
  0
SECTION
  2
CLASSES
  0
CLASS
  1
ACDBDICTIONARYWDFLT
  2
AcDbDictionaryWithDefault
  3
AutoCAD 2000
 90
0
 91
1
280
0
281
0
  0
CLASS
  1
ACDBPLACEHOLDER
  2
AcDbPlaceHolder
  3
AutoCAD 2000
 90
0
 91
1
280
0
281
0
  0
CLASS
  1
LAYOUT
  2
AcDbLayout
  3
AutoCAD 2000
 90
0
 91
0
280
0
281
0
  0
ENDSEC
  0
SECTION
  2
TABLES
  0
TABLE
  2
VPORT
  5
8
100
AcDbSymbolTable
 70
2
  0
VPORT
  5
1F4
100
AcDbSymbolTableRecord
100
AcDbViewportTableRecord
  2
*ACTIVE
 70
0
 10
0.0
 20
0.0
 11
1.0
 21
1.0
 12
32.7452652569
 22
46.3111608633
 13
0.0
 23
0.0
 14
1.0
 24
1.0
 15
0.0
 25
0.0
 16
0.0
 26
0.0
 36
1.0
 17
0.0
 27
0.0
 37
0.0
 40
92.6223217265
 41
0.7070707071
 42
50.0
 43
0.0
 44
0.0
 50
0.0
 51
0.0
 71
0
 72
100
 73
1
 74
1
 75
0
 76
0
 77
0
 78
0
  0
ENDTAB
  0
TABLE
  2
LTYPE
  5
5
100
AcDbSymbolTable
 70
6
  0
LTYPE
  5
14
100
AcDbSymbolTableRecord
100
AcDbLinetypeTableRecord
  2
BYBLOCK
 70
0
  3

 72
65
 73
0
 40
0.0
  0
LTYPE
  5
15
100
AcDbSymbolTableRecord
100
AcDbLinetypeTableRecord
  2
BYLAYER
 70
0
  3

 72
65
 73
0
 40
0.0
  0
LTYPE
  5
16
100
AcDbSymbolTableRecord
100
AcDbLinetypeTableRecord
  2
CONTINUOUS
 70
64
  3
Solid line
 72
65
 73
0
 40
0.0
  0
LTYPE
  5
1F5
100
AcDbSymbolTableRecord
100
AcDbLinetypeTableRecord
  2
CENTER
 70
64
  3
____ _ ____ _ ____ _ ____ _ ____ _ ____ _ ____
 72
65
 73
4
 40
0.6
 49
0.375
 74
0
 49
-0.075
 74
0
 49
0.075
 74
0
 49
-0.075
 74
0
  0
LTYPE
  5
1F6
100
AcDbSymbolTableRecord
100
AcDbLinetypeTableRecord
  2
HIDDEN
 70
64
  3
- - - - - - - - - - - - - - - - - - - -
 72
65
 73
2
 40
0.2
 49
0.1
 74
0
 49
-0.1
 74
0
  0
LTYPE
  5
1F7
100
AcDbSymbolTableRecord
100
AcDbLinetypeTableRecord
  2
PHANTOM
 70
64
  3
_____ _ _ _____ _ _ _____ _ _ _____
 72
65
 73
6
 40
0.8
 49
0.45
 74
0
 49
-0.05
 74
0
 49
0.1
 74
0
 49
-0.05
 74
0
 49
0.1
 74
0
 49
-0.05
 74
0
  0
LTYPE
  5
1F8
100
AcDbSymbolTableRecord
100
AcDbLinetypeTableRecord
  2
DOT
 70
64
  3
. . . . . . . . . . . . . . . . . . . .
 72
65
 73
2
 40
0.2
 49
0.1
 74
0
 49
-0.1
 74
0
  0
LTYPE
  5
1F9
100
AcDbSymbolTableRecord
100
AcDbLinetypeTableRecord
  2
DASHED
 70
64
  3
- - - - - - - - - - - - - - - - - - - -
 72
65
 73
2
 40
0.2
 49
0.1
 74
0
 49
-0.1
 74
0
  0
ENDTAB
  0
TABLE
  2
LAYER
  5
2
100
AcDbSymbolTable
 70
36
  0
LAYER
  5
10
100
AcDbSymbolTableRecord
100
AcDbLayerTableRecord
  2
0
 70
0
 62
7
  6
CONTINUOUS
370
-3
390
F
  0
LAYER
  5
1FA
100
AcDbSymbolTableRecord
100
AcDbLayerTableRecord
  2
DEFAULT_1
 70
0
 62
7
  6
CENTER
370
-3
390
F
  0
LAYER
  5
1FB
100
AcDbSymbolTableRecord
100
AcDbLayerTableRecord
  2
DEFAULT_2
 70
0
 62
7
  6
HIDDEN
370
-3
390
F
  0
LAYER
  5
1FC
100
AcDbSymbolTableRecord
100
AcDbLayerTableRecord
  2
DEFAULT_3
 70
0
 62
7
  6
PHANTOM
370
-3
390
F
  0
LAYER
  5
1FD
100
AcDbSymbolTableRecord
100
AcDbLayerTableRecord
  2
00_COMPONENTS
 70
0
 62
7
  6
CONTINUOUS
370
-3
390
F
  0
LAYER
  5
1FE
100
AcDbSymbolTableRecord
100
AcDbLayerTableRecord
  2
01_1_DEFAULT_DATUMS
 70
0
 62
7
  6
CONTINUOUS
370
-3
390
F
  0
LAYER
  5
1FF
100
AcDbSymbolTableRecord
100
AcDbLayerTableRecord
  2
01_PLANES
 70
0
 62
7
  6
CONTINUOUS
370
-3
390
F
  0
LAYER
  5
200
100
AcDbSymbolTableRecord
100
AcDbLayerTableRecord
  2
02_COORD_SYS
 70
0
 62
7
  6
CONTINUOUS
370
-3
390
F
  0
LAYER
  5
201
100
AcDbSymbolTableRecord
100
AcDbLayerTableRecord
  2
03_AXES
 70
0
 62
7
  6
CONTINUOUS
370
-3
390
F
  0
LAYER
  5
202
100
AcDbSymbolTableRecord
100
AcDbLayerTableRecord
  2
04_POINTS
 70
0
 62
7
  6
CONTINUOUS
370
-3
390
F
  0
LAYER
  5
203
100
AcDbSymbolTableRecord
100
AcDbLayerTableRecord
  2
05_CURVES
 70
0
 62
7
  6
CONTINUOUS
370
-3
390
F
  0
LAYER
  5
204
100
AcDbSymbolTableRecord
100
AcDbLayerTableRecord
  2
06_SURFS
 70
0
 62
7
  6
CONTINUOUS
370
-3
390
F
  0
LAYER
  5
205
100
AcDbSymbolTableRecord
100
AcDbLayerTableRecord
  2
07_COSMETICS
 70
0
 62
7
  6
CONTINUOUS
370
-3
390
F
  0
LAYER
  5
206
100
AcDbSymbolTableRecord
100
AcDbLayerTableRecord
  2
10_NOTES
 70
0
 62
7
  6
CONTINUOUS
370
-3
390
F
  0
LAYER
  5
207
100
AcDbSymbolTableRecord
100
AcDbLayerTableRecord
  2
11_NOTES_PUB
 70
0
 62
7
  6
CONTINUOUS
370
-3
390
F
  0
LAYER
  5
208
100
AcDbSymbolTableRecord
100
AcDbLayerTableRecord
  2
13_REF_GTOL
 70
0
 62
7
  6
CONTINUOUS
370
-3
390
F
  0
LAYER
  5
209
100
AcDbSymbolTableRecord
100
AcDbLayerTableRecord
  2
16_MISC
 70
0
 62
7
  6
CONTINUOUS
370
-3
390
F
  0
LAYER
  5
20A
100
AcDbSymbolTableRecord
100
AcDbLayerTableRecord
  2
17_NO_PRINT
 70
0
 62
7
  6
CONTINUOUS
370
-3
390
F
  0
LAYER
  5
20B
100
AcDbSymbolTableRecord
100
AcDbLayerTableRecord
  2
18_DATUM_CAMS_JOINTS
 70
0
 62
7
  6
CONTINUOUS
370
-3
390
F
  0
LAYER
  5
20C
100
AcDbSymbolTableRecord
100
AcDbLayerTableRecord
  2
19_DATUM_FUNCTIONAL
 70
0
 62
7
  6
CONTINUOUS
370
-3
390
F
  0
LAYER
  5
20D
100
AcDbSymbolTableRecord
100
AcDbLayerTableRecord
  2
20_DATUM_KINEMATIC_SCHEME
 70
0
 62
7
  6
CONTINUOUS
370
-3
390
F
  0
ENDTAB
  0
TABLE
  2
STYLE
  5
3
100
AcDbSymbolTable
 70
1
  0
STYLE
  5
11
100
AcDbSymbolTableRecord
100
AcDbTextStyleTableRecord
  2
STANDARD
 70
0
 40
0.0
 41
1.0
 50
0.0
 71
0
 42
0.2
  3
ARIAL.TTF
  4

  0
STYLE
  5
20E
100
AcDbSymbolTableRecord
100
AcDbTextStyleTableRecord
  2
TEXTSTYLE_1
 70
0
 40
0.0
 41
0.8
 50
0.0
 71
0
 42
0.2
  3
gdt
  4

  0
ENDTAB
  0
TABLE
  2
VIEW
  5
6
100
AcDbSymbolTable
 70
0
  0
ENDTAB
  0
TABLE
  2
UCS
  5
7
100
AcDbSymbolTable
 70
0
  0
ENDTAB
  0
TABLE
  2
APPID
  5
9
100
AcDbSymbolTable
 70
1
  0
APPID
  5
20F
100
AcDbSymbolTableRecord
100
AcDbRegAppTableRecord
  2
ACAD
 70
0
  0
ENDTAB
  0
TABLE
  2
BLOCK_RECORD
  5
1
100
AcDbSymbolTable
 70
0
  0
BLOCK_RECORD
  5
210
100
AcDbSymbolTableRecord
100
AcDbBlockTableRecord
  2
*Model_Space
  0
BLOCK_RECORD
  5
211
100
AcDbSymbolTableRecord
100
AcDbBlockTableRecord
  2
*Paper_Space
  0
BLOCK_RECORD
  5
212
100
AcDbSymbolTableRecord
100
AcDbBlockTableRecord
  2
_FILLED
  0
ENDTAB
  0
TABLE
  2
DIMSTYLE
  5
A
100
AcDbSymbolTable
 70
1
100
AcDbDimStyleTable
 71
0
  0
DIMSTYLE
105
213
100
AcDbSymbolTableRecord
100
AcDbDimStyleTableRecord
  2
STANDARD
 70
0
  3

  4

 40
1.0
 41
0.7796491728
 42
1.0
 43
0.38
 44
1.0
 45
0.0
 46
0.0
 47
0.01
 48
0.01
140
1.0915088419
141
0.09
142
0.0
143
25.4
144
1.0
145
0.0
146
1.0
147
0.625
 71
1
 72
0
 73
0
 74
0
 75
0
 76
0
 77
1
 78
8
 79
2
170
0
171
1
172
0
173
0
174
0
175
0
176
0
177
0
178
0
270
2
179
2
271
2
272
2
273
2
274
2
275
0
280
0
281
0
282
0
283
1
284
8
285
0
286
0
287
3
288
0
340
11
278
46
341
212
342
212
343
212
344
212
  0
ENDTAB
  0
ENDSEC
  0
SECTION
  2
BLOCKS
  0
BLOCK
  5
20
100
AcDbEntity
  8
0
100
AcDbBlockBegin
  2
*Model_Space
 70
0
 10
0.0
 20
0.0
 30
0.0
  3
*Model_Space
  1

  0
ENDBLK
  5
21
100
AcDbEntity
  8
0
100
AcDbBlockEnd
  0
BLOCK
  5
1C
100
AcDbEntity
  8
0
100
AcDbBlockBegin
  2
*Paper_Space
 70
0
 10
0.0
 20
0.0
 30
0.0
  3
*Paper_Space
  1

  0
ENDBLK
  5
1D
100
AcDbEntity
  8
0
100
AcDbBlockEnd
  0
BLOCK
  5
214
100
AcDbEntity
  8
0
100
AcDbBlockBegin
  2
_FILLED
 70
64
 10
0.0
 20
0.0
  3
_FILLED
  1

  0
SOLID
  5
215
100
AcDbEntity
  8
0
  6
BYBLOCK
 62
0
100
AcDbTrace
 10
0.0
 20
0.0
 11
-1.0
 21
0.25
 12
-1.0
 22
-0.25
 13
-1.0
 23
-0.25
  0
ENDBLK
  5
216
100
AcDbEntity
  8
0
  6
BYBLOCK
 62
0
100
AcDbBlockEnd
  0
ENDSEC
  0
SECTION
  2
ENTITIES
  0
LINE
  5
217
100
AcDbEntity
  8
0
100
AcDbLine
 62
7
  6
BYLAYER
 10
9.1095400037
 20
34.0011155323
 11
9.0830927125
 21
34.0843255597
  0
LINE
  5
218
100
AcDbEntity
  8
0
100
AcDbLine
 62
7
  6
BYLAYER
 10
10.3469820228
 20
31.8578149819
 11
10.3205347315
 21
31.9410250093
  0
LINE
  5
219
100
AcDbEntity
  8
0
100
AcDbLine
 62
7
  6
BYLAYER
 10
8.8159914017
 20
34.2120907015
 11
8.8027093401
 21
34.2948433844
  0
LINE
  5
21A
100
AcDbEntity
  8
0
100
AcDbLine
 62
7
  6
BYLAYER
 10
11.5844240418
 20
32.5722728914
 11
11.5579767505
 21
32.6554829189
  0
LINE
  5
21B
100
AcDbEntity
  8
0
100
AcDbLine
 62
7
  6
BYLAYER
 10
9.1055358855
 20
34.120775856
 11
9.092214967
 21
34.1959842078
  0
LINE
  5
21C
100
AcDbEntity
  8
0
100
AcDbLine
 62
7
  6
BYLAYER
 10
10.3429795386
 20
31.9774752143
 11
10.329656986
 21
32.0526836574
  0
LINE
  5
21D
100
AcDbEntity
  8
0
100
AcDbLine
 62
7
  6
BYLAYER
 10
10.0534334223
 20
32.068790146
 11
10.0401510079
 21
32.1515221259
  0
LINE
  5
21E
100
AcDbEntity
  8
0
100
AcDbLine
 62
7
  6
BYLAYER
 10
12.1124312159
 20
32.6139713123
 11
12.1129700689
 21
32.6077951873
  0
LINE
  5
21F
100
AcDbEntity
  8
0
100
AcDbLine
 62
7
  6
BYLAYER
 10
10.2915274359
 20
32.0591037435
 11
10.3002585117
 21
32.0551434656
  0
LINE
  5
220
100
AcDbEntity
  8
0
100
AcDbLine
 62
7
  6
BYLAYER
 10
11.5804199235
 20
32.6919332151
 11
11.567099005
 21
32.767141567
  0
LINE
  5
221
100
AcDbEntity
  8
0
100
AcDbLine
 62
7
  6
BYLAYER
 10
11.2908754397
 20
32.7832480607
 11
11.2775933781
 21
32.8660007436
  0
LINE
  5
222
100
AcDbEntity
  8
0
100
AcDbLine
 62
7
  6
BYLAYER
 10
12.120155903
 20
32.6104871429
 11
12.1209930862
 21
32.6041512533
  0
LINE
  5
223
100
AcDbEntity
  8
0
100
AcDbLine
 62
7
  6
BYLAYER
 10
10.1294653749
 20
32.2560561219
 11
10.1946400868
 21
32.2337617351
  0
LINE
  5
224
100
AcDbEntity
  8
0
100
AcDbLine
 62
7
  6
BYLAYER
 10
11.5289694549
 20
32.773561653
 11
11.5377005308
 21
32.7696013751
  0
LINE
  5
225
100
AcDbEntity
  8
0
100
AcDbLine
 62
7
  6
BYLAYER
 10
9.0540854168
 20
34.2024042938
 11
9.0628164927
 21
34.1984440159
  0
LINE
  5
226
100
AcDbEntity
  8
0
100
AcDbLine
 62
7
  6
BYLAYER
 10
11.3669073939
 20
32.9705140314
 11
11.4320821058
 21
32.9482196447
  0
LINE
  5
227
100
AcDbEntity
  8
0
100
AcDbLine
 62
7
  6
BYLAYER
 10
8.8920233559
 20
34.3993566723
 11
8.9571980678
 21
34.3770622855
  0
LINE
  5
228
100
AcDbEntity
  8
0
100
AcDbLine
 62
7
  6
BYLAYER
 10
10.4721353644
 20
31.804998511
 11
10.4451204032
 21
31.80759781
  0
LINE
  5
229
100
AcDbEntity
  8
0
100
AcDbLine
 62
7
  6
BYLAYER
 10
11.7095792673
 20
32.5194800472
 11
11.6825624222
 21
32.5220557196
  0
LINE
  5
22A
100
AcDbEntity
  8
0
100
AcDbLine
 62
7
  6
BYLAYER
 10
9.2346952293
 20
33.948322688
 11
9.2076783842
 21
33.9508983604
  0
LINE
  5
22B
100
AcDbEntity
  8
0
100
AcDbLine
 62
7
  6
BYLAYER
 10
22.1604957181
 20
36.8802895119
 11
22.1765721208
 21
36.4867789943
  0
LINE
  5
22C
100
AcDbEntity
  8
0
100
AcDbLine
 62
7
  6
BYLAYER
 10
22.1632464847
 20
37.3951471417
 11
22.1768646214
 21
37.0590893111
  0
LINE
  5
22D
100
AcDbEntity
  8
0
100
AcDbLine
 62
7
  6
BYLAYER
 10
22.176978412
 20
37.0590235746
 11
22.1765721208
 21
36.4867789943
  0
LINE
  5
22E
100
AcDbEntity
  8
0
100
AcDbLine
 62
7
  6
BYLAYER
 10
19.2755037613
 20
42.0845550846
 11
18.7797237493
 21
42.3703280792
  0
LINE
  5
22F
100
AcDbEntity
  8
0
100
AcDbLine
 62
7
  6
BYLAYER
 10
10.5415683125
 20
32.8025567195
 11
10.4365190094
 21
32.7795211575
  0
LINE
  5
230
100
AcDbEntity
  8
0
100
AcDbLine
 62
7
  6
BYLAYER
 10
11.7790103315
 20
33.517014629
 11
11.6739610284
 21
33.4939790671
  0
LINE
  5
231
100
AcDbEntity
  8
0
100
AcDbLine
 62
7
  6
BYLAYER
 10
9.3041262935
 20
34.9458572699
 11
9.1990769904
 21
34.9228217079
  0
LINE
  5
232
100
AcDbEntity
  8
0
100
AcDbLine
 62
7
  6
BYLAYER
 10
12.0695341638
 20
40.1164214041
 11
16.3824573243
 21
42.6064738882
  0
LINE
  5
233
100
AcDbEntity
  8
0
100
AcDbLine
 62
7
  6
BYLAYER
 10
24.7852711871
 20
46.9959322492
 11
24.3610088848
 21
46.7509857569
  0
LINE
  5
234
100
AcDbEntity
  8
0
100
AcDbLine
 62
7
  6
BYLAYER
 10
23.3710635127
 20
46.1794439414
 11
22.9468012104
 21
45.9344974491
  0
LINE
  5
235
100
AcDbEntity
  8
0
100
AcDbLine
 62
7
  6
BYLAYER
 10
22.027566222
 20
45.4037800491
 11
21.6033039197
 21
45.1588335568
  0
LINE
  5
236
100
AcDbEntity
  8
0
100
AcDbLine
 62
7
  6
BYLAYER
 10
20.6133585476
 20
44.5872917413
 11
18.2799158848
 21
43.2400860336
  0
LINE
  5
237
100
AcDbEntity
  8
0
100
AcDbLine
 62
7
  6
BYLAYER
 10
8.7360241126
 20
37.2680709148
 11
12.4695323731
 21
39.4236000472
  0
LINE
  5
238
100
AcDbEntity
  8
0
100
AcDbLine
 62
7
  6
BYLAYER
 10
36.172155504
 20
52.9927643246
 11
34.1922647598
 21
51.8496806938
  0
LINE
  5
239
100
AcDbEntity
  8
0
100
AcDbLine
 62
7
  6
BYLAYER
 10
8.7140392698
 20
36.6202936873
 11
8.3251321593
 21
36.3957594026
  0
LINE
  5
23A
100
AcDbEntity
  8
0
100
AcDbLine
 62
7
  6
BYLAYER
 10
34.1555588876
 20
51.4235275303
 11
26.0810377584
 21
47.1266931607
  0
LINE
  5
23B
100
AcDbEntity
  8
0
100
AcDbLine
 62
7
  6
BYLAYER
 10
39.34391979
 20
52.8032494314
 11
56.3157311508
 21
62.6018707993
  0
LINE
  5
23C
100
AcDbEntity
  8
0
100
AcDbLine
 62
7
  6
BYLAYER
 10
10.3470002632
 20
35.5855715624
 11
9.1990769904
 21
34.9228217079
  0
LINE
  5
23D
100
AcDbEntity
  8
0
100
AcDbLine
 62
7
  6
BYLAYER
 10
11.1117549645
 20
34.8724014442
 11
9.699074752
 21
34.0567950118
  0
LINE
  5
23E
100
AcDbEntity
  8
0
100
AcDbLine
 62
7
  6
BYLAYER
 10
11.8303108136
 20
33.5842471188
 11
10.4365190094
 21
32.7795211575
  0
LINE
  5
23F
100
AcDbEntity
  8
0
100
AcDbLine
 62
7
  6
BYLAYER
 10
12.1142225981
 20
32.5934391789
 11
10.936516771
 21
31.9134944614
  0
LINE
  5
240
100
AcDbEntity
  8
0
100
AcDbLine
 62
7
  6
BYLAYER
 10
41.6064085622
 20
49.1442852304
 11
58.4657215256
 21
58.8779560059
  0
LINE
  5
241
100
AcDbEntity
  8
0
100
AcDbLine
 62
7
  6
BYLAYER
 10
37.7048358356
 20
45.2759628304
 11
29.9488676541
 21
40.4332313952
  0
LINE
  5
242
100
AcDbEntity
  8
0
100
AcDbLine
 62
7
  6
BYLAYER
 10
12.1640238246
 20
30.6447094839
 11
11.7751167141
 21
30.4201751992
  0
LINE
  5
243
100
AcDbEntity
  8
0
100
AcDbLine
 62
7
  6
BYLAYER
 10
40.0721380442
 20
46.2377560947
 11
38.0922473
 21
45.0946724638
  0
LINE
  5
244
100
AcDbEntity
  8
0
100
AcDbLine
 62
7
  6
BYLAYER
 10
12.7360062051
 20
30.3398573456
 11
16.4695144656
 21
32.4953864781
  0
LINE
  5
245
100
AcDbEntity
  8
0
100
AcDbLine
 62
7
  6
BYLAYER
 10
28.4945689787
 20
39.2648086741
 11
28.2967321201
 21
39.1505881923
  0
LINE
  5
246
100
AcDbEntity
  8
0
100
AcDbLine
 62
7
  6
BYLAYER
 10
25.7368640136
 20
37.672656474
 11
25.539027155
 21
37.5584359922
  0
LINE
  5
247
100
AcDbEntity
  8
0
100
AcDbLine
 62
7
  6
BYLAYER
 10
29.1852514889
 20
39.3748973231
 11
28.7609891865
 21
39.1299508308
  0
LINE
  5
248
100
AcDbEntity
  8
0
100
AcDbLine
 62
7
  6
BYLAYER
 10
27.7710438144
 20
38.5584090154
 11
27.3467815121
 21
38.3134625231
  0
LINE
  5
249
100
AcDbEntity
  8
0
100
AcDbLine
 62
7
  6
BYLAYER
 10
26.4275465237
 20
37.782745123
 11
26.0032842214
 21
37.5377986307
  0
LINE
  5
24A
100
AcDbEntity
  8
0
100
AcDbLine
 62
7
  6
BYLAYER
 10
25.0133388493
 20
36.9662568153
 11
22.6798961865
 21
35.6190511075
  0
LINE
  5
24B
100
AcDbEntity
  8
0
100
AcDbLine
 62
7
  6
BYLAYER
 10
16.8695126748
 20
31.8025651211
 11
21.1824358353
 21
34.2926176052
  0
ARC
  5
24C
100
AcDbEntity
  8
0
100
AcDbCircle
 62
7
  6
BYLAYER
 10
7.0194843702
 20
31.6509509202
 40
5.2519097234
100
AcDbArc
 50
24.5421544939
 51
25.7560819106
  0
ARC
  5
24D
100
AcDbEntity
  8
0
100
AcDbCircle
 62
7
  6
BYLAYER
 10
7.0943697537
 20
31.6848768269
 40
5.1696982433
100
AcDbArc
 50
21.6725259765
 51
24.5448552797
  0
ARC
  5
24E
100
AcDbEntity
  8
0
100
AcDbCircle
 62
7
  6
BYLAYER
 10
7.2491241589
 20
31.8433063503
 40
4.9542056854
100
AcDbArc
 50
38.776184987
 51
40.1502338584
  0
ARC
  5
24F
100
AcDbEntity
  8
0
100
AcDbCircle
 62
7
  6
BYLAYER
 10
7.4671090904
 20
31.8580566299
 40
4.7209235207
100
AcDbArc
 50
18.5378305955
 51
20.990865338
  0
ARC
  5
250
100
AcDbEntity
  8
0
100
AcDbCircle
 62
7
  6
BYLAYER
 10
7.9945663188
 20
31.8772362077
 40
4.4323524545
100
AcDbArc
 50
10.2099328375
 51
12.7371337511
  0
ARC
  5
251
100
AcDbEntity
  8
0
100
AcDbCircle
 62
7
  6
BYLAYER
 10
8.148751054
 20
31.905558638
 40
4.275588983
100
AcDbArc
 50
9.7816318543
 51
10.2026445983
  0
ARC
  5
252
100
AcDbEntity
  8
0
100
AcDbCircle
 62
7
  6
BYLAYER
 10
8.1660740202
 20
32.0085960204
 40
4.0482459593
100
AcDbArc
 50
11.0820127826
 51
11.5588868804
  0
ARC
  5
253
100
AcDbEntity
  8
0
100
AcDbCircle
 62
7
  6
BYLAYER
 10
8.2001424323
 20
32.0153042723
 40
4.0135234
100
AcDbArc
 50
10.9519254925
 51
11.0815168255
  0
ARC
  5
254
100
AcDbEntity
  8
0
100
AcDbCircle
 62
7
  6
BYLAYER
 10
8.2225977181
 20
32.0196401434
 40
3.9906533419
100
AcDbArc
 50
10.6833672995
 51
10.9520586197
  0
ARC
  5
255
100
AcDbEntity
  8
0
100
AcDbCircle
 62
7
  6
BYLAYER
 10
8.2548523583
 20
32.0257217302
 40
3.9578303698
100
AcDbArc
 50
10.3819281342
 51
10.6834141527
  0
ARC
  5
256
100
AcDbEntity
  8
0
100
AcDbCircle
 62
7
  6
BYLAYER
 10
8.3249091156
 20
32.0384159437
 40
3.8866329487
100
AcDbArc
 50
9.3283187519
 51
10.3839693214
  0
ARC
  5
257
100
AcDbEntity
  8
0
100
AcDbCircle
 62
7
  6
BYLAYER
 10
8.4008295735
 20
32.0509921655
 40
3.8096779859
100
AcDbArc
 50
8.7323896458
 51
9.3267569746
  0
ARC
  5
258
100
AcDbEntity
  8
0
100
AcDbCircle
 62
7
  6
BYLAYER
 10
8.350010019
 20
32.0983633181
 40
3.8049604405
100
AcDbArc
 50
10.7971267579
 51
10.981626095
  0
ARC
  5
259
100
AcDbEntity
  8
0
100
AcDbCircle
 62
7
  6
BYLAYER
 10
8.3692057153
 20
32.1020258741
 40
3.7854184582
100
AcDbArc
 50
10.6439850032
 51
10.7971003123
  0
ARC
  5
25A
100
AcDbEntity
  8
0
100
AcDbCircle
 62
7
  6
BYLAYER
 10
8.3859682402
 20
32.1051768152
 40
3.7683623546
100
AcDbArc
 50
10.5031700517
 51
10.643976053
  0
ARC
  5
25B
100
AcDbEntity
  8
0
100
AcDbCircle
 62
7
  6
BYLAYER
 10
8.4507236945
 20
32.0586729048
 40
3.7591961399
100
AcDbArc
 50
8.2605244107
 51
8.7321335804
  0
ARC
  5
25C
100
AcDbEntity
  8
0
100
AcDbCircle
 62
7
  6
BYLAYER
 10
8.4516595171
 20
32.1171850119
 40
3.7015827772
100
AcDbArc
 50
9.5010815161
 51
10.5057683227
  0
ARC
  5
25D
100
AcDbEntity
  8
0
100
AcDbCircle
 62
7
  6
BYLAYER
 10
8.5570173678
 20
32.1348797433
 40
3.5947493724
100
AcDbArc
 50
8.2247822831
 51
9.500109553
  0
ARC
  5
25E
100
AcDbEntity
  8
0
100
AcDbCircle
 62
7
  6
BYLAYER
 10
8.6483255712
 20
32.1483685727
 40
3.5024506643
100
AcDbArc
 50
7.7266375438
 51
8.220074084
  0
ARC
  5
25F
100
AcDbEntity
  8
0
100
AcDbCircle
 62
7
  6
BYLAYER
 10
8.6784975824
 20
32.1524929107
 40
3.4719980865
100
AcDbArc
 50
7.580027233
 51
7.7261365486
  0
ARC
  5
260
100
AcDbEntity
  8
0
100
AcDbCircle
 62
7
  6
BYLAYER
 10
9.2165743817
 20
32.1214637047
 40
2.9902350608
100
AcDbArc
 50
0.0104436739
 51
1.5676418839
  0
ARC
  5
261
100
AcDbEntity
  8
0
100
AcDbCircle
 62
7
  6
BYLAYER
 10
9.4941724567
 20
32.2034994333
 40
2.6540577083
100
AcDbArc
 50
358.3301371622
 51
0.0034141769
  0
ARC
  5
262
100
AcDbEntity
  8
0
100
AcDbCircle
 62
7
  6
BYLAYER
 10
11.1961206948
 20
32.4339861217
 40
2.160737181
100
AcDbArc
 50
251.5610778826
 51
256.2413187
  0
ARC
  5
263
100
AcDbEntity
  8
0
100
AcDbCircle
 62
7
  6
BYLAYER
 10
11.5837906564
 20
31.7441882429
 40
1.3791572075
100
AcDbArc
 50
277.9786707243
 51
278.5365003898
  0
ARC
  5
264
100
AcDbEntity
  8
0
100
AcDbCircle
 62
7
  6
BYLAYER
 10
11.590496674
 20
31.7017059923
 40
1.3361501987
100
AcDbArc
 50
278.5225346691
 51
283.7206888055
  0
ARC
  5
265
100
AcDbEntity
  8
0
100
AcDbCircle
 62
7
  6
BYLAYER
 10
10.5094263999
 20
32.4753368403
 40
0.6703629225
100
AcDbArc
 50
249.3517238261
 51
255.1593789562
  0
ARC
  5
266
100
AcDbEntity
  8
0
100
AcDbCircle
 62
7
  6
BYLAYER
 10
10.4977829891
 20
32.4426452417
 40
0.6356658384
100
AcDbArc
 50
247.8212346632
 51
249.2947065672
  0
ARC
  5
267
100
AcDbEntity
  8
0
100
AcDbCircle
 62
7
  6
BYLAYER
 10
10.5050764407
 20
32.4369302832
 40
0.6345251986
100
AcDbArc
 50
282.5054009735
 51
291.6694229079
  0
ARC
  5
268
100
AcDbEntity
  8
0
100
AcDbCircle
 62
7
  6
BYLAYER
 10
10.5130502017
 20
32.4042976547
 40
0.6009406178
100
AcDbArc
 50
275.3045175027
 51
282.4368879113
  0
ARC
  5
269
100
AcDbEntity
  8
0
100
AcDbCircle
 62
7
  6
BYLAYER
 10
10.5144879034
 20
32.3917469637
 40
0.5883108245
100
AcDbArc
 50
272.8598139521
 51
275.2781009074
  0
ARC
  5
26A
100
AcDbEntity
  8
0
100
AcDbCircle
 62
7
  6
BYLAYER
 10
10.5146088084
 20
32.3864606596
 40
0.5830191661
100
AcDbArc
 50
265.8222011218
 51
272.8585582444
  0
ARC
  5
26B
100
AcDbEntity
  8
0
100
AcDbCircle
 62
7
  6
BYLAYER
 10
10.5198949804
 20
32.3854727631
 40
0.582340375
100
AcDbArc
 50
263.1525058859
 51
267.4968110022
  0
ARC
  5
26C
100
AcDbEntity
  8
0
100
AcDbCircle
 62
7
  6
BYLAYER
 10
10.8801208069
 20
31.9683431211
 40
0.5655400586
100
AcDbArc
 50
171.2957601691
 51
172.0975287414
  0
ARC
  5
26D
100
AcDbEntity
  8
0
100
AcDbCircle
 62
7
  6
BYLAYER
 10
10.4471867297
 20
32.3152943343
 40
0.4988384615
100
AcDbArc
 50
247.6785326125
 51
248.4309506753
  0
ARC
  5
26E
100
AcDbEntity
  8
0
100
AcDbCircle
 62
7
  6
BYLAYER
 10
10.0133387886
 20
32.1932284783
 40
0.3179584943
100
AcDbArc
 50
323.2063347438
 51
326.4120173298
  0
ARC
  5
26F
100
AcDbEntity
  8
0
100
AcDbCircle
 62
7
  6
BYLAYER
 10
11.1216571808
 20
32.6108376432
 40
2.0674565531
100
AcDbArc
 50
250.3845005429
 51
252.6907994822
  0
ARC
  5
270
100
AcDbEntity
  8
0
100
AcDbCircle
 62
7
  6
BYLAYER
 10
10.5194974122
 20
32.6361825622
 40
0.8343759565
100
AcDbArc
 50
289.2305269626
 51
299.9866307024
  0
ARC
  5
271
100
AcDbEntity
  8
0
100
AcDbCircle
 62
7
  6
BYLAYER
 10
11.7571108756
 20
33.3502145461
 40
0.8339173287
100
AcDbArc
 50
289.2290435181
 51
295.4278130419
  0
ARC
  5
272
100
AcDbEntity
  8
0
100
AcDbCircle
 62
7
  6
BYLAYER
 10
11.7622788973
 20
33.3353671605
 40
0.8181962219
100
AcDbArc
 50
278.3364430934
 51
289.2297592962
  0
ARC
  5
273
100
AcDbEntity
  8
0
100
AcDbCircle
 62
7
  6
BYLAYER
 10
10.5248368783
 20
32.620909251
 40
0.8181962219
100
AcDbArc
 50
278.3364430951
 51
289.2297592971
  0
ARC
  5
274
100
AcDbEntity
  8
0
100
AcDbCircle
 62
7
  6
BYLAYER
 10
11.7648145977
 20
33.3213290249
 40
0.8039389159
100
AcDbArc
 50
272.9481369919
 51
278.3026915572
  0
ARC
  5
275
100
AcDbEntity
  8
0
100
AcDbCircle
 62
7
  6
BYLAYER
 10
10.5273748353
 20
32.6068511672
 40
0.803918851
100
AcDbArc
 50
272.9281179908
 51
278.302737713
  0
ARC
  5
276
100
AcDbEntity
  8
0
100
AcDbCircle
 62
7
  6
BYLAYER
 10
11.7656661972
 20
33.3033999408
 40
0.7859897647
100
AcDbArc
 50
268.7713188112
 51
272.9533604592
  0
ARC
  5
277
100
AcDbEntity
  8
0
100
AcDbCircle
 62
7
  6
BYLAYER
 10
10.5282263774
 20
32.5888071195
 40
0.7858548653
100
AcDbArc
 50
268.7480411483
 51
272.9333174674
  0
ARC
  5
278
100
AcDbEntity
  8
0
100
AcDbCircle
 62
7
  6
BYLAYER
 10
11.7653859542
 20
33.2836460701
 40
0.7662344402
100
AcDbArc
 50
267.4979166657
 51
268.760595856
  0
ARC
  5
279
100
AcDbEntity
  8
0
100
AcDbCircle
 62
7
  6
BYLAYER
 10
10.5279403576
 20
32.5690899381
 40
0.7661361552
100
AcDbArc
 50
267.4978632831
 51
268.7372084527
  0
ARC
  5
27A
100
AcDbEntity
  8
0
100
AcDbCircle
 62
7
  6
BYLAYER
 10
10.5271019629
 20
32.556821268
 40
0.7538382387
100
AcDbArc
 50
263.8898244436
 51
265.8178491916
  0
ARC
  5
27B
100
AcDbEntity
  8
0
100
AcDbCircle
 62
7
  6
BYLAYER
 10
11.7645390803
 20
33.2712413463
 40
0.7538001359
100
AcDbArc
 50
263.7954842619
 51
265.8178924609
  0
ARC
  5
27C
100
AcDbEntity
  8
0
100
AcDbCircle
 62
7
  6
BYLAYER
 10
11.7469484789
 20
33.1900580111
 40
0.6706378787
100
AcDbArc
 50
249.4051780644
 51
255.1654730048
  0
ARC
  5
27D
100
AcDbEntity
  8
0
100
AcDbCircle
 62
7
  6
BYLAYER
 10
11.7353650124
 20
33.1574717052
 40
0.6360598557
100
AcDbArc
 50
247.8215777872
 51
249.3493937634
  0
ARC
  5
27E
100
AcDbEntity
  8
0
100
AcDbCircle
 62
7
  6
BYLAYER
 10
11.7520497049
 20
33.1009105902
 40
0.583011121
100
AcDbArc
 50
265.82228378
 51
268.0190421037
  0
ARC
  5
27F
100
AcDbEntity
  8
0
100
AcDbCircle
 62
7
  6
BYLAYER
 10
11.7573336861
 20
33.0998987828
 40
0.5823083175
100
AcDbArc
 50
263.1524554652
 51
267.4968755539
  0
ARC
  5
280
100
AcDbEntity
  8
0
100
AcDbCircle
 62
7
  6
BYLAYER
 10
11.745172814
 20
32.9989795431
 40
0.48065903
100
AcDbArc
 50
262.4210820205
 51
263.1574308208
  0
ARC
  5
281
100
AcDbEntity
  8
0
100
AcDbCircle
 62
7
  6
BYLAYER
 10
10.8468049831
 20
34.7960066546
 40
3.2508536119
100
AcDbArc
 50
180.0003663907
 51
180.3620503786
  0
ARC
  5
282
100
AcDbEntity
  8
0
100
AcDbCircle
 62
7
  6
BYLAYER
 10
10.77534229
 20
34.7755870175
 40
3.1647461107
100
AcDbArc
 50
179.6669437087
 51
180.0002418549
  0
ARC
  5
283
100
AcDbEntity
  8
0
100
AcDbCircle
 62
7
  6
BYLAYER
 10
9.432705993
 20
35.526047912
 40
1.4496775746
100
AcDbArc
 50
143.9409439188
 51
147.4949603216
  0
ARC
  5
284
100
AcDbEntity
  8
0
100
AcDbCircle
 62
7
  6
BYLAYER
 10
9.3882630483
 20
35.5582614398
 40
1.3947879381
100
AcDbArc
 50
141.2809788024
 51
143.9360887648
  0
ARC
  5
285
100
AcDbEntity
  8
0
100
AcDbCircle
 62
7
  6
BYLAYER
 10
9.2820553932
 20
34.7794831126
 40
0.8343759565
100
AcDbArc
 50
289.2305269617
 51
299.9866307022
  0
ARC
  5
286
100
AcDbEntity
  8
0
100
AcDbCircle
 62
7
  6
BYLAYER
 10
9.2873948593
 20
34.7642098014
 40
0.8181962219
100
AcDbArc
 50
278.3364430934
 51
289.2297592962
  0
ARC
  5
287
100
AcDbEntity
  8
0
100
AcDbCircle
 62
7
  6
BYLAYER
 10
9.2899305597
 20
34.7501716657
 40
0.8039389159
100
AcDbArc
 50
272.9481369919
 51
278.3026915572
  0
ARC
  5
288
100
AcDbEntity
  8
0
100
AcDbCircle
 62
7
  6
BYLAYER
 10
9.2907821592
 20
34.7322425816
 40
0.7859897648
100
AcDbArc
 50
268.7713188112
 51
272.9533604592
  0
ARC
  5
289
100
AcDbEntity
  8
0
100
AcDbCircle
 62
7
  6
BYLAYER
 10
9.2905019162
 20
34.7124887109
 40
0.7662344402
100
AcDbArc
 50
267.4979166657
 51
268.7605958561
  0
ARC
  5
28A
100
AcDbEntity
  8
0
100
AcDbCircle
 62
7
  6
BYLAYER
 10
9.2896550422
 20
34.700083987
 40
0.7538001358
100
AcDbArc
 50
263.7954842617
 51
265.8178924609
  0
ARC
  5
28B
100
AcDbEntity
  8
0
100
AcDbCircle
 62
7
  6
BYLAYER
 10
9.2720644409
 20
34.6189006519
 40
0.6706378787
100
AcDbArc
 50
249.4051780644
 51
255.1654730048
  0
ARC
  5
28C
100
AcDbEntity
  8
0
100
AcDbCircle
 62
7
  6
BYLAYER
 10
9.2604809744
 20
34.5863143461
 40
0.6360598558
100
AcDbArc
 50
247.8215777873
 51
249.3493937633
  0
ARC
  5
28D
100
AcDbEntity
  8
0
100
AcDbCircle
 62
7
  6
BYLAYER
 10
9.2771656669
 20
34.5297532311
 40
0.5830111212
100
AcDbArc
 50
265.8222837801
 51
268.0190421036
  0
ARC
  5
28E
100
AcDbEntity
  8
0
100
AcDbCircle
 62
7
  6
BYLAYER
 10
9.2824496481
 20
34.5287414235
 40
0.5823083174
100
AcDbArc
 50
263.1524554652
 51
267.4968755538
  0
ARC
  5
28F
100
AcDbEntity
  8
0
100
AcDbCircle
 62
7
  6
BYLAYER
 10
9.270288776
 20
34.427822184
 40
0.4806590301
100
AcDbArc
 50
262.4210820204
 51
263.1574308207
  0
ARC
  5
290
100
AcDbEntity
  8
0
100
AcDbCircle
 62
7
  6
BYLAYER
 10
13.369077878
 20
35.3227581365
 40
5.8355092426
100
AcDbArc
 50
210.4964392487
 51
215.9411175353
  0
ARC
  5
291
100
AcDbEntity
  8
0
100
AcDbCircle
 62
7
  6
BYLAYER
 10
16.4004649012
 20
36.3979503551
 40
5.7804627824
100
AcDbArc
 50
6.3478915172
 51
9.4986741469
  0
ARC
  5
292
100
AcDbEntity
  8
0
100
AcDbCircle
 62
7
  6
BYLAYER
 10
13.287054046
 20
35.2831328952
 40
5.7447281945
100
AcDbArc
 50
201.2459132115
 51
210.5710653024
  0
ARC
  5
293
100
AcDbEntity
  8
0
100
AcDbCircle
 62
7
  6
BYLAYER
 10
16.8399362982
 20
36.4500484897
 40
5.3379265523
100
AcDbArc
 50
4.6230991823
 51
6.3136668452
  0
ARC
  5
294
100
AcDbEntity
  8
0
100
AcDbCircle
 62
7
  6
BYLAYER
 10
12.1746273183
 20
34.195174206
 40
4.1875787699
100
AcDbArc
 50
229.3569435719
 51
232.9409264744
  0
ARC
  5
295
100
AcDbEntity
  8
0
100
AcDbCircle
 62
7
  6
BYLAYER
 10
24.2069617596
 20
38.3616977517
 40
1.6116759655
100
AcDbArc
 50
300.0221328657
 51
308.1312265789
  0
ARC
  5
296
100
AcDbEntity
  8
0
100
AcDbCircle
 62
7
  6
BYLAYER
 10
24.2733817683
 20
38.2467678513
 40
1.4789231363
100
AcDbArc
 50
300.0219320384
 51
307.5743850275
  0
ARC
  5
297
100
AcDbEntity
  8
0
100
AcDbCircle
 62
7
  6
BYLAYER
 10
21.0825817504
 20
37.285901609
 40
1.4016509622
100
AcDbArc
 50
323.2031043579
 51
323.8846112028
  0
ARC
  5
298
100
AcDbEntity
  8
0
100
AcDbCircle
 62
7
  6
BYLAYER
 10
24.4937834479
 20
40.5724625313
 40
4.1885530113
100
AcDbArc
 50
0.0027991228
 51
0.9976547097
  0
ARC
  5
299
100
AcDbEntity
  8
0
100
AcDbCircle
 62
7
  6
BYLAYER
 10
23.1502861572
 20
39.796798639
 40
4.1885530113
100
AcDbArc
 50
0.0027991228
 51
0.9976547097
  0
ARC
  5
29A
100
AcDbEntity
  8
0
100
AcDbCircle
 62
7
  6
BYLAYER
 10
25.9079911225
 20
41.3889508391
 40
4.1885530112
100
AcDbArc
 50
0.0027991228
 51
0.9976547097
  0
ARC
  5
29B
100
AcDbEntity
  8
0
100
AcDbCircle
 62
7
  6
BYLAYER
 10
21.7360784828
 20
38.9803103312
 40
4.1885530112
100
AcDbArc
 50
0.0027991228
 51
0.9976547097
  0
ARC
  5
29C
100
AcDbEntity
  8
0
100
AcDbCircle
 62
7
  6
BYLAYER
 10
26.0826323532
 20
41.4706583958
 40
4.072489833
100
AcDbArc
 50
358.6167661865
 51
0.0020431171
  0
ARC
  5
29D
100
AcDbEntity
  8
0
100
AcDbCircle
 62
7
  6
BYLAYER
 10
21.934974507
 20
39.0617257981
 40
4.0482350607
100
AcDbArc
 50
358.612578213
 51
0.0061893859
  0
ARC
  5
29E
100
AcDbEntity
  8
0
100
AcDbCircle
 62
7
  6
BYLAYER
 10
24.6926794722
 20
40.6538779982
 40
4.0482350606
100
AcDbArc
 50
358.612578213
 51
0.0061893859
  0
ARC
  5
29F
100
AcDbEntity
  8
0
100
AcDbCircle
 62
7
  6
BYLAYER
 10
23.3491821814
 20
39.8782141058
 40
4.0482350607
100
AcDbArc
 50
358.612578213
 51
0.0061893859
  0
ARC
  5
2A0
100
AcDbEntity
  8
0
100
AcDbCircle
 62
7
  6
BYLAYER
 10
23.7487153582
 20
38.6979907745
 40
2.1846812036
100
AcDbArc
 50
333.0516395313
 51
334.8410620186
  0
ARC
  5
2A1
100
AcDbEntity
  8
0
100
AcDbCircle
 62
7
  6
BYLAYER
 10
26.5064203233
 20
40.2901429745
 40
2.1846812036
100
AcDbArc
 50
333.0516395313
 51
334.8410620186
  0
ARC
  5
2A2
100
AcDbEntity
  8
0
100
AcDbCircle
 62
7
  6
BYLAYER
 10
21.4815655539
 20
42.6423674402
 40
2.1685282244
100
AcDbArc
 50
85.8384295579
 51
86.9273316815
  0
ARC
  5
2A3
100
AcDbEntity
  8
0
100
AcDbCircle
 62
7
  6
BYLAYER
 10
24.239270519
 20
44.2345196403
 40
2.1685282245
100
AcDbArc
 50
85.838429558
 51
86.9273316815
  0
ARC
  5
2A4
100
AcDbEntity
  8
0
100
AcDbCircle
 62
7
  6
BYLAYER
 10
22.8976736037
 20
43.4879318031
 40
2.1393909339
100
AcDbArc
 50
85.8326805917
 51
89.1111802062
  0
ARC
  5
2A5
100
AcDbEntity
  8
0
100
AcDbCircle
 62
7
  6
BYLAYER
 10
25.2089733231
 20
39.4916700876
 40
2.1333030767
100
AcDbArc
 50
330.858305149
 51
334.8697395937
  0
ARC
  5
2A6
100
AcDbEntity
  8
0
100
AcDbCircle
 62
7
  6
BYLAYER
 10
22.8361643928
 20
43.6711976148
 40
1.9386924118
100
AcDbArc
 50
88.2492980974
 51
90.8228328666
  0
ARC
  5
2A7
100
AcDbEntity
  8
0
100
AcDbCircle
 62
7
  6
BYLAYER
 10
26.9646667247
 20
39.9538499518
 40
1.6116759655
100
AcDbArc
 50
300.0221328657
 51
308.1312265789
  0
ARC
  5
2A8
100
AcDbEntity
  8
0
100
AcDbCircle
 62
7
  6
BYLAYER
 10
25.621169434
 20
39.1781860594
 40
1.6116759655
100
AcDbArc
 50
300.0221328657
 51
308.1312265789
  0
ARC
  5
2A9
100
AcDbEntity
  8
0
100
AcDbCircle
 62
7
  6
BYLAYER
 10
25.1673860893
 20
45.3555477961
 40
1.6116734466
100
AcDbArc
 50
120.022189327
 51
128.1315273089
  0
ARC
  5
2AA
100
AcDbEntity
  8
0
100
AcDbCircle
 62
7
  6
BYLAYER
 10
22.4096811242
 20
43.763395596
 40
1.6116734466
100
AcDbArc
 50
120.022189327
 51
128.1315273089
  0
ARC
  5
2AB
100
AcDbEntity
  8
0
100
AcDbCircle
 62
7
  6
BYLAYER
 10
23.7531784149
 20
44.5390594883
 40
1.6116734466
100
AcDbArc
 50
120.022189327
 51
128.1315273089
  0
ARC
  5
2AC
100
AcDbEntity
  8
0
100
AcDbCircle
 62
7
  6
BYLAYER
 10
27.9557429144
 20
40.5259350016
 40
1.6115810138
100
AcDbArc
 50
291.8995903956
 51
299.977660303
  0
ARC
  5
2AD
100
AcDbEntity
  8
0
100
AcDbCircle
 62
7
  6
BYLAYER
 10
25.1980379493
 20
38.9337828015
 40
1.6115810138
100
AcDbArc
 50
291.8995903956
 51
299.977660303
  0
ARC
  5
2AE
100
AcDbEntity
  8
0
100
AcDbCircle
 62
7
  6
BYLAYER
 10
26.54153524
 20
39.7094466939
 40
1.6115810138
100
AcDbArc
 50
291.8995903956
 51
299.977660303
  0
ARC
  5
2AF
100
AcDbEntity
  8
0
100
AcDbCircle
 62
7
  6
BYLAYER
 10
21.4185988544
 20
43.1913122895
 40
1.6115739454
100
AcDbArc
 50
111.9016614357
 51
119.977560424
  0
ARC
  5
2B0
100
AcDbEntity
  8
0
100
AcDbCircle
 62
7
  6
BYLAYER
 10
24.1763038195
 20
44.7834644896
 40
1.6115739454
100
AcDbArc
 50
111.9016614357
 51
119.977560424
  0
ARC
  5
2B1
100
AcDbEntity
  8
0
100
AcDbCircle
 62
7
  6
BYLAYER
 10
22.8328065288
 20
44.0078005973
 40
1.6115739454
100
AcDbArc
 50
111.9016614357
 51
119.977560424
  0
ARC
  5
2B2
100
AcDbEntity
  8
0
100
AcDbCircle
 62
7
  6
BYLAYER
 10
27.952291752
 20
40.4878854731
 40
1.5825994398
100
AcDbArc
 50
315.3451614588
 51
316.8748422449
  0
ARC
  5
2B3
100
AcDbEntity
  8
0
100
AcDbCircle
 62
7
  6
BYLAYER
 10
25.1945867868
 20
38.895733273
 40
1.5825994399
100
AcDbArc
 50
315.3451614589
 51
316.8748422449
  0
ARC
  5
2B4
100
AcDbEntity
  8
0
100
AcDbCircle
 62
7
  6
BYLAYER
 10
26.5380840776
 20
39.6713971653
 40
1.5825994399
100
AcDbArc
 50
315.3451614589
 51
316.8748422449
  0
ARC
  5
2B5
100
AcDbEntity
  8
0
100
AcDbCircle
 62
7
  6
BYLAYER
 10
25.6875894428
 20
39.063256159
 40
1.4789231363
100
AcDbArc
 50
300.0219320384
 51
307.5743850275
  0
ARC
  5
2B6
100
AcDbEntity
  8
0
100
AcDbCircle
 62
7
  6
BYLAYER
 10
27.0310867335
 20
39.8389200514
 40
1.4789231363
100
AcDbArc
 50
300.0219320384
 51
307.5743850275
  0
ARC
  5
2B7
100
AcDbEntity
  8
0
100
AcDbCircle
 62
7
  6
BYLAYER
 10
22.2867664667
 20
43.6569805654
 40
1.4425813078
100
AcDbArc
 50
126.0638274119
 51
134.8338783532
  0
ARC
  5
2B8
100
AcDbEntity
  8
0
100
AcDbCircle
 62
7
  6
BYLAYER
 10
25.0444714318
 20
45.2491327655
 40
1.4425813078
100
AcDbArc
 50
126.0638274119
 51
134.8338783532
  0
ARC
  5
2B9
100
AcDbEntity
  8
0
100
AcDbCircle
 62
7
  6
BYLAYER
 10
22.2663045477
 20
43.6845833844
 40
1.4082226283
100
AcDbArc
 50
120.1529130198
 51
126.0519780554
  0
ARC
  5
2BA
100
AcDbEntity
  8
0
100
AcDbCircle
 62
7
  6
BYLAYER
 10
25.0240095128
 20
45.2767355845
 40
1.4082226283
100
AcDbArc
 50
120.1529130198
 51
126.0519780554
  0
ARC
  5
2BB
100
AcDbEntity
  8
0
100
AcDbCircle
 62
7
  6
BYLAYER
 10
25.0608815967
 20
38.8432832412
 40
1.4017669068
100
AcDbArc
 50
296.011175615
 51
300.1436121962
  0
ARC
  5
2BC
100
AcDbEntity
  8
0
100
AcDbCircle
 62
7
  6
BYLAYER
 10
27.8185865618
 20
40.4354354413
 40
1.4017669068
100
AcDbArc
 50
296.011175615
 51
300.1436121962
  0
ARC
  5
2BD
100
AcDbEntity
  8
0
100
AcDbCircle
 62
7
  6
BYLAYER
 10
18.9247820325
 20
41.0233431644
 40
1.4016503675
100
AcDbArc
 50
96.1151811907
 51
96.7965808346
  0
ARC
  5
2BE
100
AcDbEntity
  8
0
100
AcDbCircle
 62
7
  6
BYLAYER
 10
23.6062450418
 20
44.4659897277
 40
1.4014706007
100
AcDbArc
 50
120.1451031579
 51
121.2557012706
  0
SPLINE
  5
2BF
100
AcDbEntity
  8
0
100
AcDbSpline
 62
7
  6
BYLAYER
 70
0
 71
3
 72
12
 73
8
 74
0
 42
0.0000001
 43
0.0000001
 44
0.0000000001
 40
0.0
 40
0.0
 40
0.0
 40
0.0
 40
0.275340195
 40
0.530123414
 40
0.7691616742
 40
0.8851354121
 40
1.0
 40
1.0
 40
1.0
 40
1.0
 10
15.2306625537
 20
31.7006853001
 30
0.0
 10
15.3785890888
 20
31.654579635
 30
0.0
 10
15.6707718319
 20
31.5867392055
 30
0.0
 10
16.1057221408
 20
31.5662784712
 30
0.0
 10
16.4473967273
 20
31.6230934448
 30
0.0
 10
16.6969450622
 20
31.7120865723
 30
0.0
 10
16.8135199291
 20
31.7702694488
 30
0.0
 10
16.869499312
 20
31.802588264
 30
0.0
  0
SPLINE
  5
2C0
100
AcDbEntity
  8
0
100
AcDbSpline
 62
7
  6
BYLAYER
 70
0
 71
3
 72
10
 73
6
 74
0
 42
0.0000001
 43
0.0000001
 44
0.0000000001
 40
0.0
 40
0.0
 40
0.0
 40
0.0
 40
0.2302926652
 40
0.4821749681
 40
1.0
 40
1.0
 40
1.0
 40
1.0
 10
11.4320821361
 20
32.9482213336
 30
0.0
 10
11.4471947237
 20
32.9391381316
 30
0.0
 10
11.4765170709
 20
32.9161377017
 30
0.0
 10
11.5271600902
 20
32.8584497013
 30
0.0
 10
11.5550897114
 20
32.804925915
 30
0.0
 10
11.567099005
 20
32.767141567
 30
0.0
  0
SPLINE
  5
2C1
100
AcDbEntity
  8
0
100
AcDbSpline
 62
7
  6
BYLAYER
 70
0
 71
3
 72
11
 73
7
 74
0
 42
0.0000001
 43
0.0000001
 44
0.0000000001
 40
0.0
 40
0.0
 40
0.0
 40
0.0
 40
0.1891797064
 40
0.3984098299
 40
0.6650749988
 40
1.0
 40
1.0
 40
1.0
 40
1.0
 10
11.5844341674
 20
32.5722676847
 30
0.0
 10
11.5866400606
 20
32.5653645306
 30
0.0
 10
11.5945091057
 20
32.5515165858
 30
0.0
 10
11.6165728605
 20
32.5375364967
 30
0.0
 10
11.6463006063
 20
32.5281873062
 30
0.0
 10
11.669059931
 20
32.524212805
 30
0.0
 10
11.6817778952
 20
32.5225194845
 30
0.0
  0
SPLINE
  5
2C2
100
AcDbEntity
  8
0
100
AcDbSpline
 62
7
  6
BYLAYER
 70
0
 71
3
 72
12
 73
8
 74
0
 42
0.0000001
 43
0.0000001
 44
0.0000000001
 40
0.0
 40
0.0
 40
0.0
 40
0.0
 40
0.116579254
 40
0.2388839182
 40
0.4886651017
 40
0.7435365273
 40
1.0
 40
1.0
 40
1.0
 40
1.0
 10
11.2775934217
 20
32.8660007436
 30
0.0
 10
11.2781096297
 20
32.8960457984
 30
0.0
 10
11.2843610057
 20
32.9575854182
 30
0.0
 10
11.3142551801
 20
33.0802654574
 30
0.0
 10
11.3843364916
 20
33.2281014667
 30
0.0
 10
11.5099823879
 20
33.3810472427
 30
0.0
 10
11.6167114072
 20
33.4609261801
 30
0.0
 10
11.6739610285
 20
33.4939790671
 30
0.0
  0
SPLINE
  5
2C3
100
AcDbEntity
  8
0
100
AcDbSpline
 62
7
  6
BYLAYER
 70
0
 71
3
 72
11
 73
7
 74
0
 42
0.0000001
 43
0.0000001
 44
0.0000000001
 40
0.0
 40
0.0
 40
0.0
 40
0.0
 40
0.2509630558
 40
0.5006179987
 40
0.751674421
 40
1.0
 40
1.0
 40
1.0
 40
1.0
 10
11.4952268464
 20
32.5684429515
 30
0.0
 10
11.4714823317
 20
32.5780499482
 30
0.0
 10
11.4254594089
 20
32.6010811948
 30
0.0
 10
11.3656372798
 20
32.6502899789
 30
0.0
 10
11.3195885801
 20
32.7121447884
 30
0.0
 10
11.2985526481
 20
32.7590935749
 30
0.0
 10
11.2908754413
 20
32.7832480556
 30
0.0
  0
SPLINE
  5
2C4
100
AcDbEntity
  8
0
100
AcDbSpline
 62
7
  6
BYLAYER
 70
0
 71
3
 72
10
 73
6
 74
0
 42
0.0000001
 43
0.0000001
 44
0.0000000001
 40
0.0
 40
0.0
 40
0.0
 40
0.0
 40
0.2301988483
 40
0.4820447802
 40
1.0
 40
1.0
 40
1.0
 40
1.0
 10
10.1946401045
 20
32.2337627185
 30
0.0
 10
10.2097457028
 20
32.2246818681
 30
0.0
 10
10.2390628234
 20
32.2016921618
 30
0.0
 10
10.2897110579
 20
32.1440080437
 30
0.0
 10
10.3176446885
 20
32.0904774654
 30
0.0
 10
10.329656986
 20
32.0526836574
 30
0.0
  0
SPLINE
  5
2C5
100
AcDbEntity
  8
0
100
AcDbSpline
 62
7
  6
BYLAYER
 70
0
 71
3
 72
12
 73
8
 74
0
 42
0.0000001
 43
0.0000001
 44
0.0000000001
 40
0.0
 40
0.0
 40
0.0
 40
0.0
 40
0.0946227801
 40
0.1876306718
 40
0.3952413111
 40
0.6630918293
 40
1.0
 40
1.0
 40
1.0
 40
1.0
 10
10.3470693803
 20
31.8576980655
 30
0.0
 10
10.3482111485
 20
31.8540501
 30
0.0
 10
10.3511852103
 20
31.8469941772
 30
0.0
 10
10.3610079455
 20
31.8341817708
 30
0.0
 10
10.3811683005
 20
31.8219475899
 30
0.0
 10
10.4127670306
 20
31.8127526191
 30
0.0
 10
10.4369512916
 20
31.8089089178
 30
0.0
 10
10.4504642699
 20
31.8072862113
 30
0.0
  0
SPLINE
  5
2C6
100
AcDbEntity
  8
0
100
AcDbSpline
 62
7
  6
BYLAYER
 70
0
 71
3
 72
12
 73
8
 74
0
 42
0.0000001
 43
0.0000001
 44
0.0000000001
 40
0.0
 40
0.0
 40
0.0
 40
0.0
 40
0.116597695
 40
0.2389019282
 40
0.4886727024
 40
0.743542305
 40
1.0
 40
1.0
 40
1.0
 40
1.0
 10
10.0401511452
 20
32.1515221264
 30
0.0
 10
10.0406681792
 20
32.181572722
 30
0.0
 10
10.0469172946
 20
32.2431187341
 30
0.0
 10
10.0768103033
 20
32.365804867
 30
0.0
 10
10.1468940263
 20
32.5136409028
 30
0.0
 10
10.2725388592
 20
32.6665880752
 30
0.0
 10
10.3792691524
 20
32.7464681344
 30
0.0
 10
10.4365190094
 20
32.7795211575
 30
0.0
  0
SPLINE
  5
2C7
100
AcDbEntity
  8
0
100
AcDbSpline
 62
7
  6
BYLAYER
 70
0
 71
3
 72
11
 73
7
 74
0
 42
0.0000001
 43
0.0000001
 44
0.0000000001
 40
0.0
 40
0.0
 40
0.0
 40
0.0
 40
0.2510811063
 40
0.5006643805
 40
0.7519091505
 40
1.0
 40
1.0
 40
1.0
 40
1.0
 10
10.2577264916
 20
31.8538350958
 30
0.0
 10
10.2340180994
 20
31.8635698231
 30
0.0
 10
10.1880297612
 20
31.8866455252
 30
0.0
 10
10.1281226356
 20
31.9358084423
 30
0.0
 10
10.0821176432
 20
31.9977019735
 30
0.0
 10
10.061104173
 20
32.0446559396
 30
0.0
 10
10.0534334223
 20
32.068790146
 30
0.0
  0
SPLINE
  5
2C8
100
AcDbEntity
  8
0
100
AcDbSpline
 62
7
  6
BYLAYER
 70
0
 71
3
 72
9
 73
5
 74
0
 42
0.0000001
 43
0.0000001
 44
0.0000000001
 40
0.0
 40
0.0
 40
0.0
 40
0.0
 40
0.5222798398
 40
1.0
 40
1.0
 40
1.0
 40
1.0
 10
40.8798747022
 20
48.023121267
 30
0.0
 10
40.8798747022
 20
47.8605055507
 30
0.0
 10
40.8593695133
 20
47.5486136647
 30
0.0
 10
40.7884031781
 20
47.2434255351
 30
0.0
 10
40.740054213
 20
47.1027611142
 30
0.0
  0
SPLINE
  5
2C9
100
AcDbEntity
  8
0
100
AcDbSpline
 62
7
  6
BYLAYER
 70
0
 71
3
 72
11
 73
7
 74
0
 42
0.0000001
 43
0.0000001
 44
0.0000000001
 40
0.0
 40
0.0
 40
0.0
 40
0.0
 40
0.2691422169
 40
0.5225587932
 40
0.7643786536
 40
1.0
 40
1.0
 40
1.0
 40
1.0
 10
40.740054213
 20
47.1027611142
 30
0.0
 10
40.707522847
 20
47.0081157425
 30
0.0
 10
40.6314666562
 20
46.8283472921
 30
0.0
 10
40.4787756229
 20
46.5869549299
 30
0.0
 10
40.2931012293
 20
46.3863275272
 30
0.0
 10
40.1480058121
 20
46.2815801861
 30
0.0
 10
40.0721333464
 20
46.2377642309
 30
0.0
  0
SPLINE
  5
2CA
100
AcDbEntity
  8
0
100
AcDbSpline
 62
7
  6
BYLAYER
 70
0
 71
3
 72
10
 73
6
 74
0
 42
0.0000001
 43
0.0000001
 44
0.0000000001
 40
0.0
 40
0.0
 40
0.0
 40
0.0
 40
0.2302926652
 40
0.4821749681
 40
1.0
 40
1.0
 40
1.0
 40
1.0
 10
8.9571980981
 20
34.3770639744
 30
0.0
 10
8.9723106857
 20
34.3679807724
 30
0.0
 10
9.0016330329
 20
34.3449803425
 30
0.0
 10
9.0522760522
 20
34.2872923422
 30
0.0
 10
9.0802056734
 20
34.2337685558
 30
0.0
 10
9.092214967
 20
34.1959842078
 30
0.0
  0
SPLINE
  5
2CB
100
AcDbEntity
  8
0
100
AcDbSpline
 62
7
  6
BYLAYER
 70
0
 71
3
 72
11
 73
7
 74
0
 42
0.0000001
 43
0.0000001
 44
0.0000000001
 40
0.0
 40
0.0
 40
0.0
 40
0.0
 40
0.1891797064
 40
0.3984098299
 40
0.6650749988
 40
1.0
 40
1.0
 40
1.0
 40
1.0
 10
9.1095501293
 20
34.0011103255
 30
0.0
 10
9.1117560226
 20
33.9942071715
 30
0.0
 10
9.1196250677
 20
33.9803592267
 30
0.0
 10
9.1416888225
 20
33.9663791375
 30
0.0
 10
9.1714165683
 20
33.957029947
 30
0.0
 10
9.194175893
 20
33.9530554458
 30
0.0
 10
9.2068938572
 20
33.9513621253
 30
0.0
  0
SPLINE
  5
2CC
100
AcDbEntity
  8
0
100
AcDbSpline
 62
7
  6
BYLAYER
 70
0
 71
3
 72
17
 73
13
 74
0
 42
0.0000001
 43
0.0000001
 44
0.0000000001
 40
0.0
 40
0.0
 40
0.0
 40
0.0
 40
0.1523611231
 40
0.3032479242
 40
0.4480987705
 40
0.583064426
 40
0.705342991
 40
0.8139189189
 40
0.8635589643
 40
0.9106182695
 40
0.9558041158
 40
1.0
 40
1.0
 40
1.0
 40
1.0
 10
58.2993972189
 20
61.6227106542
 30
0.0
 10
58.3869186507
 20
61.4968383079
 30
0.0
 10
58.5455647461
 20
61.2351151364
 30
0.0
 10
58.7308465729
 20
60.8228283285
 30
0.0
 10
58.8565883173
 20
60.4067069257
 30
0.0
 10
58.9172081661
 20
60.0049954072
 30
0.0
 10
58.9098342652
 20
59.6349756727
 30
0.0
 10
58.8440649275
 20
59.3572334691
 30
0.0
 10
58.7550313742
 20
59.1700796036
 30
0.0
 10
58.6741456119
 20
59.0516439989
 30
0.0
 10
58.5780551649
 20
58.9526311511
 30
0.0
 10
58.5042319669
 20
58.9001960534
 30
0.0
 10
58.4657153633
 20
58.8779667162
 30
0.0
  0
SPLINE
  5
2CD
100
AcDbEntity
  8
0
100
AcDbSpline
 62
7
  6
BYLAYER
 70
0
 71
3
 72
12
 73
8
 74
0
 42
0.0000001
 43
0.0000001
 44
0.0000000001
 40
0.0
 40
0.0
 40
0.0
 40
0.0
 40
0.116579254
 40
0.2388839182
 40
0.4886651017
 40
0.7435365273
 40
1.0
 40
1.0
 40
1.0
 40
1.0
 10
8.8027093837
 20
34.2948433844
 30
0.0
 10
8.8032255916
 20
34.3248884393
 30
0.0
 10
8.8094769677
 20
34.3864280591
 30
0.0
 10
8.839371142
 20
34.5091080982
 30
0.0
 10
8.9094524536
 20
34.6569441075
 30
0.0
 10
9.0350983499
 20
34.8098898835
 30
0.0
 10
9.1418273692
 20
34.8897688209
 30
0.0
 10
9.1990769904
 20
34.9228217079
 30
0.0
  0
SPLINE
  5
2CE
100
AcDbEntity
  8
0
100
AcDbSpline
 62
7
  6
BYLAYER
 70
0
 71
3
 72
11
 73
7
 74
0
 42
0.0000001
 43
0.0000001
 44
0.0000000001
 40
0.0
 40
0.0
 40
0.0
 40
0.0
 40
0.2509630558
 40
0.5006179987
 40
0.751674421
 40
1.0
 40
1.0
 40
1.0
 40
1.0
 10
9.0203428084
 20
33.9972855923
 30
0.0
 10
8.9965982937
 20
34.0068925891
 30
0.0
 10
8.9505753709
 20
34.0299238356
 30
0.0
 10
8.8907532418
 20
34.0791326197
 30
0.0
 10
8.8447045421
 20
34.1409874292
 30
0.0
 10
8.8236686101
 20
34.1879362157
 30
0.0
 10
8.8159914033
 20
34.2120906964
 30
0.0
  0
SPLINE
  5
2CF
100
AcDbEntity
  8
0
100
AcDbSpline
 62
7
  6
BYLAYER
 70
0
 71
3
 72
13
 73
9
 74
0
 42
0.0000001
 43
0.0000001
 44
0.0000000001
 40
0.0
 40
0.0
 40
0.0
 40
0.0
 40
0.3014334063
 40
0.4378108255
 40
0.5646364432
 40
0.7928570234
 40
0.8981537845
 40
1.0
 40
1.0
 40
1.0
 40
1.0
 10
12.1471030559
 20
32.1261589209
 30
0.0
 10
12.1431484341
 20
31.9913577785
 30
0.0
 10
12.1222651302
 20
31.7950864033
 30
0.0
 10
12.0560756852
 20
31.5507892788
 30
0.0
 10
11.9748226798
 20
31.3461983562
 30
0.0
 10
11.8627815896
 20
31.1694467883
 30
0.0
 10
11.7221947451
 20
31.0336216409
 30
0.0
 10
11.6456442561
 20
30.9805090353
 30
0.0
 10
11.6061835208
 20
30.9577265052
 30
0.0
  0
SPLINE
  5
2D0
100
AcDbEntity
  8
0
100
AcDbSpline
 62
7
  6
BYLAYER
 70
0
 71
3
 72
8
 73
4
 74
0
 42
0.0000001
 43
0.0000001
 44
0.0000000001
 40
0.0
 40
0.0
 40
0.0
 40
0.0
 40
1.0
 40
1.0
 40
1.0
 40
1.0
 10
9.0628164927
 20
34.1984440159
 30
0.0
 10
9.0695449704
 20
34.1952271304
 30
0.0
 10
9.0763736515
 20
34.1922163767
 30
0.0
 10
9.0832588725
 20
34.1893502824
 30
0.0
  0
SPLINE
  5
2D1
100
AcDbEntity
  8
0
100
AcDbSpline
 62
7
  6
BYLAYER
 70
0
 71
3
 72
9
 73
5
 74
0
 42
0.0000001
 43
0.0000001
 44
0.0000000001
 40
0.0
 40
0.0
 40
0.0
 40
0.0
 40
0.2410958223
 40
1.0
 40
1.0
 40
1.0
 40
1.0
 10
9.0163748322
 20
34.3222917014
 30
0.0
 10
9.0153518378
 20
34.3216312175
 30
0.0
 10
9.0113177461
 20
34.3185648707
 30
0.0
 10
9.008322853
 20
34.3142567593
 30
0.0
 10
9.0066975492
 20
34.3107854732
 30
0.0
  0
SPLINE
  5
2D2
100
AcDbEntity
  8
0
100
AcDbSpline
 62
7
  6
BYLAYER
 70
0
 71
3
 72
8
 73
4
 74
0
 42
0.0000001
 43
0.0000001
 44
0.0000000001
 40
0.0
 40
0.0
 40
0.0
 40
0.0
 40
1.0
 40
1.0
 40
1.0
 40
1.0
 10
9.0066975492
 20
34.3107854732
 30
0.0
 10
9.005872466
 20
34.3090232798
 30
0.0
 10
9.0051952557
 20
34.3071867602
 30
0.0
 10
9.0046508225
 20
34.3053186915
 30
0.0
  0
SPLINE
  5
2D3
100
AcDbEntity
  8
0
100
AcDbSpline
 62
7
  6
BYLAYER
 70
0
 71
3
 72
9
 73
5
 74
0
 42
0.0000001
 43
0.0000001
 44
0.0000000001
 40
0.0
 40
0.0
 40
0.0
 40
0.0
 40
0.2364887276
 40
1.0
 40
1.0
 40
1.0
 40
1.0
 10
9.0046508225
 20
34.3053186915
 30
0.0
 10
9.0043410559
 20
34.3042558152
 30
0.0
 10
9.0032101421
 20
34.2997095086
 30
0.0
 10
9.0027506657
 20
34.2950103247
 30
0.0
 10
9.002687622
 20
34.2914365867
 30
0.0
  0
SPLINE
  5
2D4
100
AcDbEntity
  8
0
100
AcDbSpline
 62
7
  6
BYLAYER
 70
0
 71
3
 72
19
 73
15
 74
0
 42
0.0000001
 43
0.0000001
 44
0.0000000001
 40
0.0
 40
0.0
 40
0.0
 40
0.0
 40
0.0385370026
 40
0.0789418783
 40
0.1223233435
 40
0.1695543152
 40
0.2212240079
 40
0.2774183301
 40
0.3380031446
 40
0.4026732278
 40
0.5423472909
 40
0.6920948324
 40
0.8465544012
 40
1.0
 40
1.0
 40
1.0
 40
1.0
 10
8.7061965038
 20
35.9806813428
 30
0.0
 10
8.7549786131
 20
36.0088455386
 30
0.0
 10
8.8611405604
 20
36.0563587314
 30
0.0
 10
9.0365659245
 20
36.0959759871
 30
0.0
 10
9.2289059701
 20
36.1033550731
 30
0.0
 10
9.4360571875
 20
36.0774082187
 30
0.0
 10
9.6553567563
 20
36.017400868
 30
0.0
 10
9.8835672817
 20
35.9235283795
 30
0.0
 10
10.1168051163
 20
35.7962780594
 30
0.0
 10
10.4377684475
 20
35.5787548119
 30
0.0
 10
10.8260781295
 20
35.2328834784
 30
0.0
 10
11.2443662175
 20
34.7343576202
 30
0.0
 10
11.6038022627
 20
34.1680293328
 30
0.0
 10
11.7944131077
 20
33.7585916353
 30
0.0
 10
11.8747405563
 20
33.5491816251
 30
0.0
  0
SPLINE
  5
2D5
100
AcDbEntity
  8
0
100
AcDbSpline
 62
7
  6
BYLAYER
 70
0
 71
3
 72
9
 73
5
 74
0
 42
0.0000001
 43
0.0000001
 44
0.0000000001
 40
0.0
 40
0.0
 40
0.0
 40
0.0
 40
0.2558717245
 40
1.0
 40
1.0
 40
1.0
 40
1.0
 10
11.9430825007
 20
33.3589833165
 30
0.0
 10
11.9581086593
 20
33.3141339294
 30
0.0
 10
12.0141063552
 20
33.1379585974
 30
0.0
 10
12.0590916229
 20
32.9582244365
 30
0.0
 10
12.0852952513
 20
32.823186184
 30
0.0
  0
SPLINE
  5
2D6
100
AcDbEntity
  8
0
100
AcDbSpline
 62
7
  6
BYLAYER
 70
0
 71
3
 72
9
 73
5
 74
0
 42
0.0000001
 43
0.0000001
 44
0.0000000001
 40
0.0
 40
0.0
 40
0.0
 40
0.0
 40
0.2580886347
 40
1.0
 40
1.0
 40
1.0
 40
1.0
 10
12.1209930862
 20
32.6041512533
 30
0.0
 10
12.1254869578
 20
32.5698974689
 30
0.0
 10
12.1409037444
 20
32.4369293685
 30
0.0
 10
12.1482301603
 20
32.302968591
 30
0.0
 10
12.1482301603
 20
32.203657585
 30
0.0
  0
SPLINE
  5
2D7
100
AcDbEntity
  8
0
100
AcDbSpline
 62
7
  6
BYLAYER
 70
0
 71
3
 72
14
 73
10
 74
0
 42
0.0000001
 43
0.0000001
 44
0.0000000001
 40
0.0
 40
0.0
 40
0.0
 40
0.0
 40
0.2866932884
 40
0.4193128542
 40
0.5450551883
 40
0.6647346392
 40
0.7794556324
 40
0.8906580364
 40
1.0
 40
1.0
 40
1.0
 40
1.0
 10
7.5959513712
 20
34.7959858663
 30
0.0
 10
7.5959513712
 20
34.9717798373
 30
0.0
 10
7.616613717
 20
35.2301553979
 30
0.0
 10
7.6963392156
 20
35.5553107331
 30
0.0
 10
7.7778094516
 20
35.7729920682
 30
0.0
 10
7.8820327084
 20
35.9684704086
 30
0.0
 10
8.0082730646
 20
36.1397218169
 30
0.0
 10
8.1555486506
 20
36.2843986252
 30
0.0
 10
8.2670684738
 20
36.3622365182
 30
0.0
 10
8.3251321593
 20
36.3957594026
 30
0.0
  0
SPLINE
  5
2D8
100
AcDbEntity
  8
0
100
AcDbSpline
 62
7
  6
BYLAYER
 70
0
 71
3
 72
11
 73
7
 74
0
 42
0.0000001
 43
0.0000001
 44
0.0000000001
 40
0.0
 40
0.0
 40
0.0
 40
0.0
 40
0.2354154207
 40
0.4771364266
 40
0.7305818042
 40
1.0
 40
1.0
 40
1.0
 40
1.0
 10
11.7751167141
 20
30.4201751992
 30
0.0
 10
11.7016072587
 20
30.3777347487
 30
0.0
 10
11.5427338383
 20
30.3077882779
 30
0.0
 10
11.283131877
 20
30.2538850875
 30
0.0
 10
11.0059778769
 20
30.2506430847
 30
0.0
 10
10.8189132812
 20
30.2805178701
 30
0.0
 10
10.7243238901
 20
30.3026375579
 30
0.0
  0
SPLINE
  5
2D9
100
AcDbEntity
  8
0
100
AcDbSpline
 62
7
  6
BYLAYER
 70
0
 71
3
 72
16
 73
12
 74
0
 42
0.0000001
 43
0.0000001
 44
0.0000000001
 40
0.0
 40
0.0
 40
0.0
 40
0.0
 40
0.1029515385
 40
0.1593219463
 40
0.2187357769
 40
0.3453178022
 40
0.4793753462
 40
0.6164901842
 40
0.751888154
 40
0.8809791514
 40
1.0
 40
1.0
 40
1.0
 40
1.0
 10
10.7243238901
 20
30.3026375579
 30
0.0
 10
10.5311157917
 20
30.3478191872
 30
0.0
 10
10.2415802585
 20
30.4612411147
 30
0.0
 10
9.8768504989
 20
30.6730911977
 30
0.0
 10
9.4962647667
 20
30.9451406625
 30
0.0
 10
9.0429535429
 20
31.3675600328
 30
0.0
 10
8.5618850379
 20
31.9674162817
 30
0.0
 10
8.1563444926
 20
32.6405862458
 30
0.0
 10
7.8470947494
 20
33.3527972917
 30
0.0
 10
7.6498317685
 20
34.0676844928
 30
0.0
 10
7.5974643177
 20
34.5460779603
 30
0.0
 10
7.5960162733
 20
34.7754647411
 30
0.0
  0
SPLINE
  5
2DA
100
AcDbEntity
  8
0
100
AcDbSpline
 62
7
  6
BYLAYER
 70
0
 71
3
 72
9
 73
5
 74
0
 42
0.0000001
 43
0.0000001
 44
0.0000000001
 40
0.0
 40
0.0
 40
0.0
 40
0.0
 40
0.5314771554
 40
1.0
 40
1.0
 40
1.0
 40
1.0
 10
9.083652229
 20
34.1972290923
 30
0.0
 10
9.0812653367
 20
34.1816343201
 30
0.0
 10
9.0781443698
 20
34.1520912412
 30
0.0
 10
9.0776569092
 20
34.1222976532
 30
0.0
 10
9.0788095066
 20
34.1084378533
 30
0.0
  0
SPLINE
  5
2DB
100
AcDbEntity
  8
0
100
AcDbSpline
 62
7
  6
BYLAYER
 70
0
 71
3
 72
9
 73
5
 74
0
 42
0.0000001
 43
0.0000001
 44
0.0000000001
 40
0.0
 40
0.0
 40
0.0
 40
0.0
 40
0.2788874922
 40
1.0
 40
1.0
 40
1.0
 40
1.0
 10
9.0788095066
 20
34.1084378533
 30
0.0
 10
9.0789962239
 20
34.1061926078
 30
0.0
 10
9.0798191919
 20
34.0981631849
 30
0.0
 10
9.0812086358
 20
34.0901358327
 30
0.0
 10
9.0829934512
 20
34.0845904677
 30
0.0
  0
SPLINE
  5
2DC
100
AcDbEntity
  8
0
100
AcDbSpline
 62
7
  6
BYLAYER
 70
0
 71
3
 72
11
 73
7
 74
0
 42
0.0000001
 43
0.0000001
 44
0.0000000001
 40
0.0
 40
0.0
 40
0.0
 40
0.0
 40
0.2775435436
 40
0.5329682793
 40
0.7712276517
 40
1.0
 40
1.0
 40
1.0
 40
1.0
 10
11.2841125348
 20
30.283425482
 30
0.0
 10
11.4148308127
 20
30.237767912
 30
0.0
 10
11.6731559775
 20
30.1687573982
 30
0.0
 10
12.0594220404
 20
30.1398922683
 30
0.0
 10
12.4192362522
 20
30.1922718696
 30
0.0
 10
12.6371527771
 20
30.2828139035
 30
0.0
 10
12.7360011637
 20
30.3398660784
 30
0.0
  0
SPLINE
  5
2DD
100
AcDbEntity
  8
0
100
AcDbSpline
 62
7
  6
BYLAYER
 70
0
 71
3
 72
8
 73
4
 74
0
 42
0.0000001
 43
0.0000001
 44
0.0000000001
 40
0.0
 40
0.0
 40
0.0
 40
0.0
 40
1.0
 40
1.0
 40
1.0
 40
1.0
 10
10.3002585117
 20
32.0551434655
 30
0.0
 10
10.3068808466
 20
32.0519773269
 30
0.0
 10
10.3136002435
 20
32.049010846
 30
0.0
 10
10.3203749959
 20
32.0461855171
 30
0.0
  0
SPLINE
  5
2DE
100
AcDbEntity
  8
0
100
AcDbSpline
 62
7
  6
BYLAYER
 70
0
 71
3
 72
9
 73
5
 74
0
 42
0.0000001
 43
0.0000001
 44
0.0000000001
 40
0.0
 40
0.0
 40
0.0
 40
0.0
 40
0.2409430457
 40
1.0
 40
1.0
 40
1.0
 40
1.0
 10
10.2532215733
 20
32.1785939842
 30
0.0
 10
10.2522660899
 20
32.1779354665
 30
0.0
 10
10.2485003176
 20
32.1749107334
 30
0.0
 10
10.2456897432
 20
32.1707957505
 30
0.0
 10
10.2441395682
 20
32.1674849228
 30
0.0
  0
SPLINE
  5
2DF
100
AcDbEntity
  8
0
100
AcDbSpline
 62
7
  6
BYLAYER
 70
0
 71
3
 72
8
 73
4
 74
0
 42
0.0000001
 43
0.0000001
 44
0.0000000001
 40
0.0
 40
0.0
 40
0.0
 40
0.0
 40
1.0
 40
1.0
 40
1.0
 40
1.0
 10
10.2441395682
 20
32.1674849228
 30
0.0
 10
10.243314485
 20
32.1657227294
 30
0.0
 10
10.2426372747
 20
32.1638862098
 30
0.0
 10
10.2420928415
 20
32.1620181411
 30
0.0
  0
SPLINE
  5
2E0
100
AcDbEntity
  8
0
100
AcDbSpline
 62
7
  6
BYLAYER
 70
0
 71
3
 72
9
 73
5
 74
0
 42
0.0000001
 43
0.0000001
 44
0.0000000001
 40
0.0
 40
0.0
 40
0.0
 40
0.0
 40
0.2364887276
 40
1.0
 40
1.0
 40
1.0
 40
1.0
 10
10.2420928415
 20
32.1620181411
 30
0.0
 10
10.2417830749
 20
32.1609552648
 30
0.0
 10
10.2406521611
 20
32.1564089582
 30
0.0
 10
10.2401926847
 20
32.1517097743
 30
0.0
 10
10.240129641
 20
32.1481360363
 30
0.0
  0
SPLINE
  5
2E1
100
AcDbEntity
  8
0
100
AcDbSpline
 62
7
  6
BYLAYER
 70
0
 71
3
 72
15
 73
11
 74
0
 42
0.0000001
 43
0.0000001
 44
0.0000000001
 40
0.0
 40
0.0
 40
0.0
 40
0.0
 40
0.0928916567
 40
0.1912804169
 40
0.2992133036
 40
0.4187610448
 40
0.5501975264
 40
0.6923670586
 40
0.8432944966
 40
1.0
 40
1.0
 40
1.0
 40
1.0
 10
56.3157373131
 20
62.601860089
 30
0.0
 10
56.3800343433
 20
62.638968251
 30
0.0
 10
56.5254560652
 20
62.6946193281
 30
0.0
 10
56.7668429202
 20
62.7112530972
 30
0.0
 10
57.0252631134
 20
62.6644841332
 30
0.0
 10
57.2930400191
 20
62.5574083975
 30
0.0
 10
57.5627811787
 20
62.3940165194
 30
0.0
 10
57.8268115215
 20
62.1794657335
 30
0.0
 10
58.0770378379
 20
61.9203417879
 30
0.0
 10
58.2279027333
 20
61.7255332256
 30
0.0
 10
58.2993972189
 20
61.6227106542
 30
0.0
  0
SPLINE
  5
2E2
100
AcDbEntity
  8
0
100
AcDbSpline
 62
7
  6
BYLAYER
 70
0
 71
3
 72
9
 73
5
 74
0
 42
0.0000001
 43
0.0000001
 44
0.0000000001
 40
0.0
 40
0.0
 40
0.0
 40
0.0
 40
0.4489661513
 40
1.0
 40
1.0
 40
1.0
 40
1.0
 10
10.7969118953
 20
31.8864781962
 30
0.0
 10
10.7935534958
 20
31.8811507506
 30
0.0
 10
10.7836753285
 20
31.8708316018
 30
0.0
 10
10.7718735705
 20
31.8631414475
 30
0.0
 10
10.765135114
 20
31.8593551155
 30
0.0
  0
SPLINE
  5
2E3
100
AcDbEntity
  8
0
100
AcDbSpline
 62
7
  6
BYLAYER
 70
0
 71
3
 72
9
 73
5
 74
0
 42
0.0000001
 43
0.0000001
 44
0.0000000001
 40
0.0
 40
0.0
 40
0.0
 40
0.0
 40
0.2355655707
 40
1.0
 40
1.0
 40
1.0
 40
1.0
 10
10.765135114
 20
31.8593551155
 30
0.0
 10
10.7631857973
 20
31.8582597964
 30
0.0
 10
10.75481567
 20
31.8537795519
 30
0.0
 10
10.7461197739
 20
31.8499233965
 30
0.0
 10
10.7393754119
 20
31.8472471312
 30
0.0
  0
SPLINE
  5
2E4
100
AcDbEntity
  8
0
100
AcDbSpline
 62
7
  6
BYLAYER
 70
0
 71
3
 72
9
 73
5
 74
0
 42
0.0000001
 43
0.0000001
 44
0.0000000001
 40
0.0
 40
0.0
 40
0.0
 40
0.0
 40
0.3035408467
 40
1.0
 40
1.0
 40
1.0
 40
1.0
 10
10.805204818
 20
31.8934248734
 30
0.0
 10
10.8042530036
 20
31.8928753463
 30
0.0
 10
10.8012043739
 20
31.890960878
 30
0.0
 10
10.7982566797
 20
31.8886114343
 30
0.0
 10
10.7969118953
 20
31.8864781962
 30
0.0
  0
SPLINE
  5
2E5
100
AcDbEntity
  8
0
100
AcDbSpline
 62
7
  6
BYLAYER
 70
0
 71
3
 72
9
 73
5
 74
0
 42
0.0000001
 43
0.0000001
 44
0.0000000001
 40
0.0
 40
0.0
 40
0.0
 40
0.0
 40
0.2582030185
 40
1.0
 40
1.0
 40
1.0
 40
1.0
 10
10.3199513802
 20
32.0460976788
 30
0.0
 10
10.3193883479
 20
32.0420402383
 30
0.0
 10
10.3173826988
 20
32.0263031324
 30
0.0
 10
10.3160844275
 20
32.0104695248
 30
0.0
 10
10.3156491575
 20
31.9987091748
 30
0.0
  0
SPLINE
  5
2E6
100
AcDbEntity
  8
0
100
AcDbSpline
 62
7
  6
BYLAYER
 70
0
 71
3
 72
9
 73
5
 74
0
 42
0.0000001
 43
0.0000001
 44
0.0000000001
 40
0.0
 40
0.0
 40
0.0
 40
0.0
 40
0.2600667142
 40
1.0
 40
1.0
 40
1.0
 40
1.0
 10
10.3156491575
 20
31.9987091748
 30
0.0
 10
10.3155645662
 20
31.9964236414
 30
0.0
 10
10.3153183343
 20
31.9876331368
 30
0.0
 10
10.315402495
 20
31.9788295283
 30
0.0
 10
10.315737415
 20
31.9723309759
 30
0.0
  0
SPLINE
  5
2E7
100
AcDbEntity
  8
0
100
AcDbSpline
 62
7
  6
BYLAYER
 70
0
 71
3
 72
9
 73
5
 74
0
 42
0.0000001
 43
0.0000001
 44
0.0000000001
 40
0.0
 40
0.0
 40
0.0
 40
0.0
 40
0.280205781
 40
1.0
 40
1.0
 40
1.0
 40
1.0
 10
10.315737415
 20
31.9723309759
 30
0.0
 10
10.3158892726
 20
31.9693844377
 30
0.0
 10
10.3166532764
 20
31.9588946706
 30
0.0
 10
10.3182140301
 20
31.9483683933
 30
0.0
 10
10.3204981908
 20
31.94114165
 30
0.0
  0
SPLINE
  5
2E8
100
AcDbEntity
  8
0
100
AcDbSpline
 62
7
  6
BYLAYER
 70
0
 71
3
 72
10
 73
6
 74
0
 42
0.0000001
 43
0.0000001
 44
0.0000000001
 40
0.0
 40
0.0
 40
0.0
 40
0.0
 40
0.2410561878
 40
0.4859854083
 40
1.0
 40
1.0
 40
1.0
 40
1.0
 10
34.1922694576
 20
51.8496725576
 30
0.0
 10
34.1333726259
 20
51.8156599429
 30
0.0
 10
34.0198312764
 20
51.7375589712
 30
0.0
 10
33.8141890517
 20
51.543171983
 30
0.0
 10
33.6935160255
 20
51.3619158344
 30
0.0
 10
33.6282249264
 20
51.2324183761
 30
0.0
  0
SPLINE
  5
2E9
100
AcDbEntity
  8
0
100
AcDbSpline
 62
7
  6
BYLAYER
 70
0
 71
3
 72
11
 73
7
 74
0
 42
0.0000001
 43
0.0000001
 44
0.0000000001
 40
0.0
 40
0.0
 40
0.0
 40
0.0
 40
0.2361669196
 40
0.4782689823
 40
0.7315333318
 40
1.0
 40
1.0
 40
1.0
 40
1.0
 10
36.1721602018
 20
52.9927561884
 30
0.0
 10
36.246292419
 20
53.0355671591
 30
0.0
 10
36.4055120858
 20
53.1074302917
 30
0.0
 10
36.6651372874
 20
53.1682566468
 30
0.0
 10
36.942980302
 20
53.1822478903
 30
0.0
 10
37.1317685621
 20
53.1612581897
 30
0.0
 10
37.2275220443
 20
53.143901216
 30
0.0
  0
SPLINE
  5
2EA
100
AcDbEntity
  8
0
100
AcDbSpline
 62
7
  6
BYLAYER
 70
0
 71
3
 72
9
 73
5
 74
0
 42
0.0000001
 43
0.0000001
 44
0.0000000001
 40
0.0
 40
0.0
 40
0.0
 40
0.0
 40
0.4768045377
 40
1.0
 40
1.0
 40
1.0
 40
1.0
 10
37.2275220443
 20
53.143901216
 30
0.0
 10
37.3779941241
 20
53.1166255507
 30
0.0
 10
37.68775606
 20
53.0253105367
 30
0.0
 10
37.976896745
 20
52.8834660771
 30
0.0
 10
38.122217392
 20
52.7995627715
 30
0.0
  0
SPLINE
  5
2EB
100
AcDbEntity
  8
0
100
AcDbSpline
 62
7
  6
BYLAYER
 70
0
 71
3
 72
8
 73
4
 74
0
 42
0.0000001
 43
0.0000001
 44
0.0000000001
 40
0.0
 40
0.0
 40
0.0
 40
0.0
 40
1.0
 40
1.0
 40
1.0
 40
1.0
 10
11.5377005308
 20
32.7696013751
 30
0.0
 10
11.5444290084
 20
32.7663844896
 30
0.0
 10
11.5512576895
 20
32.7633737358
 30
0.0
 10
11.5581429105
 20
32.7605076415
 30
0.0
  0
SPLINE
  5
2EC
100
AcDbEntity
  8
0
100
AcDbSpline
 62
7
  6
BYLAYER
 70
0
 71
3
 72
9
 73
5
 74
0
 42
0.0000001
 43
0.0000001
 44
0.0000000001
 40
0.0
 40
0.0
 40
0.0
 40
0.0
 40
0.2410958223
 40
1.0
 40
1.0
 40
1.0
 40
1.0
 10
11.4912588702
 20
32.8934490606
 30
0.0
 10
11.4902358758
 20
32.8927885767
 30
0.0
 10
11.4862017842
 20
32.8897222299
 30
0.0
 10
11.483206891
 20
32.8854141184
 30
0.0
 10
11.4815815872
 20
32.8819428324
 30
0.0
  0
SPLINE
  5
2ED
100
AcDbEntity
  8
0
100
AcDbSpline
 62
7
  6
BYLAYER
 70
0
 71
3
 72
8
 73
4
 74
0
 42
0.0000001
 43
0.0000001
 44
0.0000000001
 40
0.0
 40
0.0
 40
0.0
 40
0.0
 40
1.0
 40
1.0
 40
1.0
 40
1.0
 10
11.4815815872
 20
32.8819428324
 30
0.0
 10
11.480756504
 20
32.8801806389
 30
0.0
 10
11.4800792937
 20
32.8783441193
 30
0.0
 10
11.4795348605
 20
32.8764760507
 30
0.0
  0
SPLINE
  5
2EE
100
AcDbEntity
  8
0
100
AcDbSpline
 62
7
  6
BYLAYER
 70
0
 71
3
 72
9
 73
5
 74
0
 42
0.0000001
 43
0.0000001
 44
0.0000000001
 40
0.0
 40
0.0
 40
0.0
 40
0.0
 40
0.2364887276
 40
1.0
 40
1.0
 40
1.0
 40
1.0
 10
11.4795348605
 20
32.8764760507
 30
0.0
 10
11.4792250939
 20
32.8754131743
 30
0.0
 10
11.4780941801
 20
32.8708668678
 30
0.0
 10
11.4776347037
 20
32.8661676839
 30
0.0
 10
11.47757166
 20
32.8625939459
 30
0.0
  0
SPLINE
  5
2EF
100
AcDbEntity
  8
0
100
AcDbSpline
 62
7
  6
BYLAYER
 70
0
 71
3
 72
11
 73
7
 74
0
 42
0.0000001
 43
0.0000001
 44
0.0000000001
 40
0.0
 40
0.0
 40
0.0
 40
0.0
 40
0.2632555802
 40
0.51545195
 40
0.7597820077
 40
1.0
 40
1.0
 40
1.0
 40
1.0
 10
37.2462106247
 20
44.9167614117
 30
0.0
 10
37.3229561717
 20
44.9111671774
 30
0.0
 10
37.4741397196
 20
44.9095418643
 30
0.0
 10
37.6951121618
 20
44.938500305
 30
0.0
 10
37.9027661077
 20
44.9986499725
 30
0.0
 10
38.0314381579
 20
45.059566349
 30
0.0
 10
38.0922426022
 20
45.0946806
 30
0.0
  0
SPLINE
  5
2F0
100
AcDbEntity
  8
0
100
AcDbSpline
 62
7
  6
BYLAYER
 70
0
 71
3
 72
23
 73
19
 74
0
 42
0.0000001
 43
0.0000001
 44
0.0000000001
 40
0.0
 40
0.0
 40
0.0
 40
0.0
 40
0.0458057397
 40
0.0928805822
 40
0.1424379894
 40
0.1953313068
 40
0.2520864607
 40
0.312826063
 40
0.3773222768
 40
0.4450681928
 40
0.5153419449
 40
0.5872694882
 40
0.6598858061
 40
0.7321914177
 40
0.8032010755
 40
0.8719889723
 40
0.9378095376
 40
1.0
 40
1.0
 40
1.0
 40
1.0
 10
24.7852711871
 20
46.9959322492
 30
0.0
 10
24.9015857298
 20
47.0630860808
 30
0.0
 10
25.1559257867
 20
47.1695317084
 30
0.0
 10
25.5723032896
 20
47.2331433318
 30
0.0
 10
26.0128026985
 20
47.2042415404
 30
0.0
 10
26.467040959
 20
47.0872128772
 30
0.0
 10
26.9269706547
 20
46.8877055635
 30
0.0
 10
27.3849487685
 20
46.6111696665
 30
0.0
 10
27.8330777672
 20
46.2638484239
 30
0.0
 10
28.2631277315
 20
45.853001353
 30
0.0
 10
28.6667650221
 20
45.3870826657
 30
0.0
 10
29.0359173463
 20
44.8757471098
 30
0.0
 10
29.3630457644
 20
44.3296301233
 30
0.0
 10
29.6413585594
 20
43.7600708243
 30
0.0
 10
29.8649751611
 20
43.1788751017
 30
0.0
 10
30.0292980345
 20
42.5978310483
 30
0.0
 10
30.130514715
 20
42.028752645
 30
0.0
 10
30.1551221836
 20
41.6531539759
 30
0.0
 10
30.1551221836
 20
41.4708036172
 30
0.0
  0
SPLINE
  5
2F1
100
AcDbEntity
  8
0
100
AcDbSpline
 62
7
  6
BYLAYER
 70
0
 71
3
 72
9
 73
5
 74
0
 42
0.0000001
 43
0.0000001
 44
0.0000000001
 40
0.0
 40
0.0
 40
0.0
 40
0.0
 40
0.5314771554
 40
1.0
 40
1.0
 40
1.0
 40
1.0
 10
11.558536267
 20
32.7683864514
 30
0.0
 10
11.5561493747
 20
32.7527916793
 30
0.0
 10
11.5530284078
 20
32.7232486004
 30
0.0
 10
11.5525409473
 20
32.6934550124
 30
0.0
 10
11.5536935446
 20
32.6795952125
 30
0.0
  0
SPLINE
  5
2F2
100
AcDbEntity
  8
0
100
AcDbSpline
 62
7
  6
BYLAYER
 70
0
 71
3
 72
9
 73
5
 74
0
 42
0.0000001
 43
0.0000001
 44
0.0000000001
 40
0.0
 40
0.0
 40
0.0
 40
0.0
 40
0.2788874922
 40
1.0
 40
1.0
 40
1.0
 40
1.0
 10
11.5536935446
 20
32.6795952125
 30
0.0
 10
11.5538802619
 20
32.6773499669
 30
0.0
 10
11.5547032299
 20
32.6693205441
 30
0.0
 10
11.5560926738
 20
32.6612931918
 30
0.0
 10
11.5578774892
 20
32.6557478268
 30
0.0
  0
SPLINE
  5
2F3
100
AcDbEntity
  8
0
100
AcDbSpline
 62
7
  6
BYLAYER
 70
0
 71
3
 72
13
 73
9
 74
0
 42
0.0000001
 43
0.0000001
 44
0.0000000001
 40
0.0
 40
0.0
 40
0.0
 40
0.0
 40
0.2803329017
 40
0.5361959573
 40
0.6567184125
 40
0.7733441439
 40
0.887278925
 40
1.0
 40
1.0
 40
1.0
 40
1.0
 10
30.1539354482
 20
41.3723499601
 30
0.0
 10
30.1486837715
 20
41.15583803
 30
0.0
 10
30.1054308595
 20
40.7412711323
 30
0.0
 10
29.9481986253
 20
40.2535496148
 30
0.0
 10
29.7619938223
 20
39.9200312625
 30
0.0
 10
29.5971419092
 20
39.7033672155
 30
0.0
 10
29.405365097
 20
39.5186731963
 30
0.0
 10
29.2606689452
 20
39.418439352
 30
0.0
 10
29.1852514889
 20
39.3748973231
 30
0.0
  0
SPLINE
  5
2F4
100
AcDbEntity
  8
0
100
AcDbSpline
 62
7
  6
BYLAYER
 70
0
 71
3
 72
11
 73
7
 74
0
 42
0.0000001
 43
0.0000001
 44
0.0000000001
 40
0.0
 40
0.0
 40
0.0
 40
0.0
 40
0.2382485318
 40
0.4814827607
 40
0.7341934451
 40
1.0
 40
1.0
 40
1.0
 40
1.0
 10
8.7360291539
 20
37.268062182
 30
0.0
 10
8.6668505409
 20
37.2281344658
 30
0.0
 10
8.5340880893
 20
37.1345322093
 30
0.0
 10
8.3602055016
 20
36.9586746829
 30
0.0
 10
8.2125490699
 20
36.7490114497
 30
0.0
 10
8.1347376676
 20
36.5927931892
 30
0.0
 10
8.1003120283
 20
36.5105979684
 30
0.0
  0
SPLINE
  5
2F5
100
AcDbEntity
  8
0
100
AcDbSpline
 62
7
  6
BYLAYER
 70
0
 71
3
 72
9
 73
5
 74
0
 42
0.0000001
 43
0.0000001
 44
0.0000000001
 40
0.0
 40
0.0
 40
0.0
 40
0.0
 40
0.2413224189
 40
1.0
 40
1.0
 40
1.0
 40
1.0
 10
8.1003120283
 20
36.5105979684
 30
0.0
 10
8.0859827023
 20
36.4763850348
 30
0.0
 10
8.030486863
 20
36.332995874
 30
0.0
 10
7.9902612413
 20
36.183873618
 30
0.0
 10
7.9671987752
 20
36.0695642023
 30
0.0
  0
SPLINE
  5
2F6
100
AcDbEntity
  8
0
100
AcDbSpline
 62
7
  6
BYLAYER
 70
0
 71
3
 72
12
 73
8
 74
0
 42
0.0000001
 43
0.0000001
 44
0.0000000001
 40
0.0
 40
0.0
 40
0.0
 40
0.0
 40
0.114656603
 40
0.2304473593
 40
0.4692819567
 40
0.7242015946
 40
1.0
 40
1.0
 40
1.0
 40
1.0
 10
12.0695475266
 20
40.1163982613
 30
0.0
 10
12.0128516755
 20
40.0836658045
 30
0.0
 10
11.9028195948
 20
40.0107828333
 30
0.0
 10
11.6986714867
 20
39.8363920969
 30
0.0
 10
11.4766577464
 20
39.5640580351
 30
0.0
 10
11.2764119936
 20
39.169941563
 30
0.0
 10
11.1898918961
 20
38.8777815404
 30
0.0
 10
11.1565052879
 20
38.7238868963
 30
0.0
  0
SPLINE
  5
2F7
100
AcDbEntity
  8
0
100
AcDbSpline
 62
7
  6
BYLAYER
 70
0
 71
3
 72
14
 73
10
 74
0
 42
0.0000001
 43
0.0000001
 44
0.0000000001
 40
0.0
 40
0.0
 40
0.0
 40
0.0
 40
0.1080712576
 40
0.2181772749
 40
0.3321634398
 40
0.4515673702
 40
0.5775206115
 40
0.7107761743
 40
1.0
 40
1.0
 40
1.0
 40
1.0
 10
16.3824671797
 20
42.606456818
 30
0.0
 10
16.4610833489
 20
42.651845555
 30
0.0
 10
16.6279744102
 20
42.7300575009
 30
0.0
 10
16.8980327463
 20
42.8047540492
 30
0.0
 10
17.1858940974
 20
42.8370288138
 30
0.0
 10
17.4885116058
 20
42.8266071932
 30
0.0
 10
17.803027481
 20
42.7740776825
 30
0.0
 10
18.2461099659
 20
42.6451382727
 30
0.0
 10
18.5692436907
 20
42.4916364055
 30
0.0
 10
18.7797237599
 20
42.3703127784
 30
0.0
  0
SPLINE
  5
2F8
100
AcDbEntity
  8
0
100
AcDbSpline
 62
7
  6
BYLAYER
 70
0
 71
3
 72
14
 73
10
 74
0
 42
0.0000001
 43
0.0000001
 44
0.0000000001
 40
0.0
 40
0.0
 40
0.0
 40
0.0
 40
0.2892990665
 40
0.4225226871
 40
0.5484602606
 40
0.6678598411
 40
0.7818388746
 40
0.8919363219
 40
1.0
 40
1.0
 40
1.0
 40
1.0
 10
22.1765423185
 20
36.4867962292
 30
0.0
 10
22.176365443
 20
36.2437892467
 30
0.0
 10
22.147777771
 20
35.887151519
 30
0.0
 10
22.0378370176
 20
35.4389494172
 30
0.0
 10
21.9260673718
 20
35.1403544476
 30
0.0
 10
21.7837958114
 20
34.8730877129
 30
0.0
 10
21.611918169
 20
34.6399460298
 30
0.0
 10
21.4122056312
 20
34.443438006
 30
0.0
 10
21.2610369218
 20
34.3380203945
 30
0.0
 10
21.1824259799
 20
34.2926346754
 30
0.0
  0
SPLINE
  5
2F9
100
AcDbEntity
  8
0
100
AcDbSpline
 62
7
  6
BYLAYER
 70
0
 71
3
 72
15
 73
11
 74
0
 42
0.0000001
 43
0.0000001
 44
0.0000000001
 40
0.0
 40
0.0
 40
0.0
 40
0.0
 40
0.1130243662
 40
0.2345871159
 40
0.3625278369
 40
0.4941854755
 40
0.6266443858
 40
0.7569161144
 40
0.8822024395
 40
1.0
 40
1.0
 40
1.0
 40
1.0
 10
19.275503769
 20
42.0845465791
 30
0.0
 10
19.4613098584
 20
41.9774506913
 30
0.0
 10
19.8289178105
 20
41.7230894285
 30
0.0
 10
20.3386149834
 20
41.258714251
 30
0.0
 10
20.8131701398
 20
40.7108361129
 30
0.0
 10
21.2368311723
 20
40.0976284623
 30
0.0
 10
21.5956098655
 20
39.4393217897
 30
0.0
 10
21.877726367
 20
38.7576435677
 30
0.0
 10
22.0736932631
 20
38.0752873132
 30
0.0
 10
22.1452771247
 20
37.6179414674
 30
0.0
 10
22.1632464847
 20
37.3951471417
 30
0.0
  0
SPLINE
  5
2FA
100
AcDbEntity
  8
0
100
AcDbSpline
 62
7
  6
BYLAYER
 70
0
 71
3
 72
9
 73
5
 74
0
 42
0.0000001
 43
0.0000001
 44
0.0000000001
 40
0.0
 40
0.0
 40
0.0
 40
0.0
 40
0.2527099269
 40
1.0
 40
1.0
 40
1.0
 40
1.0
 10
23.9121433894
 20
46.3688238467
 30
0.0
 10
23.9316823753
 20
46.392481753
 30
0.0
 10
24.0113911593
 20
46.4840918694
 30
0.0
 10
24.1008477745
 20
46.5672692035
 30
0.0
 10
24.1722280253
 20
46.6232826761
 30
0.0
  0
SPLINE
  5
2FB
100
AcDbEntity
  8
0
100
AcDbSpline
 62
7
  6
BYLAYER
 70
0
 71
3
 72
9
 73
5
 74
0
 42
0.0000001
 43
0.0000001
 44
0.0000000001
 40
0.0
 40
0.0
 40
0.0
 40
0.0
 40
0.4989101693
 40
1.0
 40
1.0
 40
1.0
 40
1.0
 10
18.2799158848
 20
43.2400860336
 30
0.0
 10
18.1722559795
 20
43.1779289293
 30
0.0
 10
17.9684607091
 20
43.0313048103
 30
0.0
 10
17.7974586784
 20
42.8477775976
 30
0.0
 10
17.7209627099
 20
42.7490970206
 30
0.0
  0
SPLINE
  5
2FC
100
AcDbEntity
  8
0
100
AcDbSpline
 62
7
  6
BYLAYER
 70
0
 71
3
 72
9
 73
5
 74
0
 42
0.0000001
 43
0.0000001
 44
0.0000000001
 40
0.0
 40
0.0
 40
0.0
 40
0.0
 40
0.5006938974
 40
1.0
 40
1.0
 40
1.0
 40
1.0
 10
22.02730029
 20
35.3882642398
 30
0.0
 10
22.1417986587
 20
35.4069040617
 30
0.0
 10
22.3677749297
 20
35.4639076253
 30
0.0
 10
22.5797106253
 20
35.561209292
 30
0.0
 10
22.6798961865
 20
35.6190511075
 30
0.0
  0
SPLINE
  5
2FD
100
AcDbEntity
  8
0
100
AcDbSpline
 62
7
  6
BYLAYER
 70
0
 71
3
 72
9
 73
5
 74
0
 42
0.0000001
 43
0.0000001
 44
0.0000000001
 40
0.0
 40
0.0
 40
0.0
 40
0.0
 40
0.2479311697
 40
1.0
 40
1.0
 40
1.0
 40
1.0
 10
28.5568322535
 20
39.0306474138
 30
0.0
 10
28.5278197533
 20
39.0189791312
 30
0.0
 10
28.4094692769
 20
38.9752759289
 30
0.0
 10
28.2861566203
 20
38.9452036281
 30
0.0
 10
28.1925018189
 20
38.9301514743
 30
0.0
  0
SPLINE
  5
2FE
100
AcDbEntity
  8
0
100
AcDbSpline
 62
7
  6
BYLAYER
 70
0
 71
3
 72
19
 73
15
 74
0
 42
0.0000001
 43
0.0000001
 44
0.0000000001
 40
0.0
 40
0.0
 40
0.0
 40
0.0
 40
0.0591065244
 40
0.1212123115
 40
0.1858609858
 40
0.2526057464
 40
0.3899433537
 40
0.5281557759
 40
0.6619498218
 40
0.7257594667
 40
0.7868464501
 40
0.8448972664
 40
0.8997538369
 40
1.0
 40
1.0
 40
1.0
 40
1.0
 10
25.9832095441
 20
39.0621631093
 30
0.0
 10
25.9832095441
 20
39.2144863314
 30
0.0
 10
25.9660577357
 20
39.527026438
 30
0.0
 10
25.8945786525
 20
40.0012498513
 30
0.0
 10
25.77778999
 20
40.4866704513
 30
0.0
 10
25.562292949
 20
41.1454523731
 30
0.0
 10
25.1933795686
 20
41.9505573521
 30
0.0
 10
24.6213858446
 20
42.8408334333
 30
0.0
 10
24.0506681126
 20
43.4964881497
 30
0.0
 10
23.553627715
 20
43.9418870104
 30
0.0
 10
23.1753717608
 20
44.2244101965
 30
0.0
 10
22.790542837
 20
44.4565345123
 30
0.0
 10
22.291372209
 20
44.6866576303
 30
0.0
 10
21.8965974654
 20
44.7864375979
 30
0.0
 10
21.6389340416
 20
44.8051780698
 30
0.0
  0
SPLINE
  5
2FF
100
AcDbEntity
  8
0
100
AcDbSpline
 62
7
  6
BYLAYER
 70
0
 71
3
 72
9
 73
5
 74
0
 42
0.0000001
 43
0.0000001
 44
0.0000000001
 40
0.0
 40
0.0
 40
0.0
 40
0.0
 40
0.5098835961
 40
1.0
 40
1.0
 40
1.0
 40
1.0
 10
21.5978040383
 20
44.8077780883
 30
0.0
 10
21.4629695036
 20
44.8150120361
 30
0.0
 10
21.1962754499
 20
44.8043295665
 30
0.0
 10
20.9378759352
 20
44.7350064902
 30
0.0
 10
20.817458103
 20
44.686571591
 30
0.0
  0
SPLINE
  5
300
100
AcDbEntity
  8
0
100
AcDbSpline
 62
7
  6
BYLAYER
 70
0
 71
3
 72
9
 73
5
 74
0
 42
0.0000001
 43
0.0000001
 44
0.0000000001
 40
0.0
 40
0.0
 40
0.0
 40
0.0
 40
0.4901332373
 40
1.0
 40
1.0
 40
1.0
 40
1.0
 10
25.202114725
 20
37.093955667
 30
0.0
 10
25.3040128643
 20
37.1739163005
 30
0.0
 10
25.492788944
 20
37.3626870762
 30
0.0
 10
25.6351013015
 20
37.5878160123
 30
0.0
 10
25.6961736846
 20
37.7079210656
 30
0.0
  0
SPLINE
  5
301
100
AcDbEntity
  8
0
100
AcDbSpline
 62
7
  6
BYLAYER
 70
0
 71
3
 72
10
 73
6
 74
0
 42
0.0000001
 43
0.0000001
 44
0.0000000001
 40
0.0
 40
0.0
 40
0.0
 40
0.0
 40
0.2336759802
 40
0.6039014828
 40
1.0
 40
1.0
 40
1.0
 40
1.0
 10
25.7261401428
 20
37.7692156766
 30
0.0
 10
25.7668538399
 20
37.855880295
 30
0.0
 10
25.8576235072
 20
38.0868257892
 30
0.0
 10
25.9514478943
 20
38.4874948908
 30
0.0
 10
25.978086914
 20
38.8014486174
 30
0.0
 10
25.9820227438
 20
38.963707049
 30
0.0
  0
SPLINE
  5
302
100
AcDbEntity
  8
0
100
AcDbSpline
 62
7
  6
BYLAYER
 70
0
 71
3
 72
19
 73
15
 74
0
 42
0.0000001
 43
0.0000001
 44
0.0000000001
 40
0.0
 40
0.0
 40
0.0
 40
0.0
 40
0.0591065244
 40
0.1212123115
 40
0.1858609858
 40
0.2526057464
 40
0.3899433537
 40
0.5281557759
 40
0.6619498218
 40
0.7257594667
 40
0.7868464501
 40
0.8448972664
 40
0.8997538369
 40
1.0
 40
1.0
 40
1.0
 40
1.0
 10
28.7409145092
 20
40.6543153094
 30
0.0
 10
28.7409145092
 20
40.8066385315
 30
0.0
 10
28.7237627008
 20
41.1191786381
 30
0.0
 10
28.6522836176
 20
41.5934020514
 30
0.0
 10
28.5354949551
 20
42.0788226514
 30
0.0
 10
28.3199979142
 20
42.7376045732
 30
0.0
 10
27.9510845337
 20
43.5427095522
 30
0.0
 10
27.3790908098
 20
44.4329856334
 30
0.0
 10
26.8083730778
 20
45.0886403498
 30
0.0
 10
26.3113326801
 20
45.5340392105
 30
0.0
 10
25.9330767259
 20
45.8165623966
 30
0.0
 10
25.5482478021
 20
46.0486867124
 30
0.0
 10
25.0490771741
 20
46.2788098304
 30
0.0
 10
24.6543024305
 20
46.378589798
 30
0.0
 10
24.3966390068
 20
46.3973302699
 30
0.0
  0
SPLINE
  5
303
100
AcDbEntity
  8
0
100
AcDbSpline
 62
7
  6
BYLAYER
 70
0
 71
3
 72
9
 73
5
 74
0
 42
0.0000001
 43
0.0000001
 44
0.0000000001
 40
0.0
 40
0.0
 40
0.0
 40
0.0
 40
0.5098835961
 40
1.0
 40
1.0
 40
1.0
 40
1.0
 10
24.3555090035
 20
46.3999302884
 30
0.0
 10
24.2206744688
 20
46.4071642362
 30
0.0
 10
23.953980415
 20
46.3964817666
 30
0.0
 10
23.6955809003
 20
46.3271586903
 30
0.0
 10
23.5751630681
 20
46.2787237911
 30
0.0
  0
SPLINE
  5
304
100
AcDbEntity
  8
0
100
AcDbSpline
 62
7
  6
BYLAYER
 70
0
 71
3
 72
9
 73
5
 74
0
 42
0.0000001
 43
0.0000001
 44
0.0000000001
 40
0.0
 40
0.0
 40
0.0
 40
0.0
 40
0.4901332373
 40
1.0
 40
1.0
 40
1.0
 40
1.0
 10
27.9598196901
 20
38.6861078671
 30
0.0
 10
28.0617178295
 20
38.7660685006
 30
0.0
 10
28.2504939091
 20
38.9548392763
 30
0.0
 10
28.3928062666
 20
39.1799682124
 30
0.0
 10
28.4538786497
 20
39.3000732657
 30
0.0
  0
SPLINE
  5
305
100
AcDbEntity
  8
0
100
AcDbSpline
 62
7
  6
BYLAYER
 70
0
 71
3
 72
10
 73
6
 74
0
 42
0.0000001
 43
0.0000001
 44
0.0000000001
 40
0.0
 40
0.0
 40
0.0
 40
0.0
 40
0.2336759802
 40
0.6039014828
 40
1.0
 40
1.0
 40
1.0
 40
1.0
 10
28.483845108
 20
39.3613678767
 30
0.0
 10
28.524558805
 20
39.4480324951
 30
0.0
 10
28.6153284723
 20
39.6789779893
 30
0.0
 10
28.7091528594
 20
40.0796470909
 30
0.0
 10
28.7357918792
 20
40.3936008175
 30
0.0
 10
28.739727709
 20
40.5558592491
 30
0.0
  0
SPLINE
  5
306
100
AcDbEntity
  8
0
100
AcDbSpline
 62
7
  6
BYLAYER
 70
0
 71
3
 72
9
 73
5
 74
0
 42
0.0000001
 43
0.0000001
 44
0.0000000001
 40
0.0
 40
0.0
 40
0.0
 40
0.0
 40
0.2479311697
 40
1.0
 40
1.0
 40
1.0
 40
1.0
 10
25.7991272883
 20
37.4384952137
 30
0.0
 10
25.7701147882
 20
37.4268269311
 30
0.0
 10
25.6517643117
 20
37.3831237288
 30
0.0
 10
25.5284516552
 20
37.353051428
 30
0.0
 10
25.4347968538
 20
37.3379992742
 30
0.0
  0
SPLINE
  5
307
100
AcDbEntity
  8
0
100
AcDbSpline
 62
7
  6
BYLAYER
 70
0
 71
3
 72
9
 73
5
 74
0
 42
0.0000001
 43
0.0000001
 44
0.0000000001
 40
0.0
 40
0.0
 40
0.0
 40
0.0
 40
0.2527099269
 40
1.0
 40
1.0
 40
1.0
 40
1.0
 10
21.1544384243
 20
44.7766716466
 30
0.0
 10
21.1739774101
 20
44.8003295529
 30
0.0
 10
21.2536861942
 20
44.8919396693
 30
0.0
 10
21.3431428094
 20
44.9751170034
 30
0.0
 10
21.4145230601
 20
45.031130476
 30
0.0
  0
SPLINE
  5
308
100
AcDbEntity
  8
0
100
AcDbSpline
 62
7
  6
BYLAYER
 70
0
 71
3
 72
9
 73
5
 74
0
 42
0.0000001
 43
0.0000001
 44
0.0000000001
 40
0.0
 40
0.0
 40
0.0
 40
0.0
 40
0.2522390597
 40
1.0
 40
1.0
 40
1.0
 40
1.0
 10
22.5260940961
 20
45.5855903554
 30
0.0
 10
22.5437751923
 20
45.6059566202
 30
0.0
 10
22.6157189487
 20
45.6850724811
 30
0.0
 10
22.6951208629
 20
45.7574359154
 30
0.0
 10
22.7580203508
 20
45.8067943683
 30
0.0
  0
SPLINE
  5
309
100
AcDbEntity
  8
0
100
AcDbSpline
 62
7
  6
BYLAYER
 70
0
 71
3
 72
9
 73
5
 74
0
 42
0.0000001
 43
0.0000001
 44
0.0000000001
 40
0.0
 40
0.0
 40
0.0
 40
0.0
 40
0.4915768437
 40
1.0
 40
1.0
 40
1.0
 40
1.0
 10
26.6163223994
 20
37.9104439748
 30
0.0
 10
26.708114031
 20
37.9824739162
 30
0.0
 10
26.8793994094
 20
38.1496390572
 30
0.0
 10
27.013451754
 20
38.3474224673
 30
0.0
 10
27.0722387991
 20
38.4528131278
 30
0.0
  0
SPLINE
  5
30A
100
AcDbEntity
  8
0
100
AcDbSpline
 62
7
  6
BYLAYER
 70
0
 71
3
 72
10
 73
6
 74
0
 42
0.0000001
 43
0.0000001
 44
0.0000000001
 40
0.0
 40
0.0
 40
0.0
 40
0.0
 40
0.2336759802
 40
0.6039014828
 40
1.0
 40
1.0
 40
1.0
 40
1.0
 10
27.1403478173
 20
38.5857039843
 30
0.0
 10
27.1810615143
 20
38.6723686028
 30
0.0
 10
27.2718311816
 20
38.903314097
 30
0.0
 10
27.3656555687
 20
39.3039831985
 30
0.0
 10
27.3922945885
 20
39.6179369251
 30
0.0
 10
27.3962304183
 20
39.7801953567
 30
0.0
  0
SPLINE
  5
30B
100
AcDbEntity
  8
0
100
AcDbSpline
 62
7
  6
BYLAYER
 70
0
 71
3
 72
19
 73
15
 74
0
 42
0.0000001
 43
0.0000001
 44
0.0000000001
 40
0.0
 40
0.0
 40
0.0
 40
0.0
 40
0.0591065244
 40
0.1212123115
 40
0.1858609858
 40
0.2526057464
 40
0.3899433537
 40
0.5281557759
 40
0.6619498218
 40
0.7257594667
 40
0.7868464501
 40
0.8448972664
 40
0.8997538369
 40
1.0
 40
1.0
 40
1.0
 40
1.0
 10
27.3974172185
 20
39.8786514171
 30
0.0
 10
27.3974172185
 20
40.0309746391
 30
0.0
 10
27.3802654101
 20
40.3435147457
 30
0.0
 10
27.3087863269
 20
40.8177381591
 30
0.0
 10
27.1919976644
 20
41.303158759
 30
0.0
 10
26.9765006235
 20
41.9619406809
 30
0.0
 10
26.607587243
 20
42.7670456598
 30
0.0
 10
26.0355935191
 20
43.657321741
 30
0.0
 10
25.4648757871
 20
44.3129764574
 30
0.0
 10
24.9678353894
 20
44.7583753182
 30
0.0
 10
24.5895794352
 20
45.0408985042
 30
0.0
 10
24.2047505114
 20
45.27302282
 30
0.0
 10
23.7055798834
 20
45.503145938
 30
0.0
 10
23.3108051398
 20
45.6029259057
 30
0.0
 10
23.0531417161
 20
45.6216663775
 30
0.0
  0
SPLINE
  5
30C
100
AcDbEntity
  8
0
100
AcDbSpline
 62
7
  6
BYLAYER
 70
0
 71
3
 72
9
 73
5
 74
0
 42
0.0000001
 43
0.0000001
 44
0.0000000001
 40
0.0
 40
0.0
 40
0.0
 40
0.0
 40
0.5084367222
 40
1.0
 40
1.0
 40
1.0
 40
1.0
 10
22.9308602844
 20
45.6270653221
 30
0.0
 10
22.8099233613
 20
45.6288944809
 30
0.0
 10
22.5710706851
 20
45.6116679476
 30
0.0
 10
22.3401554595
 20
45.546697014
 30
0.0
 10
22.2316657774
 20
45.5030598987
 30
0.0
  0
SPLINE
  5
30D
100
AcDbEntity
  8
0
100
AcDbSpline
 62
7
  6
BYLAYER
 70
0
 71
3
 72
9
 73
5
 74
0
 42
0.0000001
 43
0.0000001
 44
0.0000000001
 40
0.0
 40
0.0
 40
0.0
 40
0.0
 40
0.2482549455
 40
1.0
 40
1.0
 40
1.0
 40
1.0
 10
27.1426245791
 20
38.214159106
 30
0.0
 10
27.1169850589
 20
38.2038473726
 30
0.0
 10
27.0126655622
 20
38.1649331199
 30
0.0
 10
26.904432635
 20
38.1366169935
 30
0.0
 10
26.8221674041
 20
38.1212765806
 30
0.0
  0
SPLINE
  5
30E
100
AcDbEntity
  8
0
100
AcDbSpline
 62
7
  6
BYLAYER
 70
0
 71
3
 72
18
 73
14
 74
0
 42
0.0000001
 43
0.0000001
 44
0.0000000001
 40
0.0
 40
0.0
 40
0.0
 40
0.0
 40
0.0439299652
 40
0.0902904018
 40
0.1409842147
 40
0.1969873245
 40
0.3247227357
 40
0.4688939714
 40
0.6192476401
 40
0.7639401078
 40
0.8308810055
 40
0.8928760675
 40
1.0
 40
1.0
 40
1.0
 40
1.0
 10
9.6990658049
 20
34.0568105233
 30
0.0
 10
9.7136494031
 20
34.0652065613
 30
0.0
 10
9.741070724
 20
34.0872809104
 30
0.0
 10
9.7720777002
 20
34.1322444361
 30
0.0
 10
9.7928433046
 20
34.1875937663
 30
0.0
 10
9.8072225126
 20
34.276703473
 30
0.0
 10
9.7956645359
 20
34.4036388892
 30
0.0
 10
9.7442356201
 20
34.5581025508
 30
0.0
 10
9.6602218106
 20
34.7050895854
 30
0.0
 10
9.5684373016
 20
34.8105494335
 30
0.0
 10
9.4863541293
 20
34.8762899883
 30
0.0
 10
9.4088277702
 20
34.9228298822
 30
0.0
 10
9.3450915803
 20
34.9434687745
 30
0.0
 10
9.3041262935
 20
34.9458572699
 30
0.0
  0
SPLINE
  5
30F
100
AcDbEntity
  8
0
100
AcDbSpline
 62
7
  6
BYLAYER
 70
0
 71
3
 72
15
 73
11
 74
0
 42
0.0000001
 43
0.0000001
 44
0.0000000001
 40
0.0
 40
0.0
 40
0.0
 40
0.0
 40
0.1079971
 40
0.2180546847
 40
0.3320158435
 40
0.4513792155
 40
0.5772973646
 40
0.7105566527
 40
0.8515268004
 40
1.0
 40
1.0
 40
1.0
 40
1.0
 10
25.7648056573
 20
37.6310780696
 30
0.0
 10
25.8334499868
 20
37.6709418655
 30
0.0
 10
25.9654302263
 20
37.7634669799
 30
0.0
 10
26.1397714279
 20
37.9357092361
 30
0.0
 10
26.289678712
 20
38.1399836657
 30
0.0
 10
26.4138546122
 20
38.3739607563
 30
0.0
 10
26.5112258149
 20
38.6353618335
 30
0.0
 10
26.5811305177
 20
38.9216719346
 30
0.0
 10
26.6228989232
 20
39.2300365879
 30
0.0
 10
26.6317341487
 20
39.4429255196
 30
0.0
 10
26.6317341487
 20
39.552056094
 30
0.0
  0
SPLINE
  5
310
100
AcDbEntity
  8
0
100
AcDbSpline
 62
7
  6
BYLAYER
 70
0
 71
3
 72
15
 73
11
 74
0
 42
0.0000001
 43
0.0000001
 44
0.0000000001
 40
0.0
 40
0.0
 40
0.0
 40
0.0
 40
0.1150071753
 40
0.2393657337
 40
0.3702521766
 40
0.5042390881
 40
0.6376329017
 40
0.7667846519
 40
0.8884196505
 40
1.0
 40
1.0
 40
1.0
 40
1.0
 10
26.6317341487
 20
39.552056094
 30
0.0
 10
26.6317341487
 20
39.7969902166
 30
0.0
 10
26.5849089695
 20
40.3072685864
 30
0.0
 10
26.3992553842
 20
41.0758903494
 30
0.0
 10
26.1026473178
 20
41.8522605697
 30
0.0
 10
25.707105145
 20
42.6047718961
 30
0.0
 10
25.2286562237
 20
43.3030446993
 30
0.0
 10
24.6865443928
 20
43.9188536714
 30
0.0
 10
24.1028380251
 20
44.4272502801
 30
0.0
 10
23.6804078741
 20
44.6939733555
 30
0.0
 10
23.4680204978
 20
44.800568051
 30
0.0
  0
SPLINE
  5
311
100
AcDbEntity
  8
0
100
AcDbSpline
 62
7
  6
BYLAYER
 70
0
 71
3
 72
13
 73
9
 74
0
 42
0.0000001
 43
0.0000001
 44
0.0000000001
 40
0.0
 40
0.0
 40
0.0
 40
0.0
 40
0.2856107096
 40
0.543178509
 40
0.6630521812
 40
0.7781802505
 40
0.8899573242
 40
1.0
 40
1.0
 40
1.0
 40
1.0
 10
23.4680204978
 20
44.800568051
 30
0.0
 10
23.2986629858
 20
44.8855665699
 30
0.0
 10
22.9629293293
 20
45.0223826883
 30
0.0
 10
22.5263469233
 20
45.1035676086
 30
0.0
 10
22.198668131
 20
45.1010252886
 30
0.0
 10
21.9702286526
 20
45.0675923898
 30
0.0
 10
21.7553955014
 20
45.0029048068
 30
0.0
 10
21.6220757319
 20
44.9389206952
 30
0.0
 10
21.5589409489
 20
44.9022564563
 30
0.0
  0
SPLINE
  5
312
100
AcDbEntity
  8
0
100
AcDbSpline
 62
7
  6
BYLAYER
 70
0
 71
3
 72
9
 73
5
 74
0
 42
0.0000001
 43
0.0000001
 44
0.0000000001
 40
0.0
 40
0.0
 40
0.0
 40
0.0
 40
0.2641343145
 40
1.0
 40
1.0
 40
1.0
 40
1.0
 10
11.8615248798
 20
33.4988219114
 30
0.0
 10
11.8545328728
 20
33.5014053979
 30
0.0
 10
11.8277742491
 20
33.510350037
 30
0.0
 10
11.7997416978
 20
33.5158058795
 30
0.0
 10
11.7790103315
 20
33.517014629
 30
0.0
  0
SPLINE
  5
313
100
AcDbEntity
  8
0
100
AcDbSpline
 62
7
  6
BYLAYER
 70
0
 71
3
 72
14
 73
10
 74
0
 42
0.0000001
 43
0.0000001
 44
0.0000000001
 40
0.0
 40
0.0
 40
0.0
 40
0.0
 40
0.2892616805
 40
0.4225608933
 40
0.548506197
 40
0.6678891623
 40
0.7818692482
 40
0.8919544703
 40
1.0
 40
1.0
 40
1.0
 40
1.0
 10
26.5963786625
 20
39.5724681317
 30
0.0
 10
26.5963786625
 20
39.3621298763
 30
0.0
 10
26.5718103363
 20
39.0533527652
 30
0.0
 10
26.476894483
 20
38.6652620001
 30
0.0
 10
26.3803321835
 20
38.4066445437
 30
0.0
 10
26.2572063035
 20
38.1752670722
 30
0.0
 10
26.1085741795
 20
37.9733505898
 30
0.0
 10
25.9357163989
 20
37.8032324182
 30
0.0
 10
25.8048929624
 20
37.7119587041
 30
0.0
 10
25.736856772
 20
37.672669016
 30
0.0
  0
SPLINE
  5
314
100
AcDbEntity
  8
0
100
AcDbSpline
 62
7
  6
BYLAYER
 70
0
 71
3
 72
23
 73
19
 74
0
 42
0.0000001
 43
0.0000001
 44
0.0000000001
 40
0.0
 40
0.0
 40
0.0
 40
0.0
 40
0.0605921804
 40
0.1248211453
 40
0.1920493974
 40
0.2616180268
 40
0.3327334625
 40
0.4045396316
 40
0.4761601782
 40
0.5467256924
 40
0.6154051861
 40
0.6814409618
 40
0.744191447
 40
0.8031653009
 40
0.8580789766
 40
0.9089169104
 40
0.9559894791
 40
1.0
 40
1.0
 40
1.0
 40
1.0
 10
26.9145768612
 20
39.5520567738
 30
0.0
 10
26.9145768612
 20
39.7197321735
 30
0.0
 10
26.8936721129
 20
40.065348643
 30
0.0
 10
26.8073047061
 20
40.5905226888
 30
0.0
 10
26.666306661
 20
41.1294302429
 30
0.0
 10
26.4733610299
 20
41.6721598982
 30
0.0
 10
26.2319988649
 20
42.2090417231
 30
0.0
 10
25.9465324926
 20
42.7302934081
 30
0.0
 10
25.6221423728
 20
43.2264415144
 30
0.0
 10
25.2647689892
 20
43.6885284377
 30
0.0
 10
24.8808346519
 20
44.108146956
 30
0.0
 10
24.4772607954
 20
44.4777023874
 30
0.0
 10
24.0613187851
 20
44.7905805822
 30
0.0
 10
23.6403086917
 20
45.0410695113
 30
0.0
 10
23.2215942256
 20
45.2245922243
 30
0.0
 10
22.8122658177
 20
45.3376168975
 30
0.0
 10
22.4195155977
 20
45.3773921543
 30
0.0
 10
22.1664271037
 20
45.3530955959
 30
0.0
 10
22.0472912266
 20
45.3278114856
 30
0.0
  0
SPLINE
  5
315
100
AcDbEntity
  8
0
100
AcDbSpline
 62
7
  6
BYLAYER
 70
0
 71
3
 72
9
 73
5
 74
0
 42
0.0000001
 43
0.0000001
 44
0.0000000001
 40
0.0
 40
0.0
 40
0.0
 40
0.0
 40
0.504195681
 40
1.0
 40
1.0
 40
1.0
 40
1.0
 10
22.0472912266
 20
45.3278114856
 30
0.0
 10
21.9689464946
 20
45.3111844468
 30
0.0
 10
21.815747831
 20
45.2665899558
 30
0.0
 10
21.6715102829
 20
45.1982101375
 30
0.0
 10
21.6033092198
 20
45.1588243775
 30
0.0
  0
SPLINE
  5
316
100
AcDbEntity
  8
0
100
AcDbSpline
 62
7
  6
BYLAYER
 70
0
 71
3
 72
22
 73
18
 74
0
 42
0.0000001
 43
0.0000001
 44
0.0000000001
 40
0.0
 40
0.0
 40
0.0
 40
0.0
 40
0.0428196527
 40
0.0874080938
 40
0.1351979506
 40
0.1871129983
 40
0.2435679852
 40
0.3045340296
 40
0.3696397159
 40
0.4382579158
 40
0.509565216
 40
0.582610436
 40
0.7296299747
 40
0.8016262076
 40
0.871231186
 40
0.9376191144
 40
1.0
 40
1.0
 40
1.0
 40
1.0
 10
11.606175286
 20
30.9577407685
 30
0.0
 10
11.5346794047
 20
30.9164635359
 30
0.0
 10
11.377084307
 20
30.8509442235
 30
0.0
 10
11.1169224165
 20
30.8128192212
 30
0.0
 10
10.8375590011
 20
30.8334034094
 30
0.0
 10
10.5451769654
 20
30.9110584627
 30
0.0
 10
10.2455366599
 20
31.0434978195
 30
0.0
 10
9.9445994204
 20
31.2276232606
 30
0.0
 10
9.6484488347
 20
31.4594457523
 30
0.0
 10
9.3632881364
 20
31.7340963801
 30
0.0
 10
9.0950533977
 20
32.0457630929
 30
0.0
 10
8.7671194451
 20
32.5024996348
 30
0.0
 10
8.4975754483
 20
33.0006348589
 30
0.0
 10
8.2979884512
 20
33.5206591505
 30
0.0
 10
8.1889171184
 20
33.9072185027
 30
0.0
 10
8.1219145496
 20
34.2844040228
 30
0.0
 10
8.1055718094
 20
34.5328323833
 30
0.0
 10
8.1055718094
 20
34.6531021121
 30
0.0
  0
SPLINE
  5
317
100
AcDbEntity
  8
0
100
AcDbSpline
 62
7
  6
BYLAYER
 70
0
 71
3
 72
10
 73
6
 74
0
 42
0.0000001
 43
0.0000001
 44
0.0000000001
 40
0.0
 40
0.0
 40
0.0
 40
0.0
 40
0.2738203305
 40
0.5318586705
 40
1.0
 40
1.0
 40
1.0
 40
1.0
 10
27.3388391635
 20
39.7970032662
 30
0.0
 10
27.3388391635
 20
39.6682768834
 30
0.0
 10
27.3271257958
 20
39.4178926905
 30
0.0
 10
27.2554325294
 20
38.9530220731
 30
0.0
 10
27.1430718652
 20
38.6245959048
 30
0.0
 10
27.0387195278
 20
38.4308295174
 30
0.0
  0
SPLINE
  5
318
100
AcDbEntity
  8
0
100
AcDbSpline
 62
7
  6
BYLAYER
 70
0
 71
3
 72
9
 73
5
 74
0
 42
0.0000001
 43
0.0000001
 44
0.0000000001
 40
0.0
 40
0.0
 40
0.0
 40
0.0
 40
0.5123278936
 40
1.0
 40
1.0
 40
1.0
 40
1.0
 10
27.0387195278
 20
38.4308295174
 30
0.0
 10
26.9815352853
 20
38.3246470939
 30
0.0
 10
26.8506842631
 20
38.1268786772
 30
0.0
 10
26.6804167286
 20
37.9611080645
 30
0.0
 10
26.5894233093
 20
37.8911173788
 30
0.0
  0
SPLINE
  5
319
100
AcDbEntity
  8
0
100
AcDbSpline
 62
7
  6
BYLAYER
 70
0
 71
3
 72
9
 73
5
 74
0
 42
0.0000001
 43
0.0000001
 44
0.0000000001
 40
0.0
 40
0.0
 40
0.0
 40
0.0
 40
0.2241394468
 40
1.0
 40
1.0
 40
1.0
 40
1.0
 10
9.2076783842
 20
33.9508983604
 30
0.0
 10
9.1964071403
 20
33.9522518783
 30
0.0
 10
9.1462510889
 20
33.9592810433
 30
0.0
 10
9.0966928556
 20
33.9710094012
 30
0.0
 10
9.05932465
 20
33.9831657985
 30
0.0
  0
SPLINE
  5
31A
100
AcDbEntity
  8
0
100
AcDbSpline
 62
7
  6
BYLAYER
 70
0
 71
3
 72
8
 73
4
 74
0
 42
0.0000001
 43
0.0000001
 44
0.0000000001
 40
0.0
 40
0.0
 40
0.0
 40
0.0
 40
1.0
 40
1.0
 40
1.0
 40
1.0
 10
9.05932465
 20
33.9831657985
 30
0.0
 10
9.0461824923
 20
33.9874411253
 30
0.0
 10
9.033154019
 20
33.9921021947
 30
0.0
 10
9.0203428084
 20
33.9972855923
 30
0.0
  0
SPLINE
  5
31B
100
AcDbEntity
  8
0
100
AcDbSpline
 62
7
  6
BYLAYER
 70
0
 71
3
 72
18
 73
14
 74
0
 42
0.0000001
 43
0.0000001
 44
0.0000000001
 40
0.0
 40
0.0
 40
0.0
 40
0.0
 40
0.1188792514
 40
0.1652873644
 40
0.2025755549
 40
0.2328784669
 40
0.26272209
 40
0.2995582902
 40
0.3461280424
 40
0.4673779689
 40
0.6203416746
 40
0.7996136379
 40
1.0
 40
1.0
 40
1.0
 40
1.0
 10
11.5578774892
 20
32.6557478268
 30
0.0
 10
11.5587062281
 20
32.6531729613
 30
0.0
 10
11.5601046288
 20
32.6496297569
 30
0.0
 10
11.5627584182
 20
32.6458329365
 30
0.0
 10
11.5646959629
 20
32.6440634182
 30
0.0
 10
11.5668996705
 20
32.6432925679
 30
0.0
 10
11.5691162025
 20
32.6440197086
 30
0.0
 10
11.5709980784
 20
32.6458391555
 30
0.0
 10
11.5735722489
 20
32.6497406137
 30
0.0
 10
11.5762175884
 20
32.6566117166
 30
0.0
 10
11.5786244953
 20
32.6666546947
 30
0.0
 10
11.5801638967
 20
32.6787004965
 30
0.0
 10
11.5804682564
 20
32.6873449089
 30
0.0
 10
11.5804519507
 20
32.6919044187
 30
0.0
  0
SPLINE
  5
31C
100
AcDbEntity
  8
0
100
AcDbSpline
 62
7
  6
BYLAYER
 70
0
 71
3
 72
15
 73
11
 74
0
 42
0.0000001
 43
0.0000001
 44
0.0000000001
 40
0.0
 40
0.0
 40
0.0
 40
0.0
 40
0.1079971
 40
0.2180546847
 40
0.3320158435
 40
0.4513792155
 40
0.5772973646
 40
0.7105566527
 40
0.8515268004
 40
1.0
 40
1.0
 40
1.0
 40
1.0
 10
27.108302948
 20
38.406741962
 30
0.0
 10
27.1769472775
 20
38.4466057579
 30
0.0
 10
27.308927517
 20
38.5391308723
 30
0.0
 10
27.4832687186
 20
38.7113731285
 30
0.0
 10
27.6331760027
 20
38.915647558
 30
0.0
 10
27.7573519029
 20
39.1496246486
 30
0.0
 10
27.8547231056
 20
39.4110257258
 30
0.0
 10
27.9246278084
 20
39.697335827
 30
0.0
 10
27.9663962139
 20
40.0057004802
 30
0.0
 10
27.9752314394
 20
40.2185894119
 30
0.0
 10
27.9752314394
 20
40.3277199863
 30
0.0
  0
SPLINE
  5
31D
100
AcDbEntity
  8
0
100
AcDbSpline
 62
7
  6
BYLAYER
 70
0
 71
3
 72
24
 73
20
 74
0
 42
0.0000001
 43
0.0000001
 44
0.0000000001
 40
0.0
 40
0.0
 40
0.0
 40
0.0
 40
0.062386935
 40
0.1287692686
 40
0.1983770846
 40
0.2703779711
 40
0.3437768324
 40
0.4175257027
 40
0.4905657869
 40
0.561861503
 40
0.6304609477
 40
0.6955445185
 40
0.7564801293
 40
0.8128999567
 40
0.8647820042
 40
0.9125399064
 40
0.9571042337
 40
0.9786647346
 40
1.0
 40
1.0
 40
1.0
 40
1.0
 10
27.9752314394
 20
40.3277199863
 30
0.0
 10
27.9752314394
 20
40.5020292391
 30
0.0
 10
27.9515532803
 20
40.8620470885
 30
0.0
 10
27.8543673711
 20
41.4086648741
 30
0.0
 10
27.696222086
 20
41.9687900918
 30
0.0
 10
27.4806564679
 20
42.5303501014
 30
0.0
 10
27.2122011562
 20
43.0814955636
 30
0.0
 10
26.8966104161
 20
43.6104414427
 30
0.0
 10
26.5406239987
 20
44.1058995157
 30
0.0
 10
26.1517997887
 20
44.5572735415
 30
0.0
 10
25.7384381912
 20
44.9549812309
 30
0.0
 10
25.3092481917
 20
45.2905894225
 30
0.0
 10
24.873114035
 20
45.5569317473
 30
0.0
 10
24.4389471563
 20
45.7483056583
 30
0.0
 10
24.0153270976
 20
45.8602628622
 30
0.0
 10
23.6108076775
 20
45.8894985224
 30
0.0
 10
23.2929102665
 20
45.8419936492
 30
0.0
 10
23.0616289493
 20
45.761452187
 30
0.0
 10
22.9539870967
 20
45.7078562972
 30
0.0
 10
22.9024382396
 20
45.6779203486
 30
0.0
  0
SPLINE
  5
31E
100
AcDbEntity
  8
0
100
AcDbSpline
 62
7
  6
BYLAYER
 70
0
 71
3
 72
9
 73
5
 74
0
 42
0.0000001
 43
0.0000001
 44
0.0000000001
 40
0.0
 40
0.0
 40
0.0
 40
0.0
 40
0.248424298
 40
1.0
 40
1.0
 40
1.0
 40
1.0
 10
22.8790803542
 20
45.6640512294
 30
0.0
 10
22.8551330775
 20
45.649516446
 30
0.0
 10
22.7604998277
 20
45.5881400069
 30
0.0
 10
22.6733269269
 20
45.5153499232
 30
0.0
 10
22.6131665438
 20
45.4556567195
 30
0.0
  0
SPLINE
  5
31F
100
AcDbEntity
  8
0
100
AcDbSpline
 62
7
  6
BYLAYER
 70
0
 71
3
 72
15
 73
11
 74
0
 42
0.0000001
 43
0.0000001
 44
0.0000000001
 40
0.0
 40
0.0
 40
0.0
 40
0.0
 40
0.1513422577
 40
0.2946401421
 40
0.4294035699
 40
0.5558566452
 40
0.6746961251
 40
0.7871011454
 40
0.8947961858
 40
1.0
 40
1.0
 40
1.0
 40
1.0
 10
17.2845643679
 20
34.6517797336
 30
0.0
 10
17.2944130673
 20
34.5296699686
 30
0.0
 10
17.3034847679
 20
34.2909562461
 30
0.0
 10
17.283349408
 20
33.9433718552
 30
0.0
 10
17.2289518437
 20
33.6197416027
 30
0.0
 10
17.1409344032
 20
33.3240421451
 30
0.0
 10
17.0200034347
 20
33.0597968598
 30
0.0
 10
16.8673458982
 20
32.8302753573
 30
0.0
 10
16.6845121909
 20
32.6388473309
 30
0.0
 10
16.5432618003
 20
32.5379701754
 30
0.0
 10
16.4695060102
 20
32.4954012984
 30
0.0
  0
SPLINE
  5
320
100
AcDbEntity
  8
0
100
AcDbSpline
 62
7
  6
BYLAYER
 70
0
 71
3
 72
9
 73
5
 74
0
 42
0.0000001
 43
0.0000001
 44
0.0000000001
 40
0.0
 40
0.0
 40
0.0
 40
0.0
 40
0.2542870002
 40
1.0
 40
1.0
 40
1.0
 40
1.0
 10
9.092214967
 20
34.1959842078
 30
0.0
 10
9.0931110301
 20
34.1931649613
 30
0.0
 10
9.096464889
 20
34.1820244964
 30
0.0
 10
9.0991667624
 20
34.1706900273
 30
0.0
 10
9.1008387215
 20
34.1621774917
 30
0.0
  0
SPLINE
  5
321
100
AcDbEntity
  8
0
100
AcDbSpline
 62
7
  6
BYLAYER
 70
0
 71
3
 72
9
 73
5
 74
0
 42
0.0000001
 43
0.0000001
 44
0.0000000001
 40
0.0
 40
0.0
 40
0.0
 40
0.0
 40
0.5447593667
 40
1.0
 40
1.0
 40
1.0
 40
1.0
 10
9.1008387215
 20
34.1621774917
 30
0.0
 10
9.1045634713
 20
34.1432134723
 30
0.0
 10
9.1082741692
 20
34.1077108208
 30
0.0
 10
9.1069869864
 20
34.0722330063
 30
0.0
 10
9.1063662823
 20
34.0560944319
 30
0.0
  0
SPLINE
  5
322
100
AcDbEntity
  8
0
100
AcDbSpline
 62
7
  6
BYLAYER
 70
0
 71
3
 72
9
 73
5
 74
0
 42
0.0000001
 43
0.0000001
 44
0.0000000001
 40
0.0
 40
0.0
 40
0.0
 40
0.0
 40
0.5594907396
 40
1.0
 40
1.0
 40
1.0
 40
1.0
 10
9.1063662823
 20
34.0560944319
 30
0.0
 10
9.1059702113
 20
34.0457964145
 30
0.0
 10
9.1051699829
 20
34.0274425211
 30
0.0
 10
9.1070803342
 20
34.0088393379
 30
0.0
 10
9.1095501293
 20
34.0011103255
 30
0.0
  0
SPLINE
  5
323
100
AcDbEntity
  8
0
100
AcDbSpline
 62
7
  6
BYLAYER
 70
0
 71
3
 72
14
 73
10
 74
0
 42
0.0000001
 43
0.0000001
 44
0.0000000001
 40
0.0
 40
0.0
 40
0.0
 40
0.0
 40
0.2892616805
 40
0.4225608933
 40
0.548506197
 40
0.6678891623
 40
0.7818692482
 40
0.8919544703
 40
1.0
 40
1.0
 40
1.0
 40
1.0
 10
27.9398759532
 20
40.3481320241
 30
0.0
 10
27.9398759532
 20
40.1377937687
 30
0.0
 10
27.915307627
 20
39.8290166576
 30
0.0
 10
27.8203917737
 20
39.4409258925
 30
0.0
 10
27.7238294742
 20
39.182308436
 30
0.0
 10
27.6007035942
 20
38.9509309645
 30
0.0
 10
27.4520714702
 20
38.7490144822
 30
0.0
 10
27.2792136896
 20
38.5788963106
 30
0.0
 10
27.1483902531
 20
38.4876225964
 30
0.0
 10
27.0803540627
 20
38.4483329084
 30
0.0
  0
SPLINE
  5
324
100
AcDbEntity
  8
0
100
AcDbSpline
 62
7
  6
BYLAYER
 70
0
 71
3
 72
14
 73
10
 74
0
 42
0.0000001
 43
0.0000001
 44
0.0000000001
 40
0.0
 40
0.0
 40
0.0
 40
0.0
 40
0.1080479674
 40
0.2181389511
 40
0.3321128803
 40
0.4514887342
 40
0.5774363019
 40
0.7107571578
 40
1.0
 40
1.0
 40
1.0
 40
1.0
 10
11.7751069175
 20
30.4201921676
 30
0.0
 10
11.8316719355
 20
30.4528492572
 30
0.0
 10
11.9404525455
 20
30.5287078081
 30
0.0
 10
12.0841076964
 20
30.6701785263
 30
0.0
 10
12.2077105461
 20
30.8379979673
 30
0.0
 10
12.3100398485
 20
31.0303582582
 30
0.0
 10
12.390334465
 20
31.2453554395
 30
0.0
 10
12.4692085106
 20
31.5679972783
 30
0.0
 10
12.4896529885
 20
31.8246886206
 30
0.0
 10
12.4896529885
 20
31.9995366978
 30
0.0
  0
SPLINE
  5
325
100
AcDbEntity
  8
0
100
AcDbSpline
 62
7
  6
BYLAYER
 70
0
 71
3
 72
23
 73
19
 74
0
 42
0.0000001
 43
0.0000001
 44
0.0000000001
 40
0.0
 40
0.0
 40
0.0
 40
0.0
 40
0.0428128357
 40
0.0873952224
 40
0.135178847
 40
0.1870868894
 40
0.2435339161
 40
0.3044912087
 40
0.3695873007
 40
0.438195313
 40
0.5094925615
 40
0.5825271211
 40
0.6562688074
 40
0.7296591533
 40
0.8016472849
 40
0.8712453299
 40
0.9376267642
 40
1.0
 40
1.0
 40
1.0
 40
1.0
 10
8.7140512608
 20
36.6202729184
 30
0.0
 10
8.7991044432
 20
36.6693771524
 30
0.0
 10
8.9865870871
 20
36.7473168315
 30
0.0
 10
9.2960860355
 20
36.7926762594
 30
0.0
 10
9.628431954
 20
36.7681875088
 30
0.0
 10
9.9762642847
 20
36.6758054119
 30
0.0
 10
10.3327308819
 20
36.5182517712
 30
0.0
 10
10.6907389596
 20
36.2992087385
 30
0.0
 10
11.0430495998
 20
36.0234270044
 30
0.0
 10
11.3822993734
 20
35.6966876433
 30
0.0
 10
11.7013700515
 20
35.3259468999
 30
0.0
 10
11.9935233038
 20
34.9191103294
 30
0.0
 10
12.2524839159
 20
34.4848001822
 30
0.0
 10
12.4727367829
 20
34.0322948431
 30
0.0
 10
12.6496436244
 20
33.5712878471
 30
0.0
 10
12.7794020775
 20
33.1114423363
 30
0.0
 10
12.8591159749
 20
32.6627002652
 30
0.0
 10
12.878560099
 20
32.367151818
 30
0.0
 10
12.878560099
 20
32.2240709825
 30
0.0
  0
SPLINE
  5
326
100
AcDbEntity
  8
0
100
AcDbSpline
 62
7
  6
BYLAYER
 70
0
 71
3
 72
17
 73
13
 74
0
 42
0.0000001
 43
0.0000001
 44
0.0000000001
 40
0.0
 40
0.0
 40
0.0
 40
0.0
 40
0.1255686704
 40
0.2541843112
 40
0.3827833017
 40
0.5083210954
 40
0.5700695269
 40
0.6305824231
 40
0.690153812
 40
0.7505715622
 40
0.8737899315
 40
1.0
 40
1.0
 40
1.0
 40
1.0
 10
8.8159914033
 20
34.2120906964
 30
0.0
 10
8.8196118412
 20
34.2006998606
 30
0.0
 10
8.827956882
 20
34.1779416983
 30
0.0
 10
8.8445392048
 20
34.1453633218
 30
0.0
 10
8.8660911339
 20
34.115777979
 30
0.0
 10
8.8891470312
 20
34.0957323232
 30
0.0
 10
8.9105142179
 20
34.0854329114
 30
0.0
 10
8.9274878799
 20
34.0812380842
 30
0.0
 10
8.9448854516
 20
34.0818423184
 30
0.0
 10
8.9672360715
 20
34.0884953236
 30
0.0
 10
8.9927573188
 20
34.1041196581
 30
0.0
 10
9.0098481893
 20
34.1207808172
 30
0.0
 10
9.0177949448
 20
34.1297903092
 30
0.0
  0
SPLINE
  5
327
100
AcDbEntity
  8
0
100
AcDbSpline
 62
7
  6
BYLAYER
 70
0
 71
3
 72
8
 73
4
 74
0
 42
0.0000001
 43
0.0000001
 44
0.0000000001
 40
0.0
 40
0.0
 40
0.0
 40
0.0
 40
1.0
 40
1.0
 40
1.0
 40
1.0
 10
9.0177949448
 20
34.1297903092
 30
0.0
 10
9.027355488
 20
34.1406294042
 30
0.0
 10
9.0359066948
 20
34.1523946977
 30
0.0
 10
9.0436394579
 20
34.1646051171
 30
0.0
  0
SPLINE
  5
328
100
AcDbEntity
  8
0
100
AcDbSpline
 62
7
  6
BYLAYER
 70
0
 71
3
 72
8
 73
4
 74
0
 42
0.0000001
 43
0.0000001
 44
0.0000000001
 40
0.0
 40
0.0
 40
0.0
 40
0.0
 40
1.0
 40
1.0
 40
1.0
 40
1.0
 10
9.0436394579
 20
34.1646051171
 30
0.0
 10
9.0505761065
 20
34.1755584317
 30
0.0
 10
9.0568909596
 20
34.1869123096
 30
0.0
 10
9.0628164927
 20
34.1984440159
 30
0.0
  0
SPLINE
  5
329
100
AcDbEntity
  8
0
100
AcDbSpline
 62
7
  6
BYLAYER
 70
0
 71
3
 72
23
 73
19
 74
0
 42
0.0000001
 43
0.0000001
 44
0.0000000001
 40
0.0
 40
0.0
 40
0.0
 40
0.0
 40
0.0605921804
 40
0.1248211453
 40
0.1920493974
 40
0.2616180268
 40
0.3327334625
 40
0.4045396316
 40
0.4761601782
 40
0.5467256924
 40
0.6154051861
 40
0.6814409618
 40
0.744191447
 40
0.8031653009
 40
0.8580789766
 40
0.9089169104
 40
0.9559894791
 40
1.0
 40
1.0
 40
1.0
 40
1.0
 10
28.2580741519
 20
40.3277206662
 30
0.0
 10
28.2580741519
 20
40.4953960659
 30
0.0
 10
28.2371694036
 20
40.8410125354
 30
0.0
 10
28.1508019968
 20
41.3661865811
 30
0.0
 10
28.0098039517
 20
41.9050941352
 30
0.0
 10
27.8168583206
 20
42.4478237905
 30
0.0
 10
27.5754961556
 20
42.9847056155
 30
0.0
 10
27.2900297833
 20
43.5059573005
 30
0.0
 10
26.9656396635
 20
44.0021054068
 30
0.0
 10
26.6082662799
 20
44.4641923301
 30
0.0
 10
26.2243319426
 20
44.8838108483
 30
0.0
 10
25.8207580861
 20
45.2533662798
 30
0.0
 10
25.4048160758
 20
45.5662444746
 30
0.0
 10
24.9838059824
 20
45.8167334036
 30
0.0
 10
24.5650915163
 20
46.0002561167
 30
0.0
 10
24.1557631084
 20
46.1132807898
 30
0.0
 10
23.7630128884
 20
46.1530560467
 30
0.0
 10
23.5099243944
 20
46.1287594883
 30
0.0
 10
23.3907885173
 20
46.103475378
 30
0.0
  0
SPLINE
  5
32A
100
AcDbEntity
  8
0
100
AcDbSpline
 62
7
  6
BYLAYER
 70
0
 71
3
 72
9
 73
5
 74
0
 42
0.0000001
 43
0.0000001
 44
0.0000000001
 40
0.0
 40
0.0
 40
0.0
 40
0.0
 40
0.504195681
 40
1.0
 40
1.0
 40
1.0
 40
1.0
 10
23.3907885173
 20
46.103475378
 30
0.0
 10
23.3124437853
 20
46.0868483392
 30
0.0
 10
23.1592451217
 20
46.0422538482
 30
0.0
 10
23.0150075736
 20
45.9738740298
 30
0.0
 10
22.9468065105
 20
45.9344882698
 30
0.0
  0
SPLINE
  5
32B
100
AcDbEntity
  8
0
100
AcDbSpline
 62
7
  6
BYLAYER
 70
0
 71
3
 72
10
 73
6
 74
0
 42
0.0000001
 43
0.0000001
 44
0.0000000001
 40
0.0
 40
0.0
 40
0.0
 40
0.0
 40
0.2723982955
 40
0.5300262927
 40
1.0
 40
1.0
 40
1.0
 40
1.0
 10
28.6823364542
 20
40.5726671585
 30
0.0
 10
28.6823364542
 20
40.4508401045
 30
0.0
 10
28.6718257544
 20
40.213503426
 30
0.0
 10
28.6075669016
 20
39.7706716823
 30
0.0
 10
28.507209608
 20
39.4562065429
 30
0.0
 10
28.4139165878
 20
39.2678546774
 30
0.0
  0
SPLINE
  5
32C
100
AcDbEntity
  8
0
100
AcDbSpline
 62
7
  6
BYLAYER
 70
0
 71
3
 72
9
 73
5
 74
0
 42
0.0000001
 43
0.0000001
 44
0.0000000001
 40
0.0
 40
0.0
 40
0.0
 40
0.0
 40
0.5140292639
 40
1.0
 40
1.0
 40
1.0
 40
1.0
 10
28.4139165878
 20
39.2678546774
 30
0.0
 10
28.3549852195
 20
39.1488765038
 30
0.0
 10
28.2175409876
 20
38.9275950626
 30
0.0
 10
28.0324175081
 20
38.7433127047
 30
0.0
 10
27.9329206001
 20
38.6667812711
 30
0.0
  0
SPLINE
  5
32D
100
AcDbEntity
  8
0
100
AcDbSpline
 62
7
  6
BYLAYER
 70
0
 71
3
 72
16
 73
12
 74
0
 42
0.0000001
 43
0.0000001
 44
0.0000000001
 40
0.0
 40
0.0
 40
0.0
 40
0.0
 40
0.1182106969
 40
0.1983744891
 40
0.2292370819
 40
0.259912613
 40
0.3390683472
 40
0.4580282071
 40
0.6138645872
 40
0.7969438666
 40
1.0
 40
1.0
 40
1.0
 40
1.0
 10
10.3204981908
 20
31.94114165
 30
0.0
 10
10.3213100945
 20
31.9385729081
 30
0.0
 10
10.3228760499
 20
31.9343704496
 30
0.0
 10
10.3262652504
 20
31.9299701617
 30
0.0
 10
10.3294800851
 20
31.9290163502
 30
0.0
 10
10.3327274305
 20
31.9297660757
 30
0.0
 10
10.3363219363
 20
31.9340150874
 30
0.0
 10
10.3392341023
 20
31.9415080053
 30
0.0
 10
10.3415646816
 20
31.9517363255
 30
0.0
 10
10.3428984122
 20
31.9640274058
 30
0.0
 10
10.343057819
 20
31.9728393607
 30
0.0
 10
10.3429750853
 20
31.9774662287
 30
0.0
  0
SPLINE
  5
32E
100
AcDbEntity
  8
0
100
AcDbSpline
 62
7
  6
BYLAYER
 70
0
 71
3
 72
9
 73
5
 74
0
 42
0.0000001
 43
0.0000001
 44
0.0000000001
 40
0.0
 40
0.0
 40
0.0
 40
0.0
 40
0.5033866888
 40
1.0
 40
1.0
 40
1.0
 40
1.0
 10
11.9074167302
 20
30.4036847939
 30
0.0
 10
11.964666701
 20
30.4177069014
 30
0.0
 10
12.0766335638
 20
30.4534411156
 30
0.0
 10
12.1823058911
 20
30.5049568057
 30
0.0
 10
12.2325682656
 20
30.5341973077
 30
0.0
  0
SPLINE
  5
32F
100
AcDbEntity
  8
0
100
AcDbSpline
 62
7
  6
BYLAYER
 70
0
 71
3
 72
14
 73
10
 74
0
 42
0.0000001
 43
0.0000001
 44
0.0000000001
 40
0.0
 40
0.0
 40
0.0
 40
0.0
 40
0.1052372618
 40
0.2129988102
 40
0.325488762
 40
0.4444149948
 40
0.7052839177
 40
0.8486306584
 40
1.0
 40
1.0
 40
1.0
 40
1.0
 10
12.2325682656
 20
30.5341973077
 30
0.0
 10
12.2983125685
 20
30.5724445342
 30
0.0
 10
12.4241911298
 20
30.6629664748
 30
0.0
 10
12.5870720605
 20
30.834403457
 30
0.0
 10
12.7230569942
 20
31.0397701992
 30
0.0
 10
12.8711041698
 20
31.3646119474
 30
0.0
 10
12.95230233
 20
31.7386596137
 30
0.0
 10
12.9754039892
 20
32.1397766155
 30
0.0
 10
12.9672884159
 20
32.3530498505
 30
0.0
 10
12.9584931962
 20
32.4620979771
 30
0.0
  0
SPLINE
  5
330
100
AcDbEntity
  8
0
100
AcDbSpline
 62
7
  6
BYLAYER
 70
0
 71
3
 72
12
 73
8
 74
0
 42
0.0000001
 43
0.0000001
 44
0.0000000001
 40
0.0
 40
0.0
 40
0.0
 40
0.0
 40
0.2906740482
 40
0.5386720433
 40
0.6529938934
 40
0.7655613307
 40
1.0
 40
1.0
 40
1.0
 40
1.0
 10
10.0401504541
 20
32.1515224572
 30
0.0
 10
10.0404075578
 20
32.1665611731
 30
0.0
 10
10.0439446786
 20
32.1946124064
 30
0.0
 10
10.0595830583
 20
32.2256818496
 30
0.0
 10
10.0776885692
 20
32.2426551369
 30
0.0
 10
10.0987740258
 20
32.2542939323
 30
0.0
 10
10.1173549286
 20
32.2567622778
 30
0.0
 10
10.1294653749
 20
32.2560561219
 30
0.0
  0
SPLINE
  5
331
100
AcDbEntity
  8
0
100
AcDbSpline
 62
7
  6
BYLAYER
 70
0
 71
3
 72
10
 73
6
 74
0
 42
0.0000001
 43
0.0000001
 44
0.0000000001
 40
0.0
 40
0.0
 40
0.0
 40
0.0
 40
0.2412671791
 40
0.4863348473
 40
1.0
 40
1.0
 40
1.0
 40
1.0
 10
28.5225106224
 20
39.2232302697
 30
0.0
 10
28.584706853
 20
39.2593494636
 30
0.0
 10
28.704656789
 20
39.3420306932
 30
0.0
 10
28.9222791498
 20
39.5469998352
 30
0.0
 10
29.0507773595
 20
39.7376249353
 30
0.0
 10
29.1206908894
 20
39.8738599195
 30
0.0
  0
SPLINE
  5
332
100
AcDbEntity
  8
0
100
AcDbSpline
 62
7
  6
BYLAYER
 70
0
 71
3
 72
10
 73
6
 74
0
 42
0.0000001
 43
0.0000001
 44
0.0000000001
 40
0.0
 40
0.0
 40
0.0
 40
0.0
 40
0.4692035547
 40
0.7270074852
 40
1.0
 40
1.0
 40
1.0
 40
1.0
 10
29.1206908894
 20
39.8738599195
 30
0.0
 10
29.2141204643
 20
40.0559187669
 30
0.0
 10
29.3146519388
 20
40.3617573655
 30
0.0
 10
29.3789295317
 20
40.7933544756
 30
0.0
 10
29.3894391138
 20
41.0251487236
 30
0.0
 10
29.3894391138
 20
41.1442082941
 30
0.0
  0
SPLINE
  5
333
100
AcDbEntity
  8
0
100
AcDbSpline
 62
7
  6
BYLAYER
 70
0
 71
3
 72
20
 73
16
 74
0
 42
0.0000001
 43
0.0000001
 44
0.0000000001
 40
0.0
 40
0.0
 40
0.0
 40
0.0
 40
0.0589882771
 40
0.1212893714
 40
0.1863732397
 40
0.2537116291
 40
0.39247822
 40
0.5320836535
 40
0.6004505754
 40
0.6669229789
 40
0.7308918439
 40
0.7918455337
 40
0.8493899082
 40
0.9032908746
 40
1.0
 40
1.0
 40
1.0
 40
1.0
 10
29.3894391138
 20
41.1442082941
 30
0.0
 10
29.3894391138
 20
41.2911490226
 30
0.0
 10
29.3726270711
 20
41.5934394021
 30
0.0
 10
29.3027628392
 20
42.0530039052
 30
0.0
 10
29.1883623018
 20
42.5249881546
 30
0.0
 10
28.9768865623
 20
43.1671936947
 30
0.0
 10
28.614971859
 20
43.9522302762
 30
0.0
 10
28.1444475943
 20
44.6803347729
 30
0.0
 10
27.711727351
 20
45.2103324724
 30
0.0
 10
27.3694311751
 20
45.5689747783
 30
0.0
 10
27.0124014525
 20
45.8858522156
 30
0.0
 10
26.6462296891
 20
46.1561795766
 30
0.0
 10
26.2760110168
 20
46.3758307903
 30
0.0
 10
25.8028496365
 20
46.5886178258
 30
0.0
 10
25.4307474906
 20
46.6776867639
 30
0.0
 10
25.1901717525
 20
46.6902577837
 30
0.0
  0
SPLINE
  5
334
100
AcDbEntity
  8
0
100
AcDbSpline
 62
7
  6
BYLAYER
 70
0
 71
3
 72
11
 73
7
 74
0
 42
0.0000001
 43
0.0000001
 44
0.0000000001
 40
0.0
 40
0.0
 40
0.0
 40
0.0
 40
0.2623629437
 40
0.5143743124
 40
0.759078005
 40
1.0
 40
1.0
 40
1.0
 40
1.0
 10
25.1901717525
 20
46.6902577837
 30
0.0
 10
25.1109390089
 20
46.6943980033
 30
0.0
 10
24.9548737842
 20
46.6930469961
 30
0.0
 10
24.7270176016
 20
46.6595152347
 30
0.0
 10
24.5126724702
 20
46.5948667678
 30
0.0
 10
24.3796494546
 20
46.530996679
 30
0.0
 10
24.3166459141
 20
46.4944086564
 30
0.0
  0
SPLINE
  5
335
100
AcDbEntity
  8
0
100
AcDbSpline
 62
7
  6
BYLAYER
 70
0
 71
3
 72
22
 73
18
 74
0
 42
0.0000001
 43
0.0000001
 44
0.0000000001
 40
0.0
 40
0.0
 40
0.0
 40
0.0
 40
0.0610531729
 40
0.1258331759
 40
0.1936708139
 40
0.2638668574
 40
0.4077851315
 40
0.4798035143
 40
0.5506046576
 40
0.6193260279
 40
0.6851890772
 40
0.747548399
 40
0.8059346384
 40
0.8601104334
 40
0.9101468679
 40
0.9564870238
 40
1.0
 40
1.0
 40
1.0
 40
1.0
 10
22.7426606889
 20
37.633307211
 30
0.0
 10
22.7426606889
 20
37.7813359442
 30
0.0
 10
22.7237925422
 20
38.0866149875
 30
0.0
 10
22.6459683039
 20
38.5504021287
 30
0.0
 10
22.5190143006
 20
39.0262191687
 30
0.0
 10
22.2857261841
 20
39.6694653393
 30
0.0
 10
21.9690201284
 20
40.2907782978
 30
0.0
 10
21.5819553385
 20
40.8689275476
 30
0.0
 10
21.2625075109
 20
41.2710060046
 30
0.0
 10
20.9202352741
 20
41.6335813635
 30
0.0
 10
20.5614867846
 20
41.9498311133
 30
0.0
 10
20.1929980437
 20
42.2138413297
 30
0.0
 10
19.8215133811
 20
42.4206297094
 30
0.0
 10
19.4537210751
 20
42.5661580062
 30
0.0
 10
19.0960927377
 20
42.6473884718
 30
0.0
 10
18.7552158718
 20
42.6620958764
 30
0.0
 10
18.5382983554
 20
42.6254565109
 30
0.0
 10
18.4370805744
 20
42.595700476
 30
0.0
  0
SPLINE
  5
336
100
AcDbEntity
  8
0
100
AcDbSpline
 62
7
  6
BYLAYER
 70
0
 71
3
 72
14
 73
10
 74
0
 42
0.0000001
 43
0.0000001
 44
0.0000000001
 40
0.0
 40
0.0
 40
0.0
 40
0.0
 40
0.2892616805
 40
0.4225608933
 40
0.548506197
 40
0.6678891623
 40
0.7818692482
 40
0.8919544703
 40
1.0
 40
1.0
 40
1.0
 40
1.0
 10
29.3540836276
 20
41.1646203318
 30
0.0
 10
29.3540836276
 20
40.9542820764
 30
0.0
 10
29.3295153015
 20
40.6455049653
 30
0.0
 10
29.2345994481
 20
40.2574142002
 30
0.0
 10
29.1380371486
 20
39.9987967438
 30
0.0
 10
29.0149112686
 20
39.7674192723
 30
0.0
 10
28.8662791446
 20
39.5655027899
 30
0.0
 10
28.6934213641
 20
39.3953846183
 30
0.0
 10
28.5625979276
 20
39.3041109042
 30
0.0
 10
28.4945617371
 20
39.2648212161
 30
0.0
  0
SPLINE
  5
337
100
AcDbEntity
  8
0
100
AcDbSpline
 62
7
  6
BYLAYER
 70
0
 71
3
 72
9
 73
5
 74
0
 42
0.0000001
 43
0.0000001
 44
0.0000000001
 40
0.0
 40
0.0
 40
0.0
 40
0.0
 40
0.491899273
 40
1.0
 40
1.0
 40
1.0
 40
1.0
 10
22.1360912137
 20
36.0199115162
 30
0.0
 10
22.1892304904
 20
36.064291743
 30
0.0
 10
22.2901629131
 20
36.1633091802
 30
0.0
 10
22.3750326315
 20
36.2762686027
 30
0.0
 10
22.4140277442
 20
36.3362162754
 30
0.0
  0
SPLINE
  5
338
100
AcDbEntity
  8
0
100
AcDbSpline
 62
7
  6
BYLAYER
 70
0
 71
3
 72
11
 73
7
 74
0
 42
0.0000001
 43
0.0000001
 44
0.0000000001
 40
0.0
 40
0.0
 40
0.0
 40
0.0
 40
0.2243860093
 40
0.4648195987
 40
0.7233314854
 40
1.0
 40
1.0
 40
1.0
 40
1.0
 10
22.4140277442
 20
36.3362162754
 30
0.0
 10
22.4693009785
 20
36.4211885072
 30
0.0
 10
22.5669601111
 20
36.6085417275
 30
0.0
 10
22.6689802976
 20
36.9202211167
 30
0.0
 10
22.7300029836
 20
37.2662706319
 30
0.0
 10
22.7426606889
 20
37.5083205816
 30
0.0
 10
22.7426606889
 20
37.633307211
 30
0.0
  0
SPLINE
  5
339
100
AcDbEntity
  8
0
100
AcDbSpline
 62
7
  6
BYLAYER
 70
0
 71
3
 72
23
 73
19
 74
0
 42
0.0000001
 43
0.0000001
 44
0.0000000001
 40
0.0
 40
0.0
 40
0.0
 40
0.0
 40
0.0605921804
 40
0.1248211453
 40
0.1920493974
 40
0.2616180268
 40
0.3327334625
 40
0.4045396316
 40
0.4761601782
 40
0.5467256924
 40
0.6154051861
 40
0.6814409618
 40
0.744191447
 40
0.8031653009
 40
0.8580789766
 40
0.9089169104
 40
0.9559894791
 40
1.0
 40
1.0
 40
1.0
 40
1.0
 10
29.6722818263
 20
41.1442089739
 30
0.0
 10
29.6722818263
 20
41.3118843736
 30
0.0
 10
29.651377078
 20
41.6575008431
 30
0.0
 10
29.5650096712
 20
42.1826748889
 30
0.0
 10
29.4240116262
 20
42.721582443
 30
0.0
 10
29.231065995
 20
43.2643120982
 30
0.0
 10
28.9897038301
 20
43.8011939232
 30
0.0
 10
28.7042374577
 20
44.3224456082
 30
0.0
 10
28.379847338
 20
44.8185937145
 30
0.0
 10
28.0224739544
 20
45.2806806378
 30
0.0
 10
27.638539617
 20
45.7002991561
 30
0.0
 10
27.2349657606
 20
46.0698545875
 30
0.0
 10
26.8190237502
 20
46.3827327823
 30
0.0
 10
26.3980136568
 20
46.6332217114
 30
0.0
 10
25.9792991907
 20
46.8167444244
 30
0.0
 10
25.5699707828
 20
46.9297690976
 30
0.0
 10
25.1772205628
 20
46.9695443544
 30
0.0
 10
24.9241320688
 20
46.945247796
 30
0.0
 10
24.8049961918
 20
46.9199636857
 30
0.0
  0
SPLINE
  5
33A
100
AcDbEntity
  8
0
100
AcDbSpline
 62
7
  6
BYLAYER
 70
0
 71
3
 72
9
 73
5
 74
0
 42
0.0000001
 43
0.0000001
 44
0.0000000001
 40
0.0
 40
0.0
 40
0.0
 40
0.0
 40
0.504195681
 40
1.0
 40
1.0
 40
1.0
 40
1.0
 10
24.8049961918
 20
46.9199636857
 30
0.0
 10
24.7266514597
 20
46.9033366469
 30
0.0
 10
24.5734527961
 20
46.8587421559
 30
0.0
 10
24.429215248
 20
46.7903623376
 30
0.0
 10
24.3610141849
 20
46.7509765776
 30
0.0
  0
SPLINE
  5
33B
100
AcDbEntity
  8
0
100
AcDbSpline
 62
7
  6
BYLAYER
 70
0
 71
3
 72
9
 73
5
 74
0
 42
0.0000001
 43
0.0000001
 44
0.0000000001
 40
0.0
 40
0.0
 40
0.0
 40
0.0
 40
0.2542615094
 40
1.0
 40
1.0
 40
1.0
 40
1.0
 10
10.329656986
 20
32.0526836574
 30
0.0
 10
10.3305576265
 20
32.0498500139
 30
0.0
 10
10.3339245217
 20
32.038650107
 30
0.0
 10
10.3366210089
 20
32.0272513984
 30
0.0
 10
10.3382848061
 20
32.0186909332
 30
0.0
  0
SPLINE
  5
33C
100
AcDbEntity
  8
0
100
AcDbSpline
 62
7
  6
BYLAYER
 70
0
 71
3
 72
10
 73
6
 74
0
 42
0.0000001
 43
0.0000001
 44
0.0000000001
 40
0.0
 40
0.0
 40
0.0
 40
0.0
 40
0.5606768902
 40
0.7967903766
 40
1.0
 40
1.0
 40
1.0
 40
1.0
 10
10.3382848061
 20
32.0186909332
 30
0.0
 10
10.3427546965
 20
31.9956927326
 30
0.0
 10
10.3454833891
 20
31.9622322673
 30
0.0
 10
10.3441241804
 20
31.9204835831
 30
0.0
 10
10.3432663622
 20
31.9021388076
 30
0.0
 10
10.3431897764
 20
31.893647796
 30
0.0
  0
SPLINE
  5
33D
100
AcDbEntity
  8
0
100
AcDbSpline
 62
7
  6
BYLAYER
 70
0
 71
3
 72
9
 73
5
 74
0
 42
0.0000001
 43
0.0000001
 44
0.0000000001
 40
0.0
 40
0.0
 40
0.0
 40
0.0
 40
0.2827458177
 40
1.0
 40
1.0
 40
1.0
 40
1.0
 10
10.3431897764
 20
31.893647796
 30
0.0
 10
10.3431589839
 20
31.8902338505
 30
0.0
 10
10.3432632789
 20
31.8781842685
 30
0.0
 10
10.3444824491
 20
31.8659633466
 30
0.0
 10
10.3470693803
 20
31.8576980655
 30
0.0
  0
SPLINE
  5
33E
100
AcDbEntity
  8
0
100
AcDbSpline
 62
7
  6
BYLAYER
 70
0
 71
3
 72
9
 73
5
 74
0
 42
0.0000001
 43
0.0000001
 44
0.0000000001
 40
0.0
 40
0.0
 40
0.0
 40
0.0
 40
0.2275112535
 40
1.0
 40
1.0
 40
1.0
 40
1.0
 10
10.4451204032
 20
31.80759781
 30
0.0
 10
10.4373877581
 20
31.8085263851
 30
0.0
 10
10.4034699007
 20
31.8131685024
 30
0.0
 10
10.3698262101
 20
31.8198401921
 30
0.0
 10
10.3441509836
 20
31.8261699081
 30
0.0
  0
SPLINE
  5
33F
100
AcDbEntity
  8
0
100
AcDbSpline
 62
7
  6
BYLAYER
 70
0
 71
3
 72
9
 73
5
 74
0
 42
0.0000001
 43
0.0000001
 44
0.0000000001
 40
0.0
 40
0.0
 40
0.0
 40
0.0
 40
0.245538336
 40
1.0
 40
1.0
 40
1.0
 40
1.0
 10
10.3441509836
 20
31.8261699081
 30
0.0
 10
10.3374562811
 20
31.8278203537
 30
0.0
 10
10.3102831602
 20
31.8348979011
 30
0.0
 10
10.2835053949
 20
31.8435976816
 30
0.0
 10
10.2638026161
 20
31.8513869324
 30
0.0
  0
SPLINE
  5
340
100
AcDbEntity
  8
0
100
AcDbSpline
 62
7
  6
BYLAYER
 70
0
 71
3
 72
15
 73
11
 74
0
 42
0.0000001
 43
0.0000001
 44
0.0000000001
 40
0.0
 40
0.0
 40
0.0
 40
0.0
 40
0.1485048412
 40
0.2894881974
 40
0.4227439256
 40
0.5486479846
 40
0.6679919934
 40
0.78193546
 40
0.8919867674
 40
1.0
 40
1.0
 40
1.0
 40
1.0
 10
30.0965441286
 20
41.3891554663
 30
0.0
 10
30.0965441286
 20
41.2746273661
 30
0.0
 10
30.0872571529
 20
41.0512214706
 30
0.0
 10
30.0433455082
 20
40.7276515852
 30
0.0
 10
29.969852854
 20
40.4272812127
 30
0.0
 10
29.8674889939
 20
40.1531103096
 30
0.0
 10
29.7369450654
 20
39.907788299
 30
0.0
 10
29.5793622294
 20
39.6937071813
 30
0.0
 10
29.3960884186
 20
39.5133388847
 30
0.0
 10
29.2573821556
 20
39.4165646489
 30
0.0
 10
29.1852461888
 20
39.3749065024
 30
0.0
  0
SPLINE
  5
341
100
AcDbEntity
  8
0
100
AcDbSpline
 62
7
  6
BYLAYER
 70
0
 71
3
 72
11
 73
7
 74
0
 42
0.0000001
 43
0.0000001
 44
0.0000000001
 40
0.0
 40
0.0
 40
0.0
 40
0.0
 40
0.2786132882
 40
0.5374850473
 40
0.7770672515
 40
1.0
 40
1.0
 40
1.0
 40
1.0
 10
22.5658832576
 20
37.7353673997
 30
0.0
 10
22.5658832576
 20
37.6106072538
 30
0.0
 10
22.5524571617
 20
37.3695981383
 30
0.0
 10
22.4871842565
 20
37.0266181679
 30
0.0
 10
22.3781415243
 20
36.7210521634
 30
0.0
 10
22.2737198589
 20
36.5403926162
 30
0.0
 10
22.2148796974
 20
36.4597498195
 30
0.0
  0
SPLINE
  5
342
100
AcDbEntity
  8
0
100
AcDbSpline
 62
7
  6
BYLAYER
 70
0
 71
3
 72
15
 73
11
 74
0
 42
0.0000001
 43
0.0000001
 44
0.0000000001
 40
0.0
 40
0.0
 40
0.0
 40
0.0
 40
0.1141546166
 40
0.2373258468
 40
0.3669753755
 40
0.4999989421
 40
0.6330242101
 40
0.7626710987
 40
0.8858488721
 40
1.0
 40
1.0
 40
1.0
 40
1.0
 10
38.122217392
 20
52.7995627715
 30
0.0
 10
38.3110003348
 20
52.6905657825
 30
0.0
 10
38.6838807546
 20
52.4291746345
 30
0.0
 10
39.1969470123
 20
51.9491584183
 30
0.0
 10
39.6697635912
 20
51.381743685
 30
0.0
 10
40.0845313472
 20
50.7482174487
 30
0.0
 10
40.4257874308
 20
50.0722565724
 30
0.0
 10
40.680788227
 20
49.3790709687
 30
0.0
 10
40.8399407049
 20
48.6947285858
 30
0.0
 10
40.8798747022
 20
48.2411039239
 30
0.0
 10
40.8798747022
 20
48.023121267
 30
0.0
  0
SPLINE
  5
343
100
AcDbEntity
  8
0
100
AcDbSpline
 62
7
  6
BYLAYER
 70
0
 71
3
 72
11
 73
7
 74
0
 42
0.0000001
 43
0.0000001
 44
0.0000000001
 40
0.0
 40
0.0
 40
0.0
 40
0.0
 40
0.2359976266
 40
0.4989671021
 40
0.7624327085
 40
1.0
 40
1.0
 40
1.0
 40
1.0
 10
10.240129641
 20
32.1481360363
 30
0.0
 10
10.239981514
 20
32.1397392061
 30
0.0
 10
10.2429897776
 20
32.1219224698
 30
0.0
 10
10.2539306535
 20
32.0968730049
 30
0.0
 10
10.2701305059
 20
32.0747650592
 30
0.0
 10
10.2841454241
 20
32.0632506025
 30
0.0
 10
10.2915272298
 20
32.0591300489
 30
0.0
  0
SPLINE
  5
344
100
AcDbEntity
  8
0
100
AcDbSpline
 62
7
  6
BYLAYER
 70
0
 71
3
 72
18
 73
14
 74
0
 42
0.0000001
 43
0.0000001
 44
0.0000000001
 40
0.0
 40
0.0
 40
0.0
 40
0.0
 40
0.1254819671
 40
0.2539480214
 40
0.382117053
 40
0.4455143285
 40
0.5071765183
 40
0.5674162902
 40
0.6273940303
 40
0.6874447184
 40
0.7482611734
 40
0.8729769258
 40
1.0
 40
1.0
 40
1.0
 40
1.0
 10
10.0534334223
 20
32.068790146
 30
0.0
 10
10.0573173804
 20
32.0565702081
 30
0.0
 10
10.0665731983
 20
32.0322560734
 30
0.0
 10
10.0847211491
 20
31.9975794669
 30
0.0
 10
10.1046469843
 20
31.9712844582
 30
0.0
 10
10.1241012369
 20
31.9540888274
 30
0.0
 10
10.1404046024
 20
31.9441611485
 30
0.0
 10
10.1584080227
 20
31.9387319742
 30
0.0
 10
10.177009519
 20
31.9380954231
 30
0.0
 10
10.1952646273
 20
31.9419530956
 30
0.0
 10
10.2181531831
 20
31.9526215794
 30
0.0
 10
10.2433807707
 20
31.9728043069
 30
0.0
 10
10.2601794001
 20
31.9924020788
 30
0.0
 10
10.2679591863
 20
32.002791987
 30
0.0
  0
SPLINE
  5
345
100
AcDbEntity
  8
0
100
AcDbSpline
 62
7
  6
BYLAYER
 70
0
 71
3
 72
8
 73
4
 74
0
 42
0.0000001
 43
0.0000001
 44
0.0000000001
 40
0.0
 40
0.0
 40
0.0
 40
0.0
 40
1.0
 40
1.0
 40
1.0
 40
1.0
 10
10.2782100716
 20
32.0173284852
 30
0.0
 10
10.2862886884
 20
32.0294790683
 30
0.0
 10
10.2935897958
 20
32.0421654478
 30
0.0
 10
10.3002585117
 20
32.0551434655
 30
0.0
  0
SPLINE
  5
346
100
AcDbEntity
  8
0
100
AcDbSpline
 62
7
  6
BYLAYER
 70
0
 71
3
 72
15
 73
11
 74
0
 42
0.0000001
 43
0.0000001
 44
0.0000000001
 40
0.0
 40
0.0
 40
0.0
 40
0.0
 40
0.1141546703
 40
0.2373261017
 40
0.3669753162
 40
0.4999989361
 40
0.6330227034
 40
0.7626723508
 40
0.8858444607
 40
1.0
 40
1.0
 40
1.0
 40
1.0
 10
20.0556437333
 20
42.083205659
 30
0.0
 10
20.2274897224
 20
41.9839925754
 30
0.0
 10
20.5669164045
 20
41.7460605408
 30
0.0
 10
21.0339493148
 20
41.309119303
 30
0.0
 10
21.4643453747
 20
40.7926215562
 30
0.0
 10
21.8418934913
 20
40.2159427866
 30
0.0
 10
22.152541137
 20
39.6006379385
 30
0.0
 10
22.3846473198
 20
38.9696543179
 30
0.0
 10
22.5295377966
 20
38.3467189236
 30
0.0
 10
22.5658832576
 20
37.9337984443
 30
0.0
 10
22.5658832576
 20
37.7353673997
 30
0.0
  0
SPLINE
  5
347
100
AcDbEntity
  8
0
100
AcDbSpline
 62
7
  6
BYLAYER
 70
0
 71
3
 72
14
 73
10
 74
0
 42
0.0000001
 43
0.0000001
 44
0.0000000001
 40
0.0
 40
0.0
 40
0.0
 40
0.0
 40
0.2886128528
 40
0.421911293
 40
0.5480227185
 40
0.6676672486
 40
0.7819030146
 40
0.8921112776
 40
1.0
 40
1.0
 40
1.0
 40
1.0
 10
38.4050092112
 20
46.8800364464
 30
0.0
 10
38.4050092112
 20
46.7044328335
 30
0.0
 10
38.384963277
 20
46.4465444734
 30
0.0
 10
38.3078578729
 20
46.1215978969
 30
0.0
 10
38.2293290542
 20
45.9041369335
 30
0.0
 10
38.1291781323
 20
45.7086194191
 30
0.0
 10
38.008190884
 20
45.5368277585
 30
0.0
 10
37.8673949643
 20
45.3905789659
 30
0.0
 10
37.7605077591
 20
45.3107448086
 30
0.0
 10
37.7048294206
 20
45.2759736508
 30
0.0
  0
SPLINE
  5
348
100
AcDbEntity
  8
0
100
AcDbSpline
 62
7
  6
BYLAYER
 70
0
 71
3
 72
18
 73
14
 74
0
 42
0.0000001
 43
0.0000001
 44
0.0000000001
 40
0.0
 40
0.0
 40
0.0
 40
0.0
 40
0.0438692055
 40
0.0901692905
 40
0.1407739198
 40
0.1966872214
 40
0.3242811084
 40
0.4683254001
 40
0.6187147867
 40
0.7635931166
 40
0.8306124422
 40
0.8927156909
 40
1.0
 40
1.0
 40
1.0
 40
1.0
 10
10.9365153388
 20
31.9134969432
 30
0.0
 10
10.9510737066
 20
31.9218898672
 30
0.0
 10
10.9784463979
 20
31.9439430268
 30
0.0
 10
11.0094406194
 20
31.9888098682
 30
0.0
 10
11.0302412261
 20
32.0440490335
 30
0.0
 10
11.0446313146
 20
32.1330326555
 30
0.0
 10
11.0332073965
 20
32.2598320052
 30
0.0
 10
10.9819270384
 20
32.4142563106
 30
0.0
 10
10.8979614948
 20
32.5613092383
 30
0.0
 10
10.8062055972
 20
32.6669400018
 30
0.0
 10
10.724061477
 20
32.732840485
 30
0.0
 10
10.6464094064
 20
32.7794220962
 30
0.0
 10
10.5825945723
 20
32.8001644911
 30
0.0
 10
10.5415683125
 20
32.8025567195
 30
0.0
  0
SPLINE
  5
349
100
AcDbEntity
  8
0
100
AcDbSpline
 62
7
  6
BYLAYER
 70
0
 71
3
 72
12
 73
8
 74
0
 42
0.0000001
 43
0.0000001
 44
0.0000000001
 40
0.0
 40
0.0
 40
0.0
 40
0.0
 40
0.2907876754
 40
0.5387345821
 40
0.6530122176
 40
0.7655445694
 40
1.0
 40
1.0
 40
1.0
 40
1.0
 10
11.2775918891
 20
32.8660016368
 30
0.0
 10
11.2778487513
 20
32.8810443128
 30
0.0
 10
11.2813977354
 20
32.9090937061
 30
0.0
 10
11.2970365905
 20
32.9401592332
 30
0.0
 10
11.3151409251
 20
32.9571185603
 30
0.0
 10
11.3362182795
 20
32.968758583
 30
0.0
 10
11.3547976305
 20
32.971220147
 30
0.0
 10
11.3669073939
 20
32.9705140314
 30
0.0
  0
SPLINE
  5
34A
100
AcDbEntity
  8
0
100
AcDbSpline
 62
7
  6
BYLAYER
 70
0
 71
3
 72
14
 73
10
 74
0
 42
0.0000001
 43
0.0000001
 44
0.0000000001
 40
0.0
 40
0.0
 40
0.0
 40
0.0
 40
0.1080478072
 40
0.2181343416
 40
0.3321142811
 40
0.4514964914
 40
0.5774408518
 40
0.7107392346
 40
1.0
 40
1.0
 40
1.0
 40
1.0
 10
38.0922426022
 20
45.0946806
 30
0.0
 10
38.1561813001
 20
45.1316048662
 30
0.0
 10
38.2791255301
 20
45.2173821057
 30
0.0
 10
38.4415725756
 20
45.3772536539
 30
0.0
 10
38.5812490288
 20
45.5670087297
 30
0.0
 10
38.6969553902
 20
45.7844478093
 30
0.0
 10
38.7876992488
 20
46.0274848915
 30
0.0
 10
38.8768959542
 20
46.3921955645
 30
0.0
 10
38.899983958
 20
46.6823707537
 30
0.0
 10
38.899983958
 20
46.8800376362
 30
0.0
  0
SPLINE
  5
34B
100
AcDbEntity
  8
0
100
AcDbSpline
 62
7
  6
BYLAYER
 70
0
 71
3
 72
23
 73
19
 74
0
 42
0.0000001
 43
0.0000001
 44
0.0000000001
 40
0.0
 40
0.0
 40
0.0
 40
0.0
 40
0.0623788002
 40
0.1287503477
 40
0.1983457761
 40
0.2703345382
 40
0.3437243134
 40
0.4174668573
 40
0.4905033045
 40
0.5618008101
 40
0.6304087171
 40
0.6955076318
 40
0.7564648179
 40
0.8129108578
 40
0.8648208718
 40
0.9126040628
 40
0.9571856744
 40
1.0
 40
1.0
 40
1.0
 40
1.0
 10
38.899983958
 20
46.8800376362
 30
0.0
 10
38.899983958
 20
47.0417959999
 30
0.0
 10
38.8780245916
 20
47.3758855607
 30
0.0
 10
38.7878890903
 20
47.8831390816
 30
0.0
 10
38.6412126446
 20
48.4029334339
 30
0.0
 10
38.4412738051
 20
48.9240833729
 30
0.0
 10
38.1922638629
 20
49.4356028538
 30
0.0
 10
37.8995237996
 20
49.9265667285
 30
0.0
 10
37.5692921364
 20
50.3865016134
 30
0.0
 10
37.2085770954
 20
50.8055879167
 30
0.0
 10
36.8250655283
 20
51.1749424169
 30
0.0
 10
36.4268256981
 20
51.4867407043
 30
0.0
 10
36.0220984444
 20
51.7343344462
 30
0.0
 10
35.6191275098
 20
51.9124170636
 30
0.0
 10
35.2259380605
 20
52.0169038124
 30
0.0
 10
34.8502312739
 20
52.0445647123
 30
0.0
 10
34.5003758559
 20
51.9932520307
 30
0.0
 10
34.288413479
 20
51.9051952309
 30
0.0
 10
34.1922694576
 20
51.8496725576
 30
0.0
  0
SPLINE
  5
34C
100
AcDbEntity
  8
0
100
AcDbSpline
 62
7
  6
BYLAYER
 70
0
 71
3
 72
25
 73
21
 74
0
 42
0.0000001
 43
0.0000001
 44
0.0000000001
 40
0.0
 40
0.0
 40
0.0
 40
0.0
 40
0.0623687644
 40
0.1287296335
 40
0.198313865
 40
0.2702910451
 40
0.3436690129
 40
0.4173996926
 40
0.4904243892
 40
0.561710424
 40
0.630307293
 40
0.6953957341
 40
0.7563431131
 40
0.8127800716
 40
0.864681734
 40
0.9124572373
 40
0.9351018716
 40
0.9571072055
 40
0.9786681079
 40
1.0
 40
1.0
 40
1.0
 40
1.0
 10
23.5911888263
 20
37.6333092506
 30
0.0
 10
23.5911888263
 20
37.8158058662
 30
0.0
 10
23.5664141565
 20
38.1927274219
 30
0.0
 10
23.4647228216
 20
38.7650134455
 30
0.0
 10
23.2992417037
 20
39.3514480994
 30
0.0
 10
23.0736696785
 20
39.9394121329
 30
0.0
 10
22.7927353892
 20
40.5165110354
 30
0.0
 10
22.4624645319
 20
41.0704189928
 30
0.0
 10
22.0898955369
 20
41.589319903
 30
0.0
 10
21.6829347593
 20
42.0621351673
 30
0.0
 10
21.250255811
 20
42.4788429926
 30
0.0
 10
20.8009569444
 20
42.8306147853
 30
0.0
 10
20.3443505345
 20
43.1099534586
 30
0.0
 10
19.8896868533
 20
43.3108600431
 30
0.0
 10
19.4461868705
 20
43.4287660856
 30
0.0
 10
19.0864756354
 20
43.4551628358
 30
0.0
 10
18.8166886854
 20
43.4298495207
 30
0.0
 10
18.6267506074
 20
43.3893066345
 30
0.0
 10
18.4468189765
 20
43.3271502487
 30
0.0
 10
18.3339742719
 20
43.2712922315
 30
0.0
 10
18.2799211849
 20
43.2400768543
 30
0.0
  0
SPLINE
  5
34D
100
AcDbEntity
  8
0
100
AcDbSpline
 62
7
  6
BYLAYER
 70
0
 71
3
 72
15
 73
11
 74
0
 42
0.0000001
 43
0.0000001
 44
0.0000000001
 40
0.0
 40
0.0
 40
0.0
 40
0.0
 40
0.1141511279
 40
0.2373289013
 40
0.3669757899
 40
0.5000010579
 40
0.6330246245
 40
0.7626741532
 40
0.8858453834
 40
1.0
 40
1.0
 40
1.0
 40
1.0
 10
40.8798726414
 20
48.3088909849
 30
0.0
 10
40.8798726414
 20
48.5073110957
 30
0.0
 10
40.8435224644
 20
48.9202258521
 30
0.0
 10
40.6986529012
 20
49.5431528929
 30
0.0
 10
40.4665367918
 20
50.1741295322
 30
0.0
 10
40.1559062542
 20
50.7894272529
 30
0.0
 10
39.7783612455
 20
51.3660985706
 30
0.0
 10
39.3479769237
 20
51.8825914688
 30
0.0
 10
38.8809550737
 20
52.3195293066
 30
0.0
 10
38.5415382814
 20
52.5574622747
 30
0.0
 10
38.3696973975
 20
52.6566774826
 30
0.0
  0
SPLINE
  5
34E
100
AcDbEntity
  8
0
100
AcDbSpline
 62
7
  6
BYLAYER
 70
0
 71
3
 72
9
 73
5
 74
0
 42
0.0000001
 43
0.0000001
 44
0.0000000001
 40
0.0
 40
0.0
 40
0.0
 40
0.0
 40
0.2241394468
 40
1.0
 40
1.0
 40
1.0
 40
1.0
 10
11.6825624222
 20
32.5220557196
 30
0.0
 10
11.6712911783
 20
32.5234092375
 30
0.0
 10
11.6211351269
 20
32.5304384025
 30
0.0
 10
11.5715768936
 20
32.5421667603
 30
0.0
 10
11.534208688
 20
32.5543231577
 30
0.0
  0
SPLINE
  5
34F
100
AcDbEntity
  8
0
100
AcDbSpline
 62
7
  6
BYLAYER
 70
0
 71
3
 72
8
 73
4
 74
0
 42
0.0000001
 43
0.0000001
 44
0.0000000001
 40
0.0
 40
0.0
 40
0.0
 40
0.0
 40
1.0
 40
1.0
 40
1.0
 40
1.0
 10
11.534208688
 20
32.5543231577
 30
0.0
 10
11.5210665303
 20
32.5585984844
 30
0.0
 10
11.508038057
 20
32.5632595539
 30
0.0
 10
11.4952268464
 20
32.5684429515
 30
0.0
  0
SPLINE
  5
350
100
AcDbEntity
  8
0
100
AcDbSpline
 62
7
  6
BYLAYER
 70
0
 71
3
 72
23
 73
19
 74
0
 42
0.0000001
 43
0.0000001
 44
0.0000000001
 40
0.0
 40
0.0
 40
0.0
 40
0.0
 40
0.0428332716
 40
0.0876180526
 40
0.1357047279
 40
0.1879418228
 40
0.2446801468
 40
0.3058577757
 40
0.3710874108
 40
0.4397311398
 40
0.5109739761
 40
0.5838776778
 40
0.6574266712
 40
0.7305823881
 40
0.8023182262
 40
0.8716640583
 40
0.9378093004
 40
1.0
 40
1.0
 40
1.0
 40
1.0
 10
34.1555608358
 20
51.4235240645
 30
0.0
 10
34.2442972329
 20
51.4707569268
 30
0.0
 10
34.4391236966
 20
51.5441087369
 30
0.0
 10
34.758046202
 20
51.5816100188
 30
0.0
 10
35.0992471215
 20
51.5486658374
 30
0.0
 10
35.4553614472
 20
51.4472264801
 30
0.0
 10
35.8195385044
 20
51.2802428597
 30
0.0
 10
36.184629205
 20
51.0514422049
 30
0.0
 10
36.5432934104
 20
50.7656219063
 30
0.0
 10
36.8882166572
 20
50.4287715107
 30
0.0
 10
37.2122625828
 20
50.0479183616
 30
0.0
 10
37.5086372555
 20
49.63100243
 30
0.0
 10
37.7711468052
 20
49.1867720247
 30
0.0
 10
37.9942946594
 20
48.724551043
 30
0.0
 10
38.1733786704
 20
48.2540486547
 30
0.0
 10
38.3046989551
 20
47.7850124595
 30
0.0
 10
38.3853697002
 20
47.3273727925
 30
0.0
 10
38.4050092112
 20
47.0259898811
 30
0.0
 10
38.4050092112
 20
46.8800364464
 30
0.0
  0
SPLINE
  5
351
100
AcDbEntity
  8
0
100
AcDbSpline
 62
7
  6
BYLAYER
 70
0
 71
3
 72
9
 73
5
 74
0
 42
0.0000001
 43
0.0000001
 44
0.0000000001
 40
0.0
 40
0.0
 40
0.0
 40
0.0
 40
0.2542870002
 40
1.0
 40
1.0
 40
1.0
 40
1.0
 10
11.567099005
 20
32.767141567
 30
0.0
 10
11.5679950681
 20
32.7643223205
 30
0.0
 10
11.571348927
 20
32.7531818556
 30
0.0
 10
11.5740508005
 20
32.7418473865
 30
0.0
 10
11.5757227595
 20
32.7333348509
 30
0.0
  0
SPLINE
  5
352
100
AcDbEntity
  8
0
100
AcDbSpline
 62
7
  6
BYLAYER
 70
0
 71
3
 72
9
 73
5
 74
0
 42
0.0000001
 43
0.0000001
 44
0.0000000001
 40
0.0
 40
0.0
 40
0.0
 40
0.0
 40
0.5447593667
 40
1.0
 40
1.0
 40
1.0
 40
1.0
 10
11.5757227595
 20
32.7333348509
 30
0.0
 10
11.5794475093
 20
32.7143708315
 30
0.0
 10
11.5831582072
 20
32.67886818
 30
0.0
 10
11.5818710244
 20
32.6433903655
 30
0.0
 10
11.5812503203
 20
32.6272517911
 30
0.0
  0
SPLINE
  5
353
100
AcDbEntity
  8
0
100
AcDbSpline
 62
7
  6
BYLAYER
 70
0
 71
3
 72
9
 73
5
 74
0
 42
0.0000001
 43
0.0000001
 44
0.0000000001
 40
0.0
 40
0.0
 40
0.0
 40
0.0
 40
0.5594907396
 40
1.0
 40
1.0
 40
1.0
 40
1.0
 10
11.5812503203
 20
32.6272517911
 30
0.0
 10
11.5808542493
 20
32.6169537737
 30
0.0
 10
11.580054021
 20
32.5985998803
 30
0.0
 10
11.5819643722
 20
32.5799966971
 30
0.0
 10
11.5844341674
 20
32.5722676847
 30
0.0
  0
SPLINE
  5
354
100
AcDbEntity
  8
0
100
AcDbSpline
 62
7
  6
BYLAYER
 70
0
 71
3
 72
18
 73
14
 74
0
 42
0.0000001
 43
0.0000001
 44
0.0000000001
 40
0.0
 40
0.0
 40
0.0
 40
0.0
 40
0.1188792514
 40
0.1652873644
 40
0.2025755549
 40
0.2328784669
 40
0.26272209
 40
0.2995582902
 40
0.3461280424
 40
0.4673779689
 40
0.6203416746
 40
0.7996136379
 40
1.0
 40
1.0
 40
1.0
 40
1.0
 10
9.0829934512
 20
34.0845904677
 30
0.0
 10
9.08382219
 20
34.0820156021
 30
0.0
 10
9.0852205908
 20
34.0784723977
 30
0.0
 10
9.0878743802
 20
34.0746755773
 30
0.0
 10
9.0898119249
 20
34.072906059
 30
0.0
 10
9.0920156325
 20
34.0721352088
 30
0.0
 10
9.0942321645
 20
34.0728623495
 30
0.0
 10
9.0961140404
 20
34.0746817964
 30
0.0
 10
9.0986882109
 20
34.0785832545
 30
0.0
 10
9.1013335504
 20
34.0854543575
 30
0.0
 10
9.1037404573
 20
34.0954973355
 30
0.0
 10
9.1052798587
 20
34.1075431373
 30
0.0
 10
9.1055842184
 20
34.1161875497
 30
0.0
 10
9.1055679127
 20
34.1207470595
 30
0.0
  0
SPLINE
  5
355
100
AcDbEntity
  8
0
100
AcDbSpline
 62
7
  6
BYLAYER
 70
0
 71
3
 72
17
 73
13
 74
0
 42
0.0000001
 43
0.0000001
 44
0.0000000001
 40
0.0
 40
0.0
 40
0.0
 40
0.0
 40
0.1255686704
 40
0.2541843112
 40
0.3827833017
 40
0.5083210954
 40
0.5700695269
 40
0.6305824231
 40
0.690153812
 40
0.7505715622
 40
0.8737899315
 40
1.0
 40
1.0
 40
1.0
 40
1.0
 10
11.2908754413
 20
32.7832480556
 30
0.0
 10
11.2944958792
 20
32.7718572198
 30
0.0
 10
11.30284092
 20
32.7490990575
 30
0.0
 10
11.3194232428
 20
32.716520681
 30
0.0
 10
11.340975172
 20
32.6869353382
 30
0.0
 10
11.3640310692
 20
32.6668896824
 30
0.0
 10
11.3853982559
 20
32.6565902705
 30
0.0
 10
11.4023719179
 20
32.6523954434
 30
0.0
 10
11.4197694896
 20
32.6529996775
 30
0.0
 10
11.4421201096
 20
32.6596526828
 30
0.0
 10
11.4676413568
 20
32.6752770173
 30
0.0
 10
11.4847322273
 20
32.6919381764
 30
0.0
 10
11.4926789828
 20
32.7009476684
 30
0.0
  0
SPLINE
  5
356
100
AcDbEntity
  8
0
100
AcDbSpline
 62
7
  6
BYLAYER
 70
0
 71
3
 72
8
 73
4
 74
0
 42
0.0000001
 43
0.0000001
 44
0.0000000001
 40
0.0
 40
0.0
 40
0.0
 40
0.0
 40
1.0
 40
1.0
 40
1.0
 40
1.0
 10
11.4926789828
 20
32.7009476684
 30
0.0
 10
11.502239526
 20
32.7117867634
 30
0.0
 10
11.5107907328
 20
32.7235520568
 30
0.0
 10
11.518523496
 20
32.7357624762
 30
0.0
  0
SPLINE
  5
357
100
AcDbEntity
  8
0
100
AcDbSpline
 62
7
  6
BYLAYER
 70
0
 71
3
 72
8
 73
4
 74
0
 42
0.0000001
 43
0.0000001
 44
0.0000000001
 40
0.0
 40
0.0
 40
0.0
 40
0.0
 40
1.0
 40
1.0
 40
1.0
 40
1.0
 10
11.518523496
 20
32.7357624762
 30
0.0
 10
11.5254601445
 20
32.7467157908
 30
0.0
 10
11.5317749977
 20
32.7580696688
 30
0.0
 10
11.5377005308
 20
32.7696013751
 30
0.0
  0
SPLINE
  5
358
100
AcDbEntity
  8
0
100
AcDbSpline
 62
7
  6
BYLAYER
 70
0
 71
3
 72
15
 73
11
 74
0
 42
0.0000001
 43
0.0000001
 44
0.0000000001
 40
0.0
 40
0.0
 40
0.0
 40
0.0
 40
0.1052049569
 40
0.212902247
 40
0.3253079881
 40
0.4441469077
 40
0.5705990239
 40
0.7053614509
 40
0.8486584986
 40
1.0
 40
1.0
 40
1.0
 40
1.0
 10
12.7360011637
 20
30.3398660784
 30
0.0
 10
12.8097575739
 20
30.3824359549
 30
0.0
 10
12.951008265
 20
30.4833178133
 30
0.0
 10
13.133844293
 20
30.6747483782
 30
0.0
 10
13.2865026019
 20
30.904272399
 30
0.0
 10
13.4074300861
 20
31.1685189827
 30
0.0
 10
13.4954456401
 20
31.464217182
 30
0.0
 10
13.5498418849
 20
31.7878457952
 30
0.0
 10
13.5699765829
 20
32.1354285542
 30
0.0
 10
13.5609047705
 20
32.3741412862
 30
0.0
 10
13.5510561075
 20
32.4962506011
 30
0.0
  0
SPLINE
  5
359
100
AcDbEntity
  8
0
100
AcDbSpline
 62
7
  6
BYLAYER
 70
0
 71
3
 72
10
 73
6
 74
0
 42
0.0000001
 43
0.0000001
 44
0.0000000001
 40
0.0
 40
0.0
 40
0.0
 40
0.0
 40
0.2723982955
 40
0.5300262927
 40
1.0
 40
1.0
 40
1.0
 40
1.0
 10
25.9246314891
 20
38.9805149584
 30
0.0
 10
25.9246314891
 20
38.8586879044
 30
0.0
 10
25.9141207893
 20
38.6213512259
 30
0.0
 10
25.8498619365
 20
38.1785194822
 30
0.0
 10
25.7495046428
 20
37.8640543428
 30
0.0
 10
25.6562116227
 20
37.6757024773
 30
0.0
  0
SPLINE
  5
35A
100
AcDbEntity
  8
0
100
AcDbSpline
 62
7
  6
BYLAYER
 70
0
 71
3
 72
9
 73
5
 74
0
 42
0.0000001
 43
0.0000001
 44
0.0000000001
 40
0.0
 40
0.0
 40
0.0
 40
0.0
 40
0.5140292639
 40
1.0
 40
1.0
 40
1.0
 40
1.0
 10
25.6562116227
 20
37.6757024773
 30
0.0
 10
25.5972802544
 20
37.5567243037
 30
0.0
 10
25.4598360225
 20
37.3354428625
 30
0.0
 10
25.274712543
 20
37.1511605046
 30
0.0
 10
25.1752156349
 20
37.074629071
 30
0.0
  0
SPLINE
  5
35B
100
AcDbEntity
  8
0
100
AcDbSpline
 62
7
  6
BYLAYER
 70
0
 71
3
 72
23
 73
19
 74
0
 42
0.0000001
 43
0.0000001
 44
0.0000000001
 40
0.0
 40
0.0
 40
0.0
 40
0.0
 40
0.0427726976
 40
0.0871750828
 40
0.134548742
 40
0.1857955969
 40
0.2413583331
 40
0.3012776585
 40
0.3652794514
 40
0.4328424027
 40
0.5032585861
 40
0.5756911798
 40
0.6492149415
 40
0.7228652276
 40
0.7956655078
 40
0.8666698946
 40
0.9350559149
 40
1.0
 40
1.0
 40
1.0
 40
1.0
 10
12.4695408285
 20
39.4235852269
 30
0.0
 10
12.5640555807
 20
39.4781353424
 30
0.0
 10
12.7713486164
 20
39.5656828528
 30
0.0
 10
13.1129700368
 20
39.6210336104
 30
0.0
 10
13.479776596
 20
39.602069483
 30
0.0
 10
13.8642006487
 20
39.5103990357
 30
0.0
 10
14.2591951514
 20
39.3486932868
 30
0.0
 10
14.6575328863
 20
39.1205226383
 30
0.0
 10
15.0517674891
 20
38.8304105234
 30
0.0
 10
15.4343584883
 20
38.4839997116
 30
0.0
 10
15.7979487033
 20
38.0880898839
 30
0.0
 10
16.135440547
 20
37.6504118003
 30
0.0
 10
16.440199849
 20
37.1795171648
 30
0.0
 10
16.7062654812
 20
36.6846642532
 30
0.0
 10
16.9284312327
 20
36.175598039
 30
0.0
 10
17.1023455969
 20
35.6621799117
 30
0.0
 10
17.2244664164
 20
35.1546274163
 30
0.0
 10
17.2712436817
 20
34.8169371628
 30
0.0
 10
17.2845643679
 20
34.6517797336
 30
0.0
  0
SPLINE
  5
35C
100
AcDbEntity
  8
0
100
AcDbSpline
 62
7
  6
BYLAYER
 70
0
 71
3
 72
23
 73
19
 74
0
 42
0.0000001
 43
0.0000001
 44
0.0000000001
 40
0.0
 40
0.0
 40
0.0
 40
0.0
 40
0.0649434986
 40
0.1333275176
 40
0.2043300179
 40
0.2771289109
 40
0.3507793583
 40
0.4243045074
 40
0.496737715
 40
0.5671543646
 40
0.6347181847
 40
0.6987210023
 40
0.7586411936
 40
0.8142045798
 40
0.8654516919
 40
0.9128252553
 40
0.9572273756
 40
1.0
 40
1.0
 40
1.0
 40
1.0
 10
13.5510561075
 20
32.4962506011
 30
0.0
 10
13.5377355222
 20
32.6614067786
 30
0.0
 10
13.4909605696
 20
32.9990911534
 30
0.0
 10
13.3688426432
 20
33.5066334251
 30
0.0
 10
13.1949343879
 20
34.0200400221
 30
0.0
 10
12.9727786199
 20
34.5291028915
 30
0.0
 10
12.7067117541
 20
35.0239566076
 30
0.0
 10
12.401953778
 20
35.4948594786
 30
0.0
 10
12.0644608208
 20
35.9325458475
 30
0.0
 10
11.700867165
 20
36.3284603386
 30
0.0
 10
11.3182731473
 20
36.6748778085
 30
0.0
 10
10.9240336877
 20
36.9649965898
 30
0.0
 10
10.5256895696
 20
37.1931705589
 30
0.0
 10
10.1306905155
 20
37.3548787905
 30
0.0
 10
9.7462637394
 20
37.4465494655
 30
0.0
 10
9.3794566973
 20
37.4655122025
 30
0.0
 10
9.0378364596
 20
37.4101593999
 30
0.0
 10
8.8305435256
 20
37.3226128999
 30
0.0
 10
8.7360291539
 20
37.268062182
 30
0.0
  0
SPLINE
  5
35D
100
AcDbEntity
  8
0
100
AcDbSpline
 62
7
  6
BYLAYER
 70
0
 71
3
 72
24
 73
20
 74
0
 42
0.0000001
 43
0.0000001
 44
0.0000000001
 40
0.0
 40
0.0
 40
0.0
 40
0.0
 40
0.0649439072
 40
0.13331652
 40
0.2043145858
 40
0.2771097586
 40
0.3507528448
 40
0.4242711614
 40
0.4966997904
 40
0.5671119966
 40
0.6346696972
 40
0.6986680488
 40
0.7585842269
 40
0.8141411656
 40
0.8653838156
 40
0.9127544995
 40
0.9571525537
 40
0.9786812183
 40
1.0
 40
1.0
 40
1.0
 40
1.0
 10
17.8475725577
 20
34.3902370278
 30
0.0
 10
17.8315865119
 20
34.5884410983
 30
0.0
 10
17.7754717626
 20
34.9936628322
 30
0.0
 10
17.6289069602
 20
35.602710322
 30
0.0
 10
17.4202127514
 20
36.2187854055
 30
0.0
 10
17.1536496816
 20
36.8296761362
 30
0.0
 10
16.8343551966
 20
37.423491542
 30
0.0
 10
16.4686311896
 20
37.9885579856
 30
0.0
 10
16.0636636448
 20
38.5138032941
 30
0.0
 10
15.6273440198
 20
38.9889015899
 30
0.0
 10
15.1682061121
 20
39.4045769467
 30
0.0
 10
14.695135033
 20
39.7527390119
 30
0.0
 10
14.2171284515
 20
40.0265624932
 30
0.0
 10
13.7431287716
 20
40.2205737618
 30
0.0
 10
13.2817865294
 20
40.3305559599
 30
0.0
 10
12.8417600113
 20
40.3534560182
 30
0.0
 10
12.4961314852
 20
40.2971911041
 30
0.0
 10
12.2438513579
 20
40.2077283046
 30
0.0
 10
12.126077422
 20
40.1490349061
 30
0.0
 10
12.0695475266
 20
40.1163982613
 30
0.0
  0
SPLINE
  5
35E
100
AcDbEntity
  8
0
100
AcDbSpline
 62
7
  6
BYLAYER
 70
0
 71
3
 72
22
 73
18
 74
0
 42
0.0000001
 43
0.0000001
 44
0.0000000001
 40
0.0
 40
0.0
 40
0.0
 40
0.0
 40
0.0649719387
 40
0.1333881997
 40
0.2044247
 40
0.2772574497
 40
0.4243648856
 40
0.4968181336
 40
0.5672475805
 40
0.6348151571
 40
0.6988121049
 40
0.7587171991
 40
0.8142584768
 40
0.865480517
 40
0.9128316004
 40
0.9572214981
 40
1.0
 40
1.0
 40
1.0
 40
1.0
 10
12.9584931962
 20
32.4620979771
 30
0.0
 10
12.946560418
 20
32.6100473355
 30
0.0
 10
12.9046413192
 20
32.9125561821
 30
0.0
 10
12.7951870838
 20
33.3672086552
 30
0.0
 10
12.6392933592
 20
33.8271500782
 30
0.0
 10
12.3729906176
 20
34.4368336829
 30
0.0
 10
12.0312084314
 20
35.0149200636
 30
0.0
 10
11.6260965594
 20
35.5398558409
 30
0.0
 10
11.3002328524
 20
35.8942635198
 30
0.0
 10
10.957415325
 20
36.2042203438
 30
0.0
 10
10.6042015685
 20
36.4636662633
 30
0.0
 10
10.2473680413
 20
36.667530534
 30
0.0
 10
9.8935963507
 20
36.8117698319
 30
0.0
 10
9.5493696362
 20
36.8931908235
 30
0.0
 10
9.2210088329
 20
36.9093968022
 30
0.0
 10
8.9153127557
 20
36.8589568034
 30
0.0
 10
8.7299684536
 20
36.7799490092
 30
0.0
 10
8.6454948288
 20
36.7308058634
 30
0.0
  0
SPLINE
  5
35F
100
AcDbEntity
  8
0
100
AcDbSpline
 62
7
  6
BYLAYER
 70
0
 71
3
 72
9
 73
5
 74
0
 42
0.0000001
 43
0.0000001
 44
0.0000000001
 40
0.0
 40
0.0
 40
0.0
 40
0.0
 40
0.4941278474
 40
1.0
 40
1.0
 40
1.0
 40
1.0
 10
8.6454948288
 20
36.7308058634
 30
0.0
 10
8.5800643845
 20
36.6927412265
 30
0.0
 10
8.4547915954
 20
36.6027613547
 30
0.0
 10
8.3485036491
 20
36.4911585494
 30
0.0
 10
8.3000177052
 20
36.4307036818
 30
0.0
  0
SPLINE
  5
360
100
AcDbEntity
  8
0
100
AcDbSpline
 62
7
  6
BYLAYER
 70
0
 71
3
 72
15
 73
11
 74
0
 42
0.0000001
 43
0.0000001
 44
0.0000000001
 40
0.0
 40
0.0
 40
0.0
 40
0.0
 40
0.1052036798
 40
0.2128986183
 40
0.3252988601
 40
0.4441440001
 40
0.5706002052
 40
0.7053548584
 40
0.8486398089
 40
1.0
 40
1.0
 40
1.0
 40
1.0
 10
16.869499312
 20
31.802588264
 30
0.0
 10
16.9579995595
 20
31.8536824881
 30
0.0
 10
17.1275345115
 20
31.9746877629
 30
0.0
 10
17.3468838048
 20
32.2044466368
 30
0.0
 10
17.530128888
 20
32.4798334162
 30
0.0
 10
17.6751955486
 20
32.7969595136
 30
0.0
 10
17.7808446979
 20
33.1517875445
 30
0.0
 10
17.8461067709
 20
33.5401299083
 30
0.0
 10
17.8702930838
 20
33.9572259266
 30
0.0
 10
17.8593924103
 20
34.2436877851
 30
0.0
 10
17.8475725577
 20
34.3902370278
 30
0.0
  0
SPLINE
  5
361
100
AcDbEntity
  8
0
100
AcDbSpline
 62
7
  6
BYLAYER
 70
0
 71
3
 72
11
 73
7
 74
0
 42
0.0000001
 43
0.0000001
 44
0.0000000001
 40
0.0
 40
0.0
 40
0.0
 40
0.0
 40
0.2359976266
 40
0.4989671021
 40
0.7624327085
 40
1.0
 40
1.0
 40
1.0
 40
1.0
 10
11.47757166
 20
32.8625939459
 30
0.0
 10
11.477423533
 20
32.8541971157
 30
0.0
 10
11.4804317966
 20
32.8363803793
 30
0.0
 10
11.4913726725
 20
32.8113309144
 30
0.0
 10
11.5075725249
 20
32.7892229688
 30
0.0
 10
11.5215874431
 20
32.7777085121
 30
0.0
 10
11.5289692488
 20
32.7735879584
 30
0.0
  0
SPLINE
  5
362
100
AcDbEntity
  8
0
100
AcDbSpline
 62
7
  6
BYLAYER
 70
0
 71
3
 72
12
 73
8
 74
0
 42
0.0000001
 43
0.0000001
 44
0.0000000001
 40
0.0
 40
0.0
 40
0.0
 40
0.0
 40
0.2907876754
 40
0.5387345821
 40
0.6530122176
 40
0.7655445694
 40
1.0
 40
1.0
 40
1.0
 40
1.0
 10
8.8027078511
 20
34.2948442777
 30
0.0
 10
8.8029647133
 20
34.3098869536
 30
0.0
 10
8.8065136974
 20
34.3379363469
 30
0.0
 10
8.8221525525
 20
34.369001874
 30
0.0
 10
8.8402568871
 20
34.3859612011
 30
0.0
 10
8.8613342415
 20
34.3976012239
 30
0.0
 10
8.8799135925
 20
34.4000627879
 30
0.0
 10
8.8920233559
 20
34.3993566723
 30
0.0
  0
SPLINE
  5
363
100
AcDbEntity
  8
0
100
AcDbSpline
 62
7
  6
BYLAYER
 70
0
 71
3
 72
10
 73
6
 74
0
 42
0.0000001
 43
0.0000001
 44
0.0000000001
 40
0.0
 40
0.0
 40
0.0
 40
0.0
 40
0.2431885383
 40
0.4893019862
 40
1.0
 40
1.0
 40
1.0
 40
1.0
 10
24.7852764872
 20
46.9959230699
 30
0.0
 10
24.8425472752
 20
47.0289966527
 30
0.0
 10
24.9624904082
 20
47.0877751385
 30
0.0
 10
25.2210419888
 20
47.1739322048
 30
0.0
 10
25.4279763943
 20
47.1999067072
 30
0.0
 10
25.5668462823
 20
47.2018539531
 30
0.0
  0
SPLINE
  5
364
100
AcDbEntity
  8
0
100
AcDbSpline
 62
7
  6
BYLAYER
 70
0
 71
3
 72
21
 73
17
 74
0
 42
0.0000001
 43
0.0000001
 44
0.0000000001
 40
0.0
 40
0.0
 40
0.0
 40
0.0
 40
0.04585323
 40
0.0950881545
 40
0.1480229194
 40
0.2047075128
 40
0.2649588109
 40
0.3284210046
 40
0.3945970712
 40
0.4628842064
 40
0.6029457671
 40
0.7428625912
 40
0.8109690275
 40
0.8768969206
 40
0.9400883164
 40
1.0
 40
1.0
 40
1.0
 40
1.0
 10
25.5668462823
 20
47.2018539531
 30
0.0
 10
25.687406903
 20
47.2035444649
 30
0.0
 10
25.9381157595
 20
47.1832356049
 30
0.0
 10
26.3173029389
 20
47.0896528993
 30
0.0
 10
26.7062899211
 20
46.9342224043
 30
0.0
 10
27.0990160033
 20
46.7194661832
 30
0.0
 10
27.489637501
 20
46.4489564645
 30
0.0
 10
27.8721012307
 20
46.1269225082
 30
0.0
 10
28.2404617261
 20
45.7583952247
 30
0.0
 10
28.7089253352
 20
45.208348618
 30
0.0
 10
29.221699913
 20
44.4453719011
 30
0.0
 10
29.6199545585
 20
43.6173516489
 30
0.0
 10
29.8564486021
 20
42.9362456992
 30
0.0
 10
29.9868557575
 20
42.4336475242
 30
0.0
 10
30.0697339013
 20
41.9429103433
 30
0.0
 10
30.0931738315
 20
41.6193956022
 30
0.0
 10
30.0959091854
 20
41.4618797445
 30
0.0
  0
SPLINE
  5
365
100
AcDbEntity
  8
0
100
AcDbSpline
 62
7
  6
BYLAYER
 70
0
 71
3
 72
14
 73
10
 74
0
 42
0.0000001
 43
0.0000001
 44
0.0000000001
 40
0.0
 40
0.0
 40
0.0
 40
0.0
 40
0.2892447115
 40
0.4225667003
 40
0.5485150734
 40
0.6678913605
 40
0.7818651276
 40
0.8919548163
 40
1.0
 40
1.0
 40
1.0
 40
1.0
 10
12.878560099
 20
32.2240709825
 30
0.0
 10
12.878560099
 20
32.0492220452
 30
0.0
 10
12.85811492
 20
31.7925292825
 30
0.0
 10
12.7792394991
 20
31.4698859049
 30
0.0
 10
12.6989430224
 20
31.2548882445
 30
0.0
 10
12.5966120358
 20
31.0625284367
 30
0.0
 10
12.4730073616
 20
30.8947114853
 30
0.0
 10
12.3293533688
 20
30.7532439246
 30
0.0
 10
12.2205753452
 20
30.6773863842
 30
0.0
 10
12.1640118336
 20
30.6447302527
 30
0.0
  0
SPLINE
  5
366
100
AcDbEntity
  8
0
100
AcDbSpline
 62
7
  6
BYLAYER
 70
0
 71
3
 72
9
 73
5
 74
0
 42
0.0000001
 43
0.0000001
 44
0.0000000001
 40
0.0
 40
0.0
 40
0.0
 40
0.0
 40
0.2440873838
 40
1.0
 40
1.0
 40
1.0
 40
1.0
 10
18.7797237599
 20
42.3703127784
 30
0.0
 10
18.8184790216
 20
42.3479737088
 30
0.0
 10
18.9758944461
 20
42.254103062
 30
0.0
 10
19.1278578475
 20
42.1511639699
 30
0.0
 10
19.2395173432
 20
42.0691683158
 30
0.0
  0
SPLINE
  5
367
100
AcDbEntity
  8
0
100
AcDbSpline
 62
7
  6
BYLAYER
 70
0
 71
3
 72
15
 73
11
 74
0
 42
0.0000001
 43
0.0000001
 44
0.0000000001
 40
0.0
 40
0.0
 40
0.0
 40
0.0
 40
0.116713194
 40
0.2394632651
 40
0.3665940572
 40
0.4962249879
 40
0.626357971
 40
0.7549667354
 40
0.8800845962
 40
1.0
 40
1.0
 40
1.0
 40
1.0
 10
19.2395173432
 20
42.0691683158
 30
0.0
 10
19.4164022105
 20
41.9392752844
 30
0.0
 10
19.7635895546
 20
41.6508754205
 30
0.0
 10
20.2462210724
 20
41.1572755649
 30
0.0
 10
20.6951486368
 20
40.6012614243
 30
0.0
 10
21.0999670919
 20
39.99568462
 30
0.0
 10
21.4513777168
 20
39.3544705888
 30
0.0
 10
21.741245432
 20
38.6923804652
 30
0.0
 10
21.9629758468
 20
38.0246929014
 30
0.0
 10
22.0645109605
 20
37.5742622341
 30
0.0
 10
22.1016741894
 20
37.3518699695
 30
0.0
  0
SPLINE
  5
368
100
AcDbEntity
  8
0
100
AcDbSpline
 62
7
  6
BYLAYER
 70
0
 71
3
 72
23
 73
19
 74
0
 42
0.0000001
 43
0.0000001
 44
0.0000000001
 40
0.0
 40
0.0
 40
0.0
 40
0.0
 40
0.062372545
 40
0.128751597
 40
0.1983472689
 40
0.2703338756
 40
0.3437242074
 40
0.4174674617
 40
0.4905029152
 40
0.5618006813
 40
0.6304097066
 40
0.695506688
 40
0.756464581
 40
0.8129120195
 40
0.864820126
 40
0.9126035931
 40
0.9571860725
 40
1.0
 40
1.0
 40
1.0
 40
1.0
 10
12.4896529885
 20
31.9995366978
 30
0.0
 10
12.4896529885
 20
32.1426162028
 30
0.0
 10
12.4702110494
 20
32.4381582143
 30
0.0
 10
12.3904997167
 20
32.886888908
 30
0.0
 10
12.2607478704
 20
33.3467219497
 30
0.0
 10
12.083851414
 20
33.8077243641
 30
0.0
 10
11.8635978993
 20
34.2602304984
 30
0.0
 10
11.6046399426
 20
34.69454966
 30
0.0
 10
11.3124852074
 20
35.1013949138
 30
0.0
 10
10.9934108465
 20
35.4721408892
 30
0.0
 10
10.6541597123
 20
35.7988880194
 30
0.0
 10
10.3018446799
 20
36.0746749619
 30
0.0
 10
9.9438326391
 20
36.2937212036
 30
0.0
 10
9.5873641187
 20
36.4512782598
 30
0.0
 10
9.2395302895
 20
36.5436610215
 30
0.0
 10
8.9071841641
 20
36.5681491014
 30
0.0
 10
8.5976812237
 20
36.5227934967
 30
0.0
 10
8.4101974009
 20
36.4448481075
 30
0.0
 10
8.3251419559
 20
36.3957424343
 30
0.0
  0
SPLINE
  5
369
100
AcDbEntity
  8
0
100
AcDbSpline
 62
7
  6
BYLAYER
 70
0
 71
3
 72
11
 73
7
 74
0
 42
0.0000001
 43
0.0000001
 44
0.0000000001
 40
0.0
 40
0.0
 40
0.0
 40
0.0
 40
0.222933583
 40
0.462516074
 40
0.7213875163
 40
1.0
 40
1.0
 40
1.0
 40
1.0
 10
18.7754676821
 20
42.4170177956
 30
0.0
 10
18.8747233501
 20
42.4276527731
 30
0.0
 10
19.0833829323
 20
42.4277547306
 30
0.0
 10
19.4025213957
 20
42.369408837
 30
0.0
 10
19.732175905
 20
42.2544534186
 30
0.0
 10
19.9476018248
 20
42.1455822729
 30
0.0
 10
20.0556437333
 20
42.083205659
 30
0.0
  0
SPLINE
  5
36A
100
AcDbEntity
  8
0
100
AcDbSpline
 62
7
  6
BYLAYER
 70
0
 71
3
 72
9
 73
5
 74
0
 42
0.0000001
 43
0.0000001
 44
0.0000000001
 40
0.0
 40
0.0
 40
0.0
 40
0.0
 40
0.4820005508
 40
1.0
 40
1.0
 40
1.0
 40
1.0
 10
7.6105961794
 20
34.7755736586
 30
0.0
 10
7.6105961794
 20
34.6015431816
 30
0.0
 10
7.6397871565
 20
34.2402221207
 30
0.0
 10
7.7158711904
 20
33.8862795943
 30
0.0
 10
7.7654550589
 20
33.7059438399
 30
0.0
  0
SPLINE
  5
36B
100
AcDbEntity
  8
0
100
AcDbSpline
 62
7
  6
BYLAYER
 70
0
 71
3
 72
9
 73
5
 74
0
 42
0.0000001
 43
0.0000001
 44
0.0000000001
 40
0.0
 40
0.0
 40
0.0
 40
0.0
 40
0.2464148357
 40
1.0
 40
1.0
 40
1.0
 40
1.0
 10
7.7654550589
 20
33.7059438399
 30
0.0
 10
7.7770331112
 20
33.6638346447
 30
0.0
 10
7.8262897861
 20
33.4935772326
 30
0.0
 10
7.884452554
 20
33.3259163217
 30
0.0
 10
7.932773663
 20
33.2014067822
 30
0.0
  0
SPLINE
  5
36C
100
AcDbEntity
  8
0
100
AcDbSpline
 62
7
  6
BYLAYER
 70
0
 71
3
 72
9
 73
5
 74
0
 42
0.0000001
 43
0.0000001
 44
0.0000000001
 40
0.0
 40
0.0
 40
0.0
 40
0.0
 40
0.5111090855
 40
1.0
 40
1.0
 40
1.0
 40
1.0
 10
8.64452921
 20
31.8975854395
 30
0.0
 10
8.7638891362
 20
31.7330913161
 30
0.0
 10
9.0146899122
 20
31.4233793114
 30
0.0
 10
9.2995310801
 20
31.1443012612
 30
0.0
 10
9.4470704661
 20
31.0177145961
 30
0.0
  0
SPLINE
  5
36D
100
AcDbEntity
  8
0
100
AcDbSpline
 62
7
  6
BYLAYER
 70
0
 71
3
 72
9
 73
5
 74
0
 42
0.0000001
 43
0.0000001
 44
0.0000000001
 40
0.0
 40
0.0
 40
0.0
 40
0.0
 40
0.5230651403
 40
1.0
 40
1.0
 40
1.0
 40
1.0
 10
9.651032728
 20
30.8534252181
 30
0.0
 10
9.7880687928
 20
30.7501018219
 30
0.0
 10
10.0631848849
 20
30.5691017015
 30
0.0
 10
10.3642190801
 20
30.4336123016
 30
0.0
 10
10.5126934533
 20
30.3841782354
 30
0.0
  0
SPLINE
  5
36E
100
AcDbEntity
  8
0
100
AcDbSpline
 62
7
  6
BYLAYER
 70
0
 71
3
 72
11
 73
7
 74
0
 42
0.0000001
 43
0.0000001
 44
0.0000000001
 40
0.0
 40
0.0
 40
0.0
 40
0.0
 40
0.2719292671
 40
0.5258107117
 40
0.7663620064
 40
1.0
 40
1.0
 40
1.0
 40
1.0
 10
10.682225949
 20
30.3352490358
 30
0.0
 10
10.7774400996
 20
30.312060779
 30
0.0
 10
10.9652647696
 20
30.2804897154
 30
0.0
 10
11.2430220882
 20
30.2830230352
 30
0.0
 10
11.5015497033
 20
30.3376413455
 30
0.0
 10
11.6585547722
 20
30.4092281216
 30
0.0
 10
11.7307742448
 20
30.4525134052
 30
0.0
  0
SPLINE
  5
36F
100
AcDbEntity
  8
0
100
AcDbSpline
 62
7
  6
BYLAYER
 70
0
 71
3
 72
9
 73
5
 74
0
 42
0.0000001
 43
0.0000001
 44
0.0000000001
 40
0.0
 40
0.0
 40
0.0
 40
0.0
 40
0.4933373815
 40
1.0
 40
1.0
 40
1.0
 40
1.0
 10
11.7307742448
 20
30.4525134052
 30
0.0
 10
11.7946598891
 20
30.4908037461
 30
0.0
 10
11.9167350211
 20
30.5814968774
 30
0.0
 10
12.0190194956
 20
30.6938473766
 30
0.0
 10
12.0654442983
 20
30.754642051
 30
0.0
  0
SPLINE
  5
370
100
AcDbEntity
  8
0
100
AcDbSpline
 62
7
  6
BYLAYER
 70
0
 71
3
 72
11
 73
7
 74
0
 42
0.0000001
 43
0.0000001
 44
0.0000000001
 40
0.0
 40
0.0
 40
0.0
 40
0.0
 40
0.2223686084
 40
0.4616293246
 40
0.7207144875
 40
1.0
 40
1.0
 40
1.0
 40
1.0
 10
12.0654442983
 20
30.754642051
 30
0.0
 10
12.1246196533
 20
30.832133957
 30
0.0
 10
12.22982528
 20
31.0069768425
 30
0.0
 10
12.3397072028
 20
31.3048530036
 30
0.0
 10
12.4054171427
 20
31.6406782515
 30
0.0
 10
12.4189423104
 20
31.8770776603
 30
0.0
 10
12.4189423104
 20
31.9995365279
 30
0.0
  0
SPLINE
  5
371
100
AcDbEntity
  8
0
100
AcDbSpline
 62
7
  6
BYLAYER
 70
0
 71
3
 72
9
 73
5
 74
0
 42
0.0000001
 43
0.0000001
 44
0.0000000001
 40
0.0
 40
0.0
 40
0.0
 40
0.0
 40
0.2406914222
 40
1.0
 40
1.0
 40
1.0
 40
1.0
 10
12.4189423104
 20
31.9995365279
 30
0.0
 10
12.4189423104
 20
32.0505149588
 30
0.0
 10
12.413843192
 20
32.262303147
 30
0.0
 10
12.3895048248
 20
32.4734700367
 30
0.0
 10
12.3621832962
 20
32.6319537732
 30
0.0
  0
SPLINE
  5
372
100
AcDbEntity
  8
0
100
AcDbSpline
 62
7
  6
BYLAYER
 70
0
 71
3
 72
20
 73
16
 74
0
 42
0.0000001
 43
0.0000001
 44
0.0000000001
 40
0.0
 40
0.0
 40
0.0
 40
0.0
 40
0.140686552
 40
0.287225204
 40
0.4334124878
 40
0.5044869691
 40
0.573226154
 40
0.6390088427
 40
0.7013392425
 40
0.7598654066
 40
0.8144458298
 40
0.865177596
 40
0.9124660536
 40
0.9570517163
 40
1.0
 40
1.0
 40
1.0
 40
1.0
 10
12.3178468031
 20
32.8544742212
 30
0.0
 10
12.2573828295
 20
33.122439946
 30
0.0
 10
12.0854419034
 20
33.6593010278
 30
0.0
 10
11.7088968361
 20
34.4201590686
 30
0.0
 10
11.3040057795
 20
35.007363791
 30
0.0
 10
10.9359459614
 20
35.427996243
 30
0.0
 10
10.6476501165
 20
35.7080621382
 30
0.0
 10
10.3491705945
 20
35.9510843897
 30
0.0
 10
10.045232558
 20
36.1533028977
 30
0.0
 10
9.7404651541
 20
36.3113621016
 30
0.0
 10
9.4395934564
 20
36.4228163675
 30
0.0
 10
9.1471009109
 20
36.4855319334
 30
0.0
 10
8.8674350629
 20
36.4981213166
 30
0.0
 10
8.6052881668
 20
36.4596790246
 30
0.0
 10
8.4436915956
 20
36.3992749088
 30
0.0
 10
8.368902294
 20
36.3613394748
 30
0.0
  0
SPLINE
  5
373
100
AcDbEntity
  8
0
100
AcDbSpline
 62
7
  6
BYLAYER
 70
0
 71
3
 72
11
 73
7
 74
0
 42
0.0000001
 43
0.0000001
 44
0.0000000001
 40
0.0
 40
0.0
 40
0.0
 40
0.0
 40
0.2345517769
 40
0.4750948187
 40
0.7285129248
 40
1.0
 40
1.0
 40
1.0
 40
1.0
 10
8.368902294
 20
36.3613394748
 30
0.0
 10
8.2924436849
 20
36.3225573167
 30
0.0
 10
8.1460194358
 20
36.2259335234
 30
0.0
 10
7.9609367559
 20
36.031701537
 30
0.0
 10
7.812517929
 20
35.7924973948
 30
0.0
 10
7.7421667352
 20
35.6128679826
 30
0.0
 10
7.7129917111
 20
35.5180213656
 30
0.0
  0
SPLINE
  5
374
100
AcDbEntity
  8
0
100
AcDbSpline
 62
7
  6
BYLAYER
 70
0
 71
3
 72
9
 73
5
 74
0
 42
0.0000001
 43
0.0000001
 44
0.0000000001
 40
0.0
 40
0.0
 40
0.0
 40
0.0
 40
0.4802439425
 40
1.0
 40
1.0
 40
1.0
 40
1.0
 10
7.7129917111
 20
35.5180213656
 30
0.0
 10
7.6784850444
 20
35.4058418318
 30
0.0
 10
7.6274319931
 20
35.1656313093
 30
0.0
 10
7.6113885578
 20
34.9210043368
 30
0.0
 10
7.6106496478
 20
34.793983358
 30
0.0
  0
SPLINE
  5
375
100
AcDbEntity
  8
0
100
AcDbSpline
 62
7
  6
BYLAYER
 70
0
 71
3
 72
9
 73
5
 74
0
 42
0.0000001
 43
0.0000001
 44
0.0000000001
 40
0.0
 40
0.0
 40
0.0
 40
0.0
 40
0.4969781413
 40
1.0
 40
1.0
 40
1.0
 40
1.0
 10
28.7609838864
 20
39.1299600101
 30
0.0
 10
28.8186535005
 20
39.1632639129
 30
0.0
 10
28.9302414076
 20
39.2382929565
 30
0.0
 10
29.0307032209
 20
39.3276333075
 30
0.0
 10
29.0780796876
 20
39.375580429
 30
0.0
  0
SPLINE
  5
376
100
AcDbEntity
  8
0
100
AcDbSpline
 62
7
  6
BYLAYER
 70
0
 71
3
 72
11
 73
7
 74
0
 42
0.0000001
 43
0.0000001
 44
0.0000000001
 40
0.0
 40
0.0
 40
0.0
 40
0.0
 40
0.2202583194
 40
0.4579503948
 40
0.7174650817
 40
1.0
 40
1.0
 40
1.0
 40
1.0
 10
29.1073712459
 20
39.4060294985
 30
0.0
 10
29.2011263842
 20
39.5061229487
 30
0.0
 10
29.3694721034
 20
39.7402007551
 30
0.0
 10
29.5455788094
 20
40.1538589306
 30
0.0
 10
29.6509058499
 20
40.6301450227
 30
0.0
 10
29.6722818263
 20
40.9682872453
 30
0.0
 10
29.6722818263
 20
41.1442089739
 30
0.0
  0
SPLINE
  5
377
100
AcDbEntity
  8
0
100
AcDbSpline
 62
7
  6
BYLAYER
 70
0
 71
3
 72
15
 73
11
 74
0
 42
0.0000001
 43
0.0000001
 44
0.0000000001
 40
0.0
 40
0.0
 40
0.0
 40
0.0
 40
0.1080132326
 40
0.21806454
 40
0.3320080066
 40
0.4513520154
 40
0.5772560744
 40
0.7105118026
 40
0.8514951588
 40
1.0
 40
1.0
 40
1.0
 40
1.0
 10
22.6798908864
 20
35.6190602868
 30
0.0
 10
22.7520268532
 20
35.6607184333
 30
0.0
 10
22.8907331163
 20
35.7574926691
 30
0.0
 10
23.0740069271
 20
35.9378609656
 30
0.0
 10
23.231589763
 20
36.1519420833
 30
0.0
 10
23.3621336915
 20
36.397264094
 30
0.0
 10
23.4644975517
 20
36.6714349971
 30
0.0
 10
23.5379902058
 20
36.9718053696
 30
0.0
 10
23.5819018506
 20
37.295375255
 30
0.0
 10
23.5911888263
 20
37.5187811505
 30
0.0
 10
23.5911888263
 20
37.6333092506
 30
0.0
  0
SPLINE
  5
378
100
AcDbEntity
  8
0
100
AcDbSpline
 62
7
  6
BYLAYER
 70
0
 71
3
 72
9
 73
5
 74
0
 42
0.0000001
 43
0.0000001
 44
0.0000000001
 40
0.0
 40
0.0
 40
0.0
 40
0.0
 40
0.5248429228
 40
1.0
 40
1.0
 40
1.0
 40
1.0
 10
7.8227290969
 20
34.6531014323
 30
0.0
 10
7.8227290969
 20
34.795576481
 30
0.0
 10
7.8423788157
 20
35.067629508
 30
0.0
 10
7.9116451084
 20
35.3324289981
 30
0.0
 10
7.9588164816
 20
35.4524813348
 30
0.0
  0
SPLINE
  5
379
100
AcDbEntity
  8
0
100
AcDbSpline
 62
7
  6
BYLAYER
 70
0
 71
3
 72
11
 73
7
 74
0
 42
0.0000001
 43
0.0000001
 44
0.0000000001
 40
0.0
 40
0.0
 40
0.0
 40
0.0
 40
0.267678703
 40
0.5196084303
 40
0.761379157
 40
1.0
 40
1.0
 40
1.0
 40
1.0
 10
7.9588164816
 20
35.4524813348
 30
0.0
 10
7.9896735294
 20
35.5310133009
 30
0.0
 10
8.0616703471
 20
35.6791900263
 30
0.0
 10
8.2055348437
 20
35.8731868647
 30
0.0
 10
8.3794768365
 20
36.027544668
 30
0.0
 10
8.5132433018
 20
36.1015337865
 30
0.0
 10
8.5826089633
 20
36.1306203818
 30
0.0
  0
SPLINE
  5
37A
100
AcDbEntity
  8
0
100
AcDbSpline
 62
7
  6
BYLAYER
 70
0
 71
3
 72
15
 73
11
 74
0
 42
0.0000001
 43
0.0000001
 44
0.0000000001
 40
0.0
 40
0.0
 40
0.0
 40
0.0
 40
0.0958050424
 40
0.1973382948
 40
0.3072785356
 40
0.4270830398
 40
0.5571045356
 40
0.696821561
 40
0.84502356
 40
1.0
 40
1.0
 40
1.0
 40
1.0
 10
8.5826089633
 20
36.1306203818
 30
0.0
 10
8.6665974339
 20
36.1658386527
 30
0.0
 10
8.8498687917
 20
36.2156191416
 30
0.0
 10
9.1441201282
 20
36.2235128269
 30
0.0
 10
9.4559245889
 20
36.1674800379
 30
0.0
 10
9.778518097
 20
36.0497840964
 30
0.0
 10
10.1054522373
 20
35.8735673601
 30
0.0
 10
10.4299197674
 20
35.642748182
 30
0.0
 10
10.7450085396
 20
35.3624291504
 30
0.0
 10
10.9409072501
 20
35.1503531872
 30
0.0
 10
11.0359028528
 20
35.0377485702
 30
0.0
  0
SPLINE
  5
37B
100
AcDbEntity
  8
0
100
AcDbSpline
 62
7
  6
BYLAYER
 70
0
 71
3
 72
9
 73
5
 74
0
 42
0.0000001
 43
0.0000001
 44
0.0000000001
 40
0.0
 40
0.0
 40
0.0
 40
0.0
 40
0.4978286214
 40
1.0
 40
1.0
 40
1.0
 40
1.0
 10
11.1114147156
 20
34.9460254205
 30
0.0
 10
11.2360457271
 20
34.7909064884
 30
0.0
 10
11.4681463872
 20
34.4642935361
 30
0.0
 10
11.6624092166
 20
34.1139004857
 30
0.0
 10
11.749627987
 20
33.9331203065
 30
0.0
  0
SPLINE
  5
37C
100
AcDbEntity
  8
0
100
AcDbSpline
 62
7
  6
BYLAYER
 70
0
 71
3
 72
9
 73
5
 74
0
 42
0.0000001
 43
0.0000001
 44
0.0000000001
 40
0.0
 40
0.0
 40
0.0
 40
0.0
 40
0.2563958741
 40
1.0
 40
1.0
 40
1.0
 40
1.0
 10
11.8986208018
 20
33.5940525112
 30
0.0
 10
11.9241514006
 20
33.529766537
 30
0.0
 10
12.0185660776
 20
33.2770423184
 30
0.0
 10
12.0920235934
 20
33.016303383
 30
0.0
 10
12.1322186478
 20
32.8197631672
 30
0.0
  0
SPLINE
  5
37D
100
AcDbEntity
  8
0
100
AcDbSpline
 62
7
  6
BYLAYER
 70
0
 71
3
 72
9
 73
5
 74
0
 42
0.0000001
 43
0.0000001
 44
0.0000000001
 40
0.0
 40
0.0
 40
0.0
 40
0.0
 40
0.2562974447
 40
1.0
 40
1.0
 40
1.0
 40
1.0
 10
12.1709182218
 20
32.5987731709
 30
0.0
 10
12.1757928136
 20
32.5651951801
 30
0.0
 10
12.1930246924
 20
32.4339346756
 30
0.0
 10
12.2030026504
 20
32.301686339
 30
0.0
 10
12.2056902709
 20
32.2032678607
 30
0.0
  0
SPLINE
  5
37E
100
AcDbEntity
  8
0
100
AcDbSpline
 62
7
  6
BYLAYER
 70
0
 71
3
 72
11
 73
7
 74
0
 42
0.0000001
 43
0.0000001
 44
0.0000000001
 40
0.0
 40
0.0
 40
0.0
 40
0.0
 40
0.2856607054
 40
0.5454154312
 40
0.7813721205
 40
1.0
 40
1.0
 40
1.0
 40
1.0
 10
12.2068093928
 20
32.1220087542
 30
0.0
 10
12.2068093928
 20
31.9850368422
 30
0.0
 10
12.188535216
 20
31.7228861836
 30
0.0
 10
12.0974097882
 20
31.3571089113
 30
0.0
 10
11.9447856877
 20
31.0471437811
 30
0.0
 10
11.7994922805
 20
30.8802679348
 30
0.0
 10
11.7196776586
 20
30.8123046788
 30
0.0
  0
SPLINE
  5
37F
100
AcDbEntity
  8
0
100
AcDbSpline
 62
7
  6
BYLAYER
 70
0
 71
3
 72
11
 73
7
 74
0
 42
0.0000001
 43
0.0000001
 44
0.0000000001
 40
0.0
 40
0.0
 40
0.0
 40
0.0
 40
0.2325987829
 40
0.4697942608
 40
0.7229658915
 40
1.0
 40
1.0
 40
1.0
 40
1.0
 10
11.7196776586
 20
30.8123046788
 30
0.0
 10
11.644228202
 20
30.7480584216
 30
0.0
 10
11.4722630111
 20
30.6392867325
 30
0.0
 10
11.1717390654
 20
30.5557004028
 30
0.0
 10
10.8416199181
 20
30.5532898612
 30
0.0
 10
10.6192176801
 20
30.6019059414
 30
0.0
 10
10.5065305848
 20
30.6370099228
 30
0.0
  0
SPLINE
  5
380
100
AcDbEntity
  8
0
100
AcDbSpline
 62
7
  6
BYLAYER
 70
0
 71
3
 72
16
 73
12
 74
0
 42
0.0000001
 43
0.0000001
 44
0.0000000001
 40
0.0
 40
0.0
 40
0.0
 40
0.0
 40
0.1064825081
 40
0.1643662897
 40
0.2249953145
 40
0.3529703196
 40
0.4869845192
 40
0.6228738633
 40
0.7562924272
 40
0.8831373724
 40
1.0
 40
1.0
 40
1.0
 40
1.0
 10
10.427598785
 20
30.6633624721
 30
0.0
 10
10.2601086206
 20
30.7229912413
 30
0.0
 10
10.0123505334
 20
30.8468603888
 30
0.0
 10
9.7015138319
 20
31.0581210819
 30
0.0
 10
9.3811739628
 20
31.3172462712
 30
0.0
 10
9.0030343629
 20
31.7036715747
 30
0.0
 10
8.6047114844
 20
32.2375333457
 30
0.0
 10
8.2722027616
 20
32.8251620619
 30
0.0
 10
8.0210612132
 20
33.4391374116
 30
0.0
 10
7.8630056969
 20
34.0506585158
 30
0.0
 10
7.8227290969
 20
34.4579824017
 30
0.0
 10
7.8227290969
 20
34.6531014323
 30
0.0
  0
SPLINE
  5
381
100
AcDbEntity
  8
0
100
AcDbSpline
 62
7
  6
BYLAYER
 70
0
 71
3
 72
10
 73
6
 74
0
 42
0.0000001
 43
0.0000001
 44
0.0000000001
 40
0.0
 40
0.0
 40
0.0
 40
0.0
 40
0.2432005329
 40
0.4893206738
 40
1.0
 40
1.0
 40
1.0
 40
1.0
 10
20.6133638477
 20
44.5872825621
 30
0.0
 10
20.6705802883
 20
44.6203247596
 30
0.0
 10
20.7904035916
 20
44.679054251
 30
0.0
 10
21.0486796754
 20
44.7651737789
 30
0.0
 10
21.255390499
 20
44.7911968746
 30
0.0
 10
21.394115837
 20
44.793201802
 30
0.0
  0
SPLINE
  5
382
100
AcDbEntity
  8
0
100
AcDbSpline
 62
7
  6
BYLAYER
 70
0
 71
3
 72
21
 73
17
 74
0
 42
0.0000001
 43
0.0000001
 44
0.0000000001
 40
0.0
 40
0.0
 40
0.0
 40
0.0
 40
0.0458481311
 40
0.0950775373
 40
0.1480071285
 40
0.2046873936
 40
0.2649355081
 40
0.3283958278
 40
0.3945713298
 40
0.4628591474
 40
0.6029251119
 40
0.7428489254
 40
0.8109591996
 40
0.8768907891
 40
0.9400855197
 40
1.0
 40
1.0
 40
1.0
 40
1.0
 10
21.394115837
 20
44.793201802
 30
0.0
 10
21.5146747691
 20
44.7949441794
 30
0.0
 10
21.765390745
 20
44.7747326687
 30
0.0
 10
22.1446072282
 20
44.6812691435
 30
0.0
 10
22.533637736
 20
44.5259349664
 30
0.0
 10
22.9264192914
 20
44.3112520306
 30
0.0
 10
23.3171061996
 20
44.0407930499
 30
0.0
 10
23.6996422625
 20
43.7187871803
 30
0.0
 10
24.0680797617
 20
43.3502668768
 30
0.0
 10
24.5366523001
 20
42.8001989709
 30
0.0
 10
25.0495542285
 20
42.0371535321
 30
0.0
 10
25.4479118992
 20
41.2090319167
 30
0.0
 10
25.6844702476
 20
40.527828811
 30
0.0
 10
25.8149135331
 20
40.0251548613
 30
0.0
 10
25.897814627
 20
39.5343430033
 30
0.0
 10
25.9212607816
 20
39.2107787247
 30
0.0
 10
25.9239965459
 20
39.0532392366
 30
0.0
  0
SPLINE
  5
383
100
AcDbEntity
  8
0
100
AcDbSpline
 62
7
  6
BYLAYER
 70
0
 71
3
 72
24
 73
20
 74
0
 42
0.0000001
 43
0.0000001
 44
0.0000000001
 40
0.0
 40
0.0
 40
0.0
 40
0.0
 40
0.0213331713
 40
0.0428956759
 40
0.087473775
 40
0.1352530976
 40
0.1871585826
 40
0.2435992702
 40
0.3045503014
 40
0.3696425702
 40
0.4382436392
 40
0.5095343982
 40
0.5825643138
 40
0.6562994558
 40
0.7296824879
 40
0.8016665072
 40
0.8712578989
 40
0.9376258689
 40
1.0
 40
1.0
 40
1.0
 40
1.0
 10
24.3445947993
 20
46.45281771
 30
0.0
 10
24.3955761021
 20
46.4822585042
 30
0.0
 10
24.5020214497
 20
46.5349349441
 30
0.0
 10
24.7306706597
 20
46.6139804846
 30
0.0
 10
25.044844536
 20
46.6602731833
 30
0.0
 10
25.4444908796
 20
46.6307421631
 30
0.0
 10
25.8629265609
 20
46.5195863708
 30
0.0
 10
26.2917110956
 20
46.3300814823
 30
0.0
 10
26.7223801246
 20
46.0666238745
 30
0.0
 10
27.1461413641
 20
45.7348453684
 30
0.0
 10
27.5542326683
 20
45.3418216607
 30
0.0
 10
27.9380682945
 20
44.8958771975
 30
0.0
 10
28.2894682774
 20
44.4064671867
 30
0.0
 10
28.6009753837
 20
43.8840391528
 30
0.0
 10
28.865947077
 20
43.3397313629
 30
0.0
 10
29.0787131006
 20
42.78517103
 30
0.0
 10
29.2347980902
 20
42.232043403
 30
0.0
 10
29.3307145103
 20
41.6922619547
 30
0.0
 10
29.3540836276
 20
41.3367493907
 30
0.0
 10
29.3540836276
 20
41.1646203318
 30
0.0
  0
SPLINE
  5
384
100
AcDbEntity
  8
0
100
AcDbSpline
 62
7
  6
BYLAYER
 70
0
 71
3
 72
14
 73
10
 74
0
 42
0.0000001
 43
0.0000001
 44
0.0000000001
 40
0.0
 40
0.0
 40
0.0
 40
0.0
 40
0.2892428422
 40
0.4225636981
 40
0.5485112658
 40
0.6678871197
 40
0.7818610489
 40
0.8919520326
 40
1.0
 40
1.0
 40
1.0
 40
1.0
 10
8.1055718094
 20
34.6531021121
 30
0.0
 10
8.1055718094
 20
34.8000758582
 30
0.0
 10
8.1227570227
 20
35.0158453923
 30
0.0
 10
8.189056945
 20
35.2870515757
 30
0.0
 10
8.2565509706
 20
35.4677738439
 30
0.0
 10
8.3425669059
 20
35.6294680016
 30
0.0
 10
8.4464649534
 20
35.7705336186
 30
0.0
 10
8.5672185586
 20
35.8894510339
 30
0.0
 10
8.6586573322
 20
35.9532161926
 30
0.0
 10
8.7062047386
 20
35.9806670796
 30
0.0
  0
SPLINE
  5
385
100
AcDbEntity
  8
0
100
AcDbSpline
 62
7
  6
BYLAYER
 70
0
 71
3
 72
24
 73
20
 74
0
 42
0.0000001
 43
0.0000001
 44
0.0000000001
 40
0.0
 40
0.0
 40
0.0
 40
0.0
 40
0.0213331713
 40
0.0428956759
 40
0.087473775
 40
0.1352530976
 40
0.1871585826
 40
0.2435992702
 40
0.3045503014
 40
0.3696425702
 40
0.4382436392
 40
0.5095343982
 40
0.5825643138
 40
0.6562994558
 40
0.7296824879
 40
0.8016665072
 40
0.8712578989
 40
0.9376258689
 40
1.0
 40
1.0
 40
1.0
 40
1.0
 10
21.5868898342
 20
44.8606655099
 30
0.0
 10
21.6378711369
 20
44.8901063041
 30
0.0
 10
21.7443164845
 20
44.942782744
 30
0.0
 10
21.9729656946
 20
45.0218282845
 30
0.0
 10
22.2871395709
 20
45.0681209832
 30
0.0
 10
22.6867859145
 20
45.038589963
 30
0.0
 10
23.1052215958
 20
44.9274341707
 30
0.0
 10
23.5340061305
 20
44.7379292822
 30
0.0
 10
23.9646751594
 20
44.4744716744
 30
0.0
 10
24.3884363989
 20
44.1426931683
 30
0.0
 10
24.7965277032
 20
43.7496694606
 30
0.0
 10
25.1803633293
 20
43.3037249974
 30
0.0
 10
25.5317633122
 20
42.8143149866
 30
0.0
 10
25.8432704186
 20
42.2918869527
 30
0.0
 10
26.1082421118
 20
41.7475791628
 30
0.0
 10
26.3210081354
 20
41.1930188299
 30
0.0
 10
26.4770931251
 20
40.6398912029
 30
0.0
 10
26.5730095452
 20
40.1001097546
 30
0.0
 10
26.5963786625
 20
39.7445971907
 30
0.0
 10
26.5963786625
 20
39.5724681317
 30
0.0
  0
SPLINE
  5
386
100
AcDbEntity
  8
0
100
AcDbSpline
 62
7
  6
BYLAYER
 70
0
 71
3
 72
10
 73
6
 74
0
 42
0.0000001
 43
0.0000001
 44
0.0000000001
 40
0.0
 40
0.0
 40
0.0
 40
0.0
 40
0.2432005329
 40
0.4893206738
 40
1.0
 40
1.0
 40
1.0
 40
1.0
 10
23.3710688128
 20
46.1794347622
 30
0.0
 10
23.4282852534
 20
46.2124769597
 30
0.0
 10
23.5481085568
 20
46.2712064511
 30
0.0
 10
23.8063846406
 20
46.357325979
 30
0.0
 10
24.0130954642
 20
46.3833490747
 30
0.0
 10
24.1518208022
 20
46.3853540021
 30
0.0
  0
SPLINE
  5
387
100
AcDbEntity
  8
0
100
AcDbSpline
 62
7
  6
BYLAYER
 70
0
 71
3
 72
21
 73
17
 74
0
 42
0.0000001
 43
0.0000001
 44
0.0000000001
 40
0.0
 40
0.0
 40
0.0
 40
0.0
 40
0.0458481311
 40
0.0950775373
 40
0.1480071285
 40
0.2046873936
 40
0.2649355081
 40
0.3283958278
 40
0.3945713298
 40
0.4628591474
 40
0.6029251119
 40
0.7428489254
 40
0.8109591996
 40
0.8768907891
 40
0.9400855197
 40
1.0
 40
1.0
 40
1.0
 40
1.0
 10
24.1518208022
 20
46.3853540021
 30
0.0
 10
24.2723797342
 20
46.3870963795
 30
0.0
 10
24.5230957101
 20
46.3668848688
 30
0.0
 10
24.9023121934
 20
46.2734213436
 30
0.0
 10
25.2913427012
 20
46.1180871665
 30
0.0
 10
25.6841242566
 20
45.9034042307
 30
0.0
 10
26.0748111647
 20
45.63294525
 30
0.0
 10
26.4573472276
 20
45.3109393804
 30
0.0
 10
26.8257847268
 20
44.9424190769
 30
0.0
 10
27.2943572653
 20
44.392351171
 30
0.0
 10
27.8072591936
 20
43.6293057322
 30
0.0
 10
28.2056168644
 20
42.8011841168
 30
0.0
 10
28.4421752127
 20
42.1199810111
 30
0.0
 10
28.5726184982
 20
41.6173070614
 30
0.0
 10
28.6555195921
 20
41.1264952034
 30
0.0
 10
28.6789657467
 20
40.8029309248
 30
0.0
 10
28.681701511
 20
40.6453914367
 30
0.0
  0
SPLINE
  5
388
100
AcDbEntity
  8
0
100
AcDbSpline
 62
7
  6
BYLAYER
 70
0
 71
3
 72
9
 73
5
 74
0
 42
0.0000001
 43
0.0000001
 44
0.0000000001
 40
0.0
 40
0.0
 40
0.0
 40
0.0
 40
0.4969781413
 40
1.0
 40
1.0
 40
1.0
 40
1.0
 10
26.0032789213
 20
37.53780781
 30
0.0
 10
26.0609485353
 20
37.5711117128
 30
0.0
 10
26.1725364424
 20
37.6461407564
 30
0.0
 10
26.2729982557
 20
37.7354811074
 30
0.0
 10
26.3203747225
 20
37.7834282289
 30
0.0
  0
SPLINE
  5
389
100
AcDbEntity
  8
0
100
AcDbSpline
 62
7
  6
BYLAYER
 70
0
 71
3
 72
11
 73
7
 74
0
 42
0.0000001
 43
0.0000001
 44
0.0000000001
 40
0.0
 40
0.0
 40
0.0
 40
0.0
 40
0.2202583194
 40
0.4579503948
 40
0.7174650817
 40
1.0
 40
1.0
 40
1.0
 40
1.0
 10
26.3496662808
 20
37.8138772984
 30
0.0
 10
26.443421419
 20
37.9139707486
 30
0.0
 10
26.6117671383
 20
38.148048555
 30
0.0
 10
26.7878738442
 20
38.5617067305
 30
0.0
 10
26.8932008848
 20
39.0379928226
 30
0.0
 10
26.9145768612
 20
39.3761350452
 30
0.0
 10
26.9145768612
 20
39.5520567738
 30
0.0
  0
SPLINE
  5
38A
100
AcDbEntity
  8
0
100
AcDbSpline
 62
7
  6
BYLAYER
 70
0
 71
3
 72
10
 73
6
 74
0
 42
0.0000001
 43
0.0000001
 44
0.0000000001
 40
0.0
 40
0.0
 40
0.0
 40
0.0
 40
0.2432005329
 40
0.4893206738
 40
1.0
 40
1.0
 40
1.0
 40
1.0
 10
22.0275715221
 20
45.4037708698
 30
0.0
 10
22.0847879627
 20
45.4368130673
 30
0.0
 10
22.2046112661
 20
45.4955425587
 30
0.0
 10
22.4628873499
 20
45.5816620866
 30
0.0
 10
22.6695981735
 20
45.6076851823
 30
0.0
 10
22.8083235115
 20
45.6096901097
 30
0.0
  0
SPLINE
  5
38B
100
AcDbEntity
  8
0
100
AcDbSpline
 62
7
  6
BYLAYER
 70
0
 71
3
 72
21
 73
17
 74
0
 42
0.0000001
 43
0.0000001
 44
0.0000000001
 40
0.0
 40
0.0
 40
0.0
 40
0.0
 40
0.0464024607
 40
0.0962201908
 40
0.1496957704
 40
0.2068284446
 40
0.2674068241
 40
0.3310588801
 40
0.3972884392
 40
0.4654999882
 40
0.6050966192
 40
0.7442833348
 40
0.811990151
 40
0.8775337125
 40
0.9403786549
 40
1.0
 40
1.0
 40
1.0
 40
1.0
 10
22.8953929156
 20
45.6089850772
 30
0.0
 10
23.0160243197
 20
45.6053306584
 30
0.0
 10
23.265804396
 20
45.5750083851
 30
0.0
 10
23.6417573322
 20
45.4692299422
 30
0.0
 10
24.0260466292
 20
45.3039539703
 30
0.0
 10
24.4128639533
 20
45.0817634316
 30
0.0
 10
24.7965619283
 20
44.8061505203
 30
0.0
 10
25.1714057188
 20
44.4813588804
 30
0.0
 10
25.5316872829
 20
44.1122606426
 30
0.0
 10
25.9887588793
 20
43.5646057978
 30
0.0
 10
26.4882504962
 20
42.8089509917
 30
0.0
 10
26.8757688039
 20
41.9916118778
 30
0.0
 10
27.1055729071
 20
41.3206963831
 30
0.0
 10
27.232224997
 20
40.8260303425
 30
0.0
 10
27.3127184584
 20
40.343105552
 30
0.0
 10
27.3355117923
 20
40.0247715065
 30
0.0
 10
27.3382042203
 20
39.8697275444
 30
0.0
  0
SPLINE
  5
38C
100
AcDbEntity
  8
0
100
AcDbSpline
 62
7
  6
BYLAYER
 70
0
 71
3
 72
11
 73
7
 74
0
 42
0.0000001
 43
0.0000001
 44
0.0000000001
 40
0.0
 40
0.0
 40
0.0
 40
0.0
 40
0.2359976266
 40
0.4989671021
 40
0.7624327085
 40
1.0
 40
1.0
 40
1.0
 40
1.0
 10
9.002687622
 20
34.2914365867
 30
0.0
 10
9.002539495
 20
34.2830397565
 30
0.0
 10
9.0055477586
 20
34.2652230201
 30
0.0
 10
9.0164886345
 20
34.2401735552
 30
0.0
 10
9.0326884869
 20
34.2180656096
 30
0.0
 10
9.0467034051
 20
34.2065511529
 30
0.0
 10
9.0540852108
 20
34.2024305992
 30
0.0
  0
SPLINE
  5
38D
100
AcDbEntity
  8
0
100
AcDbSpline
 62
7
  6
BYLAYER
 70
0
 71
3
 72
9
 73
5
 74
0
 42
0.0000001
 43
0.0000001
 44
0.0000000001
 40
0.0
 40
0.0
 40
0.0
 40
0.0
 40
0.4969781413
 40
1.0
 40
1.0
 40
1.0
 40
1.0
 10
27.346776212
 20
38.3134717023
 30
0.0
 10
27.404445826
 20
38.3467756051
 30
0.0
 10
27.5160337332
 20
38.4218046487
 30
0.0
 10
27.6164955464
 20
38.5111449997
 30
0.0
 10
27.6638720132
 20
38.5590921213
 30
0.0
  0
SPLINE
  5
38E
100
AcDbEntity
  8
0
100
AcDbSpline
 62
7
  6
BYLAYER
 70
0
 71
3
 72
11
 73
7
 74
0
 42
0.0000001
 43
0.0000001
 44
0.0000000001
 40
0.0
 40
0.0
 40
0.0
 40
0.0
 40
0.2202583194
 40
0.4579503948
 40
0.7174650817
 40
1.0
 40
1.0
 40
1.0
 40
1.0
 10
27.6931635715
 20
38.5895411907
 30
0.0
 10
27.7869187097
 20
38.689634641
 30
0.0
 10
27.955264429
 20
38.9237124473
 30
0.0
 10
28.1313711349
 20
39.3373706228
 30
0.0
 10
28.2366981755
 20
39.813656715
 30
0.0
 10
28.2580741519
 20
40.1517989376
 30
0.0
 10
28.2580741519
 20
40.3277206662
 30
0.0
  0
SPLINE
  5
38F
100
AcDbEntity
  8
0
100
AcDbSpline
 62
7
  6
BYLAYER
 70
0
 71
3
 72
24
 73
20
 74
0
 42
0.0000001
 43
0.0000001
 44
0.0000000001
 40
0.0
 40
0.0
 40
0.0
 40
0.0
 40
0.0213331713
 40
0.0428956759
 40
0.087473775
 40
0.1352530976
 40
0.1871585826
 40
0.2435992702
 40
0.3045503014
 40
0.3696425702
 40
0.4382436392
 40
0.5095343982
 40
0.5825643138
 40
0.6562994558
 40
0.7296824879
 40
0.8016665072
 40
0.8712578989
 40
0.9376258689
 40
1.0
 40
1.0
 40
1.0
 40
1.0
 10
22.9303871249
 20
45.6363294022
 30
0.0
 10
22.9813684277
 20
45.6657701965
 30
0.0
 10
23.0878137752
 20
45.7184466364
 30
0.0
 10
23.3164629853
 20
45.7974921768
 30
0.0
 10
23.6306368616
 20
45.8437848756
 30
0.0
 10
24.0302832052
 20
45.8142538554
 30
0.0
 10
24.4487188865
 20
45.7030980631
 30
0.0
 10
24.8775034212
 20
45.5135931745
 30
0.0
 10
25.3081724501
 20
45.2501355668
 30
0.0
 10
25.7319336896
 20
44.9183570606
 30
0.0
 10
26.1400249939
 20
44.5253333529
 30
0.0
 10
26.52386062
 20
44.0793888897
 30
0.0
 10
26.8752606029
 20
43.589978879
 30
0.0
 10
27.1867677093
 20
43.0675508451
 30
0.0
 10
27.4517394026
 20
42.5232430551
 30
0.0
 10
27.6645054261
 20
41.9686827222
 30
0.0
 10
27.8205904158
 20
41.4155550952
 30
0.0
 10
27.9165068359
 20
40.8757736469
 30
0.0
 10
27.9398759532
 20
40.520261083
 30
0.0
 10
27.9398759532
 20
40.3481320241
 30
0.0
  0
ELLIPSE
  5
390
100
AcDbEntity
  8
0
100
AcDbEllipse
 62
7
  6
BYLAYER
 10
39.1474473381
 20
50.2072142327
 30
0.0
 11
-1.9071503207
 21
2.9969543308
 31
0.0
 40
0.5463860612
 41
-2.3797630744
 42
-0.0235772246
  0
ELLIPSE
  5
391
100
AcDbEntity
  8
0
100
AcDbEllipse
 62
7
  6
BYLAYER
 10
39.1474473381
 20
50.2072142327
 30
0.0
 11
-1.6269602114
 21
3.1581285358
 31
0.0
 40
0.6067341637
 41
-3.1125223659
 42
-2.3271155622
  0
ENDSEC
  0
SECTION
  2
OBJECTS
  0
DICTIONARY
  5
C
100
AcDbDictionary
280
0
281
1
  3
ACAD_GROUP
350
D
  3
ACAD_MLINESTYLE
350
17
  3
ACAD_LAYOUT
350
1A
  3
ACAD_PLOTSETTINGS
350
19
  3
ACAD_PLOTSTYLENAME
350
E
  0
DICTIONARY
  5
D
102
{ACAD_REACTORS
330
C
102
}
100
AcDbDictionary
280
0
281
1
  0
ACDBDICTIONARYWDFLT
  5
E
102
{ACAD_REACTORS
330
C
102
}
100
AcDbDictionary
281
1
  3
Normal
350
F
100
AcDbDictionaryWithDefault
340
F
  0
DICTIONARY
  5
17
102
{ACAD_REACTORS
330
C
102
}
100
AcDbDictionary
280
0
281
1
  3
Standard
350
18
  0
DICTIONARY
  5
19
102
{ACAD_REACTORS
330
C
102
}
100
AcDbDictionary
281
1
  0
DICTIONARY
  5
1A
102
{ACAD_REACTORS
330
C
102
}
100
AcDbDictionary
281
1
  3
Model
350
392
  3
Layout1
350
393
  0
ACDBPLACEHOLDER
  5
F
102
{ACAD_REACTORS
330
E
102
}
  0
MLINESTYLE
  5
18
102
{ACAD_REACTORS
330
17
102
}
100
AcDbMlineStyle
  2
STANDARD
 70
0
  3

 62
256
 51
90.0
 52
90.0
 71
2
 49
0.5
 62
256
  6
BYLAYER
 49
-0.5
 62
256
  6
BYLAYER
  0
LAYOUT
  5
392
102
{ACAD_REACTORS
330
1A
102
}
100
AcDbPlotSettings
  1

  2
none_device
  4

  6

 40
0.0
 41
0.0
 42
0.0
 43
0.0
 44
210.0
 45
297.0
 46
0.0
 47
0.0
 48
0.0
 49
0.0
140
0.0
141
0.0
142
1.0
143
1.0
 70
1024
 72
1
 73
0
 74
0
  7

 75
0
147
1.0
148
0.0
149
0.0
100
AcDbLayout
  1
Model
 70
0
 71
0
 10
0.0
 20
0.0
 11
210.0
 21
297.0
 12
0.0
 22
0.0
 32
0.0
 14
0.0
 24
0.0
 34
0.0
 15
0.0
 25
0.0
 35
0.0
146
0.0
 13
0.0
 23
0.0
 33
0.0
 16
1.0
 26
0.0
 36
0.0
 17
0.0
 27
1.0
 37
0.0
 76
0
330
210
345
0
346
0
  0
LAYOUT
  5
393
102
{ACAD_REACTORS
330
1A
102
}
100
AcDbPlotSettings
  1

  2
none_device
  4

  6

 40
0.0
 41
0.0
 42
0.0
 43
0.0
 44
210.0
 45
297.0
 46
0.0
 47
0.0
 48
0.0
 49
0.0
140
0.0
141
0.0
142
1.0
143
1.0
 70
0
 72
1
 73
0
 74
0
  7

 75
0
147
1.0
148
0.0
149
0.0
100
AcDbLayout
  1
Layout1
 70
0
 71
1
 10
0.0
 20
0.0
 11
210.0
 21
297.0
 12
0.0
 22
0.0
 32
0.0
 14
0.0
 24
0.0
 34
0.0
 15
0.0
 25
0.0
 35
0.0
146
0.0
 13
0.0
 23
0.0
 33
0.0
 16
1.0
 26
0.0
 36
0.0
 17
0.0
 27
1.0
 37
0.0
 76
0
330
211
345
0
346
0
  0
ENDSEC
  0
EOF
