999
DXF file: C:\Users\sesa63760\Dev\_Creo\CAD\MCADID0004753_3D-CAD\drw0001_1.dxf
999
Pro/ENGINEER 2019471 by Parametric Technology Corporation
  0
SECTION
  2
HEADER
  9
$ACADVER
  1
AC1024
  9
$DWGCODEPAGE
  3
ANSI_1252
  9
$EXTMAX
 10
47.1448969385
 20
66.6763542416
 30
0.0
  9
$EXTMIN
 10
0.0
 20
0.0
 30
0.0
  9
$LIMMIN
 10
0.0
 20
0.0
  9
$LIMMAX
 10
47.1448969385
 20
66.6763542416
  9
$VIEWCTR
 10
23.5724484693
 20
33.3381771208
  9
$VIEWSIZE
 40
66.6763542416
  9
$CLAYER
  8
0
  9
$LTSCALE
 40
4.3463104987
  9
$CELTYPE
  6
BYLAYER
  9
$DIMSCALE
 40
1.0
  9
$DIMASZ
 40
0.5612487731
  9
$DIMEXO
 40
1.0
  9
$DIMDLI
 40
3.0029054355
  9
$DIMEXE
 40
1.0
  9
$DIMCEN
 40
0.7112144452
  9
$DIMLFAC
 40
1.0
  9
$DIMBLK
  1
_FILLED
  9
$DIMALT
 70
0
  9
$DIMALTF
 40
0.0393700787
  9
$DIMTXT
 40
0.7857482823
  9
$DIMTOL
 70
1
  9
$DIMLIM
 70
0
  9
$DIMTFAC
 40
1.0
  9
$DIMTP
 40
0.01
  9
$DIMTM
 40
0.01
  9
$DIMGAP
 40
0.625
  9
$DIMDSEP
 70
46
  9
$AUNITS
 70
0
  9
$PDMODE
 70
3
  9
$PDSIZE
 40
0.3125
  9
$HANDSEED
  5
389
  9
$TILEMODE
 70
1
  9
$MEASUREMENT
 70
1
  9
$INSUNITS
 70
4
  0
ENDSEC
  0
SECTION
  2
CLASSES
  0
CLASS
  1
ACDBDICTIONARYWDFLT
  2
AcDbDictionaryWithDefault
  3
AutoCAD 2000
 90
0
 91
1
280
0
281
0
  0
CLASS
  1
ACDBPLACEHOLDER
  2
AcDbPlaceHolder
  3
AutoCAD 2000
 90
0
 91
1
280
0
281
0
  0
CLASS
  1
LAYOUT
  2
AcDbLayout
  3
AutoCAD 2000
 90
0
 91
0
280
0
281
0
  0
ENDSEC
  0
SECTION
  2
TABLES
  0
TABLE
  2
VPORT
  5
8
100
AcDbSymbolTable
 70
2
  0
VPORT
  5
1F4
100
AcDbSymbolTableRecord
100
AcDbViewportTableRecord
  2
*ACTIVE
 70
0
 10
0.0
 20
0.0
 11
1.0
 21
1.0
 12
23.5724484693
 22
33.3381771208
 13
0.0
 23
0.0
 14
1.0
 24
1.0
 15
0.0
 25
0.0
 16
0.0
 26
0.0
 36
1.0
 17
0.0
 27
0.0
 37
0.0
 40
66.6763542416
 41
0.7070707071
 42
50.0
 43
0.0
 44
0.0
 50
0.0
 51
0.0
 71
0
 72
100
 73
1
 74
1
 75
0
 76
0
 77
0
 78
0
  0
ENDTAB
  0
TABLE
  2
LTYPE
  5
5
100
AcDbSymbolTable
 70
6
  0
LTYPE
  5
14
100
AcDbSymbolTableRecord
100
AcDbLinetypeTableRecord
  2
BYBLOCK
 70
0
  3

 72
65
 73
0
 40
0.0
  0
LTYPE
  5
15
100
AcDbSymbolTableRecord
100
AcDbLinetypeTableRecord
  2
BYLAYER
 70
0
  3

 72
65
 73
0
 40
0.0
  0
LTYPE
  5
16
100
AcDbSymbolTableRecord
100
AcDbLinetypeTableRecord
  2
CONTINUOUS
 70
64
  3
Solid line
 72
65
 73
0
 40
0.0
  0
LTYPE
  5
1F5
100
AcDbSymbolTableRecord
100
AcDbLinetypeTableRecord
  2
CENTER
 70
64
  3
____ _ ____ _ ____ _ ____ _ ____ _ ____ _ ____
 72
65
 73
4
 40
0.6
 49
0.375
 74
0
 49
-0.075
 74
0
 49
0.075
 74
0
 49
-0.075
 74
0
  0
LTYPE
  5
1F6
100
AcDbSymbolTableRecord
100
AcDbLinetypeTableRecord
  2
HIDDEN
 70
64
  3
- - - - - - - - - - - - - - - - - - - -
 72
65
 73
2
 40
0.2
 49
0.1
 74
0
 49
-0.1
 74
0
  0
LTYPE
  5
1F7
100
AcDbSymbolTableRecord
100
AcDbLinetypeTableRecord
  2
PHANTOM
 70
64
  3
_____ _ _ _____ _ _ _____ _ _ _____
 72
65
 73
6
 40
0.8
 49
0.45
 74
0
 49
-0.05
 74
0
 49
0.1
 74
0
 49
-0.05
 74
0
 49
0.1
 74
0
 49
-0.05
 74
0
  0
LTYPE
  5
1F8
100
AcDbSymbolTableRecord
100
AcDbLinetypeTableRecord
  2
DOT
 70
64
  3
. . . . . . . . . . . . . . . . . . . .
 72
65
 73
2
 40
0.2
 49
0.1
 74
0
 49
-0.1
 74
0
  0
LTYPE
  5
1F9
100
AcDbSymbolTableRecord
100
AcDbLinetypeTableRecord
  2
DASHED
 70
64
  3
- - - - - - - - - - - - - - - - - - - -
 72
65
 73
2
 40
0.2
 49
0.1
 74
0
 49
-0.1
 74
0
  0
ENDTAB
  0
TABLE
  2
LAYER
  5
2
100
AcDbSymbolTable
 70
36
  0
LAYER
  5
10
100
AcDbSymbolTableRecord
100
AcDbLayerTableRecord
  2
0
 70
0
 62
7
  6
CONTINUOUS
370
-3
390
F
  0
LAYER
  5
1FA
100
AcDbSymbolTableRecord
100
AcDbLayerTableRecord
  2
DEFAULT_1
 70
0
 62
7
  6
CENTER
370
-3
390
F
  0
LAYER
  5
1FB
100
AcDbSymbolTableRecord
100
AcDbLayerTableRecord
  2
DEFAULT_2
 70
0
 62
7
  6
HIDDEN
370
-3
390
F
  0
LAYER
  5
1FC
100
AcDbSymbolTableRecord
100
AcDbLayerTableRecord
  2
DEFAULT_3
 70
0
 62
7
  6
PHANTOM
370
-3
390
F
  0
LAYER
  5
1FD
100
AcDbSymbolTableRecord
100
AcDbLayerTableRecord
  2
00_COMPONENTS
 70
0
 62
7
  6
CONTINUOUS
370
-3
390
F
  0
LAYER
  5
1FE
100
AcDbSymbolTableRecord
100
AcDbLayerTableRecord
  2
01_1_DEFAULT_DATUMS
 70
0
 62
7
  6
CONTINUOUS
370
-3
390
F
  0
LAYER
  5
1FF
100
AcDbSymbolTableRecord
100
AcDbLayerTableRecord
  2
01_PLANES
 70
0
 62
7
  6
CONTINUOUS
370
-3
390
F
  0
LAYER
  5
200
100
AcDbSymbolTableRecord
100
AcDbLayerTableRecord
  2
02_COORD_SYS
 70
0
 62
7
  6
CONTINUOUS
370
-3
390
F
  0
LAYER
  5
201
100
AcDbSymbolTableRecord
100
AcDbLayerTableRecord
  2
03_AXES
 70
0
 62
7
  6
CONTINUOUS
370
-3
390
F
  0
LAYER
  5
202
100
AcDbSymbolTableRecord
100
AcDbLayerTableRecord
  2
04_POINTS
 70
0
 62
7
  6
CONTINUOUS
370
-3
390
F
  0
LAYER
  5
203
100
AcDbSymbolTableRecord
100
AcDbLayerTableRecord
  2
05_CURVES
 70
0
 62
7
  6
CONTINUOUS
370
-3
390
F
  0
LAYER
  5
204
100
AcDbSymbolTableRecord
100
AcDbLayerTableRecord
  2
06_SURFS
 70
0
 62
7
  6
CONTINUOUS
370
-3
390
F
  0
LAYER
  5
205
100
AcDbSymbolTableRecord
100
AcDbLayerTableRecord
  2
07_COSMETICS
 70
0
 62
7
  6
CONTINUOUS
370
-3
390
F
  0
LAYER
  5
206
100
AcDbSymbolTableRecord
100
AcDbLayerTableRecord
  2
10_NOTES
 70
0
 62
7
  6
CONTINUOUS
370
-3
390
F
  0
LAYER
  5
207
100
AcDbSymbolTableRecord
100
AcDbLayerTableRecord
  2
11_NOTES_PUB
 70
0
 62
7
  6
CONTINUOUS
370
-3
390
F
  0
LAYER
  5
208
100
AcDbSymbolTableRecord
100
AcDbLayerTableRecord
  2
13_REF_GTOL
 70
0
 62
7
  6
CONTINUOUS
370
-3
390
F
  0
LAYER
  5
209
100
AcDbSymbolTableRecord
100
AcDbLayerTableRecord
  2
16_MISC
 70
0
 62
7
  6
CONTINUOUS
370
-3
390
F
  0
LAYER
  5
20A
100
AcDbSymbolTableRecord
100
AcDbLayerTableRecord
  2
17_NO_PRINT
 70
0
 62
7
  6
CONTINUOUS
370
-3
390
F
  0
LAYER
  5
20B
100
AcDbSymbolTableRecord
100
AcDbLayerTableRecord
  2
18_DATUM_CAMS_JOINTS
 70
0
 62
7
  6
CONTINUOUS
370
-3
390
F
  0
LAYER
  5
20C
100
AcDbSymbolTableRecord
100
AcDbLayerTableRecord
  2
19_DATUM_FUNCTIONAL
 70
0
 62
7
  6
CONTINUOUS
370
-3
390
F
  0
LAYER
  5
20D
100
AcDbSymbolTableRecord
100
AcDbLayerTableRecord
  2
20_DATUM_KINEMATIC_SCHEME
 70
0
 62
7
  6
CONTINUOUS
370
-3
390
F
  0
ENDTAB
  0
TABLE
  2
STYLE
  5
3
100
AcDbSymbolTable
 70
1
  0
STYLE
  5
11
100
AcDbSymbolTableRecord
100
AcDbTextStyleTableRecord
  2
STANDARD
 70
0
 40
0.0
 41
1.0
 50
0.0
 71
0
 42
0.2
  3
ARIAL.TTF
  4

  0
STYLE
  5
20E
100
AcDbSymbolTableRecord
100
AcDbTextStyleTableRecord
  2
TEXTSTYLE_1
 70
0
 40
0.0
 41
0.8
 50
0.0
 71
0
 42
0.2
  3
gdt
  4

  0
ENDTAB
  0
TABLE
  2
VIEW
  5
6
100
AcDbSymbolTable
 70
0
  0
ENDTAB
  0
TABLE
  2
UCS
  5
7
100
AcDbSymbolTable
 70
0
  0
ENDTAB
  0
TABLE
  2
APPID
  5
9
100
AcDbSymbolTable
 70
1
  0
APPID
  5
20F
100
AcDbSymbolTableRecord
100
AcDbRegAppTableRecord
  2
ACAD
 70
0
  0
ENDTAB
  0
TABLE
  2
BLOCK_RECORD
  5
1
100
AcDbSymbolTable
 70
0
  0
BLOCK_RECORD
  5
210
100
AcDbSymbolTableRecord
100
AcDbBlockTableRecord
  2
*Model_Space
  0
BLOCK_RECORD
  5
211
100
AcDbSymbolTableRecord
100
AcDbBlockTableRecord
  2
*Paper_Space
  0
BLOCK_RECORD
  5
212
100
AcDbSymbolTableRecord
100
AcDbBlockTableRecord
  2
_FILLED
  0
ENDTAB
  0
TABLE
  2
DIMSTYLE
  5
A
100
AcDbSymbolTable
 70
1
100
AcDbDimStyleTable
 71
0
  0
DIMSTYLE
105
213
100
AcDbSymbolTableRecord
100
AcDbDimStyleTableRecord
  2
STANDARD
 70
0
  3

  4

 40
1.0
 41
0.5612487731
 42
1.0
 43
0.38
 44
1.0
 45
0.0
 46
0.0
 47
0.01
 48
0.01
140
0.7857482823
141
0.09
142
0.0
143
25.4
144
1.0
145
0.0
146
1.0
147
0.625
 71
1
 72
0
 73
0
 74
0
 75
0
 76
0
 77
1
 78
8
 79
2
170
0
171
1
172
0
173
0
174
0
175
0
176
0
177
0
178
0
270
2
179
2
271
2
272
2
273
2
274
2
275
0
280
0
281
0
282
0
283
1
284
8
285
0
286
0
287
3
288
0
340
11
278
46
341
212
342
212
343
212
344
212
  0
ENDTAB
  0
ENDSEC
  0
SECTION
  2
BLOCKS
  0
BLOCK
  5
20
100
AcDbEntity
  8
0
100
AcDbBlockBegin
  2
*Model_Space
 70
0
 10
0.0
 20
0.0
 30
0.0
  3
*Model_Space
  1

  0
ENDBLK
  5
21
100
AcDbEntity
  8
0
100
AcDbBlockEnd
  0
BLOCK
  5
1C
100
AcDbEntity
  8
0
100
AcDbBlockBegin
  2
*Paper_Space
 70
0
 10
0.0
 20
0.0
 30
0.0
  3
*Paper_Space
  1

  0
ENDBLK
  5
1D
100
AcDbEntity
  8
0
100
AcDbBlockEnd
  0
BLOCK
  5
214
100
AcDbEntity
  8
0
100
AcDbBlockBegin
  2
_FILLED
 70
64
 10
0.0
 20
0.0
  3
_FILLED
  1

  0
SOLID
  5
215
100
AcDbEntity
  8
0
  6
BYBLOCK
 62
0
100
AcDbTrace
 10
0.0
 20
0.0
 11
-1.0
 21
0.25
 12
-1.0
 22
-0.25
 13
-1.0
 23
-0.25
  0
ENDBLK
  5
216
100
AcDbEntity
  8
0
  6
BYBLOCK
 62
0
100
AcDbBlockEnd
  0
ENDSEC
  0
SECTION
  2
ENTITIES
  0
LWPOLYLINE
  5
217
100
AcDbEntity
  8
0
100
AcDbPolyline
 62
7
  6
BYLAYER
 90
5
 70
0
 10
8.226665293
 20
47.6503392681
 10
7.4345607397
 20
47.110872549
 10
6.1755004232
 20
45.6946852765
 10
5.7801966987
 20
44.8914139546
 10
5.4694379974
 20
43.1916987892
  0
LINE
  5
218
100
AcDbEntity
  8
0
100
AcDbLine
 62
7
  6
BYLAYER
 10
8.2267008658
 20
47.6503598071
 11
8.226665293
 21
47.6503392681
  0
LINE
  5
219
100
AcDbEntity
  8
0
100
AcDbLine
 62
7
  6
BYLAYER
 10
5.469349973
 20
43.2204061186
 11
5.469349806
 21
29.9965716444
  0
LINE
  5
21A
100
AcDbEntity
  8
0
100
AcDbLine
 62
7
  6
BYLAYER
 10
6.5479380188
 20
27.7365910406
 11
6.5479380188
 21
27.0153710257
  0
LINE
  5
21B
100
AcDbEntity
  8
0
100
AcDbLine
 62
7
  6
BYLAYER
 10
7.797533828
 20
25.7199156709
 11
7.74140611
 21
25.8219314711
  0
LINE
  5
21C
100
AcDbEntity
  8
0
100
AcDbLine
 62
7
  6
BYLAYER
 10
6.7547531076
 20
26.6870034143
 11
6.7239741671
 21
26.770009992
  0
LWPOLYLINE
  5
21D
100
AcDbEntity
  8
0
100
AcDbPolyline
 62
7
  6
BYLAYER
 90
9
 70
0
 10
7.232955077
 20
24.8123671013
 10
7.5576774737
 20
23.9224002282
 10
8.630916513
 20
22.8865857927
 10
9.37158196
 20
22.4602596242
 10
11.1616291753
 20
21.8454095756
 10
13.2037797857
 20
21.5979456513
 10
15.270668185
 20
21.7453365937
 10
17.1549044812
 20
22.2754253401
 10
17.9594965607
 20
22.6685288339
  0
LINE
  5
21E
100
AcDbEntity
  8
0
100
AcDbLine
 62
7
  6
BYLAYER
 10
7.2835046244
 20
26.5926066058
 11
7.4613743332
 21
26.1051189851
  0
LINE
  5
21F
100
AcDbEntity
  8
0
100
AcDbLine
 62
7
  6
BYLAYER
 10
7.4613743332
 20
26.0326274576
 11
7.4849244505
 21
25.9550402382
  0
LINE
  5
220
100
AcDbEntity
  8
0
100
AcDbLine
 62
7
  6
BYLAYER
 10
6.5479380188
 20
27.0153710257
 11
6.56388236
 21
26.9525991546
  0
LINE
  5
221
100
AcDbEntity
  8
0
100
AcDbLine
 62
7
  6
BYLAYER
 10
6.7239741671
 20
26.770009992
 11
6.7239741671
 21
27.596188418
  0
LINE
  5
222
100
AcDbEntity
  8
0
100
AcDbLine
 62
7
  6
BYLAYER
 10
7.119349806
 20
26.5967441097
 11
7.119349806
 21
26.2406605256
  0
LINE
  5
223
100
AcDbEntity
  8
0
100
AcDbLine
 62
7
  6
BYLAYER
 10
7.119349806
 20
24.9904881818
 11
7.119349806
 21
24.7709561748
  0
LINE
  5
224
100
AcDbEntity
  8
0
100
AcDbLine
 62
7
  6
BYLAYER
 10
7.4613743332
 20
27.008054002
 11
7.4613743332
 21
26.0326274576
  0
LINE
  5
225
100
AcDbEntity
  8
0
100
AcDbLine
 62
7
  6
BYLAYER
 10
7.719349806
 20
23.2776953188
 11
7.719349806
 21
22.0356730774
  0
LINE
  5
226
100
AcDbEntity
  8
0
100
AcDbLine
 62
7
  6
BYLAYER
 10
7.74140611
 20
25.8219314711
 11
7.74140611
 21
26.7847067165
  0
LINE
  5
227
100
AcDbEntity
  8
0
100
AcDbLine
 62
7
  6
BYLAYER
 10
7.8125191083
 20
31.5434500385
 11
7.8125191083
 21
39.702903637
  0
LINE
  5
228
100
AcDbEntity
  8
0
100
AcDbLine
 62
7
  6
BYLAYER
 10
14.6105924405
 20
20.3941481819
 11
14.6106060043
 21
20.3941403508
  0
LINE
  5
229
100
AcDbEntity
  8
0
100
AcDbLine
 62
7
  6
BYLAYER
 10
14.8928766724
 20
20.315722889
 11
14.5587504971
 21
20.5086263622
  0
LWPOLYLINE
  5
22A
100
AcDbEntity
  8
0
100
AcDbPolyline
 62
7
  6
BYLAYER
 90
3
 70
0
 10
14.6105889307
 20
20.3941456008
 10
14.560810685
 20
20.4401636419
 10
14.5587388752
 20
20.4490103726
  0
LINE
  5
22B
100
AcDbEntity
  8
0
100
AcDbLine
 62
7
  6
BYLAYER
 10
8.7842442474
 20
25.2198622123
 11
8.7999895356
 21
25.1405367947
  0
LINE
  5
22C
100
AcDbEntity
  8
0
100
AcDbLine
 62
7
  6
BYLAYER
 10
8.5174020465
 20
26.4355320873
 11
8.5174020465
 21
25.7579554917
  0
LINE
  5
22D
100
AcDbEntity
  8
0
100
AcDbLine
 62
7
  6
BYLAYER
 10
8.7192265389
 20
20.1649754562
 11
8.7192265389
 21
22.346811666
  0
LINE
  5
22E
100
AcDbEntity
  8
0
100
AcDbLine
 62
7
  6
BYLAYER
 10
8.7842442474
 20
26.3231052719
 11
8.7842442474
 21
25.2198622123
  0
LINE
  5
22F
100
AcDbEntity
  8
0
100
AcDbLine
 62
7
  6
BYLAYER
 10
9.1491879499
 20
25.0581898564
 11
9.1491879499
 21
26.169346016
  0
LINE
  5
230
100
AcDbEntity
  8
0
100
AcDbLine
 62
7
  6
BYLAYER
 10
35.3793699516
 20
21.4471527069
 11
35.3808331791
 21
21.4475688699
  0
LINE
  5
231
100
AcDbEntity
  8
0
100
AcDbLine
 62
7
  6
BYLAYER
 10
10.4226156438
 20
24.5535876394
 11
10.4165885268
 21
24.5988430457
  0
LINE
  5
232
100
AcDbEntity
  8
0
100
AcDbLine
 62
7
  6
BYLAYER
 10
10.4165885194
 20
24.598843144
 11
10.3917227332
 21
24.9276196366
  0
LINE
  5
233
100
AcDbEntity
  8
0
100
AcDbLine
 62
7
  6
BYLAYER
 10
9.8542158724
 20
25.8796660484
 11
9.8542158724
 21
25.1067843061
  0
LINE
  5
234
100
AcDbEntity
  8
0
100
AcDbLine
 62
7
  6
BYLAYER
 10
10.2291997126
 20
21.6762725577
 11
10.2291997126
 21
19.2932117599
  0
LINE
  5
235
100
AcDbEntity
  8
0
100
AcDbLine
 62
7
  6
BYLAYER
 10
10.3917227332
 20
24.9276196366
 11
10.3917227332
 21
25.7783375456
  0
LINE
  5
236
100
AcDbEntity
  8
0
100
AcDbLine
 62
7
  6
BYLAYER
 10
10.426396363
 20
25.7718010207
 11
10.426396363
 21
24.6324638983
  0
LINE
  5
237
100
AcDbEntity
  8
0
100
AcDbLine
 62
7
  6
BYLAYER
 10
10.8513816808
 20
24.5308328767
 11
10.8513816808
 21
25.6916845996
  0
LWPOLYLINE
  5
238
100
AcDbEntity
  8
0
100
AcDbPolyline
 62
7
  6
BYLAYER
 90
3
 70
0
 10
27.9699879164
 20
21.0696887033
 10
29.6096298626
 20
21.3743535668
 10
30.2243346239
 20
21.7292514077
  0
LINE
  5
239
100
AcDbEntity
  8
0
100
AcDbLine
 62
7
  6
BYLAYER
 10
35.1691228383
 20
21.3610712873
 11
35.6780740229
 21
21.3982300809
  0
LINE
  5
23A
100
AcDbEntity
  8
0
100
AcDbLine
 62
7
  6
BYLAYER
 10
11.4373951016
 20
25.5812118469
 11
11.4373951016
 21
24.677557466
  0
LINE
  5
23B
100
AcDbEntity
  8
0
100
AcDbLine
 62
7
  6
BYLAYER
 10
27.4740018286
 20
21.0312151188
 11
27.4638464797
 21
21.0308202717
  0
LINE
  5
23C
100
AcDbEntity
  8
0
100
AcDbLine
 62
7
  6
BYLAYER
 10
27.6022203548
 20
21.0089530821
 11
27.4748568653
 21
21.0092238347
  0
LINE
  5
23D
100
AcDbEntity
  8
0
100
AcDbLine
 62
7
  6
BYLAYER
 10
27.4749795033
 20
21.016844353
 11
27.6507856957
 21
21.0141254589
  0
LINE
  5
23E
100
AcDbEntity
  8
0
100
AcDbLine
 62
7
  6
BYLAYER
 10
27.8825112
 20
21.0111690124
 11
28.0183500289
 21
21.0080684627
  0
LINE
  5
23F
100
AcDbEntity
  8
0
100
AcDbLine
 62
7
  6
BYLAYER
 10
27.1873017312
 20
21.022175081
 11
27.4748568653
 21
21.0092238347
  0
LINE
  5
240
100
AcDbEntity
  8
0
100
AcDbLine
 62
7
  6
BYLAYER
 10
12.0411569623
 20
24.1131854881
 11
10.9124957549
 21
24.4179690709
  0
LWPOLYLINE
  5
241
100
AcDbEntity
  8
0
100
AcDbPolyline
 62
7
  6
BYLAYER
 90
3
 70
0
 10
10.4047695214
 20
24.5550754227
 10
10.3081512089
 20
24.5811662241
 10
9.5550258917
 20
25.0168632704
  0
LINE
  5
242
100
AcDbEntity
  8
0
100
AcDbLine
 62
7
  6
BYLAYER
 10
10.3702343541
 20
24.865418718
 11
9.7565431229
 21
25.0774289287
  0
LINE
  5
243
100
AcDbEntity
  8
0
100
AcDbLine
 62
7
  6
BYLAYER
 10
15.9216135122
 20
24.4552384199
 11
15.5013576723
 21
24.6775672346
  0
LINE
  5
244
100
AcDbEntity
  8
0
100
AcDbLine
 62
7
  6
BYLAYER
 10
18.6400934582
 20
22.6429635119
 11
18.7819477772
 21
22.5610657354
  0
LINE
  5
245
100
AcDbEntity
  8
0
100
AcDbLine
 62
7
  6
BYLAYER
 10
14.3469050732
 20
20.3062008791
 11
14.3469050732
 21
21.1899881874
  0
LINE
  5
246
100
AcDbEntity
  8
0
100
AcDbLine
 62
7
  6
BYLAYER
 10
14.5587504971
 20
20.4488398777
 11
14.5587504971
 21
21.2052117662
  0
LINE
  5
247
100
AcDbEntity
  8
0
100
AcDbLine
 62
7
  6
BYLAYER
 10
16.0215622642
 20
24.4353424942
 11
15.9216134377
 21
24.4552384593
  0
LINE
  5
248
100
AcDbEntity
  8
0
100
AcDbLine
 62
7
  6
BYLAYER
 10
7.9609055235
 20
25.6867260709
 11
7.797533828
 21
25.7199156709
  0
LINE
  5
249
100
AcDbEntity
  8
0
100
AcDbLine
 62
7
  6
BYLAYER
 10
37.3849551667
 20
19.3271997472
 11
38.1474895175
 21
19.1400376615
  0
LINE
  5
24A
100
AcDbEntity
  8
0
100
AcDbLine
 62
7
  6
BYLAYER
 10
17.5901353861
 20
24.9548461568
 11
17.0845307109
 21
25.1068016857
  0
LINE
  5
24B
100
AcDbEntity
  8
0
100
AcDbLine
 62
7
  6
BYLAYER
 10
27.7428311553
 20
21.3007242249
 11
26.8254575255
 21
21.613231793
  0
LINE
  5
24C
100
AcDbEntity
  8
0
100
AcDbLine
 62
7
  6
BYLAYER
 10
24.9854614322
 20
20.7124188021
 11
12.5238004935
 21
27.9069993364
  0
LINE
  5
24D
100
AcDbEntity
  8
0
100
AcDbLine
 62
7
  6
BYLAYER
 10
24.0305840507
 20
21.5723120469
 11
9.6270465902
 21
29.8880101507
  0
LINE
  5
24E
100
AcDbEntity
  8
0
100
AcDbLine
 62
7
  6
BYLAYER
 10
23.8285543829
 20
22.2967969548
 11
7.8125191083
 21
31.5434500385
  0
LINE
  5
24F
100
AcDbEntity
  8
0
100
AcDbLine
 62
7
  6
BYLAYER
 10
25.7122295316
 20
21.5629919453
 11
26.0304289079
 21
21.3792836058
  0
LINE
  5
250
100
AcDbEntity
  8
0
100
AcDbLine
 62
7
  6
BYLAYER
 10
15.5013576723
 20
24.6775672346
 11
15.5013576723
 21
25.580674234
  0
LINE
  5
251
100
AcDbEntity
  8
0
100
AcDbLine
 62
7
  6
BYLAYER
 10
16.0873755644
 20
25.6908571624
 11
16.0873755644
 21
24.5308454625
  0
LINE
  5
252
100
AcDbEntity
  8
0
100
AcDbLine
 62
7
  6
BYLAYER
 10
9.348613241
 20
24.9548263022
 11
9.2177960559
 21
24.9555632402
  0
LWPOLYLINE
  5
253
100
AcDbEntity
  8
0
100
AcDbPolyline
 62
7
  6
BYLAYER
 90
4
 70
0
 10
26.029373629
 20
21.3774591935
 10
24.9077639798
 20
22.0262221318
 10
24.1073164259
 20
23.3764490852
 10
23.8285543829
 20
25.2407382846
  0
LINE
  5
254
100
AcDbEntity
  8
0
100
AcDbLine
 62
7
  6
BYLAYER
 10
24.0305840507
 20
21.5723120469
 11
24.9854886066
 21
20.7124658586
  0
LINE
  5
255
100
AcDbEntity
  8
0
100
AcDbLine
 62
7
  6
BYLAYER
 10
16.5123594165
 20
24.6324785271
 11
16.5123594165
 21
25.6042558636
  0
LINE
  5
256
100
AcDbEntity
  8
0
100
AcDbLine
 62
7
  6
BYLAYER
 10
16.5470264341
 20
25.5842413044
 11
16.5470264341
 21
24.9276344321
  0
LINE
  5
257
100
AcDbEntity
  8
0
100
AcDbLine
 62
7
  6
BYLAYER
 10
17.0845307109
 20
25.1068016857
 11
17.0845307109
 21
25.273920086
  0
LINE
  5
258
100
AcDbEntity
  8
0
100
AcDbLine
 62
7
  6
BYLAYER
 10
16.5470264341
 20
24.9276344321
 11
16.5221653899
 21
24.5988578218
  0
LINE
  5
259
100
AcDbEntity
  8
0
100
AcDbLine
 62
7
  6
BYLAYER
 10
16.5221653882
 20
24.5988577994
 11
16.5161417322
 21
24.5536968874
  0
LINE
  5
25A
100
AcDbEntity
  8
0
100
AcDbLine
 62
7
  6
BYLAYER
 10
16.5420257025
 20
24.8615019088
 11
15.6367346883
 21
24.6059484523
  0
LINE
  5
25B
100
AcDbEntity
  8
0
100
AcDbLine
 62
7
  6
BYLAYER
 10
11.0171423455
 20
24.455226566
 11
10.9172410751
 21
24.4354317958
  0
LINE
  5
25C
100
AcDbEntity
  8
0
100
AcDbLine
 62
7
  6
BYLAYER
 10
7.4613743332
 20
26.5881234196
 11
6.9485893396
 21
26.6010481082
  0
LINE
  5
25D
100
AcDbEntity
  8
0
100
AcDbLine
 62
7
  6
BYLAYER
 10
26.9475646575
 20
23.6210526316
 11
31.5437778709
 21
20.9674877273
  0
LINE
  5
25E
100
AcDbEntity
  8
0
100
AcDbLine
 62
7
  6
BYLAYER
 10
19.219349806
 20
23.3291522768
 11
19.219349806
 21
22.0356730774
  0
LWPOLYLINE
  5
25F
100
AcDbEntity
  8
0
100
AcDbPolyline
 62
7
  6
BYLAYER
 90
8
 70
0
 10
16.2948051742
 20
25.7298580224
 10
14.7289527265
 20
25.4354468615
 10
12.2114369589
 20
25.4352927746
 10
9.8225817214
 20
25.8856295837
 10
7.8004870898
 20
26.7375850054
 10
6.3363004839
 20
27.9053885588
 10
5.5671427733
 20
29.2766159323
 10
5.4693534015
 20
29.9965716445
  0
LINE
  5
260
100
AcDbEntity
  8
0
100
AcDbLine
 62
7
  6
BYLAYER
 10
8.5174020465
 20
25.7579554917
 11
7.9609056787
 21
25.6867260907
  0
LINE
  5
261
100
AcDbEntity
  8
0
100
AcDbLine
 62
7
  6
BYLAYER
 10
32.8628782649
 20
21.9379630004
 11
37.3849551667
 21
19.3271997472
  0
LWPOLYLINE
  5
262
100
AcDbEntity
  8
0
100
AcDbPolyline
 62
7
  6
BYLAYER
 90
3
 70
0
 10
25.3923891875
 20
22.8640500992
 10
26.2742182089
 20
21.6094932909
 10
27.6022758402
 20
21.0362016909
  0
LWPOLYLINE
  5
263
100
AcDbEntity
  8
0
100
AcDbPolyline
 62
7
  6
BYLAYER
 90
3
 70
0
 10
25.4967957095
 20
22.8960337858
 10
26.3625045428
 20
21.6644107792
 10
27.6638029734
 20
21.0970394035
  0
LINE
  5
264
100
AcDbEntity
  8
0
100
AcDbLine
 62
7
  6
BYLAYER
 10
35.4548487823
 20
22.1209645774
 11
35.2710002545
 21
22.2271071731
  0
LINE
  5
265
100
AcDbEntity
  8
0
100
AcDbLine
 62
7
  6
BYLAYER
 10
7.8125191083
 20
39.702903637
 11
23.8285543829
 21
30.4562505471
  0
LINE
  5
266
100
AcDbEntity
  8
0
100
AcDbLine
 62
7
  6
BYLAYER
 10
23.8285543829
 20
30.4562505471
 11
23.8285543829
 21
22.2967969548
  0
LINE
  5
267
100
AcDbEntity
  8
0
100
AcDbLine
 62
7
  6
BYLAYER
 10
38.1474963228
 20
25.013745779
 11
33.7280540298
 21
27.5652542537
  0
LINE
  5
268
100
AcDbEntity
  8
0
100
AcDbLine
 62
7
  6
BYLAYER
 10
8.9410282626
 20
41.9537792987
 11
24.9570635372
 21
32.7071262088
  0
LINE
  5
269
100
AcDbEntity
  8
0
100
AcDbLine
 62
7
  6
BYLAYER
 10
25.158452194
 20
24.6613413272
 11
25.4967957095
 21
22.8960337858
  0
LINE
  5
26A
100
AcDbEntity
  8
0
100
AcDbLine
 62
7
  6
BYLAYER
 10
25.0513982907
 20
24.6652730852
 11
25.3923891875
 21
22.8640500992
  0
LWPOLYLINE
  5
26B
100
AcDbEntity
  8
0
100
AcDbPolyline
 62
7
  6
BYLAYER
 90
8
 70
0
 10
23.8285543829
 20
25.2407382881
 10
24.1048690524
 20
27.4168137687
 10
24.9055101109
 20
29.6965225821
 10
26.164134551
 20
31.8768322382
 10
27.7485676149
 20
33.7204616227
 10
29.497434373
 20
35.0456474145
 10
31.2408812566
 20
35.7297385291
 10
32.81298494
 20
35.7101998448
  0
LINE
  5
26C
100
AcDbEntity
  8
0
100
AcDbLine
 62
7
  6
BYLAYER
 10
33.0209594924
 20
29.2392627611
 11
28.6368640087
 21
31.7703642076
  0
LINE
  5
26D
100
AcDbEntity
  8
0
100
AcDbLine
 62
7
  6
BYLAYER
 10
11.4373951016
 20
24.677557466
 11
11.0171424627
 21
24.455226628
  0
LINE
  5
26E
100
AcDbEntity
  8
0
100
AcDbLine
 62
7
  6
BYLAYER
 10
34.1169434764
 20
30.1984191881
 11
35.2443777945
 21
29.5475094066
  0
LINE
  5
26F
100
AcDbEntity
  8
0
100
AcDbLine
 62
7
  6
BYLAYER
 10
35.3017544213
 20
29.5806356198
 11
31.1824378227
 21
31.9588703641
  0
LINE
  5
270
100
AcDbEntity
  8
0
100
AcDbLine
 62
7
  6
BYLAYER
 10
41.1809263559
 20
26.373196402
 11
41.3848872986
 21
26.2554421608
  0
LINE
  5
271
100
AcDbEntity
  8
0
100
AcDbLine
 62
7
  6
BYLAYER
 10
27.7428311553
 20
31.4143756029
 11
27.6638029734
 21
31.5268070848
  0
LINE
  5
272
100
AcDbEntity
  8
0
100
AcDbLine
 62
7
  6
BYLAYER
 10
28.0490160983
 20
31.7952761113
 11
27.9699879164
 21
31.9077075932
  0
LINE
  5
273
100
AcDbEntity
  8
0
100
AcDbLine
 62
7
  6
BYLAYER
 10
28.6368622423
 20
31.7703642076
 11
28.6368622423
 21
32.0923777413
  0
LINE
  5
274
100
AcDbEntity
  8
0
100
AcDbLine
 62
7
  6
BYLAYER
 10
9.8542158724
 20
25.1067843061
 11
9.348613382
 21
24.9548263446
  0
LINE
  5
275
100
AcDbEntity
  8
0
100
AcDbLine
 62
7
  6
BYLAYER
 10
33.2078462363
 20
34.569584697
 11
34.1252198661
 21
34.2570771289
  0
LINE
  5
276
100
AcDbEntity
  8
0
100
AcDbLine
 62
7
  6
BYLAYER
 10
31.1824378227
 20
33.2400431615
 11
35.566533304
 21
30.7089417164
  0
LINE
  5
277
100
AcDbEntity
  8
0
100
AcDbLine
 62
7
  6
BYLAYER
 10
32.4474713388
 20
33.1473859502
 11
37.0436845523
 21
30.4938210458
  0
LINE
  5
278
100
AcDbEntity
  8
0
100
AcDbLine
 62
7
  6
BYLAYER
 10
17.3584532943
 20
24.9343141555
 11
16.2570417619
 21
24.4890482495
  0
LWPOLYLINE
  5
279
100
AcDbEntity
  8
0
100
AcDbPolyline
 62
7
  6
BYLAYER
 90
4
 70
0
 10
15.95698446
 20
24.3677445565
 10
15.7938409439
 20
24.3017907841
 10
13.9523701167
 20
24.0165280372
 10
12.0411569623
 20
24.1131854881
  0
LINE
  5
27A
100
AcDbEntity
  8
0
100
AcDbLine
 62
7
  6
BYLAYER
 10
33.6120954921
 20
35.246270712
 11
33.9302948684
 21
35.0625623725
  0
LINE
  5
27B
100
AcDbEntity
  8
0
100
AcDbLine
 62
7
  6
BYLAYER
 10
32.81298494
 20
35.7101998448
 11
33.9308849971
 21
35.0635826126
  0
LINE
  5
27C
100
AcDbEntity
  8
0
100
AcDbLine
 62
7
  6
BYLAYER
 10
30.758173754
 20
33.317110203
 11
30.758173754
 21
32.0682519881
  0
LINE
  5
27D
100
AcDbEntity
  8
0
100
AcDbLine
 62
7
  6
BYLAYER
 10
31.1824378227
 20
31.9588703641
 11
31.1824378227
 21
33.2400431615
  0
LINE
  5
27E
100
AcDbEntity
  8
0
100
AcDbLine
 62
7
  6
BYLAYER
 10
27.7428311553
 20
21.3007242249
 11
27.6638029734
 21
21.0970394035
  0
LINE
  5
27F
100
AcDbEntity
  8
0
100
AcDbLine
 62
7
  6
BYLAYER
 10
32.9016612933
 20
34.5969353972
 11
32.9806894752
 21
34.8006202186
  0
LINE
  5
280
100
AcDbEntity
  8
0
100
AcDbLine
 62
7
  6
BYLAYER
 10
25.3165085578
 20
25.1608458752
 11
25.158452194
 21
25.0695925357
  0
LINE
  5
281
100
AcDbEntity
  8
0
100
AcDbLine
 62
7
  6
BYLAYER
 10
25.3165085578
 20
24.7525946666
 11
25.158452194
 21
24.6613413272
  0
LINE
  5
282
100
AcDbEntity
  8
0
100
AcDbLine
 62
7
  6
BYLAYER
 10
33.6926794077
 20
30.3054301531
 11
33.6926794077
 21
28.6516412729
  0
LINE
  5
283
100
AcDbEntity
  8
0
100
AcDbLine
 62
7
  6
BYLAYER
 10
33.7280540298
 20
21.2200584366
 11
33.7280540298
 21
21.4384648399
  0
LINE
  5
284
100
AcDbEntity
  8
0
100
AcDbLine
 62
7
  6
BYLAYER
 10
33.7280540298
 20
27.5498579776
 11
33.7280540298
 21
27.9550898735
  0
LINE
  5
285
100
AcDbEntity
  8
0
100
AcDbLine
 62
7
  6
BYLAYER
 10
33.2868744182
 20
34.7732695184
 11
33.2078462363
 21
34.569584697
  0
LINE
  5
286
100
AcDbEntity
  8
0
100
AcDbLine
 62
7
  6
BYLAYER
 10
28.0490160983
 20
21.2733735247
 11
27.9699879164
 21
21.0696887033
  0
LINE
  5
287
100
AcDbEntity
  8
0
100
AcDbLine
 62
7
  6
BYLAYER
 10
35.4065832
 20
29.6411581822
 11
33.4297085727
 21
28.4998158968
  0
LINE
  5
288
100
AcDbEntity
  8
0
100
AcDbLine
 62
7
  6
BYLAYER
 10
34.013706624
 20
37.935950321
 11
17.9976713494
 21
47.1826034109
  0
LINE
  5
289
100
AcDbEntity
  8
0
100
AcDbLine
 62
7
  6
BYLAYER
 10
34.7279911368
 20
37.9037293047
 11
18.7119558623
 21
47.1503823946
  0
LWPOLYLINE
  5
28A
100
AcDbEntity
  8
0
100
AcDbPolyline
 62
7
  6
BYLAYER
 90
3
 70
0
 10
35.4538816821
 20
32.9742751361
 10
34.5881728488
 20
34.2058981427
 10
34.528773495
 20
34.2317965011
  0
LINE
  5
28B
100
AcDbEntity
  8
0
100
AcDbLine
 62
7
  6
BYLAYER
 10
34.1169434764
 20
28.896588785
 11
34.1169434764
 21
30.1984191881
  0
LINE
  5
28C
100
AcDbEntity
  8
0
100
AcDbLine
 62
7
  6
BYLAYER
 10
35.1422157783
 20
36.988157009
 11
35.1422157783
 21
33.7050766067
  0
LWPOLYLINE
  5
28D
100
AcDbEntity
  8
0
100
AcDbPolyline
 62
7
  6
BYLAYER
 90
6
 70
0
 10
18.7121208881
 20
47.1502870909
 10
16.5886360955
 20
48.0807615104
 10
14.149273309
 20
48.6238582041
 10
12.8728964593
 20
48.7169395646
 10
10.3611977671
 20
48.4721942171
 10
8.226700737
 20
47.6503600203
  0
LINE
  5
28E
100
AcDbEntity
  8
0
100
AcDbLine
 62
7
  6
BYLAYER
 10
35.2457672655
 20
33.5266055247
 11
34.9730108921
 21
33.9967013814
  0
LINE
  5
28F
100
AcDbEntity
  8
0
100
AcDbLine
 62
7
  6
BYLAYER
 10
35.7871637792
 20
31.235375549
 11
35.4538816821
 21
32.9742751361
  0
LINE
  5
290
100
AcDbEntity
  8
0
100
AcDbLine
 62
7
  6
BYLAYER
 10
35.4596916683
 20
22.1191279912
 11
35.459734307
 21
22.1204035639
  0
LINE
  5
291
100
AcDbEntity
  8
0
100
AcDbLine
 62
7
  6
BYLAYER
 10
35.4568621322
 20
22.1208877914
 11
35.4569104569
 21
22.1221548787
  0
LINE
  5
292
100
AcDbEntity
  8
0
100
AcDbLine
 62
7
  6
BYLAYER
 10
34.1229193012
 20
23.5299919838
 11
34.1218192423
 21
23.5296112739
  0
LINE
  5
293
100
AcDbEntity
  8
0
100
AcDbLine
 62
7
  6
BYLAYER
 10
38.5010443801
 20
19.3978818833
 11
38.5010443801
 21
24.3476647317
  0
LINE
  5
294
100
AcDbEntity
  8
0
100
AcDbLine
 62
7
  6
BYLAYER
 10
33.9170817956
 20
23.5296829313
 11
34.0667867618
 21
23.7501650264
  0
LINE
  5
295
100
AcDbEntity
  8
0
100
AcDbLine
 62
7
  6
BYLAYER
 10
34.871310097
 20
23.76368142
 11
35.0078873127
 21
23.902550333
  0
LINE
  5
296
100
AcDbEntity
  8
0
100
AcDbLine
 62
7
  6
BYLAYER
 10
34.1218192423
 20
23.5296112739
 11
34.1211361358
 21
23.5291149668
  0
LWPOLYLINE
  5
297
100
AcDbEntity
  8
0
100
AcDbPolyline
 62
7
  6
BYLAYER
 90
3
 70
0
 10
30.2586635181
 20
21.7094320597
 10
29.6652295387
 20
21.3577206854
 10
28.0183500289
 20
21.0080684627
  0
LINE
  5
298
100
AcDbEntity
  8
0
100
AcDbLine
 62
7
  6
BYLAYER
 10
28.3283462513
 20
20.6126324336
 11
29.5919295069
 21
21.3421582117
  0
LINE
  5
299
100
AcDbEntity
  8
0
100
AcDbLine
 62
7
  6
BYLAYER
 10
34.1227967182
 20
23.5302047894
 11
34.1210789111
 21
23.5292139179
  0
LINE
  5
29A
100
AcDbEntity
  8
0
100
AcDbLine
 62
7
  6
BYLAYER
 10
35.4548487823
 20
22.1209645774
 11
35.4569104569
 21
22.1221548787
  0
LINE
  5
29B
100
AcDbEntity
  8
0
100
AcDbLine
 62
7
  6
BYLAYER
 10
35.377535664
 20
21.4536020547
 11
35.4195502633
 21
21.4778590501
  0
LINE
  5
29C
100
AcDbEntity
  8
0
100
AcDbLine
 62
7
  6
BYLAYER
 10
35.379547925
 20
21.446843633
 11
35.3808271661
 21
21.4475792849
  0
LINE
  5
29D
100
AcDbEntity
  8
0
100
AcDbLine
 62
7
  6
BYLAYER
 10
42.2133395254
 20
24.0160789116
 11
42.2133365814
 21
24.4243247653
  0
LINE
  5
29E
100
AcDbEntity
  8
0
100
AcDbLine
 62
7
  6
BYLAYER
 10
41.2065572341
 20
19.5952485069
 11
39.1206009144
 21
18.390928253
  0
ARC
  5
29F
100
AcDbEntity
  8
0
100
AcDbCircle
 62
7
  6
BYLAYER
 10
-38.6664373667
 20
-165.9208273285
 40
208.7735951159
100
AcDbArc
 50
71.4119670908
 51
71.6131430666
  0
ARC
  5
2A0
100
AcDbEntity
  8
0
100
AcDbCircle
 62
7
  6
BYLAYER
 10
-130.4421229404
 20
-61.5811290601
 40
189.9377032398
100
AcDbArc
 50
28.7767990212
 51
29.0712272748
  0
ARC
  5
2A1
100
AcDbEntity
  8
0
100
AcDbCircle
 62
7
  6
BYLAYER
 10
-119.8015624842
 20
-55.7524567726
 40
174.866563609
100
AcDbArc
 50
28.6001628618
 51
29.0804732307
  0
ARC
  5
2A2
100
AcDbEntity
  8
0
100
AcDbCircle
 62
7
  6
BYLAYER
 10
-30.6816648756
 20
-23.0890669744
 40
86.3123394172
100
AcDbArc
 50
42.1944749382
 51
42.6775915313
  0
ARC
  5
2A3
100
AcDbEntity
  8
0
100
AcDbCircle
 62
7
  6
BYLAYER
 10
-27.5349460287
 20
10.2892064278
 40
65.3348266928
100
AcDbArc
 50
22.1358190648
 51
22.6214664735
  0
ARC
  5
2A4
100
AcDbEntity
  8
0
100
AcDbCircle
 62
7
  6
BYLAYER
 10
-25.3442331761
 20
-9.115722854
 40
72.0834262777
100
AcDbArc
 50
27.6605232859
 51
28.259894771
  0
ARC
  5
2A5
100
AcDbEntity
  8
0
100
AcDbCircle
 62
7
  6
BYLAYER
 10
13.2278646125
 20
35.4144332962
 40
11.1400372178
100
AcDbArc
 50
256.5541903914
 51
257.682541151
  0
ARC
  5
2A6
100
AcDbEntity
  8
0
100
AcDbCircle
 62
7
  6
BYLAYER
 10
13.7205195033
 20
35.3720866687
 40
11.0965994118
100
AcDbArc
 50
282.3155543136
 51
283.4483197957
  0
ARC
  5
2A7
100
AcDbEntity
  8
0
100
AcDbCircle
 62
7
  6
BYLAYER
 10
13.1753167708
 20
35.1923432092
 40
10.9118158535
100
AcDbArc
 50
255.7885538197
 51
256.5513858921
  0
ARC
  5
2A8
100
AcDbEntity
  8
0
100
AcDbCircle
 62
7
  6
BYLAYER
 10
13.7706417743
 20
35.1628571895
 40
10.8814501399
100
AcDbArc
 50
283.447857493
 51
284.2128166446
  0
ARC
  5
2A9
100
AcDbEntity
  8
0
100
AcDbCircle
 62
7
  6
BYLAYER
 10
13.1891506247
 20
35.0312700365
 40
10.8368369412
100
AcDbArc
 50
255.2092462861
 51
257.8979469645
  0
ARC
  5
2AA
100
AcDbEntity
  8
0
100
AcDbCircle
 62
7
  6
BYLAYER
 10
13.7495656199
 20
35.0312016112
 40
10.8367665306
100
AcDbArc
 50
282.1023529151
 51
284.791064181
  0
ARC
  5
2AB
100
AcDbEntity
  8
0
100
AcDbCircle
 62
7
  6
BYLAYER
 10
13.1380241832
 20
35.0440773723
 40
10.7589321295
100
AcDbArc
 50
255.4020322747
 51
255.7872324701
  0
ARC
  5
2AC
100
AcDbEntity
  8
0
100
AcDbCircle
 62
7
  6
BYLAYER
 10
13.8006940333
 20
35.0440049408
 40
10.7588573469
100
AcDbArc
 50
284.2130761793
 51
284.5982781596
  0
ARC
  5
2AD
100
AcDbEntity
  8
0
100
AcDbCircle
 62
7
  6
BYLAYER
 10
13.3311077691
 20
34.8631118016
 40
10.4805243318
100
AcDbArc
 50
258.7629927058
 51
259.436097119
  0
ARC
  5
2AE
100
AcDbEntity
  8
0
100
AcDbCircle
 62
7
  6
BYLAYER
 10
13.6132799553
 20
34.8309776086
 40
10.4478980888
100
AcDbArc
 50
280.6152757303
 51
281.2417967964
  0
ARC
  5
2AF
100
AcDbEntity
  8
0
100
AcDbCircle
 62
7
  6
BYLAYER
 10
12.4341554688
 20
32.9718049292
 40
8.5683321085
100
AcDbArc
 50
246.1129589548
 51
247.4565023805
  0
ARC
  5
2B0
100
AcDbEntity
  8
0
100
AcDbCircle
 62
7
  6
BYLAYER
 10
12.3337525768
 20
32.7429096011
 40
8.318386103
100
AcDbArc
 50
245.6495941675
 51
246.1068649769
  0
ARC
  5
2B1
100
AcDbEntity
  8
0
100
AcDbCircle
 62
7
  6
BYLAYER
 10
12.3627195488
 20
32.6206751595
 40
8.285312618
100
AcDbArc
 50
244.5320319847
 51
247.6919574138
  0
ARC
  5
2B2
100
AcDbEntity
  8
0
100
AcDbCircle
 62
7
  6
BYLAYER
 10
12.2723844775
 20
32.6074978954
 40
8.1697174523
100
AcDbArc
 50
244.7252298685
 51
245.6501302181
  0
ARC
  5
2B3
100
AcDbEntity
  8
0
100
AcDbCircle
 62
7
  6
BYLAYER
 10
13.8353542675
 20
31.594938792
 40
7.5514861739
100
AcDbArc
 50
286.4289783897
 51
287.1053422568
  0
ARC
  5
2B4
100
AcDbEntity
  8
0
100
AcDbCircle
 62
7
  6
BYLAYER
 10
13.9142605119
 20
31.3435695127
 40
7.2880275661
100
AcDbArc
 50
287.0937010082
 51
289.0477283106
  0
ARC
  5
2B5
100
AcDbEntity
  8
0
100
AcDbCircle
 62
7
  6
BYLAYER
 10
12.9941786754
 20
31.247419744
 40
7.1872192881
100
AcDbArc
 50
248.9309021278
 51
252.8647720534
  0
ARC
  5
2B6
100
AcDbEntity
  8
0
100
AcDbCircle
 62
7
  6
BYLAYER
 10
12.8314020282
 20
30.8071614276
 40
6.7178791805
100
AcDbArc
 50
248.7351420527
 51
248.8765272607
  0
ARC
  5
2B7
100
AcDbEntity
  8
0
100
AcDbCircle
 62
7
  6
BYLAYER
 10
11.798055393
 20
30.8169378534
 40
6.1326739535
100
AcDbArc
 50
237.0356448541
 51
240.3959091515
  0
ARC
  5
2B8
100
AcDbEntity
  8
0
100
AcDbCircle
 62
7
  6
BYLAYER
 10
11.1087463429
 20
30.5932468874
 40
5.8398999175
100
AcDbArc
 50
233.0533834123
 51
234.7875939197
  0
ARC
  5
2B9
100
AcDbEntity
  8
0
100
AcDbCircle
 62
7
  6
BYLAYER
 10
11.0430798139
 20
30.3604687563
 40
5.6628758816
100
AcDbArc
 50
231.0730177845
 51
235.0315532562
  0
ARC
  5
2BA
100
AcDbEntity
  8
0
100
AcDbCircle
 62
7
  6
BYLAYER
 10
10.976543646
 20
30.4157801037
 40
5.6186061236
100
AcDbArc
 50
232.4490488943
 51
233.0430408383
  0
ARC
  5
2BB
100
AcDbEntity
  8
0
100
AcDbCircle
 62
7
  6
BYLAYER
 10
10.8980918252
 20
30.3138672315
 40
5.4899946377
100
AcDbArc
 50
231.2446338099
 51
232.4499361848
  0
ARC
  5
2BC
100
AcDbEntity
  8
0
100
AcDbCircle
 62
7
  6
BYLAYER
 10
14.7998466413
 20
25.5694203454
 40
5.4709448476
100
AcDbArc
 50
299.395227774
 51
299.998931727
  0
ARC
  5
2BD
100
AcDbEntity
  8
0
100
AcDbCircle
 62
7
  6
BYLAYER
 10
14.8051653355
 20
24.4171324318
 40
5.4603314648
100
AcDbArc
 50
299.122589712
 51
299.9987842211
  0
ARC
  5
2BE
100
AcDbEntity
  8
0
100
AcDbCircle
 62
7
  6
BYLAYER
 10
14.7939749723
 20
24.2323519439
 40
5.3791266178
100
AcDbArc
 50
299.9989478443
 51
300.8675458351
  0
ARC
  5
2BF
100
AcDbEntity
  8
0
100
AcDbCircle
 62
7
  6
BYLAYER
 10
14.8660667048
 20
24.3119763226
 40
5.3388129244
100
AcDbArc
 50
299.9969956711
 51
300.8693202517
  0
ARC
  5
2C0
100
AcDbEntity
  8
0
100
AcDbCircle
 62
7
  6
BYLAYER
 10
14.8306523394
 20
29.3135849731
 40
5.0564602799
100
AcDbArc
 50
299.9943846394
 51
301.2644047256
  0
ARC
  5
2C1
100
AcDbEntity
  8
0
100
AcDbCircle
 62
7
  6
BYLAYER
 10
14.6637520946
 20
24.9950037422
 40
3.9808789896
100
AcDbArc
 50
299.952679142
 51
303.6533714122
  0
ARC
  5
2C2
100
AcDbEntity
  8
0
100
AcDbCircle
 62
7
  6
BYLAYER
 10
9.6681747227
 20
29.0709755945
 40
3.7366776173
100
AcDbArc
 50
215.6729966673
 51
218.0085066461
  0
ARC
  5
2C3
100
AcDbEntity
  8
0
100
AcDbCircle
 62
7
  6
BYLAYER
 10
9.6607911405
 20
28.9743662753
 40
3.6984989342
100
AcDbArc
 50
213.1382424217
 51
218.20577775
  0
ARC
  5
2C4
100
AcDbEntity
  8
0
100
AcDbCircle
 62
7
  6
BYLAYER
 10
9.5376668177
 20
28.9762980664
 40
3.5754465104
100
AcDbArc
 50
214.0558364937
 51
215.6600917783
  0
ARC
  5
2C5
100
AcDbEntity
  8
0
100
AcDbCircle
 62
7
  6
BYLAYER
 10
9.4564872837
 20
28.921012711
 40
3.4772300843
100
AcDbArc
 50
213.232268479
 51
214.05018634
  0
ARC
  5
2C6
100
AcDbEntity
  8
0
100
AcDbCircle
 62
7
  6
BYLAYER
 10
8.7387396213
 20
43.2201677539
 40
3.2693898144
100
AcDbArc
 50
180.0000673093
 51
180.303776041
  0
ARC
  5
2C7
100
AcDbEntity
  8
0
100
AcDbCircle
 62
7
  6
BYLAYER
 10
9.8756057366
 20
27.4233310077
 40
2.8062810648
100
AcDbArc
 50
209.7144237799
 51
211.4572655052
  0
ARC
  5
2C8
100
AcDbEntity
  8
0
100
AcDbCircle
 62
7
  6
BYLAYER
 10
9.6724266492
 20
25.7072143914
 40
2.7082288755
100
AcDbArc
 50
160.5985533742
 51
163.312070671
  0
ARC
  5
2C9
100
AcDbEntity
  8
0
100
AcDbCircle
 62
7
  6
BYLAYER
 10
9.5901907398
 20
25.7309511178
 40
2.6226404337
100
AcDbArc
 50
163.292894773
 51
167.9595287499
  0
ARC
  5
2CA
100
AcDbEntity
  8
0
100
AcDbCircle
 62
7
  6
BYLAYER
 10
9.4986212164
 20
25.7492448768
 40
2.529269559
100
AcDbArc
 50
167.9321109928
 51
179.9545559247
  0
ARC
  5
2CB
100
AcDbEntity
  8
0
100
AcDbCircle
 62
7
  6
BYLAYER
 10
18.3791980011
 20
46.5713541139
 40
0.6677035867
100
AcDbArc
 50
60.1147533673
 51
60.6300730054
  0
ARC
  5
2CC
100
AcDbEntity
  8
0
100
AcDbCircle
 62
7
  6
BYLAYER
 10
26.4774383962
 20
48.1667633909
 40
27.1538654684
100
AcDbArc
 50
271.498014265
 51
272.0818199055
  0
ARC
  5
2CD
100
AcDbEntity
  8
0
100
AcDbCircle
 62
7
  6
BYLAYER
 10
26.4969959464
 20
47.6828811125
 40
26.6695917646
100
AcDbArc
 50
272.0994186005
 51
272.3752202872
  0
ARC
  5
2CE
100
AcDbEntity
  8
0
100
AcDbCircle
 62
7
  6
BYLAYER
 10
29.1120294292
 20
31.0134096354
 40
6.6830575359
100
AcDbArc
 50
1.7548345908
 51
1.9254455885
  0
ARC
  5
2CF
100
AcDbEntity
  8
0
100
AcDbCircle
 62
7
  6
BYLAYER
 10
36.7850127966
 20
22.2493530555
 40
5.6227939251
100
AcDbArc
 50
0.0107392794
 51
1.6308171188
  0
ARC
  5
2D0
100
AcDbEntity
  8
0
100
AcDbCircle
 62
7
  6
BYLAYER
 10
35.5123067928
 20
24.514677334
 40
5.5880327927
100
AcDbArc
 50
58.3356689009
 51
59.9958318213
  0
ARC
  5
2D1
100
AcDbEntity
  8
0
100
AcDbCircle
 62
7
  6
BYLAYER
 10
38.661270989
 20
23.2314655951
 40
5.1635915307
100
AcDbArc
 50
239.9950862784
 51
241.8217251042
  0
ARC
  5
2D2
100
AcDbEntity
  8
0
100
AcDbCircle
 62
7
  6
BYLAYER
 10
31.6797451531
 20
28.2601959654
 40
3.9623240527
100
AcDbArc
 50
120.0177861918
 51
122.1137795529
  0
ARC
  5
2D3
100
AcDbEntity
  8
0
100
AcDbCircle
 62
7
  6
BYLAYER
 10
31.093839313
 20
31.7880256331
 40
3.5113709861
100
AcDbArc
 50
22.2307142845
 51
25.1173305046
  0
ARC
  5
2D4
100
AcDbEntity
  8
0
100
AcDbCircle
 62
7
  6
BYLAYER
 10
27.4511036665
 20
25.4436768039
 40
3.4818607217
100
AcDbArc
 50
274.8503427186
 51
277.7843858104
  0
ARC
  5
2D5
100
AcDbEntity
  8
0
100
AcDbCircle
 62
7
  6
BYLAYER
 10
32.4104485993
 20
32.560991625
 40
2.9343945691
100
AcDbArc
 50
39.1138031587
 51
43.8013857219
  0
ARC
  5
2D6
100
AcDbEntity
  8
0
100
AcDbCircle
 62
7
  6
BYLAYER
 10
26.8807185768
 20
24.0550328603
 40
2.8452250451
100
AcDbArc
 50
252.2582214758
 51
256.4824376183
  0
ARC
  5
2D7
100
AcDbEntity
  8
0
100
AcDbCircle
 62
7
  6
BYLAYER
 10
32.0404939099
 20
32.9901757929
 40
2.8422873515
100
AcDbArc
 50
42.2344584908
 51
47.7497788728
  0
ARC
  5
2D8
100
AcDbEntity
  8
0
100
AcDbCircle
 62
7
  6
BYLAYER
 10
30.9203205397
 20
30.1054921352
 40
1.9609454687
100
AcDbArc
 50
94.7178822637
 51
96.4815802541
  0
ARC
  5
2D9
100
AcDbEntity
  8
0
100
AcDbCircle
 62
7
  6
BYLAYER
 10
33.6552589458
 20
22.9924762802
 40
1.3594240411
100
AcDbArc
 50
240.0159814246
 51
247.532240408
  0
ARC
  5
2DA
100
AcDbEntity
  8
0
100
AcDbCircle
 62
7
  6
BYLAYER
 10
40.7160476403
 20
25.0967718442
 40
1.33785873
100
AcDbArc
 50
60.0044124155
 51
66.681508592
  0
ARC
  5
2DB
100
AcDbEntity
  8
0
100
AcDbCircle
 62
7
  6
BYLAYER
 10
34.3666038202
 20
23.2210267104
 40
0.7074856831
100
AcDbArc
 50
72.751870519
 51
75.5846995505
  0
ARC
  5
2DC
100
AcDbEntity
  8
0
100
AcDbCircle
 62
7
  6
BYLAYER
 10
35.164500287
 20
21.8222403398
 40
0.4326294312
100
AcDbArc
 50
300.0018601091
 51
306.4825305155
  0
ARC
  5
2DD
100
AcDbEntity
  8
0
100
AcDbCircle
 62
7
  6
BYLAYER
 10
34.3155643265
 20
23.1939690569
 40
0.387574275
100
AcDbArc
 50
114.7253122419
 51
119.8261170173
  0
ARC
  5
2DE
100
AcDbEntity
  8
0
100
AcDbCircle
 62
7
  6
BYLAYER
 10
28.7517407247
 20
97.6947088041
 40
76.6884933742
100
AcDbArc
 50
268.8310894754
 51
269.04605755
  0
ARC
  5
2DF
100
AcDbEntity
  8
0
100
AcDbCircle
 62
7
  6
BYLAYER
 10
28.6929666125
 20
93.5399772362
 40
72.5333393487
100
AcDbArc
 50
269.1767286142
 51
269.3597765537
  0
ARC
  5
2E0
100
AcDbEntity
  8
0
100
AcDbCircle
 62
7
  6
BYLAYER
 10
13.5606178505
 20
195.094266331
 40
170.4431201393
100
AcDbArc
 50
273.6442643024
 51
273.8656485766
  0
ARC
  5
2E1
100
AcDbEntity
  8
0
100
AcDbCircle
 62
7
  6
BYLAYER
 10
75.9252583798
 20
126.6329780923
 40
113.9542144012
100
AcDbArc
 50
243.1145589247
 51
243.484405581
  0
SPLINE
  5
2E2
100
AcDbEntity
  8
0
100
AcDbSpline
 62
7
  6
BYLAYER
 70
0
 71
3
 72
11
 73
7
 74
0
 42
0.0000001
 43
0.0000001
 44
0.0000000001
 40
0.0
 40
0.0
 40
0.0
 40
0.0
 40
0.2347796946
 40
0.4790237581
 40
0.7339126868
 40
1.0
 40
1.0
 40
1.0
 40
1.0
 10
33.9170820469
 20
23.5296826227
 30
0.0
 10
33.9054785622
 20
23.5125945356
 30
0.0
 10
33.8838284206
 20
23.4763179522
 30
0.0
 10
33.8567774233
 20
23.4175724219
 30
0.0
 10
33.8347161907
 20
23.3538649016
 30
0.0
 10
33.8236385449
 20
23.3093220452
 30
0.0
 10
33.8189099331
 20
23.2863948719
 30
0.0
  0
SPLINE
  5
2E3
100
AcDbEntity
  8
0
100
AcDbSpline
 62
7
  6
BYLAYER
 70
0
 71
3
 72
11
 73
7
 74
0
 42
0.0000001
 43
0.0000001
 44
0.0000000001
 40
0.0
 40
0.0
 40
0.0
 40
0.0
 40
0.277487866
 40
0.5360268591
 40
0.77614954
 40
1.0
 40
1.0
 40
1.0
 40
1.0
 10
34.7180182432
 20
21.4849111214
 30
0.0
 10
34.7560057392
 20
21.4629795265
 30
0.0
 10
34.8317431274
 20
21.4244841757
 30
0.0
 10
34.9476034099
 20
21.3829983036
 30
0.0
 10
35.0600278039
 20
21.3605028004
 30
0.0
 10
35.1338308831
 20
21.358495953
 30
0.0
 10
35.1691220927
 20
21.3610732443
 30
0.0
  0
SPLINE
  5
2E4
100
AcDbEntity
  8
0
100
AcDbSpline
 62
7
  6
BYLAYER
 70
0
 71
3
 72
23
 73
19
 74
0
 42
0.0000001
 43
0.0000001
 44
0.0000000001
 40
0.0
 40
0.0
 40
0.0
 40
0.0
 40
0.0512582492
 40
0.1057274703
 40
0.1632516086
 40
0.223608619
 40
0.2864545212
 40
0.3513699312
 40
0.4178800216
 40
0.4854645849
 40
0.5535767096
 40
0.6216565024
 40
0.6891437823
 40
0.7554957619
 40
0.8201953296
 40
0.8827678834
 40
0.9428262344
 40
1.0
 40
1.0
 40
1.0
 40
1.0
 10
33.8189099331
 20
23.2863948719
 30
0.0
 10
33.8115894538
 20
23.2509007559
 30
0.0
 10
33.8010442274
 20
23.1767012409
 30
0.0
 10
33.797000244
 20
23.0611699744
 30
0.0
 10
33.8042849354
 20
22.9393629201
 30
0.0
 10
33.8227841126
 20
22.8127877849
 30
0.0
 10
33.8522664723
 20
22.6829620339
 30
0.0
 10
33.8923682301
 20
22.5514714146
 30
0.0
 10
33.9426002177
 20
22.4199234001
 30
0.0
 10
34.0023462955
 20
22.2899282989
 30
0.0
 10
34.0708702801
 20
22.1630783356
 30
0.0
 10
34.147334957
 20
22.0409315195
 30
0.0
 10
34.2308030237
 20
21.9249860569
 30
0.0
 10
34.320249027
 20
21.8166621296
 30
0.0
 10
34.414575703
 20
21.71728966
 30
0.0
 10
34.5126436159
 20
21.6280721853
 30
0.0
 10
34.6132429727
 20
21.5501289398
 30
0.0
 10
34.68301017
 20
21.5051225846
 30
0.0
 10
34.7180182432
 20
21.4849111214
 30
0.0
  0
SPLINE
  5
2E5
100
AcDbEntity
  8
0
100
AcDbSpline
 62
7
  6
BYLAYER
 70
0
 71
3
 72
24
 73
20
 74
0
 42
0.0000001
 43
0.0000001
 44
0.0000000001
 40
0.0
 40
0.0
 40
0.0
 40
0.0
 40
0.0567868745
 40
0.086476552
 40
0.1169427124
 40
0.1799774811
 40
0.2454136051
 40
0.3126654077
 40
0.381109935
 40
0.4500944381
 40
0.5189544742
 40
0.5870377883
 40
0.6537220864
 40
0.7184421577
 40
0.7807125151
 40
0.8401512609
 40
0.896512784
 40
0.9497571289
 40
1.0
 40
1.0
 40
1.0
 40
1.0
 10
34.871310097
 20
23.76368142
 30
0.0
 10
34.9076635823
 20
23.737488418
 30
0.0
 10
34.9611484387
 20
23.6949248535
 30
0.0
 10
35.0294941664
 20
23.6329064419
 30
0.0
 10
35.0986291869
 20
23.564540352
 30
0.0
 10
35.1823198755
 20
23.4709595704
 30
0.0
 10
35.2764681764
 20
23.348377633
 30
0.0
 10
35.363936152
 20
23.2157972539
 30
0.0
 10
35.4433246957
 20
23.0750086089
 30
0.0
 10
35.5133348419
 20
22.9279198383
 30
0.0
 10
35.5727741996
 20
22.7765512706
 30
0.0
 10
35.6206011211
 20
22.6230125707
 30
0.0
 10
35.655927226
 20
22.4694602174
 30
0.0
 10
35.6780362012
 20
22.3180691498
 30
0.0
 10
35.6864020824
 20
22.1709966185
 30
0.0
 10
35.6806523414
 20
22.0303647317
 30
0.0
 10
35.660698585
 20
21.8981742373
 30
0.0
 10
35.626469394
 20
21.7764223232
 30
0.0
 10
35.5933812662
 20
21.7013772056
 30
0.0
 10
35.5745391375
 20
21.666497845
 30
0.0
  0
SPLINE
  5
2E6
100
AcDbEntity
  8
0
100
AcDbSpline
 62
7
  6
BYLAYER
 70
0
 71
3
 72
26
 73
22
 74
0
 42
0.0000001
 43
0.0000001
 44
0.0000000001
 40
0.0
 40
0.0
 40
0.0
 40
0.0
 40
0.0576856462
 40
0.1198560165
 40
0.1860152176
 40
0.2553432012
 40
0.3268736075
 40
0.3996065313
 40
0.4724414771
 40
0.5442549656
 40
0.6140017425
 40
0.6807719895
 40
0.7437805321
 40
0.8024980365
 40
0.8568374898
 40
0.8824753003
 40
0.9071807659
 40
0.9310881154
 40
0.954382411
 40
0.977275817
 40
1.0
 40
1.0
 40
1.0
 40
1.0
 10
35.2709554144
 20
22.2271358416
 30
0.0
 10
35.2725058275
 20
22.2595774856
 30
0.0
 10
35.2709512534
 20
22.3272580734
 30
0.0
 10
35.2562845106
 20
22.4311589853
 30
0.0
 10
35.2290919905
 20
22.5392703675
 30
0.0
 10
35.1900540962
 20
22.6492633831
 30
0.0
 10
35.1398518011
 20
22.7587155591
 30
0.0
 10
35.0792207837
 20
22.8650294763
 30
0.0
 10
35.0095836129
 20
22.9658640789
 30
0.0
 10
34.9323842184
 20
23.0588828682
 30
0.0
 10
34.8490379732
 20
23.1416904651
 30
0.0
 10
34.761499057
 20
23.2124342472
 30
0.0
 10
34.6716307426
 20
23.2694136647
 30
0.0
 10
34.5811991632
 20
23.3108220861
 30
0.0
 10
34.5055729834
 20
23.3319459323
 30
0.0
 10
34.4470425001
 20
23.3395766907
 30
0.0
 10
34.4051694009
 20
23.3407003093
 30
0.0
 10
34.364742965
 20
23.3372095787
 30
0.0
 10
34.3260114503
 20
23.3291309775
 30
0.0
 10
34.2892147489
 20
23.3165192368
 30
0.0
 10
34.2661090016
 20
23.3051107203
 30
0.0
 10
34.2550287394
 20
23.2987135661
 30
0.0
  0
SPLINE
  5
2E7
100
AcDbEntity
  8
0
100
AcDbSpline
 62
7
  6
BYLAYER
 70
0
 71
3
 72
14
 73
10
 74
0
 42
0.0000001
 43
0.0000001
 44
0.0000000001
 40
0.0
 40
0.0
 40
0.0
 40
0.0
 40
0.1076407209
 40
0.2175243941
 40
0.3314400095
 40
0.45081872
 40
0.5767289318
 40
0.7099549908
 40
1.0
 40
1.0
 40
1.0
 40
1.0
 10
35.2476237457
 20
21.6785755522
 30
0.0
 10
35.2634719529
 20
21.6877254643
 30
0.0
 10
35.2940586072
 20
21.7088443471
 30
0.0
 10
35.3348853093
 20
21.7480048296
 30
0.0
 10
35.3704234388
 20
21.7945464877
 30
0.0
 10
35.4004466834
 20
21.847927361
 30
0.0
 10
35.4247348257
 20
21.9076908931
 30
0.0
 10
35.4498695139
 20
21.9977694163
 30
0.0
 10
35.4580106582
 20
22.069846351
 30
0.0
 10
35.4596916683
 20
22.1191279912
 30
0.0
  0
SPLINE
  5
2E8
100
AcDbEntity
  8
0
100
AcDbSpline
 62
7
  6
BYLAYER
 70
0
 71
3
 72
29
 73
25
 74
0
 42
0.0000001
 43
0.0000001
 44
0.0000000001
 40
0.0
 40
0.0
 40
0.0
 40
0.0
 40
0.0584852063
 40
0.1211909
 40
0.1876050033
 40
0.2569662249
 40
0.3283416279
 40
0.4007706975
 40
0.4732446109
 40
0.544714739
 40
0.5797658611
 40
0.6142004907
 40
0.6808043338
 40
0.7128147875
 40
0.7438503492
 40
0.7738475571
 40
0.8027656124
 40
0.8573302603
 40
0.8830784361
 40
0.9078674192
 40
0.9317950512
 40
0.9549996843
 40
0.977665493
 40
1.0
 40
1.0
 40
1.0
 40
1.0
 10
35.459734307
 20
22.1204035639
 30
0.0
 10
35.4611273887
 20
22.1629474063
 30
0.0
 10
35.4580533293
 20
22.2513575203
 30
0.0
 10
35.438011025
 20
22.3866628439
 30
0.0
 10
35.4022914542
 20
22.5268778024
 30
0.0
 10
35.3516828628
 20
22.6691047933
 30
0.0
 10
35.2872189972
 20
22.8104321137
 30
0.0
 10
35.2098209095
 20
22.9477210278
 30
0.0
 10
35.1211048845
 20
23.0780529133
 30
0.0
 10
35.038784667
 20
23.1792619576
 30
0.0
 10
34.9686894035
 20
23.2542214964
 30
0.0
 10
34.8976072707
 20
23.3232376445
 30
0.0
 10
34.8232177282
 20
23.3855584785
 30
0.0
 10
34.7460824247
 20
23.439985326
 30
0.0
 10
34.6885250094
 20
23.4757420933
 30
0.0
 10
34.6307921881
 20
23.5067275959
 30
0.0
 10
34.5554496458
 20
23.5406636539
 30
0.0
 10
34.4794548281
 20
23.5653727438
 30
0.0
 10
34.404139281
 20
23.579262766
 30
0.0
 10
34.3500622201
 20
23.5840309324
 30
0.0
 10
34.2976219991
 20
23.5832465211
 30
0.0
 10
34.247118926
 20
23.5767733285
 30
0.0
 10
34.1988623498
 20
23.5646531653
 30
0.0
 10
34.1682192875
 20
23.5528114631
 30
0.0
 10
34.1534542564
 20
23.5460118721
 30
0.0
  0
SPLINE
  5
2E9
100
AcDbEntity
  8
0
100
AcDbSpline
 62
7
  6
BYLAYER
 70
0
 71
3
 72
11
 73
7
 74
0
 42
0.0000001
 43
0.0000001
 44
0.0000000001
 40
0.0
 40
0.0
 40
0.0
 40
0.0
 40
0.2441075359
 40
0.4906635221
 40
0.7419384821
 40
1.0
 40
1.0
 40
1.0
 40
1.0
 10
34.196727268
 20
23.873088463
 30
0.0
 10
34.1840274048
 20
23.8657483288
 30
0.0
 10
34.1593557178
 20
23.8494568448
 30
0.0
 10
34.1252149881
 20
23.8206357326
 30
0.0
 10
34.0940075453
 20
23.7875057502
 30
0.0
 10
34.0755237828
 20
23.7630283381
 30
0.0
 10
34.0668123251
 20
23.7501995952
 30
0.0
  0
SPLINE
  5
2EA
100
AcDbEntity
  8
0
100
AcDbSpline
 62
7
  6
BYLAYER
 70
0
 71
3
 72
39
 73
35
 74
0
 42
0.0000001
 43
0.0000001
 44
0.0000000001
 40
0.0
 40
0.0
 40
0.0
 40
0.0
 40
0.0213241127
 40
0.043128299
 40
0.0657988074
 40
0.089636298
 40
0.1148624813
 40
0.1416371514
 40
0.170069206
 40
0.2001769742
 40
0.2319011615
 40
0.2651477033
 40
0.2998014239
 40
0.3357206387
 40
0.3727049237
 40
0.4105309502
 40
0.4489683057
 40
0.487785542
 40
0.5267426489
 40
0.5655861433
 40
0.6040628391
 40
0.6419267462
 40
0.6789491648
 40
0.7149330077
 40
0.7496988278
 40
0.7830874884
 40
0.8149728309
 40
0.8452949976
 40
0.874071018
 40
0.9013701444
 40
0.9273303973
 40
0.9521832962
 40
0.9762719508
 40
1.0
 40
1.0
 40
1.0
 40
1.0
 10
34.1251208674
 20
23.5236303306
 30
0.0
 10
34.1063486283
 20
23.5127922328
 30
0.0
 10
34.0701764457
 20
23.4875845882
 30
0.0
 10
34.0223161531
 20
23.4404422379
 30
0.0
 10
33.9811225009
 20
23.384198289
 30
0.0
 10
33.9468647911
 20
23.3195712764
 30
0.0
 10
33.9198367861
 20
23.2471653934
 30
0.0
 10
33.9003356891
 20
23.1675897094
 30
0.0
 10
33.8887244911
 20
23.0815002833
 30
0.0
 10
33.8850575806
 20
22.9896991828
 30
0.0
 10
33.8893044949
 20
22.8930412296
 30
0.0
 10
33.901478999
 20
22.7924139447
 30
0.0
 10
33.9215951269
 20
22.6887285695
 30
0.0
 10
33.9496148952
 20
22.5829670901
 30
0.0
 10
33.985184788
 20
22.4761045147
 30
0.0
 10
34.0279762799
 20
22.3691651115
 30
0.0
 10
34.0776419634
 20
22.263179375
 30
0.0
 10
34.1338617334
 20
22.1592099967
 30
0.0
 10
34.1961382048
 20
22.0582677935
 30
0.0
 10
34.2638141134
 20
21.9612849335
 30
0.0
 10
34.3362639489
 20
21.8692208899
 30
0.0
 10
34.4128519683
 20
21.7830217012
 30
0.0
 10
34.4929721182
 20
21.7036472987
 30
0.0
 10
34.5758089235
 20
21.6318259339
 30
0.0
 10
34.6605535815
 20
21.5682310845
 30
0.0
 10
34.7464097579
 20
21.5135297401
 30
0.0
 10
34.832622493
 20
21.4684075949
 30
0.0
 10
34.9184133417
 20
21.4334514537
 30
0.0
 10
35.002924988
 20
21.4089164644
 30
0.0
 10
35.0853742482
 20
21.3950930085
 30
0.0
 10
35.1649819772
 20
21.3922646621
 30
0.0
 10
35.2409465658
 20
21.4008380368
 30
0.0
 10
35.3124006874
 20
21.4207747428
 30
0.0
 10
35.3566471468
 20
21.4415421371
 30
0.0
 10
35.3775356446
 20
21.4536020434
 30
0.0
  0
SPLINE
  5
2EB
100
AcDbEntity
  8
0
100
AcDbSpline
 62
7
  6
BYLAYER
 70
0
 71
3
 72
11
 73
7
 74
0
 42
0.0000001
 43
0.0000001
 44
0.0000000001
 40
0.0
 40
0.0
 40
0.0
 40
0.0
 40
0.2387794627
 40
0.4833691383
 40
0.7364181011
 40
1.0
 40
1.0
 40
1.0
 40
1.0
 10
35.4217320832
 20
21.4743897574
 30
0.0
 10
35.4375979504
 20
21.4861180084
 30
0.0
 10
35.4681368136
 20
21.51207703
 30
0.0
 10
35.5090014818
 20
21.5573846236
 30
0.0
 10
35.5449856571
 20
21.6091581018
 30
0.0
 10
35.565181799
 20
21.6468819635
 30
0.0
 10
35.5744537193
 20
21.6665892981
 30
0.0
  0
SPLINE
  5
2EC
100
AcDbEntity
  8
0
100
AcDbSpline
 62
7
  6
BYLAYER
 70
0
 71
3
 72
39
 73
35
 74
0
 42
0.0000001
 43
0.0000001
 44
0.0000000001
 40
0.0
 40
0.0
 40
0.0
 40
0.0
 40
0.0209980689
 40
0.042493839
 40
0.0648678848
 40
0.0884162899
 40
0.1133611698
 40
0.1398661055
 40
0.168043464
 40
0.1979089959
 40
0.2294066942
 40
0.2624478068
 40
0.296923699
 40
0.3326941552
 40
0.3695582792
 40
0.4072951825
 40
0.4456777306
 40
0.4844779356
 40
0.523454536
 40
0.5623517567
 40
0.6009150269
 40
0.6388977485
 40
0.6760715185
 40
0.712235729
 40
0.7472056715
 40
0.7808180585
 40
0.8129442822
 40
0.8435247238
 40
0.8725716822
 40
0.9001503763
 40
0.92639759
 40
0.9515477192
 40
0.9759467277
 40
1.0
 40
1.0
 40
1.0
 40
1.0
 10
34.2550287394
 20
23.2987135661
 30
0.0
 10
34.2405137437
 20
23.2903333794
 30
0.0
 10
34.2125296015
 20
23.2708276076
 30
0.0
 10
34.1755009568
 20
23.2343129253
 30
0.0
 10
34.1435883059
 20
23.1907207778
 30
0.0
 10
34.1170163653
 20
23.1405859911
 30
0.0
 10
34.0960329277
 20
23.0843592272
 30
0.0
 10
34.0808889726
 20
23.0224963183
 30
0.0
 10
34.0718782926
 20
22.9555014081
 30
0.0
 10
34.0690288445
 20
22.8839950656
 30
0.0
 10
34.0723454663
 20
22.8086354572
 30
0.0
 10
34.0818541649
 20
22.7301050143
 30
0.0
 10
34.0975898043
 20
22.6491101328
 30
0.0
 10
34.1195145181
 20
22.5664129362
 30
0.0
 10
34.1473602321
 20
22.4827754369
 30
0.0
 10
34.1808883189
 20
22.3990023174
 30
0.0
 10
34.2198421956
 20
22.3159007695
 30
0.0
 10
34.2639866151
 20
22.23430898
 30
0.0
 10
34.3129188862
 20
22.155013872
 30
0.0
 10
34.3661374297
 20
22.0787595964
 30
0.0
 10
34.4231598405
 20
22.006310252
 30
0.0
 10
34.4835002186
 20
21.9384226291
 30
0.0
 10
34.5466811855
 20
21.8758564192
 30
0.0
 10
34.6120542858
 20
21.8191856589
 30
0.0
 10
34.6789897851
 20
21.7689626445
 30
0.0
 10
34.7468613622
 20
21.725729598
 30
0.0
 10
34.8150808465
 20
21.6900523963
 30
0.0
 10
34.8830205284
 20
21.6623842856
 30
0.0
 10
34.9500034881
 20
21.6429436736
 30
0.0
 10
35.0154062842
 20
21.6319830636
 30
0.0
 10
35.078608614
 20
21.6297520134
 30
0.0
 10
35.1389667356
 20
21.6365909868
 30
0.0
 10
35.1957918547
 20
21.6524518482
 30
0.0
 10
35.2309968289
 20
21.6689760546
 30
0.0
 10
35.2476237457
 20
21.6785755522
 30
0.0
  0
SPLINE
  5
2ED
100
AcDbEntity
  8
0
100
AcDbSpline
 62
7
  6
BYLAYER
 70
0
 71
3
 72
38
 73
34
 74
0
 42
0.0000001
 43
0.0000001
 44
0.0000000001
 40
0.0
 40
0.0
 40
0.0
 40
0.0
 40
0.0213304148
 40
0.0431409488
 40
0.0658183748
 40
0.0896673879
 40
0.1149067476
 40
0.141690233
 40
0.1701220903
 40
0.2002319015
 40
0.2319601759
 40
0.2652087148
 40
0.2998568468
 40
0.3357652778
 40
0.372741527
 40
0.4105610859
 40
0.4877660104
 40
0.5267115466
 40
0.5655459336
 40
0.6040172188
 40
0.6418795497
 40
0.7148429823
 40
0.7496106699
 40
0.7830074535
 40
0.8149078437
 40
0.8452425634
 40
0.8740286112
 40
0.9013392382
 40
0.9273128871
 40
0.9398735955
 40
0.9521937047
 40
0.976281044
 40
1.0
 40
1.0
 40
1.0
 40
1.0
 10
34.1210789111
 20
23.5292139179
 30
0.0
 10
34.1022336015
 20
23.5182789641
 30
0.0
 10
34.0659294567
 20
23.4928682058
 30
0.0
 10
34.0178648468
 20
23.4454427569
 30
0.0
 10
33.9765147757
 20
23.3888597889
 30
0.0
 10
33.9421613401
 20
23.32384485
 30
0.0
 10
33.9150661622
 20
23.2510279624
 30
0.0
 10
33.8955096185
 20
23.1710352755
 30
0.0
 10
33.8838326838
 20
23.0845180135
 30
0.0
 10
33.8801825004
 20
22.9922622864
 30
0.0
 10
33.8844845317
 20
22.8951283161
 30
0.0
 10
33.896739818
 20
22.7940149668
 30
0.0
 10
33.916930102
 20
22.6898367727
 30
0.0
 10
33.9450508632
 20
22.5835785115
 30
0.0
 10
33.9807869706
 20
22.4762170633
 30
0.0
 10
34.0384881216
 20
22.3320039488
 30
0.0
 10
34.1094845669
 20
22.1912038355
 30
0.0
 10
34.19258963
 20
22.0563868764
 30
0.0
 10
34.2605531876
 20
21.9589334802
 30
0.0
 10
34.3333159255
 20
21.8664045369
 30
0.0
 10
34.4345736488
 20
21.7522940044
 30
0.0
 10
34.543622783
 20
21.6503920196
 30
0.0
 10
34.6589443382
 20
21.5637153117
 30
0.0
 10
34.7451901298
 20
21.5086530988
 30
0.0
 10
34.8317760564
 20
21.4631508498
 30
0.0
 10
34.9179586001
 20
21.4278605688
 30
0.0
 10
35.0028772015
 20
21.4030628367
 30
0.0
 10
35.0857264295
 20
21.3890066166
 30
0.0
 10
35.1531723993
 20
21.3864505697
 30
0.0
 10
35.2050260835
 20
21.390231594
 30
0.0
 10
35.2545270491
 20
21.3977071939
 30
0.0
 10
35.3140106685
 20
21.4140827622
 30
0.0
 10
35.3585246688
 20
21.4348016029
 30
0.0
 10
35.379547925
 20
21.446843633
 30
0.0
  0
SPLINE
  5
2EE
100
AcDbEntity
  8
0
100
AcDbSpline
 62
7
  6
BYLAYER
 70
0
 71
3
 72
20
 73
16
 74
0
 42
0.0000001
 43
0.0000001
 44
0.0000000001
 40
0.0
 40
0.0
 40
0.0
 40
0.0
 40
0.151812151
 40
0.2929206235
 40
0.4236817314
 40
0.4856240235
 40
0.5455507986
 40
0.6037834382
 40
0.6606989405
 40
0.7167267527
 40
0.7723301476
 40
0.8279923937
 40
0.8841938326
 40
0.9413922387
 40
1.0
 40
1.0
 40
1.0
 40
1.0
 10
34.7180182432
 20
23.6078174059
 30
0.0
 10
34.6788893706
 20
23.63040796
 30
0.0
 10
34.6008816655
 20
23.6698981748
 30
0.0
 10
34.4815559998
 20
23.7118258193
 30
0.0
 10
34.3834066374
 20
23.7302201411
 30
0.0
 10
34.3082161077
 20
23.7339642176
 30
0.0
 10
34.254582531
 20
23.7315065785
 30
0.0
 10
34.2029478382
 20
23.7238480396
 30
0.0
 10
34.1535454177
 20
23.7109960688
 30
0.0
 10
34.1066026557
 20
23.6930142175
 30
0.0
 10
34.0623430166
 20
23.669970937
 30
0.0
 10
34.0209757168
 20
23.6419760558
 30
0.0
 10
33.9826896415
 20
23.6091640197
 30
0.0
 10
33.947669551
 20
23.5716928
 30
0.0
 10
33.9268807517
 20
23.5441128672
 30
0.0
 10
33.9170820469
 20
23.5296826227
 30
0.0
  0
SPLINE
  5
2EF
100
AcDbEntity
  8
0
100
AcDbSpline
 62
7
  6
BYLAYER
 70
0
 71
3
 72
23
 73
19
 74
0
 42
0.0000001
 43
0.0000001
 44
0.0000000001
 40
0.0
 40
0.0
 40
0.0
 40
0.0
 40
0.0512582492
 40
0.1057274703
 40
0.1632516086
 40
0.223608619
 40
0.2864545212
 40
0.3513699312
 40
0.4178800216
 40
0.4854645849
 40
0.5535767096
 40
0.6216565024
 40
0.6891437823
 40
0.7554957619
 40
0.8201953296
 40
0.8827678834
 40
0.9428262344
 40
1.0
 40
1.0
 40
1.0
 40
1.0
 10
35.6171265534
 20
21.8063336554
 30
0.0
 10
35.6244470327
 20
21.8418277714
 30
0.0
 10
35.634992259
 20
21.9160272864
 30
0.0
 10
35.6390362425
 20
22.0315585528
 30
0.0
 10
35.6317515511
 20
22.1533656071
 30
0.0
 10
35.6132523738
 20
22.2799407423
 30
0.0
 10
35.5837700141
 20
22.4097664933
 30
0.0
 10
35.5436682563
 20
22.5412571127
 30
0.0
 10
35.4934362688
 20
22.6728051272
 30
0.0
 10
35.433690191
 20
22.8028002283
 30
0.0
 10
35.3651662064
 20
22.9296501917
 30
0.0
 10
35.2887015295
 20
23.0517970078
 30
0.0
 10
35.2052334628
 20
23.1677424703
 30
0.0
 10
35.1157874595
 20
23.2760663977
 30
0.0
 10
35.0214607835
 20
23.3754388673
 30
0.0
 10
34.9233928705
 20
23.464656342
 30
0.0
 10
34.8227935138
 20
23.5425995875
 30
0.0
 10
34.7530263165
 20
23.5876059426
 30
0.0
 10
34.7180182432
 20
23.6078174059
 30
0.0
  0
SPLINE
  5
2F0
100
AcDbEntity
  8
0
100
AcDbSpline
 62
7
  6
BYLAYER
 70
0
 71
3
 72
11
 73
7
 74
0
 42
0.0000001
 43
0.0000001
 44
0.0000000001
 40
0.0
 40
0.0
 40
0.0
 40
0.0
 40
0.2391865441
 40
0.4830970425
 40
0.7356466331
 40
1.0
 40
1.0
 40
1.0
 40
1.0
 10
35.3775356446
 20
21.4536020434
 30
0.0
 10
35.3973015725
 20
21.4650138377
 30
0.0
 10
35.4354402939
 20
21.4913153474
 30
0.0
 10
35.4863910917
 20
21.54000471
 30
0.0
 10
35.5307592282
 20
21.5977912709
 30
0.0
 10
35.5551483586
 20
21.6408553985
 30
0.0
 10
35.5662124048
 20
21.6635246691
 30
0.0
  0
SPLINE
  5
2F1
100
AcDbEntity
  8
0
100
AcDbSpline
 62
7
  6
BYLAYER
 70
0
 71
3
 72
9
 73
5
 74
0
 42
0.0000001
 43
0.0000001
 44
0.0000000001
 40
0.0
 40
0.0
 40
0.0
 40
0.0
 40
0.2407059259
 40
1.0
 40
1.0
 40
1.0
 40
1.0
 10
35.5662124048
 20
21.6635246691
 30
0.0
 10
35.5715545377
 20
21.6744702357
 30
0.0
 10
35.5923994403
 20
21.720597217
 30
0.0
 10
35.6079352643
 20
21.7690551514
 30
0.0
 10
35.6170845956
 20
21.8063698953
 30
0.0
  0
SPLINE
  5
2F2
100
AcDbEntity
  8
0
100
AcDbSpline
 62
7
  6
BYLAYER
 70
0
 71
3
 72
27
 73
23
 74
0
 42
0.0000001
 43
0.0000001
 44
0.0000000001
 40
0.0
 40
0.0
 40
0.0
 40
0.0
 40
0.0588200945
 40
0.1219930574
 40
0.1889852785
 40
0.2589601967
 40
0.3309386209
 40
0.4039120393
 40
0.4767943757
 40
0.5484794835
 40
0.6179383959
 40
0.6842956059
 40
0.7160847388
 40
0.7468333516
 40
0.8049861873
 40
0.8587281322
 40
0.8840629273
 40
0.9084639743
 40
0.9320628944
 40
0.9550421624
 40
0.9776120363
 40
1.0
 40
1.0
 40
1.0
 40
1.0
 10
35.4547891344
 20
22.1210017796
 30
0.0
 10
35.4563238964
 20
22.1642566041
 30
0.0
 10
35.4532841563
 20
22.2542492285
 30
0.0
 10
35.432596474
 20
22.3920237341
 30
0.0
 10
35.3955627726
 20
22.5348179074
 30
0.0
 10
35.3431482584
 20
22.6795757155
 30
0.0
 10
35.2763331506
 20
22.8231454011
 30
0.0
 10
35.1961375444
 20
22.9621650755
 30
0.0
 10
35.1044558376
 20
23.0936229698
 30
0.0
 10
35.0032224309
 20
23.2145572244
 30
0.0
 10
34.8943094849
 20
23.321908656
 30
0.0
 10
34.7978795769
 20
23.3992240212
 30
0.0
 10
34.7189372849
 20
23.4518944876
 30
0.0
 10
34.6420922739
 20
23.4965092505
 30
0.0
 10
34.54616826
 20
23.5400266331
 30
0.0
 10
34.4482904703
 20
23.5670105071
 30
0.0
 10
34.3726474953
 20
23.5766458223
 30
0.0
 10
34.3185954015
 20
23.5779652526
 30
0.0
 10
34.2664518427
 20
23.5733662829
 30
0.0
 10
34.2165336626
 20
23.5628719589
 30
0.0
 10
34.1691416857
 20
23.5465726956
 30
0.0
 10
34.1393877098
 20
23.5318672508
 30
0.0
 10
34.1251208674
 20
23.5236303306
 30
0.0
  0
SPLINE
  5
2F3
100
AcDbEntity
  8
0
100
AcDbSpline
 62
7
  6
BYLAYER
 70
0
 71
3
 72
11
 73
7
 74
0
 42
0.0000001
 43
0.0000001
 44
0.0000000001
 40
0.0
 40
0.0
 40
0.0
 40
0.0
 40
0.2692261919
 40
0.5259248602
 40
0.7694660429
 40
1.0
 40
1.0
 40
1.0
 40
1.0
 10
34.8585349103
 20
23.7506918721
 30
0.0
 10
34.8353258972
 20
23.7674464417
 30
0.0
 10
34.7888304296
 20
23.7986127145
 30
0.0
 10
34.7176299036
 20
23.8390610702
 30
0.0
 10
34.6472015288
 20
23.8720685404
 30
0.0
 10
34.5997904081
 20
23.8894323924
 30
0.0
 10
34.5763806807
 20
23.896696497
 30
0.0
  0
SPLINE
  5
2F4
100
AcDbEntity
  8
0
100
AcDbSpline
 62
7
  6
BYLAYER
 70
0
 71
3
 72
13
 73
9
 74
0
 42
0.0000001
 43
0.0000001
 44
0.0000000001
 40
0.0
 40
0.0
 40
0.0
 40
0.0
 40
0.2737943359
 40
0.5278936736
 40
0.6492549736
 40
0.7677802356
 40
0.8843747024
 40
1.0
 40
1.0
 40
1.0
 40
1.0
 10
34.5427313423
 20
23.9062384205
 30
0.0
 10
34.5112318447
 20
23.9143192369
 30
0.0
 10
34.449244855
 20
23.9255796908
 30
0.0
 10
34.3716479198
 20
23.9260109041
 30
0.0
 10
34.3135006272
 20
23.9175134982
 30
0.0
 10
34.2723900727
 20
23.9070430137
 30
0.0
 10
34.2332902621
 20
23.8924392323
 30
0.0
 10
34.208617393
 20
23.8799605932
 30
0.0
 10
34.196727268
 20
23.873088463
 30
0.0
  0
SPLINE
  5
2F5
100
AcDbEntity
  8
0
100
AcDbSpline
 62
7
  6
BYLAYER
 70
0
 71
3
 72
25
 73
21
 74
0
 42
0.0000001
 43
0.0000001
 44
0.0000000001
 40
0.0
 40
0.0
 40
0.0
 40
0.0
 40
0.0531545883
 40
0.0808101451
 40
0.1091688052
 40
0.1679110167
 40
0.2291997374
 40
0.2927152577
 40
0.35805566
 40
0.4247601192
 40
0.49232153
 40
0.560204571
 40
0.6278598976
 40
0.6947369981
 40
0.7603027358
 40
0.8240484073
 40
0.885503351
 40
0.915254615
 40
0.944292665
 40
1.0
 40
1.0
 40
1.0
 40
1.0
 10
35.6171265534
 20
21.8063336554
 30
0.0
 10
35.6289495945
 20
21.8434882533
 30
0.0
 10
35.6431564115
 20
21.9012316047
 30
0.0
 10
35.6558305679
 20
21.9803201377
 30
0.0
 10
35.6648294816
 20
22.0640514463
 30
0.0
 10
35.6683579807
 20
22.1730185843
 30
0.0
 10
35.6606439045
 20
22.3075918376
 30
0.0
 10
35.6413593694
 20
22.4458726377
 30
0.0
 10
35.6109046878
 20
22.586180553
 30
0.0
 10
35.569799072
 20
22.7268291467
 30
0.0
 10
35.5187038237
 20
22.8661440933
 30
0.0
 10
35.4583935354
 20
23.0024822762
 30
0.0
 10
35.3897416281
 20
23.1342482125
 30
0.0
 10
35.3137202333
 20
23.2599217357
 30
0.0
 10
35.231364798
 20
23.3780644325
 30
0.0
 10
35.1438008924
 20
23.4873474437
 30
0.0
 10
35.066652511
 20
23.5709651427
 30
0.0
 10
35.0032065235
 20
23.6322690542
 30
0.0
 10
34.940513955
 20
23.6881778059
 30
0.0
 10
34.8916666715
 20
23.726774078
 30
0.0
 10
34.8585349104
 20
23.7506918722
 30
0.0
  0
SPLINE
  5
2F6
100
AcDbEntity
  8
0
100
AcDbSpline
 62
7
  6
BYLAYER
 70
0
 71
3
 72
11
 73
7
 74
0
 42
0.0000001
 43
0.0000001
 44
0.0000000001
 40
0.0
 40
0.0
 40
0.0
 40
0.0
 40
0.2577378362
 40
0.5086068798
 40
0.7551157069
 40
1.0
 40
1.0
 40
1.0
 40
1.0
 10
35.1691220927
 20
21.3610732443
 30
0.0
 10
35.1891298515
 20
21.3625343964
 30
0.0
 10
35.2284945092
 20
21.3676619653
 30
0.0
 10
35.2855487461
 20
21.3823969924
 30
0.0
 10
35.3393197514
 20
21.4039576719
 30
0.0
 10
35.3727456647
 20
21.4228172796
 30
0.0
 10
35.3886933859
 20
21.4332564408
 30
0.0
  0
SPLINE
  5
2F7
100
AcDbEntity
  8
0
100
AcDbSpline
 62
7
  6
BYLAYER
 70
0
 71
3
 72
11
 73
7
 74
0
 42
0.0000001
 43
0.0000001
 44
0.0000000001
 40
0.0
 40
0.0
 40
0.0
 40
0.0
 40
0.2381082316
 40
0.4818030107
 40
0.7348402134
 40
1.0
 40
1.0
 40
1.0
 40
1.0
 10
35.3886933859
 20
21.4332564408
 30
0.0
 10
35.4087781901
 20
21.4464036801
 30
0.0
 10
35.4472720089
 20
21.476447015
 30
0.0
 10
35.4977968061
 20
21.5310245703
 30
0.0
 10
35.5410474293
 20
21.594819444
 30
0.0
 10
35.5642067474
 20
21.641842936
 30
0.0
 10
35.5745391374
 20
21.666497845
 30
0.0
  0
SPLINE
  5
2F8
100
AcDbEntity
  8
0
100
AcDbSpline
 62
7
  6
BYLAYER
 70
0
 71
3
 72
27
 73
23
 74
0
 42
0.0000001
 43
0.0000001
 44
0.0000000001
 40
0.0
 40
0.0
 40
0.0
 40
0.0
 40
0.029804648
 40
0.06041319
 40
0.1237972964
 40
0.1897751366
 40
0.2578024792
 40
0.3272183437
 40
0.3972930174
 40
0.4672634069
 40
0.536372011
 40
0.6039037312
 40
0.6692257056
 40
0.7318275424
 40
0.7913646983
 40
0.8477013031
 40
0.8747098563
 40
0.9009822659
 40
0.9265716758
 40
0.951548933
 40
0.9759940013
 40
1.0
 40
1.0
 40
1.0
 40
1.0
 10
17.9620070377
 20
22.8683012002
 30
0.0
 10
17.8583777991
 20
22.8084711885
 30
0.0
 10
17.6447396666
 20
22.6933050689
 30
0.0
 10
17.1949923612
 20
22.4812968306
 30
0.0
 10
16.5936019627
 20
22.2526837709
 30
0.0
 10
15.8291869629
 20
22.039951779
 30
0.0
 10
15.0257215405
 20
21.8883736884
 30
0.0
 10
14.1963936116
 20
21.8001120587
 30
0.0
 10
13.3549361769
 20
21.7764424738
 30
0.0
 10
12.5153906088
 20
21.8177227822
 30
0.0
 10
11.6917496997
 20
21.9233380017
 30
0.0
 10
10.8976192188
 20
22.0917583216
 30
0.0
 10
10.1459201811
 20
22.3206485073
 30
0.0
 10
9.4485902393
 20
22.6070971404
 30
0.0
 10
8.8166162936
 20
22.9477748534
 30
0.0
 10
8.346013865
 20
23.2788484624
 30
0.0
 10
8.0140310403
 20
23.5682694901
 30
0.0
 10
7.7910960336
 20
23.7935862227
 30
0.0
 10
7.5919384985
 20
24.0296330966
 30
0.0
 10
7.4178118025
 20
24.2758367446
 30
0.0
 10
7.2699913218
 20
24.5313752385
 30
0.0
 10
7.1892439938
 20
24.7087709356
 30
0.0
 10
7.1538934836
 20
24.7984338652
 30
0.0
  0
SPLINE
  5
2F9
100
AcDbEntity
  8
0
100
AcDbSpline
 62
7
  6
BYLAYER
 70
0
 71
3
 72
11
 73
7
 74
0
 42
0.0000001
 43
0.0000001
 44
0.0000000001
 40
0.0
 40
0.0
 40
0.0
 40
0.0
 40
0.252761164
 40
0.5031466535
 40
0.7519740822
 40
1.0
 40
1.0
 40
1.0
 40
1.0
 10
7.1538934836
 20
24.7984338652
 30
0.0
 10
7.1237342559
 20
24.8749296415
 30
0.0
 10
7.0703563501
 20
25.0299374192
 30
0.0
 10
7.0122673549
 20
25.2679251588
 30
0.0
 10
6.9771744888
 20
25.5088242226
 30
0.0
 10
6.9693299262
 20
25.6705649905
 30
0.0
 10
6.9693524531
 20
25.7512509635
 30
0.0
  0
SPLINE
  5
2FA
100
AcDbEntity
  8
0
100
AcDbSpline
 62
7
  6
BYLAYER
 70
0
 71
3
 72
11
 73
7
 74
0
 42
0.0000001
 43
0.0000001
 44
0.0000000001
 40
0.0
 40
0.0
 40
0.0
 40
0.0
 40
0.2362377684
 40
0.4812177646
 40
0.7357726963
 40
1.0
 40
1.0
 40
1.0
 40
1.0
 10
19.3131661475
 20
23.9938315831
 30
0.0
 10
19.226488273
 20
23.8848661516
 30
0.0
 10
19.0370402484
 20
23.6729123873
 30
0.0
 10
18.7159720629
 20
23.3804495443
 30
0.0
 10
18.3560138875
 20
23.1091805553
 30
0.0
 10
18.0968752376
 20
22.9461669269
 30
0.0
 10
17.9620070377
 20
22.8683012002
 30
0.0
  0
SPLINE
  5
2FB
100
AcDbEntity
  8
0
100
AcDbSpline
 62
7
  6
BYLAYER
 70
0
 71
3
 72
17
 73
13
 74
0
 42
0.0000001
 43
0.0000001
 44
0.0000000001
 40
0.0
 40
0.0
 40
0.0
 40
0.0
 40
0.1485777315
 40
0.289445909
 40
0.4226432408
 40
0.5485392866
 40
0.6678753697
 40
0.7817916375
 40
0.8372269267
 40
0.8919110692
 40
0.946084839
 40
1.0
 40
1.0
 40
1.0
 40
1.0
 10
36.2205088754
 20
18.6782340186
 30
0.0
 10
36.3513419396
 20
18.6026953571
 30
0.0
 10
36.6124777228
 20
18.4659696879
 30
0.0
 10
37.0108288594
 20
18.3029381329
 30
0.0
 10
37.4020578034
 20
18.1888769601
 30
0.0
 10
37.7825266651
 20
18.1250496135
 30
0.0
 10
38.1486172196
 20
18.1122900408
 30
0.0
 10
38.4415947495
 20
18.1449938068
 30
0.0
 10
38.6635494463
 20
18.1972077038
 30
0.0
 10
38.8226918378
 20
18.2486570318
 30
0.0
 10
38.9755515427
 20
18.3125939301
 30
0.0
 10
39.0731239199
 20
18.3635187663
 30
0.0
 10
39.1205994552
 20
18.3909307803
 30
0.0
  0
SPLINE
  5
2FC
100
AcDbEntity
  8
0
100
AcDbSpline
 62
7
  6
BYLAYER
 70
0
 71
3
 72
18
 73
14
 74
0
 42
0.0000001
 43
0.0000001
 44
0.0000000001
 40
0.0
 40
0.0
 40
0.0
 40
0.0
 40
0.1485489198
 40
0.2894275286
 40
0.422606334
 40
0.5484932411
 40
0.6678195408
 40
0.7254034179
 40
0.7818086373
 40
0.837239639
 40
0.891919755
 40
0.9460889577
 40
1.0
 40
1.0
 40
1.0
 40
1.0
 10
42.4078066229
 20
22.2504069683
 30
0.0
 10
42.4078066229
 20
22.0993518113
 30
0.0
 10
42.3956284621
 20
21.8048376346
 30
0.0
 10
42.3376575286
 20
21.3783494098
 30
0.0
 10
42.2408004026
 20
20.9824858933
 30
0.0
 10
42.1058843125
 20
20.6211239393
 30
0.0
 10
41.9607488654
 20
20.3483247298
 30
0.0
 10
41.8267977528
 20
20.1522700449
 30
0.0
 10
41.7189559001
 20
20.01769106
 30
0.0
 10
41.6028419666
 20
19.8942009391
 30
0.0
 10
41.4787284398
 20
19.7820988079
 30
0.0
 10
41.3469154883
 20
19.6817024268
 30
0.0
 10
41.254030941
 20
19.622662835
 30
0.0
 10
41.206555775
 20
19.5952510342
 30
0.0
  0
SPLINE
  5
2FD
100
AcDbEntity
  8
0
100
AcDbSpline
 62
7
  6
BYLAYER
 70
0
 71
3
 72
14
 73
10
 74
0
 42
0.0000001
 43
0.0000001
 44
0.0000000001
 40
0.0
 40
0.0
 40
0.0
 40
0.0
 40
0.2664586108
 40
0.3968964715
 40
0.5246951947
 40
0.6493375403
 40
0.7703588906
 40
0.8873563197
 40
1.0
 40
1.0
 40
1.0
 40
1.0
 10
33.6311767243
 20
21.1516131038
 30
0.0
 10
33.8022980119
 20
20.8974016025
 30
0.0
 10
34.0755863012
 20
20.5305678682
 30
0.0
 10
34.4720711884
 20
20.0754284652
 30
0.0
 10
34.7784919939
 20
19.758889872
 30
0.0
 10
35.0939001657
 20
19.4670339114
 30
0.0
 10
35.4161390147
 20
19.2018376632
 30
0.0
 10
35.7429728948
 20
18.9651482281
 30
0.0
 10
35.966902473
 20
18.8246599146
 30
0.0
 10
36.0790917287
 20
18.7598855876
 30
0.0
  0
SPLINE
  5
2FE
100
AcDbEntity
  8
0
100
AcDbSpline
 62
7
  6
BYLAYER
 70
0
 71
3
 72
17
 73
13
 74
0
 42
0.0000001
 43
0.0000001
 44
0.0000000001
 40
0.0
 40
0.0
 40
0.0
 40
0.0
 40
0.053915161
 40
0.1080889308
 40
0.1627730733
 40
0.2182083625
 40
0.3321246303
 40
0.4514607134
 40
0.5773567592
 40
0.710554091
 40
0.8514222685
 40
1.0
 40
1.0
 40
1.0
 40
1.0
 10
35.4065846592
 20
29.6411556548
 30
0.0
 10
35.4540601946
 20
29.6685676688
 30
0.0
 10
35.5516325717
 20
29.719492505
 30
0.0
 10
35.7044922767
 20
29.7834294033
 30
0.0
 10
35.8636346682
 20
29.8348787313
 30
0.0
 10
36.0855893649
 20
29.8870926283
 30
0.0
 10
36.3785668948
 20
29.9197963943
 30
0.0
 10
36.7446574493
 20
29.9070368216
 30
0.0
 10
37.125126311
 20
29.843209475
 30
0.0
 10
37.516355255
 20
29.7291483022
 30
0.0
 10
37.9147063916
 20
29.5661167472
 30
0.0
 10
38.1758421748
 20
29.429391078
 30
0.0
 10
38.306675239
 20
29.3538524165
 30
0.0
  0
SPLINE
  5
2FF
100
AcDbEntity
  8
0
100
AcDbSpline
 62
7
  6
BYLAYER
 70
0
 71
3
 72
23
 73
19
 74
0
 42
0.0000001
 43
0.0000001
 44
0.0000000001
 40
0.0
 40
0.0
 40
0.0
 40
0.0
 40
0.055838603
 40
0.114179682
 40
0.1747837254
 40
0.2373539719
 40
0.3015490271
 40
0.3669926288
 40
0.433282442
 40
0.4999994939
 40
0.566716715
 40
0.6330066989
 40
0.6984500112
 40
0.7626456007
 40
0.8252164497
 40
0.8858172651
 40
0.9441668035
 40
1.0
 40
1.0
 40
1.0
 40
1.0
 10
38.4480923841
 20
29.2722008484
 30
0.0
 10
38.5807583962
 20
29.1956038808
 30
0.0
 10
38.8453360424
 20
29.0271432709
 30
0.0
 10
39.2290820599
 20
28.7389401485
 30
0.0
 10
39.605317946
 20
28.4120971159
 30
0.0
 10
39.9704389786
 20
28.0497643919
 30
0.0
 10
40.3209815406
 20
27.6553919926
 30
0.0
 10
40.6535914342
 20
27.2327423656
 30
0.0
 10
40.9650939733
 20
26.7858576184
 30
0.0
 10
41.2525151353
 20
26.3190155165
 30
0.0
 10
41.5131023817
 20
25.8366800597
 30
0.0
 10
41.7443540586
 20
25.343463338
 30
0.0
 10
41.9440695819
 20
24.844087025
 30
0.0
 10
42.1103373709
 20
24.3433203139
 30
0.0
 10
42.2415564459
 20
23.8459532839
 30
0.0
 10
42.3364951852
 20
23.3566858098
 30
0.0
 10
42.3941940915
 20
22.8802488096
 30
0.0
 10
42.4078054454
 20
22.5668797381
 30
0.0
 10
42.4078054454
 20
22.41370395
 30
0.0
  0
SPLINE
  5
300
100
AcDbEntity
  8
0
100
AcDbSpline
 62
7
  6
BYLAYER
 70
0
 71
3
 72
32
 73
28
 74
0
 42
0.0000001
 43
0.0000001
 44
0.0000000001
 40
0.0
 40
0.0
 40
0.0
 40
0.0
 40
0.030266946
 40
0.0615556463
 40
0.0937861882
 40
0.1268870738
 40
0.1607790635
 40
0.1953662872
 40
0.2661921965
 40
0.3384952518
 40
0.4113243428
 40
0.4837074765
 40
0.5546907811
 40
0.6233788389
 40
0.6889770547
 40
0.7204203636
 40
0.750864429
 40
0.7802618008
 40
0.8085804738
 40
0.8358091616
 40
0.8619567516
 40
0.887057965
 40
0.9111727582
 40
0.9343912134
 40
0.9568319011
 40
0.9786434639
 40
1.0
 40
1.0
 40
1.0
 40
1.0
 10
40.0390075907
 20
21.0460860345
 30
0.0
 10
40.0390075907
 20
21.1559425642
 30
0.0
 10
40.0320282069
 20
21.3794109586
 30
0.0
 10
40.001992145
 20
21.7186521654
 30
0.0
 10
39.9522952785
 20
22.0659687018
 30
0.0
 10
39.88323356
 20
22.4195724758
 30
0.0
 10
39.7951319149
 20
22.7777316657
 30
0.0
 10
39.6517698686
 20
23.2627562916
 30
0.0
 10
39.4275049927
 20
23.8684965341
 30
0.0
 10
39.0943096014
 20
24.5789434963
 30
0.0
 10
38.7014310016
 20
25.2647534276
 30
0.0
 10
38.2566709868
 20
25.912310657
 30
0.0
 10
37.7687998835
 20
26.5088371089
 30
0.0
 10
37.247487986
 20
27.0425078118
 30
0.0
 10
36.7872423019
 20
27.4315793759
 30
0.0
 10
36.4107840724
 20
27.7009847628
 30
0.0
 10
36.1306939455
 20
27.8783398791
 30
0.0
 10
35.8503153313
 20
28.0329736227
 30
0.0
 10
35.5710053808
 20
28.1640785575
 30
0.0
 10
35.294161606
 20
28.2710257963
 30
0.0
 10
35.0211264773
 20
28.3532217947
 30
0.0
 10
34.7532579707
 20
28.4102728539
 30
0.0
 10
34.4918634668
 20
28.4418027251
 30
0.0
 10
34.238253536
 20
28.4476504434
 30
0.0
 10
33.993694661
 20
28.4276629696
 30
0.0
 10
33.7594905674
 20
28.3819413654
 30
0.0
 10
33.6098649583
 20
28.3339819321
 30
0.0
 10
33.5376259684
 20
28.3058720011
 30
0.0
  0
SPLINE
  5
301
100
AcDbEntity
  8
0
100
AcDbSpline
 62
7
  6
BYLAYER
 70
0
 71
3
 72
28
 73
24
 74
0
 42
0.0000001
 43
0.0000001
 44
0.0000000001
 40
0.0
 40
0.0
 40
0.0
 40
0.0
 40
0.0732720183
 40
0.1427500038
 40
0.2085026231
 40
0.2707598244
 40
0.3299322739
 40
0.3866183039
 40
0.4142869898
 40
0.4416381715
 40
0.4687896858
 40
0.4958640097
 40
0.5229854638
 40
0.5502771279
 40
0.5778586328
 40
0.6058425373
 40
0.6633878443
 40
0.7236690062
 40
0.7550231536
 40
0.7872412584
 40
0.8543832216
 40
0.9253106666
 40
1.0
 40
1.0
 40
1.0
 40
1.0
 10
36.2229375435
 20
18.6798496728
 30
0.0
 10
36.3462317394
 20
18.6138359315
 30
0.0
 10
36.5920013356
 20
18.4952102726
 30
0.0
 10
36.9658283259
 20
18.3568390337
 30
0.0
 10
37.3319826871
 20
18.2640042851
 30
0.0
 10
37.6872015502
 20
18.2177408109
 30
0.0
 10
38.028230859
 20
18.2186762865
 30
0.0
 10
38.3003090659
 20
18.2594423754
 30
0.0
 10
38.5061188384
 20
18.3158846266
 30
0.0
 10
38.6537151207
 20
18.369461829
 30
0.0
 10
38.7953818545
 20
18.434500008
 30
0.0
 10
38.9307766767
 20
18.5108684099
 30
0.0
 10
39.0595870809
 20
18.5983585079
 30
0.0
 10
39.1815024953
 20
18.6967680246
 30
0.0
 10
39.2962268766
 20
18.8058765726
 30
0.0
 10
39.440583509
 20
18.9666701786
 30
0.0
 10
39.6019193716
 20
19.1947930731
 30
0.0
 10
39.7324475153
 20
19.4488403071
 30
0.0
 10
39.8202857108
 20
19.6684430723
 30
0.0
 10
39.8988911588
 20
19.9053739648
 30
0.0
 10
39.9743214395
 20
20.2222534091
 30
0.0
 10
40.0277627755
 20
20.6253994689
 30
0.0
 10
40.0390075907
 20
20.9035263319
 30
0.0
 10
40.0390075907
 20
21.0460860345
 30
0.0
  0
SPLINE
  5
302
100
AcDbEntity
  8
0
100
AcDbSpline
 62
7
  6
BYLAYER
 70
0
 71
3
 72
18
 73
14
 74
0
 42
0.0000001
 43
0.0000001
 44
0.0000000001
 40
0.0
 40
0.0
 40
0.0
 40
0.0
 40
0.0539110423
 40
0.108080245
 40
0.162760361
 40
0.2181913627
 40
0.2745965821
 40
0.3321804592
 40
0.4515067589
 40
0.577393666
 40
0.7105724714
 40
0.8514510802
 40
1.0
 40
1.0
 40
1.0
 40
1.0
 10
39.1205994552
 20
18.3909307803
 30
0.0
 10
39.1680746213
 20
18.4183425811
 30
0.0
 10
39.2609591685
 20
18.4773821729
 30
0.0
 10
39.3927721201
 20
18.577778554
 30
0.0
 10
39.5168856468
 20
18.6898806852
 30
0.0
 10
39.6329995803
 20
18.8133708061
 30
0.0
 10
39.740841433
 20
18.9479497909
 30
0.0
 10
39.8747925457
 20
19.1440044759
 30
0.0
 10
40.0199279927
 20
19.4168036854
 30
0.0
 10
40.1548440828
 20
19.7781656394
 30
0.0
 10
40.2517012088
 20
20.1740291559
 30
0.0
 10
40.3096721423
 20
20.6005173807
 30
0.0
 10
40.3218503032
 20
20.8950315573
 30
0.0
 10
40.3218503032
 20
21.0460867144
 30
0.0
  0
SPLINE
  5
303
100
AcDbEntity
  8
0
100
AcDbSpline
 62
7
  6
BYLAYER
 70
0
 71
3
 72
33
 73
29
 74
0
 42
0.0000001
 43
0.0000001
 44
0.0000000001
 40
0.0
 40
0.0
 40
0.0
 40
0.0
 40
0.0304953516
 40
0.0620409677
 40
0.0945530514
 40
0.1279563285
 40
0.1621659181
 40
0.1970799157
 40
0.2685608172
 40
0.3414765215
 40
0.4148219308
 40
0.4875740172
 40
0.5587348888
 40
0.6273764484
 40
0.6605042168
 40
0.6927109615
 40
0.7239232378
 40
0.7540813804
 40
0.7831432794
 40
0.8110857374
 40
0.8379078243
 40
0.8636335554
 40
0.8883142926
 40
0.9120320629
 40
0.9348998797
 40
0.9570633558
 40
0.9786968832
 40
1.0
 40
1.0
 40
1.0
 40
1.0
 10
40.3218503032
 20
21.0460867144
 30
0.0
 10
40.3218503032
 20
21.1624644373
 30
0.0
 10
40.3142863398
 20
21.3992794947
 30
0.0
 10
40.2817628505
 20
21.7588289904
 30
0.0
 10
40.2279662253
 20
22.1270340933
 30
0.0
 10
40.1532260771
 20
22.5019167544
 30
0.0
 10
40.0579169777
 20
22.8815596759
 30
0.0
 10
39.9028916223
 20
23.3954285685
 30
0.0
 10
39.6606143129
 20
24.0364374854
 30
0.0
 10
39.3011048069
 20
24.7866523723
 30
0.0
 10
38.8778972799
 20
25.5085217013
 30
0.0
 10
38.3997523964
 20
26.1870924953
 30
0.0
 10
37.8765785514
 20
26.8083150728
 30
0.0
 10
37.4064722625
 20
27.2730660065
 30
0.0
 10
37.0166356717
 20
27.6041862052
 30
0.0
 10
36.7234907512
 20
27.8276934766
 30
0.0
 10
36.4277014005
 20
28.0281407488
 30
0.0
 10
36.1307754605
 20
28.2044616247
 30
0.0
 10
35.8342621692
 20
28.3557495477
 30
0.0
 10
35.5396804408
 20
28.4811923393
 30
0.0
 10
35.2485485789
 20
28.5801262966
 30
0.0
 10
34.9623598396
 20
28.6520078526
 30
0.0
 10
34.6825835202
 20
28.6964110532
 30
0.0
 10
34.4106680106
 20
28.7130638045
 30
0.0
 10
34.1480412606
 20
28.7017791799
 30
0.0
 10
33.8960965433
 20
28.6625668596
 30
0.0
 10
33.6562760171
 20
28.5955388602
 30
0.0
 10
33.5046060399
 20
28.5322179465
 30
0.0
 10
33.4317053891
 20
28.4962339968
 30
0.0
  0
SPLINE
  5
304
100
AcDbEntity
  8
0
100
AcDbSpline
 62
7
  6
BYLAYER
 70
0
 71
3
 72
23
 73
19
 74
0
 42
0.0000001
 43
0.0000001
 44
0.0000000001
 40
0.0
 40
0.0
 40
0.0
 40
0.0
 40
0.0563690816
 40
0.1150580066
 40
0.1758332023
 40
0.2384135715
 40
0.3024806826
 40
0.3676875575
 40
0.4336653779
 40
0.5000314013
 40
0.5663963098
 40
0.6323703841
 40
0.6975708711
 40
0.7616299334
 40
0.8242002691
 40
0.8849600262
 40
0.9436385059
 40
1.0
 40
1.0
 40
1.0
 40
1.0
 10
38.4456992634
 20
29.2708647888
 30
0.0
 10
38.5769109023
 20
29.1899716952
 30
0.0
 10
38.8381873578
 20
29.0140437718
 30
0.0
 10
39.2169640765
 20
28.7172887518
 30
0.0
 10
39.5877285557
 20
28.3845758088
 30
0.0
 10
39.9472199262
 20
28.0188437021
 30
0.0
 10
40.2923141489
 20
27.6232926915
 30
0.0
 10
40.6199813427
 20
27.2013825483
 30
0.0
 10
40.9273484513
 20
26.7568096482
 30
0.0
 10
41.2117299098
 20
26.2934797249
 30
0.0
 10
41.4706266324
 20
25.8154534986
 30
0.0
 10
41.7017590033
 20
25.3269207007
 30
0.0
 10
41.9031137239
 20
24.8321714393
 30
0.0
 10
42.0729233586
 20
24.335537286
 30
0.0
 10
42.20967978
 20
23.8413733664
 30
0.0
 10
42.3122172362
 20
23.3539802951
 30
0.0
 10
42.3796087584
 20
22.87763287
 30
0.0
 10
42.4011523727
 20
22.5634342391
 30
0.0
 10
42.4055292232
 20
22.4093737511
 30
0.0
  0
SPLINE
  5
305
100
AcDbEntity
  8
0
100
AcDbSpline
 62
7
  6
BYLAYER
 70
0
 71
3
 72
11
 73
7
 74
0
 42
0.0000001
 43
0.0000001
 44
0.0000000001
 40
0.0
 40
0.0
 40
0.0
 40
0.0
 40
0.262508611
 40
0.5145712818
 40
0.7592126523
 40
1.0
 40
1.0
 40
1.0
 40
1.0
 10
37.8384263686
 20
29.6247089833
 30
0.0
 10
37.7913621723
 20
29.7179453863
 30
0.0
 10
37.687758469
 20
29.8953142808
 30
0.0
 10
37.5005613527
 20
30.1336507829
 30
0.0
 10
37.2865542159
 20
30.3359634276
 30
0.0
 10
37.1266516981
 20
30.4459250328
 30
0.0
 10
37.0436839039
 20
30.4938199211
 30
0.0
  0
SPLINE
  5
306
100
AcDbEntity
  8
0
100
AcDbSpline
 62
7
  6
BYLAYER
 70
0
 71
3
 72
11
 73
7
 74
0
 42
0.0000001
 43
0.0000001
 44
0.0000000001
 40
0.0
 40
0.0
 40
0.0
 40
0.0
 40
0.2445623386
 40
0.4877523551
 40
0.7375249546
 40
1.0
 40
1.0
 40
1.0
 40
1.0
 10
28.5490057557
 20
31.9170090065
 30
0.0
 10
28.5490057531
 20
31.9024249918
 30
0.0
 10
28.5526591718
 20
31.8731714243
 30
0.0
 10
28.5699418594
 20
31.8321258607
 30
0.0
 10
28.5984565872
 20
31.7965610085
 30
0.0
 10
28.6233087247
 20
31.7781901774
 30
0.0
 10
28.6368640087
 20
31.7703642076
 30
0.0
  0
SPLINE
  5
307
100
AcDbEntity
  8
0
100
AcDbSpline
 62
7
  6
BYLAYER
 70
0
 71
3
 72
15
 73
11
 74
0
 42
0.0000001
 43
0.0000001
 44
0.0000000001
 40
0.0
 40
0.0
 40
0.0
 40
0.0
 40
0.0991639067
 40
0.2122493786
 40
0.3366708819
 40
0.4696629201
 40
0.6075663881
 40
0.7458179802
 40
0.8787876244
 40
1.0
 40
1.0
 40
1.0
 40
1.0
 10
30.758173754
 20
32.0682519881
 30
0.0
 10
30.7727429273
 20
32.0699555959
 30
0.0
 10
30.8042211923
 20
32.0711220575
 30
0.0
 10
30.8539638205
 20
32.0676771647
 30
0.0
 10
30.9081723583
 20
32.0592259759
 30
0.0
 10
30.965204678
 20
32.0461267027
 30
0.0
 10
31.0232590124
 20
32.0288922936
 30
0.0
 10
31.0801829748
 20
32.0082366757
 30
0.0
 10
31.133469744
 20
31.9851234249
 30
0.0
 10
31.166910009
 20
31.9678351487
 30
0.0
 10
31.1824378227
 20
31.9588703641
 30
0.0
  0
SPLINE
  5
308
100
AcDbEntity
  8
0
100
AcDbSpline
 62
7
  6
BYLAYER
 70
0
 71
3
 72
9
 73
5
 74
0
 42
0.0000001
 43
0.0000001
 44
0.0000000001
 40
0.0
 40
0.0
 40
0.0
 40
0.0
 40
0.2636458356
 40
1.0
 40
1.0
 40
1.0
 40
1.0
 10
34.6363217796
 20
31.9189924653
 30
0.0
 10
34.624413014
 20
32.0268517278
 30
0.0
 10
34.5672085347
 20
32.4343754404
 30
0.0
 10
34.4589052739
 20
32.8359729324
 30
0.0
 10
34.3442027353
 20
33.1165074074
 30
0.0
  0
SPLINE
  5
309
100
AcDbEntity
  8
0
100
AcDbSpline
 62
7
  6
BYLAYER
 70
0
 71
3
 72
10
 73
6
 74
0
 42
0.0000001
 43
0.0000001
 44
0.0000000001
 40
0.0
 40
0.0
 40
0.0
 40
0.0
 40
0.2702954654
 40
0.5270958491
 40
1.0
 40
1.0
 40
1.0
 40
1.0
 10
29.6975179981
 20
31.6910540803
 30
0.0
 10
29.7858532704
 20
31.7420541691
 30
0.0
 10
29.9622683973
 20
31.8346969005
 30
0.0
 10
30.3109691518
 20
31.9794329047
 30
0.0
 10
30.5809229306
 20
32.0475256311
 30
0.0
 10
30.758173754
 20
32.0682519881
 30
0.0
  0
SPLINE
  5
30A
100
AcDbEntity
  8
0
100
AcDbSpline
 62
7
  6
BYLAYER
 70
0
 71
3
 72
9
 73
5
 74
0
 42
0.0000001
 43
0.0000001
 44
0.0000000001
 40
0.0
 40
0.0
 40
0.0
 40
0.0
 40
0.2544345279
 40
1.0
 40
1.0
 40
1.0
 40
1.0
 10
29.2707361232
 20
31.4077264556
 30
0.0
 10
29.2956598029
 20
31.4264531641
 30
0.0
 10
29.3943476457
 20
31.499074459
 30
0.0
 10
29.4959854754
 20
31.5677061408
 30
0.0
 10
29.5733645901
 20
31.6162610456
 30
0.0
  0
SPLINE
  5
30B
100
AcDbEntity
  8
0
100
AcDbSpline
 62
7
  6
BYLAYER
 70
0
 71
3
 72
14
 73
10
 74
0
 42
0.0000001
 43
0.0000001
 44
0.0000000001
 40
0.0
 40
0.0
 40
0.0
 40
0.0
 40
0.1178417293
 40
0.2364268637
 40
0.3564738115
 40
0.4786691784
 40
0.6036471767
 40
0.7319705236
 40
1.0
 40
1.0
 40
1.0
 40
1.0
 10
31.5437785207
 20
20.9674888512
 30
0.0
 10
31.5956042523
 20
20.9375713676
 30
0.0
 10
31.7026044567
 20
20.8826192795
 30
0.0
 10
31.871155122
 20
20.8158653637
 30
0.0
 10
32.0474430221
 20
20.7648957844
 30
0.0
 10
32.2308616769
 20
20.7298821386
 30
0.0
 10
32.4208487846
 20
20.7108872622
 30
0.0
 10
32.6857900851
 20
20.7069841112
 30
0.0
 10
32.8869292457
 20
20.7285817538
 30
0.0
 10
33.0209443046
 20
20.7523582896
 30
0.0
  0
SPLINE
  5
30C
100
AcDbEntity
  8
0
100
AcDbSpline
 62
7
  6
BYLAYER
 70
0
 71
3
 72
25
 73
21
 74
0
 42
0.0000001
 43
0.0000001
 44
0.0000000001
 40
0.0
 40
0.0
 40
0.0
 40
0.0
 40
0.0216386779
 40
0.0434295455
 40
0.0655166393
 40
0.0880356301
 40
0.1347960832
 40
0.1845435908
 40
0.2377738767
 40
0.2947174344
 40
0.3553756931
 40
0.419557668
 40
0.486921012
 40
0.5570042715
 40
0.6292513195
 40
0.7030414693
 40
0.7777048588
 40
0.8525425976
 40
0.9268878918
 40
1.0
 40
1.0
 40
1.0
 40
1.0
 10
32.975875333
 20
21.8149909808
 30
0.0
 10
32.9358621338
 20
21.8380925482
 30
0.0
 10
32.8578879774
 20
21.8886395391
 30
0.0
 10
32.7486963406
 20
21.9764458701
 30
0.0
 10
32.647455177
 20
22.0760311147
 30
0.0
 10
32.5220969548
 20
22.2258496895
 30
0.0
 10
32.3871611971
 20
22.442933623
 30
0.0
 10
32.2649927177
 20
22.7397201064
 30
0.0
 10
32.181509482
 20
23.0718981538
 30
0.0
 10
32.1375837923
 20
23.4348478749
 30
0.0
 10
32.1336127103
 20
23.823668818
 30
0.0
 10
32.1695276316
 20
24.2330766598
 30
0.0
 10
32.2447721973
 20
24.6574848789
 30
0.0
 10
32.3583057292
 20
25.0910581898
 30
0.0
 10
32.5085418307
 20
25.5278161502
 30
0.0
 10
32.6933896986
 20
25.9617127625
 30
0.0
 10
32.9102816358
 20
26.3867146315
 30
0.0
 10
33.1562294886
 20
26.7969780844
 30
0.0
 10
33.4277988939
 20
27.1866954696
 30
0.0
 10
33.6256303583
 20
27.4320456409
 30
0.0
 10
33.7280540298
 20
27.5498579776
 30
0.0
  0
SPLINE
  5
30D
100
AcDbEntity
  8
0
100
AcDbSpline
 62
7
  6
BYLAYER
 70
0
 71
3
 72
11
 73
7
 74
0
 42
0.0000001
 43
0.0000001
 44
0.0000000001
 40
0.0
 40
0.0
 40
0.0
 40
0.0
 40
0.2378846644
 40
0.481974565
 40
0.7352190614
 40
1.0
 40
1.0
 40
1.0
 40
1.0
 10
26.2379596262
 20
22.14540646
 30
0.0
 10
26.35039712
 20
22.0973851515
 30
0.0
 10
26.5859726304
 20
22.0173630479
 30
0.0
 10
26.9587950494
 20
21.948814005
 30
0.0
 10
27.3511823738
 20
21.9309443296
 30
0.0
 10
27.6173108213
 20
21.9522702704
 30
0.0
 10
27.7521502933
 20
21.9706514966
 30
0.0
  0
SPLINE
  5
30E
100
AcDbEntity
  8
0
100
AcDbSpline
 62
7
  6
BYLAYER
 70
0
 71
3
 72
10
 73
6
 74
0
 42
0.0000001
 43
0.0000001
 44
0.0000000001
 40
0.0
 40
0.0
 40
0.0
 40
0.0
 40
0.2373397779
 40
0.608847046
 40
1.0
 40
1.0
 40
1.0
 40
1.0
 10
27.9227062758
 20
21.9939021642
 30
0.0
 10
28.0166405328
 20
22.006704628
 30
0.0
 10
28.2563850322
 20
22.0490367937
 30
0.0
 10
28.6424658349
 20
22.1542288012
 30
0.0
 10
28.927643787
 20
22.2627774741
 30
0.0
 10
29.0711343391
 20
22.3245989925
 30
0.0
  0
SPLINE
  5
30F
100
AcDbEntity
  8
0
100
AcDbSpline
 62
7
  6
BYLAYER
 70
0
 71
3
 72
10
 73
6
 74
0
 42
0.0000001
 43
0.0000001
 44
0.0000000001
 40
0.0
 40
0.0
 40
0.0
 40
0.0
 40
0.4998695433
 40
0.7498933039
 40
1.0
 40
1.0
 40
1.0
 40
1.0
 10
33.0209594901
 20
20.7523495224
 30
0.0
 10
33.1396832424
 20
20.8288862257
 30
0.0
 10
33.317234614
 20
20.9445727824
 30
0.0
 10
33.552547641
 20
21.1010431656
 30
0.0
 10
33.6696789658
 20
21.1801309762
 30
0.0
 10
33.7280540298
 20
21.2199746209
 30
0.0
  0
SPLINE
  5
310
100
AcDbEntity
  8
0
100
AcDbSpline
 62
7
  6
BYLAYER
 70
0
 71
3
 72
11
 73
7
 74
0
 42
0.0000001
 43
0.0000001
 44
0.0000000001
 40
0.0
 40
0.0
 40
0.0
 40
0.0
 40
0.2651058499
 40
0.5183002901
 40
0.7621865643
 40
1.0
 40
1.0
 40
1.0
 40
1.0
 10
34.2790530946
 20
33.2758329856
 30
0.0
 10
34.2256334767
 20
33.4064810754
 30
0.0
 10
34.1063077
 20
33.6562172706
 30
0.0
 10
33.8844587346
 20
33.9974873358
 30
0.0
 10
33.6259155207
 20
34.292973937
 30
0.0
 10
33.4288026021
 20
34.4589488138
 30
0.0
 10
33.3257878409
 20
34.5325671801
 30
0.0
  0
SPLINE
  5
311
100
AcDbEntity
  8
0
100
AcDbSpline
 62
7
  6
BYLAYER
 70
0
 71
3
 72
25
 73
21
 74
0
 42
0.0000001
 43
0.0000001
 44
0.0000000001
 40
0.0
 40
0.0
 40
0.0
 40
0.0
 40
0.0213981856
 40
0.0429754469
 40
0.064903818
 40
0.0873406431
 40
0.1342246028
 40
0.1845337854
 40
0.2387483845
 40
0.2970175998
 40
0.359215722
 40
0.4249982046
 40
0.4938506198
 40
0.5651301858
 40
0.6381015619
 40
0.711967874
 40
0.7859049854
 40
0.8590791522
 40
0.9306993934
 40
1.0
 40
1.0
 40
1.0
 40
1.0
 10
26.9475677706
 20
23.6210580212
 30
0.0
 10
26.8879339938
 20
23.6554895346
 30
0.0
 10
26.771966456
 20
23.7314711317
 30
0.0
 10
26.610851163
 20
23.8650184529
 30
0.0
 10
26.4629236639
 20
24.0177516223
 30
0.0
 10
26.2815276051
 20
24.2492512832
 30
0.0
 10
26.0913920906
 20
24.5868870928
 30
0.0
 10
25.929119805
 20
25.0484609301
 30
0.0
 10
25.830801042
 20
25.5647617943
 30
0.0
 10
25.7975556532
 20
26.1272560533
 30
0.0
 10
25.8295703754
 20
26.7268719594
 30
0.0
 10
25.926178057
 20
27.3538269464
 30
0.0
 10
26.0857168
 20
27.997820366
 30
0.0
 10
26.3055195782
 20
28.6481969228
 30
0.0
 10
26.5819222294
 20
29.294144412
 30
0.0
 10
26.9103099964
 20
29.9249105516
 30
0.0
 10
27.2852119737
 20
30.5299494446
 30
0.0
 10
27.7003745406
 20
31.0992285907
 30
0.0
 10
28.1488493204
 20
31.6231439402
 30
0.0
 10
28.471484045
 20
31.9427638303
 30
0.0
 10
28.6368622423
 20
32.0923777413
 30
0.0
  0
SPLINE
  5
312
100
AcDbEntity
  8
0
100
AcDbSpline
 62
7
  6
BYLAYER
 70
0
 71
3
 72
15
 73
11
 74
0
 42
0.0000001
 43
0.0000001
 44
0.0000000001
 40
0.0
 40
0.0
 40
0.0
 40
0.0
 40
0.1188632046
 40
0.2487650926
 40
0.3845020363
 40
0.5212920432
 40
0.6547203243
 40
0.7809588724
 40
0.8969729338
 40
1.0
 40
1.0
 40
1.0
 40
1.0
 10
31.1824378227
 20
33.2400431615
 30
0.0
 10
31.1673588619
 20
33.2487488066
 30
0.0
 10
31.1347144418
 20
33.2651073089
 30
0.0
 10
31.0822770729
 20
33.285821622
 30
0.0
 10
31.0258512368
 20
33.3030909943
 30
0.0
 10
30.9677873607
 20
33.3161861384
 30
0.0
 10
30.9102590851
 20
33.3245690062
 30
0.0
 10
30.855245634
 20
33.3278625421
 30
0.0
 10
30.804622974
 20
33.325874803
 30
0.0
 10
30.7728149342
 20
33.3207707365
 30
0.0
 10
30.758173754
 20
33.317110203
 30
0.0
  0
SPLINE
  5
313
100
AcDbEntity
  8
0
100
AcDbSpline
 62
7
  6
BYLAYER
 70
0
 71
3
 72
27
 73
23
 74
0
 42
0.0000001
 43
0.0000001
 44
0.0000000001
 40
0.0
 40
0.0
 40
0.0
 40
0.0
 40
0.0705586914
 40
0.1430908454
 40
0.2168386496
 40
0.2910448383
 40
0.3649145683
 40
0.4376717625
 40
0.5085747728
 40
0.5769460877
 40
0.6422013893
 40
0.7038823511
 40
0.7616951786
 40
0.7891301693
 40
0.8155882803
 40
0.8656746749
 40
0.8894656214
 40
0.9125241829
 40
0.9349652723
 40
0.9569220509
 40
0.9785458337
 40
1.0
 40
1.0
 40
1.0
 40
1.0
 10
33.0209443046
 20
29.2392715296
 30
0.0
 10
32.8634352796
 20
29.0853413597
 30
0.0
 10
32.5571337532
 20
28.7594984308
 30
0.0
 10
32.1329670608
 20
28.2312953775
 30
0.0
 10
31.7429126367
 20
27.663532868
 30
0.0
 10
31.3931432679
 20
27.0652920537
 30
0.0
 10
31.089184981
 20
26.4459523761
 30
0.0
 10
30.8358355363
 20
25.8153156336
 30
0.0
 10
30.6370946661
 20
25.1833126991
 30
0.0
 10
30.4960937299
 20
24.5598859225
 30
0.0
 10
30.4150691878
 20
23.9547653279
 30
0.0
 10
30.3953562722
 20
23.3774340574
 30
0.0
 10
30.4310030101
 20
22.9189866918
 30
0.0
 10
30.4919778725
 20
22.5754226278
 30
0.0
 10
30.5706549089
 20
22.2603806256
 30
0.0
 10
30.6798812401
 20
21.9651500224
 30
0.0
 10
30.8211466434
 20
21.6971959835
 30
0.0
 10
30.939331071
 20
21.5156675911
 30
0.0
 10
31.0710233928
 20
21.3509390871
 30
0.0
 10
31.2157697067
 20
21.203722949
 30
0.0
 10
31.3729415079
 20
21.074668515
 30
0.0
 10
31.4857831089
 20
21.0009679113
 30
0.0
 10
31.5437785207
 20
20.9674888512
 30
0.0
  0
SPLINE
  5
314
100
AcDbEntity
  8
0
100
AcDbSpline
 62
7
  6
BYLAYER
 70
0
 71
3
 72
14
 73
10
 74
0
 42
0.0000001
 43
0.0000001
 44
0.0000000001
 40
0.0
 40
0.0
 40
0.0
 40
0.0
 40
0.2642216151
 40
0.3911978436
 40
0.5154629974
 40
0.6377050321
 40
0.7586767169
 40
0.8791719966
 40
1.0
 40
1.0
 40
1.0
 40
1.0
 10
34.2731766322
 20
33.2785089146
 30
0.0
 10
34.199995084
 20
33.434455197
 30
0.0
 10
34.0736028303
 20
33.6578122322
 30
0.0
 10
33.8701385848
 20
33.9257324471
 30
0.0
 10
33.705318541
 20
34.1054894784
 30
0.0
 10
33.5268717059
 20
34.2659206654
 30
0.0
 10
33.3353772385
 20
34.4064517055
 30
0.0
 10
33.1315731788
 20
34.5266035383
 30
0.0
 10
32.9884005116
 20
34.5925866466
 30
0.0
 10
32.9153139379
 20
34.6219802716
 30
0.0
  0
SPLINE
  5
315
100
AcDbEntity
  8
0
100
AcDbSpline
 62
7
  6
BYLAYER
 70
0
 71
3
 72
11
 73
7
 74
0
 42
0.0000001
 43
0.0000001
 44
0.0000000001
 40
0.0
 40
0.0
 40
0.0
 40
0.0
 40
0.2706262229
 40
0.5273366716
 40
0.7695958574
 40
1.0
 40
1.0
 40
1.0
 40
1.0
 10
28.6368622423
 20
32.0923777413
 30
0.0
 10
28.6233810806
 20
32.0801816395
 30
0.0
 10
28.5989975463
 20
32.0542002916
 30
0.0
 10
28.5708620294
 20
32.0104519209
 30
0.0
 10
28.5532219479
 20
31.9643428341
 30
0.0
 10
28.5490057584
 20
31.932486383
 30
0.0
 10
28.5490057557
 20
31.9170090065
 30
0.0
  0
SPLINE
  5
316
100
AcDbEntity
  8
0
100
AcDbSpline
 62
7
  6
BYLAYER
 70
0
 71
3
 72
30
 73
26
 74
0
 42
0.0000001
 43
0.0000001
 44
0.0000000001
 40
0.0
 40
0.0
 40
0.0
 40
0.0
 40
0.0757702141
 40
0.1532444399
 40
0.2313411572
 40
0.3089841005
 40
0.385098281
 40
0.4586823829
 40
0.5288483165
 40
0.5624310117
 40
0.5949104845
 40
0.6262340015
 40
0.6563718042
 40
0.713032124
 40
0.7396618394
 40
0.7652342617
 40
0.7898596461
 40
0.8136809116
 40
0.8368757475
 40
0.8596483051
 40
0.8822233142
 40
0.9048341892
 40
0.9277167662
 40
0.9510964109
 40
1.0
 40
1.0
 40
1.0
 40
1.0
 10
33.7280540298
 20
27.9550898735
 30
0.0
 10
33.585004293
 20
27.8004103505
 30
0.0
 10
33.3100961818
 20
27.4739670093
 30
0.0
 10
32.9391568646
 20
26.9475387838
 30
0.0
 10
32.610817178
 20
26.3874471532
 30
0.0
 10
32.3318827243
 20
25.8053815436
 30
0.0
 10
32.1081161559
 20
25.2132883436
 30
0.0
 10
31.9441464926
 20
24.6234468701
 30
0.0
 10
31.8588997549
 20
24.1367829175
 30
0.0
 10
31.8247434565
 20
23.7593478186
 30
0.0
 10
31.8160936605
 20
23.4885333112
 30
0.0
 10
31.8241456359
 20
23.2272356941
 30
0.0
 10
31.8563540429
 20
22.900224218
 30
0.0
 10
31.920965501
 20
22.5898771071
 30
0.0
 10
32.0211409701
 20
22.3038504748
 30
0.0
 10
32.1104941523
 20
22.1094250325
 30
0.0
 10
32.2151226115
 20
21.9317455367
 30
0.0
 10
32.3345925356
 20
21.7718122515
 30
0.0
 10
32.4682414988
 20
21.6304849185
 30
0.0
 10
32.6154325708
 20
21.5086466125
 30
0.0
 10
32.7752980761
 20
21.4069607316
 30
0.0
 10
32.9469454159
 20
21.3260465407
 30
0.0
 10
33.1294385601
 20
21.26634405
 30
0.0
 10
33.3894505876
 20
21.2146618733
 30
0.0
 10
33.5924373135
 20
21.210104882
 30
0.0
 10
33.7280540298
 20
21.2200584366
 30
0.0
  0
SPLINE
  5
317
100
AcDbEntity
  8
0
100
AcDbSpline
 62
7
  6
BYLAYER
 70
0
 71
3
 72
13
 73
9
 74
0
 42
0.0000001
 43
0.0000001
 44
0.0000000001
 40
0.0
 40
0.0
 40
0.0
 40
0.0
 40
0.1201133456
 40
0.2404134568
 40
0.3615552529
 40
0.4841680201
 40
0.7359193137
 40
1.0
 40
1.0
 40
1.0
 40
1.0
 10
26.0505259376
 20
22.3727942992
 30
0.0
 10
26.1095990938
 20
22.3333538468
 30
0.0
 10
26.2314854466
 20
22.2597203004
 30
0.0
 10
26.42404388
 20
22.1661582455
 30
0.0
 10
26.6256551377
 20
22.0898105026
 30
0.0
 10
26.9080886652
 20
22.0105264451
 30
0.0
 10
27.2836028852
 20
21.9563633032
 30
0.0
 10
27.5898990663
 20
21.9611017564
 30
0.0
 10
27.7455067438
 20
21.9742847947
 30
0.0
  0
SPLINE
  5
318
100
AcDbEntity
  8
0
100
AcDbSpline
 62
7
  6
BYLAYER
 70
0
 71
3
 72
14
 73
10
 74
0
 42
0.0000001
 43
0.0000001
 44
0.0000000001
 40
0.0
 40
0.0
 40
0.0
 40
0.0
 40
0.2718141163
 40
0.4009006189
 40
0.5259424368
 40
0.6475888357
 40
0.7665870663
 40
0.8837613553
 40
1.0
 40
1.0
 40
1.0
 40
1.0
 10
30.758173754
 20
33.317110203
 30
0.0
 10
30.9111298436
 20
33.3553517162
 30
0.0
 10
31.1415196745
 20
33.3956528511
 30
0.0
 10
31.4466436207
 20
33.408414385
 30
0.0
 10
31.6646758548
 20
33.3973920736
 30
0.0
 10
31.874806588
 20
33.3659705577
 30
0.0
 10
32.0761996926
 20
33.3142056236
 30
0.0
 10
32.267978383
 20
33.2423578557
 30
0.0
 10
32.3890785637
 20
33.1810937436
 30
0.0
 10
32.4474682257
 20
33.1473805607
 30
0.0
  0
SPLINE
  5
319
100
AcDbEntity
  8
0
100
AcDbSpline
 62
7
  6
BYLAYER
 70
0
 71
3
 72
14
 73
10
 74
0
 42
0.0000001
 43
0.0000001
 44
0.0000000001
 40
0.0
 40
0.0
 40
0.0
 40
0.0
 40
0.1178417239
 40
0.2364268591
 40
0.3564738219
 40
0.4786692059
 40
0.6036471916
 40
0.7319704774
 40
1.0
 40
1.0
 40
1.0
 40
1.0
 10
37.0436839039
 20
30.4938199211
 30
0.0
 10
36.9918581747
 20
30.5237374034
 30
0.0
 10
36.8848579723
 20
30.5786894899
 30
0.0
 10
36.7163073018
 20
30.6454434063
 30
0.0
 10
36.5400193877
 20
30.6964129954
 30
0.0
 10
36.3566007257
 20
30.7314266553
 30
0.0
 10
36.1666136461
 20
30.7504215288
 30
0.0
 10
35.9016723537
 20
30.7543245953
 30
0.0
 10
35.7005332255
 20
30.7327268822
 30
0.0
 10
35.5665181186
 20
30.7089504835
 30
0.0
  0
SPLINE
  5
31A
100
AcDbEntity
  8
0
100
AcDbSpline
 62
7
  6
BYLAYER
 70
0
 71
3
 72
9
 73
5
 74
0
 42
0.0000001
 43
0.0000001
 44
0.0000000001
 40
0.0
 40
0.0
 40
0.0
 40
0.0
 40
0.4997214264
 40
1.0
 40
1.0
 40
1.0
 40
1.0
 10
38.1474963201
 20
19.1400337342
 30
0.0
 10
38.207018986
 20
19.1821032843
 30
0.0
 10
38.3255726331
 20
19.2670812886
 30
0.0
 10
38.4428362292
 20
19.3538382659
 30
0.0
 10
38.5010443801
 20
19.397843484
 30
0.0
  0
SPLINE
  5
31B
100
AcDbEntity
  8
0
100
AcDbSpline
 62
7
  6
BYLAYER
 70
0
 71
3
 72
17
 73
13
 74
0
 42
0.0000001
 43
0.0000001
 44
0.0000000001
 40
0.0
 40
0.0
 40
0.0
 40
0.0
 40
0.1123587708
 40
0.2296151694
 40
0.3524248488
 40
0.4807936012
 40
0.6137589087
 40
0.7487217372
 40
0.8154333093
 40
0.8803568925
 40
0.9422941951
 40
1.0
 40
1.0
 40
1.0
 40
1.0
 10
34.7586849781
 20
24.0864867713
 30
0.0
 10
34.8582885343
 20
24.0289789586
 30
0.0
 10
35.0505499213
 20
23.8909751549
 30
0.0
 10
35.3031968511
 20
23.6313421918
 30
0.0
 10
35.523088392
 20
23.3234156893
 30
0.0
 10
35.7094016618
 20
22.9761199265
 30
0.0
 10
35.8614518987
 20
22.599295969
 30
0.0
 10
35.9582185814
 20
22.2700922668
 30
0.0
 10
36.015792625
 20
22.0032427989
 30
0.0
 10
36.0475291638
 20
21.8075520649
 30
0.0
 10
36.0672241184
 20
21.6195527027
 30
0.0
 10
36.0721357221
 20
21.4970582929
 30
0.0
 10
36.0721357221
 20
21.4379892554
 30
0.0
  0
SPLINE
  5
31C
100
AcDbEntity
  8
0
100
AcDbSpline
 62
7
  6
BYLAYER
 70
0
 71
3
 72
15
 73
11
 74
0
 42
0.0000001
 43
0.0000001
 44
0.0000000001
 40
0.0
 40
0.0
 40
0.0
 40
0.0
 40
0.1486041542
 40
0.2895018124
 40
0.4227236875
 40
0.5486458196
 40
0.6680032094
 40
0.7819435505
 40
0.891995066
 40
1.0
 40
1.0
 40
1.0
 40
1.0
 10
42.2133365814
 20
24.4243247653
 30
0.0
 10
42.2133358279
 20
24.5285098389
 30
0.0
 10
42.2049260373
 20
24.7316160971
 30
0.0
 10
42.1649565522
 20
25.0257478759
 30
0.0
 10
42.0981444451
 20
25.2987337636
 30
0.0
 10
42.0050979257
 20
25.5479786148
 30
0.0
 10
41.8864369151
 20
25.7710273016
 30
0.0
 10
41.7431592906
 20
25.9656413139
 30
0.0
 10
41.5765359584
 20
26.1295811243
 30
0.0
 10
41.4504654591
 20
26.2175842501
 30
0.0
 10
41.3848877767
 20
26.2554430026
 30
0.0
  0
SPLINE
  5
31D
100
AcDbEntity
  8
0
100
AcDbSpline
 62
7
  6
BYLAYER
 70
0
 71
3
 72
14
 73
10
 74
0
 42
0.0000001
 43
0.0000001
 44
0.0000000001
 40
0.0
 40
0.0
 40
0.0
 40
0.0
 40
0.1210651035
 40
0.2538374046
 40
0.5295911247
 40
0.662616228
 40
0.787180515
 40
0.9005141626
 40
1.0
 40
1.0
 40
1.0
 40
1.0
 10
34.1169434764
 20
30.1984191881
 30
0.0
 10
34.1014499341
 20
30.2073641865
 30
0.0
 10
34.068067664
 20
30.2245812875
 30
0.0
 10
33.996169187
 20
30.2555707634
 30
0.0
 10
33.9198386339
 20
30.2804417926
 30
0.0
 10
33.842888674
 20
30.2976821689
 30
0.0
 10
33.7886099784
 20
30.3057614045
 30
0.0
 10
33.738782469
 20
30.3087880892
 30
0.0
 10
33.70726148
 20
30.3072997918
 30
0.0
 10
33.6926794077
 20
30.3054301531
 30
0.0
  0
SPLINE
  5
31E
100
AcDbEntity
  8
0
100
AcDbSpline
 62
7
  6
BYLAYER
 70
0
 71
3
 72
25
 73
21
 74
0
 42
0.0000001
 43
0.0000001
 44
0.0000000001
 40
0.0
 40
0.0
 40
0.0
 40
0.0
 40
0.0771031768
 40
0.1551351424
 40
0.2331336873
 40
0.310253904
 40
0.385634402
 40
0.4584804519
 40
0.5280988596
 40
0.5939298367
 40
0.6555969718
 40
0.7129547737
 40
0.7661517583
 40
0.8156955638
 40
0.8624825969
 40
0.8852584467
 40
0.9078437466
 40
0.9304344251
 40
0.9532248423
 40
1.0
 40
1.0
 40
1.0
 40
1.0
 10
38.5010443801
 20
24.3476647317
 30
0.0
 10
38.4066746811
 20
24.2302673279
 30
0.0
 10
38.2261522186
 20
23.9863878677
 30
0.0
 10
37.983520927
 20
23.6004789705
 30
0.0
 10
37.7705832023
 20
23.1973513117
 30
0.0
 10
37.5909552862
 20
22.7839543055
 30
0.0
 10
37.4476420187
 20
22.3672031717
 30
0.0
 10
37.3430681717
 20
21.9541353576
 30
0.0
 10
37.2790221327
 20
21.5516788074
 30
0.0
 10
37.2566157545
 20
21.1665392842
 30
0.0
 10
37.2762959955
 20
20.8050798056
 30
0.0
 10
37.3379573734
 20
20.4732350204
 30
0.0
 10
37.4410042437
 20
20.1764731172
 30
0.0
 10
37.5842166654
 20
19.9199681031
 30
0.0
 10
37.7372419323
 20
19.7421438528
 30
0.0
 10
37.8759711255
 20
19.6269091745
 30
0.0
 10
37.9872084522
 20
19.5539387279
 30
0.0
 10
38.106051351
 20
19.4940560339
 30
0.0
 10
38.2751981775
 20
19.4315838189
 30
0.0
 10
38.4100292773
 20
19.406011555
 30
0.0
 10
38.5010443801
 20
19.3978818833
 30
0.0
  0
SPLINE
  5
31F
100
AcDbEntity
  8
0
100
AcDbSpline
 62
7
  6
BYLAYER
 70
0
 71
3
 72
34
 73
30
 74
0
 42
0.0000001
 43
0.0000001
 44
0.0000000001
 40
0.0
 40
0.0
 40
0.0
 40
0.0
 40
0.03214394
 40
0.0606215575
 40
0.0853844549
 40
0.1067622145
 40
0.1254399439
 40
0.1423834581
 40
0.1586977147
 40
0.1754210883
 40
0.1933611372
 40
0.213056848
 40
0.2348289399
 40
0.2588452066
 40
0.2851673009
 40
0.313777791
 40
0.3445953502
 40
0.3774844203
 40
0.4487108417
 40
0.5256728857
 40
0.6064039338
 40
0.6890066881
 40
0.7716494779
 40
0.8124109157
 40
0.8524371929
 40
0.8914461047
 40
0.929165524
 40
0.9653795656
 40
1.0
 40
1.0
 40
1.0
 40
1.0
 10
36.0721357221
 20
21.4379892554
 30
0.0
 10
36.0721357221
 20
21.3843566449
 30
0.0
 10
36.0684635528
 20
21.283135607
 30
0.0
 10
36.0499094775
 20
21.1416272942
 30
0.0
 10
36.0190665632
 20
21.020619038
 30
0.0
 10
35.9764306865
 20
20.9206417608
 30
0.0
 10
35.9223774869
 20
20.8414828806
 30
0.0
 10
35.8573583483
 20
20.7828266284
 30
0.0
 10
35.7824682182
 20
20.7441620349
 30
0.0
 10
35.6991098097
 20
20.7240796858
 30
0.0
 10
35.6080236326
 20
20.7205759044
 30
0.0
 10
35.5092633388
 20
20.7319057586
 30
0.0
 10
35.4026883338
 20
20.7567776575
 30
0.0
 10
35.2882199818
 20
20.7941980292
 30
0.0
 10
35.1659230447
 20
20.8433385749
 30
0.0
 10
35.0360396677
 20
20.9034630705
 30
0.0
 10
34.8990088421
 20
20.9738883296
 30
0.0
 10
34.7023965689
 20
21.0836422845
 30
0.0
 10
34.4453973063
 20
21.2428212527
 30
0.0
 10
34.1315404673
 20
21.4607994416
 30
0.0
 10
33.8157548553
 20
21.7082966762
 30
0.0
 10
33.5112697984
 20
21.9840780539
 30
0.0
 10
33.278650395
 20
22.238228167
 30
0.0
 10
33.114851638
 20
22.4565029182
 30
0.0
 10
33.0074580203
 20
22.6253669759
 30
0.0
 10
32.9182949302
 20
22.7989327019
 30
0.0
 10
32.8508553752
 20
22.9753858136
 30
0.0
 10
32.8083981373
 20
23.1520270739
 30
0.0
 10
32.7982176946
 20
23.2703792731
 30
0.0
 10
32.7982176946
 20
23.3281439488
 30
0.0
  0
SPLINE
  5
320
100
AcDbEntity
  8
0
100
AcDbSpline
 62
7
  6
BYLAYER
 70
0
 71
3
 72
19
 73
15
 74
0
 42
0.0000001
 43
0.0000001
 44
0.0000000001
 40
0.0
 40
0.0
 40
0.0
 40
0.0
 40
0.0655069407
 40
0.12854359
 40
0.1898474875
 40
0.2501676515
 40
0.3101269307
 40
0.3701618499
 40
0.430538231
 40
0.4913964959
 40
0.6145779505
 40
0.7401162547
 40
0.8683224982
 40
1.0
 40
1.0
 40
1.0
 40
1.0
 10
32.7982176946
 20
23.3281439488
 30
0.0
 10
32.7982176946
 20
23.3833912514
 30
0.0
 10
32.8071696636
 20
23.4920829433
 30
0.0
 10
32.8489049786
 20
23.6475497438
 30
0.0
 10
32.916290173
 20
23.7889056116
 30
0.0
 10
33.0058684957
 20
23.9140342485
 30
0.0
 10
33.1138753684
 20
24.0219810242
 30
0.0
 10
33.2367770017
 20
24.11250035
 30
0.0
 10
33.3714961094
 20
24.1857152852
 30
0.0
 10
33.5639409064
 20
24.2608081291
 30
0.0
 10
33.8223664132
 20
24.3121361647
 30
0.0
 10
34.1424635387
 20
24.3064799433
 30
0.0
 10
34.4615482021
 20
24.2337059143
 30
0.0
 10
34.6625098413
 20
24.1420151275
 30
0.0
 10
34.7586849781
 20
24.0864867713
 30
0.0
  0
SPLINE
  5
321
100
AcDbEntity
  8
0
100
AcDbSpline
 62
7
  6
BYLAYER
 70
0
 71
3
 72
24
 73
20
 74
0
 42
0.0000001
 43
0.0000001
 44
0.0000000001
 40
0.0
 40
0.0
 40
0.0
 40
0.0
 40
0.0729644614
 40
0.1472217927
 40
0.2220064645
 40
0.2966498808
 40
0.3704549509
 40
0.4427398861
 40
0.5128761098
 40
0.5803038657
 40
0.6445513408
 40
0.7052699058
 40
0.7622654982
 40
0.81553092
 40
0.8652955233
 40
0.912056692
 40
0.9565955099
 40
0.9783746765
 40
1.0
 40
1.0
 40
1.0
 40
1.0
 10
38.1474895175
 20
25.0137497079
 30
0.0
 10
38.0455050541
 20
24.8975736015
 30
0.0
 10
37.8484281936
 20
24.6553894248
 30
0.0
 10
37.577720662
 20
24.2702996889
 30
0.0
 10
37.3323228055
 20
23.8644207276
 30
0.0
 10
37.1157095823
 20
23.4435623972
 30
0.0
 10
36.9308311247
 20
23.0135723913
 30
0.0
 10
36.7803296962
 20
22.5804490763
 30
0.0
 10
36.6663086062
 20
22.1502508582
 30
0.0
 10
36.5903241363
 20
21.7289694198
 30
0.0
 10
36.5535066619
 20
21.3224281528
 30
0.0
 10
36.556396964
 20
20.9362315379
 30
0.0
 10
36.5990373178
 20
20.5756566811
 30
0.0
 10
36.6811032553
 20
20.2456399187
 30
0.0
 10
36.8017742164
 20
19.9507357498
 30
0.0
 10
36.9597729674
 20
19.695274533
 30
0.0
 10
37.1226156213
 20
19.5172660614
 30
0.0
 10
37.2679513582
 20
19.4002510627
 30
0.0
 10
37.3452750691
 20
19.3501064074
 30
0.0
 10
37.3849546767
 20
19.3271989123
 30
0.0
  0
SPLINE
  5
322
100
AcDbEntity
  8
0
100
AcDbSpline
 62
7
  6
BYLAYER
 70
0
 71
3
 72
10
 73
6
 74
0
 42
0.0000001
 43
0.0000001
 44
0.0000000001
 40
0.0
 40
0.0
 40
0.0
 40
0.0
 40
0.4735431312
 40
0.73019136
 40
1.0
 40
1.0
 40
1.0
 40
1.0
 10
33.6926794077
 20
30.3054301531
 30
0.0
 10
33.5211149571
 20
30.2834330372
 30
0.0
 10
33.2602704567
 20
30.2157186401
 30
0.0
 10
32.9231850383
 20
30.0745973995
 30
0.0
 10
32.7527272797
 20
29.9848934388
 30
0.0
 10
32.6673788438
 20
29.9356177905
 30
0.0
  0
SPLINE
  5
323
100
AcDbEntity
  8
0
100
AcDbSpline
 62
7
  6
BYLAYER
 70
0
 71
3
 72
9
 73
5
 74
0
 42
0.0000001
 43
0.0000001
 44
0.0000000001
 40
0.0
 40
0.0
 40
0.0
 40
0.0
 40
0.243819866
 40
1.0
 40
1.0
 40
1.0
 40
1.0
 10
32.6673788438
 20
29.9356177905
 30
0.0
 10
32.6339753678
 20
29.9163323997
 30
0.0
 10
32.4981963267
 20
29.8351295656
 30
0.0
 10
32.3672850177
 20
29.7458580267
 30
0.0
 10
32.2711588213
 20
29.6746573274
 30
0.0
  0
SPLINE
  5
324
100
AcDbEntity
  8
0
100
AcDbSpline
 62
7
  6
BYLAYER
 70
0
 71
3
 72
9
 73
5
 74
0
 42
0.0000001
 43
0.0000001
 44
0.0000000001
 40
0.0
 40
0.0
 40
0.0
 40
0.0
 40
0.2575418866
 40
1.0
 40
1.0
 40
1.0
 40
1.0
 10
42.2133273131
 20
24.0160718608
 30
0.0
 10
42.2133270587
 20
24.0513594164
 30
0.0
 10
42.2111335636
 20
24.1883594661
 30
0.0
 10
42.1999139385
 20
24.325276475
 30
0.0
 10
42.1856889233
 20
24.4260062152
 30
0.0
  0
SPLINE
  5
325
100
AcDbEntity
  8
0
100
AcDbSpline
 62
7
  6
BYLAYER
 70
0
 71
3
 72
11
 73
7
 74
0
 42
0.0000001
 43
0.0000001
 44
0.0000000001
 40
0.0
 40
0.0
 40
0.0
 40
0.0
 40
0.2754410711
 40
0.5321952357
 40
0.7724706129
 40
1.0
 40
1.0
 40
1.0
 40
1.0
 10
42.1856889233
 20
24.4260062152
 30
0.0
 10
42.1711931726
 20
24.5286530802
 30
0.0
 10
42.1313417918
 20
24.72563531
 30
0.0
 10
42.0334932532
 20
25.0005816533
 30
0.0
 10
41.900875913
 20
25.2403588404
 30
0.0
 10
41.7877327729
 20
25.3769908681
 30
0.0
 10
41.7265875547
 20
25.4369434831
 30
0.0
  0
SPLINE
  5
326
100
AcDbEntity
  8
0
100
AcDbSpline
 62
7
  6
BYLAYER
 70
0
 71
3
 72
9
 73
5
 74
0
 42
0.0000001
 43
0.0000001
 44
0.0000000001
 40
0.0
 40
0.0
 40
0.0
 40
0.0
 40
0.4860925281
 40
1.0
 40
1.0
 40
1.0
 40
1.0
 10
17.9594965607
 20
22.1786273836
 30
0.0
 10
17.7598762387
 20
22.0633772249
 30
0.0
 10
17.3353714161
 20
21.8497992652
 30
0.0
 10
16.8921415938
 20
21.6791614314
 30
0.0
 10
16.6611192758
 20
21.601611554
 30
0.0
  0
SPLINE
  5
327
100
AcDbEntity
  8
0
100
AcDbSpline
 62
7
  6
BYLAYER
 70
0
 71
3
 72
25
 73
21
 74
0
 42
0.0000001
 43
0.0000001
 44
0.0000000001
 40
0.0
 40
0.0
 40
0.0
 40
0.0
 40
0.0689002227
 40
0.140222836
 40
0.2132104682
 40
0.2870552296
 40
0.3609151961
 40
0.4339482304
 40
0.5053419605
 40
0.5743428199
 40
0.6402894903
 40
0.7026501654
 40
0.7610644053
 40
0.8153930096
 40
0.8657757077
 40
0.9126902396
 40
0.9351286501
 40
0.9570503907
 40
0.9786162204
 40
1.0
 40
1.0
 40
1.0
 40
1.0
 10
16.6611192758
 20
21.601611554
 30
0.0
 10
16.416232256
 20
21.5194075552
 30
0.0
 10
15.9098781949
 20
21.375131644
 30
0.0
 10
15.1247332438
 20
21.2207920719
 30
0.0
 10
14.3114359289
 20
21.12668591
 30
0.0
 10
13.4838762092
 20
21.0944160192
 30
0.0
 10
12.6560595279
 20
21.1245163032
 30
0.0
 10
11.8420380357
 20
21.2164782632
 30
0.0
 10
11.0556038919
 20
21.3687441181
 30
0.0
 10
10.3100559525
 20
21.5787619658
 30
0.0
 10
9.6179566348
 20
21.8430254492
 30
0.0
 10
8.9909081068
 20
22.1571849951
 30
0.0
 10
8.4393910505
 20
22.5161734911
 30
0.0
 10
7.9726525295
 20
22.9144630243
 30
0.0
 10
7.5988185233
 20
23.3458858756
 30
0.0
 10
7.3671545256
 20
23.7338523652
 30
0.0
 10
7.2381984656
 20
24.0514135401
 30
0.0
 10
7.1697735106
 20
24.2894372649
 30
0.0
 10
7.1285407986
 20
24.529612477
 30
0.0
 10
7.119356055
 20
24.6907855423
 30
0.0
 10
7.119361158
 20
24.7709561415
 30
0.0
  0
SPLINE
  5
328
100
AcDbEntity
  8
0
100
AcDbSpline
 62
7
  6
BYLAYER
 70
0
 71
3
 72
26
 73
22
 74
0
 42
0.0000001
 43
0.0000001
 44
0.0000000001
 40
0.0
 40
0.0
 40
0.0
 40
0.0
 40
0.062376922
 40
0.12871554
 40
0.1983023033
 40
0.2702747841
 40
0.343647222
 40
0.4173755509
 40
0.4903965542
 40
0.5616796272
 40
0.6302732243
 40
0.6953569211
 40
0.7563005465
 40
0.8127339744
 40
0.8646308837
 40
0.8890162662
 40
0.9124637154
 40
0.9351070072
 40
0.9571105434
 40
0.978669525
 40
1.0
 40
1.0
 40
1.0
 40
1.0
 10
17.9594965607
 20
23.6483317344
 30
0.0
 10
17.7313621834
 20
23.5166190765
 30
0.0
 10
17.2424417561
 20
23.2755629451
 30
0.0
 10
16.4537674925
 20
22.9897824802
 30
0.0
 10
15.601467956
 20
22.7734340927
 30
0.0
 10
14.7038169469
 20
22.6310854098
 30
0.0
 10
13.7798173799
 20
22.5657716181
 30
0.0
 10
12.8491958556
 20
22.5788612755
 30
0.0
 10
11.9317976322
 20
22.6700907506
 30
0.0
 10
11.0471805537
 20
22.8375128145
 30
0.0
 10
10.2141360838
 20
23.0775975559
 30
0.0
 10
9.4502879105
 20
23.3853195301
 30
0.0
 10
8.7716429706
 20
23.7544577722
 30
0.0
 10
8.1925445429
 20
24.17755035
 30
0.0
 10
7.7949410311
 20
24.5769543806
 30
0.0
 10
7.5428006737
 20
24.915077416
 30
0.0
 10
7.389679362
 20
25.1709510177
 30
0.0
 10
7.2694939874
 20
25.432872038
 30
0.0
 10
7.183095427
 20
25.6994996552
 30
0.0
 10
7.1309827678
 20
25.9692411597
 30
0.0
 10
7.1193554242
 20
26.1505789031
 30
0.0
 10
7.119361158
 20
26.2406604924
 30
0.0
  0
SPLINE
  5
329
100
AcDbEntity
  8
0
100
AcDbSpline
 62
7
  6
BYLAYER
 70
0
 71
3
 72
11
 73
7
 74
0
 42
0.0000001
 43
0.0000001
 44
0.0000000001
 40
0.0
 40
0.0
 40
0.0
 40
0.0
 40
0.2479271973
 40
0.4999609248
 40
0.7520152305
 40
1.0
 40
1.0
 40
1.0
 40
1.0
 10
15.5379228502
 20
24.5618820203
 30
0.0
 10
15.2008485767
 20
24.4987023362
 30
0.0
 10
14.5145298322
 20
24.4043957017
 30
0.0
 10
13.4740244108
 20
24.3572458608
 30
0.0
 10
12.4334002125
 20
24.4035601002
 30
0.0
 10
11.7469013151
 20
24.4973320458
 30
0.0
 10
11.4096917422
 20
24.5602213955
 30
0.0
  0
SPLINE
  5
32A
100
AcDbEntity
  8
0
100
AcDbSpline
 62
7
  6
BYLAYER
 70
0
 71
3
 72
16
 73
12
 74
0
 42
0.0000001
 43
0.0000001
 44
0.0000000001
 40
0.0
 40
0.0
 40
0.0
 40
0.0
 40
0.1438013982
 40
0.2812137767
 40
0.4122871066
 40
0.4756407138
 40
0.5376420911
 40
0.657947472
 40
0.7742831874
 40
0.8878088426
 40
1.0
 40
1.0
 40
1.0
 40
1.0
 10
17.5537635013
 20
19.6151481965
 30
0.0
 10
17.6801669374
 20
19.6907100698
 30
0.0
 10
17.9213692498
 20
19.8488893068
 30
0.0
 10
18.2516948079
 20
20.1128882782
 30
0.0
 10
18.4940535236
 20
20.3522183221
 30
0.0
 10
18.6639361935
 20
20.5526706623
 30
0.0
 10
18.8145376991
 20
20.7543561672
 30
0.0
 10
18.9735850399
 20
21.016771835
 30
0.0
 10
19.1142142955
 20
21.3481031865
 30
0.0
 10
19.2000572904
 20
21.6891808493
 30
0.0
 10
19.219349806
 20
21.9207785037
 30
0.0
 10
19.219349806
 20
22.0356730774
 30
0.0
  0
SPLINE
  5
32B
100
AcDbEntity
  8
0
100
AcDbSpline
 62
7
  6
BYLAYER
 70
0
 71
3
 72
17
 73
13
 74
0
 42
0.0000001
 43
0.0000001
 44
0.0000000001
 40
0.0
 40
0.0
 40
0.0
 40
0.0
 40
0.117786957
 40
0.2427142476
 40
0.3725420702
 40
0.5045883871
 40
0.6359819343
 40
0.7639098405
 40
0.8257903904
 40
0.8859102749
 40
0.9440595487
 40
1.0
 40
1.0
 40
1.0
 40
1.0
 10
9.8091605571
 20
19.3859183171
 30
0.0
 10
10.0894004546
 20
19.2491641255
 30
0.0
 10
10.6888236445
 20
19.0111026122
 30
0.0
 10
11.6461783754
 20
18.7652258633
 30
0.0
 10
12.6626876155
 20
18.6249360933
 30
0.0
 10
13.7053611141
 20
18.5945274153
 30
0.0
 10
14.7402861163
 20
18.6748528733
 30
0.0
 10
15.577739883
 20
18.8338561151
 30
0.0
 10
16.2143029231
 20
19.015665653
 30
0.0
 10
16.6639949644
 20
19.1755964926
 30
0.0
 10
17.0873579769
 20
19.3594277062
 30
0.0
 10
17.3551978751
 20
19.4997947178
 30
0.0
 10
17.4834527347
 20
19.5738422535
 30
0.0
  0
SPLINE
  5
32C
100
AcDbEntity
  8
0
100
AcDbSpline
 62
7
  6
BYLAYER
 70
0
 71
3
 72
11
 73
7
 74
0
 42
0.0000001
 43
0.0000001
 44
0.0000000001
 40
0.0
 40
0.0
 40
0.0
 40
0.0
 40
0.2588016988
 40
0.5109343647
 40
0.7581711513
 40
1.0
 40
1.0
 40
1.0
 40
1.0
 10
9.0111160812
 20
19.8617466919
 30
0.0
 10
9.0759574401
 20
19.8144962722
 30
0.0
 10
9.2074877298
 20
19.7260455064
 30
0.0
 10
9.4078700565
 20
19.6031399104
 30
0.0
 10
9.6074984225
 20
19.4892925044
 30
0.0
 10
9.7417964293
 20
19.4187895729
 30
0.0
 10
9.8091703377
 20
19.3859089195
 30
0.0
  0
SPLINE
  5
32D
100
AcDbEntity
  8
0
100
AcDbSpline
 62
7
  6
BYLAYER
 70
0
 71
3
 72
14
 73
10
 74
0
 42
0.0000001
 43
0.0000001
 44
0.0000000001
 40
0.0
 40
0.0
 40
0.0
 40
0.0
 40
0.1147087602
 40
0.2304106701
 40
0.3483144324
 40
0.4694081265
 40
0.5945070947
 40
0.724358394
 40
1.0
 40
1.0
 40
1.0
 40
1.0
 10
7.719349806
 20
22.0356730774
 30
0.0
 10
7.719349806
 20
21.9353414369
 30
0.0
 10
7.7340285679
 20
21.7335163159
 30
0.0
 10
7.7993638644
 20
21.4349679055
 30
0.0
 10
7.9069913017
 20
21.142993256
 30
0.0
 10
8.054973643
 20
20.8600880405
 30
0.0
 10
8.2415893204
 20
20.5883329341
 30
0.0
 10
8.5448795328
 20
20.2361537349
 30
0.0
 10
8.8162595454
 20
20.0037409354
 30
0.0
 10
9.0111077157
 20
19.8617535196
 30
0.0
  0
SPLINE
  5
32E
100
AcDbEntity
  8
0
100
AcDbSpline
 62
7
  6
BYLAYER
 70
0
 71
3
 72
9
 73
5
 74
0
 42
0.0000001
 43
0.0000001
 44
0.0000000001
 40
0.0
 40
0.0
 40
0.0
 40
0.0
 40
0.244722107
 40
1.0
 40
1.0
 40
1.0
 40
1.0
 10
17.6390257049
 20
24.9451208894
 30
0.0
 10
17.6349736949
 20
24.9455042092
 30
0.0
 10
17.6184598345
 20
24.9475159953
 30
0.0
 10
17.6021651578
 20
24.9512307031
 30
0.0
 10
17.5901352966
 20
24.9548461837
 30
0.0
  0
SPLINE
  5
32F
100
AcDbEntity
  8
0
100
AcDbSpline
 62
7
  6
BYLAYER
 70
0
 71
3
 72
9
 73
5
 74
0
 42
0.0000001
 43
0.0000001
 44
0.0000000001
 40
0.0
 40
0.0
 40
0.0
 40
0.0
 40
0.2545506549
 40
1.0
 40
1.0
 40
1.0
 40
1.0
 10
34.9730106861
 20
33.9967011431
 30
0.0
 10
34.9515239091
 20
34.0337320675
 30
0.0
 10
34.8644210632
 20
34.1776213049
 30
0.0
 10
34.7663444532
 20
34.3149271356
 30
0.0
 10
34.687229054
 20
34.4121918434
 30
0.0
  0
SPLINE
  5
330
100
AcDbEntity
  8
0
100
AcDbSpline
 62
7
  6
BYLAYER
 70
0
 71
3
 72
9
 73
5
 74
0
 42
0.0000001
 43
0.0000001
 44
0.0000000001
 40
0.0
 40
0.0
 40
0.0
 40
0.0
 40
0.5033791576
 40
1.0
 40
1.0
 40
1.0
 40
1.0
 10
34.5283287712
 20
34.5920640179
 30
0.0
 10
34.4396831622
 20
34.6843986219
 30
0.0
 10
34.2509402732
 20
34.8561663051
 30
0.0
 10
34.039658548
 20
34.999424991
 30
0.0
 10
33.9302952546
 20
35.062563047
 30
0.0
  0
SPLINE
  5
331
100
AcDbEntity
  8
0
100
AcDbSpline
 62
7
  6
BYLAYER
 70
0
 71
3
 72
10
 73
6
 74
0
 42
0.0000001
 43
0.0000001
 44
0.0000000001
 40
0.0
 40
0.0
 40
0.0
 40
0.0
 40
0.3946067845
 40
0.6696350225
 40
1.0
 40
1.0
 40
1.0
 40
1.0
 10
35.8217730964
 20
31.2420086625
 30
0.0
 10
35.821923794
 20
31.2370086754
 30
0.0
 10
35.8174938738
 20
31.228739924
 30
0.0
 10
35.8085493024
 20
31.2199496874
 30
0.0
 10
35.8023266493
 20
31.2153466419
 30
0.0
 10
35.798830994
 20
31.2130403818
 30
0.0
  0
SPLINE
  5
332
100
AcDbEntity
  8
0
100
AcDbSpline
 62
7
  6
BYLAYER
 70
0
 71
3
 72
11
 73
7
 74
0
 42
0.0000001
 43
0.0000001
 44
0.0000000001
 40
0.0
 40
0.0
 40
0.0
 40
0.0
 40
0.2287333457
 40
0.4708848654
 40
0.727818925
 40
1.0
 40
1.0
 40
1.0
 40
1.0
 10
35.2457672655
 20
33.5266055247
 30
0.0
 10
35.3367870266
 20
33.3697328839
 30
0.0
 10
35.4983562946
 20
33.0313214952
 30
0.0
 10
35.6727684676
 20
32.4795945526
 30
0.0
 10
35.7844053176
 20
31.8769572982
 30
0.0
 10
35.8157964006
 20
31.4577429725
 30
0.0
 10
35.82177654
 20
31.2420095162
 30
0.0
  0
SPLINE
  5
333
100
AcDbEntity
  8
0
100
AcDbSpline
 62
7
  6
BYLAYER
 70
0
 71
3
 72
16
 73
12
 74
0
 42
0.0000001
 43
0.0000001
 44
0.0000000001
 40
0.0
 40
0.0
 40
0.0
 40
0.0
 40
0.1090110605
 40
0.2199118306
 40
0.3344280633
 40
0.4540068797
 40
0.5160801319
 40
0.5798028985
 40
0.7124778499
 40
0.8525525218
 40
1.0
 40
1.0
 40
1.0
 40
1.0
 10
26.8254017693
 20
21.6131352203
 30
0.0
 10
26.710962801
 20
21.6792091668
 30
0.0
 10
26.4906190574
 20
21.8317064937
 30
0.0
 10
26.1974578371
 20
22.114015491
 30
0.0
 10
25.9428532316
 20
22.4476905136
 30
0.0
 10
25.7669106273
 20
22.7619624597
 30
0.0
 10
25.6467426427
 20
23.0342151289
 30
0.0
 10
25.5378527044
 20
23.3281917289
 30
0.0
 10
25.4299085719
 20
23.7224631988
 30
0.0
 10
25.3467414903
 20
24.2257535702
 30
0.0
 10
25.3219026631
 20
24.573939138
 30
0.0
 10
25.3165085578
 20
24.7525946666
 30
0.0
  0
SPLINE
  5
334
100
AcDbEntity
  8
0
100
AcDbSpline
 62
7
  6
BYLAYER
 70
0
 71
3
 72
11
 73
7
 74
0
 42
0.0000001
 43
0.0000001
 44
0.0000000001
 40
0.0
 40
0.0
 40
0.0
 40
0.0
 40
0.2449200338
 40
0.491972117
 40
0.7431202963
 40
1.0
 40
1.0
 40
1.0
 40
1.0
 10
26.0304285168
 20
21.3792829341
 30
0.0
 10
26.116673121
 20
21.3294918525
 30
0.0
 10
26.2957644784
 20
21.2392486925
 30
0.0
 10
26.57976491
 20
21.1343318247
 30
0.0
 10
26.8782598801
 20
21.0600571381
 30
0.0
 10
27.0832675569
 20
21.031468174
 30
0.0
 10
27.1873017312
 20
21.022175081
 30
0.0
  0
SPLINE
  5
335
100
AcDbEntity
  8
0
100
AcDbSpline
 62
7
  6
BYLAYER
 70
0
 71
3
 72
15
 73
11
 74
0
 42
0.0000001
 43
0.0000001
 44
0.0000000001
 40
0.0
 40
0.0
 40
0.0
 40
0.0
 40
0.1484729998
 40
0.2894667185
 40
0.4227513796
 40
0.5486589981
 40
0.6679939989
 40
0.7819275581
 40
0.8919838442
 40
1.0
 40
1.0
 40
1.0
 40
1.0
 10
35.1422157783
 20
36.988157009
 30
0.0
 10
35.1422157783
 20
37.0402038348
 30
0.0
 10
35.137988821
 20
37.1417439673
 30
0.0
 10
35.1180273293
 20
37.2888218576
 30
0.0
 10
35.0846345104
 20
37.4253729507
 30
0.0
 10
35.0380878607
 20
37.549996553
 30
0.0
 10
34.9787709774
 20
37.6615129882
 30
0.0
 10
34.9071140909
 20
37.7587932858
 30
0.0
 10
34.8238385063
 20
37.8408074687
 30
0.0
 10
34.7607731894
 20
37.8847798988
 30
0.0
 10
34.727979756
 20
37.9037095734
 30
0.0
  0
SPLINE
  5
336
100
AcDbEntity
  8
0
100
AcDbSpline
 62
7
  6
BYLAYER
 70
0
 71
3
 72
12
 73
8
 74
0
 42
0.0000001
 43
0.0000001
 44
0.0000000001
 40
0.0
 40
0.0
 40
0.0
 40
0.0
 40
0.156228332
 40
0.3063723017
 40
0.5143259002
 40
0.6986567652
 40
1.0
 40
1.0
 40
1.0
 40
1.0
 10
27.6638029734
 20
21.0970394035
 30
0.0
 10
27.6620970357
 20
21.0926425718
 30
0.0
 10
27.6583555733
 20
21.0841653557
 30
0.0
 10
27.6507892011
 20
21.0705927235
 30
0.0
 10
27.6409814519
 20
21.0573376513
 30
0.0
 10
27.6257229289
 20
21.0430201155
 30
0.0
 10
27.6113673251
 20
21.0365799015
 30
0.0
 10
27.6022782826
 20
21.0362025981
 30
0.0
  0
SPLINE
  5
337
100
AcDbEntity
  8
0
100
AcDbSpline
 62
7
  6
BYLAYER
 70
0
 71
3
 72
15
 73
11
 74
0
 42
0.0000001
 43
0.0000001
 44
0.0000000001
 40
0.0
 40
0.0
 40
0.0
 40
0.0
 40
0.1134675869
 40
0.2282131628
 40
0.3454330491
 40
0.4661947945
 40
0.5914005527
 40
0.7217898255
 40
0.8579115565
 40
1.0
 40
1.0
 40
1.0
 40
1.0
 10
24.9854627326
 20
20.7124210427
 30
0.0
 10
25.0985699169
 20
20.6471189725
 30
0.0
 10
25.3349656746
 20
20.5305787328
 30
0.0
 10
25.7122826032
 20
20.4019729334
 30
0.0
 10
26.1109360987
 20
20.3198407865
 30
0.0
 10
26.5284032751
 20
20.2845295389
 30
0.0
 10
26.9622705504
 20
20.2961071742
 30
0.0
 10
27.4101120101
 20
20.3543498797
 30
0.0
 10
27.8692925919
 20
20.4588668149
 30
0.0
 10
28.1746551447
 20
20.5567122519
 30
0.0
 10
28.3283462513
 20
20.6126324336
 30
0.0
  0
SPLINE
  5
338
100
AcDbEntity
  8
0
100
AcDbSpline
 62
7
  6
BYLAYER
 70
0
 71
3
 72
10
 73
6
 74
0
 42
0.0000001
 43
0.0000001
 44
0.0000000001
 40
0.0
 40
0.0
 40
0.0
 40
0.0
 40
0.2189845175
 40
0.4667915486
 40
1.0
 40
1.0
 40
1.0
 40
1.0
 10
32.9842628771
 20
34.9075924919
 30
0.0
 10
32.9872602514
 20
34.9002222084
 30
0.0
 10
32.9914984082
 20
34.8836113685
 30
0.0
 10
32.9934718841
 20
34.8472201518
 30
0.0
 10
32.9876971923
 20
34.8186816946
 30
0.0
 10
32.9806894752
 20
34.8006202186
 30
0.0
  0
SPLINE
  5
339
100
AcDbEntity
  8
0
100
AcDbSpline
 62
7
  6
BYLAYER
 70
0
 71
3
 72
15
 73
11
 74
0
 42
0.0000001
 43
0.0000001
 44
0.0000000001
 40
0.0
 40
0.0
 40
0.0
 40
0.0
 40
0.1479530178
 40
0.2910036764
 40
0.427900094
 40
0.5577577527
 40
0.6799179809
 40
0.7941079578
 40
0.9005656709
 40
1.0
 40
1.0
 40
1.0
 40
1.0
 10
28.0490160983
 20
31.7952761113
 30
0.0
 10
28.2322133555
 20
32.0136998077
 30
0.0
 10
28.6085511347
 20
32.4302231265
 30
0.0
 10
29.208432063
 20
32.9971280083
 30
0.0
 10
29.827315142
 20
33.489220157
 30
0.0
 10
30.4560279672
 20
33.8992416887
 30
0.0
 10
31.0856178662
 20
34.2210757398
 30
0.0
 10
31.7072137897
 20
34.4499263496
 30
0.0
 10
32.3118067443
 20
34.581888916
 30
0.0
 10
32.7102042392
 20
34.6041328978
 30
0.0
 10
32.9016612933
 20
34.5969353972
 30
0.0
  0
LINE
  5
33A
100
AcDbEntity
  8
0
100
AcDbLine
 62
7
  6
BYLAYER
 10
27.1873014322
 20
32.1945425071
 11
27.6022660065
 21
31.6134919685
  0
LINE
  5
33B
100
AcDbEntity
  8
0
100
AcDbLine
 62
7
  6
BYLAYER
 10
27.6022660065
 20
31.6134919685
 11
27.6638029734
 21
31.5268070848
  0
SPLINE
  5
33C
100
AcDbEntity
  8
0
100
AcDbSpline
 62
7
  6
BYLAYER
 70
0
 71
3
 72
15
 73
11
 74
0
 42
0.0000001
 43
0.0000001
 44
0.0000000001
 40
0.0
 40
0.0
 40
0.0
 40
0.0
 40
0.1119645035
 40
0.2297498054
 40
0.3524362857
 40
0.4790294546
 40
0.6083537067
 40
0.7391440414
 40
0.8701515023
 40
1.0
 40
1.0
 40
1.0
 40
1.0
 10
25.3165085578
 20
25.1608458752
 30
0.0
 10
25.3239200179
 20
25.414875196
 30
0.0
 10
25.3665133082
 20
25.935595635
 30
0.0
 10
25.5042309027
 20
26.7245640977
 30
0.0
 10
25.7155857771
 20
27.5314195574
 30
0.0
 10
25.9973137617
 20
28.3441393508
 30
0.0
 10
26.3453459337
 20
29.1507741127
 30
0.0
 10
26.7544867894
 20
29.9394882276
 30
0.0
 10
27.2186952572
 20
30.6984347277
 30
0.0
 10
27.5629433358
 20
31.1809093761
 30
0.0
 10
27.7428311553
 20
31.4143756029
 30
0.0
  0
SPLINE
  5
33D
100
AcDbEntity
  8
0
100
AcDbSpline
 62
7
  6
BYLAYER
 70
0
 71
3
 72
11
 73
7
 74
0
 42
0.0000001
 43
0.0000001
 44
0.0000000001
 40
0.0
 40
0.0
 40
0.0
 40
0.0
 40
0.2334570931
 40
0.491153328
 40
0.7528428168
 40
1.0
 40
1.0
 40
1.0
 40
1.0
 10
25.158452194
 20
25.0695925357
 30
0.0
 10
25.1508944225
 20
25.0652290803
 30
0.0
 10
25.1342048986
 20
25.0574126467
 30
0.0
 10
25.1075014031
 20
25.0483926091
 30
0.0
 10
25.0795281251
 20
25.0419803487
 30
0.0
 10
25.0606204222
 20
25.0395481631
 30
0.0
 10
25.0514023755
 20
25.0389251216
 30
0.0
  0
SPLINE
  5
33E
100
AcDbEntity
  8
0
100
AcDbSpline
 62
7
  6
BYLAYER
 70
0
 71
3
 72
9
 73
5
 74
0
 42
0.0000001
 43
0.0000001
 44
0.0000000001
 40
0.0
 40
0.0
 40
0.0
 40
0.0
 40
0.485131323
 40
1.0
 40
1.0
 40
1.0
 40
1.0
 10
18.8293938284
 20
24.2749445951
 30
0.0
 10
18.7009193089
 20
24.1581709172
 30
0.0
 10
18.4209705164
 20
23.9338113337
 30
0.0
 10
18.1190671996
 20
23.7404593358
 30
0.0
 10
17.9594965607
 20
23.6483317344
 30
0.0
  0
SPLINE
  5
33F
100
AcDbEntity
  8
0
100
AcDbSpline
 62
7
  6
BYLAYER
 70
0
 71
3
 72
11
 73
7
 74
0
 42
0.0000001
 43
0.0000001
 44
0.0000000001
 40
0.0
 40
0.0
 40
0.0
 40
0.0
 40
0.2233416547
 40
0.4631676208
 40
0.72186994
 40
1.0
 40
1.0
 40
1.0
 40
1.0
 10
19.6055825622
 20
23.82773185
 30
0.0
 10
19.5318842869
 20
23.6679015845
 30
0.0
 10
19.3442206567
 20
23.3518145809
 30
0.0
 10
18.9710632729
 20
22.9193371827
 30
0.0
 10
18.5045919454
 20
22.5200600528
 30
0.0
 10
18.1493114194
 20
22.2882163892
 30
0.0
 10
17.9594965607
 20
22.1786273836
 30
0.0
  0
SPLINE
  5
340
100
AcDbEntity
  8
0
100
AcDbSpline
 62
7
  6
BYLAYER
 70
0
 71
3
 72
11
 73
7
 74
0
 42
0.0000001
 43
0.0000001
 44
0.0000000001
 40
0.0
 40
0.0
 40
0.0
 40
0.0
 40
0.2589101976
 40
0.5153129669
 40
0.7635023244
 40
1.0
 40
1.0
 40
1.0
 40
1.0
 10
6.9485891808
 20
26.6010481122
 30
0.0
 10
6.9297468681
 20
26.6015230306
 30
0.0
 10
6.8922427121
 20
26.6058838285
 30
0.0
 10
6.8388397086
 20
26.6224838793
 30
0.0
 10
6.7913169495
 20
26.6488850493
 30
0.0
 10
6.7651798355
 20
26.6733588979
 30
0.0
 10
6.7545410766
 20
26.6868951995
 30
0.0
  0
SPLINE
  5
341
100
AcDbEntity
  8
0
100
AcDbSpline
 62
7
  6
BYLAYER
 70
0
 71
3
 72
11
 73
7
 74
0
 42
0.0000001
 43
0.0000001
 44
0.0000000001
 40
0.0
 40
0.0
 40
0.0
 40
0.0
 40
0.2317480101
 40
0.4771803965
 40
0.7340822331
 40
1.0
 40
1.0
 40
1.0
 40
1.0
 10
16.6513435692
 20
21.5458186703
 30
0.0
 10
16.5041850658
 20
21.4608571759
 30
0.0
 10
16.19053333
 20
21.3039475932
 30
0.0
 10
15.6864058195
 20
21.1131360972
 30
0.0
 10
15.1427852043
 20
20.9628158231
 30
0.0
 10
14.7654613508
 20
20.8923103075
 30
0.0
 10
14.5725276095
 20
20.8641507773
 30
0.0
  0
SPLINE
  5
342
100
AcDbEntity
  8
0
100
AcDbSpline
 62
7
  6
BYLAYER
 70
0
 71
3
 72
9
 73
5
 74
0
 42
0.0000001
 43
0.0000001
 44
0.0000000001
 40
0.0
 40
0.0
 40
0.0
 40
0.0
 40
0.5027277643
 40
1.0
 40
1.0
 40
1.0
 40
1.0
 10
9.5965498324
 20
29.8216846377
 30
0.0
 10
9.2655668023
 20
30.0739012381
 30
0.0
 10
8.6388263472
 20
30.6180553159
 30
0.0
 10
8.0761320371
 20
31.2273283376
 30
0.0
 10
7.8125199436
 20
31.5434513472
 30
0.0
  0
SPLINE
  5
343
100
AcDbEntity
  8
0
100
AcDbSpline
 62
7
  6
BYLAYER
 70
0
 71
3
 72
9
 73
5
 74
0
 42
0.0000001
 43
0.0000001
 44
0.0000000001
 40
0.0
 40
0.0
 40
0.0
 40
0.0
 40
0.2468856925
 40
1.0
 40
1.0
 40
1.0
 40
1.0
 10
14.008477712
 20
27.029101988
 30
0.0
 10
13.8777369282
 20
27.084212695
 30
0.0
 10
13.352610306
 20
27.3179395671
 30
0.0
 10
12.8449271804
 20
27.5898371706
 30
0.0
 10
12.4720210033
 20
27.8095180198
 30
0.0
  0
SPLINE
  5
344
100
AcDbEntity
  8
0
100
AcDbSpline
 62
7
  6
BYLAYER
 70
0
 71
3
 72
12
 73
8
 74
0
 42
0.0000001
 43
0.0000001
 44
0.0000000001
 40
0.0
 40
0.0
 40
0.0
 40
0.0
 40
0.2475435679
 40
0.49752278
 40
0.6232004046
 40
0.7491017909
 40
1.0
 40
1.0
 40
1.0
 40
1.0
 10
12.4720210033
 20
27.8095180198
 30
0.0
 10
12.222355009
 20
27.9565974758
 30
0.0
 10
11.7286068397
 20
28.2659829634
 30
0.0
 10
11.1278058961
 20
28.6800415249
 30
0.0
 10
10.6524678075
 20
29.0246709254
 30
0.0
 10
10.1807365972
 20
29.3760229261
 30
0.0
 10
9.830181468
 20
29.6437189663
 30
0.0
 10
9.5965548275
 20
29.8216943617
 30
0.0
  0
SPLINE
  5
345
100
AcDbEntity
  8
0
100
AcDbSpline
 62
7
  6
BYLAYER
 70
0
 71
3
 72
11
 73
7
 74
0
 42
0.0000001
 43
0.0000001
 44
0.0000000001
 40
0.0
 40
0.0
 40
0.0
 40
0.0
 40
0.2789571878
 40
0.5378324752
 40
0.7773235028
 40
1.0
 40
1.0
 40
1.0
 40
1.0
 10
23.8285543829
 20
22.2967969548
 30
0.0
 10
23.8285543829
 20
22.2257532075
 30
0.0
 10
23.8362738097
 20
22.0885886884
 30
0.0
 10
23.8738451145
 20
21.8935202224
 30
0.0
 10
23.9366479958
 20
21.7200851562
 30
0.0
 10
23.9967348356
 20
21.6178125936
 30
0.0
 10
24.0305840507
 20
21.5723120469
 30
0.0
  0
SPLINE
  5
346
100
AcDbEntity
  8
0
100
AcDbSpline
 62
7
  6
BYLAYER
 70
0
 71
3
 72
16
 73
12
 74
0
 42
0.0000001
 43
0.0000001
 44
0.0000000001
 40
0.0
 40
0.0
 40
0.0
 40
0.0
 40
0.1102093187
 40
0.2221327014
 40
0.3373511304
 40
0.457214752
 40
0.5192564646
 40
0.5828292152
 40
0.714857619
 40
0.8538657479
 40
1.0
 40
1.0
 40
1.0
 40
1.0
 10
34.1252756223
 20
34.2571737016
 30
0.0
 10
34.2335484491
 20
34.1946599175
 30
0.0
 10
34.4423632394
 20
34.0515140486
 30
0.0
 10
34.7224211585
 20
33.7887083395
 30
0.0
 10
34.968295956
 20
33.4796283492
 30
0.0
 10
35.1410186133
 20
33.1890107699
 30
0.0
 10
35.2608395375
 20
32.9374858976
 30
0.0
 10
35.3708015901
 20
32.6665187113
 30
0.0
 10
35.4832983446
 20
32.3031412214
 30
0.0
 10
35.5769500731
 20
31.8385643458
 30
0.0
 10
35.611715216
 20
31.5164808192
 30
0.0
 10
35.6228426588
 20
31.3510767351
 30
0.0
  0
SPLINE
  5
347
100
AcDbEntity
  8
0
100
AcDbSpline
 62
7
  6
BYLAYER
 70
0
 71
3
 72
14
 73
10
 74
0
 42
0.0000001
 43
0.0000001
 44
0.0000000001
 40
0.0
 40
0.0
 40
0.0
 40
0.0
 40
0.1100565199
 40
0.2227577562
 40
0.3391524259
 40
0.4601157012
 40
0.5863067669
 40
0.7182061953
 40
1.0
 40
1.0
 40
1.0
 40
1.0
 10
26.453241856
 20
21.8606114435
 30
0.0
 10
26.5560458953
 20
21.8205015054
 30
0.0
 10
26.7697799588
 20
21.7531187817
 30
0.0
 10
27.1053034795
 20
21.6928818506
 30
0.0
 10
27.4565244618
 20
21.6726716805
 30
0.0
 10
27.8211951265
 20
21.692617206
 30
0.0
 10
28.1971934159
 20
21.7523324258
 30
0.0
 10
28.7220088628
 20
21.8874453531
 30
0.0
 10
29.1088101503
 20
22.0436469362
 30
0.0
 10
29.362901368
 20
22.1672260464
 30
0.0
  0
SPLINE
  5
348
100
AcDbEntity
  8
0
100
AcDbSpline
 62
7
  6
BYLAYER
 70
0
 71
3
 72
15
 73
11
 74
0
 42
0.0000001
 43
0.0000001
 44
0.0000000001
 40
0.0
 40
0.0
 40
0.0
 40
0.0
 40
0.1080128123
 40
0.2180608877
 40
0.3319984268
 40
0.4513602264
 40
0.5772741036
 40
0.7104905204
 40
0.8514269206
 40
1.0
 40
1.0
 40
1.0
 40
1.0
 10
25.7122295316
 20
21.5629919452
 30
0.0
 10
25.5827038482
 20
21.6377722329
 30
0.0
 10
25.3336840625
 20
21.8115555658
 30
0.0
 10
25.004629943
 20
22.1353771302
 30
0.0
 10
24.7216224733
 20
22.5197208798
 30
0.0
 10
24.4873373916
 20
22.9602768874
 30
0.0
 10
24.3034972953
 20
23.4524999764
 30
0.0
 10
24.1715845236
 20
23.9917050893
 30
0.0
 10
24.0926468397
 20
24.5726251068
 30
0.0
 10
24.0760421979
 20
24.9737770359
 30
0.0
 10
24.0760421979
 20
25.1795025131
 30
0.0
  0
SPLINE
  5
349
100
AcDbEntity
  8
0
100
AcDbSpline
 62
7
  6
BYLAYER
 70
0
 71
3
 72
11
 73
7
 74
0
 42
0.0000001
 43
0.0000001
 44
0.0000000001
 40
0.0
 40
0.0
 40
0.0
 40
0.0
 40
0.3412116164
 40
0.6263779332
 40
0.8480485306
 40
1.0
 40
1.0
 40
1.0
 40
1.0
 10
9.5965497698
 20
29.8216846854
 30
0.0
 10
9.6007586169
 20
29.8288785757
 30
0.0
 10
9.608263759
 20
29.8422117155
 30
0.0
 10
9.6176298731
 20
29.8607164883
 30
0.0
 10
9.623899371
 20
29.8755145346
 30
0.0
 10
9.6266146445
 20
29.8843231847
 30
0.0
 10
9.62704629
 20
29.8880096643
 30
0.0
  0
SPLINE
  5
34A
100
AcDbEntity
  8
0
100
AcDbSpline
 62
7
  6
BYLAYER
 70
0
 71
3
 72
9
 73
5
 74
0
 42
0.0000001
 43
0.0000001
 44
0.0000000001
 40
0.0
 40
0.0
 40
0.0
 40
0.0
 40
0.496659389
 40
1.0
 40
1.0
 40
1.0
 40
1.0
 10
7.8125191083
 20
31.5434500447
 30
0.0
 10
8.0845955456
 20
31.2405311058
 30
0.0
 10
8.6612085599
 20
30.655862454
 30
0.0
 10
9.294308496
 20
30.132061851
 30
0.0
 10
9.6270465902
 20
29.8880101507
 30
0.0
  0
SPLINE
  5
34B
100
AcDbEntity
  8
0
100
AcDbSpline
 62
7
  6
BYLAYER
 70
0
 71
3
 72
15
 73
11
 74
0
 42
0.0000001
 43
0.0000001
 44
0.0000000001
 40
0.0
 40
0.0
 40
0.0
 40
0.0
 40
0.1214030119
 40
0.2486794652
 40
0.3794212088
 40
0.5112214388
 40
0.6415025987
 40
0.767780807
 40
0.8879185916
 40
1.0
 40
1.0
 40
1.0
 40
1.0
 10
24.9570635372
 20
32.7071262088
 30
0.0
 10
24.8758285941
 20
32.6408764009
 30
0.0
 10
24.717913233
 20
32.4945359845
 30
0.0
 10
24.5029484221
 20
32.2465772518
 30
0.0
 10
24.3091341074
 20
31.9707001496
 30
0.0
 10
24.1419974889
 20
31.6749373169
 30
0.0
 10
24.0063596417
 20
31.3676588179
 30
0.0
 10
23.9059992757
 20
31.0576090533
 30
0.0
 10
23.8439088761
 20
30.7536923604
 30
0.0
 10
23.8285543829
 20
30.5530262798
 30
0.0
 10
23.8285543829
 20
30.4562505471
 30
0.0
  0
SPLINE
  5
34C
100
AcDbEntity
  8
0
100
AcDbSpline
 62
7
  6
BYLAYER
 70
0
 71
3
 72
11
 73
7
 74
0
 42
0.0000001
 43
0.0000001
 44
0.0000000001
 40
0.0
 40
0.0
 40
0.0
 40
0.0
 40
0.2308252879
 40
0.4747824849
 40
0.7314557387
 40
1.0
 40
1.0
 40
1.0
 40
1.0
 10
34.013706624
 20
37.935950321
 30
0.0
 10
33.2479695498
 20
37.6762427327
 30
0.0
 10
31.7021726543
 20
37.0529658821
 30
0.0
 10
29.4274660259
 20
35.8661664018
 30
0.0
 10
27.1543437288
 20
34.41378989
 30
0.0
 10
25.6860776076
 20
33.301661519
 30
0.0
 10
24.9570635372
 20
32.7071262088
 30
0.0
  0
SPLINE
  5
34D
100
AcDbEntity
  8
0
100
AcDbSpline
 62
7
  6
BYLAYER
 70
0
 71
3
 72
28
 73
24
 74
0
 42
0.0000001
 43
0.0000001
 44
0.0000000001
 40
0.0
 40
0.0
 40
0.0
 40
0.0
 40
0.0306622013
 40
0.062402241
 40
0.128734491
 40
0.198317558
 40
0.2702854936
 40
0.3436532624
 40
0.4173755183
 40
0.4903905222
 40
0.5616679306
 40
0.6302564447
 40
0.6953358381
 40
0.7562758981
 40
0.7850832111
 40
0.8127435622
 40
0.8646379282
 40
0.8890216624
 40
0.9124683624
 40
0.935110139
 40
0.9571128758
 40
0.978670569
 40
1.0
 40
1.0
 40
1.0
 40
1.0
 10
24.0760421979
 20
25.1795025131
 30
0.0
 10
24.0760421979
 20
25.340611293
 30
0.0
 10
24.0866972173
 20
25.6685716568
 30
0.0
 10
24.1486111878
 20
26.3424514478
 30
0.0
 10
24.3031631484
 20
27.2115461017
 30
0.0
 10
24.6001851278
 20
28.2642892346
 30
0.0
 10
25.0052102058
 20
29.3200153256
 30
0.0
 10
25.5095966034
 20
30.3561640755
 30
0.0
 10
26.102583016
 20
31.3506776183
 30
0.0
 10
26.7715272243
 20
32.2823329591
 30
0.0
 10
27.5021673388
 20
33.1312724888
 30
0.0
 10
28.2790387465
 20
33.8794726002
 30
0.0
 10
29.085668957
 20
34.510987636
 30
0.0
 10
29.7815714245
 20
34.936765932
 30
0.0
 10
30.3382597388
 20
35.2037867774
 30
0.0
 10
30.8683836284
 20
35.4123239934
 30
0.0
 10
31.3993403698
 20
35.5533203705
 30
0.0
 10
31.920461994
 20
35.6145907664
 30
0.0
 10
32.2914023485
 20
35.6204588483
 30
0.0
 10
32.6483597118
 20
35.5869589689
 30
0.0
 10
32.9893884202
 20
35.5142506526
 30
0.0
 10
33.3124186471
 20
35.4025563261
 30
0.0
 10
33.5150382802
 20
35.3023056701
 30
0.0
 10
33.6120954922
 20
35.2462707121
 30
0.0
  0
SPLINE
  5
34E
100
AcDbEntity
  8
0
100
AcDbSpline
 62
7
  6
BYLAYER
 70
0
 71
3
 72
11
 73
7
 74
0
 42
0.0000001
 43
0.0000001
 44
0.0000000001
 40
0.0
 40
0.0
 40
0.0
 40
0.0
 40
0.2470563671
 40
0.4946943281
 40
0.7451028183
 40
1.0
 40
1.0
 40
1.0
 40
1.0
 10
27.8824954305
 20
21.0111660399
 30
0.0
 10
27.8916908873
 20
21.0110636653
 30
0.0
 10
27.9102449572
 20
21.0134965254
 30
0.0
 10
27.9358866853
 20
21.0251195744
 30
0.0
 10
27.9569769937
 20
21.0442445374
 30
0.0
 10
27.9665559581
 20
21.0608432787
 30
0.0
 10
27.9699879164
 20
21.0696887033
 30
0.0
  0
SPLINE
  5
34F
100
AcDbEntity
  8
0
100
AcDbSpline
 62
7
  6
BYLAYER
 70
0
 71
3
 72
11
 73
7
 74
0
 42
0.0000001
 43
0.0000001
 44
0.0000000001
 40
0.0
 40
0.0
 40
0.0
 40
0.0
 40
0.2478292322
 40
0.4979282348
 40
0.7492678617
 40
1.0
 40
1.0
 40
1.0
 40
1.0
 10
12.5238262086
 20
27.90699822
 30
0.0
 10
12.2726189652
 20
28.0520485063
 30
0.0
 10
11.7755319008
 20
28.3568299396
 30
0.0
 10
11.0481728089
 20
28.8471181983
 30
0.0
 10
10.3332422633
 20
29.361035712
 30
0.0
 10
9.8619710868
 20
29.7121183679
 30
0.0
 10
9.6270465902
 20
29.8880101507
 30
0.0
  0
SPLINE
  5
350
100
AcDbEntity
  8
0
100
AcDbSpline
 62
7
  6
BYLAYER
 70
0
 71
3
 72
11
 73
7
 74
0
 42
0.0000001
 43
0.0000001
 44
0.0000000001
 40
0.0
 40
0.0
 40
0.0
 40
0.0
 40
0.2473661008
 40
0.4945699342
 40
0.7445917194
 40
1.0
 40
1.0
 40
1.0
 40
1.0
 10
34.538158051
 20
34.2463744791
 30
0.0
 10
34.4492791938
 20
34.3164757715
 30
0.0
 10
34.2619876588
 20
34.4449638509
 30
0.0
 10
33.9565916869
 20
34.5983320905
 30
0.0
 10
33.6299240574
 20
34.7105084822
 30
0.0
 10
33.4025988758
 20
34.7568923679
 30
0.0
 10
33.2868744182
 20
34.7732695184
 30
0.0
  0
SPLINE
  5
351
100
AcDbEntity
  8
0
100
AcDbSpline
 62
7
  6
BYLAYER
 70
0
 71
3
 72
15
 73
11
 74
0
 42
0.0000001
 43
0.0000001
 44
0.0000000001
 40
0.0
 40
0.0
 40
0.0
 40
0.0
 40
0.1134537928
 40
0.2282209283
 40
0.3454846301
 40
0.4663047435
 40
0.5915628507
 40
0.7219670405
 40
0.8580582692
 40
1.0
 40
1.0
 40
1.0
 40
1.0
 10
5.4693957582
 20
43.2028338831
 30
0.0
 10
5.4702797827
 20
43.0360942037
 30
0.0
 10
5.497848053
 20
42.7002716244
 30
0.0
 10
5.6157734806
 20
42.2045455214
 30
0.0
 10
5.8091453026
 20
41.7213990597
 30
0.0
 10
6.0760462268
 20
41.2569662145
 30
0.0
 10
6.4136727629
 20
40.8166881466
 30
0.0
 10
6.8188487453
 20
40.4056841123
 30
0.0
 10
7.2874806638
 20
40.0286881463
 30
0.0
 10
7.6318561529
 20
39.8072071993
 30
0.0
 10
7.8125191083
 20
39.702903637
 30
0.0
  0
SPLINE
  5
352
100
AcDbEntity
  8
0
100
AcDbSpline
 62
7
  6
BYLAYER
 70
0
 71
3
 72
15
 73
11
 74
0
 42
0.0000001
 43
0.0000001
 44
0.0000000001
 40
0.0
 40
0.0
 40
0.0
 40
0.0
 40
0.0980154486
 40
0.2032715306
 40
0.3167485388
 40
0.4387546887
 40
0.569001964
 40
0.7067349572
 40
0.8508694515
 40
1.0
 40
1.0
 40
1.0
 40
1.0
 10
32.7734220452
 20
35.4196708972
 30
0.0
 10
32.5558419581
 20
35.4391067613
 30
0.0
 10
32.0996541649
 20
35.4326904622
 30
0.0
 10
31.4035385448
 20
35.2991556563
 30
0.0
 10
30.6852012006
 20
35.045183153
 30
0.0
 10
29.9564422595
 20
34.6757552236
 30
0.0
 10
29.2289051102
 20
34.1972775758
 30
0.0
 10
28.514460632
 20
33.6178801426
 30
0.0
 10
27.8250799445
 20
32.9473288819
 30
0.0
 10
27.3955361373
 20
32.4535900045
 30
0.0
 10
27.1873017312
 20
32.1945420817
 30
0.0
  0
SPLINE
  5
353
100
AcDbEntity
  8
0
100
AcDbSpline
 62
7
  6
BYLAYER
 70
0
 71
3
 72
11
 73
7
 74
0
 42
0.0000001
 43
0.0000001
 44
0.0000000001
 40
0.0
 40
0.0
 40
0.0
 40
0.0
 40
0.2479568392
 40
0.4990413805
 40
0.7506343953
 40
1.0
 40
1.0
 40
1.0
 40
1.0
 10
33.2868744182
 20
34.7732695184
 30
0.0
 10
33.2903715843
 20
34.7822830072
 30
0.0
 10
33.294577283
 20
34.8016319608
 30
0.0
 10
33.2924105714
 20
34.8311907159
 30
0.0
 10
33.28230754
 20
34.8590786124
 30
0.0
 10
33.2710333855
 20
34.875338424
 30
0.0
 10
33.2645034107
 20
34.8825424321
 30
0.0
  0
SPLINE
  5
354
100
AcDbEntity
  8
0
100
AcDbSpline
 62
7
  6
BYLAYER
 70
0
 71
3
 72
15
 73
11
 74
0
 42
0.0000001
 43
0.0000001
 44
0.0000000001
 40
0.0
 40
0.0
 40
0.0
 40
0.0
 40
0.0993906806
 40
0.2058127749
 40
0.3199813489
 40
0.4421370127
 40
0.5720062845
 40
0.7089274035
 40
0.8520113579
 40
1.0
 40
1.0
 40
1.0
 40
1.0
 10
32.9806894752
 20
34.8006202186
 30
0.0
 10
32.7830676793
 20
34.8083476728
 30
0.0
 10
32.3717541487
 20
34.7858849123
 30
0.0
 10
31.7474666343
 20
34.6501123306
 30
0.0
 10
31.1055533312
 20
34.4140594402
 30
0.0
 10
30.4553541765
 20
34.0817735174
 30
0.0
 10
29.806066456
 20
33.6582273988
 30
0.0
 10
29.1669727705
 20
33.1497657821
 30
0.0
 10
28.5475837337
 20
32.5639185343
 30
0.0
 10
28.1590829598
 20
32.1334484774
 30
0.0
 10
27.9699879164
 20
31.9077075932
 30
0.0
  0
SPLINE
  5
355
100
AcDbEntity
  8
0
100
AcDbSpline
 62
7
  6
BYLAYER
 70
0
 71
3
 72
15
 73
11
 74
0
 42
0.0000001
 43
0.0000001
 44
0.0000000001
 40
0.0
 40
0.0
 40
0.0
 40
0.0
 40
0.0992545746
 40
0.2055652589
 40
0.3196667788
 40
0.4418081284
 40
0.5717137866
 40
0.7087122443
 40
0.8519002943
 40
1.0
 40
1.0
 40
1.0
 40
1.0
 10
32.9842657338
 20
34.9075787656
 30
0.0
 10
32.7832814305
 20
34.9163884791
 30
0.0
 10
32.3646873476
 20
34.8951310144
 30
0.0
 10
31.729047583
 20
34.7584489297
 30
0.0
 10
31.075241083
 20
34.5189094433
 30
0.0
 10
30.4128974901
 20
34.1806824358
 30
0.0
 10
29.7515006403
 20
33.7488971941
 30
0.0
 10
29.1006245409
 20
33.2301056559
 30
0.0
 10
28.4700788096
 20
32.6320891827
 30
0.0
 10
28.0748211659
 20
32.192585588
 30
0.0
 10
27.8825109074
 20
31.9620966436
 30
0.0
  0
SPLINE
  5
356
100
AcDbEntity
  8
0
100
AcDbSpline
 62
7
  6
BYLAYER
 70
0
 71
3
 72
11
 73
7
 74
0
 42
0.0000001
 43
0.0000001
 44
0.0000000001
 40
0.0
 40
0.0
 40
0.0
 40
0.0
 40
0.199824001
 40
0.4447296572
 40
0.7179432987
 40
1.0
 40
1.0
 40
1.0
 40
1.0
 10
27.9699879164
 20
31.9077075932
 30
0.0
 10
27.9659929294
 20
31.9133911645
 30
0.0
 10
27.9549314038
 20
31.9244648379
 30
0.0
 10
27.9344777705
 20
31.9388600599
 30
0.0
 10
27.9097898389
 20
31.9518367877
 30
0.0
 10
27.8918094303
 20
31.9589690707
 30
0.0
 10
27.8825149396
 20
31.9620950386
 30
0.0
  0
SPLINE
  5
357
100
AcDbEntity
  8
0
100
AcDbSpline
 62
7
  6
BYLAYER
 70
0
 71
3
 72
15
 73
11
 74
0
 42
0.0000001
 43
0.0000001
 44
0.0000000001
 40
0.0
 40
0.0
 40
0.0
 40
0.0
 40
0.1298421566
 40
0.2611898165
 40
0.3925249453
 40
0.5223738123
 40
0.6492911192
 40
0.7719393733
 40
0.8891632796
 40
1.0
 40
1.0
 40
1.0
 40
1.0
 10
27.1873017312
 20
32.1945420817
 30
0.0
 10
26.9742571909
 20
31.9295102075
 30
0.0
 10
26.5667731184
 20
31.37908684
 30
0.0
 10
26.0191727946
 20
30.5080043222
 30
0.0
 10
25.5385646481
 20
29.598147261
 30
0.0
 10
25.1330832232
 20
28.6650327325
 30
0.0
 10
24.809617069
 20
27.7243724855
 30
0.0
 10
24.5735676915
 20
26.7919793935
 30
0.0
 10
24.4290200608
 20
25.8836712374
 30
0.0
 10
24.3942415774
 20
25.286064717
 30
0.0
 10
24.3942415742
 20
24.9957941735
 30
0.0
  0
SPLINE
  5
358
100
AcDbEntity
  8
0
100
AcDbSpline
 62
7
  6
BYLAYER
 70
0
 71
3
 72
15
 73
11
 74
0
 42
0.0000001
 43
0.0000001
 44
0.0000000001
 40
0.0
 40
0.0
 40
0.0
 40
0.0
 40
0.129848833
 40
0.2609008955
 40
0.3917562377
 40
0.5211435234
 40
0.6477751539
 40
0.7704553054
 40
0.8881739466
 40
1.0
 40
1.0
 40
1.0
 40
1.0
 10
27.6022755576
 20
31.6134779617
 30
0.0
 10
27.4124851593
 20
31.368435272
 30
0.0
 10
27.0493107622
 20
30.8617345734
 30
0.0
 10
26.5597906648
 20
30.0641139321
 30
0.0
 10
26.1285762637
 20
29.2347009306
 30
0.0
 10
25.7621430649
 20
28.3861667224
 30
0.0
 10
25.4660552652
 20
27.5311735978
 30
0.0
 10
25.244661171
 20
26.6825059998
 30
0.0
 10
25.1014393923
 20
25.8530237962
 30
0.0
 10
25.0582423328
 20
25.3057624649
 30
0.0
 10
25.0513982807
 20
25.0389244456
 30
0.0
  0
SPLINE
  5
359
100
AcDbEntity
  8
0
100
AcDbSpline
 62
7
  6
BYLAYER
 70
0
 71
3
 72
15
 73
11
 74
0
 42
0.0000001
 43
0.0000001
 44
0.0000000001
 40
0.0
 40
0.0
 40
0.0
 40
0.0
 40
0.1298486408
 40
0.2608669126
 40
0.3916729627
 40
0.5210124356
 40
0.6476148835
 40
0.7702998228
 40
0.8880689997
 40
1.0
 40
1.0
 40
1.0
 40
1.0
 10
27.6638029734
 20
31.5268070848
 30
0.0
 10
27.4778970069
 20
31.285833515
 30
0.0
 10
27.1221380355
 20
30.7877726219
 30
0.0
 10
26.6424576547
 20
30.004174223
 30
0.0
 10
26.2197364351
 20
29.1897209096
 30
0.0
 10
25.8602415466
 20
28.3566967597
 30
0.0
 10
25.5693618238
 20
27.5173747919
 30
0.0
 10
25.3513154637
 20
26.6841460794
 30
0.0
 10
25.2094842018
 20
25.8694770447
 30
0.0
 10
25.1658797223
 20
25.3318410437
 30
0.0
 10
25.158452194
 20
25.0695925357
 30
0.0
  0
SPLINE
  5
35A
100
AcDbEntity
  8
0
100
AcDbSpline
 62
7
  6
BYLAYER
 70
0
 71
3
 72
10
 73
6
 74
0
 42
0.0000001
 43
0.0000001
 44
0.0000000001
 40
0.0
 40
0.0
 40
0.0
 40
0.0
 40
0.2662374566
 40
0.5283312355
 40
1.0
 40
1.0
 40
1.0
 40
1.0
 10
25.0513822832
 20
24.6652787425
 30
0.0
 10
25.0601582745
 20
24.6609010751
 30
0.0
 10
25.078537043
 20
24.653936394
 30
0.0
 10
25.1148834127
 20
24.6479068848
 30
0.0
 10
25.1434053253
 20
24.6526540653
 30
0.0
 10
25.158452194
 20
24.6613413272
 30
0.0
  0
SPLINE
  5
35B
100
AcDbEntity
  8
0
100
AcDbSpline
 62
7
  6
BYLAYER
 70
0
 71
3
 72
15
 73
11
 74
0
 42
0.0000001
 43
0.0000001
 44
0.0000000001
 40
0.0
 40
0.0
 40
0.0
 40
0.0
 40
0.1485803541
 40
0.2895098932
 40
0.422725528
 40
0.5486429145
 40
0.6680035202
 40
0.7819416764
 40
0.8919920377
 40
1.0
 40
1.0
 40
1.0
 40
1.0
 10
24.3942415742
 20
24.9957941735
 30
0.0
 10
24.3942415685
 20
24.7900585795
 30
0.0
 10
24.4108388975
 20
24.3889054768
 30
0.0
 10
24.4897887092
 20
23.8079870802
 30
0.0
 10
24.6217005364
 20
23.2687886599
 30
0.0
 10
24.8055308781
 20
22.7765581565
 30
0.0
 10
25.0398355795
 20
22.3360090045
 30
0.0
 10
25.322827218
 20
21.9516498072
 30
0.0
 10
25.6518979957
 20
21.6278484505
 30
0.0
 10
25.9009077561
 20
21.4540583802
 30
0.0
 10
26.0304285168
 20
21.3792829341
 30
0.0
  0
SPLINE
  5
35C
100
AcDbEntity
  8
0
100
AcDbSpline
 62
7
  6
BYLAYER
 70
0
 71
3
 72
9
 73
5
 74
0
 42
0.0000001
 43
0.0000001
 44
0.0000000001
 40
0.0
 40
0.0
 40
0.0
 40
0.0
 40
0.2460759851
 40
1.0
 40
1.0
 40
1.0
 40
1.0
 10
7.5084959562
 20
25.9159822877
 30
0.0
 10
7.5228316916
 20
25.8934394439
 30
0.0
 10
7.5823474808
 20
25.802634327
 30
0.0
 10
7.6467875912
 20
25.7150748218
 30
0.0
 10
7.6977087888
 20
25.6509943048
 30
0.0
  0
SPLINE
  5
35D
100
AcDbEntity
  8
0
100
AcDbSpline
 62
7
  6
BYLAYER
 70
0
 71
3
 72
11
 73
7
 74
0
 42
0.0000001
 43
0.0000001
 44
0.0000000001
 40
0.0
 40
0.0
 40
0.0
 40
0.0
 40
0.2233359815
 40
0.4645110098
 40
0.7237327866
 40
1.0
 40
1.0
 40
1.0
 40
1.0
 10
7.6977087888
 20
25.6509943048
 30
0.0
 10
7.8206151763
 20
25.4963258126
 30
0.0
 10
8.1052704633
 20
25.1971112536
 30
0.0
 10
8.6112014049
 20
24.8018733198
 30
0.0
 10
9.2028391445
 20
24.4495796157
 30
0.0
 10
9.6349038737
 20
24.2530588184
 30
0.0
 10
9.8619146902
 20
24.1625807561
 30
0.0
  0
SPLINE
  5
35E
100
AcDbEntity
  8
0
100
AcDbSpline
 62
7
  6
BYLAYER
 70
0
 71
3
 72
17
 73
13
 74
0
 42
0.0000001
 43
0.0000001
 44
0.0000000001
 40
0.0
 40
0.0
 40
0.0
 40
0.0
 40
0.1206833745
 40
0.2475114996
 40
0.3781661593
 40
0.5100847439
 40
0.6406244198
 40
0.7672347968
 40
0.8283512109
 40
0.8876615505
 40
0.9449540559
 40
1.0
 40
1.0
 40
1.0
 40
1.0
 10
9.8619146902
 20
24.1625807561
 30
0.0
 10
10.1739700502
 20
24.0382071042
 30
0.0
 10
10.8311374598
 20
23.8248659684
 30
0.0
 10
11.8643066106
 20
23.6137331554
 30
0.0
 10
12.9449332971
 20
23.5077446461
 30
0.0
 10
14.0409951547
 20
23.5101006964
 30
0.0
 10
15.1201280905
 20
23.6206876609
 30
0.0
 10
15.9891604516
 20
23.8024792091
 30
0.0
 10
16.6479953265
 20
24.0005916892
 30
0.0
 10
17.1126387107
 20
24.1713381989
 30
0.0
 10
17.549906217
 20
24.3647122168
 30
0.0
 10
17.8268014725
 20
24.5106984266
 30
0.0
 10
17.9594965607
 20
24.5873095141
 30
0.0
  0
SPLINE
  5
35F
100
AcDbEntity
  8
0
100
AcDbSpline
 62
7
  6
BYLAYER
 70
0
 71
3
 72
11
 73
7
 74
0
 42
0.0000001
 43
0.0000001
 44
0.0000000001
 40
0.0
 40
0.0
 40
0.0
 40
0.0
 40
0.2721662675
 40
0.5289600547
 40
0.7711404052
 40
1.0
 40
1.0
 40
1.0
 40
1.0
 10
30.064592047
 20
21.7564625048
 30
0.0
 10
29.8938418183
 20
21.6736210471
 30
0.0
 10
29.5541785708
 20
21.5279492099
 30
0.0
 10
29.0389817247
 20
21.3699534536
 30
0.0
 10
28.5380431028
 20
21.2806558869
 30
0.0
 10
28.2084901589
 20
21.2673783701
 30
0.0
 10
28.0490160983
 20
21.2733735247
 30
0.0
  0
SPLINE
  5
360
100
AcDbEntity
  8
0
100
AcDbSpline
 62
7
  6
BYLAYER
 70
0
 71
3
 72
14
 73
10
 74
0
 42
0.0000001
 43
0.0000001
 44
0.0000000001
 40
0.0
 40
0.0
 40
0.0
 40
0.0
 40
0.2807266795
 40
0.4125130261
 40
0.5388250996
 40
0.6600765504
 40
0.7768295452
 40
0.8898340268
 40
1.0
 40
1.0
 40
1.0
 40
1.0
 10
34.9142161344
 20
31.7826194346
 30
0.0
 10
34.8950320353
 20
32.0525668824
 30
0.0
 10
34.8404588379
 20
32.4485358364
 30
0.0
 10
34.7058235453
 20
32.9507544167
 30
0.0
 10
34.5798332278
 20
33.2946552525
 30
0.0
 10
34.4274341176
 20
33.6117315586
 30
0.0
 10
34.2492625809
 20
33.9002119764
 30
0.0
 10
34.0463203335
 20
34.1583952312
 30
0.0
 10
33.8936186626
 20
34.3108584301
 30
0.0
 10
33.8138773857
 20
34.3810040889
 30
0.0
  0
SPLINE
  5
361
100
AcDbEntity
  8
0
100
AcDbSpline
 62
7
  6
BYLAYER
 70
0
 71
3
 72
15
 73
11
 74
0
 42
0.0000001
 43
0.0000001
 44
0.0000000001
 40
0.0
 40
0.0
 40
0.0
 40
0.0
 40
0.1098410793
 40
0.2316103526
 40
0.3626990402
 40
0.4986833409
 40
0.6346997028
 40
0.7661066633
 40
0.888667618
 40
1.0
 40
1.0
 40
1.0
 40
1.0
 10
7.8125191123
 20
39.7029036372
 30
0.0
 10
7.8125191125
 20
39.7977433201
 30
0.0
 10
7.8277025088
 20
39.9978516622
 30
0.0
 10
7.8898238316
 20
40.3055056921
 30
0.0
 10
7.9944247307
 20
40.6252640358
 30
0.0
 10
8.1364880604
 20
40.9436712784
 30
0.0
 10
8.3112463003
 20
41.2456640514
 30
0.0
 10
8.5078674663
 20
41.5197186884
 30
0.0
 10
8.7174096232
 20
41.7561710801
 30
0.0
 10
8.8665332337
 20
41.8930261077
 30
0.0
 10
8.9410282712
 20
41.9537792941
 30
0.0
  0
SPLINE
  5
362
100
AcDbEntity
  8
0
100
AcDbSpline
 62
7
  6
BYLAYER
 70
0
 71
3
 72
14
 73
10
 74
0
 42
0.0000001
 43
0.0000001
 44
0.0000000001
 40
0.0
 40
0.0
 40
0.0
 40
0.0
 40
0.2706045011
 40
0.4017074216
 40
0.5288289919
 40
0.6516726052
 40
0.770478768
 40
0.8861143055
 40
1.0
 40
1.0
 40
1.0
 40
1.0
 10
9.2266898417
 20
47.551311201
 30
0.0
 10
9.1445642853
 20
47.5987251237
 30
0.0
 10
9.0168896965
 20
47.6602909414
 30
0.0
 10
8.8395481763
 20
47.7150702445
 30
0.0
 10
8.7079814706
 20
47.7398747276
 30
0.0
 10
8.5785370145
 20
47.7470051346
 30
0.0
 10
8.4533399543
 20
47.7354651315
 30
0.0
 10
8.3347485431
 20
47.7042419097
 30
0.0
 10
8.2612638875
 20
47.6703143776
 30
0.0
 10
8.2267008658
 20
47.6503598071
 30
0.0
  0
SPLINE
  5
363
100
AcDbEntity
  8
0
100
AcDbSpline
 62
7
  6
BYLAYER
 70
0
 71
3
 72
12
 73
8
 74
0
 42
0.0000001
 43
0.0000001
 44
0.0000000001
 40
0.0
 40
0.0
 40
0.0
 40
0.0
 40
0.2610656634
 40
0.5137965793
 40
0.6371709348
 40
0.7589933715
 40
1.0
 40
1.0
 40
1.0
 40
1.0
 10
17.9976713447
 20
47.1826034142
 30
0.0
 10
18.0578546664
 20
47.203015208
 30
0.0
 10
18.179379066
 20
47.2348492397
 30
0.0
 10
18.334989538
 20
47.2479161962
 30
0.0
 10
18.4560890881
 20
47.2383199216
 30
0.0
 10
18.5723500329
 20
47.2152225748
 30
0.0
 10
18.6555436955
 20
47.1820120552
 30
0.0
 10
18.7066708278
 20
47.1532386622
 30
0.0
  0
SPLINE
  5
364
100
AcDbEntity
  8
0
100
AcDbSpline
 62
7
  6
BYLAYER
 70
0
 71
3
 72
22
 73
18
 74
0
 42
0.0000001
 43
0.0000001
 44
0.0000000001
 40
0.0
 40
0.0
 40
0.0
 40
0.0
 40
0.0549458664
 40
0.1129559042
 40
0.1736243679
 40
0.2364819536
 40
0.301038533
 40
0.3667980123
 40
0.4332739935
 40
0.5000063419
 40
0.5665627343
 40
0.6325527724
 40
0.6976235274
 40
0.7614645048
 40
0.8238125654
 40
0.8844687089
 40
1.0
 40
1.0
 40
1.0
 40
1.0
 10
17.9976742752
 20
47.1826044037
 30
0.0
 10
17.8529285697
 20
47.2661714328
 30
0.0
 10
17.5488746276
 20
47.426887448
 30
0.0
 10
17.0667509222
 20
47.6432504687
 30
0.0
 10
16.5501875686
 20
47.8392905456
 30
0.0
 10
16.00459041
 20
48.0123925923
 30
0.0
 10
15.4355084808
 20
48.159872638
 30
0.0
 10
14.8486450686
 20
48.2792978517
 30
0.0
 10
14.2496893409
 20
48.3682282585
 30
0.0
 10
13.6443475216
 20
48.4246590675
 30
0.0
 10
13.0382287202
 20
48.4465908763
 30
0.0
 10
12.4368947453
 20
48.4326558322
 30
0.0
 10
11.8458214677
 20
48.3814808276
 30
0.0
 10
11.2704172723
 20
48.2926065303
 30
0.0
 10
10.7158365237
 20
48.1654843526
 30
0.0
 10
10.0227811753
 20
47.9493884236
 30
0.0
 10
9.5310453942
 20
47.7270091452
 30
0.0
 10
9.2266897181
 20
47.5513113931
 30
0.0
  0
SPLINE
  5
365
100
AcDbEntity
  8
0
100
AcDbSpline
 62
7
  6
BYLAYER
 70
0
 71
3
 72
23
 73
19
 74
0
 42
0.0000001
 43
0.0000001
 44
0.0000000001
 40
0.0
 40
0.0
 40
0.0
 40
0.0
 40
0.0715482936
 40
0.1405389404
 40
0.207025285
 40
0.2711878218
 40
0.3332849987
 40
0.3936247565
 40
0.4525768624
 40
0.5105690647
 40
0.5680797931
 40
0.625619198
 40
0.6837218224
 40
0.742919859
 40
0.8037262164
 40
0.8665995826
 40
0.9319284641
 40
1.0
 40
1.0
 40
1.0
 40
1.0
 10
9.2266898849
 20
47.551311226
 30
0.0
 10
9.082241401
 20
47.4679039758
 30
0.0
 10
8.806047254
 20
47.2904881516
 30
0.0
 10
8.4281443354
 20
46.9888631261
 30
0.0
 10
8.0980011914
 20
46.6593645422
 30
0.0
 10
7.8186821943
 20
46.3059734675
 30
0.0
 10
7.5930805555
 20
45.9326277381
 30
0.0
 10
7.4232517842
 20
45.5439515807
 30
0.0
 10
7.3113147626
 20
45.1446731001
 30
0.0
 10
7.2583997644
 20
44.7399717122
 30
0.0
 10
7.2656054639
 20
44.3351346644
 30
0.0
 10
7.3330164533
 20
43.9355975329
 30
0.0
 10
7.4606285289
 20
43.5469006492
 30
0.0
 10
7.6472368445
 20
43.1743341988
 30
0.0
 10
7.8915177174
 20
42.8232180597
 30
0.0
 10
8.1908415918
 20
42.4980752279
 30
0.0
 10
8.5424403664
 20
42.2034700137
 30
0.0
 10
8.8035911068
 20
42.0331225437
 30
0.0
 10
8.9410253548
 20
41.9537769277
 30
0.0
  0
SPLINE
  5
366
100
AcDbEntity
  8
0
100
AcDbSpline
 62
7
  6
BYLAYER
 70
0
 71
3
 72
21
 73
17
 74
0
 42
0.0000001
 43
0.0000001
 44
0.0000000001
 40
0.0
 40
0.0
 40
0.0
 40
0.0
 40
0.136398723
 40
0.2711200963
 40
0.4037324648
 40
0.5335864271
 40
0.5971816735
 40
0.6596460769
 40
0.7207149966
 40
0.7800102119
 40
0.8369754991
 40
0.890842624
 40
0.9165326551
 40
0.941765381
 40
0.9682639607
 40
1.0
 40
1.0
 40
1.0
 40
1.0
 10
9.8091703377
 20
19.3859089195
 30
0.0
 10
9.8280782598
 20
19.37668124
 30
0.0
 10
9.8658212188
 20
19.3586634835
 30
0.0
 10
9.9225908101
 20
19.3330461817
 30
0.0
 10
9.9791167611
 20
19.3093942037
 30
0.0
 10
10.0262166265
 20
19.2916980348
 30
0.0
 10
10.0637076335
 20
19.2793246668
 30
0.0
 10
10.091417564
 20
19.2712149845
 30
0.0
 10
10.1188160556
 20
19.2644934895
 30
0.0
 10
10.1457556875
 20
19.2595807233
 30
0.0
 10
10.1719116349
 20
19.2571859651
 30
0.0
 10
10.1931368928
 20
19.2582803694
 30
0.0
 10
10.2087685153
 20
19.2627099293
 30
0.0
 10
10.2193412708
 20
19.2686493512
 30
0.0
 10
10.227618642
 20
19.2790766123
 30
0.0
 10
10.2291997126
 20
19.2883164819
 30
0.0
 10
10.2291997126
 20
19.2932117599
 30
0.0
  0
SPLINE
  5
367
100
AcDbEntity
  8
0
100
AcDbSpline
 62
7
  6
BYLAYER
 70
0
 71
3
 72
9
 73
5
 74
0
 42
0.0000001
 43
0.0000001
 44
0.0000000001
 40
0.0
 40
0.0
 40
0.0
 40
0.0
 40
0.496555836
 40
1.0
 40
1.0
 40
1.0
 40
1.0
 10
19.2193383174
 20
22.0356730774
 30
0.0
 10
19.2193380417
 20
21.9426514864
 30
0.0
 10
19.2056348848
 20
21.7550692345
 30
0.0
 10
19.1650641791
 20
21.5714673712
 30
0.0
 10
19.1385002751
 20
21.4809736502
 30
0.0
  0
SPLINE
  5
368
100
AcDbEntity
  8
0
100
AcDbSpline
 62
7
  6
BYLAYER
 70
0
 71
3
 72
13
 73
9
 74
0
 42
0.0000001
 43
0.0000001
 44
0.0000000001
 40
0.0
 40
0.0
 40
0.0
 40
0.0
 40
0.1088842438
 40
0.2212359746
 40
0.4590039332
 40
0.5857941437
 40
0.7182238244
 40
1.0
 40
1.0
 40
1.0
 40
1.0
 10
19.1385002751
 20
21.4809736502
 30
0.0
 10
19.114172367
 20
21.3980971678
 30
0.0
 10
19.0541740068
 20
21.2326247463
 30
0.0
 10
18.8906926229
 20
20.9065648839
 30
0.0
 10
18.6657973798
 20
20.5985446757
 30
0.0
 10
18.3922131421
 20
20.3142713758
 30
0.0
 10
18.0692622209
 20
20.0309855781
 30
0.0
 10
17.7971693755
 20
19.8441488441
 30
0.0
 10
17.6053140056
 20
19.7294608926
 30
0.0
  0
SPLINE
  5
369
100
AcDbEntity
  8
0
100
AcDbSpline
 62
7
  6
BYLAYER
 70
0
 71
3
 72
10
 73
6
 74
0
 42
0.0000001
 43
0.0000001
 44
0.0000000001
 40
0.0
 40
0.0
 40
0.0
 40
0.0
 40
0.2483403149
 40
0.4986604462
 40
1.0
 40
1.0
 40
1.0
 40
1.0
 10
14.6106045481
 20
20.3941405575
 30
0.0
 10
14.6317726857
 20
20.3819217603
 30
0.0
 10
14.6762203199
 20
20.3606449221
 30
0.0
 10
14.7696783732
 20
20.3293968075
 30
0.0
 10
14.84357745
 20
20.3177678271
 30
0.0
 10
14.8928766725
 20
20.315722889
 30
0.0
  0
SPLINE
  5
36A
100
AcDbEntity
  8
0
100
AcDbSpline
 62
7
  6
BYLAYER
 70
0
 71
3
 72
15
 73
11
 74
0
 42
0.0000001
 43
0.0000001
 44
0.0000000001
 40
0.0
 40
0.0
 40
0.0
 40
0.0
 40
0.2280639965
 40
0.431316774
 40
0.606180883
 40
0.749352556
 40
0.8598177075
 40
0.9377732976
 40
0.9836326977
 40
1.0
 40
1.0
 40
1.0
 40
1.0
 10
10.426396363
 20
24.6324638983
 30
0.0
 10
10.426396363
 20
24.6264297037
 30
0.0
 10
10.4263583257
 20
24.6150198746
 30
0.0
 10
10.426166198
 20
24.598973775
 30
0.0
 10
10.4258670162
 20
24.5852090884
 30
0.0
 10
10.4254217104
 20
24.5738106804
 30
0.0
 10
10.4249630297
 20
24.5652248353
 30
0.0
 10
10.4242369296
 20
24.5586669928
 30
0.0
 10
10.4238595271
 20
24.5556714247
 30
0.0
 10
10.4230358389
 20
24.5533972107
 30
0.0
 10
10.4226175856
 20
24.5535094511
 30
0.0
  0
SPLINE
  5
36B
100
AcDbEntity
  8
0
100
AcDbSpline
 62
7
  6
BYLAYER
 70
0
 71
3
 72
15
 73
11
 74
0
 42
0.0000001
 43
0.0000001
 44
0.0000000001
 40
0.0
 40
0.0
 40
0.0
 40
0.0
 40
0.0163802912
 40
0.0623163395
 40
0.1403766578
 40
0.2508868574
 40
0.3939619003
 40
0.5687302998
 40
0.7719488814
 40
1.0
 40
1.0
 40
1.0
 40
1.0
 10
16.5161374182
 20
24.5535231422
 30
0.0
 10
16.515718878
 20
24.5534106344
 30
0.0
 10
16.51489519
 20
24.5556895377
 30
0.0
 10
16.5145182098
 20
24.5586881305
 30
0.0
 10
16.5137922141
 20
24.5652531516
 30
0.0
 10
16.5133335001
 20
24.5738401583
 30
0.0
 10
16.5128878223
 20
24.5852347637
 30
0.0
 10
16.5125889722
 20
24.5989935427
 30
0.0
 10
16.5123973057
 20
24.6150359798
 30
0.0
 10
16.5123594165
 20
24.6264446344
 30
0.0
 10
16.5123594165
 20
24.6324785271
 30
0.0
  0
SPLINE
  5
36C
100
AcDbEntity
  8
0
100
AcDbSpline
 62
7
  6
BYLAYER
 70
0
 71
3
 72
11
 73
7
 74
0
 42
0.0000001
 43
0.0000001
 44
0.0000000001
 40
0.0
 40
0.0
 40
0.0
 40
0.0
 40
0.2294494319
 40
0.4597629136
 40
0.7121603243
 40
1.0
 40
1.0
 40
1.0
 40
1.0
 10
10.9171656585
 20
24.435267488
 30
0.0
 10
10.9077560689
 20
24.4372853017
 30
0.0
 10
10.8893275469
 20
24.4444906185
 30
0.0
 10
10.8672775507
 20
24.4657778616
 30
0.0
 10
10.853947608
 20
24.4959371343
 30
0.0
 10
10.8513816808
 20
24.5187603776
 30
0.0
 10
10.8513816808
 20
24.5308328767
 30
0.0
  0
SPLINE
  5
36D
100
AcDbEntity
  8
0
100
AcDbSpline
 62
7
  6
BYLAYER
 70
0
 71
3
 72
11
 73
7
 74
0
 42
0.0000001
 43
0.0000001
 44
0.0000000001
 40
0.0
 40
0.0
 40
0.0
 40
0.0
 40
0.2878942834
 40
0.5404009414
 40
0.7706216972
 40
1.0
 40
1.0
 40
1.0
 40
1.0
 10
16.0873755644
 20
24.5308454625
 30
0.0
 10
16.0873755644
 20
24.5187706041
 30
0.0
 10
16.084795043
 20
24.4959434812
 30
0.0
 10
16.0714790805
 20
24.4657739713
 30
0.0
 10
16.0494192033
 20
24.4444969172
 30
0.0
 10
16.0309970625
 20
24.4372989132
 30
0.0
 10
16.0215904865
 20
24.4352810127
 30
0.0
  0
SPLINE
  5
36E
100
AcDbEntity
  8
0
100
AcDbSpline
 62
7
  6
BYLAYER
 70
0
 71
3
 72
11
 73
7
 74
0
 42
0.0000001
 43
0.0000001
 44
0.0000000001
 40
0.0
 40
0.0
 40
0.0
 40
0.0
 40
0.2478796502
 40
0.4902421963
 40
0.7378757294
 40
1.0
 40
1.0
 40
1.0
 40
1.0
 10
9.2177251499
 20
24.9554574847
 30
0.0
 10
9.207708466
 20
24.9595737587
 30
0.0
 10
9.1887960893
 20
24.9702714551
 30
0.0
 10
9.1662043083
 20
24.993998813
 30
0.0
 10
9.1521483673
 20
25.0243066011
 30
0.0
 10
9.1491879499
 20
25.0467380493
 30
0.0
 10
9.1491879499
 20
25.0581898564
 30
0.0
  0
SPLINE
  5
36F
100
AcDbEntity
  8
0
100
AcDbSpline
 62
7
  6
BYLAYER
 70
0
 71
3
 72
11
 73
7
 74
0
 42
0.0000001
 43
0.0000001
 44
0.0000000001
 40
0.0
 40
0.0
 40
0.0
 40
0.0
 40
0.2724065105
 40
0.5297479078
 40
0.7719394084
 40
1.0
 40
1.0
 40
1.0
 40
1.0
 10
17.9594965607
 20
22.6685288339
 30
0.0
 10
18.1128570315
 20
22.7570710145
 30
0.0
 10
18.4036978834
 20
22.9426178786
 30
0.0
 10
18.7980475173
 20
23.2544987503
 30
0.0
 10
19.1339301642
 20
23.5890669056
 30
0.0
 10
19.3215738368
 20
23.8318582752
 30
0.0
 10
19.40323553
 20
23.9555978261
 30
0.0
  0
SPLINE
  5
370
100
AcDbEntity
  8
0
100
AcDbSpline
 62
7
  6
BYLAYER
 70
0
 71
3
 72
12
 73
8
 74
0
 42
0.0000001
 43
0.0000001
 44
0.0000000001
 40
0.0
 40
0.0
 40
0.0
 40
0.0
 40
0.1639089312
 40
0.2671128537
 40
0.3877854546
 40
0.6765366995
 40
1.0
 40
1.0
 40
1.0
 40
1.0
 10
19.1520009688
 20
23.0804075062
 30
0.0
 10
19.1479363514
 20
23.065211163
 30
0.0
 10
19.1344093126
 20
23.0421956983
 30
0.0
 10
19.1073636101
 20
23.01652161
 30
0.0
 10
19.0660379217
 20
22.9893395097
 30
0.0
 10
18.9989935836
 20
22.965200168
 30
0.0
 10
18.9401186156
 20
22.958425194
 30
0.0
 10
18.9090769115
 20
22.9581233017
 30
0.0
  0
SPLINE
  5
371
100
AcDbEntity
  8
0
100
AcDbSpline
 62
7
  6
BYLAYER
 70
0
 71
3
 72
11
 73
7
 74
0
 42
0.0000001
 43
0.0000001
 44
0.0000000001
 40
0.0
 40
0.0
 40
0.0
 40
0.0
 40
0.2780350816
 40
0.5367175952
 40
0.7766225535
 40
1.0
 40
1.0
 40
1.0
 40
1.0
 10
17.5352307256
 20
20.8313921229
 30
0.0
 10
17.7066032104
 20
20.9303334825
 30
0.0
 10
18.0274186882
 20
21.1396418879
 30
0.0
 10
18.4489357705
 20
21.499928947
 30
0.0
 10
18.7864133804
 20
21.8901914203
 30
0.0
 10
18.9565021013
 20
22.1753751153
 30
0.0
 10
19.0234295031
 20
22.3195839341
 30
0.0
  0
SPLINE
  5
372
100
AcDbEntity
  8
0
100
AcDbSpline
 62
7
  6
BYLAYER
 70
0
 71
3
 72
13
 73
9
 74
0
 42
0.0000001
 43
0.0000001
 44
0.0000000001
 40
0.0
 40
0.0
 40
0.0
 40
0.0
 40
0.2403855018
 40
0.3729835951
 40
0.5089231602
 40
0.6433435655
 40
0.7723003437
 40
1.0
 40
1.0
 40
1.0
 40
1.0
 10
19.0234270526
 20
22.3195857604
 30
0.0
 10
19.0234279305
 20
22.3490880051
 30
0.0
 10
19.0113173402
 20
22.3953482826
 30
0.0
 10
18.9778461097
 20
22.4482999874
 30
0.0
 10
18.9442371921
 20
22.4849852808
 30
0.0
 10
18.905125521
 20
22.5148928004
 30
0.0
 10
18.8521454641
 20
22.5439438428
 30
0.0
 10
18.8095651182
 20
22.5567972069
 30
0.0
 10
18.7819483189
 20
22.5610696287
 30
0.0
  0
SPLINE
  5
373
100
AcDbEntity
  8
0
100
AcDbSpline
 62
7
  6
BYLAYER
 70
0
 71
3
 72
11
 73
7
 74
0
 42
0.0000001
 43
0.0000001
 44
0.0000000001
 40
0.0
 40
0.0
 40
0.0
 40
0.0
 40
0.265163811
 40
0.521754512
 40
0.7673479168
 40
1.0
 40
1.0
 40
1.0
 40
1.0
 10
14.9575824397
 20
19.9721800495
 30
0.0
 10
15.1911276802
 20
20.0083097092
 30
0.0
 10
15.6481814014
 20
20.0969426938
 30
0.0
 10
16.3075756177
 20
20.2813026594
 30
0.0
 10
16.9212031228
 20
20.5126014908
 30
0.0
 10
17.3045059145
 20
20.7010583194
 30
0.0
 10
17.4851569981
 20
20.8028339554
 30
0.0
  0
SPLINE
  5
374
100
AcDbEntity
  8
0
100
AcDbSpline
 62
7
  6
BYLAYER
 70
0
 71
3
 72
15
 73
11
 74
0
 42
0.0000001
 43
0.0000001
 44
0.0000000001
 40
0.0
 40
0.0
 40
0.0
 40
0.0
 40
0.0573509033
 40
0.1143982732
 40
0.2292677879
 40
0.3478695109
 40
0.4709712671
 40
0.598323023
 40
0.7293951709
 40
1.0
 40
1.0
 40
1.0
 40
1.0
 10
14.3469050732
 20
20.3062008791
 30
0.0
 10
14.3469060153
 20
20.2912816446
 30
0.0
 10
14.349490857
 20
20.2614495626
 30
0.0
 10
14.365007284
 20
20.2035924938
 30
0.0
 10
14.4030215835
 20
20.13668074
 30
0.0
 10
14.470352913
 20
20.0715100755
 30
0.0
 10
14.5530251128
 20
20.0214264101
 30
0.0
 10
14.6464307136
 20
19.9863988311
 30
0.0
 10
14.7817325752
 20
19.9591575957
 30
0.0
 10
14.8880170801
 20
19.9614042923
 30
0.0
 10
14.9575824397
 20
19.9721800495
 30
0.0
  0
SPLINE
  5
375
100
AcDbEntity
  8
0
100
AcDbSpline
 62
7
  6
BYLAYER
 70
0
 71
3
 72
13
 73
9
 74
0
 42
0.0000001
 43
0.0000001
 44
0.0000000001
 40
0.0
 40
0.0
 40
0.0
 40
0.0
 40
0.1274182711
 40
0.2702865723
 40
0.5683863941
 40
0.8239357917
 40
0.9223179718
 40
1.0
 40
1.0
 40
1.0
 40
1.0
 10
14.9575820293
 20
19.9721819191
 30
0.0
 10
14.9575821205
 20
19.9871116221
 30
0.0
 10
14.9564883437
 20
20.0187836803
 30
0.0
 10
14.9508481937
 20
20.0851634634
 30
0.0
 10
14.9383432985
 20
20.1659164201
 30
0.0
 10
14.920473645
 20
20.2403323647
 30
0.0
 10
14.9045055004
 20
20.28834425
 30
0.0
 10
14.89670812
 20
20.3074693673
 30
0.0
 10
14.8928763103
 20
20.3157255683
 30
0.0
  0
SPLINE
  5
376
100
AcDbEntity
  8
0
100
AcDbSpline
 62
7
  6
BYLAYER
 70
0
 71
3
 72
13
 73
9
 74
0
 42
0.0000001
 43
0.0000001
 44
0.0000000001
 40
0.0
 40
0.0
 40
0.0
 40
0.0
 40
0.2669358127
 40
0.5415366503
 40
0.6715301223
 40
0.7910661174
 40
0.8995279351
 40
1.0
 40
1.0
 40
1.0
 40
1.0
 10
14.3469057126
 20
20.3061913106
 30
0.0
 10
14.371400872
 20
20.3083754566
 30
0.0
 10
14.4207826559
 20
20.3171406183
 30
0.0
 10
14.4789348262
 20
20.3404868688
 30
0.0
 10
14.5184372569
 20
20.3686864213
 30
0.0
 10
14.5410414829
 20
20.3931142426
 30
0.0
 10
14.5553816818
 20
20.4202166435
 30
0.0
 10
14.5587405422
 20
20.4395850927
 30
0.0
 10
14.5587389318
 20
20.4488414131
 30
0.0
  0
SPLINE
  5
377
100
AcDbEntity
  8
0
100
AcDbSpline
 62
7
  6
BYLAYER
 70
0
 71
3
 72
16
 73
12
 74
0
 42
0.0000001
 43
0.0000001
 44
0.0000000001
 40
0.0
 40
0.0
 40
0.0
 40
0.0
 40
0.061978795
 40
0.1295496935
 40
0.1969009976
 40
0.2630890553
 40
0.3921551261
 40
0.5178192705
 40
0.6409499804
 40
0.7621192431
 40
1.0
 40
1.0
 40
1.0
 40
1.0
 10
8.7192265389
 20
20.1649754562
 30
0.0
 10
8.7192265389
 20
20.1561272353
 30
0.0
 10
8.7244642903
 20
20.1378137743
 30
0.0
 10
8.7379014085
 20
20.1131406907
 30
0.0
 10
8.7544833036
 20
20.089619276
 30
0.0
 10
8.7782724741
 20
20.0606295529
 30
0.0
 10
8.8098908548
 20
20.0273966907
 30
0.0
 10
8.8492791453
 20
19.9905182827
 30
0.0
 10
8.889272369
 20
19.956000982
 30
0.0
 10
8.9427293054
 20
19.9126212771
 30
0.0
 10
8.9836698726
 20
19.8817469649
 30
0.0
 10
9.0111160812
 20
19.8617466919
 30
0.0
  0
SPLINE
  5
378
100
AcDbEntity
  8
0
100
AcDbSpline
 62
7
  6
BYLAYER
 70
0
 71
3
 72
11
 73
7
 74
0
 42
0.0000001
 43
0.0000001
 44
0.0000000001
 40
0.0
 40
0.0
 40
0.0
 40
0.0
 40
0.2292294851
 40
0.4676970765
 40
0.7231352183
 40
1.0
 40
1.0
 40
1.0
 40
1.0
 10
34.727979756
 20
37.9037095734
 30
0.0
 10
34.6792713136
 20
37.9318260245
 30
0.0
 10
34.5720787654
 20
37.9766166423
 30
0.0
 10
34.3951331507
 20
38.0033542331
 30
0.0
 10
34.2052077344
 20
37.9905181178
 30
0.0
 10
34.0780356324
 20
37.9577681645
 30
0.0
 10
34.013706624
 20
37.935950321
 30
0.0
  0
SPLINE
  5
379
100
AcDbEntity
  8
0
100
AcDbSpline
 62
7
  6
BYLAYER
 70
0
 71
3
 72
11
 73
7
 74
0
 42
0.0000001
 43
0.0000001
 44
0.0000000001
 40
0.0
 40
0.0
 40
0.0
 40
0.0
 40
0.2786315281
 40
0.5375385444
 40
0.7772326334
 40
1.0
 40
1.0
 40
1.0
 40
1.0
 10
17.3105566854
 20
21.1102614078
 30
0.0
 10
17.4802715822
 20
21.2058757889
 30
0.0
 10
17.7979435217
 20
21.4086475296
 30
0.0
 10
18.2152993989
 20
21.759392288
 30
0.0
 10
18.5488532971
 20
22.1404945625
 30
0.0
 10
18.7163855806
 20
22.4197981402
 30
0.0
 10
18.7819477772
 20
22.5610657354
 30
0.0
  0
SPLINE
  5
37A
100
AcDbEntity
  8
0
100
AcDbSpline
 62
7
  6
BYLAYER
 70
0
 71
3
 72
11
 73
7
 74
0
 42
0.0000001
 43
0.0000001
 44
0.0000000001
 40
0.0
 40
0.0
 40
0.0
 40
0.0
 40
0.2651635728
 40
0.5217540791
 40
0.7673476735
 40
1.0
 40
1.0
 40
1.0
 40
1.0
 10
14.8928766724
 20
20.315722889
 30
0.0
 10
15.1162675334
 20
20.3502816569
 30
0.0
 10
15.5534487067
 20
20.4350622226
 30
0.0
 10
16.1841728918
 20
20.6114077071
 30
0.0
 10
16.7711213628
 20
20.8326489638
 30
0.0
 10
17.1377598453
 20
21.0129107141
 30
0.0
 10
17.3105566854
 20
21.1102614078
 30
0.0
  0
SPLINE
  5
37B
100
AcDbEntity
  8
0
100
AcDbSpline
 62
7
  6
BYLAYER
 70
0
 71
3
 72
9
 73
5
 74
0
 42
0.0000001
 43
0.0000001
 44
0.0000000001
 40
0.0
 40
0.0
 40
0.0
 40
0.0
 40
0.4467120908
 40
1.0
 40
1.0
 40
1.0
 40
1.0
 10
18.7819477772
 20
22.5610657353
 30
0.0
 10
18.7779811184
 20
22.5928810689
 30
0.0
 10
18.7678230555
 20
22.6639391523
 30
0.0
 10
18.7568500366
 20
22.7348664884
 30
0.0
 10
18.7510769018
 20
22.7741554733
 30
0.0
  0
SPLINE
  5
37C
100
AcDbEntity
  8
0
100
AcDbSpline
 62
7
  6
BYLAYER
 70
0
 71
3
 72
11
 73
7
 74
0
 42
0.0000001
 43
0.0000001
 44
0.0000000001
 40
0.0
 40
0.0
 40
0.0
 40
0.0
 40
0.2449200398
 40
0.4919721073
 40
0.7431202626
 40
1.0
 40
1.0
 40
1.0
 40
1.0
 10
33.9302952546
 20
35.062563047
 30
0.0
 10
33.8440506488
 20
35.1123541295
 30
0.0
 10
33.6649592966
 20
35.2025972882
 30
0.0
 10
33.3809588786
 20
35.3075141492
 30
0.0
 10
33.0824639089
 20
35.3817888202
 30
0.0
 10
32.8774562312
 20
35.4103777878
 30
0.0
 10
32.7734220452
 20
35.4196708972
 30
0.0
  0
SPLINE
  5
37D
100
AcDbEntity
  8
0
100
AcDbSpline
 62
7
  6
BYLAYER
 70
0
 71
3
 72
15
 73
11
 74
0
 42
0.0000001
 43
0.0000001
 44
0.0000000001
 40
0.0
 40
0.0
 40
0.0
 40
0.0
 40
0.1261363559
 40
0.2650046935
 40
0.4069665701
 40
0.5453535303
 40
0.6761128474
 40
0.7966901213
 40
0.9052109118
 40
1.0
 40
1.0
 40
1.0
 40
1.0
 10
19.1519970588
 20
23.0804054713
 30
0.0
 10
19.1519991268
 20
23.047773706
 30
0.0
 10
19.1501004486
 20
22.9792144869
 30
0.0
 10
19.1431741097
 20
22.8741395755
 30
0.0
 10
19.1321388486
 20
22.7662246672
 30
0.0
 10
19.1173138922
 20
22.660879601
 30
0.0
 10
19.0989882353
 20
22.5617011516
 30
0.0
 10
19.0774530385
 20
22.4710773505
 30
0.0
 10
19.0530505529
 20
22.3908615257
 30
0.0
 10
19.0337574506
 20
22.341825103
 30
0.0
 10
19.0234295031
 20
22.3195839341
 30
0.0
  0
SPLINE
  5
37E
100
AcDbEntity
  8
0
100
AcDbSpline
 62
7
  6
BYLAYER
 70
0
 71
3
 72
14
 73
10
 74
0
 42
0.0000001
 43
0.0000001
 44
0.0000000001
 40
0.0
 40
0.0
 40
0.0
 40
0.0
 40
0.1419500691
 40
0.2780248959
 40
0.5333296458
 40
0.6541551383
 40
0.7714837034
 40
0.8863714892
 40
1.0
 40
1.0
 40
1.0
 40
1.0
 10
8.7192265389
 20
20.1649754562
 30
0.0
 10
8.6401772312
 20
20.2318815515
 30
0.0
 10
8.4903373137
 20
20.3690604565
 30
0.0
 10
8.226732386
 20
20.655621845
 30
0.0
 10
8.0122954429
 20
20.9655033917
 30
0.0
 10
7.8598083847
 20
21.292385355
 30
0.0
 10
7.7789865053
 20
21.5376397143
 30
0.0
 10
7.7302173651
 20
21.7858530777
 30
0.0
 10
7.719361049
 20
21.952773029
 30
0.0
 10
7.7193612946
 20
22.0356730774
 30
0.0
  0
SPLINE
  5
37F
100
AcDbEntity
  8
0
100
AcDbSpline
 62
7
  6
BYLAYER
 70
0
 71
3
 72
17
 73
13
 74
0
 42
0.0000001
 43
0.0000001
 44
0.0000000001
 40
0.0
 40
0.0
 40
0.0
 40
0.0
 40
0.0553894718
 40
0.112945055
 40
0.2336279505
 40
0.3602919938
 40
0.4906891482
 40
0.6223477164
 40
0.7527189972
 40
0.8793331905
 40
0.9405642661
 40
1.0
 40
1.0
 40
1.0
 40
1.0
 10
17.4625985808
 20
19.647093831
 30
0.0
 10
17.3424434624
 20
19.5801456094
 30
0.0
 10
17.0923063446
 20
19.4526594768
 30
0.0
 10
16.5586720959
 20
19.2241599873
 30
0.0
 10
15.8357403009
 20
18.9926214331
 30
0.0
 10
14.9147445498
 20
18.8060541924
 30
0.0
 10
13.9524413309
 20
18.7116680751
 30
0.0
 10
12.9763668869
 20
18.7121520866
 30
0.0
 10
12.014429604
 20
18.8074897662
 30
0.0
 10
11.238466424
 20
18.9654870032
 30
0.0
 10
10.6488992661
 20
19.1381758243
 30
0.0
 10
10.3665296895
 20
19.2391293179
 30
0.0
 10
10.2291997126
 20
19.2932117599
 30
0.0
  0
SPLINE
  5
380
100
AcDbEntity
  8
0
100
AcDbSpline
 62
7
  6
BYLAYER
 70
0
 71
3
 72
9
 73
5
 74
0
 42
0.0000001
 43
0.0000001
 44
0.0000000001
 40
0.0
 40
0.0
 40
0.0
 40
0.0
 40
0.2551043725
 40
1.0
 40
1.0
 40
1.0
 40
1.0
 10
35.245757771
 20
33.5265945416
 30
0.0
 10
35.2223430858
 20
33.5669542323
 30
0.0
 10
35.1272614492
 20
33.7232154159
 30
0.0
 10
35.0186143917
 20
33.8713133126
 30
0.0
 10
34.9303576693
 20
33.9751090986
 30
0.0
  0
SPLINE
  5
381
100
AcDbEntity
  8
0
100
AcDbSpline
 62
7
  6
BYLAYER
 70
0
 71
3
 72
12
 73
8
 74
0
 42
0.0000001
 43
0.0000001
 44
0.0000000001
 40
0.0
 40
0.0
 40
0.0
 40
0.0
 40
0.2516667649
 40
0.4983635121
 40
0.6218002891
 40
0.7461783854
 40
1.0
 40
1.0
 40
1.0
 40
1.0
 10
34.9303576693
 20
33.9751090986
 30
0.0
 10
34.8249775874
 20
34.0990430963
 30
0.0
 10
34.5946493654
 20
34.3271523351
 30
0.0
 10
34.2593698178
 20
34.5533176163
 30
0.0
 10
33.9713514883
 20
34.6929676341
 30
0.0
 10
33.6673145657
 20
34.806722685
 30
0.0
 10
33.427067498
 20
34.860367311
 30
0.0
 10
33.2645010936
 20
34.8825460871
 30
0.0
  0
ELLIPSE
  5
382
100
AcDbEntity
  8
0
100
AcDbEllipse
 62
7
  6
BYLAYER
 10
29.9803618882
 20
28.2209229891
 30
0.0
 11
9.1533503352
 21
-9.2311650332
 31
0.0
 40
0.5142831053
 41
-1.3453285794
 42
-1.3110753063
  0
ELLIPSE
  5
383
100
AcDbEntity
  8
0
100
AcDbEllipse
 62
7
  6
BYLAYER
 10
29.9803618882
 20
28.2209229891
 30
0.0
 11
14.8346427837
 21
-14.0052828808
 31
0.0
 40
0.2808970456
 41
4.6428575302
 42
4.6628469554
  0
ELLIPSE
  5
384
100
AcDbEntity
  8
0
100
AcDbEllipse
 62
7
  6
BYLAYER
 10
29.9803618882
 20
28.2209229891
 30
0.0
 11
19.0907442937
 21
-3.3473986706
 31
0.0
 40
0.1658427529
 41
1.7011642489
 42
1.735417522
  0
ELLIPSE
  5
385
100
AcDbEntity
  8
0
100
AcDbEllipse
 62
7
  6
BYLAYER
 10
29.9803618882
 20
28.2209229891
 30
0.0
 11
18.8553803984
 21
-8.9026918941
 31
0.0
 40
0.3414278156
 41
7.8440103727
 42
7.8582116758
  0
ELLIPSE
  5
386
100
AcDbEntity
  8
0
100
AcDbEllipse
 62
7
  6
BYLAYER
 10
29.9803618882
 20
28.2209229891
 30
0.0
 11
18.8553803984
 21
-8.9026918941
 31
0.0
 40
0.3414278156
 41
-1.546514315
 42
-1.5122610419
  0
ENDSEC
  0
SECTION
  2
OBJECTS
  0
DICTIONARY
  5
C
100
AcDbDictionary
280
0
281
1
  3
ACAD_GROUP
350
D
  3
ACAD_MLINESTYLE
350
17
  3
ACAD_LAYOUT
350
1A
  3
ACAD_PLOTSETTINGS
350
19
  3
ACAD_PLOTSTYLENAME
350
E
  0
DICTIONARY
  5
D
102
{ACAD_REACTORS
330
C
102
}
100
AcDbDictionary
280
0
281
1
  0
ACDBDICTIONARYWDFLT
  5
E
102
{ACAD_REACTORS
330
C
102
}
100
AcDbDictionary
281
1
  3
Normal
350
F
100
AcDbDictionaryWithDefault
340
F
  0
DICTIONARY
  5
17
102
{ACAD_REACTORS
330
C
102
}
100
AcDbDictionary
280
0
281
1
  3
Standard
350
18
  0
DICTIONARY
  5
19
102
{ACAD_REACTORS
330
C
102
}
100
AcDbDictionary
281
1
  0
DICTIONARY
  5
1A
102
{ACAD_REACTORS
330
C
102
}
100
AcDbDictionary
281
1
  3
Model
350
387
  3
Layout1
350
388
  0
ACDBPLACEHOLDER
  5
F
102
{ACAD_REACTORS
330
E
102
}
  0
MLINESTYLE
  5
18
102
{ACAD_REACTORS
330
17
102
}
100
AcDbMlineStyle
  2
STANDARD
 70
0
  3

 62
256
 51
90.0
 52
90.0
 71
2
 49
0.5
 62
256
  6
BYLAYER
 49
-0.5
 62
256
  6
BYLAYER
  0
LAYOUT
  5
387
102
{ACAD_REACTORS
330
1A
102
}
100
AcDbPlotSettings
  1

  2
none_device
  4

  6

 40
0.0
 41
0.0
 42
0.0
 43
0.0
 44
210.0
 45
297.0
 46
0.0
 47
0.0
 48
0.0
 49
0.0
140
0.0
141
0.0
142
1.0
143
1.0
 70
1024
 72
1
 73
0
 74
0
  7

 75
0
147
1.0
148
0.0
149
0.0
100
AcDbLayout
  1
Model
 70
0
 71
0
 10
0.0
 20
0.0
 11
210.0
 21
297.0
 12
0.0
 22
0.0
 32
0.0
 14
0.0
 24
0.0
 34
0.0
 15
0.0
 25
0.0
 35
0.0
146
0.0
 13
0.0
 23
0.0
 33
0.0
 16
1.0
 26
0.0
 36
0.0
 17
0.0
 27
1.0
 37
0.0
 76
0
330
210
345
0
346
0
  0
LAYOUT
  5
388
102
{ACAD_REACTORS
330
1A
102
}
100
AcDbPlotSettings
  1

  2
none_device
  4

  6

 40
0.0
 41
0.0
 42
0.0
 43
0.0
 44
210.0
 45
297.0
 46
0.0
 47
0.0
 48
0.0
 49
0.0
140
0.0
141
0.0
142
1.0
143
1.0
 70
0
 72
1
 73
0
 74
0
  7

 75
0
147
1.0
148
0.0
149
0.0
100
AcDbLayout
  1
Layout1
 70
0
 71
1
 10
0.0
 20
0.0
 11
210.0
 21
297.0
 12
0.0
 22
0.0
 32
0.0
 14
0.0
 24
0.0
 34
0.0
 15
0.0
 25
0.0
 35
0.0
146
0.0
 13
0.0
 23
0.0
 33
0.0
 16
1.0
 26
0.0
 36
0.0
 17
0.0
 27
1.0
 37
0.0
 76
0
330
211
345
0
346
0
  0
ENDSEC
  0
EOF
