999
DXF file: C:\Users\sesa63760\Dev\_Creo\CAD\MCADID0004750_3D-CAD\drw0001_1.dxf
999
Pro/ENGINEER 2019471 by Parametric Technology Corporation
  0
SECTION
  2
HEADER
  9
$ACADVER
  1
AC1024
  9
$DWGCODEPAGE
  3
ANSI_1252
  9
$EXTMAX
 10
55.4703505096
 20
78.4509242921
 30
0.0
  9
$EXTMIN
 10
0.0
 20
0.0
 30
0.0
  9
$LIMMIN
 10
0.0
 20
0.0
  9
$LIMMAX
 10
55.4703505096
 20
78.4509242921
  9
$VIEWCTR
 10
27.7351752548
 20
39.2254621461
  9
$VIEWSIZE
 40
78.4509242921
  9
$CLAYER
  8
0
  9
$LTSCALE
 40
5.1138380279
  9
$CELTYPE
  6
BYLAYER
  9
$DIMSCALE
 40
1.0
  9
$DIMASZ
 40
0.6603613156
  9
$DIMEXO
 40
1.0
  9
$DIMDLI
 40
3.5331971829
  9
$DIMEXE
 40
1.0
  9
$DIMCEN
 40
0.8368098591
  9
$DIMLFAC
 40
1.0
  9
$DIMBLK
  1
_FILLED
  9
$DIMALT
 70
0
  9
$DIMALTF
 40
0.0393700787
  9
$DIMTXT
 40
0.9245058418
  9
$DIMTOL
 70
1
  9
$DIMLIM
 70
0
  9
$DIMTFAC
 40
1.0
  9
$DIMTP
 40
0.01
  9
$DIMTM
 40
0.01
  9
$DIMGAP
 40
0.625
  9
$DIMDSEP
 70
46
  9
$AUNITS
 70
0
  9
$PDMODE
 70
3
  9
$PDSIZE
 40
0.3125
  9
$HANDSEED
  5
39C
  9
$TILEMODE
 70
1
  9
$MEASUREMENT
 70
1
  9
$INSUNITS
 70
4
  0
ENDSEC
  0
SECTION
  2
CLASSES
  0
CLASS
  1
ACDBDICTIONARYWDFLT
  2
AcDbDictionaryWithDefault
  3
AutoCAD 2000
 90
0
 91
1
280
0
281
0
  0
CLASS
  1
ACDBPLACEHOLDER
  2
AcDbPlaceHolder
  3
AutoCAD 2000
 90
0
 91
1
280
0
281
0
  0
CLASS
  1
LAYOUT
  2
AcDbLayout
  3
AutoCAD 2000
 90
0
 91
0
280
0
281
0
  0
ENDSEC
  0
SECTION
  2
TABLES
  0
TABLE
  2
VPORT
  5
8
100
AcDbSymbolTable
 70
2
  0
VPORT
  5
1F4
100
AcDbSymbolTableRecord
100
AcDbViewportTableRecord
  2
*ACTIVE
 70
0
 10
0.0
 20
0.0
 11
1.0
 21
1.0
 12
27.7351752548
 22
39.2254621461
 13
0.0
 23
0.0
 14
1.0
 24
1.0
 15
0.0
 25
0.0
 16
0.0
 26
0.0
 36
1.0
 17
0.0
 27
0.0
 37
0.0
 40
78.4509242921
 41
0.7070707071
 42
50.0
 43
0.0
 44
0.0
 50
0.0
 51
0.0
 71
0
 72
100
 73
1
 74
1
 75
0
 76
0
 77
0
 78
0
  0
ENDTAB
  0
TABLE
  2
LTYPE
  5
5
100
AcDbSymbolTable
 70
6
  0
LTYPE
  5
14
100
AcDbSymbolTableRecord
100
AcDbLinetypeTableRecord
  2
BYBLOCK
 70
0
  3

 72
65
 73
0
 40
0.0
  0
LTYPE
  5
15
100
AcDbSymbolTableRecord
100
AcDbLinetypeTableRecord
  2
BYLAYER
 70
0
  3

 72
65
 73
0
 40
0.0
  0
LTYPE
  5
16
100
AcDbSymbolTableRecord
100
AcDbLinetypeTableRecord
  2
CONTINUOUS
 70
64
  3
Solid line
 72
65
 73
0
 40
0.0
  0
LTYPE
  5
1F5
100
AcDbSymbolTableRecord
100
AcDbLinetypeTableRecord
  2
CENTER
 70
64
  3
____ _ ____ _ ____ _ ____ _ ____ _ ____ _ ____
 72
65
 73
4
 40
0.6
 49
0.375
 74
0
 49
-0.075
 74
0
 49
0.075
 74
0
 49
-0.075
 74
0
  0
LTYPE
  5
1F6
100
AcDbSymbolTableRecord
100
AcDbLinetypeTableRecord
  2
HIDDEN
 70
64
  3
- - - - - - - - - - - - - - - - - - - -
 72
65
 73
2
 40
0.2
 49
0.1
 74
0
 49
-0.1
 74
0
  0
LTYPE
  5
1F7
100
AcDbSymbolTableRecord
100
AcDbLinetypeTableRecord
  2
PHANTOM
 70
64
  3
_____ _ _ _____ _ _ _____ _ _ _____
 72
65
 73
6
 40
0.8
 49
0.45
 74
0
 49
-0.05
 74
0
 49
0.1
 74
0
 49
-0.05
 74
0
 49
0.1
 74
0
 49
-0.05
 74
0
  0
LTYPE
  5
1F8
100
AcDbSymbolTableRecord
100
AcDbLinetypeTableRecord
  2
DOT
 70
64
  3
. . . . . . . . . . . . . . . . . . . .
 72
65
 73
2
 40
0.2
 49
0.1
 74
0
 49
-0.1
 74
0
  0
LTYPE
  5
1F9
100
AcDbSymbolTableRecord
100
AcDbLinetypeTableRecord
  2
DASHED
 70
64
  3
- - - - - - - - - - - - - - - - - - - -
 72
65
 73
2
 40
0.2
 49
0.1
 74
0
 49
-0.1
 74
0
  0
ENDTAB
  0
TABLE
  2
LAYER
  5
2
100
AcDbSymbolTable
 70
36
  0
LAYER
  5
10
100
AcDbSymbolTableRecord
100
AcDbLayerTableRecord
  2
0
 70
0
 62
7
  6
CONTINUOUS
370
-3
390
F
  0
LAYER
  5
1FA
100
AcDbSymbolTableRecord
100
AcDbLayerTableRecord
  2
DEFAULT_1
 70
0
 62
7
  6
CENTER
370
-3
390
F
  0
LAYER
  5
1FB
100
AcDbSymbolTableRecord
100
AcDbLayerTableRecord
  2
DEFAULT_2
 70
0
 62
7
  6
HIDDEN
370
-3
390
F
  0
LAYER
  5
1FC
100
AcDbSymbolTableRecord
100
AcDbLayerTableRecord
  2
DEFAULT_3
 70
0
 62
7
  6
PHANTOM
370
-3
390
F
  0
LAYER
  5
1FD
100
AcDbSymbolTableRecord
100
AcDbLayerTableRecord
  2
00_COMPONENTS
 70
0
 62
7
  6
CONTINUOUS
370
-3
390
F
  0
LAYER
  5
1FE
100
AcDbSymbolTableRecord
100
AcDbLayerTableRecord
  2
01_1_DEFAULT_DATUMS
 70
0
 62
7
  6
CONTINUOUS
370
-3
390
F
  0
LAYER
  5
1FF
100
AcDbSymbolTableRecord
100
AcDbLayerTableRecord
  2
01_PLANES
 70
0
 62
7
  6
CONTINUOUS
370
-3
390
F
  0
LAYER
  5
200
100
AcDbSymbolTableRecord
100
AcDbLayerTableRecord
  2
02_COORD_SYS
 70
0
 62
7
  6
CONTINUOUS
370
-3
390
F
  0
LAYER
  5
201
100
AcDbSymbolTableRecord
100
AcDbLayerTableRecord
  2
03_AXES
 70
0
 62
7
  6
CONTINUOUS
370
-3
390
F
  0
LAYER
  5
202
100
AcDbSymbolTableRecord
100
AcDbLayerTableRecord
  2
04_POINTS
 70
0
 62
7
  6
CONTINUOUS
370
-3
390
F
  0
LAYER
  5
203
100
AcDbSymbolTableRecord
100
AcDbLayerTableRecord
  2
05_CURVES
 70
0
 62
7
  6
CONTINUOUS
370
-3
390
F
  0
LAYER
  5
204
100
AcDbSymbolTableRecord
100
AcDbLayerTableRecord
  2
06_SURFS
 70
0
 62
7
  6
CONTINUOUS
370
-3
390
F
  0
LAYER
  5
205
100
AcDbSymbolTableRecord
100
AcDbLayerTableRecord
  2
07_COSMETICS
 70
0
 62
7
  6
CONTINUOUS
370
-3
390
F
  0
LAYER
  5
206
100
AcDbSymbolTableRecord
100
AcDbLayerTableRecord
  2
10_NOTES
 70
0
 62
7
  6
CONTINUOUS
370
-3
390
F
  0
LAYER
  5
207
100
AcDbSymbolTableRecord
100
AcDbLayerTableRecord
  2
11_NOTES_PUB
 70
0
 62
7
  6
CONTINUOUS
370
-3
390
F
  0
LAYER
  5
208
100
AcDbSymbolTableRecord
100
AcDbLayerTableRecord
  2
13_REF_GTOL
 70
0
 62
7
  6
CONTINUOUS
370
-3
390
F
  0
LAYER
  5
209
100
AcDbSymbolTableRecord
100
AcDbLayerTableRecord
  2
16_MISC
 70
0
 62
7
  6
CONTINUOUS
370
-3
390
F
  0
LAYER
  5
20A
100
AcDbSymbolTableRecord
100
AcDbLayerTableRecord
  2
17_NO_PRINT
 70
0
 62
7
  6
CONTINUOUS
370
-3
390
F
  0
LAYER
  5
20B
100
AcDbSymbolTableRecord
100
AcDbLayerTableRecord
  2
18_DATUM_CAMS_JOINTS
 70
0
 62
7
  6
CONTINUOUS
370
-3
390
F
  0
LAYER
  5
20C
100
AcDbSymbolTableRecord
100
AcDbLayerTableRecord
  2
19_DATUM_FUNCTIONAL
 70
0
 62
7
  6
CONTINUOUS
370
-3
390
F
  0
LAYER
  5
20D
100
AcDbSymbolTableRecord
100
AcDbLayerTableRecord
  2
20_DATUM_KINEMATIC_SCHEME
 70
0
 62
7
  6
CONTINUOUS
370
-3
390
F
  0
ENDTAB
  0
TABLE
  2
STYLE
  5
3
100
AcDbSymbolTable
 70
1
  0
STYLE
  5
11
100
AcDbSymbolTableRecord
100
AcDbTextStyleTableRecord
  2
STANDARD
 70
0
 40
0.0
 41
1.0
 50
0.0
 71
0
 42
0.2
  3
ARIAL.TTF
  4

  0
STYLE
  5
20E
100
AcDbSymbolTableRecord
100
AcDbTextStyleTableRecord
  2
TEXTSTYLE_1
 70
0
 40
0.0
 41
0.8
 50
0.0
 71
0
 42
0.2
  3
gdt
  4

  0
ENDTAB
  0
TABLE
  2
VIEW
  5
6
100
AcDbSymbolTable
 70
0
  0
ENDTAB
  0
TABLE
  2
UCS
  5
7
100
AcDbSymbolTable
 70
0
  0
ENDTAB
  0
TABLE
  2
APPID
  5
9
100
AcDbSymbolTable
 70
1
  0
APPID
  5
20F
100
AcDbSymbolTableRecord
100
AcDbRegAppTableRecord
  2
ACAD
 70
0
  0
ENDTAB
  0
TABLE
  2
BLOCK_RECORD
  5
1
100
AcDbSymbolTable
 70
0
  0
BLOCK_RECORD
  5
210
100
AcDbSymbolTableRecord
100
AcDbBlockTableRecord
  2
*Model_Space
  0
BLOCK_RECORD
  5
211
100
AcDbSymbolTableRecord
100
AcDbBlockTableRecord
  2
*Paper_Space
  0
BLOCK_RECORD
  5
212
100
AcDbSymbolTableRecord
100
AcDbBlockTableRecord
  2
_FILLED
  0
ENDTAB
  0
TABLE
  2
DIMSTYLE
  5
A
100
AcDbSymbolTable
 70
1
100
AcDbDimStyleTable
 71
0
  0
DIMSTYLE
105
213
100
AcDbSymbolTableRecord
100
AcDbDimStyleTableRecord
  2
STANDARD
 70
0
  3

  4

 40
1.0
 41
0.6603613156
 42
1.0
 43
0.38
 44
1.0
 45
0.0
 46
0.0
 47
0.01
 48
0.01
140
0.9245058418
141
0.09
142
0.0
143
25.4
144
1.0
145
0.0
146
1.0
147
0.625
 71
1
 72
0
 73
0
 74
0
 75
0
 76
0
 77
1
 78
8
 79
2
170
0
171
1
172
0
173
0
174
0
175
0
176
0
177
0
178
0
270
2
179
2
271
2
272
2
273
2
274
2
275
0
280
0
281
0
282
0
283
1
284
8
285
0
286
0
287
3
288
0
340
11
278
46
341
212
342
212
343
212
344
212
  0
ENDTAB
  0
ENDSEC
  0
SECTION
  2
BLOCKS
  0
BLOCK
  5
20
100
AcDbEntity
  8
0
100
AcDbBlockBegin
  2
*Model_Space
 70
0
 10
0.0
 20
0.0
 30
0.0
  3
*Model_Space
  1

  0
ENDBLK
  5
21
100
AcDbEntity
  8
0
100
AcDbBlockEnd
  0
BLOCK
  5
1C
100
AcDbEntity
  8
0
100
AcDbBlockBegin
  2
*Paper_Space
 70
0
 10
0.0
 20
0.0
 30
0.0
  3
*Paper_Space
  1

  0
ENDBLK
  5
1D
100
AcDbEntity
  8
0
100
AcDbBlockEnd
  0
BLOCK
  5
214
100
AcDbEntity
  8
0
100
AcDbBlockBegin
  2
_FILLED
 70
64
 10
0.0
 20
0.0
  3
_FILLED
  1

  0
SOLID
  5
215
100
AcDbEntity
  8
0
  6
BYBLOCK
 62
0
100
AcDbTrace
 10
0.0
 20
0.0
 11
-1.0
 21
0.25
 12
-1.0
 22
-0.25
 13
-1.0
 23
-0.25
  0
ENDBLK
  5
216
100
AcDbEntity
  8
0
  6
BYBLOCK
 62
0
100
AcDbBlockEnd
  0
ENDSEC
  0
SECTION
  2
ENTITIES
  0
LWPOLYLINE
  5
217
100
AcDbEntity
  8
0
100
AcDbPolyline
 62
7
  6
BYLAYER
 90
5
 70
0
 10
9.1925136939
 20
55.1334559851
 10
8.4004091406
 20
54.593989266
 10
7.141348824
 20
53.1778019935
 10
6.7460450996
 20
52.3745306716
 10
6.4352863983
 20
50.6748155062
  0
LINE
  5
218
100
AcDbEntity
  8
0
100
AcDbLine
 62
7
  6
BYLAYER
 10
9.1925492666
 20
55.1334765241
 11
9.1925136939
 21
55.1334559851
  0
LINE
  5
219
100
AcDbEntity
  8
0
100
AcDbLine
 62
7
  6
BYLAYER
 10
6.4351983738
 20
50.7035228355
 11
6.4351982069
 21
37.4796883614
  0
LINE
  5
21A
100
AcDbEntity
  8
0
100
AcDbLine
 62
7
  6
BYLAYER
 10
7.5137864197
 20
35.2197077576
 11
7.5137864197
 21
34.4984877427
  0
LINE
  5
21B
100
AcDbEntity
  8
0
100
AcDbLine
 62
7
  6
BYLAYER
 10
7.6898225679
 20
34.253126709
 11
7.6898225679
 21
35.079305135
  0
LINE
  5
21C
100
AcDbEntity
  8
0
100
AcDbLine
 62
7
  6
BYLAYER
 10
8.0851982069
 20
34.0798608267
 11
8.0851982069
 21
33.7237772426
  0
LINE
  5
21D
100
AcDbEntity
  8
0
100
AcDbLine
 62
7
  6
BYLAYER
 10
8.0851982069
 20
32.4736048988
 11
8.0851982069
 21
32.2540728918
  0
LINE
  5
21E
100
AcDbEntity
  8
0
100
AcDbLine
 62
7
  6
BYLAYER
 10
8.7633822288
 20
33.2030323879
 11
8.7072545108
 21
33.3050481881
  0
LINE
  5
21F
100
AcDbEntity
  8
0
100
AcDbLine
 62
7
  6
BYLAYER
 10
7.7206015085
 20
34.1701201313
 11
7.6898225679
 21
34.253126709
  0
LINE
  5
220
100
AcDbEntity
  8
0
100
AcDbLine
 62
7
  6
BYLAYER
 10
8.4272227341
 20
33.5157441745
 11
8.4507728514
 21
33.4381569552
  0
LINE
  5
221
100
AcDbEntity
  8
0
100
AcDbLine
 62
7
  6
BYLAYER
 10
7.5137864197
 20
34.4984877427
 11
7.5297307609
 21
34.4357158716
  0
LINE
  5
222
100
AcDbEntity
  8
0
100
AcDbLine
 62
7
  6
BYLAYER
 10
8.4272227341
 20
34.491170719
 11
8.4272227341
 21
33.5157441745
  0
LINE
  5
223
100
AcDbEntity
  8
0
100
AcDbLine
 62
7
  6
BYLAYER
 10
8.6851982069
 20
30.7608120358
 11
8.6851982069
 21
29.5187897944
  0
LINE
  5
224
100
AcDbEntity
  8
0
100
AcDbLine
 62
7
  6
BYLAYER
 10
8.7072545108
 20
33.3050481881
 11
8.7072545108
 21
34.2678234335
  0
LINE
  5
225
100
AcDbEntity
  8
0
100
AcDbLine
 62
7
  6
BYLAYER
 10
8.7783675092
 20
39.0265667555
 11
8.7783675092
 21
47.186020354
  0
LINE
  5
226
100
AcDbEntity
  8
0
100
AcDbLine
 62
7
  6
BYLAYER
 10
9.4832504473
 20
33.9186488043
 11
9.4832504473
 21
33.2410722087
  0
LINE
  5
227
100
AcDbEntity
  8
0
100
AcDbLine
 62
7
  6
BYLAYER
 10
9.6850749398
 20
27.6480921732
 11
9.6850749398
 21
29.829928383
  0
LINE
  5
228
100
AcDbEntity
  8
0
100
AcDbLine
 62
7
  6
BYLAYER
 10
9.7500926483
 20
33.8062219889
 11
9.7500926483
 21
32.7029789293
  0
LINE
  5
229
100
AcDbEntity
  8
0
100
AcDbLine
 62
7
  6
BYLAYER
 10
9.7500926483
 20
32.7029789293
 11
9.7658379365
 21
32.6236535117
  0
LINE
  5
22A
100
AcDbEntity
  8
0
100
AcDbLine
 62
7
  6
BYLAYER
 10
11.3824369203
 20
32.081959861
 11
11.3575711341
 21
32.4107363535
  0
LINE
  5
22B
100
AcDbEntity
  8
0
100
AcDbLine
 62
7
  6
BYLAYER
 10
10.1150363507
 20
32.5413065734
 11
10.1150363507
 21
33.652462733
  0
LINE
  5
22C
100
AcDbEntity
  8
0
100
AcDbLine
 62
7
  6
BYLAYER
 10
10.8200642733
 20
33.3627827653
 11
10.8200642733
 21
32.5899010231
  0
LINE
  5
22D
100
AcDbEntity
  8
0
100
AcDbLine
 62
7
  6
BYLAYER
 10
11.1950481134
 20
29.1593892747
 11
11.1950481134
 21
26.7763284769
  0
LINE
  5
22E
100
AcDbEntity
  8
0
100
AcDbLine
 62
7
  6
BYLAYER
 10
11.3575711341
 20
32.4107363535
 11
11.3575711341
 21
33.2614542626
  0
LINE
  5
22F
100
AcDbEntity
  8
0
100
AcDbLine
 62
7
  6
BYLAYER
 10
11.3922447639
 20
33.2549177376
 11
11.3922447639
 21
32.1155806153
  0
LINE
  5
230
100
AcDbEntity
  8
0
100
AcDbLine
 62
7
  6
BYLAYER
 10
11.8172300817
 20
32.0139495937
 11
11.8172300817
 21
33.1748013166
  0
LWPOLYLINE
  5
231
100
AcDbEntity
  8
0
100
AcDbPolyline
 62
7
  6
BYLAYER
 90
3
 70
0
 10
15.5764373316
 20
27.8772623178
 10
15.5266590859
 20
27.9232803589
 10
15.5245872761
 20
27.9321270896
  0
LINE
  5
232
100
AcDbEntity
  8
0
100
AcDbLine
 62
7
  6
BYLAYER
 10
11.3884640447
 20
32.0367043564
 11
11.3824369277
 21
32.0819597627
  0
LINE
  5
233
100
AcDbEntity
  8
0
100
AcDbLine
 62
7
  6
BYLAYER
 10
12.4032435025
 20
33.0643285639
 11
12.4032435025
 21
32.160674183
  0
LINE
  5
234
100
AcDbEntity
  8
0
100
AcDbLine
 62
7
  6
BYLAYER
 10
15.5764408413
 20
27.8772648989
 11
15.5764544052
 21
27.8772570678
  0
LINE
  5
235
100
AcDbEntity
  8
0
100
AcDbLine
 62
7
  6
BYLAYER
 10
15.8587250732
 20
27.798839606
 11
15.524598898
 21
27.9917430792
  0
LINE
  5
236
100
AcDbEntity
  8
0
100
AcDbLine
 62
7
  6
BYLAYER
 10
15.312753474
 20
27.7893175961
 11
15.312753474
 21
28.6731049043
  0
LINE
  5
237
100
AcDbEntity
  8
0
100
AcDbLine
 62
7
  6
BYLAYER
 10
15.524598898
 20
27.9319565947
 11
15.524598898
 21
28.6883284832
  0
LINE
  5
238
100
AcDbEntity
  8
0
100
AcDbLine
 62
7
  6
BYLAYER
 10
16.4672060732
 20
32.1606839516
 11
16.4672060732
 21
33.063790951
  0
LINE
  5
239
100
AcDbEntity
  8
0
100
AcDbLine
 62
7
  6
BYLAYER
 10
17.0532239653
 20
33.1739738793
 11
17.0532239653
 21
32.0139621795
  0
LINE
  5
23A
100
AcDbEntity
  8
0
100
AcDbLine
 62
7
  6
BYLAYER
 10
28.4398502295
 20
28.5143318358
 11
28.4296948806
 21
28.5139369886
  0
LINE
  5
23B
100
AcDbEntity
  8
0
100
AcDbLine
 62
7
  6
BYLAYER
 10
28.5680687557
 20
28.4920697991
 11
28.4407052662
 21
28.4923405517
  0
LINE
  5
23C
100
AcDbEntity
  8
0
100
AcDbLine
 62
7
  6
BYLAYER
 10
28.4408279042
 20
28.4999610699
 11
28.6166340966
 21
28.4972421759
  0
LINE
  5
23D
100
AcDbEntity
  8
0
100
AcDbLine
 62
7
  6
BYLAYER
 10
28.8483596008
 20
28.4942857294
 11
28.9841984297
 21
28.4911851797
  0
LINE
  5
23E
100
AcDbEntity
  8
0
100
AcDbLine
 62
7
  6
BYLAYER
 10
28.1531501321
 20
28.505291798
 11
28.4407052662
 21
28.4923405517
  0
LINE
  5
23F
100
AcDbEntity
  8
0
100
AcDbLine
 62
7
  6
BYLAYER
 10
16.887461913
 20
31.9383551369
 11
16.4672060732
 21
32.1606839516
  0
LINE
  5
240
100
AcDbEntity
  8
0
100
AcDbLine
 62
7
  6
BYLAYER
 10
19.6059418591
 20
30.1260802289
 11
19.7477961781
 21
30.0441824524
  0
LINE
  5
241
100
AcDbEntity
  8
0
100
AcDbLine
 62
7
  6
BYLAYER
 10
17.4782078174
 20
32.1155952441
 11
17.4782078174
 21
33.0873725806
  0
LINE
  5
242
100
AcDbEntity
  8
0
100
AcDbLine
 62
7
  6
BYLAYER
 10
17.512874835
 20
33.0673580214
 11
17.512874835
 21
32.4107511491
  0
LINE
  5
243
100
AcDbEntity
  8
0
100
AcDbLine
 62
7
  6
BYLAYER
 10
18.0503791117
 20
32.5899184026
 11
18.0503791117
 21
32.7570368029
  0
LINE
  5
244
100
AcDbEntity
  8
0
100
AcDbLine
 62
7
  6
BYLAYER
 10
17.512874835
 20
32.4107511491
 11
17.4880137908
 21
32.0819745388
  0
LINE
  5
245
100
AcDbEntity
  8
0
100
AcDbLine
 62
7
  6
BYLAYER
 10
17.4880137891
 20
32.0819745163
 11
17.4819901331
 21
32.0368136044
  0
LINE
  5
246
100
AcDbEntity
  8
0
100
AcDbLine
 62
7
  6
BYLAYER
 10
28.9358363173
 20
28.5528054203
 11
30.5754782634
 21
28.8574702837
  0
LINE
  5
247
100
AcDbEntity
  8
0
100
AcDbLine
 62
7
  6
BYLAYER
 10
16.9874106651
 20
31.9184592112
 11
16.8874618386
 21
31.9383551762
  0
LINE
  5
248
100
AcDbEntity
  8
0
100
AcDbLine
 62
7
  6
BYLAYER
 10
8.9267539244
 20
33.1698427879
 11
8.7633822288
 21
33.2030323879
  0
LINE
  5
249
100
AcDbEntity
  8
0
100
AcDbLine
 62
7
  6
BYLAYER
 10
18.555983787
 20
32.4379628738
 11
18.0503791117
 21
32.5899184026
  0
LINE
  5
24A
100
AcDbEntity
  8
0
100
AcDbLine
 62
7
  6
BYLAYER
 10
28.7086795561
 20
28.7838409419
 11
27.7913059263
 21
29.09634851
  0
LINE
  5
24B
100
AcDbEntity
  8
0
100
AcDbLine
 62
7
  6
BYLAYER
 10
25.9513098331
 20
28.1955355191
 11
13.4896488944
 21
35.3901160534
  0
LINE
  5
24C
100
AcDbEntity
  8
0
100
AcDbLine
 62
7
  6
BYLAYER
 10
24.9964324515
 20
29.0554287639
 11
10.5928949911
 21
37.3711268677
  0
LINE
  5
24D
100
AcDbEntity
  8
0
100
AcDbLine
 62
7
  6
BYLAYER
 10
24.7944027837
 20
29.7799136718
 11
8.7783675092
 21
39.0265667555
  0
LINE
  5
24E
100
AcDbEntity
  8
0
100
AcDbLine
 62
7
  6
BYLAYER
 10
26.6780779325
 20
29.0461086623
 11
26.9962773088
 21
28.8624003228
  0
LINE
  5
24F
100
AcDbEntity
  8
0
100
AcDbLine
 62
7
  6
BYLAYER
 10
24.9964324515
 20
29.0554287639
 11
25.9513370075
 21
28.1955825756
  0
LINE
  5
250
100
AcDbEntity
  8
0
100
AcDbLine
 62
7
  6
BYLAYER
 10
20.1851982069
 20
30.8122689938
 11
20.1851982069
 21
29.5187897944
  0
LINE
  5
251
100
AcDbEntity
  8
0
100
AcDbLine
 62
7
  6
BYLAYER
 10
27.9134130583
 20
31.1041693486
 11
28.6205227835
 21
30.6959285941
  0
LINE
  5
252
100
AcDbEntity
  8
0
100
AcDbLine
 62
7
  6
BYLAYER
 10
10.3144616418
 20
32.4379430192
 11
10.1836444567
 21
32.4386799572
  0
LINE
  5
253
100
AcDbEntity
  8
0
100
AcDbLine
 62
7
  6
BYLAYER
 10
8.4272227341
 20
34.0712401366
 11
7.9144377405
 21
34.0841648252
  0
LINE
  5
254
100
AcDbEntity
  8
0
100
AcDbLine
 62
7
  6
BYLAYER
 10
44.9977646387
 20
22.439961604
 11
43.398002642
 21
23.3635637288
  0
LINE
  5
255
100
AcDbEntity
  8
0
100
AcDbLine
 62
7
  6
BYLAYER
 10
36.8711168708
 20
27.1674467292
 11
39.2120116091
 21
25.8159610966
  0
LINE
  5
256
100
AcDbEntity
  8
0
100
AcDbLine
 62
7
  6
BYLAYER
 10
29.387964015
 20
31.9848972279
 11
36.0173414746
 21
28.1575109541
  0
LWPOLYLINE
  5
257
100
AcDbEntity
  8
0
100
AcDbPolyline
 62
7
  6
BYLAYER
 90
3
 70
0
 10
26.3582375884
 20
30.3471668161
 10
27.2400666098
 20
29.0926100079
 10
28.568124241
 20
28.5193184079
  0
LWPOLYLINE
  5
258
100
AcDbEntity
  8
0
100
AcDbPolyline
 62
7
  6
BYLAYER
 90
3
 70
0
 10
26.4626441104
 20
30.3791505028
 10
27.3283529436
 20
29.1475274962
 10
28.6296513742
 20
28.5801561205
  0
LINE
  5
259
100
AcDbEntity
  8
0
100
AcDbLine
 62
7
  6
BYLAYER
 10
11.9829907464
 20
31.938343283
 11
11.883089476
 21
31.9185485128
  0
LINE
  5
25A
100
AcDbEntity
  8
0
100
AcDbLine
 62
7
  6
BYLAYER
 10
9.4832504473
 20
33.2410722087
 11
8.9267540796
 21
33.1698428077
  0
LINE
  5
25B
100
AcDbEntity
  8
0
100
AcDbLine
 62
7
  6
BYLAYER
 10
43.3647782756
 20
24.763171784
 11
41.765016279
 21
25.6867739087
  0
LINE
  5
25C
100
AcDbEntity
  8
0
100
AcDbLine
 62
7
  6
BYLAYER
 10
35.2829778396
 20
29.611826204
 11
37.788899248
 21
28.1650645345
  0
LINE
  5
25D
100
AcDbEntity
  8
0
100
AcDbLine
 62
7
  6
BYLAYER
 10
33.7974679037
 20
31.1711675757
 11
35.3886637402
 21
30.2525110139
  0
LINE
  5
25E
100
AcDbEntity
  8
0
100
AcDbLine
 62
7
  6
BYLAYER
 10
26.0172466916
 20
32.1483898022
 11
26.3582375884
 21
30.3471668161
  0
LINE
  5
25F
100
AcDbEntity
  8
0
100
AcDbLine
 62
7
  6
BYLAYER
 10
24.7944027837
 20
37.9393672641
 11
24.7944027837
 21
29.7799136718
  0
LINE
  5
260
100
AcDbEntity
  8
0
100
AcDbLine
 62
7
  6
BYLAYER
 10
8.7783675092
 20
47.186020354
 11
24.7944027837
 21
37.9393672641
  0
LINE
  5
261
100
AcDbEntity
  8
0
100
AcDbLine
 62
7
  6
BYLAYER
 10
26.1243005948
 20
32.1444580442
 11
26.4626441104
 21
30.3791505028
  0
LINE
  5
262
100
AcDbEntity
  8
0
100
AcDbLine
 62
7
  6
BYLAYER
 10
12.4032435025
 20
32.160674183
 11
11.9829908636
 21
31.938343345
  0
LINE
  5
263
100
AcDbEntity
  8
0
100
AcDbLine
 62
7
  6
BYLAYER
 10
36.6480068477
 20
33.6888292163
 11
33.6781460021
 21
35.4034403853
  0
LINE
  5
264
100
AcDbEntity
  8
0
100
AcDbLine
 62
7
  6
BYLAYER
 10
44.9977646387
 20
28.9719809411
 11
43.398002642
 21
29.8955830658
  0
LINE
  5
265
100
AcDbEntity
  8
0
100
AcDbLine
 62
7
  6
BYLAYER
 10
36.8711168708
 20
33.6994660662
 11
39.2120116091
 21
32.3479804336
  0
LINE
  5
266
100
AcDbEntity
  8
0
100
AcDbLine
 62
7
  6
BYLAYER
 10
9.9068766635
 20
49.4368960157
 11
25.9229119381
 21
40.1902429258
  0
LINE
  5
267
100
AcDbEntity
  8
0
100
AcDbLine
 62
7
  6
BYLAYER
 10
28.7086795561
 20
38.8974923199
 11
28.6296513742
 21
39.0099238018
  0
LINE
  5
268
100
AcDbEntity
  8
0
100
AcDbLine
 62
7
  6
BYLAYER
 10
10.8200642733
 20
32.5899010231
 11
10.3144617829
 21
32.4379430616
  0
LINE
  5
269
100
AcDbEntity
  8
0
100
AcDbLine
 62
7
  6
BYLAYER
 10
36.2974254861
 20
35.5013190841
 11
37.9219083431
 21
34.5634446869
  0
LINE
  5
26A
100
AcDbEntity
  8
0
100
AcDbLine
 62
7
  6
BYLAYER
 10
29.0148644992
 20
39.2783928283
 11
28.9358363173
 21
39.3908243101
  0
LINE
  5
26B
100
AcDbEntity
  8
0
100
AcDbLine
 62
7
  6
BYLAYER
 10
36.1315690352
 20
28.097389742
 11
35.4842328503
 21
29.1278566598
  0
LINE
  5
26C
100
AcDbEntity
  8
0
100
AcDbLine
 62
7
  6
BYLAYER
 10
36.4167473877
 20
36.9845631944
 11
39.3503834036
 21
35.2908659675
  0
LINE
  5
26D
100
AcDbEntity
  8
0
100
AcDbLine
 62
7
  6
BYLAYER
 10
33.4109764707
 20
38.8998145118
 11
39.543011116
 21
35.3595627498
  0
LINE
  5
26E
100
AcDbEntity
  8
0
100
AcDbLine
 62
7
  6
BYLAYER
 10
40.0753082076
 20
35.5493957545
 11
42.4162029459
 21
34.1979101218
  0
LINE
  5
26F
100
AcDbEntity
  8
0
100
AcDbLine
 62
7
  6
BYLAYER
 10
48.2637373648
 20
30.8575799181
 11
46.6639753681
 21
31.7811820429
  0
LINE
  5
270
100
AcDbEntity
  8
0
100
AcDbLine
 62
7
  6
BYLAYER
 10
33.4133197397
 20
40.6305026672
 11
34.1204294648
 21
40.2222619127
  0
LINE
  5
271
100
AcDbEntity
  8
0
100
AcDbLine
 62
7
  6
BYLAYER
 10
38.3126717509
 20
27.4948936417
 11
38.9600079358
 21
26.464426724
  0
LINE
  5
272
100
AcDbEntity
  8
0
100
AcDbLine
 62
7
  6
BYLAYER
 10
28.7086795561
 20
28.7838409419
 11
28.6296513742
 21
28.5801561205
  0
LINE
  5
273
100
AcDbEntity
  8
0
100
AcDbLine
 62
7
  6
BYLAYER
 10
33.8675096941
 20
42.0800521142
 11
33.946537876
 21
42.2837369356
  0
LINE
  5
274
100
AcDbEntity
  8
0
100
AcDbLine
 62
7
  6
BYLAYER
 10
34.2527228191
 20
42.2563862354
 11
34.1736946372
 21
42.052701414
  0
LINE
  5
275
100
AcDbEntity
  8
0
100
AcDbLine
 62
7
  6
BYLAYER
 10
29.0148644992
 20
28.7564902417
 11
28.9358363173
 21
28.5528054203
  0
LINE
  5
276
100
AcDbEntity
  8
0
100
AcDbLine
 62
7
  6
BYLAYER
 10
26.2823569587
 20
32.6439625922
 11
26.1243005948
 21
32.5527092527
  0
LINE
  5
277
100
AcDbEntity
  8
0
100
AcDbLine
 62
7
  6
BYLAYER
 10
36.6000172347
 20
38.6008309722
 11
36.7580735985
 21
38.6920843117
  0
LINE
  5
278
100
AcDbEntity
  8
0
100
AcDbLine
 62
7
  6
BYLAYER
 10
26.2823569587
 20
32.2357113836
 11
26.1243005948
 21
32.1444580442
  0
LINE
  5
279
100
AcDbEntity
  8
0
100
AcDbLine
 62
7
  6
BYLAYER
 10
36.6000172347
 20
38.1925797637
 11
36.7580735985
 21
38.2838331032
  0
LINE
  5
27A
100
AcDbEntity
  8
0
100
AcDbLine
 62
7
  6
BYLAYER
 10
18.5010791265
 20
27.1714054559
 11
18.4929309104
 21
27.1667105642
  0
LINE
  5
27B
100
AcDbEntity
  8
0
100
AcDbLine
 62
7
  6
BYLAYER
 10
34.1736946372
 20
42.052701414
 11
35.091068267
 21
41.7401938459
  0
LINE
  5
27C
100
AcDbEntity
  8
0
100
AcDbLine
 62
7
  6
BYLAYER
 10
36.4167473877
 20
36.9845631944
 11
33.6781460021
 21
35.4034403853
  0
LINE
  5
27D
100
AcDbEntity
  8
0
100
AcDbLine
 62
7
  6
BYLAYER
 10
34.577943893
 20
42.729387429
 11
34.8961432693
 21
42.5456790894
  0
LWPOLYLINE
  5
27E
100
AcDbEntity
  8
0
100
AcDbPolyline
 62
7
  6
BYLAYER
 90
3
 70
0
 10
36.4197300829
 20
40.4573918531
 10
35.5540212497
 20
41.6890148597
 10
35.4946218959
 20
41.7149132181
  0
LINE
  5
27F
100
AcDbEntity
  8
0
100
AcDbLine
 62
7
  6
BYLAYER
 10
36.6648269633
 20
38.6293195753
 11
36.6616964568
 21
38.6364412752
  0
LINE
  5
280
100
AcDbEntity
  8
0
100
AcDbLine
 62
7
  6
BYLAYER
 10
36.1080641792
 20
44.471273726
 11
36.1080641792
 21
41.1881933237
  0
LINE
  5
281
100
AcDbEntity
  8
0
100
AcDbLine
 62
7
  6
BYLAYER
 10
36.7876078843
 20
38.3321505806
 11
36.5899648647
 21
37.0644662278
  0
LINE
  5
282
100
AcDbEntity
  8
0
100
AcDbLine
 62
7
  6
BYLAYER
 10
36.5686475508
 20
37.0767735063
 11
36.7580735985
 21
38.2838331032
  0
LINE
  5
283
100
AcDbEntity
  8
0
100
AcDbLine
 62
7
  6
BYLAYER
 10
36.6000172347
 20
38.1925797637
 11
36.4363713672
 21
37.1531414689
  0
LINE
  5
284
100
AcDbEntity
  8
0
100
AcDbLine
 62
7
  6
BYLAYER
 10
37.2019589365
 20
34.0086516948
 11
36.6480068477
 21
33.6888292163
  0
LINE
  5
285
100
AcDbEntity
  8
0
100
AcDbLine
 62
7
  6
BYLAYER
 10
18.5010791265
 20
27.1714054559
 11
18.4915199589
 21
27.1675284431
  0
LINE
  5
286
100
AcDbEntity
  8
0
100
AcDbLine
 62
7
  6
BYLAYER
 10
34.9795550248
 20
45.419067038
 11
18.9635197502
 21
54.6657201279
  0
LINE
  5
287
100
AcDbEntity
  8
0
100
AcDbLine
 62
7
  6
BYLAYER
 10
35.6938395377
 20
45.3868460217
 11
19.6778042631
 21
54.6334991115
  0
LINE
  5
288
100
AcDbEntity
  8
0
100
AcDbLine
 62
7
  6
BYLAYER
 10
36.2116156663
 20
41.0097222417
 11
35.9388592929
 21
41.4798180984
  0
LINE
  5
289
100
AcDbEntity
  8
0
100
AcDbLine
 62
7
  6
BYLAYER
 10
36.7875939233
 20
38.3321529296
 11
36.7812277186
 21
38.3629366255
  0
LINE
  5
28A
100
AcDbEntity
  8
0
100
AcDbLine
 62
7
  6
BYLAYER
 10
36.7530121801
 20
38.718492266
 11
36.4197300829
 21
40.4573918531
  0
LINE
  5
28B
100
AcDbEntity
  8
0
100
AcDbLine
 62
7
  6
BYLAYER
 10
35.4842328503
 20
30.7005894282
 11
36.1315690352
 21
32.4785313253
  0
LINE
  5
28C
100
AcDbEntity
  8
0
100
AcDbLine
 62
7
  6
BYLAYER
 10
32.6173643714
 20
30.1204442424
 11
32.3502676069
 21
29.8597520274
  0
LWPOLYLINE
  5
28D
100
AcDbEntity
  8
0
100
AcDbPolyline
 62
7
  6
BYLAYER
 90
3
 70
0
 10
32.3502676069
 20
29.8597520274
 10
30.6310779396
 20
28.8408374024
 10
28.9841984298
 20
28.4911851797
  0
LWPOLYLINE
  5
28E
100
AcDbEntity
  8
0
100
AcDbPolyline
 62
7
  6
BYLAYER
 90
3
 70
0
 10
30.5754782634
 20
28.8574702837
 10
32.3068959299
 20
29.8570987726
 10
32.5931363945
 20
30.1344319549
  0
LINE
  5
28F
100
AcDbEntity
  8
0
100
AcDbLine
 62
7
  6
BYLAYER
 10
29.2941946522
 20
28.0957491506
 11
30.5577779078
 21
28.8252749287
  0
LWPOLYLINE
  5
290
100
AcDbEntity
  8
0
100
AcDbPolyline
 62
7
  6
BYLAYER
 90
6
 70
0
 10
19.677969289
 20
54.6334038079
 10
17.5544844964
 20
55.5638782273
 10
15.1151217099
 20
56.106974921
 10
13.8387448601
 20
56.2000562816
 10
11.327046168
 20
55.9553109341
 10
9.1925491379
 20
55.1334767373
  0
LINE
  5
291
100
AcDbEntity
  8
0
100
AcDbLine
 62
7
  6
BYLAYER
 10
43.8030869664
 20
32.2375001912
 11
43.1557507816
 21
33.267967109
  0
LINE
  5
292
100
AcDbEntity
  8
0
100
AcDbLine
 62
7
  6
BYLAYER
 10
38.9600079358
 20
30.8455683073
 11
38.3126717509
 21
29.0676264101
  0
LINE
  5
293
100
AcDbEntity
  8
0
100
AcDbLine
 62
7
  6
BYLAYER
 10
41.765016417
 20
25.686760533
 11
41.765016279
 21
25.6867739087
  0
LINE
  5
294
100
AcDbEntity
  8
0
100
AcDbLine
 62
7
  6
BYLAYER
 10
41.7650126356
 20
26.1919893326
 11
41.765016279
 21
25.6867606359
  0
LINE
  5
295
100
AcDbEntity
  8
0
100
AcDbLine
 62
7
  6
BYLAYER
 10
49.8967273712
 20
28.0291543143
 11
49.8967237278
 21
28.534383011
  0
ARC
  5
296
100
AcDbEntity
  8
0
100
AcDbCircle
 62
7
  6
BYLAYER
 10
-37.7005889647
 20
-158.437710608
 40
208.7735951122
100
AcDbArc
 50
71.4119670908
 51
71.6131430666
  0
ARC
  5
297
100
AcDbEntity
  8
0
100
AcDbCircle
 62
7
  6
BYLAYER
 10
-29.7158164751
 20
-15.6059502577
 40
86.3123394177
100
AcDbArc
 50
42.1944749382
 51
42.6775915313
  0
ARC
  5
298
100
AcDbEntity
  8
0
100
AcDbCircle
 62
7
  6
BYLAYER
 10
-23.8119199292
 20
12.0634440246
 40
66.054468834
100
AcDbArc
 50
23.4624878379
 51
23.7146261021
  0
ARC
  5
299
100
AcDbEntity
  8
0
100
AcDbCircle
 62
7
  6
BYLAYER
 10
-26.5690976281
 20
17.7723231447
 40
65.3348266931
100
AcDbArc
 50
22.1358190648
 51
22.6214664735
  0
ARC
  5
29A
100
AcDbEntity
  8
0
100
AcDbCircle
 62
7
  6
BYLAYER
 10
14.1937130134
 20
42.8975500131
 40
11.1400372178
100
AcDbArc
 50
256.5541903914
 51
257.682541151
  0
ARC
  5
29B
100
AcDbEntity
  8
0
100
AcDbCircle
 62
7
  6
BYLAYER
 10
14.1411651716
 20
42.6754599262
 40
10.9118158535
100
AcDbArc
 50
255.7885538197
 51
256.5513858921
  0
ARC
  5
29C
100
AcDbEntity
  8
0
100
AcDbCircle
 62
7
  6
BYLAYER
 10
14.1549990256
 20
42.5143867535
 40
10.8368369412
100
AcDbArc
 50
255.2092462861
 51
257.8979469645
  0
ARC
  5
29D
100
AcDbEntity
  8
0
100
AcDbCircle
 62
7
  6
BYLAYER
 10
14.1038725839
 20
42.5271940884
 40
10.7589321286
100
AcDbArc
 50
255.4020322747
 51
255.7872324701
  0
ARC
  5
29E
100
AcDbEntity
  8
0
100
AcDbCircle
 62
7
  6
BYLAYER
 10
14.2969561699
 20
42.3462285183
 40
10.4805243314
100
AcDbArc
 50
258.7629927058
 51
259.436097119
  0
ARC
  5
29F
100
AcDbEntity
  8
0
100
AcDbCircle
 62
7
  6
BYLAYER
 10
13.8666607305
 20
40.7109701802
 40
8.7884520496
100
AcDbArc
 50
249.2546093451
 51
253.0019006496
  0
ARC
  5
2A0
100
AcDbEntity
  8
0
100
AcDbCircle
 62
7
  6
BYLAYER
 10
13.4000038697
 20
40.4549216462
 40
8.5683321086
100
AcDbArc
 50
246.1129589548
 51
247.4565023805
  0
ARC
  5
2A1
100
AcDbEntity
  8
0
100
AcDbCircle
 62
7
  6
BYLAYER
 10
13.2996009777
 20
40.2260263181
 40
8.3183861031
100
AcDbArc
 50
245.6495941675
 51
246.1068649769
  0
ARC
  5
2A2
100
AcDbEntity
  8
0
100
AcDbCircle
 62
7
  6
BYLAYER
 10
13.3285679497
 20
40.1037918765
 40
8.285312618
100
AcDbArc
 50
244.5320319847
 51
247.6919574138
  0
ARC
  5
2A3
100
AcDbEntity
  8
0
100
AcDbCircle
 62
7
  6
BYLAYER
 10
13.6724745142
 20
40.1792013534
 40
8.2223800971
100
AcDbArc
 50
248.6350520849
 51
249.2074688284
  0
ARC
  5
2A4
100
AcDbEntity
  8
0
100
AcDbCircle
 62
7
  6
BYLAYER
 10
13.2382328784
 20
40.0906146123
 40
8.1697174522
100
AcDbArc
 50
244.7252298685
 51
245.6501302181
  0
ARC
  5
2A5
100
AcDbEntity
  8
0
100
AcDbCircle
 62
7
  6
BYLAYER
 10
14.0739867779
 20
39.093334737
 40
7.5674896691
100
AcDbArc
 50
252.8495479934
 51
253.540765623
  0
ARC
  5
2A6
100
AcDbEntity
  8
0
100
AcDbCircle
 62
7
  6
BYLAYER
 10
13.9600270763
 20
38.730536461
 40
7.1872192881
100
AcDbArc
 50
248.9309021278
 51
252.8647720534
  0
ARC
  5
2A7
100
AcDbEntity
  8
0
100
AcDbCircle
 62
7
  6
BYLAYER
 10
13.7972504289
 20
38.2902781442
 40
6.7178791801
100
AcDbArc
 50
248.7351420527
 51
248.8765272608
  0
ARC
  5
2A8
100
AcDbEntity
  8
0
100
AcDbCircle
 62
7
  6
BYLAYER
 10
12.7639037938
 20
38.3000545704
 40
6.1326739535
100
AcDbArc
 50
237.0356448541
 51
240.3959091515
  0
ARC
  5
2A9
100
AcDbEntity
  8
0
100
AcDbCircle
 62
7
  6
BYLAYER
 10
12.0745947437
 20
38.0763636044
 40
5.8398999175
100
AcDbArc
 50
233.0533834123
 51
234.7875939197
  0
ARC
  5
2AA
100
AcDbEntity
  8
0
100
AcDbCircle
 62
7
  6
BYLAYER
 10
12.0089282148
 20
37.8435854733
 40
5.6628758816
100
AcDbArc
 50
231.0730177845
 51
235.0315532562
  0
ARC
  5
2AB
100
AcDbEntity
  8
0
100
AcDbCircle
 62
7
  6
BYLAYER
 10
11.9423920466
 20
37.8988968203
 40
5.6186061232
100
AcDbArc
 50
232.4490488943
 51
233.0430408383
  0
ARC
  5
2AC
100
AcDbEntity
  8
0
100
AcDbCircle
 62
7
  6
BYLAYER
 10
11.8639402261
 20
37.7969839486
 40
5.4899946378
100
AcDbArc
 50
231.2446338099
 51
232.4499361848
  0
ARC
  5
2AD
100
AcDbEntity
  8
0
100
AcDbCircle
 62
7
  6
BYLAYER
 10
10.6340231236
 20
36.5540923115
 40
3.7366776173
100
AcDbArc
 50
215.6729966673
 51
218.0085066461
  0
ARC
  5
2AE
100
AcDbEntity
  8
0
100
AcDbCircle
 62
7
  6
BYLAYER
 10
10.6266395414
 20
36.4574829923
 40
3.6984989342
100
AcDbArc
 50
213.1382424217
 51
218.20577775
  0
ARC
  5
2AF
100
AcDbEntity
  8
0
100
AcDbCircle
 62
7
  6
BYLAYER
 10
10.5035152186
 20
36.4594147834
 40
3.5754465104
100
AcDbArc
 50
214.0558364937
 51
215.6600917783
  0
ARC
  5
2B0
100
AcDbEntity
  8
0
100
AcDbCircle
 62
7
  6
BYLAYER
 10
10.4223356845
 20
36.4041294279
 40
3.4772300842
100
AcDbArc
 50
213.232268479
 51
214.05018634
  0
ARC
  5
2B1
100
AcDbEntity
  8
0
100
AcDbCircle
 62
7
  6
BYLAYER
 10
9.7045880234
 20
50.7032844709
 40
3.2693898156
100
AcDbArc
 50
180.0000673093
 51
180.303776041
  0
ARC
  5
2B2
100
AcDbEntity
  8
0
100
AcDbCircle
 62
7
  6
BYLAYER
 10
10.8414541375
 20
34.9064477247
 40
2.8062810648
100
AcDbArc
 50
209.7144237799
 51
211.4572655052
  0
ARC
  5
2B3
100
AcDbEntity
  8
0
100
AcDbCircle
 62
7
  6
BYLAYER
 10
10.63827505
 20
33.1903311084
 40
2.7082288755
100
AcDbArc
 50
160.5985533742
 51
163.312070671
  0
ARC
  5
2B4
100
AcDbEntity
  8
0
100
AcDbCircle
 62
7
  6
BYLAYER
 10
10.5560391407
 20
33.2140678348
 40
2.6226404337
100
AcDbArc
 50
163.292894773
 51
167.9595287499
  0
ARC
  5
2B5
100
AcDbEntity
  8
0
100
AcDbCircle
 62
7
  6
BYLAYER
 10
10.4644696173
 20
33.2323615937
 40
2.529269559
100
AcDbArc
 50
167.9321109928
 51
179.9545559247
  0
ARC
  5
2B6
100
AcDbEntity
  8
0
100
AcDbCircle
 62
7
  6
BYLAYER
 10
10.3606550242
 20
32.7721237534
 40
2.2781665771
100
AcDbArc
 50
192.1967486838
 51
199.9131651945
  0
ARC
  5
2B7
100
AcDbEntity
  8
0
100
AcDbCircle
 62
7
  6
BYLAYER
 10
14.6863679041
 20
42.8552033859
 40
11.096599412
100
AcDbArc
 50
282.3155543136
 51
283.4483197957
  0
ARC
  5
2B8
100
AcDbEntity
  8
0
100
AcDbCircle
 62
7
  6
BYLAYER
 10
14.7364901752
 20
42.6459739062
 40
10.8814501397
100
AcDbArc
 50
283.447857493
 51
284.2128166446
  0
ARC
  5
2B9
100
AcDbEntity
  8
0
100
AcDbCircle
 62
7
  6
BYLAYER
 10
14.7154140208
 20
42.5143183282
 40
10.8367665306
100
AcDbArc
 50
282.1023529151
 51
284.791064181
  0
ARC
  5
2BA
100
AcDbEntity
  8
0
100
AcDbCircle
 62
7
  6
BYLAYER
 10
14.7665424343
 20
42.5271216574
 40
10.7588573466
100
AcDbArc
 50
284.2130761793
 51
284.5982781596
  0
ARC
  5
2BB
100
AcDbEntity
  8
0
100
AcDbCircle
 62
7
  6
BYLAYER
 10
14.5774271218
 20
42.3229050754
 40
10.4568714441
100
AcDbArc
 50
280.6155445513
 51
281.2415279755
  0
ARC
  5
2BC
100
AcDbEntity
  8
0
100
AcDbCircle
 62
7
  6
BYLAYER
 10
14.8012026682
 20
39.0780555095
 40
7.5514861745
100
AcDbArc
 50
286.4289783897
 51
287.1053422568
  0
ARC
  5
2BD
100
AcDbEntity
  8
0
100
AcDbCircle
 62
7
  6
BYLAYER
 10
14.8801089127
 20
38.8266862297
 40
7.2880275661
100
AcDbArc
 50
287.0937010082
 51
289.0477283105
  0
ARC
  5
2BE
100
AcDbEntity
  8
0
100
AcDbCircle
 62
7
  6
BYLAYER
 10
15.0160309757
 20
38.4380376963
 40
6.8762999484
100
AcDbArc
 50
289.0340442965
 51
291.3044482957
  0
ARC
  5
2BF
100
AcDbEntity
  8
0
100
AcDbCircle
 62
7
  6
BYLAYER
 10
15.0902617304
 20
38.2457252776
 40
6.670159835
100
AcDbArc
 50
291.3105778864
 51
291.508588346
  0
ARC
  5
2C0
100
AcDbEntity
  8
0
100
AcDbCircle
 62
7
  6
BYLAYER
 10
15.7656950421
 20
33.0525370625
 40
5.4709448477
100
AcDbArc
 50
299.395227774
 51
299.998931727
  0
ARC
  5
2C1
100
AcDbEntity
  8
0
100
AcDbCircle
 62
7
  6
BYLAYER
 10
15.8319151056
 20
31.7950930398
 40
5.3388129246
100
AcDbArc
 50
299.9969956711
 51
300.8693202517
  0
ARC
  5
2C2
100
AcDbEntity
  8
0
100
AcDbCircle
 62
7
  6
BYLAYER
 10
15.7965007402
 20
36.7967016901
 40
5.0564602799
100
AcDbArc
 50
299.9943846394
 51
301.2644047256
  0
ARC
  5
2C3
100
AcDbEntity
  8
0
100
AcDbCircle
 62
7
  6
BYLAYER
 10
15.6296004954
 20
32.4781204592
 40
3.9808789896
100
AcDbArc
 50
299.952679142
 51
303.6533714122
  0
ARC
  5
2C4
100
AcDbEntity
  8
0
100
AcDbCircle
 62
7
  6
BYLAYER
 10
19.3450464018
 20
54.0544708306
 40
0.6677035871
100
AcDbArc
 50
60.1147533674
 51
60.630073005
  0
ARC
  5
2C5
100
AcDbEntity
  8
0
100
AcDbCircle
 62
7
  6
BYLAYER
 10
14.5264662511
 20
202.577383051
 40
170.4431201424
100
AcDbArc
 50
273.6442643024
 51
273.8656485766
  0
ARC
  5
2C6
100
AcDbEntity
  8
0
100
AcDbCircle
 62
7
  6
BYLAYER
 10
76.5332497566
 20
133.4045913327
 40
113.1577897701
100
AcDbArc
 50
243.1132573969
 51
243.4857071088
  0
ARC
  5
2C7
100
AcDbEntity
  8
0
100
AcDbCircle
 62
7
  6
BYLAYER
 10
29.7175891256
 20
105.1778255213
 40
76.6884933745
100
AcDbArc
 50
268.8310894754
 51
269.04605755
  0
ARC
  5
2C8
100
AcDbEntity
  8
0
100
AcDbCircle
 62
7
  6
BYLAYER
 10
29.6588150134
 20
101.023093956
 40
72.5333393516
100
AcDbArc
 50
269.1767286142
 51
269.3597765537
  0
ARC
  5
2C9
100
AcDbEntity
  8
0
100
AcDbCircle
 62
7
  6
BYLAYER
 10
27.4432867971
 20
55.6498801069
 40
27.1538654675
100
AcDbArc
 50
271.498014265
 51
272.0818199055
  0
ARC
  5
2CA
100
AcDbEntity
  8
0
100
AcDbCircle
 62
7
  6
BYLAYER
 10
27.4628443473
 20
55.1659978292
 40
26.6695917644
100
AcDbArc
 50
272.0994186005
 51
272.3752202872
  0
ARC
  5
2CB
100
AcDbEntity
  8
0
100
AcDbCircle
 62
7
  6
BYLAYER
 10
30.0707791827
 20
38.4962963699
 40
6.6901599025
100
AcDbArc
 50
1.6770039527
 51
1.9253714639
  0
ARC
  5
2CC
100
AcDbEntity
  8
0
100
AcDbCircle
 62
7
  6
BYLAYER
 10
37.9077273338
 20
32.0587823134
 40
6.3023581197
100
AcDbArc
 50
299.9892192115
 51
303.3884060786
  0
ARC
  5
2CD
100
AcDbEntity
  8
0
100
AcDbCircle
 62
7
  6
BYLAYER
 10
30.1656512057
 20
37.7046839453
 40
5.0938909259
100
AcDbArc
 50
359.9976222219
 51
1.4844491286
  0
ARC
  5
2CE
100
AcDbEntity
  8
0
100
AcDbCircle
 62
7
  6
BYLAYER
 10
32.4099973253
 20
33.6822724245
 40
3.691153332
100
AcDbArc
 50
179.9854479534
 51
181.9799510877
  0
ARC
  5
2CF
100
AcDbEntity
  8
0
100
AcDbCircle
 62
7
  6
BYLAYER
 10
33.3808063406
 20
35.5362568736
 40
3.5899711965
100
AcDbArc
 50
117.381107577
 51
118.3559356959
  0
ARC
  5
2D0
100
AcDbEntity
  8
0
100
AcDbCircle
 62
7
  6
BYLAYER
 10
32.2844052156
 20
33.6781953321
 40
3.5654953507
100
AcDbArc
 50
181.9842018345
 51
182.5646401175
  0
ARC
  5
2D1
100
AcDbEntity
  8
0
100
AcDbCircle
 62
7
  6
BYLAYER
 10
32.0518604889
 20
39.2678976704
 40
3.5198385476
100
AcDbArc
 50
22.2313626203
 51
25.0517448381
  0
ARC
  5
2D2
100
AcDbEntity
  8
0
100
AcDbCircle
 62
7
  6
BYLAYER
 10
28.4170510077
 20
32.92535399
 40
3.4804232591
100
AcDbArc
 50
274.8583749336
 51
277.7859660096
  0
ARC
  5
2D3
100
AcDbEntity
  8
0
100
AcDbCircle
 62
7
  6
BYLAYER
 10
33.3762970002
 20
40.044108342
 40
2.9343945691
100
AcDbArc
 50
39.1138031587
 51
43.8013857219
  0
ARC
  5
2D4
100
AcDbEntity
  8
0
100
AcDbCircle
 62
7
  6
BYLAYER
 10
27.8465669776
 20
31.5381495773
 40
2.8452250451
100
AcDbArc
 50
252.2582214758
 51
256.4824376183
  0
ARC
  5
2D5
100
AcDbEntity
  8
0
100
AcDbCircle
 62
7
  6
BYLAYER
 10
33.0063423108
 20
40.4732925099
 40
2.8422873515
100
AcDbArc
 50
42.2344584908
 51
47.7497788727
  0
ARC
  5
2D6
100
AcDbEntity
  8
0
100
AcDbCircle
 62
7
  6
BYLAYER
 10
27.8140094236
 20
31.4358217778
 40
2.7378428223
100
AcDbArc
 50
244.4713032685
 51
252.2546009057
  0
ARC
  5
2D7
100
AcDbEntity
  8
0
100
AcDbCircle
 62
7
  6
BYLAYER
 10
33.0873703347
 20
40.5646092436
 40
2.7202128724
100
AcDbArc
 50
47.7198610258
 51
55.5549261428
  0
ARC
  5
2D8
100
AcDbEntity
  8
0
100
AcDbCircle
 62
7
  6
BYLAYER
 10
36.787719803
 20
29.492719465
 40
1.5415262754
100
AcDbArc
 50
244.5087873088
 51
244.8125931807
  0
ARC
  5
2D9
100
AcDbEntity
  8
0
100
AcDbCircle
 62
7
  6
BYLAYER
 10
36.7856438763
 20
29.4884285021
 40
1.5367596103
100
AcDbArc
 50
240.0033322611
 51
244.5097986149
  0
ARC
  5
2DA
100
AcDbEntity
  8
0
100
AcDbCircle
 62
7
  6
BYLAYER
 10
30.2385112522
 20
33.0096786032
 40
1.3627535503
100
AcDbArc
 50
240.024818317
 51
248.4595190862
  0
ARC
  5
2DB
100
AcDbEntity
  8
0
100
AcDbCircle
 62
7
  6
BYLAYER
 10
32.9291067171
 20
37.6689814071
 40
1.3568648565
100
AcDbArc
 50
50.387583671
 51
59.9983817175
  0
SPLINE
  5
2DC
100
AcDbEntity
  8
0
100
AcDbSpline
 62
7
  6
BYLAYER
 70
0
 71
3
 72
11
 73
7
 74
0
 42
0.0000001
 43
0.0000001
 44
0.0000000001
 40
0.0
 40
0.0
 40
0.0
 40
0.0
 40
0.2362377684
 40
0.4812177646
 40
0.7357726963
 40
1.0
 40
1.0
 40
1.0
 40
1.0
 10
20.2790145484
 20
31.4769483001
 30
0.0
 10
20.1923366739
 20
31.3679828686
 30
0.0
 10
20.0028886493
 20
31.1560291043
 30
0.0
 10
19.6818204638
 20
30.8635662613
 30
0.0
 10
19.3218622884
 20
30.5922972723
 30
0.0
 10
19.0627236385
 20
30.4292836439
 30
0.0
 10
18.9278554385
 20
30.3514179172
 30
0.0
  0
SPLINE
  5
2DD
100
AcDbEntity
  8
0
100
AcDbSpline
 62
7
  6
BYLAYER
 70
0
 71
3
 72
26
 73
22
 74
0
 42
0.0000001
 43
0.0000001
 44
0.0000000001
 40
0.0
 40
0.0
 40
0.0
 40
0.0
 40
0.0603924608
 40
0.1237779656
 40
0.1897572614
 40
0.2577861049
 40
0.3272035008
 40
0.3972797205
 40
0.4672516537
 40
0.5363617825
 40
0.6038949925
 40
0.6692184081
 40
0.7318216259
 40
0.7913600954
 40
0.8476979431
 40
0.8747070921
 40
0.9009800814
 40
0.9265700558
 40
0.951547864
 40
0.9759934717
 40
1.0
 40
1.0
 40
1.0
 40
1.0
 10
18.9278554385
 20
30.3514179172
 30
0.0
 10
18.7178785697
 20
30.2301884391
 30
0.0
 10
18.2726266642
 20
30.0069145027
 30
0.0
 10
17.5595012684
 20
29.7358179637
 30
0.0
 10
16.7950210235
 20
29.523063573
 30
0.0
 10
15.9915739206
 20
29.3714917715
 30
0.0
 10
15.1622409257
 20
29.2832284026
 30
0.0
 10
14.3207848698
 20
29.259559291
 30
0.0
 10
13.4812389325
 20
29.3008394727
 30
0.0
 10
12.6575981206
 20
29.4064547255
 30
0.0
 10
11.8634676145
 20
29.5748750368
 30
0.0
 10
11.1117685832
 20
29.8037652248
 30
0.0
 10
10.4144386398
 20
30.0902138573
 30
0.0
 10
9.7824646945
 20
30.4308915705
 30
0.0
 10
9.3118622658
 20
30.7619651793
 30
0.0
 10
8.9798794411
 20
31.0513862071
 30
0.0
 10
8.7569444345
 20
31.2767029397
 30
0.0
 10
8.5577868994
 20
31.5127498136
 30
0.0
 10
8.3836602034
 20
31.7589534616
 30
0.0
 10
8.2358397226
 20
32.0144919555
 30
0.0
 10
8.1550923947
 20
32.1918876526
 30
0.0
 10
8.1197418845
 20
32.2815505822
 30
0.0
  0
SPLINE
  5
2DE
100
AcDbEntity
  8
0
100
AcDbSpline
 62
7
  6
BYLAYER
 70
0
 71
3
 72
11
 73
7
 74
0
 42
0.0000001
 43
0.0000001
 44
0.0000000001
 40
0.0
 40
0.0
 40
0.0
 40
0.0
 40
0.252761164
 40
0.5031466535
 40
0.7519740822
 40
1.0
 40
1.0
 40
1.0
 40
1.0
 10
8.1197418845
 20
32.2815505822
 30
0.0
 10
8.0895826567
 20
32.3580463584
 30
0.0
 10
8.0362047509
 20
32.5130541362
 30
0.0
 10
7.9781157557
 20
32.7510418758
 30
0.0
 10
7.9430228896
 20
32.9919409396
 30
0.0
 10
7.9351783271
 20
33.1536817075
 30
0.0
 10
7.9352008539
 20
33.2343676805
 30
0.0
  0
SPLINE
  5
2DF
100
AcDbEntity
  8
0
100
AcDbSpline
 62
7
  6
BYLAYER
 70
0
 71
3
 72
23
 73
19
 74
0
 42
0.0000001
 43
0.0000001
 44
0.0000000001
 40
0.0
 40
0.0
 40
0.0
 40
0.0
 40
0.0558381566
 40
0.1141791827
 40
0.1747830498
 40
0.2373530997
 40
0.3015485152
 40
0.3669922744
 40
0.4332822163
 40
0.4999996552
 40
0.5667170426
 40
0.6330070784
 40
0.6984504609
 40
0.7626466053
 40
0.8252165395
 40
0.8858171891
 40
0.9441705457
 40
1.0
 40
1.0
 40
1.0
 40
1.0
 10
39.113347653
 20
28.7435090172
 30
0.0
 10
39.11334708
 20
28.8187373
 30
0.0
 10
39.1200226703
 20
28.9726223513
 30
0.0
 10
39.148364599
 20
29.2065897933
 30
0.0
 10
39.1949830213
 20
29.4468513365
 30
0.0
 10
39.2594199346
 20
29.69110199
 30
0.0
 10
39.3410693908
 20
29.9370183789
 30
0.0
 10
39.4391468966
 20
30.1822520627
 30
0.0
 10
39.5527082682
 20
30.4244627488
 30
0.0
 10
39.6806773894
 20
30.6613290763
 30
0.0
 10
39.8218253931
 20
30.8905864604
 30
0.0
 10
39.9747962509
 20
31.1100445998
 30
0.0
 10
40.138136957
 20
31.317599444
 30
0.0
 10
40.310283655
 20
31.5112668847
 30
0.0
 10
40.4895820938
 20
31.6892014868
 30
0.0
 10
40.6743534485
 20
31.8497150838
 30
0.0
 10
40.8628115327
 20
31.9912342859
 30
0.0
 10
40.992739811
 20
32.0739704527
 30
0.0
 10
41.0578793587
 20
32.1115785636
 30
0.0
  0
SPLINE
  5
2E0
100
AcDbEntity
  8
0
100
AcDbSpline
 62
7
  6
BYLAYER
 70
0
 71
3
 72
11
 73
7
 74
0
 42
0.0000001
 43
0.0000001
 44
0.0000000001
 40
0.0
 40
0.0
 40
0.0
 40
0.0
 40
0.2383140371
 40
0.4854073893
 40
0.7398338174
 40
1.0
 40
1.0
 40
1.0
 40
1.0
 10
38.2294404581
 20
34.7651696031
 30
0.0
 10
38.3676570544
 20
34.8449685158
 30
0.0
 10
38.6552381127
 20
34.9971841298
 30
0.0
 10
39.1072785438
 20
35.2006707531
 30
0.0
 10
39.5830516561
 20
35.385164204
 30
0.0
 10
39.9094399902
 20
35.4960587722
 30
0.0
 10
40.0753082076
 20
35.5493957545
 30
0.0
  0
SPLINE
  5
2E1
100
AcDbEntity
  8
0
100
AcDbSpline
 62
7
  6
BYLAYER
 70
0
 71
3
 72
11
 73
7
 74
0
 42
0.0000001
 43
0.0000001
 44
0.0000000001
 40
0.0
 40
0.0
 40
0.0
 40
0.0
 40
0.2361002364
 40
0.4804524327
 40
0.734710785
 40
1.0
 40
1.0
 40
1.0
 40
1.0
 10
36.8711168708
 20
33.6994660662
 30
0.0
 10
36.9657534013
 20
33.797565925
 30
0.0
 10
37.1642012187
 20
33.9916546362
 30
0.0
 10
37.486732581
 20
34.2676688434
 30
0.0
 10
37.8422249217
 20
34.5293544028
 30
0.0
 10
38.0968008354
 20
34.6885905383
 30
0.0
 10
38.2294404581
 20
34.7651696031
 30
0.0
  0
SPLINE
  5
2E2
100
AcDbEntity
  8
0
100
AcDbSpline
 62
7
  6
BYLAYER
 70
0
 71
3
 72
9
 73
5
 74
0
 42
0.0000001
 43
0.0000001
 44
0.0000000001
 40
0.0
 40
0.0
 40
0.0
 40
0.0
 40
0.2491168085
 40
1.0
 40
1.0
 40
1.0
 40
1.0
 10
35.4842328503
 20
30.7005894282
 30
0.0
 10
35.4627669589
 20
30.6111658515
 30
0.0
 10
35.3818898504
 20
30.2509343377
 30
0.0
 10
35.3206636201
 20
29.8864483792
 30
0.0
 10
35.2829778396
 20
29.611826204
 30
0.0
  0
SPLINE
  5
2E3
100
AcDbEntity
  8
0
100
AcDbSpline
 62
7
  6
BYLAYER
 70
0
 71
3
 72
10
 73
6
 74
0
 42
0.0000001
 43
0.0000001
 44
0.0000000001
 40
0.0
 40
0.0
 40
0.0
 40
0.0
 40
0.4957264503
 40
0.7467052013
 40
1.0
 40
1.0
 40
1.0
 40
1.0
 10
36.8711168708
 20
33.6994660662
 30
0.0
 10
36.7355864141
 20
33.5061984804
 30
0.0
 10
36.53946325
 20
33.2092271321
 30
0.0
 10
36.2988308439
 20
32.7982244037
 30
0.0
 10
36.1859209537
 20
32.5862034971
 30
0.0
 10
36.1315690352
 20
32.4785313253
 30
0.0
  0
SPLINE
  5
2E4
100
AcDbEntity
  8
0
100
AcDbSpline
 62
7
  6
BYLAYER
 70
0
 71
3
 72
11
 73
7
 74
0
 42
0.0000001
 43
0.0000001
 44
0.0000000001
 40
0.0
 40
0.0
 40
0.0
 40
0.0
 40
0.237623345
 40
0.4844334743
 40
0.73899421
 40
1.0
 40
1.0
 40
1.0
 40
1.0
 10
36.1315690352
 20
28.097389742
 30
0.0
 10
36.1873766367
 20
28.0215918037
 30
0.0
 10
36.3029726449
 20
27.8684030132
 30
0.0
 10
36.4837319082
 20
27.6381346193
 30
0.0
 10
36.6739158772
 20
27.403540728
 30
0.0
 10
36.804563112
 20
27.2465658526
 30
0.0
 10
36.8711168708
 20
27.1674467292
 30
0.0
  0
SPLINE
  5
2E5
100
AcDbEntity
  8
0
100
AcDbSpline
 62
7
  6
BYLAYER
 70
0
 71
3
 72
9
 73
5
 74
0
 42
0.0000001
 43
0.0000001
 44
0.0000000001
 40
0.0
 40
0.0
 40
0.0
 40
0.0
 40
0.4746838292
 40
1.0
 40
1.0
 40
1.0
 40
1.0
 10
35.2829778396
 20
29.611826204
 30
0.0
 10
35.3093954053
 20
29.5331614263
 30
0.0
 10
35.3709554559
 20
29.3693787053
 30
0.0
 10
35.4435717003
 20
29.2101977506
 30
0.0
 10
35.4842328503
 20
29.1278566598
 30
0.0
  0
SPLINE
  5
2E6
100
AcDbEntity
  8
0
100
AcDbSpline
 62
7
  6
BYLAYER
 70
0
 71
3
 72
11
 73
7
 74
0
 42
0.0000001
 43
0.0000001
 44
0.0000000001
 40
0.0
 40
0.0
 40
0.0
 40
0.0
 40
0.2601662155
 40
0.5145926645
 40
0.7616860098
 40
1.0
 40
1.0
 40
1.0
 40
1.0
 10
39.2120116091
 20
25.8159610966
 30
0.0
 10
39.3778798475
 20
25.8692980856
 30
0.0
 10
39.7042682143
 20
25.980192669
 30
0.0
 10
40.1800413587
 20
26.1646861252
 30
0.0
 10
40.632081762
 20
26.3681727568
 30
0.0
 10
40.9196627897
 20
26.520388351
 30
0.0
 10
41.0578793588
 20
26.600187248
 30
0.0
  0
SPLINE
  5
2E7
100
AcDbEntity
  8
0
100
AcDbSpline
 62
7
  6
BYLAYER
 70
0
 71
3
 72
9
 73
5
 74
0
 42
0.0000001
 43
0.0000001
 44
0.0000000001
 40
0.0
 40
0.0
 40
0.0
 40
0.0
 40
0.2495966075
 40
1.0
 40
1.0
 40
1.0
 40
1.0
 10
43.8995742891
 20
31.1126461669
 30
0.0
 10
43.9097723124
 20
31.1657074546
 30
0.0
 10
43.9490350164
 20
31.3786012123
 30
0.0
 10
43.9822567899
 20
31.5925924345
 30
0.0
 10
44.0043419771
 20
31.753530647
 30
0.0
  0
SPLINE
  5
2E8
100
AcDbEntity
  8
0
100
AcDbSpline
 62
7
  6
BYLAYER
 70
0
 71
3
 72
9
 73
5
 74
0
 42
0.0000001
 43
0.0000001
 44
0.0000000001
 40
0.0
 40
0.0
 40
0.0
 40
0.0
 40
0.4746871552
 40
1.0
 40
1.0
 40
1.0
 40
1.0
 10
44.0043419771
 20
31.753530647
 30
0.0
 10
43.9779242262
 20
31.8321959763
 30
0.0
 10
43.9163641975
 20
31.9959787101
 30
0.0
 10
43.8437478592
 20
32.1551596214
 30
0.0
 10
43.8030869664
 20
32.2375001912
 30
0.0
  0
SPLINE
  5
2E9
100
AcDbEntity
  8
0
100
AcDbSpline
 62
7
  6
BYLAYER
 70
0
 71
3
 72
11
 73
7
 74
0
 42
0.0000001
 43
0.0000001
 44
0.0000000001
 40
0.0
 40
0.0
 40
0.0
 40
0.0
 40
0.237626752
 40
0.4844415981
 40
0.7390012443
 40
1.0
 40
1.0
 40
1.0
 40
1.0
 10
43.1557507816
 20
33.267967109
 30
0.0
 10
43.0999423796
 20
33.3437661344
 30
0.0
 10
42.9843433565
 20
33.4969566759
 30
0.0
 10
42.803584073
 20
33.7272285825
 30
0.0
 10
42.6134007748
 20
33.9618213049
 30
0.0
 10
42.4827549114
 20
34.1187931303
 30
0.0
 10
42.4162029459
 20
34.1979101218
 30
0.0
  0
SPLINE
  5
2EA
100
AcDbEntity
  8
0
100
AcDbSpline
 62
7
  6
BYLAYER
 70
0
 71
3
 72
9
 73
5
 74
0
 42
0.0000001
 43
0.0000001
 44
0.0000000001
 40
0.0
 40
0.0
 40
0.0
 40
0.0
 40
0.5334381235
 40
1.0
 40
1.0
 40
1.0
 40
1.0
 10
38.9600079358
 20
26.464426724
 30
0.0
 10
39.0148406031
 20
26.3533875223
 30
0.0
 10
39.1090631603
 20
26.1407992259
 30
0.0
 10
39.1826736448
 20
25.9202265023
 30
0.0
 10
39.2120116091
 20
25.8159610966
 30
0.0
  0
SPLINE
  5
2EB
100
AcDbEntity
  8
0
100
AcDbSpline
 62
7
  6
BYLAYER
 70
0
 71
3
 72
9
 73
5
 74
0
 42
0.0000001
 43
0.0000001
 44
0.0000000001
 40
0.0
 40
0.0
 40
0.0
 40
0.0
 40
0.5032321524
 40
1.0
 40
1.0
 40
1.0
 40
1.0
 10
38.3126717509
 20
29.0676264101
 30
0.0
 10
38.2337597163
 20
28.9113001872
 30
0.0
 10
38.0670313855
 20
28.6055838589
 30
0.0
 10
37.8834775062
 20
28.3097614293
 30
0.0
 10
37.788899248
 20
28.1650645345
 30
0.0
  0
SPLINE
  5
2EC
100
AcDbEntity
  8
0
100
AcDbSpline
 62
7
  6
BYLAYER
 70
0
 71
3
 72
9
 73
5
 74
0
 42
0.0000001
 43
0.0000001
 44
0.0000000001
 40
0.0
 40
0.0
 40
0.0
 40
0.0
 40
0.5126149424
 40
1.0
 40
1.0
 40
1.0
 40
1.0
 10
37.788899248
 20
28.1650645345
 30
0.0
 10
37.8810173991
 20
28.0526329218
 30
0.0
 10
38.058687265
 20
27.8316253045
 30
0.0
 10
38.2307353312
 20
27.6061797662
 30
0.0
 10
38.3126717509
 20
27.4948936417
 30
0.0
  0
SPLINE
  5
2ED
100
AcDbEntity
  8
0
100
AcDbSpline
 62
7
  6
BYLAYER
 70
0
 71
3
 72
15
 73
11
 74
0
 42
0.0000001
 43
0.0000001
 44
0.0000000001
 40
0.0
 40
0.0
 40
0.0
 40
0.0
 40
0.1113721973
 40
0.2280429136
 40
0.349412554
 40
0.474825156
 40
0.6034838944
 40
0.734510934
 40
0.8670197913
 40
1.0
 40
1.0
 40
1.0
 40
1.0
 10
41.0578793587
 20
33.132206585
 30
0.0
 10
40.9569212586
 20
33.0739187466
 30
0.0
 10
40.7556421238
 20
32.9449554823
 30
0.0
 10
40.4645139652
 20
32.7230037382
 30
0.0
 10
40.179836779
 20
32.4701271409
 30
0.0
 10
39.9046963798
 20
32.1891150375
 30
0.0
 10
39.6420551707
 20
31.8829671427
 30
0.0
 10
39.394716503
 20
31.5549903885
 30
0.0
 10
39.1654065888
 20
31.2087548799
 30
0.0
 10
39.0260785095
 20
30.9680820325
 30
0.0
 10
38.9600079358
 20
30.8455683073
 30
0.0
  0
SPLINE
  5
2EE
100
AcDbEntity
  8
0
100
AcDbSpline
 62
7
  6
BYLAYER
 70
0
 71
3
 72
20
 73
16
 74
0
 42
0.0000001
 43
0.0000001
 44
0.0000000001
 40
0.0
 40
0.0
 40
0.0
 40
0.0
 40
0.054335721
 40
0.1087126464
 40
0.1633980183
 40
0.2186650185
 40
0.2747893035
 40
0.3320275445
 40
0.4506279269
 40
0.5124329554
 40
0.5760642246
 40
0.6416231339
 40
0.7091871925
 40
0.8504735687
 40
1.0
 40
1.0
 40
1.0
 40
1.0
 10
43.1557507816
 20
33.267967109
 30
0.0
 10
43.1228048544
 20
33.2910158204
 30
0.0
 10
43.0547668804
 20
33.3341820993
 30
0.0
 10
42.9470919365
 20
33.3895350002
 30
0.0
 10
42.8342277253
 20
33.4352402174
 30
0.0
 10
42.7165282845
 20
33.4711319679
 30
0.0
 10
42.5943265654
 20
33.4971460541
 30
0.0
 10
42.4238887271
 20
33.518814066
 30
0.0
 10
42.2472269067
 20
33.5197747393
 30
0.0
 10
42.0674733865
 20
33.5015251484
 30
0.0
 10
41.9280389705
 20
33.4777457603
 30
0.0
 10
41.7862832378
 20
33.4441230291
 30
0.0
 10
41.5917833462
 20
33.3854163266
 30
0.0
 10
41.3449292913
 20
33.2870223263
 30
0.0
 10
41.1537036184
 20
33.1875304169
 30
0.0
 10
41.0578793587
 20
33.132206585
 30
0.0
  0
SPLINE
  5
2EF
100
AcDbEntity
  8
0
100
AcDbSpline
 62
7
  6
BYLAYER
 70
0
 71
3
 72
11
 73
7
 74
0
 42
0.0000001
 43
0.0000001
 44
0.0000000001
 40
0.0
 40
0.0
 40
0.0
 40
0.0
 40
0.2670448686
 40
0.522927625
 40
0.7673069958
 40
1.0
 40
1.0
 40
1.0
 40
1.0
 10
43.8708932118
 20
31.1499136876
 30
0.0
 10
43.8792603819
 20
31.2469525213
 30
0.0
 10
43.8893150012
 20
31.4375991938
 30
0.0
 10
43.8834220181
 20
31.717667949
 30
0.0
 10
43.8562696427
 20
31.9839151309
 30
0.0
 10
43.8233024086
 20
32.1550731513
 30
0.0
 10
43.8030869664
 20
32.2375001912
 30
0.0
  0
SPLINE
  5
2F0
100
AcDbEntity
  8
0
100
AcDbSpline
 62
7
  6
BYLAYER
 70
0
 71
3
 72
9
 73
5
 74
0
 42
0.0000001
 43
0.0000001
 44
0.0000000001
 40
0.0
 40
0.0
 40
0.0
 40
0.0
 40
0.2453218125
 40
1.0
 40
1.0
 40
1.0
 40
1.0
 10
41.0578793587
 20
26.6001872479
 30
0.0
 10
41.0822914213
 20
26.6142814748
 30
0.0
 10
41.1811534304
 20
26.6728519654
 30
0.0
 10
41.2774319096
 20
26.7357609444
 30
0.0
 10
41.3485853315
 20
26.7853274763
 30
0.0
  0
SPLINE
  5
2F1
100
AcDbEntity
  8
0
100
AcDbSpline
 62
7
  6
BYLAYER
 70
0
 71
3
 72
20
 73
16
 74
0
 42
0.0000001
 43
0.0000001
 44
0.0000000001
 40
0.0
 40
0.0
 40
0.0
 40
0.0
 40
0.054335721
 40
0.1087126464
 40
0.1633980183
 40
0.2186650185
 40
0.2747893035
 40
0.3320275445
 40
0.4506279269
 40
0.5124329554
 40
0.5760642246
 40
0.6416231339
 40
0.7091871925
 40
0.8504735687
 40
1.0
 40
1.0
 40
1.0
 40
1.0
 10
38.9600079358
 20
26.464426724
 30
0.0
 10
38.9929538629
 20
26.4413780125
 30
0.0
 10
39.0609918369
 20
26.3982117336
 30
0.0
 10
39.1686667808
 20
26.3428588328
 30
0.0
 10
39.281530992
 20
26.2971536155
 30
0.0
 10
39.3992304328
 20
26.261261865
 30
0.0
 10
39.521432152
 20
26.2352477788
 30
0.0
 10
39.6918699902
 20
26.2135797669
 30
0.0
 10
39.8685318106
 20
26.2126190937
 30
0.0
 10
40.0482853308
 20
26.2308686845
 30
0.0
 10
40.1877197468
 20
26.2546480726
 30
0.0
 10
40.3294754795
 20
26.2882708038
 30
0.0
 10
40.5239753711
 20
26.3469775064
 30
0.0
 10
40.770829426
 20
26.4453715066
 30
0.0
 10
40.9620550989
 20
26.544863416
 30
0.0
 10
41.0578793587
 20
26.6001872479
 30
0.0
  0
SPLINE
  5
2F2
100
AcDbEntity
  8
0
100
AcDbSpline
 62
7
  6
BYLAYER
 70
0
 71
3
 72
11
 73
7
 74
0
 42
0.0000001
 43
0.0000001
 44
0.0000000001
 40
0.0
 40
0.0
 40
0.0
 40
0.0
 40
0.2719883937
 40
0.5300343529
 40
0.7728795318
 40
1.0
 40
1.0
 40
1.0
 40
1.0
 10
38.3126717509
 20
29.0676264101
 30
0.0
 10
38.2857152996
 20
28.9265869377
 30
0.0
 10
38.2445662553
 20
28.6493722688
 30
0.0
 10
38.2225485339
 20
28.2412807436
 30
0.0
 10
38.2420547963
 20
27.8566945621
 30
0.0
 10
38.2841111368
 20
27.6113475319
 30
0.0
 10
38.3126717509
 20
27.4948936417
 30
0.0
  0
SPLINE
  5
2F3
100
AcDbEntity
  8
0
100
AcDbSpline
 62
7
  6
BYLAYER
 70
0
 71
3
 72
22
 73
18
 74
0
 42
0.0000001
 43
0.0000001
 44
0.0000000001
 40
0.0
 40
0.0
 40
0.0
 40
0.0
 40
0.0771760908
 40
0.1513410833
 40
0.2224091943
 40
0.290442129
 40
0.3555876859
 40
0.4180695042
 40
0.4781990878
 40
0.5363920439
 40
0.5931496094
 40
0.6490461869
 40
0.7047015319
 40
0.7607493793
 40
0.8178025095
 40
0.8764181557
 40
1.0
 40
1.0
 40
1.0
 40
1.0
 10
41.0578793587
 20
32.1115785636
 30
0.0
 10
41.1059616445
 20
32.1393387185
 30
0.0
 10
41.2020379446
 20
32.1907627159
 30
0.0
 10
41.3481998469
 20
32.2561968173
 30
0.0
 10
41.4927933213
 20
32.3079897566
 30
0.0
 10
41.6349622528
 20
32.3458448889
 30
0.0
 10
41.7739335794
 20
32.3695098442
 30
0.0
 10
41.9089264212
 20
32.3788526714
 30
0.0
 10
42.0391703262
 20
32.3737339115
 30
0.0
 10
42.1639018805
 20
32.3541742193
 30
0.0
 10
42.2823635239
 20
32.3202075954
 30
0.0
 10
42.393827787
 20
32.2720422719
 30
0.0
 10
42.4975727545
 20
32.2099227367
 30
0.0
 10
42.5929631396
 20
32.1342823715
 30
0.0
 10
42.6794067305
 20
32.0455621131
 30
0.0
 10
42.783863556
 20
31.908360553
 30
0.0
 10
42.8445076698
 20
31.7906646179
 30
0.0
 10
42.8776508839
 20
31.7081685
 30
0.0
  0
SPLINE
  5
2F4
100
AcDbEntity
  8
0
100
AcDbSpline
 62
7
  6
BYLAYER
 70
0
 71
3
 72
22
 73
18
 74
0
 42
0.0000001
 43
0.0000001
 44
0.0000000001
 40
0.0
 40
0.0
 40
0.0
 40
0.0
 40
0.0626362607
 40
0.1229256931
 40
0.1812680569
 40
0.2381463208
 40
0.2941162324
 40
0.3497795159
 40
0.4057555162
 40
0.4626471241
 40
0.5210074465
 40
0.5813205141
 40
0.6439805216
 40
0.7092940058
 40
0.7774715859
 40
0.8486435275
 40
1.0
 40
1.0
 40
1.0
 40
1.0
 10
40.3464031333
 20
27.3657461785
 30
0.0
 10
40.302224427
 20
27.3602954642
 30
0.0
 10
40.214931227
 20
27.3537531597
 30
0.0
 10
40.085922921
 20
27.3578567573
 30
0.0
 10
39.9622321577
 20
27.3760554795
 30
0.0
 10
39.844605677
 20
27.4083274125
 30
0.0
 10
39.7337407097
 20
27.4544765794
 30
0.0
 10
39.6303390679
 20
27.514281432
 30
0.0
 10
39.5350144537
 20
27.5873377872
 30
0.0
 10
39.4483597822
 20
27.6732160317
 30
0.0
 10
39.3708365736
 20
27.7713473583
 30
0.0
 10
39.3028924667
 20
27.8811567844
 30
0.0
 10
39.2448418209
 20
28.0019769199
 30
0.0
 10
39.1970085538
 20
28.1331280082
 30
0.0
 10
39.1595902978
 20
28.273874247
 30
0.0
 10
39.1231415016
 20
28.4774048267
 30
0.0
 10
39.1133484725
 20
28.6359445704
 30
0.0
 10
39.113347653
 20
28.7435090172
 30
0.0
  0
SPLINE
  5
2F5
100
AcDbEntity
  8
0
100
AcDbSpline
 62
7
  6
BYLAYER
 70
0
 71
3
 72
9
 73
5
 74
0
 42
0.0000001
 43
0.0000001
 44
0.0000000001
 40
0.0
 40
0.0
 40
0.0
 40
0.0
 40
0.5013012931
 40
1.0
 40
1.0
 40
1.0
 40
1.0
 10
39.2120116091
 20
32.3479804336
 30
0.0
 10
39.1844159135
 20
32.0947911117
 30
0.0
 10
39.1176465427
 20
31.5908911149
 30
0.0
 10
39.0191478471
 20
31.0919360126
 30
0.0
 10
38.9600079358
 20
30.8455683073
 30
0.0
  0
SPLINE
  5
2F6
100
AcDbEntity
  8
0
100
AcDbSpline
 62
7
  6
BYLAYER
 70
0
 71
3
 72
11
 73
7
 74
0
 42
0.0000001
 43
0.0000001
 44
0.0000000001
 40
0.0
 40
0.0
 40
0.0
 40
0.0
 40
0.2383140633
 40
0.4854073679
 40
0.7398336285
 40
1.0
 40
1.0
 40
1.0
 40
1.0
 10
41.0578793586
 20
33.1322065849
 30
0.0
 10
40.9196627463
 20
33.052407663
 30
0.0
 10
40.6320815881
 20
32.9001922636
 30
0.0
 10
40.180041401
 20
32.6967054425
 30
0.0
 10
39.7042684914
 20
32.5122114655
 30
0.0
 10
39.3778799479
 20
32.4013174549
 30
0.0
 10
39.2120116091
 20
32.3479804336
 30
0.0
  0
SPLINE
  5
2F7
100
AcDbEntity
  8
0
100
AcDbSpline
 62
7
  6
BYLAYER
 70
0
 71
3
 72
11
 73
7
 74
0
 42
0.0000001
 43
0.0000001
 44
0.0000000001
 40
0.0
 40
0.0
 40
0.0
 40
0.0
 40
0.2361002764
 40
0.4804524524
 40
0.7347107172
 40
1.0
 40
1.0
 40
1.0
 40
1.0
 10
42.4162029459
 20
34.1979101218
 30
0.0
 10
42.3215664008
 20
34.099810248
 30
0.0
 10
42.1231180246
 20
33.9057221064
 30
0.0
 10
41.8005872364
 20
33.6297073437
 30
0.0
 10
41.4450950376
 20
33.3680215911
 30
0.0
 10
41.190519013
 20
33.208785668
 30
0.0
 10
41.0578793586
 20
33.1322065849
 30
0.0
  0
SPLINE
  5
2F8
100
AcDbEntity
  8
0
100
AcDbSpline
 62
7
  6
BYLAYER
 70
0
 71
3
 72
15
 73
11
 74
0
 42
0.0000001
 43
0.0000001
 44
0.0000000001
 40
0.0
 40
0.0
 40
0.0
 40
0.0
 40
0.0840311198
 40
0.17608346
 40
0.2780599638
 40
0.3919721809
 40
0.5197321086
 40
0.663008762
 40
0.822959828
 40
1.0
 40
1.0
 40
1.0
 40
1.0
 10
49.8967237278
 20
28.5343830109
 30
0.0
 10
49.8967235289
 20
28.562373778
 30
0.0
 10
49.8935578067
 20
28.6210640035
 30
0.0
 10
49.8792098621
 20
28.7127112547
 30
0.0
 10
49.8537628845
 20
28.8122293828
 30
0.0
 10
49.8157908862
 20
28.9203547394
 30
0.0
 10
49.7639696485
 20
29.0377678344
 30
0.0
 10
49.6971133228
 20
29.1649217508
 30
0.0
 10
49.614432663
 20
29.3019648718
 30
0.0
 10
49.5517037017
 20
29.3951085967
 30
0.0
 10
49.5177915679
 20
29.4433545688
 30
0.0
  0
SPLINE
  5
2F9
100
AcDbEntity
  8
0
100
AcDbSpline
 62
7
  6
BYLAYER
 70
0
 71
3
 72
15
 73
11
 74
0
 42
0.0000001
 43
0.0000001
 44
0.0000000001
 40
0.0
 40
0.0
 40
0.0
 40
0.0
 40
0.1298431143
 40
0.2611914474
 40
0.3925269473
 40
0.5223758916
 40
0.6492930131
 40
0.7719408511
 40
0.889164125
 40
1.0
 40
1.0
 40
1.0
 40
1.0
 10
42.1439484438
 20
28.0437987557
 30
0.0
 10
42.2062275081
 20
28.2043149123
 30
0.0
 10
42.3444232877
 20
28.5223430427
 30
0.0
 10
42.5877530623
 20
28.9829909744
 30
0.0
 10
42.8650446861
 20
29.4240787601
 30
0.0
 10
43.1715533308
 20
29.838111205
 30
0.0
 10
43.5021334893
 20
30.2180901865
 30
0.0
 10
43.8512189328
 20
30.5576439546
 30
0.0
 10
44.2129079888
 20
30.8509766655
 30
0.0
 10
44.4661474529
 20
31.017517802
 30
0.0
 10
44.5934279844
 20
31.0910028124
 30
0.0
  0
SPLINE
  5
2FA
100
AcDbEntity
  8
0
100
AcDbSpline
 62
7
  6
BYLAYER
 70
0
 71
3
 72
13
 73
9
 74
0
 42
0.0000001
 43
0.0000001
 44
0.0000000001
 40
0.0
 40
0.0
 40
0.0
 40
0.0
 40
0.2795120308
 40
0.5441422946
 40
0.668759995
 40
0.7869155869
 40
0.8976209391
 40
1.0
 40
1.0
 40
1.0
 40
1.0
 10
43.398002642
 20
23.3635637288
 30
0.0
 10
43.2733411998
 20
23.4882257624
 30
0.0
 10
43.0328111293
 20
23.7330839762
 30
0.0
 10
42.7450434551
 20
24.0416035011
 30
0.0
 10
42.5336710762
 20
24.2819378066
 30
0.0
 10
42.3904051723
 20
24.4528002479
 30
0.0
 10
42.2607802404
 20
24.6166903238
 30
0.0
 10
42.1810820716
 20
24.7249599573
 30
0.0
 10
42.1439484374
 20
24.7777890802
 30
0.0
  0
SPLINE
  5
2FB
100
AcDbEntity
  8
0
100
AcDbSpline
 62
7
  6
BYLAYER
 70
0
 71
3
 72
11
 73
7
 74
0
 42
0.0000001
 43
0.0000001
 44
0.0000000001
 40
0.0
 40
0.0
 40
0.0
 40
0.0
 40
0.2320687207
 40
0.4774749367
 40
0.7342867642
 40
1.0
 40
1.0
 40
1.0
 40
1.0
 10
41.7650167203
 20
26.1919916909
 30
0.0
 10
41.7650156612
 20
26.3389730901
 30
0.0
 10
41.7826232219
 20
26.6415532799
 30
0.0
 10
41.8558116332
 20
27.1014757701
 30
0.0
 10
41.9753175924
 20
27.5735506916
 30
0.0
 10
42.0830744542
 20
27.8869039951
 30
0.0
 10
42.1439484438
 20
28.0437987557
 30
0.0
  0
SPLINE
  5
2FC
100
AcDbEntity
  8
0
100
AcDbSpline
 62
7
  6
BYLAYER
 70
0
 71
3
 72
15
 73
11
 74
0
 42
0.0000001
 43
0.0000001
 44
0.0000000001
 40
0.0
 40
0.0
 40
0.0
 40
0.0
 40
0.1770405052
 40
0.3369929965
 40
0.4802694868
 40
0.6080294484
 40
0.7219412999
 40
0.8239169412
 40
0.9159688801
 40
1.0
 40
1.0
 40
1.0
 40
1.0
 10
42.1439484374
 20
24.7777890802
 30
0.0
 10
42.1100362401
 20
24.8260351427
 30
0.0
 10
42.0473072023
 20
24.919179509
 30
0.0
 10
41.9646257897
 20
25.0562228085
 30
0.0
 10
41.8977698146
 20
25.1833773916
 30
0.0
 10
41.8459482366
 20
25.300790146
 30
0.0
 10
41.8079765777
 20
25.4089152207
 30
0.0
 10
41.782530256
 20
25.5084329588
 30
0.0
 10
41.7681826074
 20
25.6000797978
 30
0.0
 10
41.765016478
 20
25.6587698691
 30
0.0
 10
41.765016279
 20
25.686760636
 30
0.0
  0
SPLINE
  5
2FD
100
AcDbEntity
  8
0
100
AcDbSpline
 62
7
  6
BYLAYER
 70
0
 71
3
 72
11
 73
7
 74
0
 42
0.0000001
 43
0.0000001
 44
0.0000000001
 40
0.0
 40
0.0
 40
0.0
 40
0.0
 40
0.2657132358
 40
0.5225250633
 40
0.7679312793
 40
1.0
 40
1.0
 40
1.0
 40
1.0
 10
49.5177915643
 20
26.1773448951
 30
0.0
 10
49.5786655537
 20
26.3342396553
 30
0.0
 10
49.6864224153
 20
26.6475929582
 30
0.0
 10
49.805928374
 20
27.1196678788
 30
0.0
 10
49.8791167849
 20
27.579590368
 30
0.0
 10
49.8967243456
 20
27.8821705571
 30
0.0
 10
49.8967232865
 20
28.029151956
 30
0.0
  0
SPLINE
  5
2FE
100
AcDbEntity
  8
0
100
AcDbSpline
 62
7
  6
BYLAYER
 70
0
 71
3
 72
15
 73
11
 74
0
 42
0.0000001
 43
0.0000001
 44
0.0000000001
 40
0.0
 40
0.0
 40
0.0
 40
0.0
 40
0.110835875
 40
0.2280591489
 40
0.3507069869
 40
0.4776241084
 40
0.6074730527
 40
0.7388085526
 40
0.8701568857
 40
1.0
 40
1.0
 40
1.0
 40
1.0
 10
47.0683120224
 20
23.1301408345
 30
0.0
 10
47.195592554
 20
23.2036258449
 30
0.0
 10
47.4488320183
 20
23.3701669817
 30
0.0
 10
47.8105210748
 20
23.663499693
 30
0.0
 10
48.1596065185
 20
24.0030534615
 30
0.0
 10
48.4901866773
 20
24.3830324435
 30
0.0
 10
48.7966953222
 20
24.7970648889
 30
0.0
 10
49.0739869461
 20
25.2381526753
 30
0.0
 10
49.3173167207
 20
25.6988006075
 30
0.0
 10
49.4555125001
 20
26.0168287383
 30
0.0
 10
49.5177915643
 20
26.1773448951
 30
0.0
  0
SPLINE
  5
2FF
100
AcDbEntity
  8
0
100
AcDbSpline
 62
7
  6
BYLAYER
 70
0
 71
3
 72
11
 73
7
 74
0
 42
0.0000001
 43
0.0000001
 44
0.0000000001
 40
0.0
 40
0.0
 40
0.0
 40
0.0
 40
0.2634815714
 40
0.5204140794
 40
0.7672530878
 40
1.0
 40
1.0
 40
1.0
 40
1.0
 10
44.9977646387
 20
22.439961604
 30
0.0
 10
45.1867945851
 20
22.476340419
 30
0.0
 10
45.5587198137
 20
22.5561261803
 30
0.0
 10
46.0993937175
 20
22.7057480408
 30
0.0
 10
46.6055427042
 20
22.8904215449
 30
0.0
 10
46.921049342
 20
23.0451191937
 30
0.0
 10
47.0683120224
 20
23.1301408345
 30
0.0
  0
SPLINE
  5
300
100
AcDbEntity
  8
0
100
AcDbSpline
 62
7
  6
BYLAYER
 70
0
 71
3
 72
13
 73
9
 74
0
 42
0.0000001
 43
0.0000001
 44
0.0000000001
 40
0.0
 40
0.0
 40
0.0
 40
0.0
 40
0.1023795207
 40
0.213085459
 40
0.3312414733
 40
0.4558588499
 40
0.7204888356
 40
1.0
 40
1.0
 40
1.0
 40
1.0
 10
49.5177915679
 20
29.4433545688
 30
0.0
 10
49.4806577669
 20
29.4961839288
 30
0.0
 10
49.4009590246
 20
29.6044539563
 30
0.0
 10
49.2713338223
 20
29.7683449985
 30
0.0
 10
49.1280673301
 20
29.9392075131
 30
0.0
 10
48.9166953108
 20
30.1795419795
 30
0.0
 10
48.6289278067
 20
30.4880604072
 30
0.0
 10
48.3883984205
 20
30.732918271
 30
0.0
 10
48.2637373648
 20
30.8575799181
 30
0.0
  0
SPLINE
  5
301
100
AcDbEntity
  8
0
100
AcDbSpline
 62
7
  6
BYLAYER
 70
0
 71
3
 72
11
 73
7
 74
0
 42
0.0000001
 43
0.0000001
 44
0.0000000001
 40
0.0
 40
0.0
 40
0.0
 40
0.0
 40
0.2327480291
 40
0.4795870889
 40
0.7365191838
 40
1.0
 40
1.0
 40
1.0
 40
1.0
 10
44.5934279844
 20
31.0910028124
 30
0.0
 10
44.7406913734
 20
31.1760248623
 30
0.0
 10
45.0561987642
 20
31.3307229183
 30
0.0
 10
45.5623482609
 20
31.5153967267
 30
0.0
 10
46.1030216525
 20
31.6650173909
 30
0.0
 10
46.474945961
 20
31.7448033317
 30
0.0
 10
46.6639753681
 20
31.7811820429
 30
0.0
  0
SPLINE
  5
302
100
AcDbEntity
  8
0
100
AcDbSpline
 62
7
  6
BYLAYER
 70
0
 71
3
 72
15
 73
11
 74
0
 42
0.0000001
 43
0.0000001
 44
0.0000000001
 40
0.0
 40
0.0
 40
0.0
 40
0.0
 40
0.1491297
 40
0.2932636531
 40
0.4309964268
 40
0.5612437907
 40
0.6832502869
 40
0.7967277888
 40
0.901984334
 40
1.0
 40
1.0
 40
1.0
 40
1.0
 10
44.6188324805
 20
26.6149561109
 30
0.0
 10
44.5579594445
 20
26.4580638082
 30
0.0
 10
44.4502039933
 20
26.144711926
 30
0.0
 10
44.330699099
 20
25.6726591499
 30
0.0
 10
44.2575092152
 20
25.2126924056
 30
0.0
 10
44.2318857802
 20
24.7725333282
 30
0.0
 10
44.2543883262
 20
24.3594454193
 30
0.0
 10
44.3248780698
 20
23.9801559779
 30
0.0
 10
44.4425525058
 20
23.6411007727
 30
0.0
 10
44.5552273449
 20
23.4394359198
 30
0.0
 10
44.6188324757
 20
23.3489464395
 30
0.0
  0
SPLINE
  5
303
100
AcDbEntity
  8
0
100
AcDbSpline
 62
7
  6
BYLAYER
 70
0
 71
3
 72
15
 73
11
 74
0
 42
0.0000001
 43
0.0000001
 44
0.0000000001
 40
0.0
 40
0.0
 40
0.0
 40
0.0
 40
0.110835875
 40
0.2280591489
 40
0.3507069869
 40
0.4776241084
 40
0.6074730527
 40
0.7388085526
 40
0.8701568857
 40
1.0
 40
1.0
 40
1.0
 40
1.0
 10
47.0683120224
 20
29.6621601716
 30
0.0
 10
46.9410314908
 20
29.5886751611
 30
0.0
 10
46.6877920265
 20
29.4221340244
 30
0.0
 10
46.32610297
 20
29.1288013131
 30
0.0
 10
45.9770175263
 20
28.7892475446
 30
0.0
 10
45.6464373676
 20
28.4092685625
 30
0.0
 10
45.3399287226
 20
27.9952361171
 30
0.0
 10
45.0626370987
 20
27.5541483308
 30
0.0
 10
44.8193073241
 20
27.0935003986
 30
0.0
 10
44.6811115447
 20
26.7754722678
 30
0.0
 10
44.6188324805
 20
26.6149561109
 30
0.0
  0
SPLINE
  5
304
100
AcDbEntity
  8
0
100
AcDbSpline
 62
7
  6
BYLAYER
 70
0
 71
3
 72
20
 73
16
 74
0
 42
0.0000001
 43
0.0000001
 44
0.0000000001
 40
0.0
 40
0.0
 40
0.0
 40
0.0
 40
0.0583115082
 40
0.1153217492
 40
0.1714020151
 40
0.2269982025
 40
0.2825931326
 40
0.3386634929
 40
0.3956575959
 40
0.4539902693
 40
0.5140264658
 40
0.5760768474
 40
0.7070179992
 40
0.8482133437
 40
1.0
 40
1.0
 40
1.0
 40
1.0
 10
49.5177915691
 20
29.4433545666
 30
0.0
 10
49.4873775599
 20
29.4866238416
 30
0.0
 10
49.4229369152
 20
29.5692879195
 30
0.0
 10
49.3147975682
 20
29.6813790546
 30
0.0
 10
49.1968721534
 20
29.7793642416
 30
0.0
 10
49.0697350876
 20
29.8627474797
 30
0.0
 10
48.9339596619
 20
29.9311530581
 30
0.0
 10
48.7901672007
 20
29.984277075
 30
0.0
 10
48.6390234927
 20
30.021920242
 30
0.0
 10
48.4812109413
 20
30.0438943452
 30
0.0
 10
48.317427727
 20
30.0501839553
 30
0.0
 10
48.0880004878
 20
30.0373813007
 30
0.0
 10
47.7888180492
 20
29.9800650171
 30
0.0
 10
47.4252436887
 20
29.8514894474
 30
0.0
 10
47.1875393001
 20
29.7309956617
 30
0.0
 10
47.0683120224
 20
29.6621601716
 30
0.0
  0
SPLINE
  5
305
100
AcDbEntity
  8
0
100
AcDbSpline
 62
7
  6
BYLAYER
 70
0
 71
3
 72
9
 73
5
 74
0
 42
0.0000001
 43
0.0000001
 44
0.0000000001
 40
0.0
 40
0.0
 40
0.0
 40
0.0
 40
0.2497846776
 40
1.0
 40
1.0
 40
1.0
 40
1.0
 10
41.765016279
 20
25.6867739087
 30
0.0
 10
41.7650161682
 20
25.7287591648
 30
0.0
 10
41.7659866453
 20
25.896842111
 30
0.0
 10
41.7710942423
 20
26.064912759
 30
0.0
 10
41.7776786671
 20
26.1908412754
 30
0.0
  0
SPLINE
  5
306
100
AcDbEntity
  8
0
100
AcDbSpline
 62
7
  6
BYLAYER
 70
0
 71
3
 72
11
 73
7
 74
0
 42
0.0000001
 43
0.0000001
 44
0.0000000001
 40
0.0
 40
0.0
 40
0.0
 40
0.0
 40
0.2514429094
 40
0.502602197
 40
0.7525409816
 40
1.0
 40
1.0
 40
1.0
 40
1.0
 10
41.7776786671
 20
26.1908412754
 30
0.0
 10
41.7859781072
 20
26.3495698214
 30
0.0
 10
41.8112940354
 20
26.6664958658
 30
0.0
 10
41.8811454753
 20
27.1374819991
 30
0.0
 10
41.9881923048
 20
27.5989820032
 30
0.0
 10
42.0873656213
 20
27.8979639187
 30
0.0
 10
42.1439484422
 20
28.0437987519
 30
0.0
  0
SPLINE
  5
307
100
AcDbEntity
  8
0
100
AcDbSpline
 62
7
  6
BYLAYER
 70
0
 71
3
 72
11
 73
7
 74
0
 42
0.0000001
 43
0.0000001
 44
0.0000000001
 40
0.0
 40
0.0
 40
0.0
 40
0.0
 40
0.2780731384
 40
0.5367075068
 40
0.7766052171
 40
1.0
 40
1.0
 40
1.0
 40
1.0
 10
49.8967232865
 20
28.029151956
 30
0.0
 10
49.8967222944
 20
28.1668292713
 30
0.0
 10
49.882233697
 20
28.4329073282
 30
0.0
 10
49.8117424922
 20
28.8121488804
 30
0.0
 10
49.6940689212
 20
29.151207394
 30
0.0
 10
49.5813956558
 20
29.3528665716
 30
0.0
 10
49.5177915691
 20
29.4433545666
 30
0.0
  0
SPLINE
  5
308
100
AcDbEntity
  8
0
100
AcDbSpline
 62
7
  6
BYLAYER
 70
0
 71
3
 72
13
 73
9
 74
0
 42
0.0000001
 43
0.0000001
 44
0.0000000001
 40
0.0
 40
0.0
 40
0.0
 40
0.0
 40
0.1301916711
 40
0.2589542915
 40
0.3861413193
 40
0.5117405785
 40
0.7584045679
 40
1.0
 40
1.0
 40
1.0
 40
1.0
 10
42.1439484422
 20
28.0437987519
 30
0.0
 10
42.1793103524
 20
28.1349394584
 30
0.0
 10
42.255308525
 20
28.3140844174
 30
0.0
 10
42.385093967
 20
28.5735649389
 30
0.0
 10
42.528741001
 20
28.8216592555
 30
0.0
 10
42.7352212003
 20
29.1349479518
 30
0.0
 10
43.0193512872
 20
29.4989300731
 30
0.0
 10
43.2697248863
 20
29.7673040848
 30
0.0
 10
43.398002642
 20
29.8955830658
 30
0.0
  0
SPLINE
  5
309
100
AcDbEntity
  8
0
100
AcDbSpline
 62
7
  6
BYLAYER
 70
0
 71
3
 72
13
 73
9
 74
0
 42
0.0000001
 43
0.0000001
 44
0.0000000001
 40
0.0
 40
0.0
 40
0.0
 40
0.0
 40
0.2795119346
 40
0.5441422415
 40
0.668759997
 40
0.7869156059
 40
0.8976209526
 40
1.0
 40
1.0
 40
1.0
 40
1.0
 10
43.3647782756
 20
24.763171784
 30
0.0
 10
43.4894396743
 20
24.6385097939
 30
0.0
 10
43.7299696788
 20
24.3936515641
 30
0.0
 10
44.0177373531
 20
24.085132042
 30
0.0
 10
44.2291098143
 20
23.8447977138
 30
0.0
 10
44.3723757455
 20
23.6739352421
 30
0.0
 10
44.5020006902
 20
23.5100451791
 30
0.0
 10
44.5816988477
 20
23.4017755529
 30
0.0
 10
44.6188324769
 20
23.3489464373
 30
0.0
  0
SPLINE
  5
30A
100
AcDbEntity
  8
0
100
AcDbSpline
 62
7
  6
BYLAYER
 70
0
 71
3
 72
13
 73
9
 74
0
 42
0.0000001
 43
0.0000001
 44
0.0000000001
 40
0.0
 40
0.0
 40
0.0
 40
0.0
 40
0.1301916848
 40
0.258954328
 40
0.3861413504
 40
0.51174059
 40
0.7584045429
 40
1.0
 40
1.0
 40
1.0
 40
1.0
 10
44.6188324788
 20
26.6149561071
 30
0.0
 10
44.5834705645
 20
26.5238153893
 30
0.0
 10
44.5074723601
 20
26.3446704109
 30
0.0
 10
44.3776869513
 20
26.0851898415
 30
0.0
 10
44.234039928
 20
25.8370955152
 30
0.0
 10
44.0275598589
 20
25.5238067824
 30
0.0
 10
43.7434298002
 20
25.1598246428
 30
0.0
 10
43.4930560469
 20
24.8914507806
 30
0.0
 10
43.3647782756
 20
24.763171784
 30
0.0
  0
SPLINE
  5
30B
100
AcDbEntity
  8
0
100
AcDbSpline
 62
7
  6
BYLAYER
 70
0
 71
3
 72
15
 73
11
 74
0
 42
0.0000001
 43
0.0000001
 44
0.0000000001
 40
0.0
 40
0.0
 40
0.0
 40
0.0
 40
0.1770416327
 40
0.3369948171
 40
0.480271543
 40
0.608031418
 40
0.7219429001
 40
0.8239180346
 40
0.9159693986
 40
1.0
 40
1.0
 40
1.0
 40
1.0
 10
44.6188324769
 20
23.3489464373
 30
0.0
 10
44.6527453417
 20
23.3006994254
 30
0.0
 10
44.71547551
 20
23.207553285
 30
0.0
 10
44.7981581844
 20
23.0705074537
 30
0.0
 10
44.8650147871
 20
22.9433507177
 30
0.0
 10
44.9168364786
 20
22.8259362194
 30
0.0
 10
44.9548077471
 20
22.7178097217
 30
0.0
 10
44.9802532679
 20
22.6182908572
 30
0.0
 10
44.9945997656
 20
22.5266431167
 30
0.0
 10
44.9977649144
 20
22.4679525708
 30
0.0
 10
44.9977646387
 20
22.439961604
 30
0.0
  0
SPLINE
  5
30C
100
AcDbEntity
  8
0
100
AcDbSpline
 62
7
  6
BYLAYER
 70
0
 71
3
 72
14
 73
10
 74
0
 42
0.0000001
 43
0.0000001
 44
0.0000000001
 40
0.0
 40
0.0
 40
0.0
 40
0.0
 40
0.2273957588
 40
0.3453184685
 40
0.4668200098
 40
0.5925279225
 40
0.7230357469
 40
0.8587984044
 40
1.0
 40
1.0
 40
1.0
 40
1.0
 10
43.398002642
 20
29.8955830658
 30
0.0
 10
43.4628382714
 20
30.0078816231
 30
0.0
 10
43.5702887232
 20
30.1735476718
 30
0.0
 10
43.7349520232
 20
30.3828909257
 30
0.0
 10
43.8743127985
 20
30.5378175987
 30
0.0
 10
44.0292778919
 20
30.6876706105
 30
0.0
 10
44.200841279
 20
30.831255593
 30
0.0
 10
44.3894047767
 20
30.9673478639
 30
0.0
 10
44.5236959855
 20
31.0507432644
 30
0.0
 10
44.5934279844
 20
31.0910028124
 30
0.0
  0
SPLINE
  5
30D
100
AcDbEntity
  8
0
100
AcDbSpline
 62
7
  6
BYLAYER
 70
0
 71
3
 72
11
 73
7
 74
0
 42
0.0000001
 43
0.0000001
 44
0.0000000001
 40
0.0
 40
0.0
 40
0.0
 40
0.0
 40
0.2327479741
 40
0.4795873167
 40
0.7365195561
 40
1.0
 40
1.0
 40
1.0
 40
1.0
 10
47.0683120224
 20
29.6621601716
 30
0.0
 10
46.9210486741
 20
29.5771381451
 30
0.0
 10
46.6055413781
 20
29.4224394416
 30
0.0
 10
46.0993908666
 20
29.23776767
 30
0.0
 10
45.5587179135
 20
29.0881456074
 30
0.0
 10
45.186793771
 20
29.0083595994
 30
0.0
 10
44.9977646387
 20
28.9719809411
 30
0.0
  0
SPLINE
  5
30E
100
AcDbEntity
  8
0
100
AcDbSpline
 62
7
  6
BYLAYER
 70
0
 71
3
 72
14
 73
10
 74
0
 42
0.0000001
 43
0.0000001
 44
0.0000000001
 40
0.0
 40
0.0
 40
0.0
 40
0.0
 40
0.2273959375
 40
0.3453185534
 40
0.4668197675
 40
0.5925277369
 40
0.7230358785
 40
0.8587985137
 40
1.0
 40
1.0
 40
1.0
 40
1.0
 10
48.2637373648
 20
30.8575799181
 30
0.0
 10
48.198901676
 20
30.7452812579
 30
0.0
 10
48.0914513437
 20
30.5796150861
 30
0.0
 10
47.9267889992
 20
30.3702712119
 30
0.0
 10
47.7874284125
 20
30.2153445728
 30
0.0
 10
47.6324625172
 20
30.0654922951
 30
0.0
 10
47.4608985573
 20
29.9219076788
 30
0.0
 10
47.2723351225
 20
29.785815104
 30
0.0
 10
47.1380439764
 20
29.7024196936
 30
0.0
 10
47.0683120224
 20
29.6621601716
 30
0.0
  0
SPLINE
  5
30F
100
AcDbEntity
  8
0
100
AcDbSpline
 62
7
  6
BYLAYER
 70
0
 71
3
 72
12
 73
8
 74
0
 42
0.0000001
 43
0.0000001
 44
0.0000000001
 40
0.0
 40
0.0
 40
0.0
 40
0.0
 40
0.2509368498
 40
0.50208723
 40
0.7523420896
 40
0.8766490755
 40
1.0
 40
1.0
 40
1.0
 40
1.0
 10
44.9977646387
 20
28.9719809411
 30
0.0
 10
44.9977651687
 20
28.7711845429
 30
0.0
 10
44.9866715792
 20
28.369262008
 30
0.0
 10
44.9264585068
 20
27.769640129
 30
0.0
 10
44.8300411734
 20
27.277284078
 30
0.0
 10
44.7204324017
 20
26.8940332359
 30
0.0
 10
44.6545356419
 20
26.7069763486
 30
0.0
 10
44.6188324788
 20
26.6149561071
 30
0.0
  0
SPLINE
  5
310
100
AcDbEntity
  8
0
100
AcDbSpline
 62
7
  6
BYLAYER
 70
0
 71
3
 72
20
 73
16
 74
0
 42
0.0000001
 43
0.0000001
 44
0.0000000001
 40
0.0
 40
0.0
 40
0.0
 40
0.0
 40
0.0583115082
 40
0.1153217492
 40
0.1714020151
 40
0.2269982025
 40
0.2825931326
 40
0.3386634929
 40
0.3956575959
 40
0.4539902693
 40
0.5140264658
 40
0.5760768474
 40
0.7070179992
 40
0.8482133437
 40
1.0
 40
1.0
 40
1.0
 40
1.0
 10
44.6188324757
 20
23.3489464395
 30
0.0
 10
44.6492464849
 20
23.3056771645
 30
0.0
 10
44.7136871296
 20
23.2230130866
 30
0.0
 10
44.8218264766
 20
23.1109219515
 30
0.0
 10
44.9397518914
 20
23.0129367645
 30
0.0
 10
45.0668889572
 20
22.9295535263
 30
0.0
 10
45.2026643829
 20
22.861147948
 30
0.0
 10
45.3464568441
 20
22.808023931
 30
0.0
 10
45.4976005521
 20
22.7703807641
 30
0.0
 10
45.6554131035
 20
22.7484066609
 30
0.0
 10
45.8191963178
 20
22.7421170508
 30
0.0
 10
46.048623557
 20
22.7549197053
 30
0.0
 10
46.3478059956
 20
22.812235989
 30
0.0
 10
46.7113803561
 20
22.9408115587
 30
0.0
 10
46.9490847447
 20
23.0613053444
 30
0.0
 10
47.0683120224
 20
23.1301408345
 30
0.0
  0
SPLINE
  5
311
100
AcDbEntity
  8
0
100
AcDbSpline
 62
7
  6
BYLAYER
 70
0
 71
3
 72
16
 73
12
 74
0
 42
0.0000001
 43
0.0000001
 44
0.0000000001
 40
0.0
 40
0.0
 40
0.0
 40
0.0
 40
0.1094998152
 40
0.2208124612
 40
0.3356068377
 40
0.4552930099
 40
0.5173568779
 40
0.5810260371
 40
0.7134459595
 40
0.8530553416
 40
1.0
 40
1.0
 40
1.0
 40
1.0
 10
29.5576457489
 20
31.8292043741
 30
0.0
 10
29.495520052
 20
31.8650665413
 30
0.0
 10
29.3758431558
 20
31.9475988019
 30
0.0
 10
29.216065207
 20
32.099829184
 30
0.0
 10
29.0767487205
 20
32.2794539028
 30
0.0
 10
28.9797723625
 20
32.4484829397
 30
0.0
 10
28.9131511366
 20
32.5948916807
 30
0.0
 10
28.8524455047
 20
32.752835304
 30
0.0
 10
28.79146265
 20
32.9646269987
 30
0.0
 10
28.7428640349
 20
33.2351659206
 30
0.0
 10
28.726790077
 20
33.4224847963
 30
0.0
 10
28.7224811536
 20
33.5186520068
 30
0.0
  0
SPLINE
  5
312
100
AcDbEntity
  8
0
100
AcDbSpline
 62
7
  6
BYLAYER
 70
0
 71
3
 72
19
 73
15
 74
0
 42
0.0000001
 43
0.0000001
 44
0.0000000001
 40
0.0
 40
0.0
 40
0.0
 40
0.0
 40
0.0558514229
 40
0.1142051767
 40
0.1748224636
 40
0.2374069287
 40
0.3670165781
 40
0.5000001795
 40
0.6329832812
 40
0.762592709
 40
0.8251755395
 40
0.8857905646
 40
0.9441598504
 40
1.0
 40
1.0
 40
1.0
 40
1.0
 10
28.7188421054
 20
33.5199097282
 30
0.0
 10
28.7188408166
 20
33.6361730638
 30
0.0
 10
28.7291686134
 20
33.8739961096
 30
0.0
 10
28.7729642788
 20
34.2355800059
 30
0.0
 10
28.8450033538
 20
34.606903627
 30
0.0
 10
28.9793593501
 20
35.1160554918
 30
0.0
 10
29.2136911913
 20
35.7530165676
 30
0.0
 10
29.5855647315
 20
36.4896267737
 30
0.0
 10
30.0375408327
 20
37.1799904844
 30
0.0
 10
30.4719951999
 20
37.7014053945
 30
0.0
 10
30.8457416817
 20
38.0723383473
 30
0.0
 10
31.1313084109
 20
38.3204134308
 30
0.0
 10
31.4225660741
 20
38.539120913
 30
0.0
 10
31.6233641574
 20
38.6669904748
 30
0.0
 10
31.7240309867
 20
38.7251101489
 30
0.0
  0
SPLINE
  5
313
100
AcDbEntity
  8
0
100
AcDbSpline
 62
7
  6
BYLAYER
 70
0
 71
3
 72
15
 73
11
 74
0
 42
0.0000001
 43
0.0000001
 44
0.0000000001
 40
0.0
 40
0.0
 40
0.0
 40
0.0
 40
0.1476483426
 40
0.2877974047
 40
0.4205520183
 40
0.5463281429
 40
0.6658788678
 40
0.780318555
 40
0.8911113127
 40
1.0
 40
1.0
 40
1.0
 40
1.0
 10
35.2578325859
 20
37.8366443808
 30
0.0
 10
35.2542934039
 20
37.9724354482
 30
0.0
 10
35.2365217717
 20
38.2370164784
 30
0.0
 10
35.1747968661
 20
38.619574718
 30
0.0
 10
35.0790727632
 20
38.9744113915
 30
0.0
 10
34.9500722049
 20
39.2983681945
 30
0.0
 10
34.7887145562
 20
39.5885099435
 30
0.0
 10
34.5961824738
 20
39.8420725356
 30
0.0
 10
34.3741907885
 20
40.0564601871
 30
0.0
 10
34.2071825167
 20
40.1721663804
 30
0.0
 10
34.1204274949
 20
40.2222585007
 30
0.0
  0
SPLINE
  5
314
100
AcDbEntity
  8
0
100
AcDbSpline
 62
7
  6
BYLAYER
 70
0
 71
3
 72
15
 73
11
 74
0
 42
0.0000001
 43
0.0000001
 44
0.0000000001
 40
0.0
 40
0.0
 40
0.0
 40
0.0
 40
0.1090068923
 40
0.2198990481
 40
0.3344062615
 40
0.4539820319
 40
0.5797344203
 40
0.7124108912
 40
0.8524690547
 40
1.0
 40
1.0
 40
1.0
 40
1.0
 10
28.6205247534
 20
30.6959320061
 30
0.0
 10
28.7068067112
 20
30.6461130316
 30
0.0
 10
28.8894599153
 20
30.5597638926
 30
0.0
 10
29.1843023897
 20
30.474779046
 30
0.0
 10
29.4981858807
 20
30.4344519573
 30
0.0
 10
29.828033463
 20
30.4388893802
 30
0.0
 10
30.1709110326
 20
30.4877732888
 30
0.0
 10
30.5238813689
 20
30.5804775594
 30
0.0
 10
30.8839128104
 20
30.7160514697
 30
0.0
 10
31.1206140635
 20
30.8312675523
 30
0.0
 10
31.2393459675
 20
30.8951837772
 30
0.0
  0
SPLINE
  5
315
100
AcDbEntity
  8
0
100
AcDbSpline
 62
7
  6
BYLAYER
 70
0
 71
3
 72
11
 73
7
 74
0
 42
0.0000001
 43
0.0000001
 44
0.0000000001
 40
0.0
 40
0.0
 40
0.0
 40
0.0
 40
0.2651058499
 40
0.5183002901
 40
0.7621865643
 40
1.0
 40
1.0
 40
1.0
 40
1.0
 10
35.2449014955
 20
40.7589497026
 30
0.0
 10
35.1914818775
 20
40.8895977924
 30
0.0
 10
35.0721561008
 20
41.1393339876
 30
0.0
 10
34.8503071354
 20
41.4806040528
 30
0.0
 10
34.5917639215
 20
41.776090654
 30
0.0
 10
34.3946510029
 20
41.9420655308
 30
0.0
 10
34.2916362418
 20
42.015683897
 30
0.0
  0
SPLINE
  5
316
100
AcDbEntity
  8
0
100
AcDbSpline
 62
7
  6
BYLAYER
 70
0
 71
3
 72
9
 73
5
 74
0
 42
0.0000001
 43
0.0000001
 44
0.0000000001
 40
0.0
 40
0.0
 40
0.0
 40
0.0
 40
0.4900610255
 40
1.0
 40
1.0
 40
1.0
 40
1.0
 10
30.663366399
 20
30.1236253035
 30
0.0
 10
30.8104475394
 20
30.2085421326
 30
0.0
 10
31.1039988705
 20
30.3933906678
 30
0.0
 10
31.3840689779
 20
30.5979795319
 30
0.0
 10
31.5234116488
 20
30.706675143
 30
0.0
  0
SPLINE
  5
317
100
AcDbEntity
  8
0
100
AcDbSpline
 62
7
  6
BYLAYER
 70
0
 71
3
 72
12
 73
8
 74
0
 42
0.0000001
 43
0.0000001
 44
0.0000000001
 40
0.0
 40
0.0
 40
0.0
 40
0.0
 40
0.2766453507
 40
0.5359424808
 40
0.6588043118
 40
0.7770621581
 40
1.0
 40
1.0
 40
1.0
 40
1.0
 10
35.5593287096
 20
37.6796970663
 30
0.0
 10
35.5978932655
 20
37.9501314817
 30
0.0
 10
35.6473202663
 20
38.4781225817
 30
0.0
 10
35.6352399899
 20
39.1302179677
 30
0.0
 10
35.5775858264
 20
39.6213744399
 30
0.0
 10
35.4925658388
 20
40.0718436786
 30
0.0
 10
35.3933616056
 20
40.3958574097
 30
0.0
 10
35.3100469921
 20
40.5996199054
 30
0.0
  0
SPLINE
  5
318
100
AcDbEntity
  8
0
100
AcDbSpline
 62
7
  6
BYLAYER
 70
0
 71
3
 72
16
 73
12
 74
0
 42
0.0000001
 43
0.0000001
 44
0.0000000001
 40
0.0
 40
0.0
 40
0.0
 40
0.0
 40
0.146942766
 40
0.2865423657
 40
0.4189290695
 40
0.4825854555
 40
0.5446441076
 40
0.6643367733
 40
0.7791422788
 40
0.8904748143
 40
1.0
 40
1.0
 40
1.0
 40
1.0
 10
31.7297534002
 20
38.7240331172
 30
0.0
 10
31.815093868
 20
38.7682272621
 30
0.0
 10
31.9851279386
 20
38.8477032038
 30
0.0
 10
32.2433555194
 20
38.9404833623
 30
0.0
 10
32.4569167104
 20
38.9933119229
 30
0.0
 10
32.6237689193
 20
39.0195184239
 30
0.0
 10
32.7836147628
 20
39.034872248
 30
0.0
 10
32.9781753003
 20
39.0353137996
 30
0.0
 10
33.2030270286
 20
39.0043778059
 30
0.0
 10
33.4144254343
 20
38.9421707518
 30
0.0
 10
33.5455340643
 20
38.8798533798
 30
0.0
 10
33.6075723344
 20
38.8440416799
 30
0.0
  0
SPLINE
  5
319
100
AcDbEntity
  8
0
100
AcDbSpline
 62
7
  6
BYLAYER
 70
0
 71
3
 72
10
 73
6
 74
0
 42
0.0000001
 43
0.0000001
 44
0.0000000001
 40
0.0
 40
0.0
 40
0.0
 40
0.0
 40
0.4739879672
 40
0.7305695951
 40
1.0
 40
1.0
 40
1.0
 40
1.0
 10
28.8885540233
 20
29.477016569
 30
0.0
 10
29.1857852669
 20
29.5175343022
 30
0.0
 10
29.6371976772
 20
29.6370875832
 30
0.0
 10
30.2207061952
 20
29.8829026609
 30
0.0
 10
30.5156927164
 20
30.038366372
 30
0.0
 10
30.663366399
 20
30.1236253035
 30
0.0
  0
SPLINE
  5
31A
100
AcDbEntity
  8
0
100
AcDbSpline
 62
7
  6
BYLAYER
 70
0
 71
3
 72
11
 73
7
 74
0
 42
0.0000001
 43
0.0000001
 44
0.0000000001
 40
0.0
 40
0.0
 40
0.0
 40
0.0
 40
0.2378846644
 40
0.481974565
 40
0.7352190614
 40
1.0
 40
1.0
 40
1.0
 40
1.0
 10
27.2038080271
 20
29.628523177
 30
0.0
 10
27.3162455209
 20
29.5805018685
 30
0.0
 10
27.5518210313
 20
29.5004797649
 30
0.0
 10
27.9246434502
 20
29.431930722
 30
0.0
 10
28.3170307746
 20
29.4140610466
 30
0.0
 10
28.5831592222
 20
29.4353869873
 30
0.0
 10
28.7179986941
 20
29.4537682136
 30
0.0
  0
SPLINE
  5
31B
100
AcDbEntity
  8
0
100
AcDbSpline
 62
7
  6
BYLAYER
 70
0
 71
3
 72
9
 73
5
 74
0
 42
0.0000001
 43
0.0000001
 44
0.0000000001
 40
0.0
 40
0.0
 40
0.0
 40
0.0
 40
0.4862561901
 40
1.0
 40
1.0
 40
1.0
 40
1.0
 10
31.3704761241
 20
39.9498585476
 30
0.0
 10
31.1996271909
 20
39.8512194588
 30
0.0
 10
30.8596346181
 20
39.6282967829
 30
0.0
 10
30.5431772491
 20
39.3734113976
 30
0.0
 10
30.3866486716
 20
39.2357803187
 30
0.0
  0
SPLINE
  5
31C
100
AcDbEntity
  8
0
100
AcDbSpline
 62
7
  6
BYLAYER
 70
0
 71
3
 72
25
 73
21
 74
0
 42
0.0000001
 43
0.0000001
 44
0.0000000001
 40
0.0
 40
0.0
 40
0.0
 40
0.0
 40
0.0688323209
 40
0.1401033599
 40
0.2130580812
 40
0.2868855191
 40
0.3607423535
 40
0.4337846325
 40
0.5051967966
 40
0.5742225338
 40
0.6401976853
 40
0.7025870359
 40
0.7610270016
 40
0.8153760461
 40
0.865772664
 40
0.9126939302
 40
0.9351327566
 40
0.957054204
 40
0.9786182494
 40
1.0
 40
1.0
 40
1.0
 40
1.0
 10
30.3866486716
 20
39.2357803187
 30
0.0
 10
30.218529822
 20
39.0879582467
 30
0.0
 10
29.8901785945
 20
38.7710300103
 30
0.0
 10
29.4331360828
 20
38.2492500922
 30
0.0
 10
29.0090264179
 20
37.6799593632
 30
0.0
 10
28.6251044191
 20
37.0729044389
 30
0.0
 10
28.2878880328
 20
36.4383874709
 30
0.0
 10
28.0031170622
 20
35.7872073376
 30
0.0
 10
27.7756326617
 20
35.1304259792
 30
0.0
 10
27.6092992359
 20
34.4791745245
 30
0.0
 10
27.506950969
 20
33.8444418559
 30
0.0
 10
27.4703775993
 20
33.2368633464
 30
0.0
 10
27.500333039
 20
32.6665468836
 30
0.0
 10
27.5966788919
 20
32.142866265
 30
0.0
 10
27.7583093512
 20
31.6746349394
 30
0.0
 10
27.9490720613
 20
31.3321040786
 30
0.0
 10
28.1316391573
 20
31.097400213
 30
0.0
 10
28.2806913901
 20
30.9426756209
 30
0.0
 10
28.4432205938
 20
30.8075157258
 30
0.0
 10
28.5603023832
 20
30.7307042435
 30
0.0
 10
28.6205247534
 20
30.6959320061
 30
0.0
  0
SPLINE
  5
31D
100
AcDbEntity
  8
0
100
AcDbSpline
 62
7
  6
BYLAYER
 70
0
 71
3
 72
36
 73
32
 74
0
 42
0.0000001
 43
0.0000001
 44
0.0000000001
 40
0.0
 40
0.0
 40
0.0
 40
0.0
 40
0.0324640127
 40
0.0663336071
 40
0.1014593728
 40
0.137698104
 40
0.212768784
 40
0.2899786105
 40
0.3675712898
 40
0.4059653185
 40
0.443791482
 40
0.4808433722
 40
0.5169295928
 40
0.5518780575
 40
0.5855399259
 40
0.6177975423
 40
0.6485674431
 40
0.6778105579
 40
0.705537986
 40
0.731819277
 40
0.7567916886
 40
0.7806622212
 40
0.8037093854
 40
0.8262714334
 40
0.8487256877
 40
0.871458198
 40
0.8948321415
 40
0.9191616205
 40
0.9446940943
 40
0.9716026846
 40
1.0
 40
1.0
 40
1.0
 40
1.0
 10
31.7240309867
 20
39.3374869618
 30
0.0
 10
31.6117193303
 20
39.2726441838
 30
0.0
 10
31.3876237052
 20
39.1306376282
 30
0.0
 10
31.0618668945
 20
38.8889580945
 30
0.0
 10
30.7418464283
 20
38.6158663097
 30
0.0
 10
30.3216900341
 20
38.2083885778
 30
0.0
 10
29.8296188879
 20
37.6358488468
 30
0.0
 10
29.3103693558
 20
36.8764439728
 30
0.0
 10
28.9442849107
 20
36.1951512429
 30
0.0
 10
28.6984850724
 20
35.6317316771
 30
0.0
 10
28.5408522407
 20
35.207310664
 30
0.0
 10
28.4107140339
 20
34.7833008114
 30
0.0
 10
28.3091678687
 20
34.3633435183
 30
0.0
 10
28.2370915535
 20
33.9510509029
 30
0.0
 10
28.1951383593
 20
33.5499520769
 30
0.0
 10
28.1836418985
 20
33.1634816473
 30
0.0
 10
28.2027787059
 20
32.7949289026
 30
0.0
 10
28.2524025317
 20
32.4474285172
 30
0.0
 10
28.3321824867
 20
32.1239327834
 30
0.0
 10
28.441585124
 20
31.8272237206
 30
0.0
 10
28.5797928885
 20
31.5598813393
 30
0.0
 10
28.7458531236
 20
31.3243762508
 30
0.0
 10
28.9384157268
 20
31.1229680247
 30
0.0
 10
29.1558261782
 20
30.9577375196
 30
0.0
 10
29.3960056567
 20
30.8304342553
 30
0.0
 10
29.6565135723
 20
30.7422500384
 30
0.0
 10
29.9347758902
 20
30.6939476596
 30
0.0
 10
30.2281403233
 20
30.6856902215
 30
0.0
 10
30.5339878399
 20
30.7173312562
 30
0.0
 10
30.8496749801
 20
30.7883657702
 30
0.0
 10
31.0592789949
 20
30.8595755956
 30
0.0
 10
31.1648787796
 20
30.9010178753
 30
0.0
  0
SPLINE
  5
31E
100
AcDbEntity
  8
0
100
AcDbSpline
 62
7
  6
BYLAYER
 70
0
 71
3
 72
20
 73
16
 74
0
 42
0.0000001
 43
0.0000001
 44
0.0000000001
 40
0.0
 40
0.0
 40
0.0
 40
0.0
 40
0.151834748
 40
0.2925964911
 40
0.4227109831
 40
0.4842754197
 40
0.5438251529
 40
0.6017209155
 40
0.6583830137
 40
0.7142847697
 40
0.7699305678
 40
0.8258383635
 40
0.8825130342
 40
0.9404275701
 40
1.0
 40
1.0
 40
1.0
 40
1.0
 10
31.7240309867
 20
38.7251101489
 30
0.0
 10
31.8560715878
 20
38.8013433704
 30
0.0
 10
32.1192663309
 20
38.9340065776
 30
0.0
 10
32.5219901737
 20
39.0724840909
 30
0.0
 10
32.8527512172
 20
39.1298762362
 30
0.0
 10
33.1052731852
 20
39.1373679653
 30
0.0
 10
33.2849065564
 20
39.1246573115
 30
0.0
 10
33.4573468186
 20
39.0937918173
 30
0.0
 10
33.6217528727
 20
39.0448215081
 30
0.0
 10
33.7773094452
 20
38.9780047271
 30
0.0
 10
33.9232193021
 20
38.8936289376
 30
0.0
 10
34.0587386914
 20
38.792125876
 30
0.0
 10
34.1832215593
 20
38.6740354419
 30
0.0
 10
34.2960275672
 20
38.5399543871
 30
0.0
 10
34.3620995332
 20
38.4419189765
 30
0.0
 10
34.3930489399
 20
38.3907268712
 30
0.0
  0
SPLINE
  5
31F
100
AcDbEntity
  8
0
100
AcDbSpline
 62
7
  6
BYLAYER
 70
0
 71
3
 72
21
 73
17
 74
0
 42
0.0000001
 43
0.0000001
 44
0.0000000001
 40
0.0
 40
0.0
 40
0.0
 40
0.0
 40
0.0595783955
 40
0.1174951557
 40
0.1741698788
 40
0.2300755048
 40
0.2857164194
 40
0.3416109695
 40
0.3982647925
 40
0.4561519442
 40
0.5156916835
 40
0.5772440805
 40
0.707343409
 40
0.7763811739
 40
0.8481718315
 40
1.0
 40
1.0
 40
1.0
 40
1.0
 10
30.3442013058
 20
31.3756079089
 30
0.0
 10
30.284354857
 20
31.3767731357
 30
0.0
 10
30.1663420363
 20
31.3848977305
 30
0.0
 10
29.9937023585
 20
31.4154510035
 30
0.0
 10
29.8290731865
 20
31.4641276435
 30
0.0
 10
29.6732917117
 20
31.5306720308
 30
0.0
 10
29.5271507867
 20
31.6147955132
 30
0.0
 10
29.3913984329
 20
31.7160712727
 30
0.0
 10
29.2666835047
 20
31.8339538047
 30
0.0
 10
29.1536396788
 20
31.9678639105
 30
0.0
 10
29.0527279238
 20
32.1170964204
 30
0.0
 10
28.9328508034
 20
32.3395685722
 30
0.0
 10
28.8420148029
 20
32.5868966671
 30
0.0
 10
28.7787224532
 20
32.8517991961
 30
0.0
 10
28.7316095104
 20
33.1422598231
 30
0.0
 10
28.7188437962
 20
33.367369554
 30
0.0
 10
28.7188421054
 20
33.5199097282
 30
0.0
  0
SPLINE
  5
320
100
AcDbEntity
  8
0
100
AcDbSpline
 62
7
  6
BYLAYER
 70
0
 71
3
 72
23
 73
19
 74
0
 42
0.0000001
 43
0.0000001
 44
0.0000000001
 40
0.0
 40
0.0
 40
0.0
 40
0.0
 40
0.069580422
 40
0.1357132226
 40
0.1986176853
 40
0.2586594487
 40
0.3163524395
 40
0.3723514826
 40
0.4274279105
 40
0.4824196523
 40
0.5381700932
 40
0.5954677956
 40
0.6549952264
 40
0.7172960538
 40
0.7827575602
 40
0.8516405146
 40
0.9240793586
 40
1.0
 40
1.0
 40
1.0
 40
1.0
 10
35.2150003571
 20
37.9165055532
 30
0.0
 10
35.1989567111
 20
38.0228401159
 30
0.0
 10
35.1584860516
 20
38.2290218386
 30
0.0
 10
35.0694654246
 20
38.523367628
 30
0.0
 10
34.9541980162
 20
38.7926226595
 30
0.0
 10
34.8134760845
 20
39.0346241029
 30
0.0
 10
34.6482437856
 20
39.2473698454
 30
0.0
 10
34.4596991475
 20
39.4289782123
 30
0.0
 10
34.2493771459
 20
39.5778225147
 30
0.0
 10
34.0190552211
 20
39.6924787071
 30
0.0
 10
33.7708253331
 20
39.7720501599
 30
0.0
 10
33.5068409803
 20
39.8159083935
 30
0.0
 10
33.2293317457
 20
39.823925865
 30
0.0
 10
32.9405197747
 20
39.7961954003
 30
0.0
 10
32.6426235536
 20
39.7331189711
 30
0.0
 10
32.3378553886
 20
39.6352630158
 30
0.0
 10
32.0286136118
 20
39.503440991
 30
0.0
 10
31.8256479827
 20
39.3961552116
 30
0.0
 10
31.7240309867
 20
39.3374869618
 30
0.0
  0
SPLINE
  5
321
100
AcDbEntity
  8
0
100
AcDbSpline
 62
7
  6
BYLAYER
 70
0
 71
3
 72
30
 73
26
 74
0
 42
0.0000001
 43
0.0000001
 44
0.0000000001
 40
0.0
 40
0.0
 40
0.0
 40
0.0
 40
0.0213278137
 40
0.0428838965
 40
0.0648848649
 40
0.0875249399
 40
0.1109697671
 40
0.1353515993
 40
0.1607696727
 40
0.1872897498
 40
0.2149482641
 40
0.2437531299
 40
0.2736890915
 40
0.3047181793
 40
0.3697927449
 40
0.4383761336
 40
0.5096481473
 40
0.5826575722
 40
0.6563741097
 40
0.7297362392
 40
0.8016979706
 40
0.8712764222
 40
0.937602051
 40
0.9693388457
 40
1.0
 40
1.0
 40
1.0
 40
1.0
 10
27.913416063
 20
31.1041745383
 30
0.0
 10
27.8458455207
 20
31.1431897009
 30
0.0
 10
27.7148542269
 20
31.2304388376
 30
0.0
 10
27.5350740483
 20
31.3863397022
 30
0.0
 10
27.3725051663
 20
31.5666310542
 30
0.0
 10
27.2280559357
 20
31.7702016005
 30
0.0
 10
27.1024615732
 20
31.9958785265
 30
0.0
 10
26.9963282706
 20
32.2423806366
 30
0.0
 10
26.9101828117
 20
32.5083578102
 30
0.0
 10
26.844416266
 20
32.792364649
 30
0.0
 10
26.7993630773
 20
33.0928800714
 30
0.0
 10
26.7752119823
 20
33.4082921771
 30
0.0
 10
26.7720943607
 20
33.7369230964
 30
0.0
 10
26.7963556027
 20
34.1976326771
 30
0.0
 10
26.8809980877
 20
34.7954924378
 30
0.0
 10
27.0616575622
 20
35.5242806809
 30
0.0
 10
27.3191693135
 20
36.2603542407
 30
0.0
 10
27.6480254021
 20
36.9879967533
 30
0.0
 10
28.0412235579
 20
37.691730777
 30
0.0
 10
28.4903686116
 20
38.3565326
 30
0.0
 10
28.9859047889
 20
38.9682468412
 30
0.0
 10
29.5172427169
 20
39.5137933497
 30
0.0
 10
29.9874423176
 20
39.9095148064
 30
0.0
 10
30.3721907687
 20
40.181426985
 30
0.0
 10
30.5662238768
 20
40.3020143756
 30
0.0
 10
30.663366399
 20
40.3580993021
 30
0.0
  0
SPLINE
  5
322
100
AcDbEntity
  8
0
100
AcDbSpline
 62
7
  6
BYLAYER
 70
0
 71
3
 72
15
 73
11
 74
0
 42
0.0000001
 43
0.0000001
 44
0.0000000001
 40
0.0
 40
0.0
 40
0.0
 40
0.0
 40
0.1080132435
 40
0.2180622233
 40
0.3320003817
 40
0.4513610321
 40
0.5772778283
 40
0.7104926107
 40
0.8514210194
 40
1.0
 40
1.0
 40
1.0
 40
1.0
 10
34.1204274949
 20
40.2222585007
 30
0.0
 10
34.0302568469
 20
40.2743227946
 30
0.0
 10
33.8387979361
 20
40.3639624636
 30
0.0
 10
33.5290235606
 20
40.4496374276
 30
0.0
 10
33.198787254
 20
40.4864618027
 30
0.0
 10
32.8516197585
 20
40.4743751034
 30
0.0
 10
32.4908641294
 20
40.4138663334
 30
0.0
 10
32.1198642323
 20
40.305709129
 30
0.0
 10
31.7421469062
 20
40.1510996762
 30
0.0
 10
31.4945142114
 20
40.0214715432
 30
0.0
 10
31.3704761241
 20
39.9498585476
 30
0.0
  0
SPLINE
  5
323
100
AcDbEntity
  8
0
100
AcDbSpline
 62
7
  6
BYLAYER
 70
0
 71
3
 72
13
 73
9
 74
0
 42
0.0000001
 43
0.0000001
 44
0.0000000001
 40
0.0
 40
0.0
 40
0.0
 40
0.0
 40
0.1199506714
 40
0.2402133624
 40
0.3614025361
 40
0.4841064299
 40
0.7360223247
 40
1.0
 40
1.0
 40
1.0
 40
1.0
 10
27.0582020116
 20
29.8286176274
 30
0.0
 10
27.1163548005
 20
29.7915551186
 30
0.0
 10
27.2361512855
 20
29.7224284501
 30
0.0
 10
27.4247931314
 20
29.6347484224
 30
0.0
 10
27.6218831439
 20
29.5633500526
 30
0.0
 10
27.8974769383
 20
29.4894115063
 30
0.0
 10
28.2628801888
 20
29.439381277
 30
0.0
 10
28.5606023255
 20
29.4446033632
 30
0.0
 10
28.7118187082
 20
29.4574355848
 30
0.0
  0
SPLINE
  5
324
100
AcDbEntity
  8
0
100
AcDbSpline
 62
7
  6
BYLAYER
 70
0
 71
3
 72
15
 73
11
 74
0
 42
0.0000001
 43
0.0000001
 44
0.0000000001
 40
0.0
 40
0.0
 40
0.0
 40
0.0
 40
0.1485790695
 40
0.2895077686
 40
0.4227227893
 40
0.5486396847
 40
0.6680000354
 40
0.7819375649
 40
0.8919865053
 40
1.0
 40
1.0
 40
1.0
 40
1.0
 10
30.663366399
 20
40.3580993021
 30
0.0
 10
30.7874045192
 20
40.4297123167
 30
0.0
 10
31.0350375035
 20
40.5593404918
 30
0.0
 10
31.4127552843
 20
40.7139500297
 30
0.0
 10
31.7837557323
 20
40.8221071678
 30
0.0
 10
32.1445114099
 20
40.8826150137
 30
0.0
 10
32.4916779742
 20
40.8947018514
 30
0.0
 10
32.8219131999
 20
40.8578769695
 30
0.0
 10
33.1316869255
 20
40.7722016989
 30
0.0
 10
33.3231459709
 20
40.6825619851
 30
0.0
 10
33.413316735
 20
40.6304974775
 30
0.0
  0
SPLINE
  5
325
100
AcDbEntity
  8
0
100
AcDbSpline
 62
7
  6
BYLAYER
 70
0
 71
3
 72
14
 73
10
 74
0
 42
0.0000001
 43
0.0000001
 44
0.0000000001
 40
0.0
 40
0.0
 40
0.0
 40
0.0
 40
0.264271641
 40
0.391263879
 40
0.5155333476
 40
0.6377722522
 40
0.7587307601
 40
0.8792036826
 40
1.0
 40
1.0
 40
1.0
 40
1.0
 10
35.2405728418
 20
40.7583261093
 30
0.0
 10
35.1675139519
 20
40.9144744522
 30
0.0
 10
35.0412476762
 20
41.1381181467
 30
0.0
 10
34.8379812657
 20
41.4064864698
 30
0.0
 10
34.6732523242
 20
41.5865319337
 30
0.0
 10
34.49490337
 20
41.7472628603
 30
0.0
 10
34.3034885351
 20
41.8880908746
 30
0.0
 10
34.0997301561
 20
42.0084986849
 30
0.0
 10
33.9565878382
 20
42.074677468
 30
0.0
 10
33.8835102962
 20
42.1041584958
 30
0.0
  0
SPLINE
  5
326
100
AcDbEntity
  8
0
100
AcDbSpline
 62
7
  6
BYLAYER
 70
0
 71
3
 72
15
 73
11
 74
0
 42
0.0000001
 43
0.0000001
 44
0.0000000001
 40
0.0
 40
0.0
 40
0.0
 40
0.0
 40
0.132055365
 40
0.2658663302
 40
0.3994001129
 40
0.5307207392
 40
0.6579455251
 40
0.7794078106
 40
0.8937390119
 40
1.0
 40
1.0
 40
1.0
 40
1.0
 10
36.6480068477
 20
33.6888292163
 30
0.0
 10
36.5232885712
 20
33.5371430302
 30
0.0
 10
36.2860787526
 20
33.2200799084
 30
0.0
 10
35.9724408575
 20
32.7148930779
 30
0.0
 10
35.7037526535
 20
32.1855950379
 30
0.0
 10
35.4859140134
 20
31.6439360752
 30
0.0
 10
35.3237221053
 20
31.1017341428
 30
0.0
 10
35.2207369717
 20
30.570795527
 30
0.0
 10
35.1792451272
 20
30.0627592694
 30
0.0
 10
35.193912963
 20
29.7338163622
 30
0.0
 10
35.2130173312
 20
29.5769579843
 30
0.0
  0
SPLINE
  5
327
100
AcDbEntity
  8
0
100
AcDbSpline
 62
7
  6
BYLAYER
 70
0
 71
3
 72
14
 73
10
 74
0
 42
0.0000001
 43
0.0000001
 44
0.0000000001
 40
0.0
 40
0.0
 40
0.0
 40
0.0
 40
0.2813951347
 40
0.4126130253
 40
0.5380189357
 40
0.6583693003
 40
0.7746493217
 40
0.8880682187
 40
1.0
 40
1.0
 40
1.0
 40
1.0
 10
35.2130173312
 20
29.5769579843
 30
0.0
 10
35.2321906322
 20
29.4195336262
 30
0.0
 10
35.2783062684
 20
29.1899011513
 30
0.0
 10
35.381821776
 20
28.904438247
 30
0.0
 10
35.4755139443
 20
28.7132410526
 30
0.0
 10
35.5864048272
 20
28.5413709075
 30
0.0
 10
35.7139244307
 20
28.3900911246
 30
0.0
 10
35.8571000577
 20
28.2604960899
 30
0.0
 10
35.9627105711
 20
28.1890516721
 30
0.0
 10
36.0173416001
 20
28.1575111715
 30
0.0
  0
SPLINE
  5
328
100
AcDbEntity
  8
0
100
AcDbSpline
 62
7
  6
BYLAYER
 70
0
 71
3
 72
10
 73
6
 74
0
 42
0.0000001
 43
0.0000001
 44
0.0000000001
 40
0.0
 40
0.0
 40
0.0
 40
0.0
 40
0.2285226454
 40
0.4753339645
 40
1.0
 40
1.0
 40
1.0
 40
1.0
 10
36.6480068477
 20
33.6888292163
 30
0.0
 10
36.6599528354
 20
33.6819323531
 30
0.0
 10
36.6840336102
 20
33.6662358428
 30
0.0
 10
36.7316725963
 20
33.6290976315
 30
0.0
 10
36.7650576001
 20
33.5963365197
 30
0.0
 10
36.7862201657
 20
33.5727757503
 30
0.0
  0
SPLINE
  5
329
100
AcDbEntity
  8
0
100
AcDbSpline
 62
7
  6
BYLAYER
 70
0
 71
3
 72
11
 73
7
 74
0
 42
0.0000001
 43
0.0000001
 44
0.0000000001
 40
0.0
 40
0.0
 40
0.0
 40
0.0
 40
0.2324327976
 40
0.4778914064
 40
0.7345246503
 40
1.0
 40
1.0
 40
1.0
 40
1.0
 10
35.0474466949
 20
36.6022529984
 30
0.0
 10
34.9247323659
 20
36.5314042705
 30
0.0
 10
34.6804832887
 20
36.3714741244
 30
0.0
 10
34.330776851
 20
36.0908557418
 30
0.0
 10
33.9924907275
 20
35.7667721223
 30
0.0
 10
33.7809318983
 20
35.5284517389
 30
0.0
 10
33.6781460021
 20
35.4034403853
 30
0.0
  0
SPLINE
  5
32A
100
AcDbEntity
  8
0
100
AcDbSpline
 62
7
  6
BYLAYER
 70
0
 71
3
 72
11
 73
7
 74
0
 42
0.0000001
 43
0.0000001
 44
0.0000000001
 40
0.0
 40
0.0
 40
0.0
 40
0.0
 40
0.224145271
 40
0.4644773958
 40
0.7229416158
 40
1.0
 40
1.0
 40
1.0
 40
1.0
 10
36.4167473877
 20
36.9845631944
 30
0.0
 10
36.3093257147
 20
36.9911735985
 30
0.0
 10
36.085035135
 20
36.9829803866
 30
0.0
 10
35.7437750669
 20
36.9127341661
 30
0.0
 10
35.3923938324
 20
36.7857338383
 30
0.0
 10
35.1626554935
 20
36.6687684322
 30
0.0
 10
35.0474466949
 20
36.6022529984
 30
0.0
  0
SPLINE
  5
32B
100
AcDbEntity
  8
0
100
AcDbSpline
 62
7
  6
BYLAYER
 70
0
 71
3
 72
9
 73
5
 74
0
 42
0.0000001
 43
0.0000001
 44
0.0000000001
 40
0.0
 40
0.0
 40
0.0
 40
0.0
 40
0.4860925281
 40
1.0
 40
1.0
 40
1.0
 40
1.0
 10
18.9253449616
 20
29.6617441006
 30
0.0
 10
18.7257246395
 20
29.5464939419
 30
0.0
 10
18.301219817
 20
29.3329159822
 30
0.0
 10
17.8579899947
 20
29.1622781483
 30
0.0
 10
17.6269676767
 20
29.084728271
 30
0.0
  0
SPLINE
  5
32C
100
AcDbEntity
  8
0
100
AcDbSpline
 62
7
  6
BYLAYER
 70
0
 71
3
 72
25
 73
21
 74
0
 42
0.0000001
 43
0.0000001
 44
0.0000000001
 40
0.0
 40
0.0
 40
0.0
 40
0.0
 40
0.0689002227
 40
0.140222836
 40
0.2132104682
 40
0.2870552296
 40
0.3609151961
 40
0.4339482304
 40
0.5053419605
 40
0.5743428199
 40
0.6402894903
 40
0.7026501654
 40
0.7610644053
 40
0.8153930096
 40
0.8657757077
 40
0.9126902396
 40
0.9351286501
 40
0.9570503907
 40
0.9786162204
 40
1.0
 40
1.0
 40
1.0
 40
1.0
 10
17.6269676767
 20
29.084728271
 30
0.0
 10
17.3820806569
 20
29.0025242722
 30
0.0
 10
16.8757265957
 20
28.858248361
 30
0.0
 10
16.0905816447
 20
28.7039087889
 30
0.0
 10
15.2772843298
 20
28.609802627
 30
0.0
 10
14.4497246101
 20
28.5775327362
 30
0.0
 10
13.6219079287
 20
28.6076330202
 30
0.0
 10
12.8078864365
 20
28.6995949801
 30
0.0
 10
12.0214522928
 20
28.851860835
 30
0.0
 10
11.2759043534
 20
29.0618786828
 30
0.0
 10
10.5838050356
 20
29.3261421662
 30
0.0
 10
9.9567565077
 20
29.6403017121
 30
0.0
 10
9.4052394514
 20
29.9992902081
 30
0.0
 10
8.9385009304
 20
30.3975797413
 30
0.0
 10
8.5646669242
 20
30.8290025926
 30
0.0
 10
8.3330029265
 20
31.2169690822
 30
0.0
 10
8.2040468665
 20
31.5345302571
 30
0.0
 10
8.1356219115
 20
31.7725539819
 30
0.0
 10
8.0943891994
 20
32.012729194
 30
0.0
 10
8.0852044559
 20
32.1739022593
 30
0.0
 10
8.0852095589
 20
32.2540728585
 30
0.0
  0
SPLINE
  5
32D
100
AcDbEntity
  8
0
100
AcDbSpline
 62
7
  6
BYLAYER
 70
0
 71
3
 72
26
 73
22
 74
0
 42
0.0000001
 43
0.0000001
 44
0.0000000001
 40
0.0
 40
0.0
 40
0.0
 40
0.0
 40
0.062376922
 40
0.12871554
 40
0.1983023033
 40
0.2702747841
 40
0.343647222
 40
0.4173755509
 40
0.4903965542
 40
0.5616796272
 40
0.6302732243
 40
0.6953569211
 40
0.7563005465
 40
0.8127339744
 40
0.8646308837
 40
0.8890162662
 40
0.9124637154
 40
0.9351070072
 40
0.9571105434
 40
0.978669525
 40
1.0
 40
1.0
 40
1.0
 40
1.0
 10
18.9253449616
 20
31.1314484514
 30
0.0
 10
18.6972105843
 20
30.9997357935
 30
0.0
 10
18.208290157
 20
30.7586796621
 30
0.0
 10
17.4196158933
 20
30.4728991971
 30
0.0
 10
16.5673163568
 20
30.2565508096
 30
0.0
 10
15.6696653477
 20
30.1142021268
 30
0.0
 10
14.7456657807
 20
30.0488883351
 30
0.0
 10
13.8150442564
 20
30.0619779925
 30
0.0
 10
12.897646033
 20
30.1532074676
 30
0.0
 10
12.0130289546
 20
30.3206295315
 30
0.0
 10
11.1799844847
 20
30.5607142729
 30
0.0
 10
10.4161363114
 20
30.8684362471
 30
0.0
 10
9.7374913715
 20
31.2375744892
 30
0.0
 10
9.1583929438
 20
31.6606670669
 30
0.0
 10
8.760789432
 20
32.0600710976
 30
0.0
 10
8.5086490745
 20
32.398194133
 30
0.0
 10
8.3555277628
 20
32.6540677347
 30
0.0
 10
8.2353423882
 20
32.9159887549
 30
0.0
 10
8.1489438279
 20
33.1826163722
 30
0.0
 10
8.0968311687
 20
33.4523578766
 30
0.0
 10
8.085203825
 20
33.6336956201
 30
0.0
 10
8.0852095589
 20
33.7237772093
 30
0.0
  0
SPLINE
  5
32E
100
AcDbEntity
  8
0
100
AcDbSpline
 62
7
  6
BYLAYER
 70
0
 71
3
 72
9
 73
5
 74
0
 42
0.0000001
 43
0.0000001
 44
0.0000000001
 40
0.0
 40
0.0
 40
0.0
 40
0.0
 40
0.2460609404
 40
1.0
 40
1.0
 40
1.0
 40
1.0
 10
17.5491736937
 20
32.2991943517
 30
0.0
 10
17.4736630447
 20
32.2763103338
 30
0.0
 10
17.165594435
 20
32.1872690547
 30
0.0
 10
16.8530648344
 20
32.1137899071
 30
0.0
 10
16.6159450243
 20
32.0666579469
 30
0.0
  0
SPLINE
  5
32F
100
AcDbEntity
  8
0
100
AcDbSpline
 62
7
  6
BYLAYER
 70
0
 71
3
 72
11
 73
7
 74
0
 42
0.0000001
 43
0.0000001
 44
0.0000000001
 40
0.0
 40
0.0
 40
0.0
 40
0.0
 40
0.2479271973
 40
0.4999609248
 40
0.7520152305
 40
1.0
 40
1.0
 40
1.0
 40
1.0
 10
16.503771251
 20
32.0449987373
 30
0.0
 10
16.1666969776
 20
31.9818190532
 30
0.0
 10
15.4803782331
 20
31.8875124187
 30
0.0
 10
14.4398728116
 20
31.8403625777
 30
0.0
 10
13.3992486133
 20
31.8866768172
 30
0.0
 10
12.7127497159
 20
31.9804487627
 30
0.0
 10
12.375540143
 20
32.0433381125
 30
0.0
  0
SPLINE
  5
330
100
AcDbEntity
  8
0
100
AcDbSpline
 62
7
  6
BYLAYER
 70
0
 71
3
 72
25
 73
21
 74
0
 42
0.0000001
 43
0.0000001
 44
0.0000000001
 40
0.0
 40
0.0
 40
0.0
 40
0.0
 40
0.0723553529
 40
0.1461484297
 40
0.2206802126
 40
0.2952251355
 40
0.369058597
 40
0.4414778659
 40
0.5118232827
 40
0.5795015231
 40
0.6440125228
 40
0.7049789554
 40
0.7621797245
 40
0.8155894822
 40
0.8654231745
 40
0.9121766542
 40
0.9346615482
 40
0.9566981884
 40
0.9784273526
 40
1.0
 40
1.0
 40
1.0
 40
1.0
 10
17.2920867393
 20
33.1655124575
 30
0.0
 10
16.9867945375
 20
33.0981184121
 30
0.0
 10
16.3646720908
 20
32.9857562018
 30
0.0
 10
15.4157582228
 20
32.8844903083
 30
0.0
 10
14.4525850466
 20
32.8497513274
 30
0.0
 10
13.4891695852
 20
32.8820773288
 30
0.0
 10
12.539449611
 20
32.9809798465
 30
0.0
 10
11.6171690992
 20
33.1450255527
 30
0.0
 10
10.7356476665
 20
33.3718544792
 30
0.0
 10
9.9075924091
 20
33.658234936
 30
0.0
 10
9.1448933846
 20
34.0000983162
 30
0.0
 10
8.4584587423
 20
34.3926686756
 30
0.0
 10
7.8581077711
 20
34.8305672974
 30
0.0
 10
7.3525133738
 20
35.3080410401
 30
0.0
 10
6.9493124091
 20
35.8187121548
 30
0.0
 10
6.7008927043
 20
36.2727334495
 30
0.0
 10
6.5626802319
 20
36.64269599
 30
0.0
 10
6.4892421678
 20
36.9198988909
 30
0.0
 10
6.4450672602
 20
37.1992244875
 30
0.0
 10
6.4352017228
 20
37.3864744592
 30
0.0
 10
6.4352017203
 20
37.4796883615
 30
0.0
  0
SPLINE
  5
331
100
AcDbEntity
  8
0
100
AcDbSpline
 62
7
  6
BYLAYER
 70
0
 71
3
 72
15
 73
11
 74
0
 42
0.0000001
 43
0.0000001
 44
0.0000000001
 40
0.0
 40
0.0
 40
0.0
 40
0.0
 40
0.1438099738
 40
0.2812305469
 40
0.4123116934
 40
0.5376145184
 40
0.6579270738
 40
0.7742697268
 40
0.8878021521
 40
1.0
 40
1.0
 40
1.0
 40
1.0
 10
18.5196119022
 20
27.0982649135
 30
0.0
 10
18.6460153383
 20
27.1738267868
 30
0.0
 10
18.8872133536
 20
27.3320012072
 30
0.0
 10
19.2175572518
 20
27.5960207359
 30
0.0
 10
19.5050924064
 20
27.8799543024
 30
0.0
 10
19.7467133442
 20
28.1819074736
 30
0.0
 10
19.9394244064
 20
28.4998756774
 30
0.0
 10
20.0800650307
 20
28.8312232301
 30
0.0
 10
20.1659050396
 20
29.1722966377
 30
0.0
 10
20.1851982069
 20
29.4038952207
 30
0.0
 10
20.1851982069
 20
29.5187897944
 30
0.0
  0
SPLINE
  5
332
100
AcDbEntity
  8
0
100
AcDbSpline
 62
7
  6
BYLAYER
 70
0
 71
3
 72
16
 73
12
 74
0
 42
0.0000001
 43
0.0000001
 44
0.0000000001
 40
0.0
 40
0.0
 40
0.0
 40
0.0
 40
0.1180124644
 40
0.243236245
 40
0.3733653512
 40
0.5056414836
 40
0.6371190583
 40
0.7649248336
 40
0.8865009155
 40
0.9443815177
 40
1.0
 40
1.0
 40
1.0
 40
1.0
 10
10.7750054204
 20
26.8690360892
 30
0.0
 10
11.0586416966
 20
26.7306250412
 30
0.0
 10
11.6657394658
 20
26.4901496872
 30
0.0
 10
12.6355585535
 20
26.2433150888
 30
0.0
 10
13.665127228
 20
26.1046538183
 30
0.0
 10
14.7202067283
 20
26.0785070393
 30
0.0
 10
15.7658720905
 20
26.1656360708
 30
0.0
 10
16.7672415138
 20
26.3633791601
 30
0.0
 10
17.5507195573
 20
26.6196456207
 30
0.0
 10
18.1247485021
 20
26.8771185909
 30
0.0
 10
18.3919411538
 20
27.021945462
 30
0.0
 10
18.5196119022
 20
27.0982649135
 30
0.0
  0
SPLINE
  5
333
100
AcDbEntity
  8
0
100
AcDbSpline
 62
7
  6
BYLAYER
 70
0
 71
3
 72
11
 73
7
 74
0
 42
0.0000001
 43
0.0000001
 44
0.0000000001
 40
0.0
 40
0.0
 40
0.0
 40
0.0
 40
0.2588021446
 40
0.5109347945
 40
0.7581714039
 40
1.0
 40
1.0
 40
1.0
 40
1.0
 10
9.9769417304
 20
27.3448799884
 30
0.0
 10
10.0417845221
 20
27.2976276021
 30
0.0
 10
10.1733180534
 20
27.2091736699
 30
0.0
 10
10.3737055649
 20
27.0862641724
 30
0.0
 10
10.5733390481
 20
26.9724134211
 30
0.0
 10
10.7076404968
 20
26.9019084712
 30
0.0
 10
10.7750161376
 20
26.8690269059
 30
0.0
  0
SPLINE
  5
334
100
AcDbEntity
  8
0
100
AcDbSpline
 62
7
  6
BYLAYER
 70
0
 71
3
 72
14
 73
10
 74
0
 42
0.0000001
 43
0.0000001
 44
0.0000000001
 40
0.0
 40
0.0
 40
0.0
 40
0.0
 40
0.1147100959
 40
0.2304117171
 40
0.3483141193
 40
0.4694085782
 40
0.594507847
 40
0.7243589201
 40
1.0
 40
1.0
 40
1.0
 40
1.0
 10
8.6851982069
 20
29.5187897944
 30
0.0
 10
8.6851982069
 20
29.4184579701
 30
0.0
 10
8.6998781255
 20
29.2166340815
 30
0.0
 10
8.7652101242
 20
28.9180882919
 30
0.0
 10
8.8728379826
 20
28.6261178243
 30
0.0
 10
9.0208166515
 20
28.3432146943
 30
0.0
 10
9.2074288857
 20
28.0714601794
 30
0.0
 10
9.5107145649
 20
27.7192835457
 30
0.0
 10
9.7820905429
 20
27.4868726524
 30
0.0
 10
9.9769351832
 20
27.3448851905
 30
0.0
  0
SPLINE
  5
335
100
AcDbEntity
  8
0
100
AcDbSpline
 62
7
  6
BYLAYER
 70
0
 71
3
 72
9
 73
5
 74
0
 42
0.0000001
 43
0.0000001
 44
0.0000000001
 40
0.0
 40
0.0
 40
0.0
 40
0.0
 40
0.244722107
 40
1.0
 40
1.0
 40
1.0
 40
1.0
 10
18.6048741058
 20
32.4282376064
 30
0.0
 10
18.6008220957
 20
32.4286209262
 30
0.0
 10
18.5843082354
 20
32.4306327123
 30
0.0
 10
18.5680135587
 20
32.4343474201
 30
0.0
 10
18.5559836974
 20
32.4379629007
 30
0.0
  0
SPLINE
  5
336
100
AcDbEntity
  8
0
100
AcDbSpline
 62
7
  6
BYLAYER
 70
0
 71
3
 72
10
 73
6
 74
0
 42
0.0000001
 43
0.0000001
 44
0.0000000001
 40
0.0
 40
0.0
 40
0.0
 40
0.0
 40
0.3847696723
 40
0.6639086431
 40
1.0
 40
1.0
 40
1.0
 40
1.0
 10
36.7876214972
 20
38.7251253795
 30
0.0
 10
36.7877979775
 20
38.7192699532
 30
0.0
 10
36.7817452817
 20
38.7096396771
 30
0.0
 10
36.7704254477
 20
38.6998227115
 30
0.0
 10
36.7625050242
 20
38.6946427813
 30
0.0
 10
36.7580735985
 20
38.6920843117
 30
0.0
  0
SPLINE
  5
337
100
AcDbEntity
  8
0
100
AcDbSpline
 62
7
  6
BYLAYER
 70
0
 71
3
 72
11
 73
7
 74
0
 42
0.0000001
 43
0.0000001
 44
0.0000000001
 40
0.0
 40
0.0
 40
0.0
 40
0.0
 40
0.2287333457
 40
0.4708848654
 40
0.727818925
 40
1.0
 40
1.0
 40
1.0
 40
1.0
 10
36.2116156664
 20
41.0097222416
 30
0.0
 10
36.3026354274
 20
40.8528496009
 30
0.0
 10
36.4642046955
 20
40.5144382122
 30
0.0
 10
36.6386168684
 20
39.9627112696
 30
0.0
 10
36.7502537185
 20
39.3600740152
 30
0.0
 10
36.7816448015
 20
38.9408596895
 30
0.0
 10
36.7876249409
 20
38.7251262332
 30
0.0
  0
SPLINE
  5
338
100
AcDbEntity
  8
0
100
AcDbSpline
 62
7
  6
BYLAYER
 70
0
 71
3
 72
9
 73
5
 74
0
 42
0.0000001
 43
0.0000001
 44
0.0000000001
 40
0.0
 40
0.0
 40
0.0
 40
0.0
 40
0.2545506549
 40
1.0
 40
1.0
 40
1.0
 40
1.0
 10
35.9388590869
 20
41.4798178601
 30
0.0
 10
35.91737231
 20
41.5168487845
 30
0.0
 10
35.8302694641
 20
41.6607380219
 30
0.0
 10
35.732192854
 20
41.7980438526
 30
0.0
 10
35.6530774548
 20
41.8953085604
 30
0.0
  0
SPLINE
  5
339
100
AcDbEntity
  8
0
100
AcDbSpline
 62
7
  6
BYLAYER
 70
0
 71
3
 72
9
 73
5
 74
0
 42
0.0000001
 43
0.0000001
 44
0.0000000001
 40
0.0
 40
0.0
 40
0.0
 40
0.0
 40
0.5033791576
 40
1.0
 40
1.0
 40
1.0
 40
1.0
 10
35.494177172
 20
42.0751807348
 30
0.0
 10
35.4055315631
 20
42.1675153389
 30
0.0
 10
35.2167886741
 20
42.3392830221
 30
0.0
 10
35.0055069488
 20
42.4825417079
 30
0.0
 10
34.8961436554
 20
42.545679764
 30
0.0
  0
SPLINE
  5
33A
100
AcDbEntity
  8
0
100
AcDbSpline
 62
7
  6
BYLAYER
 70
0
 71
3
 72
15
 73
11
 74
0
 42
0.0000001
 43
0.0000001
 44
0.0000000001
 40
0.0
 40
0.0
 40
0.0
 40
0.0
 40
0.1090174168
 40
0.2199246535
 40
0.3344475635
 40
0.4540333524
 40
0.5797783971
 40
0.7124610847
 40
0.8525439242
 40
1.0
 40
1.0
 40
1.0
 40
1.0
 10
27.7912501702
 20
29.0962519373
 30
0.0
 10
27.6768112018
 20
29.1623258837
 30
0.0
 10
27.45646708
 20
29.3148244064
 30
0.0
 10
27.1633076053
 20
29.5971278858
 30
0.0
 10
26.9086962739
 20
29.9308241689
 30
0.0
 10
26.6949597452
 20
30.3125675216
 30
0.0
 10
26.5235586928
 20
30.7387174141
 30
0.0
 10
26.3957679207
 20
31.2055574935
 30
0.0
 10
26.3125865103
 20
31.7088772116
 30
0.0
 10
26.2877510639
 20
32.057055855
 30
0.0
 10
26.2823569587
 20
32.2357113836
 30
0.0
  0
SPLINE
  5
33B
100
AcDbEntity
  8
0
100
AcDbSpline
 62
7
  6
BYLAYER
 70
0
 71
3
 72
11
 73
7
 74
0
 42
0.0000001
 43
0.0000001
 44
0.0000000001
 40
0.0
 40
0.0
 40
0.0
 40
0.0
 40
0.2449200338
 40
0.491972117
 40
0.7431202963
 40
1.0
 40
1.0
 40
1.0
 40
1.0
 10
26.9962769177
 20
28.8623996511
 30
0.0
 10
27.0825215219
 20
28.8126085695
 30
0.0
 10
27.2616128792
 20
28.7223654095
 30
0.0
 10
27.5456133109
 20
28.6174485417
 30
0.0
 10
27.8441082809
 20
28.5431738551
 30
0.0
 10
28.0491159577
 20
28.514584891
 30
0.0
 10
28.1531501321
 20
28.505291798
 30
0.0
  0
SPLINE
  5
33C
100
AcDbEntity
  8
0
100
AcDbSpline
 62
7
  6
BYLAYER
 70
0
 71
3
 72
15
 73
11
 74
0
 42
0.0000001
 43
0.0000001
 44
0.0000000001
 40
0.0
 40
0.0
 40
0.0
 40
0.0
 40
0.1134675869
 40
0.2282131628
 40
0.3454330491
 40
0.4661947945
 40
0.5914005527
 40
0.7217898255
 40
0.8579115565
 40
1.0
 40
1.0
 40
1.0
 40
1.0
 10
25.9513111334
 20
28.1955377597
 30
0.0
 10
26.0644183177
 20
28.1302356895
 30
0.0
 10
26.3008140755
 20
28.0136954498
 30
0.0
 10
26.678131004
 20
27.8850896504
 30
0.0
 10
27.0767844995
 20
27.8029575034
 30
0.0
 10
27.4942516759
 20
27.7676462559
 30
0.0
 10
27.9281189513
 20
27.7792238912
 30
0.0
 10
28.375960411
 20
27.8374665966
 30
0.0
 10
28.8351409928
 20
27.9419835319
 30
0.0
 10
29.1405035455
 20
28.0398289689
 30
0.0
 10
29.2941946522
 20
28.0957491506
 30
0.0
  0
SPLINE
  5
33D
100
AcDbEntity
  8
0
100
AcDbSpline
 62
7
  6
BYLAYER
 70
0
 71
3
 72
14
 73
10
 74
0
 42
0.0000001
 43
0.0000001
 44
0.0000000001
 40
0.0
 40
0.0
 40
0.0
 40
0.0
 40
0.2892394696
 40
0.4225667589
 40
0.5485146463
 40
0.6678878139
 40
0.7818578123
 40
0.8919492975
 40
1.0
 40
1.0
 40
1.0
 40
1.0
 10
36.1080641792
 20
44.471273726
 30
0.0
 10
36.1080641792
 20
44.5726334556
 30
0.0
 10
36.096207865
 20
44.721439883
 30
0.0
 10
36.0504880035
 20
44.908480574
 30
0.0
 10
36.0039350053
 20
45.0331155136
 30
0.0
 10
35.9446196911
 20
45.1446291464
 30
0.0
 10
35.8729624122
 20
45.2419101448
 30
0.0
 10
35.7896869291
 20
45.3239241465
 30
0.0
 10
35.7266215902
 20
45.3678966157
 30
0.0
 10
35.6938281569
 20
45.3868262904
 30
0.0
  0
SPLINE
  5
33E
100
AcDbEntity
  8
0
100
AcDbSpline
 62
7
  6
BYLAYER
 70
0
 71
3
 72
10
 73
6
 74
0
 42
0.0000001
 43
0.0000001
 44
0.0000000001
 40
0.0
 40
0.0
 40
0.0
 40
0.0
 40
0.233611297
 40
0.4914777463
 40
1.0
 40
1.0
 40
1.0
 40
1.0
 10
26.1243005948
 20
32.5527092527
 30
0.0
 10
26.1167428233
 20
32.5483457973
 30
0.0
 10
26.1000498858
 20
32.5405234594
 30
0.0
 10
26.0646253652
 20
32.5285886
 30
0.0
 10
26.0362042521
 20
32.5233228912
 30
0.0
 10
26.0172507764
 20
32.5220418386
 30
0.0
  0
SPLINE
  5
33F
100
AcDbEntity
  8
0
100
AcDbSpline
 62
7
  6
BYLAYER
 70
0
 71
3
 72
9
 73
5
 74
0
 42
0.0000001
 43
0.0000001
 44
0.0000000001
 40
0.0
 40
0.0
 40
0.0
 40
0.0
 40
0.485131323
 40
1.0
 40
1.0
 40
1.0
 40
1.0
 10
19.7952422293
 20
31.758061312
 30
0.0
 10
19.6667677097
 20
31.6412876342
 30
0.0
 10
19.3868189172
 20
31.4169280507
 30
0.0
 10
19.0849156005
 20
31.2235760528
 30
0.0
 10
18.9253449616
 20
31.1314484514
 30
0.0
  0
SPLINE
  5
340
100
AcDbEntity
  8
0
100
AcDbSpline
 62
7
  6
BYLAYER
 70
0
 71
3
 72
11
 73
7
 74
0
 42
0.0000001
 43
0.0000001
 44
0.0000000001
 40
0.0
 40
0.0
 40
0.0
 40
0.0
 40
0.2233416547
 40
0.4631676208
 40
0.72186994
 40
1.0
 40
1.0
 40
1.0
 40
1.0
 10
20.571430963
 20
31.310848567
 30
0.0
 10
20.4977326878
 20
31.1510183015
 30
0.0
 10
20.3100690576
 20
30.8349312979
 30
0.0
 10
19.9369116738
 20
30.4024538997
 30
0.0
 10
19.4704403463
 20
30.0031767697
 30
0.0
 10
19.1151598202
 20
29.7713331062
 30
0.0
 10
18.9253449616
 20
29.6617441006
 30
0.0
  0
SPLINE
  5
341
100
AcDbEntity
  8
0
100
AcDbSpline
 62
7
  6
BYLAYER
 70
0
 71
3
 72
10
 73
6
 74
0
 42
0.0000001
 43
0.0000001
 44
0.0000000001
 40
0.0
 40
0.0
 40
0.0
 40
0.0
 40
0.2189845175
 40
0.4667915486
 40
1.0
 40
1.0
 40
1.0
 40
1.0
 10
33.9501112779
 20
42.3907092089
 30
0.0
 10
33.9531086522
 20
42.3833389254
 30
0.0
 10
33.9573468091
 20
42.3667280855
 30
0.0
 10
33.959320285
 20
42.3303368688
 30
0.0
 10
33.9535455932
 20
42.3017984116
 30
0.0
 10
33.946537876
 20
42.2837369356
 30
0.0
  0
SPLINE
  5
342
100
AcDbEntity
  8
0
100
AcDbSpline
 62
7
  6
BYLAYER
 70
0
 71
3
 72
15
 73
11
 74
0
 42
0.0000001
 43
0.0000001
 44
0.0000000001
 40
0.0
 40
0.0
 40
0.0
 40
0.0
 40
0.1479530178
 40
0.2910036764
 40
0.427900094
 40
0.5577577527
 40
0.6799179809
 40
0.7941079578
 40
0.9005656709
 40
1.0
 40
1.0
 40
1.0
 40
1.0
 10
29.0148644992
 20
39.2783928283
 30
0.0
 10
29.1980617563
 20
39.4968165247
 30
0.0
 10
29.5743995355
 20
39.9133398435
 30
0.0
 10
30.1742804639
 20
40.4802447253
 30
0.0
 10
30.7931635429
 20
40.972336874
 30
0.0
 10
31.421876368
 20
41.3823584057
 30
0.0
 10
32.051466267
 20
41.7041924568
 30
0.0
 10
32.6730621906
 20
41.9330430665
 30
0.0
 10
33.2776551451
 20
42.065005633
 30
0.0
 10
33.67605264
 20
42.0872496148
 30
0.0
 10
33.8675096941
 20
42.0800521142
 30
0.0
  0
LINE
  5
343
100
AcDbEntity
  8
0
100
AcDbLine
 62
7
  6
BYLAYER
 10
28.153149833
 20
39.6776592241
 11
28.5681144073
 21
39.0966086854
  0
LINE
  5
344
100
AcDbEntity
  8
0
100
AcDbLine
 62
7
  6
BYLAYER
 10
28.5681144073
 20
39.0966086854
 11
28.6296513742
 21
39.0099238018
  0
SPLINE
  5
345
100
AcDbEntity
  8
0
100
AcDbSpline
 62
7
  6
BYLAYER
 70
0
 71
3
 72
15
 73
11
 74
0
 42
0.0000001
 43
0.0000001
 44
0.0000000001
 40
0.0
 40
0.0
 40
0.0
 40
0.0
 40
0.1119645035
 40
0.2297498054
 40
0.3524362857
 40
0.4790294546
 40
0.6083537067
 40
0.7391440414
 40
0.8701515023
 40
1.0
 40
1.0
 40
1.0
 40
1.0
 10
26.2823569587
 20
32.6439625922
 30
0.0
 10
26.2897684188
 20
32.897991913
 30
0.0
 10
26.332361709
 20
33.418712352
 30
0.0
 10
26.4700793036
 20
34.2076808147
 30
0.0
 10
26.6814341779
 20
35.0145362744
 30
0.0
 10
26.9631621626
 20
35.8272560678
 30
0.0
 10
27.3111943346
 20
36.6338908297
 30
0.0
 10
27.7203351902
 20
37.4226049446
 30
0.0
 10
28.184543658
 20
38.1815514446
 30
0.0
 10
28.5287917366
 20
38.6640260931
 30
0.0
 10
28.7086795561
 20
38.8974923199
 30
0.0
  0
SPLINE
  5
346
100
AcDbEntity
  8
0
100
AcDbSpline
 62
7
  6
BYLAYER
 70
0
 71
3
 72
11
 73
7
 74
0
 42
0.0000001
 43
0.0000001
 44
0.0000000001
 40
0.0
 40
0.0
 40
0.0
 40
0.0
 40
0.3061318629
 40
0.5141575464
 40
0.6985523078
 40
1.0
 40
1.0
 40
1.0
 40
1.0
 10
28.6296513742
 20
28.5801561205
 30
0.0
 10
28.6263097209
 20
28.5715434455
 30
0.0
 10
28.6194416962
 20
28.5575110371
 30
0.0
 10
28.6068326329
 20
28.540455835
 30
0.0
 10
28.5915700518
 20
28.5261361583
 30
0.0
 10
28.5772157259
 20
28.5196966185
 30
0.0
 10
28.5681266834
 20
28.5193193151
 30
0.0
  0
SPLINE
  5
347
100
AcDbEntity
  8
0
100
AcDbSpline
 62
7
  6
BYLAYER
 70
0
 71
3
 72
11
 73
7
 74
0
 42
0.0000001
 43
0.0000001
 44
0.0000000001
 40
0.0
 40
0.0
 40
0.0
 40
0.0
 40
0.2589101976
 40
0.5153129669
 40
0.7635023244
 40
1.0
 40
1.0
 40
1.0
 40
1.0
 10
7.9144375816
 20
34.0841648292
 30
0.0
 10
7.8955952689
 20
34.0846397476
 30
0.0
 10
7.8580911129
 20
34.0890005455
 30
0.0
 10
7.8046881095
 20
34.1056005963
 30
0.0
 10
7.7571653504
 20
34.1320017663
 30
0.0
 10
7.7310282364
 20
34.1564756148
 30
0.0
 10
7.7203894774
 20
34.1700119165
 30
0.0
  0
SPLINE
  5
348
100
AcDbEntity
  8
0
100
AcDbSpline
 62
7
  6
BYLAYER
 70
0
 71
3
 72
11
 73
7
 74
0
 42
0.0000001
 43
0.0000001
 44
0.0000000001
 40
0.0
 40
0.0
 40
0.0
 40
0.0
 40
0.2317480101
 40
0.4771803965
 40
0.7340822331
 40
1.0
 40
1.0
 40
1.0
 40
1.0
 10
17.61719197
 20
29.0289353873
 30
0.0
 10
17.4700334666
 20
28.9439738929
 30
0.0
 10
17.1563817309
 20
28.7870643102
 30
0.0
 10
16.6522542203
 20
28.5962528142
 30
0.0
 10
16.1086336051
 20
28.4459325401
 30
0.0
 10
15.7313097517
 20
28.3754270244
 30
0.0
 10
15.5383760104
 20
28.3472674943
 30
0.0
  0
SPLINE
  5
349
100
AcDbEntity
  8
0
100
AcDbSpline
 62
7
  6
BYLAYER
 70
0
 71
3
 72
15
 73
11
 74
0
 42
0.0000001
 43
0.0000001
 44
0.0000000001
 40
0.0
 40
0.0
 40
0.0
 40
0.0
 40
0.1080128123
 40
0.2180608877
 40
0.3319984268
 40
0.4513602264
 40
0.5772741036
 40
0.7104905204
 40
0.8514269206
 40
1.0
 40
1.0
 40
1.0
 40
1.0
 10
26.6780779324
 20
29.0461086622
 30
0.0
 10
26.5485522491
 20
29.1208889499
 30
0.0
 10
26.2995324634
 20
29.2946722828
 30
0.0
 10
25.9704783438
 20
29.6184938472
 30
0.0
 10
25.6874708741
 20
30.0028375968
 30
0.0
 10
25.4531857925
 20
30.4433936044
 30
0.0
 10
25.2693456961
 20
30.9356166934
 30
0.0
 10
25.1374329244
 20
31.4748218063
 30
0.0
 10
25.0584952406
 20
32.0557418238
 30
0.0
 10
25.0418905987
 20
32.4568937528
 30
0.0
 10
25.0418905987
 20
32.6626192301
 30
0.0
  0
SPLINE
  5
34A
100
AcDbEntity
  8
0
100
AcDbSpline
 62
7
  6
BYLAYER
 70
0
 71
3
 72
11
 73
7
 74
0
 42
0.0000001
 43
0.0000001
 44
0.0000000001
 40
0.0
 40
0.0
 40
0.0
 40
0.0
 40
0.2449200398
 40
0.4919721073
 40
0.7431202626
 40
1.0
 40
1.0
 40
1.0
 40
1.0
 10
34.8961436554
 20
42.545679764
 30
0.0
 10
34.8098990496
 20
42.5954708465
 30
0.0
 10
34.6308076975
 20
42.6857140052
 30
0.0
 10
34.3468072795
 20
42.7906308662
 30
0.0
 10
34.0483123097
 20
42.8649055372
 30
0.0
 10
33.8433046321
 20
42.8934945048
 30
0.0
 10
33.739270446
 20
42.9027876142
 30
0.0
  0
SPLINE
  5
34B
100
AcDbEntity
  8
0
100
AcDbSpline
 62
7
  6
BYLAYER
 70
0
 71
3
 72
17
 73
13
 74
0
 42
0.0000001
 43
0.0000001
 44
0.0000000001
 40
0.0
 40
0.0
 40
0.0
 40
0.0
 40
0.0543102249
 40
0.108661009
 40
0.2185280514
 40
0.3318916847
 40
0.4506038443
 40
0.5124577483
 40
0.5761280181
 40
0.7092442378
 40
0.8505481817
 40
1.0
 40
1.0
 40
1.0
 40
1.0
 10
26.6341001803
 20
28.9652757861
 30
0.0
 10
26.5620244302
 20
28.9997548934
 30
0.0
 10
26.4208162947
 20
29.0752481279
 30
0.0
 10
26.1518001545
 20
29.2519010072
 30
0.0
 10
25.8419425331
 20
29.5214572331
 30
0.0
 10
25.5231982054
 20
29.9134799132
 30
0.0
 10
25.3058072296
 20
30.2892973923
 30
0.0
 10
25.1595215552
 20
30.617712223
 30
0.0
 10
25.0282762167
 20
30.9751354858
 30
0.0
 10
24.9022544927
 20
31.4576530468
 30
0.0
 10
24.8130935104
 20
32.0759013567
 30
0.0
 10
24.7944027837
 20
32.5039897457
 30
0.0
 10
24.7944027837
 20
32.7238550016
 30
0.0
  0
SPLINE
  5
34C
100
AcDbEntity
  8
0
100
AcDbSpline
 62
7
  6
BYLAYER
 70
0
 71
3
 72
11
 73
7
 74
0
 42
0.0000001
 43
0.0000001
 44
0.0000000001
 40
0.0
 40
0.0
 40
0.0
 40
0.0
 40
0.2478292322
 40
0.4979282348
 40
0.7492678617
 40
1.0
 40
1.0
 40
1.0
 40
1.0
 10
13.4896746095
 20
35.390114937
 30
0.0
 10
13.2384673661
 20
35.5351652233
 30
0.0
 10
12.7413803016
 20
35.8399466565
 30
0.0
 10
12.0140212097
 20
36.3302349153
 30
0.0
 10
11.2990906642
 20
36.8441524289
 30
0.0
 10
10.8278194877
 20
37.1952350849
 30
0.0
 10
10.5928949911
 20
37.3711268677
 30
0.0
  0
SPLINE
  5
34D
100
AcDbEntity
  8
0
100
AcDbSpline
 62
7
  6
BYLAYER
 70
0
 71
3
 72
9
 73
5
 74
0
 42
0.0000001
 43
0.0000001
 44
0.0000000001
 40
0.0
 40
0.0
 40
0.0
 40
0.0
 40
0.5027277643
 40
1.0
 40
1.0
 40
1.0
 40
1.0
 10
10.5623982333
 20
37.3048013547
 30
0.0
 10
10.2314152032
 20
37.5570179551
 30
0.0
 10
9.6046747481
 20
38.1011720329
 30
0.0
 10
9.0419804379
 20
38.7104450546
 30
0.0
 10
8.7783683445
 20
39.0265680642
 30
0.0
  0
SPLINE
  5
34E
100
AcDbEntity
  8
0
100
AcDbSpline
 62
7
  6
BYLAYER
 70
0
 71
3
 72
9
 73
5
 74
0
 42
0.0000001
 43
0.0000001
 44
0.0000000001
 40
0.0
 40
0.0
 40
0.0
 40
0.0
 40
0.2468856925
 40
1.0
 40
1.0
 40
1.0
 40
1.0
 10
14.9743261129
 20
34.512218705
 30
0.0
 10
14.8435853291
 20
34.567329412
 30
0.0
 10
14.3184587069
 20
34.8010562841
 30
0.0
 10
13.8107755812
 20
35.0729538876
 30
0.0
 10
13.4378694042
 20
35.2926347368
 30
0.0
  0
SPLINE
  5
34F
100
AcDbEntity
  8
0
100
AcDbSpline
 62
7
  6
BYLAYER
 70
0
 71
3
 72
12
 73
8
 74
0
 42
0.0000001
 43
0.0000001
 44
0.0000000001
 40
0.0
 40
0.0
 40
0.0
 40
0.0
 40
0.2475435679
 40
0.49752278
 40
0.6232004046
 40
0.7491017909
 40
1.0
 40
1.0
 40
1.0
 40
1.0
 10
13.4378694042
 20
35.2926347368
 30
0.0
 10
13.1882034099
 20
35.4397141928
 30
0.0
 10
12.6944552405
 20
35.7490996804
 30
0.0
 10
12.093654297
 20
36.1631582418
 30
0.0
 10
11.6183162084
 20
36.5077876424
 30
0.0
 10
11.146584998
 20
36.8591396431
 30
0.0
 10
10.7960298688
 20
37.1268356833
 30
0.0
 10
10.5624032284
 20
37.3048110787
 30
0.0
  0
SPLINE
  5
350
100
AcDbEntity
  8
0
100
AcDbSpline
 62
7
  6
BYLAYER
 70
0
 71
3
 72
15
 73
11
 74
0
 42
0.0000001
 43
0.0000001
 44
0.0000000001
 40
0.0
 40
0.0
 40
0.0
 40
0.0
 40
0.1098410793
 40
0.2316103526
 40
0.3626990402
 40
0.4986833409
 40
0.6346997028
 40
0.7661066633
 40
0.888667618
 40
1.0
 40
1.0
 40
1.0
 40
1.0
 10
8.7783675131
 20
47.1860203542
 30
0.0
 10
8.7783675134
 20
47.280860037
 30
0.0
 10
8.7935509096
 20
47.4809683792
 30
0.0
 10
8.8556722325
 20
47.788622409
 30
0.0
 10
8.9602731316
 20
48.1083807528
 30
0.0
 10
9.1023364612
 20
48.4267879954
 30
0.0
 10
9.2770947011
 20
48.7287807684
 30
0.0
 10
9.4737158671
 20
49.0028354054
 30
0.0
 10
9.6832580241
 20
49.2392877971
 30
0.0
 10
9.8323816345
 20
49.3761428246
 30
0.0
 10
9.9068766721
 20
49.4368960111
 30
0.0
  0
SPLINE
  5
351
100
AcDbEntity
  8
0
100
AcDbSpline
 62
7
  6
BYLAYER
 70
0
 71
3
 72
15
 73
11
 74
0
 42
0.0000001
 43
0.0000001
 44
0.0000000001
 40
0.0
 40
0.0
 40
0.0
 40
0.0
 40
0.1134537928
 40
0.2282209283
 40
0.3454846301
 40
0.4663047435
 40
0.5915628507
 40
0.7219670405
 40
0.8580582692
 40
1.0
 40
1.0
 40
1.0
 40
1.0
 10
6.4352441591
 20
50.6859506001
 30
0.0
 10
6.4361281835
 20
50.5192109207
 30
0.0
 10
6.4636964538
 20
50.1833883414
 30
0.0
 10
6.5816218814
 20
49.6876622384
 30
0.0
 10
6.7749937035
 20
49.2045157767
 30
0.0
 10
7.0418946277
 20
48.7400829315
 30
0.0
 10
7.3795211638
 20
48.2998048636
 30
0.0
 10
7.7846971462
 20
47.8888008293
 30
0.0
 10
8.2533290647
 20
47.5118048632
 30
0.0
 10
8.5977045537
 20
47.2903239163
 30
0.0
 10
8.7783675092
 20
47.186020354
 30
0.0
  0
SPLINE
  5
352
100
AcDbEntity
  8
0
100
AcDbSpline
 62
7
  6
BYLAYER
 70
0
 71
3
 72
13
 73
9
 74
0
 42
0.0000001
 43
0.0000001
 44
0.0000000001
 40
0.0
 40
0.0
 40
0.0
 40
0.0
 40
0.2707182209
 40
0.5286309854
 40
0.6515262229
 40
0.7703823132
 40
0.8860664457
 40
1.0
 40
1.0
 40
1.0
 40
1.0
 10
10.1925382426
 20
55.034427918
 30
0.0
 10
10.1104126862
 20
55.0818418407
 30
0.0
 10
9.9427762625
 20
55.162686731
 30
0.0
 10
9.7196802319
 20
55.2204424206
 30
0.0
 10
9.5443891794
 20
55.2301257654
 30
0.0
 10
9.4191873853
 20
55.2185808399
 30
0.0
 10
9.3005972134
 20
55.1873589069
 30
0.0
 10
9.2271122883
 20
55.1534310946
 30
0.0
 10
9.1925492666
 20
55.1334765241
 30
0.0
  0
SPLINE
  5
353
100
AcDbEntity
  8
0
100
AcDbSpline
 62
7
  6
BYLAYER
 70
0
 71
3
 72
27
 73
23
 74
0
 42
0.0000001
 43
0.0000001
 44
0.0000000001
 40
0.0
 40
0.0
 40
0.0
 40
0.0
 40
0.0627877318
 40
0.129619254
 40
0.1997528732
 40
0.2722748948
 40
0.3461534142
 40
0.4202924761
 40
0.4935835911
 40
0.5649580528
 40
0.6334384032
 40
0.6981957532
 40
0.7586153386
 40
0.8143748989
 40
0.8405344178
 40
0.8655916077
 40
0.8896330195
 40
0.9127786336
 40
0.9351858801
 40
0.9570440274
 40
0.9785705742
 40
1.0
 40
1.0
 40
1.0
 40
1.0
 10
24.7944027837
 20
32.723855005
 30
0.0
 10
24.7944027837
 20
33.0622448915
 30
0.0
 10
24.8411594756
 20
33.7612961496
 30
0.0
 10
25.0332017427
 20
34.8224620557
 30
0.0
 10
25.3452041111
 20
35.9093688
 30
0.0
 10
25.7702213776
 20
36.9978973203
 30
0.0
 10
26.2988875022
 20
38.0641068179
 30
0.0
 10
26.9194911578
 20
39.0843902339
 30
0.0
 10
27.6182983339
 20
40.0361597563
 30
0.0
 10
28.379868249
 20
40.8983728757
 30
0.0
 10
29.1874332677
 20
41.652014254
 30
0.0
 10
30.0234718343
 20
42.2805424557
 30
0.0
 10
30.8698064379
 20
42.7700492729
 30
0.0
 10
31.5840699819
 20
43.0590077979
 30
0.0
 10
32.1422798716
 20
43.2058854419
 30
0.0
 10
32.5429000294
 20
43.273088019
 30
0.0
 10
32.9320609424
 20
43.2993052196
 30
0.0
 10
33.3076076127
 20
43.2841684853
 30
0.0
 10
33.667369622
 20
43.2277289463
 30
0.0
 10
34.0092220021
 20
43.1300920116
 30
0.0
 10
34.3310226713
 20
42.9918492007
 30
0.0
 10
34.5307105957
 20
42.873189868
 30
0.0
 10
34.6259660813
 20
42.8078839035
 30
0.0
  0
SPLINE
  5
354
100
AcDbEntity
  8
0
100
AcDbSpline
 62
7
  6
BYLAYER
 70
0
 71
3
 72
15
 73
11
 74
0
 42
0.0000001
 43
0.0000001
 44
0.0000000001
 40
0.0
 40
0.0
 40
0.0
 40
0.0
 40
0.1214030119
 40
0.2486794652
 40
0.3794212088
 40
0.5112214388
 40
0.6415025987
 40
0.767780807
 40
0.8879185916
 40
1.0
 40
1.0
 40
1.0
 40
1.0
 10
25.9229119381
 20
40.1902429258
 30
0.0
 10
25.8416769949
 20
40.1239931179
 30
0.0
 10
25.6837616339
 20
39.9776527015
 30
0.0
 10
25.468796823
 20
39.7296939688
 30
0.0
 10
25.2749825082
 20
39.4538168666
 30
0.0
 10
25.1078458898
 20
39.1580540339
 30
0.0
 10
24.9722080426
 20
38.8507755349
 30
0.0
 10
24.8718476766
 20
38.5407257703
 30
0.0
 10
24.809757277
 20
38.2368090774
 30
0.0
 10
24.7944027837
 20
38.0361429968
 30
0.0
 10
24.7944027837
 20
37.9393672641
 30
0.0
  0
SPLINE
  5
355
100
AcDbEntity
  8
0
100
AcDbSpline
 62
7
  6
BYLAYER
 70
0
 71
3
 72
11
 73
7
 74
0
 42
0.0000001
 43
0.0000001
 44
0.0000000001
 40
0.0
 40
0.0
 40
0.0
 40
0.0
 40
0.2308252879
 40
0.4747824849
 40
0.7314557387
 40
1.0
 40
1.0
 40
1.0
 40
1.0
 10
34.9795550248
 20
45.419067038
 30
0.0
 10
34.2138179506
 20
45.1593594497
 30
0.0
 10
32.6680210552
 20
44.536082599
 30
0.0
 10
30.3933144267
 20
43.3492831187
 30
0.0
 10
28.1201921297
 20
41.896906607
 30
0.0
 10
26.6519260085
 20
40.784778236
 30
0.0
 10
25.9229119381
 20
40.1902429258
 30
0.0
  0
SPLINE
  5
356
100
AcDbEntity
  8
0
100
AcDbSpline
 62
7
  6
BYLAYER
 70
0
 71
3
 72
9
 73
5
 74
0
 42
0.0000001
 43
0.0000001
 44
0.0000000001
 40
0.0
 40
0.0
 40
0.0
 40
0.0
 40
0.4893512678
 40
1.0
 40
1.0
 40
1.0
 40
1.0
 10
18.3243016952
 20
32.4174308725
 30
0.0
 10
18.2007329562
 20
32.3460888536
 30
0.0
 10
17.942121666
 20
32.2106913251
 30
0.0
 10
17.6743395727
 20
32.0946489357
 30
0.0
 10
17.5358137178
 20
32.040057892
 30
0.0
  0
SPLINE
  5
357
100
AcDbEntity
  8
0
100
AcDbSpline
 62
7
  6
BYLAYER
 70
0
 71
3
 72
15
 73
11
 74
0
 42
0.0000001
 43
0.0000001
 44
0.0000000001
 40
0.0
 40
0.0
 40
0.0
 40
0.0
 40
0.1209786314
 40
0.2453796986
 40
0.3721101574
 40
0.5000233043
 40
0.6279347243
 40
0.7546576736
 40
0.8790398875
 40
1.0
 40
1.0
 40
1.0
 40
1.0
 10
16.9369639134
 20
31.8348885677
 30
0.0
 10
16.7408098832
 20
31.7770443995
 30
0.0
 10
16.3380971086
 20
31.6756710757
 30
0.0
 10
15.7179470014
 20
31.5673834976
 30
0.0
 10
15.0800315356
 20
31.5018744383
 30
0.0
 10
14.433221742
 20
31.4800386824
 30
0.0
 10
13.7864336043
 20
31.5021436393
 30
0.0
 10
13.1485936288
 20
31.5679218521
 30
0.0
 10
12.5285641876
 20
31.6764604276
 30
0.0
 10
12.1259609802
 20
31.7780131332
 30
0.0
 10
11.9298666368
 20
31.8359489327
 30
0.0
  0
SPLINE
  5
358
100
AcDbEntity
  8
0
100
AcDbSpline
 62
7
  6
BYLAYER
 70
0
 71
3
 72
9
 73
5
 74
0
 42
0.0000001
 43
0.0000001
 44
0.0000000001
 40
0.0
 40
0.0
 40
0.0
 40
0.0
 40
0.5121493918
 40
1.0
 40
1.0
 40
1.0
 40
1.0
 10
11.360811926
 20
32.0297934904
 30
0.0
 10
11.2015852232
 20
32.0917610661
 30
0.0
 10
10.8951596345
 20
32.2246799653
 30
0.0
 10
10.6010192572
 20
32.3831913438
 30
0.0
 10
10.4616633528
 20
32.4672666075
 30
0.0
  0
SPLINE
  5
359
100
AcDbEntity
  8
0
100
AcDbSpline
 62
7
  6
BYLAYER
 70
0
 71
3
 72
11
 73
7
 74
0
 42
0.0000001
 43
0.0000001
 44
0.0000000001
 40
0.0
 40
0.0
 40
0.0
 40
0.0
 40
0.3412116164
 40
0.6263779332
 40
0.8480485306
 40
1.0
 40
1.0
 40
1.0
 40
1.0
 10
10.5623981707
 20
37.3048014024
 30
0.0
 10
10.5666070177
 20
37.3119952927
 30
0.0
 10
10.5741121599
 20
37.3253284324
 30
0.0
 10
10.5834782739
 20
37.3438332053
 30
0.0
 10
10.5897477719
 20
37.3586312516
 30
0.0
 10
10.5924630453
 20
37.3674399017
 30
0.0
 10
10.5928946909
 20
37.3711263812
 30
0.0
  0
SPLINE
  5
35A
100
AcDbEntity
  8
0
100
AcDbSpline
 62
7
  6
BYLAYER
 70
0
 71
3
 72
9
 73
5
 74
0
 42
0.0000001
 43
0.0000001
 44
0.0000000001
 40
0.0
 40
0.0
 40
0.0
 40
0.0
 40
0.496659389
 40
1.0
 40
1.0
 40
1.0
 40
1.0
 10
8.7783675092
 20
39.0265667617
 30
0.0
 10
9.0504439465
 20
38.7236478228
 30
0.0
 10
9.6270569607
 20
38.138979171
 30
0.0
 10
10.2601568969
 20
37.615178568
 30
0.0
 10
10.5928949911
 20
37.3711268677
 30
0.0
  0
SPLINE
  5
35B
100
AcDbEntity
  8
0
100
AcDbSpline
 62
7
  6
BYLAYER
 70
0
 71
3
 72
11
 73
7
 74
0
 42
0.0000001
 43
0.0000001
 44
0.0000000001
 40
0.0
 40
0.0
 40
0.0
 40
0.0
 40
0.2789571878
 40
0.5378324752
 40
0.7773235028
 40
1.0
 40
1.0
 40
1.0
 40
1.0
 10
24.7944027837
 20
29.7799136718
 30
0.0
 10
24.7944027837
 20
29.7088699245
 30
0.0
 10
24.8021222106
 20
29.5717054054
 30
0.0
 10
24.8396935153
 20
29.3766369393
 30
0.0
 10
24.9024963967
 20
29.2032018732
 30
0.0
 10
24.9625832365
 20
29.1009293106
 30
0.0
 10
24.9964324515
 20
29.0554287639
 30
0.0
  0
SPLINE
  5
35C
100
AcDbEntity
  8
0
100
AcDbSpline
 62
7
  6
BYLAYER
 70
0
 71
3
 72
26
 73
22
 74
0
 42
0.0000001
 43
0.0000001
 44
0.0000000001
 40
0.0
 40
0.0
 40
0.0
 40
0.0
 40
0.0623787997
 40
0.1287153406
 40
0.1983029088
 40
0.2702754998
 40
0.3436480147
 40
0.4173750396
 40
0.4903947666
 40
0.5616767858
 40
0.6302697368
 40
0.6953533401
 40
0.7562973423
 40
0.8127314489
 40
0.8646291718
 40
0.8890144834
 40
0.9124627001
 40
0.9351059414
 40
0.9571101015
 40
0.9786691893
 40
1.0
 40
1.0
 40
1.0
 40
1.0
 10
25.0418905987
 20
32.6626192301
 30
0.0
 10
25.0418905987
 20
32.9903557202
 30
0.0
 10
25.0862951288
 20
33.6670735406
 30
0.0
 10
25.2689895575
 20
34.694573007
 30
0.0
 10
25.5660397606
 20
35.7474314176
 30
0.0
 10
25.9710568953
 20
36.8031249894
 30
0.0
 10
26.475445398
 20
37.8392826468
 30
0.0
 10
27.0684315783
 20
38.8337940736
 30
0.0
 10
27.7373746105
 20
39.7654488986
 30
0.0
 10
28.4680194767
 20
40.6143924278
 30
0.0
 10
29.2448740352
 20
41.3625779255
 30
0.0
 10
30.0515623452
 20
41.9941434585
 30
0.0
 10
30.8714265577
 20
42.4957154548
 30
0.0
 10
31.6875060873
 20
42.8564595543
 30
0.0
 10
32.3651616694
 20
43.0364318857
 30
0.0
 10
32.8863151018
 20
43.0977083868
 30
0.0
 10
33.2572495552
 20
43.103575336
 30
0.0
 10
33.6142084183
 20
43.0700757446
 30
0.0
 10
33.9552367416
 20
42.9973673543
 30
0.0
 10
34.2782670702
 20
42.8856730473
 30
0.0
 10
34.4808866811
 20
42.7854223871
 30
0.0
 10
34.577943893
 20
42.7293874291
 30
0.0
  0
SPLINE
  5
35D
100
AcDbEntity
  8
0
100
AcDbSpline
 62
7
  6
BYLAYER
 70
0
 71
3
 72
15
 73
11
 74
0
 42
0.0000001
 43
0.0000001
 44
0.0000000001
 40
0.0
 40
0.0
 40
0.0
 40
0.0
 40
0.1485803541
 40
0.2895098932
 40
0.422725528
 40
0.5486429145
 40
0.6680035202
 40
0.7819416764
 40
0.8919920377
 40
1.0
 40
1.0
 40
1.0
 40
1.0
 10
25.3600899751
 20
32.4789108905
 30
0.0
 10
25.3600899694
 20
32.2731752964
 30
0.0
 10
25.3766872984
 20
31.8720221938
 30
0.0
 10
25.4556371101
 20
31.2911037971
 30
0.0
 10
25.5875489372
 20
30.7519053769
 30
0.0
 10
25.7713792789
 20
30.2596748735
 30
0.0
 10
26.0056839803
 20
29.8191257214
 30
0.0
 10
26.2886756189
 20
29.4347665242
 30
0.0
 10
26.6177463966
 20
29.1109651675
 30
0.0
 10
26.8667561569
 20
28.9371750972
 30
0.0
 10
26.9962769177
 20
28.8623996511
 30
0.0
  0
SPLINE
  5
35E
100
AcDbEntity
  8
0
100
AcDbSpline
 62
7
  6
BYLAYER
 70
0
 71
3
 72
10
 73
6
 74
0
 42
0.0000001
 43
0.0000001
 44
0.0000000001
 40
0.0
 40
0.0
 40
0.0
 40
0.0
 40
0.2662374566
 40
0.5283312355
 40
1.0
 40
1.0
 40
1.0
 40
1.0
 10
26.0172306841
 20
32.1483954595
 30
0.0
 10
26.0260066754
 20
32.1440177921
 30
0.0
 10
26.0443854438
 20
32.137053111
 30
0.0
 10
26.0807318136
 20
32.1310236017
 30
0.0
 10
26.1092537262
 20
32.1357707823
 30
0.0
 10
26.1243005948
 20
32.1444580442
 30
0.0
  0
SPLINE
  5
35F
100
AcDbEntity
  8
0
100
AcDbSpline
 62
7
  6
BYLAYER
 70
0
 71
3
 72
9
 73
5
 74
0
 42
0.0000001
 43
0.0000001
 44
0.0000000001
 40
0.0
 40
0.0
 40
0.0
 40
0.0
 40
0.4930648869
 40
1.0
 40
1.0
 40
1.0
 40
1.0
 10
8.1692931352
 20
34.068127309
 30
0.0
 10
8.193154713
 20
33.9842982235
 30
0.0
 10
8.2513416986
 20
33.8169413437
 30
0.0
 10
8.3272211715
 20
33.6568911306
 30
0.0
 10
8.3695880979
 20
33.5779281968
 30
0.0
  0
SPLINE
  5
360
100
AcDbEntity
  8
0
100
AcDbSpline
 62
7
  6
BYLAYER
 70
0
 71
3
 72
9
 73
5
 74
0
 42
0.0000001
 43
0.0000001
 44
0.0000000001
 40
0.0
 40
0.0
 40
0.0
 40
0.0
 40
0.2460759851
 40
1.0
 40
1.0
 40
1.0
 40
1.0
 10
8.4743443571
 20
33.3990990047
 30
0.0
 10
8.4886800924
 20
33.3765561609
 30
0.0
 10
8.5481958816
 20
33.285751044
 30
0.0
 10
8.6126359921
 20
33.1981915388
 30
0.0
 10
8.6635571897
 20
33.1341110218
 30
0.0
  0
SPLINE
  5
361
100
AcDbEntity
  8
0
100
AcDbSpline
 62
7
  6
BYLAYER
 70
0
 71
3
 72
11
 73
7
 74
0
 42
0.0000001
 43
0.0000001
 44
0.0000000001
 40
0.0
 40
0.0
 40
0.0
 40
0.0
 40
0.2233359815
 40
0.4645110098
 40
0.7237327866
 40
1.0
 40
1.0
 40
1.0
 40
1.0
 10
8.6635571897
 20
33.1341110218
 30
0.0
 10
8.7864635771
 20
32.9794425296
 30
0.0
 10
9.0711188642
 20
32.6802279705
 30
0.0
 10
9.5770498057
 20
32.2849900368
 30
0.0
 10
10.1686875453
 20
31.9326963326
 30
0.0
 10
10.6007522746
 20
31.7361755353
 30
0.0
 10
10.8277630911
 20
31.6456974731
 30
0.0
  0
SPLINE
  5
362
100
AcDbEntity
  8
0
100
AcDbSpline
 62
7
  6
BYLAYER
 70
0
 71
3
 72
16
 73
12
 74
0
 42
0.0000001
 43
0.0000001
 44
0.0000000001
 40
0.0
 40
0.0
 40
0.0
 40
0.0
 40
0.1206899692
 40
0.2475250248
 40
0.378186824
 40
0.5101126173
 40
0.6406594265
 40
0.7672767221
 40
0.8876554118
 40
0.944951048
 40
1.0
 40
1.0
 40
1.0
 40
1.0
 10
10.8277630911
 20
31.6456974731
 30
0.0
 10
11.1398184511
 20
31.5213238212
 30
0.0
 10
11.7969862645
 20
31.307982729
 30
0.0
 10
12.8301535012
 20
31.0968497094
 30
0.0
 10
13.9107875097
 20
30.99086199
 30
0.0
 10
15.0068217611
 20
30.9932150623
 30
0.0
 10
16.0860558283
 20
31.1038129366
 30
0.0
 10
17.1165272786
 20
31.3194121186
 30
0.0
 10
17.9229590323
 20
31.5857034944
 30
0.0
 10
18.5157501567
 20
31.8478217245
 30
0.0
 10
18.7926498734
 20
31.9938151435
 30
0.0
 10
18.9253449616
 20
32.0704262311
 30
0.0
  0
SPLINE
  5
363
100
AcDbEntity
  8
0
100
AcDbSpline
 62
7
  6
BYLAYER
 70
0
 71
3
 72
14
 73
10
 74
0
 42
0.0000001
 43
0.0000001
 44
0.0000000001
 40
0.0
 40
0.0
 40
0.0
 40
0.0
 40
0.1457722095
 40
0.2852195851
 40
0.5445714519
 40
0.6653857532
 40
0.7809471486
 40
0.8921167072
 40
1.0
 40
1.0
 40
1.0
 40
1.0
 10
35.8960414483
 20
38.8066330204
 30
0.0
 10
35.8960414483
 20
38.9694465621
 30
0.0
 10
35.8847128267
 20
39.2882253876
 30
0.0
 10
35.8153686506
 20
39.8928038185
 30
0.0
 10
35.6760255695
 20
40.4606048096
 30
0.0
 10
35.4593294584
 20
40.9711950139
 30
0.0
 10
35.2670575405
 20
41.3095329564
 30
0.0
 10
35.0425024696
 20
41.6095277924
 30
0.0
 10
34.8701982128
 20
41.784535324
 30
0.0
 10
34.7797257865
 20
41.8641208059
 30
0.0
  0
SPLINE
  5
364
100
AcDbEntity
  8
0
100
AcDbSpline
 62
7
  6
BYLAYER
 70
0
 71
3
 72
9
 73
5
 74
0
 42
0.0000001
 43
0.0000001
 44
0.0000000001
 40
0.0
 40
0.0
 40
0.0
 40
0.0
 40
0.4888572526
 40
1.0
 40
1.0
 40
1.0
 40
1.0
 10
30.7341834366
 20
29.8659830521
 30
0.0
 10
30.9084576793
 20
29.9665997324
 30
0.0
 10
31.2560433352
 20
30.1881100947
 30
0.0
 10
31.5853320458
 20
30.4358197335
 30
0.0
 10
31.7489224358
 20
30.5681438557
 30
0.0
  0
SPLINE
  5
365
100
AcDbEntity
  8
0
100
AcDbSpline
 62
7
  6
BYLAYER
 70
0
 71
3
 72
9
 73
5
 74
0
 42
0.0000001
 43
0.0000001
 44
0.0000000001
 40
0.0
 40
0.0
 40
0.0
 40
0.0
 40
0.5111411351
 40
1.0
 40
1.0
 40
1.0
 40
1.0
 10
35.7953466752
 20
37.5769181243
 30
0.0
 10
35.8281390733
 20
37.7847271742
 30
0.0
 10
35.8780048095
 20
38.1937029974
 30
0.0
 10
35.8960414483
 20
38.6054237042
 30
0.0
 10
35.8960414483
 20
38.8066330204
 30
0.0
  0
SPLINE
  5
366
100
AcDbEntity
  8
0
100
AcDbSpline
 62
7
  6
BYLAYER
 70
0
 71
3
 72
23
 73
19
 74
0
 42
0.0000001
 43
0.0000001
 44
0.0000000001
 40
0.0
 40
0.0
 40
0.0
 40
0.0
 40
0.0442577638
 40
0.0916597384
 40
0.1428407301
 40
0.1980643381
 40
0.2572803017
 40
0.320187552
 40
0.3862903299
 40
0.4549466373
 40
0.5254092219
 40
0.5968613979
 40
0.6684491587
 40
0.7393125421
 40
0.8086229082
 40
0.8756011351
 40
0.9395840036
 40
1.0
 40
1.0
 40
1.0
 40
1.0
 10
8.2187002747
 20
31.9961902484
 30
0.0
 10
8.2783238447
 20
31.8309703275
 30
0.0
 10
8.4402131021
 20
31.5018391226
 30
0.0
 10
8.7841722595
 20
31.0477520588
 30
0.0
 10
9.2287341222
 20
30.6259929913
 30
0.0
 10
9.7654983237
 20
30.2434537161
 30
0.0
 10
10.3849730874
 20
29.9061767959
 30
0.0
 10
11.0762806587
 20
29.6198250227
 30
0.0
 10
11.8272586708
 20
29.3892940029
 30
0.0
 10
12.624630734
 20
29.2186051495
 30
0.0
 10
13.4542480319
 20
29.1107675076
 30
0.0
 10
14.3013494107
 20
29.0676983109
 30
0.0
 10
15.1508327875
 20
29.0901719972
 30
0.0
 10
15.9875678454
 20
29.1777816198
 30
0.0
 10
16.7966232769
 20
29.3289868689
 30
0.0
 10
17.5637328756
 20
29.5410746845
 30
0.0
 10
18.2750994948
 20
29.8103486556
 30
0.0
 10
18.7176913037
 20
30.0317573712
 30
0.0
 10
18.9253449616
 20
30.1516455509
 30
0.0
  0
SPLINE
  5
367
100
AcDbEntity
  8
0
100
AcDbSpline
 62
7
  6
BYLAYER
 70
0
 71
3
 72
9
 73
5
 74
0
 42
0.0000001
 43
0.0000001
 44
0.0000000001
 40
0.0
 40
0.0
 40
0.0
 40
0.0
 40
0.5106466235
 40
1.0
 40
1.0
 40
1.0
 40
1.0
 10
36.7580735985
 20
38.2838331032
 30
0.0
 10
36.7667178849
 20
38.2888238545
 30
0.0
 10
36.7818710476
 20
38.302719367
 30
0.0
 10
36.787357724
 20
38.3225888548
 30
0.0
 10
36.7876050173
 20
38.3321509884
 30
0.0
  0
SPLINE
  5
368
100
AcDbEntity
  8
0
100
AcDbSpline
 62
7
  6
BYLAYER
 70
0
 71
3
 72
11
 73
7
 74
0
 42
0.0000001
 43
0.0000001
 44
0.0000000001
 40
0.0
 40
0.0
 40
0.0
 40
0.0
 40
0.2473661008
 40
0.4945699342
 40
0.7445917194
 40
1.0
 40
1.0
 40
1.0
 40
1.0
 10
35.5040064518
 20
41.7294911961
 30
0.0
 10
35.4151275947
 20
41.7995924885
 30
0.0
 10
35.2278360597
 20
41.9280805678
 30
0.0
 10
34.9224400878
 20
42.0814488075
 30
0.0
 10
34.5957724583
 20
42.1936251992
 30
0.0
 10
34.3684472767
 20
42.2400090849
 30
0.0
 10
34.2527228191
 20
42.2563862354
 30
0.0
  0
SPLINE
  5
369
100
AcDbEntity
  8
0
100
AcDbSpline
 62
7
  6
BYLAYER
 70
0
 71
3
 72
10
 73
6
 74
0
 42
0.0000001
 43
0.0000001
 44
0.0000000001
 40
0.0
 40
0.0
 40
0.0
 40
0.0
 40
0.24902082
 40
0.5011827632
 40
1.0
 40
1.0
 40
1.0
 40
1.0
 10
34.2527228191
 20
42.2563862354
 30
0.0
 10
34.2562199851
 20
42.2653997242
 30
0.0
 10
34.2604118862
 20
42.2847696386
 30
0.0
 10
34.2576209971
 20
42.3238532301
 30
0.0
 10
34.2433582036
 20
42.3513102188
 30
0.0
 10
34.2303518116
 20
42.3656591491
 30
0.0
  0
SPLINE
  5
36A
100
AcDbEntity
  8
0
100
AcDbSpline
 62
7
  6
BYLAYER
 70
0
 71
3
 72
15
 73
11
 74
0
 42
0.0000001
 43
0.0000001
 44
0.0000000001
 40
0.0
 40
0.0
 40
0.0
 40
0.0
 40
0.0980154486
 40
0.2032715306
 40
0.3167485388
 40
0.4387546887
 40
0.569001964
 40
0.7067349572
 40
0.8508694515
 40
1.0
 40
1.0
 40
1.0
 40
1.0
 10
33.739270446
 20
42.9027876142
 30
0.0
 10
33.5216903589
 20
42.9222234783
 30
0.0
 10
33.0655025658
 20
42.9158071792
 30
0.0
 10
32.3693869456
 20
42.7822723732
 30
0.0
 10
31.6510496015
 20
42.52829987
 30
0.0
 10
30.9222906604
 20
42.1588719406
 30
0.0
 10
30.1947535111
 20
41.6803942928
 30
0.0
 10
29.4803090329
 20
41.1009968596
 30
0.0
 10
28.7909283454
 20
40.4304455989
 30
0.0
 10
28.3613845381
 20
39.9367067215
 30
0.0
 10
28.1531501321
 20
39.6776587986
 30
0.0
  0
SPLINE
  5
36B
100
AcDbEntity
  8
0
100
AcDbSpline
 62
7
  6
BYLAYER
 70
0
 71
3
 72
15
 73
11
 74
0
 42
0.0000001
 43
0.0000001
 44
0.0000000001
 40
0.0
 40
0.0
 40
0.0
 40
0.0
 40
0.0992545746
 40
0.2055652589
 40
0.3196667788
 40
0.4418081284
 40
0.5717137866
 40
0.7087122443
 40
0.8519002943
 40
1.0
 40
1.0
 40
1.0
 40
1.0
 10
33.9501141346
 20
42.3906954825
 30
0.0
 10
33.7491298313
 20
42.3995051961
 30
0.0
 10
33.3305357485
 20
42.3782477314
 30
0.0
 10
32.6948959839
 20
42.2415656467
 30
0.0
 10
32.0410894839
 20
42.0020261603
 30
0.0
 10
31.3787458909
 20
41.6637991528
 30
0.0
 10
30.7173490412
 20
41.2320139111
 30
0.0
 10
30.0664729417
 20
40.7132223728
 30
0.0
 10
29.4359272104
 20
40.1152058997
 30
0.0
 10
29.0406695667
 20
39.675702305
 30
0.0
 10
28.8483593083
 20
39.4452133606
 30
0.0
  0
SPLINE
  5
36C
100
AcDbEntity
  8
0
100
AcDbSpline
 62
7
  6
BYLAYER
 70
0
 71
3
 72
15
 73
11
 74
0
 42
0.0000001
 43
0.0000001
 44
0.0000000001
 40
0.0
 40
0.0
 40
0.0
 40
0.0
 40
0.0993906806
 40
0.2058127749
 40
0.3199813489
 40
0.4421370127
 40
0.5720062845
 40
0.7089274035
 40
0.8520113579
 40
1.0
 40
1.0
 40
1.0
 40
1.0
 10
33.946537876
 20
42.2837369356
 30
0.0
 10
33.7489160801
 20
42.2914643898
 30
0.0
 10
33.3376025496
 20
42.2690016292
 30
0.0
 10
32.7133150352
 20
42.1332290476
 30
0.0
 10
32.071401732
 20
41.8971761572
 30
0.0
 10
31.4212025774
 20
41.5648902344
 30
0.0
 10
30.7719148569
 20
41.1413441158
 30
0.0
 10
30.1328211713
 20
40.6328824991
 30
0.0
 10
29.5134321345
 20
40.0470352513
 30
0.0
 10
29.1249313607
 20
39.6165651944
 30
0.0
 10
28.9358363173
 20
39.3908243101
 30
0.0
  0
SPLINE
  5
36D
100
AcDbEntity
  8
0
100
AcDbSpline
 62
7
  6
BYLAYER
 70
0
 71
3
 72
10
 73
6
 74
0
 42
0.0000001
 43
0.0000001
 44
0.0000000001
 40
0.0
 40
0.0
 40
0.0
 40
0.0
 40
0.199995861
 40
0.44511215
 40
1.0
 40
1.0
 40
1.0
 40
1.0
 10
28.9358363173
 20
39.3908243101
 30
0.0
 10
28.9318413303
 20
39.3965078815
 30
0.0
 10
28.9207799374
 20
39.4075861214
 30
0.0
 10
28.8923141846
 20
39.4275841237
 30
0.0
 10
28.8666326037
 20
39.4390673489
 30
0.0
 10
28.8483633404
 20
39.4452117556
 30
0.0
  0
SPLINE
  5
36E
100
AcDbEntity
  8
0
100
AcDbSpline
 62
7
  6
BYLAYER
 70
0
 71
3
 72
15
 73
11
 74
0
 42
0.0000001
 43
0.0000001
 44
0.0000000001
 40
0.0
 40
0.0
 40
0.0
 40
0.0
 40
0.1298421566
 40
0.2611898165
 40
0.3925249453
 40
0.5223738123
 40
0.6492911192
 40
0.7719393733
 40
0.8891632796
 40
1.0
 40
1.0
 40
1.0
 40
1.0
 10
28.1531501321
 20
39.6776587986
 30
0.0
 10
27.9401055918
 20
39.4126269244
 30
0.0
 10
27.5326215192
 20
38.862203557
 30
0.0
 10
26.9850211955
 20
37.9911210392
 30
0.0
 10
26.504413049
 20
37.081263978
 30
0.0
 10
26.098931624
 20
36.1481494495
 30
0.0
 10
25.7754654698
 20
35.2074892025
 30
0.0
 10
25.5394160923
 20
34.2750961105
 30
0.0
 10
25.3948684617
 20
33.3667879544
 30
0.0
 10
25.3600899783
 20
32.769181434
 30
0.0
 10
25.3600899751
 20
32.4789108905
 30
0.0
  0
SPLINE
  5
36F
100
AcDbEntity
  8
0
100
AcDbSpline
 62
7
  6
BYLAYER
 70
0
 71
3
 72
15
 73
11
 74
0
 42
0.0000001
 43
0.0000001
 44
0.0000000001
 40
0.0
 40
0.0
 40
0.0
 40
0.0
 40
0.129848833
 40
0.2609008955
 40
0.3917562377
 40
0.5211435234
 40
0.6477751539
 40
0.7704553054
 40
0.8881739466
 40
1.0
 40
1.0
 40
1.0
 40
1.0
 10
28.5681239585
 20
39.0965946787
 30
0.0
 10
28.3783335602
 20
38.851551989
 30
0.0
 10
28.015159163
 20
38.3448512904
 30
0.0
 10
27.5256390657
 20
37.5472306491
 30
0.0
 10
27.0944246646
 20
36.7178176476
 30
0.0
 10
26.7279914657
 20
35.8692834394
 30
0.0
 10
26.431903666
 20
35.0142903148
 30
0.0
 10
26.2105095719
 20
34.1656227168
 30
0.0
 10
26.0672877931
 20
33.3361405131
 30
0.0
 10
26.0240907337
 20
32.7888791819
 30
0.0
 10
26.0172466816
 20
32.5220411625
 30
0.0
  0
SPLINE
  5
370
100
AcDbEntity
  8
0
100
AcDbSpline
 62
7
  6
BYLAYER
 70
0
 71
3
 72
15
 73
11
 74
0
 42
0.0000001
 43
0.0000001
 44
0.0000000001
 40
0.0
 40
0.0
 40
0.0
 40
0.0
 40
0.1298486408
 40
0.2608669126
 40
0.3916729627
 40
0.5210124356
 40
0.6476148835
 40
0.7702998228
 40
0.8880689997
 40
1.0
 40
1.0
 40
1.0
 40
1.0
 10
28.6296513742
 20
39.0099238018
 30
0.0
 10
28.4437454077
 20
38.768950232
 30
0.0
 10
28.0879864363
 20
38.2708893389
 30
0.0
 10
27.6083060555
 20
37.4872909399
 30
0.0
 10
27.185584836
 20
36.6728376266
 30
0.0
 10
26.8260899475
 20
35.8398134767
 30
0.0
 10
26.5352102247
 20
35.0004915089
 30
0.0
 10
26.3171638645
 20
34.1672627964
 30
0.0
 10
26.1753326027
 20
33.3525937617
 30
0.0
 10
26.1317281232
 20
32.8149577607
 30
0.0
 10
26.1243005948
 20
32.5527092527
 30
0.0
  0
SPLINE
  5
371
100
AcDbEntity
  8
0
100
AcDbSpline
 62
7
  6
BYLAYER
 70
0
 71
3
 72
11
 73
7
 74
0
 42
0.0000001
 43
0.0000001
 44
0.0000000001
 40
0.0
 40
0.0
 40
0.0
 40
0.0
 40
0.2470563671
 40
0.4946943281
 40
0.7451028183
 40
1.0
 40
1.0
 40
1.0
 40
1.0
 10
28.8483438314
 20
28.4942827569
 30
0.0
 10
28.8575392882
 20
28.4941803823
 30
0.0
 10
28.876093358
 20
28.4966132424
 30
0.0
 10
28.9017350862
 20
28.5082362914
 30
0.0
 10
28.9228253945
 20
28.5273612544
 30
0.0
 10
28.9324043589
 20
28.5439599957
 30
0.0
 10
28.9358363173
 20
28.5528054203
 30
0.0
  0
SPLINE
  5
372
100
AcDbEntity
  8
0
100
AcDbSpline
 62
7
  6
BYLAYER
 70
0
 71
3
 72
14
 73
10
 74
0
 42
0.0000001
 43
0.0000001
 44
0.0000000001
 40
0.0
 40
0.0
 40
0.0
 40
0.0
 40
0.1450049141
 40
0.2846564525
 40
0.4185797955
 40
0.5465451202
 40
0.6684762756
 40
0.7845143615
 40
1.0
 40
1.0
 40
1.0
 40
1.0
 10
32.4758947421
 20
30.1761688142
 30
0.0
 10
32.3327945474
 20
30.0597402488
 30
0.0
 10
32.0447566734
 20
29.839735662
 30
0.0
 10
31.6005595274
 20
29.5452565165
 30
0.0
 10
31.1549915659
 20
29.2943491474
 30
0.0
 10
30.7114438325
 20
29.0888659253
 30
0.0
 10
30.2728756233
 20
28.930379387
 30
0.0
 10
29.7136719037
 20
28.7869298932
 30
0.0
 10
29.2888205041
 20
28.7461913341
 30
0.0
 10
29.0148644992
 20
28.7564902417
 30
0.0
  0
SPLINE
  5
373
100
AcDbEntity
  8
0
100
AcDbSpline
 62
7
  6
BYLAYER
 70
0
 71
3
 72
22
 73
18
 74
0
 42
0.0000001
 43
0.0000001
 44
0.0000000001
 40
0.0
 40
0.0
 40
0.0
 40
0.0
 40
0.0549458664
 40
0.1129559042
 40
0.1736243679
 40
0.2364819536
 40
0.301038533
 40
0.3667980123
 40
0.4332739935
 40
0.5000063419
 40
0.5665627343
 40
0.6325527724
 40
0.6976235274
 40
0.7614645048
 40
0.8238125654
 40
0.8844687089
 40
1.0
 40
1.0
 40
1.0
 40
1.0
 10
18.963522676
 20
54.6657211207
 30
0.0
 10
18.8187769705
 20
54.7492881498
 30
0.0
 10
18.5147230285
 20
54.910004165
 30
0.0
 10
18.0325993231
 20
55.1263671857
 30
0.0
 10
17.5160359695
 20
55.3224072626
 30
0.0
 10
16.9704388108
 20
55.4955093093
 30
0.0
 10
16.4013568816
 20
55.642989355
 30
0.0
 10
15.8144934695
 20
55.7624145687
 30
0.0
 10
15.2155377417
 20
55.8513449755
 30
0.0
 10
14.6101959224
 20
55.9077757844
 30
0.0
 10
14.0040771211
 20
55.9297075933
 30
0.0
 10
13.4027431462
 20
55.9157725492
 30
0.0
 10
12.8116698685
 20
55.8645975446
 30
0.0
 10
12.2362656732
 20
55.7757232473
 30
0.0
 10
11.6816849246
 20
55.6486010696
 30
0.0
 10
10.9886295762
 20
55.4325051406
 30
0.0
 10
10.4968937951
 20
55.2101258622
 30
0.0
 10
10.1925381189
 20
55.03442811
 30
0.0
  0
SPLINE
  5
374
100
AcDbEntity
  8
0
100
AcDbSpline
 62
7
  6
BYLAYER
 70
0
 71
3
 72
22
 73
18
 74
0
 42
0.0000001
 43
0.0000001
 44
0.0000000001
 40
0.0
 40
0.0
 40
0.0
 40
0.0
 40
0.1403788192
 40
0.2068775505
 40
0.271052041
 40
0.3331607869
 40
0.3935117863
 40
0.4524748752
 40
0.5104778817
 40
0.5679993246
 40
0.6255494493
 40
0.6836628984
 40
0.7428719638
 40
0.8036896498
 40
0.8665747295
 40
0.9319157821
 40
1.0
 40
1.0
 40
1.0
 40
1.0
 10
10.1925382857
 20
55.0344279429
 30
0.0
 10
9.9091809967
 20
54.8708121564
 30
0.0
 10
9.5118100083
 20
54.5895934369
 30
0.0
 10
9.0638835634
 20
54.1425105471
 30
0.0
 10
8.7845219421
 20
53.7890827242
 30
0.0
 10
8.5589311726
 20
53.4157463659
 30
0.0
 10
8.3890996131
 20
53.0270678045
 30
0.0
 10
8.2771633125
 20
52.6277899456
 30
0.0
 10
8.224248126
 20
52.2230883953
 30
0.0
 10
8.2314538752
 20
51.8182513904
 30
0.0
 10
8.2988648514
 20
51.4187142474
 30
0.0
 10
8.4264769306
 20
51.0300173668
 30
0.0
 10
8.6130852451
 20
50.6574509156
 30
0.0
 10
8.8573661183
 20
50.3063347768
 30
0.0
 10
9.1566899926
 20
49.9811919449
 30
0.0
 10
9.5082887673
 20
49.6865867307
 30
0.0
 10
9.7694395076
 20
49.5162392606
 30
0.0
 10
9.9068737556
 20
49.4368936447
 30
0.0
  0
SPLINE
  5
375
100
AcDbEntity
  8
0
100
AcDbSpline
 62
7
  6
BYLAYER
 70
0
 71
3
 72
11
 73
7
 74
0
 42
0.0000001
 43
0.0000001
 44
0.0000000001
 40
0.0
 40
0.0
 40
0.0
 40
0.0
 40
0.2611745046
 40
0.5140107867
 40
0.7588928932
 40
1.0
 40
1.0
 40
1.0
 40
1.0
 10
18.9635197456
 20
54.6657201312
 30
0.0
 10
19.0237030673
 20
54.686131925
 30
0.0
 10
19.1452525395
 20
54.7179500172
 30
0.0
 10
19.3304041337
 20
54.7335758312
 30
0.0
 10
19.5101568962
 20
54.7096168727
 30
0.0
 10
19.6213920964
 20
54.6651287722
 30
0.0
 10
19.6725192286
 20
54.6363553791
 30
0.0
  0
SPLINE
  5
376
100
AcDbEntity
  8
0
100
AcDbSpline
 62
7
  6
BYLAYER
 70
0
 71
3
 72
21
 73
17
 74
0
 42
0.0000001
 43
0.0000001
 44
0.0000000001
 40
0.0
 40
0.0
 40
0.0
 40
0.0
 40
0.1363987129
 40
0.2711200815
 40
0.4037324521
 40
0.5335864248
 40
0.5971816802
 40
0.6596460956
 40
0.7207150306
 40
0.7800102649
 40
0.8369755738
 40
0.8908427178
 40
0.9165327499
 40
0.9417654608
 40
0.9682640005
 40
1.0
 40
1.0
 40
1.0
 40
1.0
 10
10.7750161376
 20
26.8690269059
 30
0.0
 10
10.7939241691
 20
26.8597991543
 30
0.0
 10
10.8316673468
 20
26.841781255
 30
0.0
 10
10.8884372679
 20
26.8161637427
 30
0.0
 10
10.9449635493
 20
26.7925115597
 30
0.0
 10
10.9920636916
 20
26.7748152255
 30
0.0
 10
11.0295549213
 20
26.7624417298
 30
0.0
 10
11.0572650186
 20
26.7543319555
 30
0.0
 10
11.0846636773
 20
26.7476103724
 30
0.0
 10
11.1116034765
 20
26.7426975232
 30
0.0
 10
11.1377595908
 20
26.7403026898
 30
0.0
 10
11.1589849895
 20
26.741397038
 30
0.0
 10
11.1746167266
 20
26.7458265658
 30
0.0
 10
11.1851895671
 20
26.7517659728
 30
0.0
 10
11.1934670251
 20
26.7621932561
 30
0.0
 10
11.1950481134
 20
26.7714331744
 30
0.0
 10
11.1950481134
 20
26.7763284769
 30
0.0
  0
SPLINE
  5
377
100
AcDbEntity
  8
0
100
AcDbSpline
 62
7
  6
BYLAYER
 70
0
 71
3
 72
9
 73
5
 74
0
 42
0.0000001
 43
0.0000001
 44
0.0000000001
 40
0.0
 40
0.0
 40
0.0
 40
0.0
 40
0.496555836
 40
1.0
 40
1.0
 40
1.0
 40
1.0
 10
20.1851867182
 20
29.5187897944
 30
0.0
 10
20.1851864426
 20
29.4257682034
 30
0.0
 10
20.1714832857
 20
29.2381859514
 30
0.0
 10
20.1309125799
 20
29.0545840882
 30
0.0
 10
20.1043486759
 20
28.9640903672
 30
0.0
  0
SPLINE
  5
378
100
AcDbEntity
  8
0
100
AcDbSpline
 62
7
  6
BYLAYER
 70
0
 71
3
 72
12
 73
8
 74
0
 42
0.0000001
 43
0.0000001
 44
0.0000000001
 40
0.0
 40
0.0
 40
0.0
 40
0.0
 40
0.1089095893
 40
0.2212874728
 40
0.4591107777
 40
0.718158234
 40
1.0
 40
1.0
 40
1.0
 40
1.0
 10
20.1043486759
 20
28.9640903672
 30
0.0
 10
20.0800207679
 20
28.8812138848
 30
0.0
 10
20.0200245871
 20
28.7157452399
 30
0.0
 10
19.8565293504
 20
28.3896613724
 30
0.0
 10
19.5694091958
 20
27.9964586396
 30
0.0
 10
19.1180283816
 20
27.5710786176
 30
0.0
 10
18.7630177764
 20
27.3272655611
 30
0.0
 10
18.5711624064
 20
27.2125776096
 30
0.0
  0
SPLINE
  5
379
100
AcDbEntity
  8
0
100
AcDbSpline
 62
7
  6
BYLAYER
 70
0
 71
3
 72
10
 73
6
 74
0
 42
0.0000001
 43
0.0000001
 44
0.0000000001
 40
0.0
 40
0.0
 40
0.0
 40
0.0
 40
0.2483403149
 40
0.4986604462
 40
1.0
 40
1.0
 40
1.0
 40
1.0
 10
15.576452949
 20
27.8772572745
 30
0.0
 10
15.5976210865
 20
27.8650384773
 30
0.0
 10
15.6420687208
 20
27.843761639
 30
0.0
 10
15.7355267741
 20
27.8125135245
 30
0.0
 10
15.8094258509
 20
27.8008845441
 30
0.0
 10
15.8587250733
 20
27.798839606
 30
0.0
  0
SPLINE
  5
37A
100
AcDbEntity
  8
0
100
AcDbSpline
 62
7
  6
BYLAYER
 70
0
 71
3
 72
11
 73
7
 74
0
 42
0.0000001
 43
0.0000001
 44
0.0000000001
 40
0.0
 40
0.0
 40
0.0
 40
0.0
 40
0.1640547942
 40
0.3872406431
 40
0.6762488486
 40
1.0
 40
1.0
 40
1.0
 40
1.0
 10
20.1178493697
 20
30.5635242232
 30
0.0
 10
20.1137847523
 20
30.54832788
 30
0.0
 10
20.094223247
 20
30.515081306
 30
0.0
 10
20.0411080307
 20
30.4758112817
 30
0.0
 10
19.9648912813
 20
30.4483222142
 30
0.0
 10
19.9059670165
 20
30.441541911
 30
0.0
 10
19.8749253124
 20
30.4412400187
 30
0.0
  0
SPLINE
  5
37B
100
AcDbEntity
  8
0
100
AcDbSpline
 62
7
  6
BYLAYER
 70
0
 71
3
 72
11
 73
7
 74
0
 42
0.0000001
 43
0.0000001
 44
0.0000000001
 40
0.0
 40
0.0
 40
0.0
 40
0.0
 40
0.2780350816
 40
0.5367175952
 40
0.7766225535
 40
1.0
 40
1.0
 40
1.0
 40
1.0
 10
18.5010791265
 20
28.3145088399
 30
0.0
 10
18.6724516113
 20
28.4134501995
 30
0.0
 10
18.9932670891
 20
28.6227586049
 30
0.0
 10
19.4147841714
 20
28.983045664
 30
0.0
 10
19.7522617812
 20
29.3733081373
 30
0.0
 10
19.9223505022
 20
29.6584918322
 30
0.0
 10
19.9892779039
 20
29.8027006511
 30
0.0
  0
SPLINE
  5
37C
100
AcDbEntity
  8
0
100
AcDbSpline
 62
7
  6
BYLAYER
 70
0
 71
3
 72
13
 73
9
 74
0
 42
0.0000001
 43
0.0000001
 44
0.0000000001
 40
0.0
 40
0.0
 40
0.0
 40
0.0
 40
0.2403855018
 40
0.3729835951
 40
0.5089231602
 40
0.6433435655
 40
0.7723003437
 40
1.0
 40
1.0
 40
1.0
 40
1.0
 10
19.9892754534
 20
29.8027024773
 30
0.0
 10
19.9892763314
 20
29.8322047221
 30
0.0
 10
19.9771657411
 20
29.8784649996
 30
0.0
 10
19.9436945106
 20
29.9314167044
 30
0.0
 10
19.910085593
 20
29.9681019978
 30
0.0
 10
19.8709739219
 20
29.9980095174
 30
0.0
 10
19.8179938649
 20
30.0270605598
 30
0.0
 10
19.7754135191
 20
30.0399139238
 30
0.0
 10
19.7477967197
 20
30.0441863457
 30
0.0
  0
SPLINE
  5
37D
100
AcDbEntity
  8
0
100
AcDbSpline
 62
7
  6
BYLAYER
 70
0
 71
3
 72
11
 73
7
 74
0
 42
0.0000001
 43
0.0000001
 44
0.0000000001
 40
0.0
 40
0.0
 40
0.0
 40
0.0
 40
0.265163811
 40
0.521754512
 40
0.7673479168
 40
1.0
 40
1.0
 40
1.0
 40
1.0
 10
15.9234308406
 20
27.4552967665
 30
0.0
 10
16.156976081
 20
27.4914264261
 30
0.0
 10
16.6140298023
 20
27.5800594108
 30
0.0
 10
17.2734240186
 20
27.7644193764
 30
0.0
 10
17.8870515237
 20
27.9957182078
 30
0.0
 10
18.2703543153
 20
28.1841750364
 30
0.0
 10
18.451005399
 20
28.2859506724
 30
0.0
  0
SPLINE
  5
37E
100
AcDbEntity
  8
0
100
AcDbSpline
 62
7
  6
BYLAYER
 70
0
 71
3
 72
15
 73
11
 74
0
 42
0.0000001
 43
0.0000001
 44
0.0000000001
 40
0.0
 40
0.0
 40
0.0
 40
0.0
 40
0.0573509033
 40
0.1143982732
 40
0.2292677879
 40
0.3478695109
 40
0.4709712671
 40
0.598323023
 40
0.7293951709
 40
1.0
 40
1.0
 40
1.0
 40
1.0
 10
15.312753474
 20
27.7893175961
 30
0.0
 10
15.3127544161
 20
27.7743983616
 30
0.0
 10
15.3153392579
 20
27.7445662796
 30
0.0
 10
15.3308556848
 20
27.6867092108
 30
0.0
 10
15.3688699844
 20
27.6197974569
 30
0.0
 10
15.4362013139
 20
27.5546267924
 30
0.0
 10
15.5188735136
 20
27.5045431271
 30
0.0
 10
15.6122791144
 20
27.4695155481
 30
0.0
 10
15.7475809761
 20
27.4422743127
 30
0.0
 10
15.8538654809
 20
27.4445210093
 30
0.0
 10
15.9234308406
 20
27.4552967665
 30
0.0
  0
SPLINE
  5
37F
100
AcDbEntity
  8
0
100
AcDbSpline
 62
7
  6
BYLAYER
 70
0
 71
3
 72
12
 73
8
 74
0
 42
0.0000001
 43
0.0000001
 44
0.0000000001
 40
0.0
 40
0.0
 40
0.0
 40
0.0
 40
0.1274309618
 40
0.2703134924
 40
0.5684430045
 40
0.8240178545
 40
1.0
 40
1.0
 40
1.0
 40
1.0
 10
15.9234304302
 20
27.4552986361
 30
0.0
 10
15.9234305214
 20
27.4702283391
 30
0.0
 10
15.9223371954
 20
27.5019010127
 30
0.0
 10
15.9166939712
 20
27.5682765994
 30
0.0
 10
15.9042121499
 20
27.6490610527
 30
0.0
 10
15.8841410621
 20
27.7322287831
 30
0.0
 10
15.8674044914
 20
27.7801404144
 30
0.0
 10
15.8587247112
 20
27.7988422852
 30
0.0
  0
SPLINE
  5
380
100
AcDbEntity
  8
0
100
AcDbSpline
 62
7
  6
BYLAYER
 70
0
 71
3
 72
13
 73
9
 74
0
 42
0.0000001
 43
0.0000001
 44
0.0000000001
 40
0.0
 40
0.0
 40
0.0
 40
0.0
 40
0.2669358127
 40
0.5415366503
 40
0.6715301223
 40
0.7910661174
 40
0.8995279351
 40
1.0
 40
1.0
 40
1.0
 40
1.0
 10
15.3127541134
 20
27.7893080276
 30
0.0
 10
15.3372492728
 20
27.7914921735
 30
0.0
 10
15.3866310568
 20
27.8002573352
 30
0.0
 10
15.4447832271
 20
27.8236035857
 30
0.0
 10
15.4842856577
 20
27.8518031383
 30
0.0
 10
15.5068898837
 20
27.8762309596
 30
0.0
 10
15.5212300827
 20
27.9033333605
 30
0.0
 10
15.5245889431
 20
27.9227018096
 30
0.0
 10
15.5245873327
 20
27.9319581301
 30
0.0
  0
SPLINE
  5
381
100
AcDbEntity
  8
0
100
AcDbSpline
 62
7
  6
BYLAYER
 70
0
 71
3
 72
15
 73
11
 74
0
 42
0.0000001
 43
0.0000001
 44
0.0000000001
 40
0.0
 40
0.0
 40
0.0
 40
0.0
 40
0.0619842686
 40
0.1295613425
 40
0.2630167156
 40
0.3920954403
 40
0.5177719429
 40
0.6409147601
 40
0.7620959248
 40
1.0
 40
1.0
 40
1.0
 40
1.0
 10
9.6850749398
 20
27.6480921732
 30
0.0
 10
9.6850749398
 20
27.6392446087
 30
0.0
 10
9.690306994
 20
27.6209318043
 30
0.0
 10
9.7082847296
 20
27.5879830425
 30
0.0
 10
9.7375575956
 20
27.5506995741
 30
0.0
 10
9.7757137501
 20
27.5105258498
 30
0.0
 10
9.8151210346
 20
27.4736437935
 30
0.0
 10
9.855105639
 20
27.4391297035
 30
0.0
 10
9.9085605203
 20
27.3957517732
 30
0.0
 10
9.9494974774
 20
27.3648792267
 30
0.0
 10
9.9769417304
 20
27.3448799884
 30
0.0
  0
SPLINE
  5
382
100
AcDbEntity
  8
0
100
AcDbSpline
 62
7
  6
BYLAYER
 70
0
 71
3
 72
11
 73
7
 74
0
 42
0.0000001
 43
0.0000001
 44
0.0000000001
 40
0.0
 40
0.0
 40
0.0
 40
0.0
 40
0.2478796502
 40
0.4902421963
 40
0.7378757294
 40
1.0
 40
1.0
 40
1.0
 40
1.0
 10
10.1835735508
 20
32.4385742017
 30
0.0
 10
10.1735568668
 20
32.4426904757
 30
0.0
 10
10.1546444901
 20
32.453388172
 30
0.0
 10
10.1320527092
 20
32.47711553
 30
0.0
 10
10.1179967681
 20
32.5074233181
 30
0.0
 10
10.1150363507
 20
32.5298547663
 30
0.0
 10
10.1150363507
 20
32.5413065734
 30
0.0
  0
SPLINE
  5
383
100
AcDbEntity
  8
0
100
AcDbSpline
 62
7
  6
BYLAYER
 70
0
 71
3
 72
11
 73
7
 74
0
 42
0.0000001
 43
0.0000001
 44
0.0000000001
 40
0.0
 40
0.0
 40
0.0
 40
0.0
 40
0.2294494319
 40
0.4597629136
 40
0.7121603243
 40
1.0
 40
1.0
 40
1.0
 40
1.0
 10
11.8830140593
 20
31.918384205
 30
0.0
 10
11.8736044697
 20
31.9204020187
 30
0.0
 10
11.8551759478
 20
31.9276073355
 30
0.0
 10
11.8331259516
 20
31.9488945786
 30
0.0
 10
11.8197960088
 20
31.9790538513
 30
0.0
 10
11.8172300817
 20
32.0018770946
 30
0.0
 10
11.8172300817
 20
32.0139495937
 30
0.0
  0
SPLINE
  5
384
100
AcDbEntity
  8
0
100
AcDbSpline
 62
7
  6
BYLAYER
 70
0
 71
3
 72
15
 73
11
 74
0
 42
0.0000001
 43
0.0000001
 44
0.0000000001
 40
0.0
 40
0.0
 40
0.0
 40
0.0
 40
0.0163802912
 40
0.0623163395
 40
0.1403766578
 40
0.2508868574
 40
0.3939619003
 40
0.5687302998
 40
0.7719488814
 40
1.0
 40
1.0
 40
1.0
 40
1.0
 10
17.4819858191
 20
32.0366398592
 30
0.0
 10
17.4815672789
 20
32.0365273514
 30
0.0
 10
17.4807435909
 20
32.0388062546
 30
0.0
 10
17.4803666106
 20
32.0418048475
 30
0.0
 10
17.479640615
 20
32.0483698686
 30
0.0
 10
17.479181901
 20
32.0569568753
 30
0.0
 10
17.4787362232
 20
32.0683514807
 30
0.0
 10
17.4784373731
 20
32.0821102597
 30
0.0
 10
17.4782457065
 20
32.0981526968
 30
0.0
 10
17.4782078174
 20
32.1095613514
 30
0.0
 10
17.4782078174
 20
32.1155952441
 30
0.0
  0
SPLINE
  5
385
100
AcDbEntity
  8
0
100
AcDbSpline
 62
7
  6
BYLAYER
 70
0
 71
3
 72
11
 73
7
 74
0
 42
0.0000001
 43
0.0000001
 44
0.0000000001
 40
0.0
 40
0.0
 40
0.0
 40
0.0
 40
0.2878942834
 40
0.5404009414
 40
0.7706216972
 40
1.0
 40
1.0
 40
1.0
 40
1.0
 10
17.0532239653
 20
32.0139621795
 30
0.0
 10
17.0532239653
 20
32.0018873211
 30
0.0
 10
17.0506434438
 20
31.9790601982
 30
0.0
 10
17.0373274814
 20
31.9488906883
 30
0.0
 10
17.0152676042
 20
31.9276136342
 30
0.0
 10
16.9968454634
 20
31.9204156301
 30
0.0
 10
16.9874388873
 20
31.9183977297
 30
0.0
  0
SPLINE
  5
386
100
AcDbEntity
  8
0
100
AcDbSpline
 62
7
  6
BYLAYER
 70
0
 71
3
 72
15
 73
11
 74
0
 42
0.0000001
 43
0.0000001
 44
0.0000000001
 40
0.0
 40
0.0
 40
0.0
 40
0.0
 40
0.2280639965
 40
0.431316774
 40
0.606180883
 40
0.749352556
 40
0.8598177075
 40
0.9377732976
 40
0.9836326977
 40
1.0
 40
1.0
 40
1.0
 40
1.0
 10
11.3922447639
 20
32.1155806153
 30
0.0
 10
11.3922447639
 20
32.1095464206
 30
0.0
 10
11.3922067266
 20
32.0981365916
 30
0.0
 10
11.3920145989
 20
32.0820904919
 30
0.0
 10
11.3917154171
 20
32.0683258053
 30
0.0
 10
11.3912701112
 20
32.0569273974
 30
0.0
 10
11.3908114306
 20
32.0483415523
 30
0.0
 10
11.3900853305
 20
32.0417837098
 30
0.0
 10
11.389707928
 20
32.0387881417
 30
0.0
 10
11.3888842398
 20
32.0365139277
 30
0.0
 10
11.3884659864
 20
32.036626168
 30
0.0
  0
SPLINE
  5
387
100
AcDbEntity
  8
0
100
AcDbSpline
 62
7
  6
BYLAYER
 70
0
 71
3
 72
11
 73
7
 74
0
 42
0.0000001
 43
0.0000001
 44
0.0000000001
 40
0.0
 40
0.0
 40
0.0
 40
0.0
 40
0.2292294851
 40
0.4676970765
 40
0.7231352183
 40
1.0
 40
1.0
 40
1.0
 40
1.0
 10
35.6938281569
 20
45.3868262904
 30
0.0
 10
35.6451197144
 20
45.4149427415
 30
0.0
 10
35.5379271663
 20
45.4597333593
 30
0.0
 10
35.3609815515
 20
45.4864709501
 30
0.0
 10
35.1710561353
 20
45.4736348348
 30
0.0
 10
35.0438840332
 20
45.4408848815
 30
0.0
 10
34.9795550248
 20
45.419067038
 30
0.0
  0
SPLINE
  5
388
100
AcDbEntity
  8
0
100
AcDbSpline
 62
7
  6
BYLAYER
 70
0
 71
3
 72
10
 73
6
 74
0
 42
0.0000001
 43
0.0000001
 44
0.0000000001
 40
0.0
 40
0.0
 40
0.0
 40
0.0
 40
0.272675249
 40
0.5302705224
 40
1.0
 40
1.0
 40
1.0
 40
1.0
 10
18.9253449616
 20
30.1516455509
 30
0.0
 10
19.0787054323
 20
30.2401877314
 30
0.0
 10
19.3696575407
 20
30.4258577255
 30
0.0
 10
19.8794035183
 20
30.8288110899
 30
0.0
 10
20.201053588
 20
31.1841031292
 30
0.0
 10
20.3690839308
 20
31.4387145431
 30
0.0
  0
SPLINE
  5
389
100
AcDbEntity
  8
0
100
AcDbSpline
 62
7
  6
BYLAYER
 70
0
 71
3
 72
11
 73
7
 74
0
 42
0.0000001
 43
0.0000001
 44
0.0000000001
 40
0.0
 40
0.0
 40
0.0
 40
0.0
 40
0.2786315281
 40
0.5375385444
 40
0.7772326334
 40
1.0
 40
1.0
 40
1.0
 40
1.0
 10
18.2764050863
 20
28.5933781248
 30
0.0
 10
18.4461199831
 20
28.6889925059
 30
0.0
 10
18.7637919226
 20
28.8917642466
 30
0.0
 10
19.1811477998
 20
29.242509005
 30
0.0
 10
19.514701698
 20
29.6236112795
 30
0.0
 10
19.6822339815
 20
29.9029148572
 30
0.0
 10
19.7477961781
 20
30.0441824524
 30
0.0
  0
SPLINE
  5
38A
100
AcDbEntity
  8
0
100
AcDbSpline
 62
7
  6
BYLAYER
 70
0
 71
3
 72
11
 73
7
 74
0
 42
0.0000001
 43
0.0000001
 44
0.0000000001
 40
0.0
 40
0.0
 40
0.0
 40
0.0
 40
0.2651635728
 40
0.5217540791
 40
0.7673476735
 40
1.0
 40
1.0
 40
1.0
 40
1.0
 10
15.8587250732
 20
27.798839606
 30
0.0
 10
16.0821159342
 20
27.8333983739
 30
0.0
 10
16.5192971076
 20
27.9181789396
 30
0.0
 10
17.1500212927
 20
28.0945244241
 30
0.0
 10
17.7369697636
 20
28.3157656808
 30
0.0
 10
18.1036082462
 20
28.4960274311
 30
0.0
 10
18.2764050863
 20
28.5933781248
 30
0.0
  0
SPLINE
  5
38B
100
AcDbEntity
  8
0
100
AcDbSpline
 62
7
  6
BYLAYER
 70
0
 71
3
 72
9
 73
5
 74
0
 42
0.0000001
 43
0.0000001
 44
0.0000000001
 40
0.0
 40
0.0
 40
0.0
 40
0.0
 40
0.2087411392
 40
1.0
 40
1.0
 40
1.0
 40
1.0
 10
19.7477961781
 20
30.0441824523
 30
0.0
 10
19.745942615
 20
30.0590493039
 30
0.0
 10
19.7364564422
 20
30.1301957914
 30
0.0
 10
19.7251815232
 20
30.2010846013
 30
0.0
 10
19.7169253027
 20
30.2572721902
 30
0.0
  0
SPLINE
  5
38C
100
AcDbEntity
  8
0
100
AcDbSpline
 62
7
  6
BYLAYER
 70
0
 71
3
 72
9
 73
5
 74
0
 42
0.0000001
 43
0.0000001
 44
0.0000000001
 40
0.0
 40
0.0
 40
0.0
 40
0.0
 40
0.2551043725
 40
1.0
 40
1.0
 40
1.0
 40
1.0
 10
36.2116061719
 20
41.0097112586
 30
0.0
 10
36.1881914867
 20
41.0500709493
 30
0.0
 10
36.09310985
 20
41.2063321329
 30
0.0
 10
35.9844627926
 20
41.3544300296
 30
0.0
 10
35.8962060702
 20
41.4582258156
 30
0.0
  0
SPLINE
  5
38D
100
AcDbEntity
  8
0
100
AcDbSpline
 62
7
  6
BYLAYER
 70
0
 71
3
 72
11
 73
7
 74
0
 42
0.0000001
 43
0.0000001
 44
0.0000000001
 40
0.0
 40
0.0
 40
0.0
 40
0.0
 40
0.2517347058
 40
0.4984980524
 40
0.7461098627
 40
1.0
 40
1.0
 40
1.0
 40
1.0
 10
35.8962060702
 20
41.4582258156
 30
0.0
 10
35.7908259883
 20
41.5821598132
 30
0.0
 10
35.5604528449
 20
41.8102754965
 30
0.0
 10
35.1584522368
 20
42.081553673
 30
0.0
 10
34.7111810644
 20
42.2725129362
 30
0.0
 10
34.3929158989
 20
42.343484028
 30
0.0
 10
34.2303494944
 20
42.3656628041
 30
0.0
  0
SPLINE
  5
38E
100
AcDbEntity
  8
0
100
AcDbSpline
 62
7
  6
BYLAYER
 70
0
 71
3
 72
14
 73
10
 74
0
 42
0.0000001
 43
0.0000001
 44
0.0000000001
 40
0.0
 40
0.0
 40
0.0
 40
0.0
 40
0.1261429762
 40
0.2650186024
 40
0.545329668
 40
0.6760958481
 40
0.7966794505
 40
0.9052059368
 40
1.0
 40
1.0
 40
1.0
 40
1.0
 10
20.1178454597
 20
30.5635221883
 30
0.0
 10
20.1178475276
 20
30.530890423
 30
0.0
 10
20.1159529428
 20
30.4623288846
 30
0.0
 10
20.1066452612
 20
30.3215526028
 30
0.0
 10
20.0898116115
 20
30.1801076978
 30
0.0
 10
20.0648405328
 20
30.0448182497
 30
0.0
 10
20.0433005343
 20
29.9541939789
 30
0.0
 10
20.0188991672
 20
29.8739782635
 30
0.0
 10
19.9996058514
 20
29.82494182
 30
0.0
 10
19.9892779039
 20
29.8027006511
 30
0.0
  0
SPLINE
  5
38F
100
AcDbEntity
  8
0
100
AcDbSpline
 62
7
  6
BYLAYER
 70
0
 71
3
 72
14
 73
10
 74
0
 42
0.0000001
 43
0.0000001
 44
0.0000000001
 40
0.0
 40
0.0
 40
0.0
 40
0.0
 40
0.1419500691
 40
0.2780248959
 40
0.5333296458
 40
0.6541551383
 40
0.7714837034
 40
0.8863714892
 40
1.0
 40
1.0
 40
1.0
 40
1.0
 10
9.6850749398
 20
27.6480921732
 30
0.0
 10
9.606025632
 20
27.7149982685
 30
0.0
 10
9.4561857145
 20
27.8521771735
 30
0.0
 10
9.1925807869
 20
28.138738562
 30
0.0
 10
8.9781438438
 20
28.4486201087
 30
0.0
 10
8.8256567856
 20
28.775502072
 30
0.0
 10
8.7448349062
 20
29.0207564313
 30
0.0
 10
8.696065766
 20
29.2689697947
 30
0.0
 10
8.6852094498
 20
29.435889746
 30
0.0
 10
8.6852096955
 20
29.5187897944
 30
0.0
  0
SPLINE
  5
390
100
AcDbEntity
  8
0
100
AcDbSpline
 62
7
  6
BYLAYER
 70
0
 71
3
 72
16
 73
12
 74
0
 42
0.0000001
 43
0.0000001
 44
0.0000000001
 40
0.0
 40
0.0
 40
0.0
 40
0.0
 40
0.0550682454
 40
0.112370192
 40
0.2327192959
 40
0.3592679083
 40
0.4897378214
 40
0.6216033922
 40
0.7522540708
 40
0.879153168
 40
1.0
 40
1.0
 40
1.0
 40
1.0
 10
18.4929309104
 20
27.1667105642
 30
0.0
 10
18.3732121896
 20
27.0978688827
 30
0.0
 10
18.1234845853
 20
26.9666652803
 30
0.0
 10
17.5891732245
 20
26.731018929
 30
0.0
 10
16.8627443787
 20
26.4914308643
 30
0.0
 10
15.93479748
 20
26.2970411191
 30
0.0
 10
14.9630293791
 20
26.1966865493
 30
0.0
 10
13.9759074341
 20
26.1932914305
 30
0.0
 10
13.0021315344
 20
26.2869702158
 30
0.0
 10
12.0702842619
 20
26.4749304401
 30
0.0
 10
11.4770301938
 20
26.6652800383
 30
0.0
 10
11.1950481134
 20
26.7763284769
 30
0.0
  0
SPLINE
  5
391
100
AcDbEntity
  8
0
100
AcDbSpline
 62
7
  6
BYLAYER
 70
0
 71
3
 72
14
 73
10
 74
0
 42
0.0000001
 43
0.0000001
 44
0.0000000001
 40
0.0
 40
0.0
 40
0.0
 40
0.0
 40
0.1077672102
 40
0.218604576
 40
0.3337764901
 40
0.4542860571
 40
0.7136160144
 40
0.853491295
 40
1.0
 40
1.0
 40
1.0
 40
1.0
 10
27.4190902569
 20
29.3437281605
 30
0.0
 10
27.5350949706
 20
29.2984678582
 30
0.0
 10
27.7776704393
 20
29.2242912696
 30
0.0
 10
28.1599426122
 20
29.16510464
 30
0.0
 10
28.5613850681
 20
29.1569511527
 30
0.0
 10
29.1315229911
 20
29.2153792876
 30
0.0
 10
29.7146934153
 20
29.3780576261
 30
0.0
 10
30.2946719295
 20
29.6263588978
 30
0.0
 10
30.5875772838
 20
29.7813404555
 30
0.0
 10
30.7341834366
 20
29.8659830521
 30
0.0
  0
SPLINE
  5
392
100
AcDbEntity
  8
0
100
AcDbSpline
 62
7
  6
BYLAYER
 70
0
 71
3
 72
15
 73
11
 74
0
 42
0.0000001
 43
0.0000001
 44
0.0000000001
 40
0.0
 40
0.0
 40
0.0
 40
0.0
 40
0.1090174168
 40
0.2199246535
 40
0.3344475635
 40
0.4540333524
 40
0.5797783971
 40
0.7124610847
 40
0.8525439242
 40
1.0
 40
1.0
 40
1.0
 40
1.0
 10
35.0911240231
 20
41.7402904186
 30
0.0
 10
35.2055629915
 20
41.6742164721
 30
0.0
 10
35.4259071133
 20
41.5217179495
 30
0.0
 10
35.719066588
 20
41.2394144701
 30
0.0
 10
35.9736779194
 20
40.905718187
 30
0.0
 10
36.1874144481
 20
40.5239748343
 30
0.0
 10
36.3588155005
 20
40.0978249418
 30
0.0
 10
36.4866062726
 20
39.6309848624
 30
0.0
 10
36.569787683
 20
39.1276651443
 30
0.0
 10
36.5946231294
 20
38.7794865008
 30
0.0
 10
36.6000172347
 20
38.6008309722
 30
0.0
  0
ELLIPSE
  5
393
100
AcDbEntity
  8
0
100
AcDbEllipse
 62
7
  6
BYLAYER
 10
30.9462102891
 20
35.7040397061
 30
0.0
 11
19.0907442937
 21
-3.3473986706
 31
0.0
 40
0.1658427529
 41
1.7011642489
 42
1.735417522
  0
ELLIPSE
  5
394
100
AcDbEntity
  8
0
100
AcDbEllipse
 62
7
  6
BYLAYER
 10
30.9462102891
 20
35.7040397061
 30
0.0
 11
18.8553803984
 21
-8.9026918941
 31
0.0
 40
0.3414278156
 41
7.8440103727
 42
7.8582116758
  0
ELLIPSE
  5
395
100
AcDbEntity
  8
0
100
AcDbEllipse
 62
7
  6
BYLAYER
 10
30.9462102891
 20
35.7040397061
 30
0.0
 11
15.3443503722
 21
-1.314676855
 31
0.0
 40
0.2334929648
 41
1.2135243477
 42
1.2477776208
  0
ELLIPSE
  5
396
100
AcDbEntity
  8
0
100
AcDbEllipse
 62
7
  6
BYLAYER
 10
30.9462102891
 20
35.7040397061
 30
0.0
 11
9.1533503352
 21
-9.2311650332
 31
0.0
 40
0.5142831053
 41
-1.3453285794
 42
-1.3110753063
  0
ELLIPSE
  5
397
100
AcDbEntity
  8
0
100
AcDbEllipse
 62
7
  6
BYLAYER
 10
30.9462102891
 20
35.7040397061
 30
0.0
 11
14.8346427837
 21
-14.0052828808
 31
0.0
 40
0.2808970456
 41
4.6428575302
 42
4.6628469554
  0
ELLIPSE
  5
398
100
AcDbEntity
  8
0
100
AcDbEllipse
 62
7
  6
BYLAYER
 10
30.9462102891
 20
35.7040397061
 30
0.0
 11
14.8346427837
 21
-14.0052828808
 31
0.0
 40
0.2808970456
 41
1.4527477556
 42
1.4870010287
  0
ELLIPSE
  5
399
100
AcDbEntity
  8
0
100
AcDbEllipse
 62
7
  6
BYLAYER
 10
30.9462102891
 20
35.7040397061
 30
0.0
 11
18.8553803984
 21
-8.9026918941
 31
0.0
 40
0.3414278156
 41
-1.546514315
 42
-1.5122610419
  0
ENDSEC
  0
SECTION
  2
OBJECTS
  0
DICTIONARY
  5
C
100
AcDbDictionary
280
0
281
1
  3
ACAD_GROUP
350
D
  3
ACAD_MLINESTYLE
350
17
  3
ACAD_LAYOUT
350
1A
  3
ACAD_PLOTSETTINGS
350
19
  3
ACAD_PLOTSTYLENAME
350
E
  0
DICTIONARY
  5
D
102
{ACAD_REACTORS
330
C
102
}
100
AcDbDictionary
280
0
281
1
  0
ACDBDICTIONARYWDFLT
  5
E
102
{ACAD_REACTORS
330
C
102
}
100
AcDbDictionary
281
1
  3
Normal
350
F
100
AcDbDictionaryWithDefault
340
F
  0
DICTIONARY
  5
17
102
{ACAD_REACTORS
330
C
102
}
100
AcDbDictionary
280
0
281
1
  3
Standard
350
18
  0
DICTIONARY
  5
19
102
{ACAD_REACTORS
330
C
102
}
100
AcDbDictionary
281
1
  0
DICTIONARY
  5
1A
102
{ACAD_REACTORS
330
C
102
}
100
AcDbDictionary
281
1
  3
Model
350
39A
  3
Layout1
350
39B
  0
ACDBPLACEHOLDER
  5
F
102
{ACAD_REACTORS
330
E
102
}
  0
MLINESTYLE
  5
18
102
{ACAD_REACTORS
330
17
102
}
100
AcDbMlineStyle
  2
STANDARD
 70
0
  3

 62
256
 51
90.0
 52
90.0
 71
2
 49
0.5
 62
256
  6
BYLAYER
 49
-0.5
 62
256
  6
BYLAYER
  0
LAYOUT
  5
39A
102
{ACAD_REACTORS
330
1A
102
}
100
AcDbPlotSettings
  1

  2
none_device
  4

  6

 40
0.0
 41
0.0
 42
0.0
 43
0.0
 44
210.0
 45
297.0
 46
0.0
 47
0.0
 48
0.0
 49
0.0
140
0.0
141
0.0
142
1.0
143
1.0
 70
1024
 72
1
 73
0
 74
0
  7

 75
0
147
1.0
148
0.0
149
0.0
100
AcDbLayout
  1
Model
 70
0
 71
0
 10
0.0
 20
0.0
 11
210.0
 21
297.0
 12
0.0
 22
0.0
 32
0.0
 14
0.0
 24
0.0
 34
0.0
 15
0.0
 25
0.0
 35
0.0
146
0.0
 13
0.0
 23
0.0
 33
0.0
 16
1.0
 26
0.0
 36
0.0
 17
0.0
 27
1.0
 37
0.0
 76
0
330
210
345
0
346
0
  0
LAYOUT
  5
39B
102
{ACAD_REACTORS
330
1A
102
}
100
AcDbPlotSettings
  1

  2
none_device
  4

  6

 40
0.0
 41
0.0
 42
0.0
 43
0.0
 44
210.0
 45
297.0
 46
0.0
 47
0.0
 48
0.0
 49
0.0
140
0.0
141
0.0
142
1.0
143
1.0
 70
0
 72
1
 73
0
 74
0
  7

 75
0
147
1.0
148
0.0
149
0.0
100
AcDbLayout
  1
Layout1
 70
0
 71
1
 10
0.0
 20
0.0
 11
210.0
 21
297.0
 12
0.0
 22
0.0
 32
0.0
 14
0.0
 24
0.0
 34
0.0
 15
0.0
 25
0.0
 35
0.0
146
0.0
 13
0.0
 23
0.0
 33
0.0
 16
1.0
 26
0.0
 36
0.0
 17
0.0
 27
1.0
 37
0.0
 76
0
330
211
345
0
346
0
  0
ENDSEC
  0
EOF
