999
DXF file: C:\Users\sesa63760\Dev\_Creo\CAD\MCADID0004763_3D-CAD\drw0001_1.dxf
999
Pro/ENGINEER 2019471 by Parametric Technology Corporation
  0
SECTION
  2
HEADER
  9
$ACADVER
  1
AC1024
  9
$DWGCODEPAGE
  3
ANSI_1252
  9
$EXTMAX
 10
143.0436988243
 20
202.3046597658
 30
0.0
  9
$EXTMIN
 10
0.0
 20
0.0
 30
0.0
  9
$LIMMIN
 10
0.0
 20
0.0
  9
$LIMMAX
 10
143.0436988243
 20
202.3046597658
  9
$VIEWCTR
 10
71.5218494121
 20
101.1523298829
  9
$VIEWSIZE
 40
202.3046597658
  9
$CLAYER
  8
0
  9
$LTSCALE
 40
13.1872667107
  9
$CELTYPE
  6
BYLAYER
  9
$DIMSCALE
 40
1.0
  9
$DIMASZ
 40
1.7029011765
  9
$DIMEXO
 40
1.0
  9
$DIMDLI
 40
9.1112024546
  9
$DIMEXE
 40
1.0
  9
$DIMCEN
 40
2.1579163708
  9
$DIMLFAC
 40
1.0
  9
$DIMBLK
  1
_FILLED
  9
$DIMALT
 70
0
  9
$DIMALTF
 40
0.0393700787
  9
$DIMTXT
 40
2.3840616471
  9
$DIMTOL
 70
1
  9
$DIMLIM
 70
0
  9
$DIMTFAC
 40
1.0
  9
$DIMTP
 40
0.01
  9
$DIMTM
 40
0.01
  9
$DIMGAP
 40
0.625
  9
$DIMDSEP
 70
46
  9
$AUNITS
 70
0
  9
$PDMODE
 70
3
  9
$PDSIZE
 40
0.3125
  9
$HANDSEED
  5
39D
  9
$TILEMODE
 70
1
  9
$MEASUREMENT
 70
1
  9
$INSUNITS
 70
4
  0
ENDSEC
  0
SECTION
  2
CLASSES
  0
CLASS
  1
ACDBDICTIONARYWDFLT
  2
AcDbDictionaryWithDefault
  3
AutoCAD 2000
 90
0
 91
1
280
0
281
0
  0
CLASS
  1
ACDBPLACEHOLDER
  2
AcDbPlaceHolder
  3
AutoCAD 2000
 90
0
 91
1
280
0
281
0
  0
CLASS
  1
LAYOUT
  2
AcDbLayout
  3
AutoCAD 2000
 90
0
 91
0
280
0
281
0
  0
ENDSEC
  0
SECTION
  2
TABLES
  0
TABLE
  2
VPORT
  5
8
100
AcDbSymbolTable
 70
2
  0
VPORT
  5
1F4
100
AcDbSymbolTableRecord
100
AcDbViewportTableRecord
  2
*ACTIVE
 70
0
 10
0.0
 20
0.0
 11
1.0
 21
1.0
 12
71.5218494121
 22
101.1523298829
 13
0.0
 23
0.0
 14
1.0
 24
1.0
 15
0.0
 25
0.0
 16
0.0
 26
0.0
 36
1.0
 17
0.0
 27
0.0
 37
0.0
 40
202.3046597658
 41
0.7070707071
 42
50.0
 43
0.0
 44
0.0
 50
0.0
 51
0.0
 71
0
 72
100
 73
1
 74
1
 75
0
 76
0
 77
0
 78
0
  0
ENDTAB
  0
TABLE
  2
LTYPE
  5
5
100
AcDbSymbolTable
 70
6
  0
LTYPE
  5
14
100
AcDbSymbolTableRecord
100
AcDbLinetypeTableRecord
  2
BYBLOCK
 70
0
  3

 72
65
 73
0
 40
0.0
  0
LTYPE
  5
15
100
AcDbSymbolTableRecord
100
AcDbLinetypeTableRecord
  2
BYLAYER
 70
0
  3

 72
65
 73
0
 40
0.0
  0
LTYPE
  5
16
100
AcDbSymbolTableRecord
100
AcDbLinetypeTableRecord
  2
CONTINUOUS
 70
64
  3
Solid line
 72
65
 73
0
 40
0.0
  0
LTYPE
  5
1F5
100
AcDbSymbolTableRecord
100
AcDbLinetypeTableRecord
  2
CENTER
 70
64
  3
____ _ ____ _ ____ _ ____ _ ____ _ ____ _ ____
 72
65
 73
4
 40
0.6
 49
0.375
 74
0
 49
-0.075
 74
0
 49
0.075
 74
0
 49
-0.075
 74
0
  0
LTYPE
  5
1F6
100
AcDbSymbolTableRecord
100
AcDbLinetypeTableRecord
  2
HIDDEN
 70
64
  3
- - - - - - - - - - - - - - - - - - - -
 72
65
 73
2
 40
0.2
 49
0.1
 74
0
 49
-0.1
 74
0
  0
LTYPE
  5
1F7
100
AcDbSymbolTableRecord
100
AcDbLinetypeTableRecord
  2
PHANTOM
 70
64
  3
_____ _ _ _____ _ _ _____ _ _ _____
 72
65
 73
6
 40
0.8
 49
0.45
 74
0
 49
-0.05
 74
0
 49
0.1
 74
0
 49
-0.05
 74
0
 49
0.1
 74
0
 49
-0.05
 74
0
  0
LTYPE
  5
1F8
100
AcDbSymbolTableRecord
100
AcDbLinetypeTableRecord
  2
DOT
 70
64
  3
. . . . . . . . . . . . . . . . . . . .
 72
65
 73
2
 40
0.2
 49
0.1
 74
0
 49
-0.1
 74
0
  0
LTYPE
  5
1F9
100
AcDbSymbolTableRecord
100
AcDbLinetypeTableRecord
  2
DASHED
 70
64
  3
- - - - - - - - - - - - - - - - - - - -
 72
65
 73
2
 40
0.2
 49
0.1
 74
0
 49
-0.1
 74
0
  0
ENDTAB
  0
TABLE
  2
LAYER
  5
2
100
AcDbSymbolTable
 70
36
  0
LAYER
  5
10
100
AcDbSymbolTableRecord
100
AcDbLayerTableRecord
  2
0
 70
0
 62
7
  6
CONTINUOUS
370
-3
390
F
  0
LAYER
  5
1FA
100
AcDbSymbolTableRecord
100
AcDbLayerTableRecord
  2
DEFAULT_1
 70
0
 62
7
  6
CENTER
370
-3
390
F
  0
LAYER
  5
1FB
100
AcDbSymbolTableRecord
100
AcDbLayerTableRecord
  2
DEFAULT_2
 70
0
 62
7
  6
HIDDEN
370
-3
390
F
  0
LAYER
  5
1FC
100
AcDbSymbolTableRecord
100
AcDbLayerTableRecord
  2
DEFAULT_3
 70
0
 62
7
  6
PHANTOM
370
-3
390
F
  0
LAYER
  5
1FD
100
AcDbSymbolTableRecord
100
AcDbLayerTableRecord
  2
00_COMPONENTS
 70
0
 62
7
  6
CONTINUOUS
370
-3
390
F
  0
LAYER
  5
1FE
100
AcDbSymbolTableRecord
100
AcDbLayerTableRecord
  2
01_1_DEFAULT_DATUMS
 70
0
 62
7
  6
CONTINUOUS
370
-3
390
F
  0
LAYER
  5
1FF
100
AcDbSymbolTableRecord
100
AcDbLayerTableRecord
  2
01_PLANES
 70
0
 62
7
  6
CONTINUOUS
370
-3
390
F
  0
LAYER
  5
200
100
AcDbSymbolTableRecord
100
AcDbLayerTableRecord
  2
02_COORD_SYS
 70
0
 62
7
  6
CONTINUOUS
370
-3
390
F
  0
LAYER
  5
201
100
AcDbSymbolTableRecord
100
AcDbLayerTableRecord
  2
03_AXES
 70
0
 62
7
  6
CONTINUOUS
370
-3
390
F
  0
LAYER
  5
202
100
AcDbSymbolTableRecord
100
AcDbLayerTableRecord
  2
04_POINTS
 70
0
 62
7
  6
CONTINUOUS
370
-3
390
F
  0
LAYER
  5
203
100
AcDbSymbolTableRecord
100
AcDbLayerTableRecord
  2
05_CURVES
 70
0
 62
7
  6
CONTINUOUS
370
-3
390
F
  0
LAYER
  5
204
100
AcDbSymbolTableRecord
100
AcDbLayerTableRecord
  2
06_SURFS
 70
0
 62
7
  6
CONTINUOUS
370
-3
390
F
  0
LAYER
  5
205
100
AcDbSymbolTableRecord
100
AcDbLayerTableRecord
  2
07_COSMETICS
 70
0
 62
7
  6
CONTINUOUS
370
-3
390
F
  0
LAYER
  5
206
100
AcDbSymbolTableRecord
100
AcDbLayerTableRecord
  2
10_NOTES
 70
0
 62
7
  6
CONTINUOUS
370
-3
390
F
  0
LAYER
  5
207
100
AcDbSymbolTableRecord
100
AcDbLayerTableRecord
  2
11_NOTES_PUB
 70
0
 62
7
  6
CONTINUOUS
370
-3
390
F
  0
LAYER
  5
208
100
AcDbSymbolTableRecord
100
AcDbLayerTableRecord
  2
13_REF_GTOL
 70
0
 62
7
  6
CONTINUOUS
370
-3
390
F
  0
LAYER
  5
209
100
AcDbSymbolTableRecord
100
AcDbLayerTableRecord
  2
16_MISC
 70
0
 62
7
  6
CONTINUOUS
370
-3
390
F
  0
LAYER
  5
20A
100
AcDbSymbolTableRecord
100
AcDbLayerTableRecord
  2
17_NO_PRINT
 70
0
 62
7
  6
CONTINUOUS
370
-3
390
F
  0
LAYER
  5
20B
100
AcDbSymbolTableRecord
100
AcDbLayerTableRecord
  2
18_DATUM_CAMS_JOINTS
 70
0
 62
7
  6
CONTINUOUS
370
-3
390
F
  0
LAYER
  5
20C
100
AcDbSymbolTableRecord
100
AcDbLayerTableRecord
  2
19_DATUM_FUNCTIONAL
 70
0
 62
7
  6
CONTINUOUS
370
-3
390
F
  0
LAYER
  5
20D
100
AcDbSymbolTableRecord
100
AcDbLayerTableRecord
  2
20_DATUM_KINEMATIC_SCHEME
 70
0
 62
7
  6
CONTINUOUS
370
-3
390
F
  0
ENDTAB
  0
TABLE
  2
STYLE
  5
3
100
AcDbSymbolTable
 70
1
  0
STYLE
  5
11
100
AcDbSymbolTableRecord
100
AcDbTextStyleTableRecord
  2
STANDARD
 70
0
 40
0.0
 41
1.0
 50
0.0
 71
0
 42
0.2
  3
ARIAL.TTF
  4

  0
STYLE
  5
20E
100
AcDbSymbolTableRecord
100
AcDbTextStyleTableRecord
  2
TEXTSTYLE_1
 70
0
 40
0.0
 41
0.8
 50
0.0
 71
0
 42
0.2
  3
gdt
  4

  0
ENDTAB
  0
TABLE
  2
VIEW
  5
6
100
AcDbSymbolTable
 70
0
  0
ENDTAB
  0
TABLE
  2
UCS
  5
7
100
AcDbSymbolTable
 70
0
  0
ENDTAB
  0
TABLE
  2
APPID
  5
9
100
AcDbSymbolTable
 70
1
  0
APPID
  5
20F
100
AcDbSymbolTableRecord
100
AcDbRegAppTableRecord
  2
ACAD
 70
0
  0
ENDTAB
  0
TABLE
  2
BLOCK_RECORD
  5
1
100
AcDbSymbolTable
 70
0
  0
BLOCK_RECORD
  5
210
100
AcDbSymbolTableRecord
100
AcDbBlockTableRecord
  2
*Model_Space
  0
BLOCK_RECORD
  5
211
100
AcDbSymbolTableRecord
100
AcDbBlockTableRecord
  2
*Paper_Space
  0
BLOCK_RECORD
  5
212
100
AcDbSymbolTableRecord
100
AcDbBlockTableRecord
  2
_FILLED
  0
ENDTAB
  0
TABLE
  2
DIMSTYLE
  5
A
100
AcDbSymbolTable
 70
1
100
AcDbDimStyleTable
 71
0
  0
DIMSTYLE
105
213
100
AcDbSymbolTableRecord
100
AcDbDimStyleTableRecord
  2
STANDARD
 70
0
  3

  4

 40
1.0
 41
1.7029011765
 42
1.0
 43
0.38
 44
1.0
 45
0.0
 46
0.0
 47
0.01
 48
0.01
140
2.3840616471
141
0.09
142
0.0
143
25.4
144
1.0
145
0.0
146
1.0
147
0.625
 71
1
 72
0
 73
0
 74
0
 75
0
 76
0
 77
1
 78
8
 79
2
170
0
171
1
172
0
173
0
174
0
175
0
176
0
177
0
178
0
270
2
179
2
271
2
272
2
273
2
274
2
275
0
280
0
281
0
282
0
283
1
284
8
285
0
286
0
287
3
288
0
340
11
278
46
341
212
342
212
343
212
344
212
  0
ENDTAB
  0
ENDSEC
  0
SECTION
  2
BLOCKS
  0
BLOCK
  5
20
100
AcDbEntity
  8
0
100
AcDbBlockBegin
  2
*Model_Space
 70
0
 10
0.0
 20
0.0
 30
0.0
  3
*Model_Space
  1

  0
ENDBLK
  5
21
100
AcDbEntity
  8
0
100
AcDbBlockEnd
  0
BLOCK
  5
1C
100
AcDbEntity
  8
0
100
AcDbBlockBegin
  2
*Paper_Space
 70
0
 10
0.0
 20
0.0
 30
0.0
  3
*Paper_Space
  1

  0
ENDBLK
  5
1D
100
AcDbEntity
  8
0
100
AcDbBlockEnd
  0
BLOCK
  5
214
100
AcDbEntity
  8
0
100
AcDbBlockBegin
  2
_FILLED
 70
64
 10
0.0
 20
0.0
  3
_FILLED
  1

  0
SOLID
  5
215
100
AcDbEntity
  8
0
  6
BYBLOCK
 62
0
100
AcDbTrace
 10
0.0
 20
0.0
 11
-1.0
 21
0.25
 12
-1.0
 22
-0.25
 13
-1.0
 23
-0.25
  0
ENDBLK
  5
216
100
AcDbEntity
  8
0
  6
BYBLOCK
 62
0
100
AcDbBlockEnd
  0
ENDSEC
  0
SECTION
  2
ENTITIES
  0
LINE
  5
217
100
AcDbEntity
  8
0
100
AcDbLine
 62
7
  6
BYLAYER
 10
18.1492251539
 20
73.9121966582
 11
17.7992236967
 21
74.5184135996
  0
LINE
  5
218
100
AcDbEntity
  8
0
100
AcDbLine
 62
7
  6
BYLAYER
 10
17.8230617514
 20
74.5321772887
 11
18.1730632086
 21
73.9259603474
  0
LINE
  5
219
100
AcDbEntity
  8
0
100
AcDbLine
 62
7
  6
BYLAYER
 10
18.3341409816
 20
74.8272659219
 11
18.6841424388
 21
74.2210489806
  0
LINE
  5
21A
100
AcDbEntity
  8
0
100
AcDbLine
 62
7
  6
BYLAYER
 10
16.5947159981
 20
74.4802145774
 11
16.5947148205
 21
74.6435101993
  0
LINE
  5
21B
100
AcDbEntity
  8
0
100
AcDbLine
 62
7
  6
BYLAYER
 10
16.5947159981
 20
90.81026292
 11
16.5947148205
 21
90.9735585419
  0
LINE
  5
21C
100
AcDbEntity
  8
0
100
AcDbLine
 62
7
  6
BYLAYER
 10
16.9999685812
 20
82.9116514371
 11
18.3149186424
 21
80.6341037358
  0
LINE
  5
21D
100
AcDbEntity
  8
0
100
AcDbLine
 62
7
  6
BYLAYER
 10
23.7033855691
 20
71.3010570534
 11
25.0183356554
 21
69.0235093664
  0
LINE
  5
21E
100
AcDbEntity
  8
0
100
AcDbLine
 62
7
  6
BYLAYER
 10
26.0183398195
 20
69.6008785469
 11
24.7033897658
 21
71.8784262823
  0
LINE
  5
21F
100
AcDbEntity
  8
0
100
AcDbLine
 62
7
  6
BYLAYER
 10
19.3149228639
 20
81.2114729206
 11
17.9999727453
 21
83.4890206176
  0
LINE
  5
220
100
AcDbEntity
  8
0
100
AcDbLine
 62
7
  6
BYLAYER
 10
19.8601719818
 20
85.7375522891
 11
20.959186831
 21
83.8340132884
  0
LINE
  5
221
100
AcDbEntity
  8
0
100
AcDbLine
 62
7
  6
BYLAYER
 10
27.7967213846
 20
71.9911217943
 11
28.8957362916
 21
70.0875827061
  0
LINE
  5
222
100
AcDbEntity
  8
0
100
AcDbLine
 62
7
  6
BYLAYER
 10
19.6352495446
 20
96.6482732691
 11
19.6352495446
 21
93.2363275645
  0
LINE
  5
223
100
AcDbEntity
  8
0
100
AcDbLine
 62
7
  6
BYLAYER
 10
19.6352495446
 20
89.7722311188
 11
19.6352495446
 21
86.9426484051
  0
LINE
  5
224
100
AcDbEntity
  8
0
100
AcDbLine
 62
7
  6
BYLAYER
 10
22.1101412369
 20
91.8717242359
 11
22.1101424145
 21
91.708428614
  0
LINE
  5
225
100
AcDbEntity
  8
0
100
AcDbLine
 62
7
  6
BYLAYER
 10
17.6553794082
 20
72.8064056403
 11
17.5139586407
 21
72.888057293
  0
LINE
  5
226
100
AcDbEntity
  8
0
100
AcDbLine
 62
7
  6
BYLAYER
 10
31.7975739111
 20
64.6415905499
 11
31.6561531437
 21
64.7232422026
  0
LINE
  5
227
100
AcDbEntity
  8
0
100
AcDbLine
 62
7
  6
BYLAYER
 10
29.8268644311
 20
69.290183132
 11
32.2773820746
 21
67.8754081173
  0
LINE
  5
228
100
AcDbEntity
  8
0
100
AcDbLine
 62
7
  6
BYLAYER
 10
35.2774204858
 20
66.1433743168
 11
38.2323044795
 21
64.4374098417
  0
LINE
  5
229
100
AcDbEntity
  8
0
100
AcDbLine
 62
7
  6
BYLAYER
 10
32.6689975473
 20
69.3039945116
 11
33.4903211716
 21
68.5756946513
  0
LINE
  5
22A
100
AcDbEntity
  8
0
100
AcDbLine
 62
7
  6
BYLAYER
 10
36.3800928924
 20
66.3711705662
 11
36.2423906902
 21
66.6096764527
  0
LINE
  5
22B
100
AcDbEntity
  8
0
100
AcDbLine
 62
7
  6
BYLAYER
 10
20.5215432508
 20
93.8388318005
 11
20.3838410486
 21
94.0773376871
  0
LINE
  5
22C
100
AcDbEntity
  8
0
100
AcDbLine
 62
7
  6
BYLAYER
 10
20.8481487543
 20
90.472494624
 11
21.0682333522
 21
89.3969959633
  0
LINE
  5
22D
100
AcDbEntity
  8
0
100
AcDbLine
 62
7
  6
BYLAYER
 10
17.72765807
 20
84.1694084126
 11
18.0475678321
 21
84.9518141259
  0
LINE
  5
22E
100
AcDbEntity
  8
0
100
AcDbLine
 62
7
  6
BYLAYER
 10
35.3330930972
 20
68.9690180873
 11
35.1916723297
 21
69.0506697399
  0
LINE
  5
22F
100
AcDbEntity
  8
0
100
AcDbLine
 62
7
  6
BYLAYER
 10
20.8081033509
 20
94.3222841794
 11
20.9516069737
 21
94.0737299934
  0
LINE
  5
230
100
AcDbEntity
  8
0
100
AcDbLine
 62
7
  6
BYLAYER
 10
36.6608515719
 20
66.8646712445
 11
36.8043551947
 21
66.6161170585
  0
LINE
  5
231
100
AcDbEntity
  8
0
100
AcDbLine
 62
7
  6
BYLAYER
 10
21.1338441711
 20
94.5103645723
 11
21.2715463733
 21
94.2718586857
  0
LINE
  5
232
100
AcDbEntity
  8
0
100
AcDbLine
 62
7
  6
BYLAYER
 10
36.9923938127
 20
67.0427033379
 11
37.130096015
 21
66.8041974513
  0
LINE
  5
233
100
AcDbEntity
  8
0
100
AcDbLine
 62
7
  6
BYLAYER
 10
30.736910501
 20
66.315399487
 11
30.7369093234
 21
66.4786951089
  0
LINE
  5
234
100
AcDbEntity
  8
0
100
AcDbLine
 62
7
  6
BYLAYER
 10
30.736910501
 20
82.6454478296
 11
30.7369093234
 21
82.8087434515
  0
LINE
  5
235
100
AcDbEntity
  8
0
100
AcDbLine
 62
7
  6
BYLAYER
 10
44.730481869
 20
68.0341038317
 11
44.7375917959
 21
68.0299990064
  0
LINE
  5
236
100
AcDbEntity
  8
0
100
AcDbLine
 62
7
  6
BYLAYER
 10
37.1940968743
 20
67.8273280283
 11
36.4457037113
 21
71.4845391751
  0
LINE
  5
237
100
AcDbEntity
  8
0
100
AcDbLine
 62
7
  6
BYLAYER
 10
36.8699660137
 20
71.7294856675
 11
37.6183591766
 21
68.0722745207
  0
LINE
  5
238
100
AcDbEntity
  8
0
100
AcDbLine
 62
7
  6
BYLAYER
 10
36.2523357398
 20
67.3768608029
 11
36.2523369174
 21
67.213565181
  0
LINE
  5
239
100
AcDbEntity
  8
0
100
AcDbLine
 62
7
  6
BYLAYER
 10
36.2523357398
 20
83.7069091455
 11
36.2523369174
 21
83.5436135236
  0
LINE
  5
23A
100
AcDbEntity
  8
0
100
AcDbLine
 62
7
  6
BYLAYER
 10
18.1024651901
 20
84.8939021084
 11
18.0967378929
 21
84.8850017114
  0
LINE
  5
23B
100
AcDbEntity
  8
0
100
AcDbLine
 62
7
  6
BYLAYER
 10
26.4713519785
 20
69.0247959166
 11
27.3088894933
 21
68.9106387113
  0
LINE
  5
23C
100
AcDbEntity
  8
0
100
AcDbLine
 62
7
  6
BYLAYER
 10
17.6553794082
 20
89.1364539829
 11
17.5139586407
 21
89.2181056356
  0
LINE
  5
23D
100
AcDbEntity
  8
0
100
AcDbLine
 62
7
  6
BYLAYER
 10
31.7975739111
 20
80.9716388925
 11
31.6561531437
 21
81.0532905452
  0
LINE
  5
23E
100
AcDbEntity
  8
0
100
AcDbLine
 62
7
  6
BYLAYER
 10
24.8449395162
 20
91.5775406268
 11
22.051898208
 21
94.054239865
  0
LINE
  5
23F
100
AcDbEntity
  8
0
100
AcDbLine
 62
7
  6
BYLAYER
 10
22.4761605103
 20
94.2991863574
 11
25.2692018186
 21
91.8224871192
  0
LINE
  5
240
100
AcDbEntity
  8
0
100
AcDbLine
 62
7
  6
BYLAYER
 10
38.7272121236
 20
64.7231530723
 11
38.7272121236
 21
85.6257746782
  0
LINE
  5
241
100
AcDbEntity
  8
0
100
AcDbLine
 62
7
  6
BYLAYER
 10
21.1908985942
 20
93.4638815203
 11
21.0494778268
 21
93.5455331729
  0
LINE
  5
242
100
AcDbEntity
  8
0
100
AcDbLine
 62
7
  6
BYLAYER
 10
35.3330930972
 20
85.2990664299
 11
35.1916723297
 21
85.3807180825
  0
LINE
  5
243
100
AcDbEntity
  8
0
100
AcDbLine
 62
7
  6
BYLAYER
 10
43.3233870655
 20
67.3767400725
 11
43.3233870655
 21
88.2793640738
  0
LINE
  5
244
100
AcDbEntity
  8
0
100
AcDbLine
 62
7
  6
BYLAYER
 10
45.0557911722
 20
89.2794791165
 11
45.0557911722
 21
68.4586674797
  0
LINE
  5
245
100
AcDbEntity
  8
0
100
AcDbLine
 62
7
  6
BYLAYER
 10
45.0911466585
 20
68.2341298377
 11
45.0911466585
 21
89.463192683
  0
LINE
  5
246
100
AcDbEntity
  8
0
100
AcDbLine
 62
7
  6
BYLAYER
 10
45.7982504957
 20
68.6423739915
 11
45.7982504957
 21
89.8714368369
  0
LINE
  5
247
100
AcDbEntity
  8
0
100
AcDbLine
 62
7
  6
BYLAYER
 10
36.4457037113
 20
80.5190101588
 11
37.1940968743
 21
83.3120708671
  0
LINE
  5
248
100
AcDbEntity
  8
0
100
AcDbLine
 62
7
  6
BYLAYER
 10
37.6183591766
 20
83.5570173595
 11
36.8699660137
 21
80.7639566512
  0
LINE
  5
249
100
AcDbEntity
  8
0
100
AcDbLine
 62
7
  6
BYLAYER
 10
38.23230448
 20
86.482975104
 11
20.1301587318
 21
96.9340173904
  0
LINE
  5
24A
100
AcDbEntity
  8
0
100
AcDbLine
 62
7
  6
BYLAYER
 10
18.1040912125
 20
84.8919439772
 11
18.0967378929
 21
84.8850017114
  0
LINE
  5
24B
100
AcDbEntity
  8
0
100
AcDbLine
 62
7
  6
BYLAYER
 10
26.8098438985
 20
101.1228301798
 11
26.1027400613
 21
100.7145860259
  0
LINE
  5
24C
100
AcDbEntity
  8
0
100
AcDbLine
 62
7
  6
BYLAYER
 10
24.3763735221
 20
99.6222831487
 11
19.7801985802
 21
96.9686961485
  0
LINE
  5
24D
100
AcDbEntity
  8
0
100
AcDbLine
 62
7
  6
BYLAYER
 10
26.3527389421
 20
100.6898238864
 11
27.0598427793
 21
101.0980680403
  0
LINE
  5
24E
100
AcDbEntity
  8
0
100
AcDbLine
 62
7
  6
BYLAYER
 10
24.5428785158
 20
99.6366970002
 11
26.1795179403
 21
100.5816055722
  0
LINE
  5
24F
100
AcDbEntity
  8
0
100
AcDbLine
 62
7
  6
BYLAYER
 10
20.1301587318
 20
96.9340173904
 11
24.7263310848
 21
99.5876058852
  0
LINE
  5
250
100
AcDbEntity
  8
0
100
AcDbLine
 62
7
  6
BYLAYER
 10
24.7971128776
 20
99.5467409226
 11
26.5295163734
 21
100.5469385769
  0
LINE
  5
251
100
AcDbEntity
  8
0
100
AcDbLine
 62
7
  6
BYLAYER
 10
34.9650527396
 20
69.7130368169
 11
35.4137408763
 21
69.7769952527
  0
LINE
  5
252
100
AcDbEntity
  8
0
100
AcDbLine
 62
7
  6
BYLAYER
 10
35.4620388555
 20
86.3120667037
 11
32.6689975473
 21
87.0604208073
  0
LINE
  5
253
100
AcDbEntity
  8
0
100
AcDbLine
 62
7
  6
BYLAYER
 10
33.0932598496
 20
87.3053672997
 11
35.8863011579
 21
86.557013196
  0
LINE
  5
254
100
AcDbEntity
  8
0
100
AcDbLine
 62
7
  6
BYLAYER
 10
42.8284814962
 20
89.1365609065
 11
24.7263310848
 21
99.5876058852
  0
LINE
  5
255
100
AcDbEntity
  8
0
100
AcDbLine
 62
7
  6
BYLAYER
 10
26.5295163734
 20
100.5469385769
 11
44.5608143646
 21
90.1367993366
  0
LINE
  5
256
100
AcDbEntity
  8
0
100
AcDbLine
 62
7
  6
BYLAYER
 10
44.7375917959
 20
90.0755642689
 11
26.3527389421
 21
100.6898238864
  0
LINE
  5
257
100
AcDbEntity
  8
0
100
AcDbLine
 62
7
  6
BYLAYER
 10
45.4446956331
 20
90.4838084227
 11
27.0598427793
 21
101.0980680403
  0
LINE
  5
258
100
AcDbEntity
  8
0
100
AcDbLine
 62
7
  6
BYLAYER
 10
28.6560603489
 20
100.1765122451
 11
29.0953863445
 21
100.4301557129
  0
LINE
  5
259
100
AcDbEntity
  8
0
100
AcDbLine
 62
7
  6
BYLAYER
 10
21.5581064734
 20
94.7553110646
 11
21.1338441711
 21
94.5103645722
  0
LINE
  5
25A
100
AcDbEntity
  8
0
100
AcDbLine
 62
7
  6
BYLAYER
 10
20.3838410486
 20
94.0773376871
 11
20.8081033509
 21
94.3222841794
  0
LINE
  5
25B
100
AcDbEntity
  8
0
100
AcDbLine
 62
7
  6
BYLAYER
 10
20.2994811845
 20
93.6198195914
 11
16.9053827658
 21
91.6602476528
  0
LINE
  5
25C
100
AcDbEntity
  8
0
100
AcDbLine
 62
7
  6
BYLAYER
 10
21.5917525386
 20
94.134968589
 11
20.7507155623
 21
93.6493985628
  0
LINE
  5
25D
100
AcDbEntity
  8
0
100
AcDbLine
 62
7
  6
BYLAYER
 10
22.051898208
 20
94.0542398651
 11
22.4761605103
 21
94.2991863574
  0
LINE
  5
25E
100
AcDbEntity
  8
0
100
AcDbLine
 62
7
  6
BYLAYER
 10
20.5215432508
 20
93.8388318005
 11
20.9516069737
 21
94.0737299934
  0
LINE
  5
25F
100
AcDbEntity
  8
0
100
AcDbLine
 62
7
  6
BYLAYER
 10
19.7510634845
 20
87.0324238124
 11
23.2609760984
 21
89.1601656128
  0
LINE
  5
260
100
AcDbEntity
  8
0
100
AcDbLine
 62
7
  6
BYLAYER
 10
23.3241500528
 20
89.1975448779
 11
23.2609760984
 21
89.1601656128
  0
LINE
  5
261
100
AcDbEntity
  8
0
100
AcDbLine
 62
7
  6
BYLAYER
 10
22.9048818143
 20
91.8908826848
 11
22.0507113123
 21
91.3977300592
  0
LINE
  5
262
100
AcDbEntity
  8
0
100
AcDbLine
 62
7
  6
BYLAYER
 10
21.7994744691
 20
91.021739503
 11
18.4053760505
 21
89.0621675644
  0
LINE
  5
263
100
AcDbEntity
  8
0
100
AcDbLine
 62
7
  6
BYLAYER
 10
25.2692018186
 20
91.8224871192
 11
24.8449395162
 21
91.5775406268
  0
LINE
  5
264
100
AcDbEntity
  8
0
100
AcDbLine
 62
7
  6
BYLAYER
 10
21.0682333522
 20
89.3969959633
 11
21.4924956545
 21
89.6419424556
  0
LINE
  5
265
100
AcDbEntity
  8
0
100
AcDbLine
 62
7
  6
BYLAYER
 10
24.03125389
 20
89.6057890318
 11
23.3241500528
 21
89.1975448779
  0
LINE
  5
266
100
AcDbEntity
  8
0
100
AcDbLine
 62
7
  6
BYLAYER
 10
32.6689975473
 20
87.0604208073
 11
33.0932598496
 21
87.3053672997
  0
LINE
  5
267
100
AcDbEntity
  8
0
100
AcDbLine
 62
7
  6
BYLAYER
 10
43.6117844943
 20
92.5967146971
 11
53.4405278316
 21
98.2713084359
  0
LINE
  5
268
100
AcDbEntity
  8
0
100
AcDbLine
 62
7
  6
BYLAYER
 10
42.7982548519
 20
92.0116971547
 11
43.2375808475
 21
92.2653406225
  0
LINE
  5
269
100
AcDbEntity
  8
0
100
AcDbLine
 62
7
  6
BYLAYER
 10
35.8863011579
 20
86.557013196
 11
35.4620388555
 21
86.3120667037
  0
LINE
  5
26A
100
AcDbEntity
  8
0
100
AcDbLine
 62
7
  6
BYLAYER
 10
34.4416756874
 20
85.455004501
 11
31.0475772688
 21
83.4954325624
  0
LINE
  5
26B
100
AcDbEntity
  8
0
100
AcDbLine
 62
7
  6
BYLAYER
 10
18.0685703965
 20
76.0017619933
 11
16.9053827658
 21
75.3301993103
  0
LINE
  5
26C
100
AcDbEntity
  8
0
100
AcDbLine
 62
7
  6
BYLAYER
 10
35.7555641379
 20
85.9826340605
 11
34.8929100652
 21
85.4845834724
  0
LINE
  5
26D
100
AcDbEntity
  8
0
100
AcDbLine
 62
7
  6
BYLAYER
 10
18.3149186304
 20
75.5667283536
 11
16.9193917334
 21
74.7609961159
  0
LINE
  5
26E
100
AcDbEntity
  8
0
100
AcDbLine
 62
7
  6
BYLAYER
 10
27.8957321282
 20
81.0983244289
 11
23.7033855712
 21
78.6778501088
  0
LINE
  5
26F
100
AcDbEntity
  8
0
100
AcDbLine
 62
7
  6
BYLAYER
 10
36.2423906902
 20
85.6286332252
 11
36.8043551947
 21
85.9530843942
  0
LINE
  5
270
100
AcDbEntity
  8
0
100
AcDbLine
 62
7
  6
BYLAYER
 10
127.9464944907
 20
138.4003798085
 11
57.801793839
 21
97.9025597444
  0
LINE
  5
271
100
AcDbEntity
  8
0
100
AcDbLine
 62
7
  6
BYLAYER
 10
17.1469406433
 20
74.3150209102
 11
18.1841403571
 21
74.9138668637
  0
LINE
  5
272
100
AcDbEntity
  8
0
100
AcDbLine
 62
7
  6
BYLAYER
 10
30.8197635599
 20
82.2091671522
 11
28.476995838
 21
80.8565702902
  0
LINE
  5
273
100
AcDbEntity
  8
0
100
AcDbLine
 62
7
  6
BYLAYER
 10
38.23230448
 20
86.482975104
 11
44.5608143646
 21
90.1367993366
  0
LINE
  5
274
100
AcDbEntity
  8
0
100
AcDbLine
 62
7
  6
BYLAYER
 10
45.4446956331
 20
90.4838084227
 11
44.7375917959
 21
90.0755642689
  0
LINE
  5
275
100
AcDbEntity
  8
0
100
AcDbLine
 62
7
  6
BYLAYER
 10
18.3341446473
 20
74.8272595728
 11
17.7992236967
 21
74.5184135996
  0
LINE
  5
276
100
AcDbEntity
  8
0
100
AcDbLine
 62
7
  6
BYLAYER
 10
58.101792496
 20
97.872845177
 11
57.801793839
 21
97.9025597444
  0
LINE
  5
277
100
AcDbEntity
  8
0
100
AcDbLine
 62
7
  6
BYLAYER
 10
18.1492251539
 20
73.9121966582
 11
18.6841461045
 21
74.2210426315
  0
LINE
  5
278
100
AcDbEntity
  8
0
100
AcDbLine
 62
7
  6
BYLAYER
 10
45.0911466585
 20
89.463192683
 11
45.7982504957
 21
89.8714368369
  0
LINE
  5
279
100
AcDbEntity
  8
0
100
AcDbLine
 62
7
  6
BYLAYER
 10
38.7272121236
 20
85.6257746782
 11
45.0557911722
 21
89.2794791165
  0
LINE
  5
27A
100
AcDbEntity
  8
0
100
AcDbLine
 62
7
  6
BYLAYER
 10
18.6841424388
 20
74.0478426618
 11
17.6469388733
 21
73.4489944845
  0
LINE
  5
27B
100
AcDbEntity
  8
0
100
AcDbLine
 62
7
  6
BYLAYER
 10
28.9769979197
 20
79.9905460883
 11
31.3212241031
 21
81.3439849887
  0
LINE
  5
27C
100
AcDbEntity
  8
0
100
AcDbLine
 62
7
  6
BYLAYER
 10
128.5464918045
 20
137.3611477731
 11
58.4017911529
 21
96.863327709
  0
LINE
  5
27D
100
AcDbEntity
  8
0
100
AcDbLine
 62
7
  6
BYLAYER
 10
37.5543583173
 20
84.6540480913
 11
36.9923938127
 21
84.3295969224
  0
LINE
  5
27E
100
AcDbEntity
  8
0
100
AcDbLine
 62
7
  6
BYLAYER
 10
17.9193984726
 20
73.0289491992
 11
19.3149228488
 21
73.8346798544
  0
LINE
  5
27F
100
AcDbEntity
  8
0
100
AcDbLine
 62
7
  6
BYLAYER
 10
24.7033897618
 20
76.9458016579
 11
28.8957362916
 21
79.3662760251
  0
LINE
  5
280
100
AcDbEntity
  8
0
100
AcDbLine
 62
7
  6
BYLAYER
 10
37.0438491426
 20
83.7242043954
 11
36.1929058153
 21
83.2329149688
  0
LINE
  5
281
100
AcDbEntity
  8
0
100
AcDbLine
 62
7
  6
BYLAYER
 10
35.9416689721
 20
82.8569244126
 11
32.5475705535
 21
80.897352474
  0
LINE
  5
282
100
AcDbEntity
  8
0
100
AcDbLine
 62
7
  6
BYLAYER
 10
19.5685092155
 20
73.4036504593
 11
18.4053760505
 21
72.7321192218
  0
LINE
  5
283
100
AcDbEntity
  8
0
100
AcDbLine
 62
7
  6
BYLAYER
 10
37.1940968743
 20
83.3120708672
 11
37.6183591766
 21
83.5570173595
  0
LINE
  5
284
100
AcDbEntity
  8
0
100
AcDbLine
 62
7
  6
BYLAYER
 10
45.7982504957
 20
86.815542217
 11
46.2375674168
 21
87.0691804456
  0
LINE
  5
285
100
AcDbEntity
  8
0
100
AcDbLine
 62
7
  6
BYLAYER
 10
46.711770616
 20
87.227349181
 11
56.5405139532
 21
92.9019429198
  0
LINE
  5
286
100
AcDbEntity
  8
0
100
AcDbLine
 62
7
  6
BYLAYER
 10
36.8699660137
 20
80.7639566512
 11
36.4457037113
 21
80.5190101588
  0
LINE
  5
287
100
AcDbEntity
  8
0
100
AcDbLine
 62
7
  6
BYLAYER
 10
34.3312077782
 20
71.7656390912
 11
33.624103941
 21
71.3573949374
  0
LINE
  5
288
100
AcDbEntity
  8
0
100
AcDbLine
 62
7
  6
BYLAYER
 10
36.4457037113
 20
71.4845391751
 11
36.8699660137
 21
71.7294856675
  0
LINE
  5
289
100
AcDbEntity
  8
0
100
AcDbLine
 62
7
  6
BYLAYER
 10
33.0932598496
 20
69.5489410039
 11
32.6689975473
 21
69.3039945116
  0
LINE
  5
28A
100
AcDbEntity
  8
0
100
AcDbLine
 62
7
  6
BYLAYER
 10
34.4416756874
 20
69.1249561584
 11
31.0475772688
 21
67.1653842199
  0
LINE
  5
28B
100
AcDbEntity
  8
0
100
AcDbLine
 62
7
  6
BYLAYER
 10
35.7339470415
 20
69.640105156
 11
34.8929100652
 21
69.1545351298
  0
LINE
  5
28C
100
AcDbEntity
  8
0
100
AcDbLine
 62
7
  6
BYLAYER
 10
33.5601453844
 20
71.3213746512
 11
33.624103941
 21
71.3573949374
  0
LINE
  5
28D
100
AcDbEntity
  8
0
100
AcDbLine
 62
7
  6
BYLAYER
 10
29.9625004118
 20
69.3455906605
 11
33.5601453844
 21
71.3213746512
  0
LINE
  5
28E
100
AcDbEntity
  8
0
100
AcDbLine
 62
7
  6
BYLAYER
 10
36.6608515719
 20
66.8646712445
 11
36.2423906902
 21
66.6096764527
  0
LINE
  5
28F
100
AcDbEntity
  8
0
100
AcDbLine
 62
7
  6
BYLAYER
 10
37.6183591766
 20
68.0722745206
 11
37.1940968743
 21
67.8273280283
  0
LINE
  5
290
100
AcDbEntity
  8
0
100
AcDbLine
 62
7
  6
BYLAYER
 10
37.0600341554
 20
67.4035004184
 11
36.1929058153
 21
66.9028666262
  0
LINE
  5
291
100
AcDbEntity
  8
0
100
AcDbLine
 62
7
  6
BYLAYER
 10
35.9416689721
 20
66.52687607
 11
32.5475705535
 21
64.5673041314
  0
LINE
  5
292
100
AcDbEntity
  8
0
100
AcDbLine
 62
7
  6
BYLAYER
 10
37.130096015
 20
66.8041974514
 11
37.5543583173
 21
67.0491439437
  0
LINE
  5
293
100
AcDbEntity
  8
0
100
AcDbLine
 62
7
  6
BYLAYER
 10
36.8043551947
 20
66.6161170585
 11
36.3800928924
 21
66.3711705662
  0
LINE
  5
294
100
AcDbEntity
  8
0
100
AcDbLine
 62
7
  6
BYLAYER
 10
45.7982504957
 20
70.4854938744
 11
46.2375674168
 21
70.7391321031
  0
LINE
  5
295
100
AcDbEntity
  8
0
100
AcDbLine
 62
7
  6
BYLAYER
 10
45.0557911722
 20
68.4586674797
 11
43.3233870655
 21
67.4584694727
  0
LINE
  5
296
100
AcDbEntity
  8
0
100
AcDbLine
 62
7
  6
BYLAYER
 10
43.3233870655
 20
67.3767400725
 11
38.7272121236
 21
64.7231530723
  0
LINE
  5
297
100
AcDbEntity
  8
0
100
AcDbLine
 62
7
  6
BYLAYER
 10
43.2741801635
 20
67.1933126689
 11
44.9108127977
 21
68.1382173205
  0
LINE
  5
298
100
AcDbEntity
  8
0
100
AcDbLine
 62
7
  6
BYLAYER
 10
45.7982504957
 20
68.6423739915
 11
45.0911466585
 21
68.2341298377
  0
LINE
  5
299
100
AcDbEntity
  8
0
100
AcDbLine
 62
7
  6
BYLAYER
 10
43.1784382651
 20
67.0563185673
 11
38.5822633233
 21
64.4027315672
  0
LINE
  5
29A
100
AcDbEntity
  8
0
100
AcDbLine
 62
7
  6
BYLAYER
 10
45.6946945139
 20
68.4134810207
 11
44.9875906767
 21
68.0052368668
  0
LINE
  5
29B
100
AcDbEntity
  8
0
100
AcDbLine
 62
7
  6
BYLAYER
 10
127.9465039324
 20
138.4003634017
 11
128.2464931476
 21
138.370665241
  0
ARC
  5
29C
100
AcDbEntity
  8
0
100
AcDbCircle
 62
7
  6
BYLAYER
 10
14.7648079692
 20
72.3623787243
 40
15.80307111
100
AcDbArc
 50
26.3667501078
 51
33.6559895896
  0
ARC
  5
29D
100
AcDbEntity
  8
0
100
AcDbCircle
 62
7
  6
BYLAYER
 10
14.8214660919
 20
72.3951493694
 40
15.7061035429
100
AcDbArc
 50
26.3496739958
 51
33.6506014537
  0
ARC
  5
29E
100
AcDbEntity
  8
0
100
AcDbCircle
 62
7
  6
BYLAYER
 10
13.2647579053
 20
71.4963888354
 40
14.8067631737
100
AcDbArc
 50
26.1276218482
 51
33.8726536013
  0
ARC
  5
29F
100
AcDbEntity
  8
0
100
AcDbCircle
 62
7
  6
BYLAYER
 10
29.8527740342
 20
81.0770640236
 40
14.3931904363
100
AcDbArc
 50
206.0287401913
 51
208.021905464
  0
ARC
  5
2A0
100
AcDbEntity
  8
0
100
AcDbCircle
 62
7
  6
BYLAYER
 10
29.8349589721
 20
81.0580077731
 40
14.3682041419
100
AcDbArc
 50
211.9766407224
 51
213.9732704651
  0
ARC
  5
2A1
100
AcDbEntity
  8
0
100
AcDbCircle
 62
7
  6
BYLAYER
 10
13.4671686709
 20
71.6132500385
 40
13.9513955804
100
AcDbArc
 50
25.8897995165
 51
34.1104759295
  0
ARC
  5
2A2
100
AcDbEntity
  8
0
100
AcDbCircle
 62
7
  6
BYLAYER
 10
29.49612792
 20
80.8634809257
 40
13.8857724291
100
AcDbArc
 50
212.0492580564
 51
214.1154687238
  0
ARC
  5
2A3
100
AcDbEntity
  8
0
100
AcDbCircle
 62
7
  6
BYLAYER
 10
29.4687479534
 20
80.8574128957
 40
13.858992217
100
AcDbArc
 50
205.8828151824
 51
207.9530211099
  0
ARC
  5
2A4
100
AcDbEntity
  8
0
100
AcDbCircle
 62
7
  6
BYLAYER
 10
20.0829872367
 20
78.186006495
 40
9.6737309718
100
AcDbArc
 50
59.6875833919
 51
60.0003146063
  0
ARC
  5
2A5
100
AcDbEntity
  8
0
100
AcDbCircle
 62
7
  6
BYLAYER
 10
19.9440726451
 20
78.0877659462
 40
9.6103482972
100
AcDbArc
 50
59.687583392
 51
60.0003146063
  0
ARC
  5
2A6
100
AcDbEntity
  8
0
100
AcDbCircle
 62
7
  6
BYLAYER
 10
19.5078944477
 20
77.671304543
 40
9.0936737891
100
AcDbArc
 50
59.5386894598
 51
60.0000242119
  0
ARC
  5
2A7
100
AcDbEntity
  8
0
100
AcDbCircle
 62
7
  6
BYLAYER
 10
27.1756596377
 20
74.191636089
 40
5.2146223877
100
AcDbArc
 50
261.6296242142
 51
262.2376803842
  0
ARC
  5
2A8
100
AcDbEntity
  8
0
100
AcDbCircle
 62
7
  6
BYLAYER
 10
22.5485701556
 20
82.1982823287
 40
5.2083136787
100
AcDbArc
 50
157.7618222238
 51
158.2719458167
  0
ARC
  5
2A9
100
AcDbEntity
  8
0
100
AcDbCircle
 62
7
  6
BYLAYER
 10
22.6378015877
 20
83.0775596022
 40
4.9581237913
100
AcDbArc
 50
152.3826922238
 51
157.7891844703
  0
ARC
  5
2AA
100
AcDbEntity
  8
0
100
AcDbCircle
 62
7
  6
BYLAYER
 10
52.995914347
 20
94.1769359693
 40
4.1973565146
100
AcDbArc
 50
12.1238137579
 51
13.1821531874
  0
ARC
  5
2AB
100
AcDbEntity
  8
0
100
AcDbCircle
 62
7
  6
BYLAYER
 10
25.141424732
 20
87.689595024
 40
4.1146834474
100
AcDbArc
 50
126.2295984924
 51
126.7232555863
  0
ARC
  5
2AC
100
AcDbEntity
  8
0
100
AcDbCircle
 62
7
  6
BYLAYER
 10
33.2268355822
 20
73.6851664014
 40
4.1146708009
100
AcDbArc
 50
293.2765267955
 51
293.7718061466
  0
ARC
  5
2AD
100
AcDbEntity
  8
0
100
AcDbCircle
 62
7
  6
BYLAYER
 10
25.1303507046
 20
87.7048610797
 40
4.0958240078
100
AcDbArc
 50
123.4490848545
 51
126.230852745
  0
ARC
  5
2AE
100
AcDbEntity
  8
0
100
AcDbCircle
 62
7
  6
BYLAYER
 10
33.2345184754
 20
73.6679455733
 40
4.095814085
100
AcDbArc
 50
293.7705550924
 51
296.5496723515
  0
ARC
  5
2AF
100
AcDbEntity
  8
0
100
AcDbCircle
 62
7
  6
BYLAYER
 10
28.0052600464
 20
72.6970338923
 40
3.8289582759
100
AcDbArc
 50
278.8720909661
 51
280.5332013666
  0
ARC
  5
2B0
100
AcDbEntity
  8
0
100
AcDbCircle
 62
7
  6
BYLAYER
 10
26.8279152519
 20
72.6468885015
 40
3.3678359735
100
AcDbArc
 50
279.5101584856
 51
285.1402940121
  0
ARC
  5
2B1
100
AcDbEntity
  8
0
100
AcDbCircle
 62
7
  6
BYLAYER
 10
60.1548006657
 20
94.0830233938
 40
3.2459206757
100
AcDbArc
 50
161.1269903743
 51
162.6523318321
  0
ARC
  5
2B2
100
AcDbEntity
  8
0
100
AcDbCircle
 62
7
  6
BYLAYER
 10
26.8653195868
 20
72.5011080934
 40
3.2173469321
100
AcDbArc
 50
285.1753663317
 51
289.1423317864
  0
ARC
  5
2B3
100
AcDbEntity
  8
0
100
AcDbCircle
 62
7
  6
BYLAYER
 10
20.1651644965
 20
75.1712256894
 40
3.1153513683
100
AcDbArc
 50
9.4862653817
 51
9.7972738412
  0
ARC
  5
2B4
100
AcDbEntity
  8
0
100
AcDbCircle
 62
7
  6
BYLAYER
 10
26.8989548308
 20
72.3913219273
 40
3.0486637402
100
AcDbArc
 50
289.084088942
 51
310.917329743
  0
ARC
  5
2B5
100
AcDbEntity
  8
0
100
AcDbCircle
 62
7
  6
BYLAYER
 10
20.8569492792
 20
82.8564438877
 40
3.0486637402
100
AcDbArc
 50
109.084088942
 51
130.917329743
  0
ARC
  5
2B6
100
AcDbEntity
  8
0
100
AcDbCircle
 62
7
  6
BYLAYER
 10
24.6491519789
 20
71.4923100669
 40
2.8771508734
100
AcDbArc
 50
288.4245894762
 51
311.5768292088
  0
ARC
  5
2B7
100
AcDbEntity
  8
0
100
AcDbCircle
 62
7
  6
BYLAYER
 10
18.9534729662
 20
81.3575732176
 40
2.8771508734
100
AcDbArc
 50
108.4245894762
 51
131.5768292088
  0
ARC
  5
2B8
100
AcDbEntity
  8
0
100
AcDbCircle
 62
7
  6
BYLAYER
 10
21.9674227722
 20
93.5103867781
 40
1.6956527315
100
AcDbArc
 50
176.1875688839
 51
176.6538401253
  0
ARC
  5
2B9
100
AcDbEntity
  8
0
100
AcDbCircle
 62
7
  6
BYLAYER
 10
36.6755306661
 20
68.0152346805
 40
1.6835812361
100
AcDbArc
 50
243.5818097907
 51
243.9266631206
  0
ARC
  5
2BA
100
AcDbEntity
  8
0
100
AcDbCircle
 62
7
  6
BYLAYER
 10
16.9193227016
 20
73.9821674905
 40
1.4711243396
100
AcDbArc
 50
57.6569760397
 51
59.9777571779
  0
ARC
  5
2BB
100
AcDbEntity
  8
0
100
AcDbCircle
 62
7
  6
BYLAYER
 10
57.780297156
 20
95.9716469105
 40
1.4294091071
100
AcDbArc
 50
154.9981685384
 51
158.9115466945
  0
ARC
  5
2BC
100
AcDbEntity
  8
0
100
AcDbCircle
 62
7
  6
BYLAYER
 10
44.1290478146
 20
91.7013025438
 40
1.0340671135
100
AcDbArc
 50
120.0142434452
 51
124.9769423386
  0
ARC
  5
2BD
100
AcDbEntity
  8
0
100
AcDbCircle
 62
7
  6
BYLAYER
 10
46.194797732
 20
88.1228533475
 40
1.03400155
100
AcDbArc
 50
294.132020645
 51
299.9977575995
  0
ARC
  5
2BE
100
AcDbEntity
  8
0
100
AcDbCircle
 62
7
  6
BYLAYER
 10
43.0620550659
 20
67.2578741029
 40
0.2327384945
100
AcDbArc
 50
300.0032100354
 51
303.7910437207
  0
ARC
  5
2BF
100
AcDbEntity
  8
0
100
AcDbCircle
 62
7
  6
BYLAYER
 10
17.6693200664
 20
74.4434132873
 40
0.15
100
AcDbArc
 50
30.0001377247
 51
119.9974944231
  0
ARC
  5
2C0
100
AcDbEntity
  8
0
100
AcDbCircle
 62
7
  6
BYLAYER
 10
18.0193215236
 20
73.837196346
 40
0.15
100
AcDbArc
 50
300.0027808079
 51
30.0001377247
  0
SPLINE
  5
2C1
100
AcDbEntity
  8
0
100
AcDbSpline
 62
7
  6
BYLAYER
 70
0
 71
3
 72
12
 73
8
 74
0
 42
0.0000001
 43
0.0000001
 44
0.0000000001
 40
0.0
 40
0.0
 40
0.0
 40
0.0
 40
0.1081627526
 40
0.2183633309
 40
0.4513661832
 40
0.7104197522
 40
1.0
 40
1.0
 40
1.0
 40
1.0
 10
16.9053827658
 20
75.3301993103
 30
0.0
 10
16.8807892183
 20
75.3159999747
 30
0.0
 10
16.8335115417
 20
75.2829890284
 30
0.0
 10
16.748673888
 20
75.1995710428
 30
0.0
 10
16.6646841513
 20
75.0626030497
 30
0.0
 10
16.6062322443
 20
74.8641012914
 30
0.0
 10
16.5947142704
 20
74.7195399592
 30
0.0
 10
16.5947148205
 20
74.6435101993
 30
0.0
  0
SPLINE
  5
2C2
100
AcDbEntity
  8
0
100
AcDbSpline
 62
7
  6
BYLAYER
 70
0
 71
3
 72
15
 73
11
 74
0
 42
0.0000001
 43
0.0000001
 44
0.0000000001
 40
0.0
 40
0.0
 40
0.0
 40
0.0
 40
0.114152781
 40
0.2373221433
 40
0.366970794
 40
0.4999933359
 40
0.6330172808
 40
0.7626664617
 40
0.8858478475
 40
1.0
 40
1.0
 40
1.0
 40
1.0
 10
16.5947228161
 20
74.4802106434
 30
0.0
 10
16.5947232555
 20
74.4075481058
 30
0.0
 10
16.608032904
 20
74.2563426707
 30
0.0
 10
16.6610886674
 20
74.0282310648
 30
0.0
 10
16.7460832204
 20
73.7971715253
 30
0.0
 10
16.8598363699
 20
73.5718495338
 30
0.0
 10
16.9980940435
 20
73.3606752033
 30
0.0
 10
17.1557006804
 20
73.1715265082
 30
0.0
 10
17.326732775
 20
73.0115218736
 30
0.0
 10
17.4510310278
 20
72.9243877454
 30
0.0
 10
17.5139586407
 20
72.888057293
 30
0.0
  0
SPLINE
  5
2C3
100
AcDbEntity
  8
0
100
AcDbSpline
 62
7
  6
BYLAYER
 70
0
 71
3
 72
12
 73
8
 74
0
 42
0.0000001
 43
0.0000001
 44
0.0000000001
 40
0.0
 40
0.0
 40
0.0
 40
0.0
 40
0.2895787201
 40
0.5486316933
 40
0.7816350898
 40
0.8918372065
 40
1.0
 40
1.0
 40
1.0
 40
1.0
 10
17.6553794082
 20
72.8064056403
 30
0.0
 10
17.7212205423
 20
72.7683931038
 30
0.0
 10
17.8521686231
 20
72.706092311
 30
0.0
 10
18.0532946601
 20
72.6574666724
 30
0.0
 10
18.2139007342
 20
72.6617229347
 30
0.0
 10
18.3285584034
 20
72.6934818781
 30
0.0
 10
18.3807834629
 20
72.7179204403
 30
0.0
 10
18.4053760506
 20
72.7321192218
 30
0.0
  0
SPLINE
  5
2C4
100
AcDbEntity
  8
0
100
AcDbSpline
 62
7
  6
BYLAYER
 70
0
 71
3
 72
9
 73
5
 74
0
 42
0.0000001
 43
0.0000001
 44
0.0000000001
 40
0.0
 40
0.0
 40
0.0
 40
0.0
 40
0.2579356538
 40
1.0
 40
1.0
 40
1.0
 40
1.0
 10
17.5139586407
 20
72.888057293
 30
0.0
 10
17.5262444086
 20
72.8809642621
 30
0.0
 10
17.5743495729
 20
72.8543025284
 30
0.0
 10
17.6243876411
 20
72.8310642806
 30
0.0
 10
17.6624302059
 20
72.8162835149
 30
0.0
  0
SPLINE
  5
2C5
100
AcDbEntity
  8
0
100
AcDbSpline
 62
7
  6
BYLAYER
 70
0
 71
3
 72
15
 73
11
 74
0
 42
0.0000001
 43
0.0000001
 44
0.0000000001
 40
0.0
 40
0.0
 40
0.0
 40
0.0
 40
0.138177266
 40
0.2640239705
 40
0.3805416289
 40
0.4924600284
 40
0.6056260697
 40
0.7255684108
 40
0.856317515
 40
1.0
 40
1.0
 40
1.0
 40
1.0
 10
17.6624302059
 20
72.8162835149
 30
0.0
 10
17.7098101605
 20
72.7978748715
 30
0.0
 10
17.8034766543
 20
72.7698586439
 30
0.0
 10
17.9440611991
 20
72.7576040736
 30
0.0
 10
18.0742805458
 20
72.7783176469
 30
0.0
 10
18.1896440431
 20
72.8324249397
 30
0.0
 10
18.2855556994
 20
72.9181094769
 30
0.0
 10
18.3589772481
 20
73.0316719766
 30
0.0
 10
18.4086023246
 20
73.1690568557
 30
0.0
 10
18.4246904512
 20
73.269294375
 30
0.0
 10
18.4291788129
 20
73.3219591194
 30
0.0
  0
SPLINE
  5
2C6
100
AcDbEntity
  8
0
100
AcDbSpline
 62
7
  6
BYLAYER
 70
0
 71
3
 72
15
 73
11
 74
0
 42
0.0000001
 43
0.0000001
 44
0.0000000001
 40
0.0
 40
0.0
 40
0.0
 40
0.0
 40
0.1434268474
 40
0.2739008401
 40
0.3936883907
 40
0.5068334068
 40
0.6188577592
 40
0.7355614726
 40
0.8616475925
 40
1.0
 40
1.0
 40
1.0
 40
1.0
 10
17.4231528537
 20
75.0581855948
 30
0.0
 10
17.3754492332
 20
75.0802559317
 30
0.0
 10
17.2809519014
 20
75.1157507512
 30
0.0
 10
17.1377957864
 20
75.1404623482
 30
0.0
 10
17.0034593934
 20
75.132831424
 30
0.0
 10
16.8820488256
 20
75.0919956566
 30
0.0
 10
16.7782420392
 20
75.0187889638
 30
0.0
 10
16.6958030522
 20
74.9162908585
 30
0.0
 10
16.636627502
 20
74.7885346459
 30
0.0
 10
16.6142763125
 20
74.693590164
 30
0.0
 10
16.6066029228
 20
74.643472089
 30
0.0
  0
SPLINE
  5
2C7
100
AcDbEntity
  8
0
100
AcDbSpline
 62
7
  6
BYLAYER
 70
0
 71
3
 72
9
 73
5
 74
0
 42
0.0000001
 43
0.0000001
 44
0.0000000001
 40
0.0
 40
0.0
 40
0.0
 40
0.0
 40
0.2419718772
 40
1.0
 40
1.0
 40
1.0
 40
1.0
 10
16.6066029228
 20
74.643472089
 30
0.0
 10
16.6046036358
 20
74.6304139203
 30
0.0
 10
16.5974701857
 20
74.5762776612
 30
0.0
 10
16.5947225658
 20
74.52159481
 30
0.0
 10
16.5947228161
 20
74.4802106434
 30
0.0
  0
SPLINE
  5
2C8
100
AcDbEntity
  8
0
100
AcDbSpline
 62
7
  6
BYLAYER
 70
0
 71
3
 72
12
 73
8
 74
0
 42
0.0000001
 43
0.0000001
 44
0.0000000001
 40
0.0
 40
0.0
 40
0.0
 40
0.0
 40
0.2895787201
 40
0.5486316933
 40
0.7816350898
 40
0.8918372065
 40
1.0
 40
1.0
 40
1.0
 40
1.0
 10
17.6553794082
 20
75.2559128917
 30
0.0
 10
17.5895382741
 20
75.2939254283
 30
0.0
 10
17.4585901933
 20
75.3562262211
 30
0.0
 10
17.2574641562
 20
75.4048518597
 30
0.0
 10
17.0968580821
 20
75.4005955973
 30
0.0
 10
16.9822004129
 20
75.3688366539
 30
0.0
 10
16.9299753535
 20
75.3443980918
 30
0.0
 10
16.9053827658
 20
75.3301993103
 30
0.0
  0
SPLINE
  5
2C9
100
AcDbEntity
  8
0
100
AcDbSpline
 62
7
  6
BYLAYER
 70
0
 71
3
 72
14
 73
10
 74
0
 42
0.0000001
 43
0.0000001
 44
0.0000000001
 40
0.0
 40
0.0
 40
0.0
 40
0.0
 40
0.1066451422
 40
0.2155472225
 40
0.3287412306
 40
0.4478588162
 40
0.574081003
 40
0.7081053332
 40
1.0
 40
1.0
 40
1.0
 40
1.0
 10
18.4053760506
 20
72.7321192218
 30
0.0
 10
18.4314841771
 20
72.7471930151
 30
0.0
 10
18.4815793777
 20
72.782561659
 30
0.0
 10
18.5471246189
 20
72.8490618945
 30
0.0
 10
18.602688376
 20
72.9284174416
 30
0.0
 10
18.6477498271
 20
73.0195865437
 30
0.0
 10
18.6818954978
 20
73.1215653601
 30
0.0
 10
18.7133962397
 20
73.2747203246
 30
0.0
 10
18.7181764615
 20
73.3960333552
 30
0.0
 10
18.7148115591
 20
73.4784795509
 30
0.0
  0
SPLINE
  5
2CA
100
AcDbEntity
  8
0
100
AcDbSpline
 62
7
  6
BYLAYER
 70
0
 71
3
 72
12
 73
8
 74
0
 42
0.0000001
 43
0.0000001
 44
0.0000000001
 40
0.0
 40
0.0
 40
0.0
 40
0.0
 40
0.1081627526
 40
0.2183633309
 40
0.4513661832
 40
0.7104197522
 40
1.0
 40
1.0
 40
1.0
 40
1.0
 10
16.9053827658
 20
91.6602476529
 30
0.0
 10
16.8807892183
 20
91.6460483173
 30
0.0
 10
16.8335115417
 20
91.613037371
 30
0.0
 10
16.748673888
 20
91.5296193854
 30
0.0
 10
16.6646841513
 20
91.3926513923
 30
0.0
 10
16.6062322443
 20
91.194149634
 30
0.0
 10
16.5947142704
 20
91.0495883018
 30
0.0
 10
16.5947148205
 20
90.9735585419
 30
0.0
  0
SPLINE
  5
2CB
100
AcDbEntity
  8
0
100
AcDbSpline
 62
7
  6
BYLAYER
 70
0
 71
3
 72
12
 73
8
 74
0
 42
0.0000001
 43
0.0000001
 44
0.0000000001
 40
0.0
 40
0.0
 40
0.0
 40
0.0
 40
0.1081627935
 40
0.2183649102
 40
0.4513683067
 40
0.7104212799
 40
1.0
 40
1.0
 40
1.0
 40
1.0
 10
20.2994811844
 20
93.6198195915
 30
0.0
 10
20.3240737721
 20
93.634018373
 30
0.0
 10
20.3762988315
 20
93.6584569351
 30
0.0
 10
20.4909565008
 20
93.6902158785
 30
0.0
 10
20.6515625749
 20
93.6944721409
 30
0.0
 10
20.8526886119
 20
93.6458465022
 30
0.0
 10
20.9836366927
 20
93.5835457094
 30
0.0
 10
21.0494778268
 20
93.5455331729
 30
0.0
  0
SPLINE
  5
2CC
100
AcDbEntity
  8
0
100
AcDbSpline
 62
7
  6
BYLAYER
 70
0
 71
3
 72
14
 73
10
 74
0
 42
0.0000001
 43
0.0000001
 44
0.0000000001
 40
0.0
 40
0.0
 40
0.0
 40
0.0
 40
0.1108549636
 40
0.2280740567
 40
0.3506925039
 40
0.4775818326
 40
0.6074168533
 40
0.7387795698
 40
1.0
 40
1.0
 40
1.0
 40
1.0
 10
30.5953796292
 20
100.2815828759
 30
0.0
 10
30.6902548871
 20
100.2268078593
 30
0.0
 10
30.8790376884
 20
100.1027500658
 30
0.0
 10
31.1487732449
 20
99.88438976
 30
0.0
 10
31.409220591
 20
99.6317121612
 30
0.0
 10
31.6560192667
 20
99.3490081034
 30
0.0
 10
31.8851061991
 20
99.0409032555
 30
0.0
 10
32.1611050721
 20
98.6042338204
 30
0.0
 10
32.3315751876
 20
98.2535234823
 30
0.0
 10
32.4258610269
 20
98.0132080104
 30
0.0
  0
SPLINE
  5
2CD
100
AcDbEntity
  8
0
100
AcDbSpline
 62
7
  6
BYLAYER
 70
0
 71
3
 72
15
 73
11
 74
0
 42
0.0000001
 43
0.0000001
 44
0.0000000001
 40
0.0
 40
0.0
 40
0.0
 40
0.0
 40
0.114152781
 40
0.2373221433
 40
0.366970794
 40
0.4999933359
 40
0.6330172808
 40
0.7626664617
 40
0.8858478475
 40
1.0
 40
1.0
 40
1.0
 40
1.0
 10
16.5947228161
 20
90.810258986
 30
0.0
 10
16.5947232555
 20
90.7375964484
 30
0.0
 10
16.608032904
 20
90.5863910133
 30
0.0
 10
16.6610886674
 20
90.3582794073
 30
0.0
 10
16.7460832204
 20
90.1272198678
 30
0.0
 10
16.8598363699
 20
89.9018978764
 30
0.0
 10
16.9980940435
 20
89.6907235459
 30
0.0
 10
17.1557006804
 20
89.5015748508
 30
0.0
 10
17.326732775
 20
89.3415702162
 30
0.0
 10
17.4510310278
 20
89.2544360879
 30
0.0
 10
17.5139586407
 20
89.2181056356
 30
0.0
  0
SPLINE
  5
2CE
100
AcDbEntity
  8
0
100
AcDbSpline
 62
7
  6
BYLAYER
 70
0
 71
3
 72
12
 73
8
 74
0
 42
0.0000001
 43
0.0000001
 44
0.0000000001
 40
0.0
 40
0.0
 40
0.0
 40
0.0
 40
0.2895787201
 40
0.5486316933
 40
0.7816350898
 40
0.8918372065
 40
1.0
 40
1.0
 40
1.0
 40
1.0
 10
17.6553794082
 20
89.1364539829
 30
0.0
 10
17.7212205423
 20
89.0984414464
 30
0.0
 10
17.8521686231
 20
89.0361406536
 30
0.0
 10
18.0532946601
 20
88.987515015
 30
0.0
 10
18.2139007342
 20
88.9917712773
 30
0.0
 10
18.3285584034
 20
89.0235302207
 30
0.0
 10
18.3807834629
 20
89.0479687829
 30
0.0
 10
18.4053760506
 20
89.0621675644
 30
0.0
  0
SPLINE
  5
2CF
100
AcDbEntity
  8
0
100
AcDbSpline
 62
7
  6
BYLAYER
 70
0
 71
3
 72
14
 73
10
 74
0
 42
0.0000001
 43
0.0000001
 44
0.0000000001
 40
0.0
 40
0.0
 40
0.0
 40
0.0
 40
0.1080480577
 40
0.2181318654
 40
0.3321061645
 40
0.4515062392
 40
0.5774601266
 40
0.7107189811
 40
1.0
 40
1.0
 40
1.0
 40
1.0
 10
29.0953874445
 20
100.4301538076
 30
0.0
 10
29.1445730956
 20
100.4585509849
 30
0.0
 10
29.2490053935
 20
100.5074473563
 30
0.0
 10
29.4179748471
 20
100.5541767078
 30
0.0
 10
29.5981057905
 20
100.5742731174
 30
0.0
 10
29.7874659736
 20
100.5676748583
 30
0.0
 10
29.9842626969
 20
100.5346752874
 30
0.0
 10
30.2615212184
 20
100.4538318032
 30
0.0
 10
30.4636925397
 20
100.3576107324
 30
0.0
 10
30.5953796292
 20
100.2815828759
 30
0.0
  0
SPLINE
  5
2D0
100
AcDbEntity
  8
0
100
AcDbSpline
 62
7
  6
BYLAYER
 70
0
 71
3
 72
12
 73
8
 74
0
 42
0.0000001
 43
0.0000001
 44
0.0000000001
 40
0.0
 40
0.0
 40
0.0
 40
0.0
 40
0.2895802478
 40
0.5486338168
 40
0.7816366691
 40
0.8918372474
 40
1.0
 40
1.0
 40
1.0
 40
1.0
 10
22.1101424145
 20
91.708428614
 30
0.0
 10
22.1101429645
 20
91.6323988541
 30
0.0
 10
22.0986249907
 20
91.4878375219
 30
0.0
 10
22.0401730836
 20
91.2893357635
 30
0.0
 10
21.9561833469
 20
91.1523677704
 30
0.0
 10
21.8713456933
 20
91.0689497849
 30
0.0
 10
21.8240680167
 20
91.0359388386
 30
0.0
 10
21.7994744692
 20
91.0217395029
 30
0.0
  0
SPLINE
  5
2D1
100
AcDbEntity
  8
0
100
AcDbSpline
 62
7
  6
BYLAYER
 70
0
 71
3
 72
9
 73
5
 74
0
 42
0.0000001
 43
0.0000001
 44
0.0000000001
 40
0.0
 40
0.0
 40
0.0
 40
0.0
 40
0.2579356538
 40
1.0
 40
1.0
 40
1.0
 40
1.0
 10
17.5139586407
 20
89.2181056356
 30
0.0
 10
17.5262444086
 20
89.2110126046
 30
0.0
 10
17.5743495729
 20
89.184350871
 30
0.0
 10
17.6243876411
 20
89.1611126232
 30
0.0
 10
17.6624302059
 20
89.1463318575
 30
0.0
  0
SPLINE
  5
2D2
100
AcDbEntity
  8
0
100
AcDbSpline
 62
7
  6
BYLAYER
 70
0
 71
3
 72
28
 73
24
 74
0
 42
0.0000001
 43
0.0000001
 44
0.0000000001
 40
0.0
 40
0.0
 40
0.0
 40
0.0
 40
0.0551566964
 40
0.1048459009
 40
0.1282052044
 40
0.1509321042
 40
0.1733920241
 40
0.1959712578
 40
0.2190457121
 40
0.2429510667
 40
0.2941898762
 40
0.3219621542
 40
0.3512480511
 40
0.3820608965
 40
0.4143571136
 40
0.4829963582
 40
0.5561562479
 40
0.6323889473
 40
0.7100110468
 40
0.7872455917
 40
0.8623344627
 40
0.9336942364
 40
1.0
 40
1.0
 40
1.0
 40
1.0
 10
17.6624302059
 20
89.1463318575
 30
0.0
 10
17.7157474355
 20
89.1256163909
 30
0.0
 10
17.8210572801
 20
89.095177681
 30
0.0
 10
17.9555703013
 20
89.089305531
 30
0.0
 10
18.0536960389
 20
89.1068135728
 30
0.0
 10
18.1211990315
 20
89.1300368911
 30
0.0
 10
18.1834098287
 20
89.1633841812
 30
0.0
 10
18.23968791
 20
89.2065727066
 30
0.0
 10
18.2895233467
 20
89.2591247867
 30
0.0
 10
18.348091805
 20
89.3428411771
 30
0.0
 10
18.3903090506
 20
89.4422930831
 30
0.0
 10
18.4169362642
 20
89.5515010337
 30
0.0
 10
18.4296789922
 20
89.6418919659
 30
0.0
 10
18.4344722853
 20
89.7377023039
 30
0.0
 10
18.4302140384
 20
89.8743918377
 30
0.0
 10
18.4041439871
 20
90.053689918
 30
0.0
 10
18.3434377731
 20
90.2720288517
 30
0.0
 10
18.2547003974
 20
90.4906171682
 30
0.0
 10
18.1409435442
 20
90.7020645836
 30
0.0
 10
18.0059976202
 20
90.8992295476
 30
0.0
 10
17.8544071536
 20
91.0754970821
 30
0.0
 10
17.6912974568
 20
91.2248641423
 30
0.0
 10
17.5735088531
 20
91.3066313668
 30
0.0
 10
17.5139586407
 20
91.3410119201
 30
0.0
  0
SPLINE
  5
2D3
100
AcDbEntity
  8
0
100
AcDbSpline
 62
7
  6
BYLAYER
 70
0
 71
3
 72
15
 73
11
 74
0
 42
0.0000001
 43
0.0000001
 44
0.0000000001
 40
0.0
 40
0.0
 40
0.0
 40
0.0
 40
0.1485214471
 40
0.2830261085
 40
0.4048962736
 40
0.5179158326
 40
0.6278839583
 40
0.741465523
 40
0.8643281266
 40
1.0
 40
1.0
 40
1.0
 40
1.0
 10
17.5139586407
 20
91.3410119201
 30
0.0
 10
17.4624532261
 20
91.3707479124
 30
0.0
 10
17.3599458328
 20
91.4204728859
 30
0.0
 10
17.2026316841
 20
91.4639109445
 30
0.0
 10
17.0533350383
 20
91.4705685548
 30
0.0
 10
16.9168873247
 20
91.4388555997
 30
0.0
 10
16.7992113187
 20
91.3687512489
 30
0.0
 10
16.7057576487
 20
91.263596452
 30
0.0
 10
16.6392900993
 20
91.1286264319
 30
0.0
 10
16.6148250049
 20
91.0272222429
 30
0.0
 10
16.6066029228
 20
90.9735204316
 30
0.0
  0
SPLINE
  5
2D4
100
AcDbEntity
  8
0
100
AcDbSpline
 62
7
  6
BYLAYER
 70
0
 71
3
 72
9
 73
5
 74
0
 42
0.0000001
 43
0.0000001
 44
0.0000000001
 40
0.0
 40
0.0
 40
0.0
 40
0.0
 40
0.2419718772
 40
1.0
 40
1.0
 40
1.0
 40
1.0
 10
16.6066029228
 20
90.9735204316
 30
0.0
 10
16.6046036358
 20
90.9604622629
 30
0.0
 10
16.5974701857
 20
90.9063260038
 30
0.0
 10
16.5947225658
 20
90.8516431526
 30
0.0
 10
16.5947228161
 20
90.810258986
 30
0.0
  0
SPLINE
  5
2D5
100
AcDbEntity
  8
0
100
AcDbSpline
 62
7
  6
BYLAYER
 70
0
 71
3
 72
12
 73
8
 74
0
 42
0.0000001
 43
0.0000001
 44
0.0000000001
 40
0.0
 40
0.0
 40
0.0
 40
0.0
 40
0.2895787201
 40
0.5486316933
 40
0.7816350898
 40
0.8918372065
 40
1.0
 40
1.0
 40
1.0
 40
1.0
 10
17.6553794082
 20
91.5859612343
 30
0.0
 10
17.5895382741
 20
91.6239737709
 30
0.0
 10
17.4585901933
 20
91.6862745636
 30
0.0
 10
17.2574641562
 20
91.7349002023
 30
0.0
 10
17.0968580821
 20
91.7306439399
 30
0.0
 10
16.9822004129
 20
91.6988849965
 30
0.0
 10
16.9299753535
 20
91.6744464344
 30
0.0
 10
16.9053827658
 20
91.6602476529
 30
0.0
  0
SPLINE
  5
2D6
100
AcDbEntity
  8
0
100
AcDbSpline
 62
7
  6
BYLAYER
 70
0
 71
3
 72
21
 73
17
 74
0
 42
0.0000001
 43
0.0000001
 44
0.0000000001
 40
0.0
 40
0.0
 40
0.0
 40
0.0
 40
0.0428265368
 40
0.0874210446
 40
0.1352168486
 40
0.1871402706
 40
0.2436032725
 40
0.3045779987
 40
0.3696937216
 40
0.4383208458
 40
0.5825532947
 40
0.729592089
 40
0.8016010569
 40
0.8712166638
 40
0.9375998888
 40
1.0
 40
1.0
 40
1.0
 40
1.0
 10
18.4053760506
 20
89.0621675644
 30
0.0
 10
18.4423573233
 20
89.0835190796
 30
0.0
 10
18.5124581691
 20
89.1371784225
 30
0.0
 10
18.5968180951
 20
89.2438558671
 30
0.0
 10
18.6598598033
 20
89.3743142878
 30
0.0
 10
18.7006817671
 20
89.5253729505
 30
0.0
 10
18.7188510322
 20
89.6938485602
 30
0.0
 10
18.7142049649
 20
89.8762714362
 30
0.0
 10
18.6869465644
 20
90.068892486
 30
0.0
 10
18.620134024
 20
90.3382981193
 30
0.0
 10
18.4848553106
 20
90.6728374248
 30
0.0
 10
18.2942507049
 20
90.9829892074
 30
0.0
 10
18.1128790982
 20
91.2069015307
 30
0.0
 10
17.9679434581
 20
91.3557197525
 30
0.0
 10
17.8163238182
 20
91.4832952621
 30
0.0
 10
17.7092632541
 20
91.5548520851
 30
0.0
 10
17.6553794082
 20
91.5859612343
 30
0.0
  0
SPLINE
  5
2D7
100
AcDbEntity
  8
0
100
AcDbSpline
 62
7
  6
BYLAYER
 70
0
 71
3
 72
15
 73
11
 74
0
 42
0.0000001
 43
0.0000001
 44
0.0000000001
 40
0.0
 40
0.0
 40
0.0
 40
0.0
 40
0.1141538955
 40
0.2373248521
 40
0.3669742658
 40
0.4999983967
 40
0.6330227505
 40
0.7626728157
 40
0.8858447981
 40
1.0
 40
1.0
 40
1.0
 40
1.0
 10
21.0494778268
 20
93.5455331729
 30
0.0
 10
21.1220880067
 20
93.5036126143
 30
0.0
 10
21.2655066624
 20
93.4030793936
 30
0.0
 10
21.4628438078
 20
93.2184583888
 30
0.0
 10
21.6447015312
 20
93.0002214394
 30
0.0
 10
21.8042294377
 20
92.7565550252
 30
0.0
 10
21.9354894786
 20
92.4965674229
 30
0.0
 10
22.0335625763
 20
92.2299552477
 30
0.0
 10
22.0947841098
 20
91.9667443734
 30
0.0
 10
22.1101418079
 20
91.7922721131
 30
0.0
 10
22.1101424145
 20
91.708428614
 30
0.0
  0
SPLINE
  5
2D8
100
AcDbEntity
  8
0
100
AcDbSpline
 62
7
  6
BYLAYER
 70
0
 71
3
 72
15
 73
11
 74
0
 42
0.0000001
 43
0.0000001
 44
0.0000000001
 40
0.0
 40
0.0
 40
0.0
 40
0.0
 40
0.11415483
 40
0.237326361
 40
0.366976207
 40
0.5000000242
 40
0.6330253919
 40
0.7626721589
 40
0.8858495393
 40
1.0
 40
1.0
 40
1.0
 40
1.0
 10
22.1101365911
 20
91.871726918
 30
0.0
 10
22.1101360681
 20
91.9443908561
 30
0.0
 10
22.096826159
 20
92.0955991991
 30
0.0
 10
22.0437684893
 20
92.3237142392
 30
0.0
 10
21.9587721501
 20
92.5547766526
 30
0.0
 10
21.8450157352
 20
92.780100137
 30
0.0
 10
21.7067571593
 20
92.9912745306
 30
0.0
 10
21.5491501232
 20
93.1804191686
 30
0.0
 10
21.3781211484
 20
93.3404199285
 30
0.0
 10
21.2538253579
 20
93.4275515582
 30
0.0
 10
21.1908985942
 20
93.4638815203
 30
0.0
  0
SPLINE
  5
2D9
100
AcDbEntity
  8
0
100
AcDbSpline
 62
7
  6
BYLAYER
 70
0
 71
3
 72
12
 73
8
 74
0
 42
0.0000001
 43
0.0000001
 44
0.0000000001
 40
0.0
 40
0.0
 40
0.0
 40
0.0
 40
0.1081627526
 40
0.2183633309
 40
0.4513661832
 40
0.7104197522
 40
1.0
 40
1.0
 40
1.0
 40
1.0
 10
31.0475772687
 20
67.1653842199
 30
0.0
 10
31.0229837213
 20
67.1511848843
 30
0.0
 10
30.9757060447
 20
67.118173938
 30
0.0
 10
30.890868391
 20
67.0347559524
 30
0.0
 10
30.8068786543
 20
66.8977879593
 30
0.0
 10
30.7484267472
 20
66.699286201
 30
0.0
 10
30.7369087734
 20
66.5547248688
 30
0.0
 10
30.7369093234
 20
66.4786951089
 30
0.0
  0
SPLINE
  5
2DA
100
AcDbEntity
  8
0
100
AcDbSpline
 62
7
  6
BYLAYER
 70
0
 71
3
 72
12
 73
8
 74
0
 42
0.0000001
 43
0.0000001
 44
0.0000000001
 40
0.0
 40
0.0
 40
0.0
 40
0.0
 40
0.1081627935
 40
0.2183649102
 40
0.4513683067
 40
0.7104212799
 40
1.0
 40
1.0
 40
1.0
 40
1.0
 10
34.4416756874
 20
69.1249561585
 30
0.0
 10
34.4662682751
 20
69.13915494
 30
0.0
 10
34.5184933345
 20
69.1635935021
 30
0.0
 10
34.6331510037
 20
69.1953524455
 30
0.0
 10
34.7937570778
 20
69.1996087079
 30
0.0
 10
34.9948831149
 20
69.1509830692
 30
0.0
 10
35.1258311957
 20
69.0886822764
 30
0.0
 10
35.1916723297
 20
69.0506697399
 30
0.0
  0
SPLINE
  5
2DB
100
AcDbEntity
  8
0
100
AcDbSpline
 62
7
  6
BYLAYER
 70
0
 71
3
 72
14
 73
10
 74
0
 42
0.0000001
 43
0.0000001
 44
0.0000000001
 40
0.0
 40
0.0
 40
0.0
 40
0.0
 40
0.2892819907
 40
0.4225411172
 40
0.5484950936
 40
0.667895061
 40
0.781869072
 40
0.8919524501
 40
1.0
 40
1.0
 40
1.0
 40
1.0
 10
46.8589033076
 20
72.1124899279
 30
0.0
 10
46.8589033076
 20
71.9604270504
 30
0.0
 10
46.8411491338
 20
71.7372241884
 30
0.0
 10
46.7725327306
 20
71.4566807423
 30
0.0
 10
46.7027122784
 20
71.2697443421
 30
0.0
 10
46.6137450777
 20
71.1024496268
 30
0.0
 10
46.506273465
 20
70.9564959138
 30
0.0
 10
46.3813170645
 20
70.833525849
 30
0.0
 10
46.2867530544
 20
70.767531813
 30
0.0
 10
46.2375663168
 20
70.7391340084
 30
0.0
  0
SPLINE
  5
2DC
100
AcDbEntity
  8
0
100
AcDbSpline
 62
7
  6
BYLAYER
 70
0
 71
3
 72
14
 73
10
 74
0
 42
0.0000001
 43
0.0000001
 44
0.0000000001
 40
0.0
 40
0.0
 40
0.0
 40
0.0
 40
0.2612189488
 40
0.3925814029
 40
0.5224164315
 40
0.6493059927
 40
0.7719248454
 40
0.8891444587
 40
1.0
 40
1.0
 40
1.0
 40
1.0
 10
45.8096322883
 20
74.8319534464
 30
0.0
 10
45.9706129392
 20
74.6301418585
 30
0.0
 10
46.1891080534
 20
74.3071539738
 30
0.0
 10
46.4292829751
 20
73.8497939341
 30
0.0
 10
46.5815718233
 20
73.4973423004
 30
0.0
 10
46.7030067098
 20
73.1422512529
 30
0.0
 10
46.7916130866
 20
72.7903525818
 30
0.0
 10
46.8458550967
 20
72.4475682191
 30
0.0
 10
46.8589033076
 20
72.2220441146
 30
0.0
 10
46.8589033076
 20
72.1124899279
 30
0.0
  0
SPLINE
  5
2DD
100
AcDbEntity
  8
0
100
AcDbSpline
 62
7
  6
BYLAYER
 70
0
 71
3
 72
15
 73
11
 74
0
 42
0.0000001
 43
0.0000001
 44
0.0000000001
 40
0.0
 40
0.0
 40
0.0
 40
0.0
 40
0.114152781
 40
0.2373221433
 40
0.366970794
 40
0.4999933359
 40
0.6330172808
 40
0.7626664617
 40
0.8858478475
 40
1.0
 40
1.0
 40
1.0
 40
1.0
 10
30.736917319
 20
66.315395553
 30
0.0
 10
30.7369177585
 20
66.2427330154
 30
0.0
 10
30.7502274069
 20
66.0915275803
 30
0.0
 10
30.8032831703
 20
65.8634159743
 30
0.0
 10
30.8882777234
 20
65.6323564348
 30
0.0
 10
31.0020308729
 20
65.4070344434
 30
0.0
 10
31.1402885465
 20
65.1958601129
 30
0.0
 10
31.2978951834
 20
65.0067114178
 30
0.0
 10
31.468927278
 20
64.8467067832
 30
0.0
 10
31.5932255308
 20
64.7595726549
 30
0.0
 10
31.6561531437
 20
64.7232422026
 30
0.0
  0
SPLINE
  5
2DE
100
AcDbEntity
  8
0
100
AcDbSpline
 62
7
  6
BYLAYER
 70
0
 71
3
 72
12
 73
8
 74
0
 42
0.0000001
 43
0.0000001
 44
0.0000000001
 40
0.0
 40
0.0
 40
0.0
 40
0.0
 40
0.2895787201
 40
0.5486316933
 40
0.7816350898
 40
0.8918372065
 40
1.0
 40
1.0
 40
1.0
 40
1.0
 10
31.7975739111
 20
64.6415905499
 30
0.0
 10
31.8634150452
 20
64.6035780134
 30
0.0
 10
31.994363126
 20
64.5412772206
 30
0.0
 10
32.1954891631
 20
64.492651582
 30
0.0
 10
32.3560952372
 20
64.4969078443
 30
0.0
 10
32.4707529064
 20
64.5286667877
 30
0.0
 10
32.5229779658
 20
64.5531053499
 30
0.0
 10
32.5475705535
 20
64.5673041314
 30
0.0
  0
SPLINE
  5
2DF
100
AcDbEntity
  8
0
100
AcDbSpline
 62
7
  6
BYLAYER
 70
0
 71
3
 72
12
 73
8
 74
0
 42
0.0000001
 43
0.0000001
 44
0.0000000001
 40
0.0
 40
0.0
 40
0.0
 40
0.0
 40
0.2895802478
 40
0.5486338168
 40
0.7816366691
 40
0.8918372474
 40
1.0
 40
1.0
 40
1.0
 40
1.0
 10
36.2523369174
 20
67.213565181
 30
0.0
 10
36.2523374675
 20
67.1375354211
 30
0.0
 10
36.2408194936
 20
66.9929740889
 30
0.0
 10
36.1823675866
 20
66.7944723305
 30
0.0
 10
36.0983778499
 20
66.6575043374
 30
0.0
 10
36.0135401962
 20
66.5740863519
 30
0.0
 10
35.9662625196
 20
66.5410754056
 30
0.0
 10
35.9416689721
 20
66.5268760699
 30
0.0
  0
SPLINE
  5
2E0
100
AcDbEntity
  8
0
100
AcDbSpline
 62
7
  6
BYLAYER
 70
0
 71
3
 72
9
 73
5
 74
0
 42
0.0000001
 43
0.0000001
 44
0.0000000001
 40
0.0
 40
0.0
 40
0.0
 40
0.0
 40
0.2579356538
 40
1.0
 40
1.0
 40
1.0
 40
1.0
 10
31.6561531437
 20
64.7232422026
 30
0.0
 10
31.6684389116
 20
64.7161491717
 30
0.0
 10
31.7165440759
 20
64.689487438
 30
0.0
 10
31.766582144
 20
64.6662491902
 30
0.0
 10
31.8046247089
 20
64.6514684245
 30
0.0
  0
SPLINE
  5
2E1
100
AcDbEntity
  8
0
100
AcDbSpline
 62
7
  6
BYLAYER
 70
0
 71
3
 72
28
 73
24
 74
0
 42
0.0000001
 43
0.0000001
 44
0.0000000001
 40
0.0
 40
0.0
 40
0.0
 40
0.0
 40
0.0551566964
 40
0.1048459009
 40
0.1282052044
 40
0.1509321042
 40
0.1733920241
 40
0.1959712578
 40
0.2190457121
 40
0.2429510667
 40
0.2941898762
 40
0.3219621542
 40
0.3512480511
 40
0.3820608965
 40
0.4143571136
 40
0.4829963582
 40
0.5561562479
 40
0.6323889473
 40
0.7100110468
 40
0.7872455917
 40
0.8623344627
 40
0.9336942364
 40
1.0
 40
1.0
 40
1.0
 40
1.0
 10
31.8046247089
 20
64.6514684245
 30
0.0
 10
31.8579419385
 20
64.6307529579
 30
0.0
 10
31.9632517831
 20
64.600314248
 30
0.0
 10
32.0977648043
 20
64.594442098
 30
0.0
 10
32.1958905418
 20
64.6119501398
 30
0.0
 10
32.2633935344
 20
64.6351734581
 30
0.0
 10
32.3256043316
 20
64.6685207482
 30
0.0
 10
32.3818824129
 20
64.7117092736
 30
0.0
 10
32.4317178496
 20
64.7642613537
 30
0.0
 10
32.4902863079
 20
64.8479777441
 30
0.0
 10
32.5325035536
 20
64.9474296501
 30
0.0
 10
32.5591307672
 20
65.0566376007
 30
0.0
 10
32.5718734951
 20
65.1470285329
 30
0.0
 10
32.5766667883
 20
65.2428388709
 30
0.0
 10
32.5724085413
 20
65.3795284047
 30
0.0
 10
32.54633849
 20
65.558826485
 30
0.0
 10
32.485632276
 20
65.7771654187
 30
0.0
 10
32.3968949003
 20
65.9957537352
 30
0.0
 10
32.2831380471
 20
66.2072011506
 30
0.0
 10
32.1481921232
 20
66.4043661146
 30
0.0
 10
31.9966016565
 20
66.5806336491
 30
0.0
 10
31.8334919597
 20
66.7300007093
 30
0.0
 10
31.715703356
 20
66.8117679338
 30
0.0
 10
31.6561531437
 20
66.8461484871
 30
0.0
  0
SPLINE
  5
2E2
100
AcDbEntity
  8
0
100
AcDbSpline
 62
7
  6
BYLAYER
 70
0
 71
3
 72
15
 73
11
 74
0
 42
0.0000001
 43
0.0000001
 44
0.0000000001
 40
0.0
 40
0.0
 40
0.0
 40
0.0
 40
0.1485214471
 40
0.2830261085
 40
0.4048962736
 40
0.5179158326
 40
0.6278839583
 40
0.741465523
 40
0.8643281266
 40
1.0
 40
1.0
 40
1.0
 40
1.0
 10
31.6561531437
 20
66.8461484871
 30
0.0
 10
31.604647729
 20
66.8758844794
 30
0.0
 10
31.5021403357
 20
66.9256094529
 30
0.0
 10
31.344826187
 20
66.9690475115
 30
0.0
 10
31.1955295412
 20
66.9757051218
 30
0.0
 10
31.0590818277
 20
66.9439921667
 30
0.0
 10
30.9414058217
 20
66.8738878159
 30
0.0
 10
30.8479521517
 20
66.768733019
 30
0.0
 10
30.7814846022
 20
66.6337629989
 30
0.0
 10
30.7570195078
 20
66.5323588099
 30
0.0
 10
30.7487974258
 20
66.4786569986
 30
0.0
  0
SPLINE
  5
2E3
100
AcDbEntity
  8
0
100
AcDbSpline
 62
7
  6
BYLAYER
 70
0
 71
3
 72
9
 73
5
 74
0
 42
0.0000001
 43
0.0000001
 44
0.0000000001
 40
0.0
 40
0.0
 40
0.0
 40
0.0
 40
0.2419718772
 40
1.0
 40
1.0
 40
1.0
 40
1.0
 10
30.7487974258
 20
66.4786569986
 30
0.0
 10
30.7467981388
 20
66.4655988299
 30
0.0
 10
30.7396646886
 20
66.4114625708
 30
0.0
 10
30.7369170687
 20
66.3567797196
 30
0.0
 10
30.736917319
 20
66.315395553
 30
0.0
  0
SPLINE
  5
2E4
100
AcDbEntity
  8
0
100
AcDbSpline
 62
7
  6
BYLAYER
 70
0
 71
3
 72
12
 73
8
 74
0
 42
0.0000001
 43
0.0000001
 44
0.0000000001
 40
0.0
 40
0.0
 40
0.0
 40
0.0
 40
0.2895787201
 40
0.5486316933
 40
0.7816350898
 40
0.8918372065
 40
1.0
 40
1.0
 40
1.0
 40
1.0
 10
31.7975739111
 20
67.0910978013
 30
0.0
 10
31.731732777
 20
67.1291103379
 30
0.0
 10
31.6007846962
 20
67.1914111306
 30
0.0
 10
31.3996586592
 20
67.2400367693
 30
0.0
 10
31.2390525851
 20
67.2357805069
 30
0.0
 10
31.1243949159
 20
67.2040215635
 30
0.0
 10
31.0721698564
 20
67.1795830014
 30
0.0
 10
31.0475772687
 20
67.1653842199
 30
0.0
  0
SPLINE
  5
2E5
100
AcDbEntity
  8
0
100
AcDbSpline
 62
7
  6
BYLAYER
 70
0
 71
3
 72
21
 73
17
 74
0
 42
0.0000001
 43
0.0000001
 44
0.0000000001
 40
0.0
 40
0.0
 40
0.0
 40
0.0
 40
0.0428265368
 40
0.0874210446
 40
0.1352168486
 40
0.1871402706
 40
0.2436032725
 40
0.3045779987
 40
0.3696937216
 40
0.4383208458
 40
0.5825532947
 40
0.729592089
 40
0.8016010569
 40
0.8712166638
 40
0.9375998888
 40
1.0
 40
1.0
 40
1.0
 40
1.0
 10
32.5475705535
 20
64.5673041314
 30
0.0
 10
32.5845518263
 20
64.5886556466
 30
0.0
 10
32.6546526721
 20
64.6423149895
 30
0.0
 10
32.7390125981
 20
64.7489924341
 30
0.0
 10
32.8020543062
 20
64.8794508548
 30
0.0
 10
32.84287627
 20
65.0305095175
 30
0.0
 10
32.8610455351
 20
65.1989851272
 30
0.0
 10
32.8563994678
 20
65.3814080032
 30
0.0
 10
32.8291410673
 20
65.574029053
 30
0.0
 10
32.7623285269
 20
65.8434346863
 30
0.0
 10
32.6270498135
 20
66.1779739918
 30
0.0
 10
32.4364452078
 20
66.4881257744
 30
0.0
 10
32.2550736012
 20
66.7120380977
 30
0.0
 10
32.110137961
 20
66.8608563195
 30
0.0
 10
31.9585183211
 20
66.9884318291
 30
0.0
 10
31.8514577571
 20
67.0599886521
 30
0.0
 10
31.7975739111
 20
67.0910978013
 30
0.0
  0
SPLINE
  5
2E6
100
AcDbEntity
  8
0
100
AcDbSpline
 62
7
  6
BYLAYER
 70
0
 71
3
 72
15
 73
11
 74
0
 42
0.0000001
 43
0.0000001
 44
0.0000000001
 40
0.0
 40
0.0
 40
0.0
 40
0.0
 40
0.1141538955
 40
0.2373248521
 40
0.3669742658
 40
0.4999983967
 40
0.6330227505
 40
0.7626728157
 40
0.8858447981
 40
1.0
 40
1.0
 40
1.0
 40
1.0
 10
35.1916723297
 20
69.0506697399
 30
0.0
 10
35.2642825097
 20
69.0087491813
 30
0.0
 10
35.4077011654
 20
68.9082159606
 30
0.0
 10
35.6050383107
 20
68.7235949558
 30
0.0
 10
35.7868960341
 20
68.5053580064
 30
0.0
 10
35.9464239407
 20
68.2616915922
 30
0.0
 10
36.0776839816
 20
68.0017039899
 30
0.0
 10
36.1757570792
 20
67.7350918147
 30
0.0
 10
36.2369786128
 20
67.4718809404
 30
0.0
 10
36.2523363108
 20
67.2974086801
 30
0.0
 10
36.2523369174
 20
67.213565181
 30
0.0
  0
SPLINE
  5
2E7
100
AcDbEntity
  8
0
100
AcDbSpline
 62
7
  6
BYLAYER
 70
0
 71
3
 72
15
 73
11
 74
0
 42
0.0000001
 43
0.0000001
 44
0.0000000001
 40
0.0
 40
0.0
 40
0.0
 40
0.0
 40
0.11415483
 40
0.237326361
 40
0.366976207
 40
0.5000000242
 40
0.6330253919
 40
0.7626721589
 40
0.8858495393
 40
1.0
 40
1.0
 40
1.0
 40
1.0
 10
36.252331094
 20
67.376863485
 30
0.0
 10
36.252330571
 20
67.4495274231
 30
0.0
 10
36.2390206619
 20
67.6007357661
 30
0.0
 10
36.1859629923
 20
67.8288508062
 30
0.0
 10
36.1009666531
 20
68.0599132196
 30
0.0
 10
35.9872102382
 20
68.285236704
 30
0.0
 10
35.8489516622
 20
68.4964110976
 30
0.0
 10
35.6913446262
 20
68.6855557356
 30
0.0
 10
35.5203156513
 20
68.8455564955
 30
0.0
 10
35.3960198608
 20
68.9326881252
 30
0.0
 10
35.3330930972
 20
68.9690180873
 30
0.0
  0
SPLINE
  5
2E8
100
AcDbEntity
  8
0
100
AcDbSpline
 62
7
  6
BYLAYER
 70
0
 71
3
 72
12
 73
8
 74
0
 42
0.0000001
 43
0.0000001
 44
0.0000000001
 40
0.0
 40
0.0
 40
0.0
 40
0.0
 40
0.1081627526
 40
0.2183633309
 40
0.4513661832
 40
0.7104197522
 40
1.0
 40
1.0
 40
1.0
 40
1.0
 10
31.0475772687
 20
83.4954325625
 30
0.0
 10
31.0229837213
 20
83.4812332269
 30
0.0
 10
30.9757060447
 20
83.4482222806
 30
0.0
 10
30.890868391
 20
83.364804295
 30
0.0
 10
30.8068786543
 20
83.2278363019
 30
0.0
 10
30.7484267472
 20
83.0293345436
 30
0.0
 10
30.7369087734
 20
82.8847732114
 30
0.0
 10
30.7369093234
 20
82.8087434515
 30
0.0
  0
SPLINE
  5
2E9
100
AcDbEntity
  8
0
100
AcDbSpline
 62
7
  6
BYLAYER
 70
0
 71
3
 72
12
 73
8
 74
0
 42
0.0000001
 43
0.0000001
 44
0.0000000001
 40
0.0
 40
0.0
 40
0.0
 40
0.0
 40
0.1081627935
 40
0.2183649102
 40
0.4513683067
 40
0.7104212799
 40
1.0
 40
1.0
 40
1.0
 40
1.0
 10
34.4416756874
 20
85.4550045011
 30
0.0
 10
34.4662682751
 20
85.4692032826
 30
0.0
 10
34.5184933345
 20
85.4936418447
 30
0.0
 10
34.6331510037
 20
85.5254007881
 30
0.0
 10
34.7937570778
 20
85.5296570505
 30
0.0
 10
34.9948831149
 20
85.4810314118
 30
0.0
 10
35.1258311957
 20
85.418730619
 30
0.0
 10
35.1916723297
 20
85.3807180825
 30
0.0
  0
SPLINE
  5
2EA
100
AcDbEntity
  8
0
100
AcDbSpline
 62
7
  6
BYLAYER
 70
0
 71
3
 72
14
 73
10
 74
0
 42
0.0000001
 43
0.0000001
 44
0.0000000001
 40
0.0
 40
0.0
 40
0.0
 40
0.0
 40
0.2892819907
 40
0.4225411172
 40
0.5484950936
 40
0.667895061
 40
0.781869072
 40
0.8919524501
 40
1.0
 40
1.0
 40
1.0
 40
1.0
 10
46.8589033076
 20
88.4425382705
 30
0.0
 10
46.8589033076
 20
88.290475393
 30
0.0
 10
46.8411491338
 20
88.0672725309
 30
0.0
 10
46.7725327306
 20
87.7867290849
 30
0.0
 10
46.7027122784
 20
87.5997926846
 30
0.0
 10
46.6137450777
 20
87.4324979694
 30
0.0
 10
46.506273465
 20
87.2865442564
 30
0.0
 10
46.3813170645
 20
87.1635741916
 30
0.0
 10
46.2867530544
 20
87.0975801556
 30
0.0
 10
46.2375663168
 20
87.0691823509
 30
0.0
  0
SPLINE
  5
2EB
100
AcDbEntity
  8
0
100
AcDbSpline
 62
7
  6
BYLAYER
 70
0
 71
3
 72
15
 73
11
 74
0
 42
0.0000001
 43
0.0000001
 44
0.0000000001
 40
0.0
 40
0.0
 40
0.0
 40
0.0
 40
0.1141584997
 40
0.2373252489
 40
0.3669754739
 40
0.499998918
 40
0.6330225126
 40
0.7626731772
 40
0.8858406189
 40
1.0
 40
1.0
 40
1.0
 40
1.0
 10
44.7375741321
 20
92.1167677855
 30
0.0
 10
44.8828009586
 20
92.0329229349
 30
0.0
 10
45.1696412221
 20
91.8318563204
 30
0.0
 10
45.5643097182
 20
91.4626024558
 30
0.0
 10
45.9280267773
 20
91.0261351082
 30
0.0
 10
46.247082487
 20
90.5388001238
 30
0.0
 10
46.509601864
 20
90.0188229535
 30
0.0
 10
46.7057385921
 20
89.4856003425
 30
0.0
 10
46.8281915778
 20
88.9591783835
 30
0.0
 10
46.8589033076
 20
88.6102321116
 30
0.0
 10
46.8589033076
 20
88.4425382705
 30
0.0
  0
SPLINE
  5
2EC
100
AcDbEntity
  8
0
100
AcDbSpline
 62
7
  6
BYLAYER
 70
0
 71
3
 72
15
 73
11
 74
0
 42
0.0000001
 43
0.0000001
 44
0.0000000001
 40
0.0
 40
0.0
 40
0.0
 40
0.0
 40
0.114152781
 40
0.2373221433
 40
0.366970794
 40
0.4999933359
 40
0.6330172808
 40
0.7626664617
 40
0.8858478475
 40
1.0
 40
1.0
 40
1.0
 40
1.0
 10
30.736917319
 20
82.6454438956
 30
0.0
 10
30.7369177585
 20
82.572781358
 30
0.0
 10
30.7502274069
 20
82.4215759229
 30
0.0
 10
30.8032831703
 20
82.1934643169
 30
0.0
 10
30.8882777234
 20
81.9624047774
 30
0.0
 10
31.0020308729
 20
81.737082786
 30
0.0
 10
31.1402885465
 20
81.5259084555
 30
0.0
 10
31.2978951834
 20
81.3367597604
 30
0.0
 10
31.468927278
 20
81.1767551258
 30
0.0
 10
31.5932255308
 20
81.0896209975
 30
0.0
 10
31.6561531437
 20
81.0532905452
 30
0.0
  0
SPLINE
  5
2ED
100
AcDbEntity
  8
0
100
AcDbSpline
 62
7
  6
BYLAYER
 70
0
 71
3
 72
12
 73
8
 74
0
 42
0.0000001
 43
0.0000001
 44
0.0000000001
 40
0.0
 40
0.0
 40
0.0
 40
0.0
 40
0.2895787201
 40
0.5486316933
 40
0.7816350898
 40
0.8918372065
 40
1.0
 40
1.0
 40
1.0
 40
1.0
 10
31.7975739111
 20
80.9716388925
 30
0.0
 10
31.8634150452
 20
80.933626356
 30
0.0
 10
31.994363126
 20
80.8713255632
 30
0.0
 10
32.1954891631
 20
80.8226999246
 30
0.0
 10
32.3560952372
 20
80.8269561869
 30
0.0
 10
32.4707529064
 20
80.8587151303
 30
0.0
 10
32.5229779658
 20
80.8831536925
 30
0.0
 10
32.5475705535
 20
80.8973524739
 30
0.0
  0
SPLINE
  5
2EE
100
AcDbEntity
  8
0
100
AcDbSpline
 62
7
  6
BYLAYER
 70
0
 71
3
 72
14
 73
10
 74
0
 42
0.0000001
 43
0.0000001
 44
0.0000000001
 40
0.0
 40
0.0
 40
0.0
 40
0.0
 40
0.1080480577
 40
0.2181318654
 40
0.3321061645
 40
0.4515062392
 40
0.5774601266
 40
0.7107189811
 40
1.0
 40
1.0
 40
1.0
 40
1.0
 10
43.2375819475
 20
92.2653387172
 30
0.0
 10
43.2867675985
 20
92.2937358945
 30
0.0
 10
43.3911998965
 20
92.3426322659
 30
0.0
 10
43.56016935
 20
92.3893616174
 30
0.0
 10
43.7403002934
 20
92.409458027
 30
0.0
 10
43.9296604766
 20
92.4028597679
 30
0.0
 10
44.1264571999
 20
92.369860197
 30
0.0
 10
44.4037157213
 20
92.2890167127
 30
0.0
 10
44.6058870427
 20
92.192795642
 30
0.0
 10
44.7375741321
 20
92.1167677855
 30
0.0
  0
SPLINE
  5
2EF
100
AcDbEntity
  8
0
100
AcDbSpline
 62
7
  6
BYLAYER
 70
0
 71
3
 72
12
 73
8
 74
0
 42
0.0000001
 43
0.0000001
 44
0.0000000001
 40
0.0
 40
0.0
 40
0.0
 40
0.0
 40
0.2895802478
 40
0.5486338168
 40
0.7816366691
 40
0.8918372474
 40
1.0
 40
1.0
 40
1.0
 40
1.0
 10
36.2523369174
 20
83.5436135236
 30
0.0
 10
36.2523374675
 20
83.4675837637
 30
0.0
 10
36.2408194936
 20
83.3230224315
 30
0.0
 10
36.1823675866
 20
83.1245206731
 30
0.0
 10
36.0983778499
 20
82.98755268
 30
0.0
 10
36.0135401962
 20
82.9041346945
 30
0.0
 10
35.9662625196
 20
82.8711237482
 30
0.0
 10
35.9416689721
 20
82.8569244125
 30
0.0
  0
SPLINE
  5
2F0
100
AcDbEntity
  8
0
100
AcDbSpline
 62
7
  6
BYLAYER
 70
0
 71
3
 72
9
 73
5
 74
0
 42
0.0000001
 43
0.0000001
 44
0.0000000001
 40
0.0
 40
0.0
 40
0.0
 40
0.0
 40
0.2579356538
 40
1.0
 40
1.0
 40
1.0
 40
1.0
 10
31.6561531437
 20
81.0532905452
 30
0.0
 10
31.6684389116
 20
81.0461975142
 30
0.0
 10
31.7165440759
 20
81.0195357806
 30
0.0
 10
31.766582144
 20
80.9962975328
 30
0.0
 10
31.8046247089
 20
80.9815167671
 30
0.0
  0
SPLINE
  5
2F1
100
AcDbEntity
  8
0
100
AcDbSpline
 62
7
  6
BYLAYER
 70
0
 71
3
 72
28
 73
24
 74
0
 42
0.0000001
 43
0.0000001
 44
0.0000000001
 40
0.0
 40
0.0
 40
0.0
 40
0.0
 40
0.0551566964
 40
0.1048459009
 40
0.1282052044
 40
0.1509321042
 40
0.1733920241
 40
0.1959712578
 40
0.2190457121
 40
0.2429510667
 40
0.2941898762
 40
0.3219621542
 40
0.3512480511
 40
0.3820608965
 40
0.4143571136
 40
0.4829963582
 40
0.5561562479
 40
0.6323889473
 40
0.7100110468
 40
0.7872455917
 40
0.8623344627
 40
0.9336942364
 40
1.0
 40
1.0
 40
1.0
 40
1.0
 10
31.8046247089
 20
80.9815167671
 30
0.0
 10
31.8579419385
 20
80.9608013005
 30
0.0
 10
31.9632517831
 20
80.9303625906
 30
0.0
 10
32.0977648043
 20
80.9244904406
 30
0.0
 10
32.1958905418
 20
80.9419984824
 30
0.0
 10
32.2633935344
 20
80.9652218007
 30
0.0
 10
32.3256043316
 20
80.9985690908
 30
0.0
 10
32.3818824129
 20
81.0417576162
 30
0.0
 10
32.4317178496
 20
81.0943096963
 30
0.0
 10
32.4902863079
 20
81.1780260866
 30
0.0
 10
32.5325035536
 20
81.2774779927
 30
0.0
 10
32.5591307672
 20
81.3866859433
 30
0.0
 10
32.5718734951
 20
81.4770768755
 30
0.0
 10
32.5766667883
 20
81.5728872135
 30
0.0
 10
32.5724085413
 20
81.7095767473
 30
0.0
 10
32.54633849
 20
81.8888748276
 30
0.0
 10
32.485632276
 20
82.1072137613
 30
0.0
 10
32.3968949003
 20
82.3258020778
 30
0.0
 10
32.2831380471
 20
82.5372494932
 30
0.0
 10
32.1481921232
 20
82.7344144572
 30
0.0
 10
31.9966016565
 20
82.9106819917
 30
0.0
 10
31.8334919597
 20
83.0600490519
 30
0.0
 10
31.715703356
 20
83.1418162764
 30
0.0
 10
31.6561531437
 20
83.1761968297
 30
0.0
  0
SPLINE
  5
2F2
100
AcDbEntity
  8
0
100
AcDbSpline
 62
7
  6
BYLAYER
 70
0
 71
3
 72
15
 73
11
 74
0
 42
0.0000001
 43
0.0000001
 44
0.0000000001
 40
0.0
 40
0.0
 40
0.0
 40
0.0
 40
0.1485214471
 40
0.2830261085
 40
0.4048962736
 40
0.5179158326
 40
0.6278839583
 40
0.741465523
 40
0.8643281266
 40
1.0
 40
1.0
 40
1.0
 40
1.0
 10
31.6561531437
 20
83.1761968297
 30
0.0
 10
31.604647729
 20
83.205932822
 30
0.0
 10
31.5021403357
 20
83.2556577955
 30
0.0
 10
31.344826187
 20
83.299095854
 30
0.0
 10
31.1955295412
 20
83.3057534644
 30
0.0
 10
31.0590818277
 20
83.2740405093
 30
0.0
 10
30.9414058217
 20
83.2039361585
 30
0.0
 10
30.8479521517
 20
83.0987813616
 30
0.0
 10
30.7814846022
 20
82.9638113415
 30
0.0
 10
30.7570195078
 20
82.8624071525
 30
0.0
 10
30.7487974258
 20
82.8087053412
 30
0.0
  0
SPLINE
  5
2F3
100
AcDbEntity
  8
0
100
AcDbSpline
 62
7
  6
BYLAYER
 70
0
 71
3
 72
9
 73
5
 74
0
 42
0.0000001
 43
0.0000001
 44
0.0000000001
 40
0.0
 40
0.0
 40
0.0
 40
0.0
 40
0.2419718772
 40
1.0
 40
1.0
 40
1.0
 40
1.0
 10
30.7487974258
 20
82.8087053412
 30
0.0
 10
30.7467981388
 20
82.7956471725
 30
0.0
 10
30.7396646886
 20
82.7415109134
 30
0.0
 10
30.7369170687
 20
82.6868280622
 30
0.0
 10
30.736917319
 20
82.6454438956
 30
0.0
  0
SPLINE
  5
2F4
100
AcDbEntity
  8
0
100
AcDbSpline
 62
7
  6
BYLAYER
 70
0
 71
3
 72
12
 73
8
 74
0
 42
0.0000001
 43
0.0000001
 44
0.0000000001
 40
0.0
 40
0.0
 40
0.0
 40
0.0
 40
0.2895787201
 40
0.5486316933
 40
0.7816350898
 40
0.8918372065
 40
1.0
 40
1.0
 40
1.0
 40
1.0
 10
31.7975739111
 20
83.4211461439
 30
0.0
 10
31.731732777
 20
83.4591586804
 30
0.0
 10
31.6007846962
 20
83.5214594732
 30
0.0
 10
31.3996586592
 20
83.5700851119
 30
0.0
 10
31.2390525851
 20
83.5658288495
 30
0.0
 10
31.1243949159
 20
83.5340699061
 30
0.0
 10
31.0721698564
 20
83.509631344
 30
0.0
 10
31.0475772687
 20
83.4954325625
 30
0.0
  0
SPLINE
  5
2F5
100
AcDbEntity
  8
0
100
AcDbSpline
 62
7
  6
BYLAYER
 70
0
 71
3
 72
21
 73
17
 74
0
 42
0.0000001
 43
0.0000001
 44
0.0000000001
 40
0.0
 40
0.0
 40
0.0
 40
0.0
 40
0.0428265368
 40
0.0874210446
 40
0.1352168486
 40
0.1871402706
 40
0.2436032725
 40
0.3045779987
 40
0.3696937216
 40
0.4383208458
 40
0.5825532947
 40
0.729592089
 40
0.8016010569
 40
0.8712166638
 40
0.9375998888
 40
1.0
 40
1.0
 40
1.0
 40
1.0
 10
32.5475705535
 20
80.8973524739
 30
0.0
 10
32.5845518263
 20
80.9187039892
 30
0.0
 10
32.6546526721
 20
80.9723633321
 30
0.0
 10
32.7390125981
 20
81.0790407767
 30
0.0
 10
32.8020543062
 20
81.2094991974
 30
0.0
 10
32.84287627
 20
81.3605578601
 30
0.0
 10
32.8610455351
 20
81.5290334698
 30
0.0
 10
32.8563994678
 20
81.7114563458
 30
0.0
 10
32.8291410673
 20
81.9040773956
 30
0.0
 10
32.7623285269
 20
82.1734830289
 30
0.0
 10
32.6270498135
 20
82.5080223344
 30
0.0
 10
32.4364452078
 20
82.818174117
 30
0.0
 10
32.2550736012
 20
83.0420864403
 30
0.0
 10
32.110137961
 20
83.1909046621
 30
0.0
 10
31.9585183211
 20
83.3184801717
 30
0.0
 10
31.8514577571
 20
83.3900369947
 30
0.0
 10
31.7975739111
 20
83.4211461439
 30
0.0
  0
SPLINE
  5
2F6
100
AcDbEntity
  8
0
100
AcDbSpline
 62
7
  6
BYLAYER
 70
0
 71
3
 72
15
 73
11
 74
0
 42
0.0000001
 43
0.0000001
 44
0.0000000001
 40
0.0
 40
0.0
 40
0.0
 40
0.0
 40
0.1141538955
 40
0.2373248521
 40
0.3669742658
 40
0.4999983967
 40
0.6330227505
 40
0.7626728157
 40
0.8858447981
 40
1.0
 40
1.0
 40
1.0
 40
1.0
 10
35.1916723297
 20
85.3807180825
 30
0.0
 10
35.2642825097
 20
85.3387975239
 30
0.0
 10
35.4077011654
 20
85.2382643032
 30
0.0
 10
35.6050383107
 20
85.0536432984
 30
0.0
 10
35.7868960341
 20
84.835406349
 30
0.0
 10
35.9464239407
 20
84.5917399348
 30
0.0
 10
36.0776839816
 20
84.3317523325
 30
0.0
 10
36.1757570792
 20
84.0651401573
 30
0.0
 10
36.2369786128
 20
83.801929283
 30
0.0
 10
36.2523363108
 20
83.6274570227
 30
0.0
 10
36.2523369174
 20
83.5436135236
 30
0.0
  0
SPLINE
  5
2F7
100
AcDbEntity
  8
0
100
AcDbSpline
 62
7
  6
BYLAYER
 70
0
 71
3
 72
15
 73
11
 74
0
 42
0.0000001
 43
0.0000001
 44
0.0000000001
 40
0.0
 40
0.0
 40
0.0
 40
0.0
 40
0.11415483
 40
0.237326361
 40
0.366976207
 40
0.5000000242
 40
0.6330253919
 40
0.7626721589
 40
0.8858495393
 40
1.0
 40
1.0
 40
1.0
 40
1.0
 10
36.252331094
 20
83.7069118276
 30
0.0
 10
36.252330571
 20
83.7795757657
 30
0.0
 10
36.2390206619
 20
83.9307841087
 30
0.0
 10
36.1859629923
 20
84.1588991488
 30
0.0
 10
36.1009666531
 20
84.3899615622
 30
0.0
 10
35.9872102382
 20
84.6152850466
 30
0.0
 10
35.8489516622
 20
84.8264594402
 30
0.0
 10
35.6913446262
 20
85.0156040782
 30
0.0
 10
35.5203156513
 20
85.1756048381
 30
0.0
 10
35.3960198608
 20
85.2627364678
 30
0.0
 10
35.3330930972
 20
85.2990664299
 30
0.0
  0
SPLINE
  5
2F8
100
AcDbEntity
  8
0
100
AcDbSpline
 62
7
  6
BYLAYER
 70
0
 71
3
 72
13
 73
9
 74
0
 42
0.0000001
 43
0.0000001
 44
0.0000000001
 40
0.0
 40
0.0
 40
0.0
 40
0.0
 40
0.1177887393
 40
0.2364340954
 40
0.3565711022
 40
0.4788810491
 40
0.7321563967
 40
1.0
 40
1.0
 40
1.0
 40
1.0
 10
40.693279518
 20
93.2740073018
 30
0.0
 10
40.8206277415
 20
93.3043962511
 30
0.0
 10
41.0812721476
 20
93.34603572
 30
0.0
 10
41.4787694865
 20
93.351560481
 30
0.0
 10
41.8783941821
 20
93.3037813842
 30
0.0
 10
42.4146695875
 20
93.1723832097
 30
0.0
 10
43.0763215422
 20
92.8875298359
 30
0.0
 10
43.5611576821
 20
92.5654829276
 30
0.0
 10
43.7964492946
 20
92.383081491
 30
0.0
  0
SPLINE
  5
2F9
100
AcDbEntity
  8
0
100
AcDbSpline
 62
7
  6
BYLAYER
 70
0
 71
3
 72
9
 73
5
 74
0
 42
0.0000001
 43
0.0000001
 44
0.0000000001
 40
0.0
 40
0.0
 40
0.0
 40
0.0
 40
0.2543237571
 40
1.0
 40
1.0
 40
1.0
 40
1.0
 10
46.6276997187
 20
87.4283670559
 30
0.0
 10
46.6348890566
 20
87.3710114822
 30
0.0
 10
46.6598695196
 20
87.1450975516
 30
0.0
 10
46.6714197786
 20
86.9176362879
 30
0.0
 10
46.6714197786
 20
86.7481540238
 30
0.0
  0
SPLINE
  5
2FA
100
AcDbEntity
  8
0
100
AcDbSpline
 62
7
  6
BYLAYER
 70
0
 71
3
 72
12
 73
8
 74
0
 42
0.0000001
 43
0.0000001
 44
0.0000000001
 40
0.0
 40
0.0
 40
0.0
 40
0.0
 40
0.2624761067
 40
0.5144722534
 40
0.7590446207
 40
0.8798124695
 40
1.0
 40
1.0
 40
1.0
 40
1.0
 10
46.6714197786
 20
86.7481540238
 30
0.0
 10
46.6714197786
 20
86.5199188966
 30
0.0
 10
46.6408857443
 20
86.0716192611
 30
0.0
 10
46.4892950061
 20
85.4259960698
 30
0.0
 10
46.2675463575
 20
84.9324295886
 30
0.0
 10
46.0327612094
 20
84.5806237695
 30
0.0
 10
45.896478349
 20
84.4206781393
 30
0.0
 10
45.8239831993
 20
84.3454019451
 30
0.0
  0
SPLINE
  5
2FB
100
AcDbEntity
  8
0
100
AcDbSpline
 62
7
  6
BYLAYER
 70
0
 71
3
 72
11
 73
7
 74
0
 42
0.0000001
 43
0.0000001
 44
0.0000000001
 40
0.0
 40
0.0
 40
0.0
 40
0.0
 40
0.2793964726
 40
0.538341251
 40
0.7776004681
 40
1.0
 40
1.0
 40
1.0
 40
1.0
 10
46.36388499
 20
86.3195012315
 30
0.0
 10
46.36388499
 20
86.1303425465
 30
0.0
 10
46.3430886091
 20
85.7653396465
 30
0.0
 10
46.241511857
 20
85.2468453954
 30
0.0
 10
46.0718807387
 20
84.786989922
 30
0.0
 10
45.9095107438
 20
84.5169520516
 30
0.0
 10
45.8181350713
 20
84.3972779383
 30
0.0
  0
SPLINE
  5
2FC
100
AcDbEntity
  8
0
100
AcDbSpline
 62
7
  6
BYLAYER
 70
0
 71
3
 72
13
 73
9
 74
0
 42
0.0000001
 43
0.0000001
 44
0.0000000001
 40
0.0
 40
0.0
 40
0.0
 40
0.0
 40
0.1051839412
 40
0.215196742
 40
0.3307622439
 40
0.4523478144
 40
0.7140371248
 40
1.0
 40
1.0
 40
1.0
 40
1.0
 10
40.7489250842
 20
93.2420561147
 30
0.0
 10
40.8444119719
 20
93.2527330233
 30
0.0
 10
41.0414870244
 20
93.2609967613
 30
0.0
 10
41.3432379649
 20
93.2356416152
 30
0.0
 10
41.654811207
 20
93.1732306961
 30
0.0
 10
42.0906695434
 20
93.0380068479
 30
0.0
 10
42.6459213947
 20
92.7746906204
 30
0.0
 10
43.0616583732
 20
92.4932670812
 30
0.0
 10
43.2684366931
 20
92.3336511701
 30
0.0
  0
SPLINE
  5
2FD
100
AcDbEntity
  8
0
100
AcDbSpline
 62
7
  6
BYLAYER
 70
0
 71
3
 72
9
 73
5
 74
0
 42
0.0000001
 43
0.0000001
 44
0.0000000001
 40
0.0
 40
0.0
 40
0.0
 40
0.0
 40
0.2573811895
 40
1.0
 40
1.0
 40
1.0
 40
1.0
 10
46.3091046144
 20
87.0848257908
 30
0.0
 10
46.3181330512
 20
87.0195910779
 30
0.0
 10
46.3491855689
 20
86.7656089098
 30
0.0
 10
46.36388499
 20
86.509516229
 30
0.0
 10
46.36388499
 20
86.3195012315
 30
0.0
  0
SPLINE
  5
2FE
100
AcDbEntity
  8
0
100
AcDbSpline
 62
7
  6
BYLAYER
 70
0
 71
3
 72
11
 73
7
 74
0
 42
0.0000001
 43
0.0000001
 44
0.0000000001
 40
0.0
 40
0.0
 40
0.0
 40
0.0
 40
0.2372523758
 40
0.4999990758
 40
0.7627462798
 40
1.0
 40
1.0
 40
1.0
 40
1.0
 10
45.4446956331
 20
90.4838084227
 30
0.0
 10
45.4948929606
 20
90.4548276378
 30
0.0
 10
45.5898869711
 20
90.374889738
 30
0.0
 10
45.7007155878
 20
90.2233742624
 30
0.0
 10
45.7765183984
 20
90.0516361491
 30
0.0
 10
45.7982504957
 20
89.9293997185
 30
0.0
 10
45.7982504957
 20
89.8714368369
 30
0.0
  0
SPLINE
  5
2FF
100
AcDbEntity
  8
0
100
AcDbSpline
 62
7
  6
BYLAYER
 70
0
 71
3
 72
11
 73
7
 74
0
 42
0.0000001
 43
0.0000001
 44
0.0000000001
 40
0.0
 40
0.0
 40
0.0
 40
0.0
 40
0.2895401978
 40
0.5491171512
 40
0.782255066
 40
1.0
 40
1.0
 40
1.0
 40
1.0
 10
45.7982504957
 20
68.6423739915
 30
0.0
 10
45.7982504957
 20
68.6170546799
 30
0.0
 10
45.7943844708
 20
68.5688764207
 30
0.0
 10
45.7749079362
 20
68.5026709996
 30
0.0
 10
45.7420547035
 20
68.4489304061
 30
0.0
 10
45.7111705925
 20
68.4230257329
 30
0.0
 10
45.6946805259
 20
68.4135052492
 30
0.0
  0
SPLINE
  5
300
100
AcDbEntity
  8
0
100
AcDbSpline
 62
7
  6
BYLAYER
 70
0
 71
3
 72
11
 73
7
 74
0
 42
0.0000001
 43
0.0000001
 44
0.0000000001
 40
0.0
 40
0.0
 40
0.0
 40
0.0
 40
0.2895391946
 40
0.5491157945
 40
0.7822541179
 40
1.0
 40
1.0
 40
1.0
 40
1.0
 10
44.7375917959
 20
68.0299990064
 30
0.0
 10
44.7595184248
 20
68.0173399476
 30
0.0
 10
44.8031739539
 20
67.9965999182
 30
0.0
 10
44.8702460467
 20
67.9803653845
 30
0.0
 10
44.9332117523
 20
67.9819471119
 30
0.0
 10
44.9710869958
 20
67.9957408157
 30
0.0
 10
44.9875766884
 20
68.0052610951
 30
0.0
  0
SPLINE
  5
301
100
AcDbEntity
  8
0
100
AcDbSpline
 62
7
  6
BYLAYER
 70
0
 71
3
 72
11
 73
7
 74
0
 42
0.0000001
 43
0.0000001
 44
0.0000000001
 40
0.0
 40
0.0
 40
0.0
 40
0.0
 40
0.2177460211
 40
0.4508843679
 40
0.7104607696
 40
1.0
 40
1.0
 40
1.0
 40
1.0
 10
26.8098578866
 20
101.1228059513
 30
0.0
 10
26.8263475949
 20
101.1323262282
 30
0.0
 10
26.8642228471
 20
101.1461199515
 30
0.0
 10
26.9271885523
 20
101.1477016476
 30
0.0
 10
26.9942606407
 20
101.1314671521
 30
0.0
 10
27.0379161474
 20
101.1107271007
 30
0.0
 10
27.0598427793
 20
101.0980680403
 30
0.0
  0
SPLINE
  5
302
100
AcDbEntity
  8
0
100
AcDbSpline
 62
7
  6
BYLAYER
 70
0
 71
3
 72
11
 73
7
 74
0
 42
0.0000001
 43
0.0000001
 44
0.0000000001
 40
0.0
 40
0.0
 40
0.0
 40
0.0
 40
0.217745073
 40
0.4508830113
 40
0.7104597664
 40
1.0
 40
1.0
 40
1.0
 40
1.0
 10
26.1027540497
 20
100.7145617976
 30
0.0
 10
26.0862639774
 20
100.7050412989
 30
0.0
 10
26.0553798451
 20
100.679136628
 30
0.0
 10
26.0225266397
 20
100.6253960192
 30
0.0
 10
26.0030500743
 20
100.559190621
 30
0.0
 10
25.9991840795
 20
100.5110123702
 30
0.0
 10
25.9991840795
 20
100.4856930551
 30
0.0
  0
SPLINE
  5
303
100
AcDbEntity
  8
0
100
AcDbSpline
 62
7
  6
BYLAYER
 70
0
 71
3
 72
11
 73
7
 74
0
 42
0.0000001
 43
0.0000001
 44
0.0000000001
 40
0.0
 40
0.0
 40
0.0
 40
0.0
 40
0.2372539654
 40
0.5000012591
 40
0.7627478695
 40
1.0
 40
1.0
 40
1.0
 40
1.0
 10
45.0911466585
 20
89.463192683
 30
0.0
 10
45.0911466585
 20
89.5211556246
 30
0.0
 10
45.0694145257
 20
89.6433921369
 30
0.0
 10
44.9936116481
 20
89.8151302861
 30
0.0
 10
44.882783029
 20
89.9666456858
 30
0.0
 10
44.7877890715
 20
90.0465835139
 30
0.0
 10
44.7375917959
 20
90.0755642689
 30
0.0
  0
SPLINE
  5
304
100
AcDbEntity
  8
0
100
AcDbSpline
 62
7
  6
BYLAYER
 70
0
 71
3
 72
11
 73
7
 74
0
 42
0.0000001
 43
0.0000001
 44
0.0000000001
 40
0.0
 40
0.0
 40
0.0
 40
0.0
 40
0.2895391946
 40
0.5491157945
 40
0.7822541179
 40
1.0
 40
1.0
 40
1.0
 40
1.0
 10
26.3527389421
 20
100.6898238864
 30
0.0
 10
26.3308123132
 20
100.7024829451
 30
0.0
 10
26.2871567841
 20
100.7232229746
 30
0.0
 10
26.2200846914
 20
100.7394575082
 30
0.0
 10
26.1571189857
 20
100.7378757808
 30
0.0
 10
26.1192437422
 20
100.7240820771
 30
0.0
 10
26.1027540497
 20
100.7145617976
 30
0.0
  0
SPLINE
  5
305
100
AcDbEntity
  8
0
100
AcDbSpline
 62
7
  6
BYLAYER
 70
0
 71
3
 72
11
 73
7
 74
0
 42
0.0000001
 43
0.0000001
 44
0.0000000001
 40
0.0
 40
0.0
 40
0.0
 40
0.0
 40
0.217745073
 40
0.4508830113
 40
0.7104597664
 40
1.0
 40
1.0
 40
1.0
 40
1.0
 10
44.9875766884
 20
68.0052610951
 30
0.0
 10
45.0040667607
 20
68.0147815939
 30
0.0
 10
45.0349508929
 20
68.0406862647
 30
0.0
 10
45.0678040983
 20
68.0944268736
 30
0.0
 10
45.0872806638
 20
68.1606322718
 30
0.0
 10
45.0911466585
 20
68.2088105225
 30
0.0
 10
45.0911466585
 20
68.2341298377
 30
0.0
  0
SPLINE
  5
306
100
AcDbEntity
  8
0
100
AcDbSpline
 62
7
  6
BYLAYER
 70
0
 71
3
 72
11
 73
7
 74
0
 42
0.0000001
 43
0.0000001
 44
0.0000000001
 40
0.0
 40
0.0
 40
0.0
 40
0.0
 40
0.2897033281
 40
0.5490895198
 40
0.7822165953
 40
1.0
 40
1.0
 40
1.0
 40
1.0
 10
45.0557911722
 20
68.4586674797
 30
0.0
 10
45.0557911722
 20
68.4231997786
 30
0.0
 10
45.0504137469
 20
68.3557477282
 30
0.0
 10
45.0230964758
 20
68.2630721457
 30
0.0
 10
44.9771032636
 20
68.1878711514
 30
0.0
 10
44.933901677
 20
68.1515516347
 30
0.0
 10
44.9108110513
 20
68.1382203455
 30
0.0
  0
SPLINE
  5
307
100
AcDbEntity
  8
0
100
AcDbSpline
 62
7
  6
BYLAYER
 70
0
 71
3
 72
11
 73
7
 74
0
 42
0.0000001
 43
0.0000001
 44
0.0000000001
 40
0.0
 40
0.0
 40
0.0
 40
0.0
 40
0.237239768
 40
0.4999988393
 40
0.7627585384
 40
1.0
 40
1.0
 40
1.0
 40
1.0
 10
44.5608143646
 20
90.1367993366
 30
0.0
 10
44.6310871268
 20
90.0962282563
 30
0.0
 10
44.7640687683
 20
89.9843073962
 30
0.0
 10
44.9192764168
 20
89.7722114441
 30
0.0
 10
45.0253544225
 20
89.5317496603
 30
0.0
 10
45.0557911722
 20
89.3606232331
 30
0.0
 10
45.0557911722
 20
89.2794791165
 30
0.0
  0
SPLINE
  5
308
100
AcDbEntity
  8
0
100
AcDbSpline
 62
7
  6
BYLAYER
 70
0
 71
3
 72
11
 73
7
 74
0
 42
0.0000001
 43
0.0000001
 44
0.0000000001
 40
0.0
 40
0.0
 40
0.0
 40
0.0
 40
0.2177843137
 40
0.4509117637
 40
0.7102976701
 40
1.0
 40
1.0
 40
1.0
 40
1.0
 10
26.1795196867
 20
100.5816025473
 30
0.0
 10
26.2026097915
 20
100.5949335357
 30
0.0
 10
26.2556628969
 20
100.6141869421
 30
0.0
 10
26.3437832008
 20
100.6164181312
 30
0.0
 10
26.4376987929
 20
100.59373919
 30
0.0
 10
26.4988011966
 20
100.5646715913
 30
0.0
 10
26.5295163734
 20
100.5469385769
 30
0.0
  0
SPLINE
  5
309
100
AcDbEntity
  8
0
100
AcDbSpline
 62
7
  6
BYLAYER
 70
0
 71
3
 72
13
 73
9
 74
0
 42
0.0000001
 43
0.0000001
 44
0.0000000001
 40
0.0
 40
0.0
 40
0.0
 40
0.0
 40
0.0988978863
 40
0.2017651723
 40
0.3115668729
 40
0.4302721423
 40
0.6967088375
 40
1.0
 40
1.0
 40
1.0
 40
1.0
 10
34.9650523525
 20
86.0430858705
 30
0.0
 10
35.0063788217
 20
86.0657878896
 30
0.0
 10
35.0967503326
 20
86.1018174617
 30
0.0
 10
35.244864365
 20
86.1235426081
 30
0.0
 10
35.403549929
 20
86.1136300737
 30
0.0
 10
35.6336779182
 20
86.0569729687
 30
0.0
 10
35.9294456437
 20
85.905262571
 30
0.0
 10
36.139540072
 20
85.7302740536
 30
0.0
 10
36.2423906902
 20
85.6286332252
 30
0.0
  0
SPLINE
  5
30A
100
AcDbEntity
  8
0
100
AcDbSpline
 62
7
  6
BYLAYER
 70
0
 71
3
 72
11
 73
7
 74
0
 42
0.0000001
 43
0.0000001
 44
0.0000000001
 40
0.0
 40
0.0
 40
0.0
 40
0.0
 40
0.2428439014
 40
0.4886464695
 40
0.7402546647
 40
1.0
 40
1.0
 40
1.0
 40
1.0
 10
22.6570049373
 20
91.0062775064
 30
0.0
 10
22.817197189
 20
91.0987639972
 30
0.0
 10
23.152718056
 20
91.2629973778
 30
0.0
 10
23.6895012892
 20
91.4407668994
 30
0.0
 10
24.2573968403
 20
91.5496289222
 30
0.0
 10
24.64710216
 20
91.5755273819
 30
0.0
 10
24.8449395162
 20
91.5775406268
 30
0.0
  0
SPLINE
  5
30B
100
AcDbEntity
  8
0
100
AcDbSpline
 62
7
  6
BYLAYER
 70
0
 71
3
 72
11
 73
7
 74
0
 42
0.0000001
 43
0.0000001
 44
0.0000000001
 40
0.0
 40
0.0
 40
0.0
 40
0.0
 40
0.2177800798
 40
0.4509057002
 40
0.7102930775
 40
1.0
 40
1.0
 40
1.0
 40
1.0
 10
19.7802012084
 20
96.9686915963
 30
0.0
 10
19.7571133424
 20
96.9553618852
 30
0.0
 10
19.7139170031
 20
96.9190458704
 30
0.0
 10
19.6679316744
 20
96.8438511661
 30
0.0
 10
19.6406210433
 20
96.7511836988
 30
0.0
 10
19.6352472719
 20
96.6837377226
 30
0.0
 10
19.6352495446
 20
96.6482732691
 30
0.0
  0
SPLINE
  5
30C
100
AcDbEntity
  8
0
100
AcDbSpline
 62
7
  6
BYLAYER
 70
0
 71
3
 72
9
 73
5
 74
0
 42
0.0000001
 43
0.0000001
 44
0.0000000001
 40
0.0
 40
0.0
 40
0.0
 40
0.0
 40
0.2456835971
 40
1.0
 40
1.0
 40
1.0
 40
1.0
 10
24.3763761502
 20
99.6222785965
 30
0.0
 10
24.3840003584
 20
99.6266804051
 30
0.0
 10
24.4160373408
 20
99.6428406328
 30
0.0
 10
24.4516933588
 20
99.6514609529
 30
0.0
 10
24.4786132945
 20
99.6538940958
 30
0.0
  0
SPLINE
  5
30D
100
AcDbEntity
  8
0
100
AcDbSpline
 62
7
  6
BYLAYER
 70
0
 71
3
 72
9
 73
5
 74
0
 42
0.0000001
 43
0.0000001
 44
0.0000000001
 40
0.0
 40
0.0
 40
0.0
 40
0.0
 40
0.243965189
 40
1.0
 40
1.0
 40
1.0
 40
1.0
 10
24.4786132945
 20
99.6538940958
 30
0.0
 10
24.4834238174
 20
99.6543288922
 30
0.0
 10
24.5031864307
 20
99.6556015836
 30
0.0
 10
24.5230630602
 20
99.6548739244
 30
0.0
 10
24.5379540575
 20
99.6533544829
 30
0.0
  0
SPLINE
  5
30E
100
AcDbEntity
  8
0
100
AcDbSpline
 62
7
  6
BYLAYER
 70
0
 71
3
 72
9
 73
5
 74
0
 42
0.0000001
 43
0.0000001
 44
0.0000000001
 40
0.0
 40
0.0
 40
0.0
 40
0.0
 40
0.2302071184
 40
1.0
 40
1.0
 40
1.0
 40
1.0
 10
24.5379540575
 20
99.6533544829
 30
0.0
 10
24.5532517228
 20
99.6517935459
 30
0.0
 10
24.6192553178
 20
99.6405497586
 30
0.0
 10
24.681801663
 20
99.6133180489
 30
0.0
 10
24.7263310848
 20
99.5876058852
 30
0.0
  0
SPLINE
  5
30F
100
AcDbEntity
  8
0
100
AcDbSpline
 62
7
  6
BYLAYER
 70
0
 71
3
 72
9
 73
5
 74
0
 42
0.0000001
 43
0.0000001
 44
0.0000000001
 40
0.0
 40
0.0
 40
0.0
 40
0.0
 40
0.5191552544
 40
1.0
 40
1.0
 40
1.0
 40
1.0
 10
17.5179882015
 20
79.2928365717
 30
0.0
 10
17.4059265917
 20
79.8169997075
 30
0.0
 10
17.2530518055
 20
80.8416016468
 30
0.0
 10
17.2551661059
 20
81.8796127736
 30
0.0
 10
17.302911039
 20
82.3737656316
 30
0.0
  0
SPLINE
  5
310
100
AcDbEntity
  8
0
100
AcDbSpline
 62
7
  6
BYLAYER
 70
0
 71
3
 72
13
 73
9
 74
0
 42
0.0000001
 43
0.0000001
 44
0.0000000001
 40
0.0
 40
0.0
 40
0.0
 40
0.0
 40
0.3063283668
 40
0.5828058969
 40
0.7036327616
 40
0.811862735
 40
0.9093071587
 40
1.0
 40
1.0
 40
1.0
 40
1.0
 10
18.6841424388
 20
74.2210489806
 30
0.0
 10
18.693773149
 20
74.2043681936
 30
0.0
 10
18.7086830782
 20
74.1705407174
 30
0.0
 10
18.7165799615
 20
74.1263270052
 30
0.0
 10
18.7140541248
 20
74.0944691633
 30
0.0
 10
18.7082093095
 20
74.0745870469
 30
0.0
 10
18.6983164715
 20
74.0584996719
 30
0.0
 10
18.689080993
 20
74.0506940189
 30
0.0
 10
18.6841424388
 20
74.0478426618
 30
0.0
  0
SPLINE
  5
311
100
AcDbEntity
  8
0
100
AcDbSpline
 62
7
  6
BYLAYER
 70
0
 71
3
 72
13
 73
9
 74
0
 42
0.0000001
 43
0.0000001
 44
0.0000000001
 40
0.0
 40
0.0
 40
0.0
 40
0.0
 40
0.090693071
 40
0.1881372662
 40
0.296366797
 40
0.4171932349
 40
0.6936705319
 40
1.0
 40
1.0
 40
1.0
 40
1.0
 10
18.1841403571
 20
74.9138668637
 30
0.0
 10
18.1890788949
 20
74.9167182113
 30
0.0
 10
18.2004563616
 20
74.9208138073
 30
0.0
 10
18.2193347164
 20
74.9213379567
 30
0.0
 10
18.2394754385
 20
74.9164590077
 30
0.0
 10
18.2683279836
 20
74.9027179526
 30
0.0
 10
18.3026697644
 20
74.8737725579
 30
0.0
 10
18.3245102931
 20
74.8439466711
 30
0.0
 10
18.3341409816
 20
74.8272659219
 30
0.0
  0
SPLINE
  5
312
100
AcDbEntity
  8
0
100
AcDbSpline
 62
7
  6
BYLAYER
 70
0
 71
3
 72
12
 73
8
 74
0
 42
0.0000001
 43
0.0000001
 44
0.0000000001
 40
0.0
 40
0.0
 40
0.0
 40
0.0
 40
0.2895700372
 40
0.5486410397
 40
0.7816368638
 40
0.8918393782
 40
1.0
 40
1.0
 40
1.0
 40
1.0
 10
23.2769285132
 20
75.2356631057
 30
0.0
 10
23.2769285132
 20
75.1089532632
 30
0.0
 10
23.2577220694
 20
74.8680215964
 30
0.0
 10
23.1603197155
 20
74.5371798843
 30
0.0
 10
23.0203073629
 20
74.3089228678
 30
0.0
 10
22.8789395079
 20
74.1698707405
 30
0.0
 10
22.8001298999
 20
74.1148742539
 30
0.0
 10
22.7591442587
 20
74.0912057777
 30
0.0
  0
SPLINE
  5
313
100
AcDbEntity
  8
0
100
AcDbSpline
 62
7
  6
BYLAYER
 70
0
 71
3
 72
11
 73
7
 74
0
 42
0.0000001
 43
0.0000001
 44
0.0000000001
 40
0.0
 40
0.0
 40
0.0
 40
0.0
 40
0.2696207002
 40
0.5291642504
 40
0.7723272172
 40
1.0
 40
1.0
 40
1.0
 40
1.0
 10
16.9999686251
 20
82.9116513614
 30
0.0
 10
16.9710457623
 20
82.9617469512
 30
0.0
 10
16.9277442617
 20
83.0686096427
 30
0.0
 10
16.9115914614
 20
83.2360398604
 30
0.0
 10
16.9479159147
 20
83.3916845755
 30
0.0
 10
17.0079807314
 20
83.4770202132
 30
0.0
 10
17.0441273319
 20
83.5098734748
 30
0.0
  0
SPLINE
  5
314
100
AcDbEntity
  8
0
100
AcDbSpline
 62
7
  6
BYLAYER
 70
0
 71
3
 72
12
 73
8
 74
0
 42
0.0000001
 43
0.0000001
 44
0.0000000001
 40
0.0
 40
0.0
 40
0.0
 40
0.0
 40
0.1086500311
 40
0.2192679802
 40
0.4526709392
 40
0.7113788427
 40
1.0
 40
1.0
 40
1.0
 40
1.0
 10
20.9480721171
 20
78.1262386484
 30
0.0
 10
20.9785552251
 20
78.1438376589
 30
0.0
 10
21.0431818349
 20
78.1742580253
 30
0.0
 10
21.1848511611
 20
78.2142646248
 30
0.0
 10
21.3830167257
 20
78.2215297435
 30
0.0
 10
21.6316474639
 20
78.1648497403
 30
0.0
 10
21.7939151227
 20
78.0904747878
 30
0.0
 10
21.8755682891
 20
78.044916885
 30
0.0
  0
LINE
  5
315
100
AcDbEntity
  8
0
100
AcDbLine
 62
7
  6
BYLAYER
 10
18.8601678184
 20
85.1601831088
 11
17.0441273319
 21
83.5098734748
  0
SPLINE
  5
316
100
AcDbEntity
  8
0
100
AcDbSpline
 62
7
  6
BYLAYER
 70
0
 71
3
 72
17
 73
13
 74
0
 42
0.0000001
 43
0.0000001
 44
0.0000000001
 40
0.0
 40
0.0
 40
0.0
 40
0.0
 40
0.0428737817
 40
0.0872181896
 40
0.1342701652
 40
0.1848926833
 40
0.2981405873
 40
0.4271937048
 40
0.5682140289
 40
0.7152459291
 40
0.8614246162
 40
1.0
 40
1.0
 40
1.0
 40
1.0
 10
20.2591641419
 20
78.4213242064
 30
0.0
 10
20.3150480014
 20
78.4535961379
 30
0.0
 10
20.4369216338
 20
78.5059985005
 30
0.0
 10
20.6372313942
 20
78.5424194864
 30
0.0
 10
20.8522585119
 20
78.5371864867
 30
0.0
 10
21.1646298891
 20
78.4732942851
 30
0.0
 10
21.5697523269
 20
78.285201366
 30
0.0
 10
22.0295849805
 20
77.9313070621
 30
0.0
 10
22.453682434
 20
77.4643875753
 30
0.0
 10
22.8135531857
 20
76.9157109761
 30
0.0
 10
23.0850121427
 20
76.3225970263
 30
0.0
 10
23.1995897266
 20
75.9068812747
 30
0.0
 10
23.2350815681
 20
75.7013420181
 30
0.0
  0
SPLINE
  5
317
100
AcDbEntity
  8
0
100
AcDbSpline
 62
7
  6
BYLAYER
 70
0
 71
3
 72
9
 73
5
 74
0
 42
0.0000001
 43
0.0000001
 44
0.0000000001
 40
0.0
 40
0.0
 40
0.0
 40
0.0
 40
0.2588367446
 40
1.0
 40
1.0
 40
1.0
 40
1.0
 10
23.2379138632
 20
75.684670407
 30
0.0
 10
23.244326515
 20
75.6462924136
 30
0.0
 10
23.2663016608
 20
75.497582044
 30
0.0
 10
23.2769285132
 20
75.3470796823
 30
0.0
 10
23.2769285132
 20
75.2356631057
 30
0.0
  0
LINE
  5
318
100
AcDbEntity
  8
0
100
AcDbLine
 62
7
  6
BYLAYER
 10
25.5584934499
 20
68.7626406295
 11
27.8957321282
 21
69.5102135259
  0
LINE
  5
319
100
AcDbEntity
  8
0
100
AcDbLine
 62
7
  6
BYLAYER
 10
18.2331091117
 20
75.5194928188
 11
18.2255357091
 21
75.5363873745
  0
SPLINE
  5
31A
100
AcDbEntity
  8
0
100
AcDbSpline
 62
7
  6
BYLAYER
 70
0
 71
3
 72
15
 73
11
 74
0
 42
0.0000001
 43
0.0000001
 44
0.0000000001
 40
0.0
 40
0.0
 40
0.0
 40
0.0
 40
0.1448233502
 40
0.2857286241
 40
0.4212789789
 40
0.5504079323
 40
0.6725189943
 40
0.7876125643
 40
0.896358814
 40
1.0
 40
1.0
 40
1.0
 40
1.0
 10
18.2255357091
 20
75.5363873745
 30
0.0
 10
18.1143851711
 20
75.7849761026
 30
0.0
 10
17.9155555655
 20
76.2849237658
 30
0.0
 10
17.6888361668
 20
77.0450092775
 30
0.0
 10
17.5411436893
 20
77.7944769934
 30
0.0
 10
17.4760799449
 20
78.5203406376
 30
0.0
 10
17.4964680534
 20
79.2106850545
 30
0.0
 10
17.6048517808
 20
79.8545355832
 30
0.0
 10
17.8036635857
 20
80.4403384244
 30
0.0
 10
18.0020279134
 20
80.7906648156
 30
0.0
 10
18.1159627417
 20
80.9487608175
 30
0.0
  0
SPLINE
  5
31B
100
AcDbEntity
  8
0
100
AcDbSpline
 62
7
  6
BYLAYER
 70
0
 71
3
 72
15
 73
11
 74
0
 42
0.0000001
 43
0.0000001
 44
0.0000000001
 40
0.0
 40
0.0
 40
0.0
 40
0.0
 40
0.1035975295
 40
0.2123176675
 40
0.3274048264
 40
0.4495283204
 40
0.5786821717
 40
0.714259855
 40
0.8551841758
 40
1.0
 40
1.0
 40
1.0
 40
1.0
 10
23.8763864269
 20
70.9714177107
 30
0.0
 10
23.6819527488
 20
70.9517380509
 30
0.0
 10
23.2781809611
 20
70.9552477764
 30
0.0
 10
22.6696947396
 20
71.0768001926
 30
0.0
 10
22.0561852951
 20
71.3062489511
 30
0.0
 10
21.4465106061
 20
71.6356368491
 30
0.0
 10
20.8489742034
 20
72.0572058573
 30
0.0
 10
20.2725599053
 20
72.5624686711
 30
0.0
 10
19.7268039431
 20
73.1417091696
 30
0.0
 10
19.3929128346
 20
73.5658767838
 30
0.0
 10
19.2331132321
 20
73.7874444874
 30
0.0
  0
SPLINE
  5
31C
100
AcDbEntity
  8
0
100
AcDbSpline
 62
7
  6
BYLAYER
 70
0
 71
3
 72
11
 73
7
 74
0
 42
0.0000001
 43
0.0000001
 44
0.0000000001
 40
0.0
 40
0.0
 40
0.0
 40
0.0
 40
0.2276807478
 40
0.470841682
 40
0.7303843093
 40
1.0
 40
1.0
 40
1.0
 40
1.0
 10
25.5584934499
 20
68.7626406295
 30
0.0
 10
25.5119665891
 20
68.747763052
 30
0.0
 10
25.4080295693
 20
68.7384180922
 30
0.0
 10
25.2550728382
 20
68.7847783696
 30
0.0
 10
25.1181537709
 20
68.8824855207
 30
0.0
 10
25.0472580457
 20
68.9734145961
 30
0.0
 10
25.0183356558
 20
69.0235093667
 30
0.0
  0
SPLINE
  5
31D
100
AcDbEntity
  8
0
100
AcDbSpline
 62
7
  6
BYLAYER
 70
0
 71
3
 72
12
 73
8
 74
0
 42
0.0000001
 43
0.0000001
 44
0.0000000001
 40
0.0
 40
0.0
 40
0.0
 40
0.0
 40
0.2888082029
 40
0.5475973221
 40
0.7808986593
 40
0.89144173
 40
1.0
 40
1.0
 40
1.0
 40
1.0
 10
23.2414426135
 20
75.6839500302
 30
0.0
 10
23.2403108507
 20
75.5899429167
 30
0.0
 10
23.2239624241
 20
75.4112411582
 30
0.0
 10
23.1489553401
 20
75.1661604239
 30
0.0
 10
23.0433642923
 20
74.9972025783
 30
0.0
 10
22.9375408295
 20
74.8939717239
 30
0.0
 10
22.8786545474
 20
74.8530287355
 30
0.0
 10
22.8480505045
 20
74.8353599049
 30
0.0
  0
SPLINE
  5
31E
100
AcDbEntity
  8
0
100
AcDbSpline
 62
7
  6
BYLAYER
 70
0
 71
3
 72
9
 73
5
 74
0
 42
0.0000001
 43
0.0000001
 44
0.0000000001
 40
0.0
 40
0.0
 40
0.0
 40
0.0
 40
0.4868971653
 40
1.0
 40
1.0
 40
1.0
 40
1.0
 10
23.9176269601
 20
69.9650562052
 30
0.0
 10
23.5907970014
 20
70.1572725029
 30
0.0
 10
22.9433689761
 20
70.593399147
 30
0.0
 10
22.3455288886
 20
71.0945698394
 30
0.0
 10
22.0515254593
 20
71.3651594426
 30
0.0
  0
SPLINE
  5
31F
100
AcDbEntity
  8
0
100
AcDbSpline
 62
7
  6
BYLAYER
 70
0
 71
3
 72
9
 73
5
 74
0
 42
0.0000001
 43
0.0000001
 44
0.0000000001
 40
0.0
 40
0.0
 40
0.0
 40
0.0
 40
0.2452232883
 40
1.0
 40
1.0
 40
1.0
 40
1.0
 10
24.7108156307
 20
69.5516502136
 30
0.0
 10
24.644228896
 20
69.5818935753
 30
0.0
 10
24.3744370342
 20
69.7090411772
 30
0.0
 10
24.1116558077
 20
69.8509433286
 30
0.0
 10
23.9176269601
 20
69.9650562052
 30
0.0
  0
SPLINE
  5
320
100
AcDbEntity
  8
0
100
AcDbSpline
 62
7
  6
BYLAYER
 70
0
 71
3
 72
11
 73
7
 74
0
 42
0.0000001
 43
0.0000001
 44
0.0000000001
 40
0.0
 40
0.0
 40
0.0
 40
0.0
 40
0.2414877865
 40
0.4865523277
 40
0.7385036304
 40
1.0
 40
1.0
 40
1.0
 40
1.0
 10
29.9625004118
 20
69.3455906605
 30
0.0
 10
29.7696709546
 20
69.2396910074
 30
0.0
 10
29.3613211544
 20
69.0604780162
 30
0.0
 10
28.7049285376
 20
68.8996150584
 30
0.0
 10
28.0133102066
 20
68.8454158489
 30
0.0
 10
27.5449301291
 20
68.8784661353
 30
0.0
 10
27.3088894933
 20
68.9106387113
 30
0.0
  0
SPLINE
  5
321
100
AcDbEntity
  8
0
100
AcDbSpline
 62
7
  6
BYLAYER
 70
0
 71
3
 72
11
 73
7
 74
0
 42
0.0000001
 43
0.0000001
 44
0.0000000001
 40
0.0
 40
0.0
 40
0.0
 40
0.0
 40
0.2614962747
 40
0.5134474709
 40
0.7585120952
 40
1.0
 40
1.0
 40
1.0
 40
1.0
 10
18.0475678322
 20
84.9518141259
 30
0.0
 10
18.137726989
 20
85.1723170545
 30
0.0
 10
18.3432968207
 20
85.5944699586
 30
0.0
 10
18.7360464716
 20
86.1663275007
 30
0.0
 10
19.2035570006
 20
86.6543461313
 30
0.0
 10
19.5629362846
 20
86.9183793471
 30
0.0
 10
19.7510634845
 20
87.0324238124
 30
0.0
  0
SPLINE
  5
322
100
AcDbEntity
  8
0
100
AcDbSpline
 62
7
  6
BYLAYER
 70
0
 71
3
 72
11
 73
7
 74
0
 42
0.0000001
 43
0.0000001
 44
0.0000000001
 40
0.0
 40
0.0
 40
0.0
 40
0.0
 40
0.2597463093
 40
0.5113546722
 40
0.7571568223
 40
1.0
 40
1.0
 40
1.0
 40
1.0
 10
36.4457037113
 20
71.4845391751
 30
0.0
 10
36.3450386898
 20
71.3142010889
 30
0.0
 10
36.1277499842
 20
70.9896320801
 30
0.0
 10
35.7495079734
 20
70.5522204921
 30
0.0
 10
35.3271415924
 20
70.1762133823
 30
0.0
 10
35.0171331981
 20
69.967749215
 30
0.0
 10
34.8569321263
 20
69.875257632
 30
0.0
  0
SPLINE
  5
323
100
AcDbEntity
  8
0
100
AcDbSpline
 62
7
  6
BYLAYER
 70
0
 71
3
 72
9
 73
5
 74
0
 42
0.0000001
 43
0.0000001
 44
0.0000000001
 40
0.0
 40
0.0
 40
0.0
 40
0.0
 40
0.2681364145
 40
1.0
 40
1.0
 40
1.0
 40
1.0
 10
35.9355609926
 20
66.502987789
 30
0.0
 10
35.9728969462
 20
66.4847188736
 30
0.0
 10
36.1144833351
 20
66.4218207755
 30
0.0
 10
36.2670754783
 20
66.3810904
 30
0.0
 10
36.3800928924
 20
66.3711705662
 30
0.0
  0
SPLINE
  5
324
100
AcDbEntity
  8
0
100
AcDbSpline
 62
7
  6
BYLAYER
 70
0
 71
3
 72
15
 73
11
 74
0
 42
0.0000001
 43
0.0000001
 44
0.0000000001
 40
0.0
 40
0.0
 40
0.0
 40
0.0
 40
0.1001684614
 40
0.2141627529
 40
0.3403026596
 40
0.4749268323
 40
0.6132683173
 40
0.7501192235
 40
0.8804305576
 40
1.0
 40
1.0
 40
1.0
 40
1.0
 10
35.4137408763
 20
69.7769952527
 30
0.0
 10
35.5128991934
 20
69.7604916392
 30
0.0
 10
35.7194967395
 20
69.6911266597
 30
0.0
 10
36.0122524252
 20
69.5115209953
 30
0.0
 10
36.2943015766
 20
69.2601388838
 30
0.0
 10
36.5504562489
 20
68.950478492
 30
0.0
 10
36.7670605541
 20
68.5993851935
 30
0.0
 10
36.9322030612
 20
68.2259803101
 30
0.0
 10
37.036903901
 20
67.8508634648
 30
0.0
 10
37.0639156482
 20
67.5998256051
 30
0.0
 10
37.0639156482
 20
67.479833742
 30
0.0
  0
SPLINE
  5
325
100
AcDbEntity
  8
0
100
AcDbSpline
 62
7
  6
BYLAYER
 70
0
 71
3
 72
9
 73
5
 74
0
 42
0.0000001
 43
0.0000001
 44
0.0000000001
 40
0.0
 40
0.0
 40
0.0
 40
0.0
 40
0.2685566662
 40
1.0
 40
1.0
 40
1.0
 40
1.0
 10
37.0639156482
 20
67.479833742
 30
0.0
 10
37.0639156482
 20
67.4400693598
 30
0.0
 10
37.0585823779
 20
67.2921866991
 30
0.0
 10
37.0304098617
 20
67.1441145746
 30
0.0
 10
36.9923938127
 20
67.0427033379
 30
0.0
  0
SPLINE
  5
326
100
AcDbEntity
  8
0
100
AcDbSpline
 62
7
  6
BYLAYER
 70
0
 71
3
 72
9
 73
5
 74
0
 42
0.0000001
 43
0.0000001
 44
0.0000000001
 40
0.0
 40
0.0
 40
0.0
 40
0.0
 40
0.2471776277
 40
1.0
 40
1.0
 40
1.0
 40
1.0
 10
32.6689975473
 20
87.0604208073
 30
0.0
 10
32.7917530467
 20
86.9174289805
 30
0.0
 10
33.2797955283
 20
86.3316033519
 30
0.0
 10
33.7338350298
 20
85.7175413
 30
0.0
 10
34.0557580247
 20
85.2423438751
 30
0.0
  0
SPLINE
  5
327
100
AcDbEntity
  8
0
100
AcDbSpline
 62
7
  6
BYLAYER
 70
0
 71
3
 72
9
 73
5
 74
0
 42
0.0000001
 43
0.0000001
 44
0.0000000001
 40
0.0
 40
0.0
 40
0.0
 40
0.0
 40
0.252481465
 40
1.0
 40
1.0
 40
1.0
 40
1.0
 10
35.5645539295
 20
82.6290525284
 30
0.0
 10
35.6485929797
 20
82.4558629847
 30
0.0
 10
35.9719056145
 20
81.765336733
 30
0.0
 10
36.2568151017
 20
81.0567386805
 30
0.0
 10
36.4457037113
 20
80.5190101588
 30
0.0
  0
SPLINE
  5
328
100
AcDbEntity
  8
0
100
AcDbSpline
 62
7
  6
BYLAYER
 70
0
 71
3
 72
9
 73
5
 74
0
 42
0.0000001
 43
0.0000001
 44
0.0000000001
 40
0.0
 40
0.0
 40
0.0
 40
0.0
 40
0.2627183391
 40
1.0
 40
1.0
 40
1.0
 40
1.0
 10
36.9923938127
 20
84.3295969224
 30
0.0
 10
37.0040389924
 20
84.2850859651
 30
0.0
 10
37.0436324141
 20
84.114520866
 30
0.0
 10
37.0639156482
 20
83.939000028
 30
0.0
 10
37.0639156482
 20
83.8098820846
 30
0.0
  0
SPLINE
  5
329
100
AcDbEntity
  8
0
100
AcDbSpline
 62
7
  6
BYLAYER
 70
0
 71
3
 72
11
 73
7
 74
0
 42
0.0000001
 43
0.0000001
 44
0.0000000001
 40
0.0
 40
0.0
 40
0.0
 40
0.0
 40
0.2893404052
 40
0.5487617571
 40
0.7822411485
 40
1.0
 40
1.0
 40
1.0
 40
1.0
 10
37.0639156482
 20
83.8098820846
 30
0.0
 10
37.0639156482
 20
83.7226251464
 30
0.0
 10
37.0508933277
 20
83.5565894785
 30
0.0
 10
36.9847446213
 20
83.3280524519
 30
0.0
 10
36.8735208501
 20
83.1416050054
 30
0.0
 10
36.7688117009
 20
83.050175268
 30
0.0
 10
36.7126495602
 20
83.0161406296
 30
0.0
  0
SPLINE
  5
32A
100
AcDbEntity
  8
0
100
AcDbSpline
 62
7
  6
BYLAYER
 70
0
 71
3
 72
15
 73
11
 74
0
 42
0.0000001
 43
0.0000001
 44
0.0000000001
 40
0.0
 40
0.0
 40
0.0
 40
0.0
 40
0.1001684614
 40
0.2141627529
 40
0.3403026596
 40
0.4749268323
 40
0.6132683173
 40
0.7501192235
 40
0.8804305576
 40
1.0
 40
1.0
 40
1.0
 40
1.0
 10
21.2715463733
 20
94.2718586857
 30
0.0
 10
21.3707046904
 20
94.2553550721
 30
0.0
 10
21.5773022365
 20
94.1859900927
 30
0.0
 10
21.8700579223
 20
94.0063844283
 30
0.0
 10
22.1521070737
 20
93.7550023168
 30
0.0
 10
22.408261746
 20
93.445341925
 30
0.0
 10
22.6248660512
 20
93.0942486265
 30
0.0
 10
22.7900085582
 20
92.7208437431
 30
0.0
 10
22.8947093981
 20
92.3457268978
 30
0.0
 10
22.9217211453
 20
92.0946890381
 30
0.0
 10
22.9217211453
 20
91.974697175
 30
0.0
  0
SPLINE
  5
32B
100
AcDbEntity
  8
0
100
AcDbSpline
 62
7
  6
BYLAYER
 70
0
 71
3
 72
11
 73
7
 74
0
 42
0.0000001
 43
0.0000001
 44
0.0000000001
 40
0.0
 40
0.0
 40
0.0
 40
0.0
 40
0.2893757324
 40
0.5487406605
 40
0.7822439481
 40
1.0
 40
1.0
 40
1.0
 40
1.0
 10
22.9217211453
 20
91.974697175
 30
0.0
 10
22.9217211453
 20
91.8874288736
 30
0.0
 10
22.9087173812
 20
91.721392967
 30
0.0
 10
22.8425340935
 20
91.4928702211
 30
0.0
 10
22.7313563126
 20
91.3063963429
 30
0.0
 10
22.6266084164
 20
91.2150040724
 30
0.0
 10
22.5704566182
 20
91.1809529718
 30
0.0
  0
SPLINE
  5
32C
100
AcDbEntity
  8
0
100
AcDbSpline
 62
7
  6
BYLAYER
 70
0
 71
3
 72
9
 73
5
 74
0
 42
0.0000001
 43
0.0000001
 44
0.0000000001
 40
0.0
 40
0.0
 40
0.0
 40
0.0
 40
0.2331950403
 40
1.0
 40
1.0
 40
1.0
 40
1.0
 10
20.3838410486
 20
94.0773376871
 30
0.0
 10
20.3684604547
 20
94.044328048
 30
0.0
 10
20.3105190789
 20
93.8990360163
 30
0.0
 10
20.283485657
 20
93.7426147732
 30
0.0
 10
20.2755224087
 20
93.6231313823
 30
0.0
  0
SPLINE
  5
32D
100
AcDbEntity
  8
0
100
AcDbSpline
 62
7
  6
BYLAYER
 70
0
 71
3
 72
11
 73
7
 74
0
 42
0.0000001
 43
0.0000001
 44
0.0000000001
 40
0.0
 40
0.0
 40
0.0
 40
0.0
 40
0.2372381281
 40
0.4999988382
 40
0.7627601861
 40
1.0
 40
1.0
 40
1.0
 40
1.0
 10
42.8284814962
 20
89.1365609065
 30
0.0
 10
42.8987466052
 20
89.0960001693
 30
0.0
 10
43.0317118345
 20
88.9840958162
 30
0.0
 10
43.1869007122
 20
88.7720305501
 30
0.0
 10
43.2929616253
 20
88.5316003472
 30
0.0
 10
43.3233920506
 20
88.3604963884
 30
0.0
 10
43.3233870655
 20
88.2793640738
 30
0.0
  0
SPLINE
  5
32E
100
AcDbEntity
  8
0
100
AcDbSpline
 62
7
  6
BYLAYER
 70
0
 71
3
 72
9
 73
5
 74
0
 42
0.0000001
 43
0.0000001
 44
0.0000000001
 40
0.0
 40
0.0
 40
0.0
 40
0.0
 40
0.2711484444
 40
1.0
 40
1.0
 40
1.0
 40
1.0
 10
43.3233870655
 20
67.3767400725
 30
0.0
 10
43.3233882431
 20
67.358636498
 30
0.0
 10
43.3206402284
 20
67.291997186
 30
0.0
 10
43.306067732
 20
67.2251181242
 30
0.0
 10
43.2861408463
 20
67.1807224185
 30
0.0
  0
SPLINE
  5
32F
100
AcDbEntity
  8
0
100
AcDbSpline
 62
7
  6
BYLAYER
 70
0
 71
3
 72
9
 73
5
 74
0
 42
0.0000001
 43
0.0000001
 44
0.0000000001
 40
0.0
 40
0.0
 40
0.0
 40
0.0
 40
0.5167825492
 40
1.0
 40
1.0
 40
1.0
 40
1.0
 10
43.2861408463
 20
67.1807224185
 30
0.0
 10
43.2754595849
 20
67.1569253162
 30
0.0
 10
43.2494167518
 20
67.1129436625
 30
0.0
 10
43.2117667341
 20
67.0780159202
 30
0.0
 10
43.1914962365
 20
67.0644517924
 30
0.0
  0
SPLINE
  5
330
100
AcDbEntity
  8
0
100
AcDbSpline
 62
7
  6
BYLAYER
 70
0
 71
3
 72
11
 73
7
 74
0
 42
0.0000001
 43
0.0000001
 44
0.0000000001
 40
0.0
 40
0.0
 40
0.0
 40
0.0
 40
0.2897058361
 40
0.5490927416
 40
0.782218825
 40
1.0
 40
1.0
 40
1.0
 40
1.0
 10
38.2323044795
 20
64.4374098417
 30
0.0
 10
38.2630155899
 20
64.4196765847
 30
0.0
 10
38.324110673
 20
64.3906090684
 30
0.0
 10
38.4180155564
 20
64.3679286928
 30
0.0
 10
38.506126114
 20
64.3701562706
 30
0.0
 10
38.5591733906
 20
64.3894068069
 30
0.0
 10
38.5822606635
 20
64.402736174
 30
0.0
  0
SPLINE
  5
331
100
AcDbEntity
  8
0
100
AcDbSpline
 62
7
  6
BYLAYER
 70
0
 71
3
 72
11
 73
7
 74
0
 42
0.0000001
 43
0.0000001
 44
0.0000000001
 40
0.0
 40
0.0
 40
0.0
 40
0.0
 40
0.2202187743
 40
0.4578791073
 40
0.7174040063
 40
1.0
 40
1.0
 40
1.0
 40
1.0
 10
20.452583256
 20
78.4904084738
 30
0.0
 10
20.399106126
 20
78.4335577185
 30
0.0
 10
20.3030559693
 20
78.3004995293
 30
0.0
 10
20.2025755589
 20
78.0651557827
 30
0.0
 10
20.1424808832
 20
77.794059625
 30
0.0
 10
20.1302869979
 20
77.6015589913
 30
0.0
 10
20.1302869979
 20
77.5014011629
 30
0.0
  0
SPLINE
  5
332
100
AcDbEntity
  8
0
100
AcDbSpline
 62
7
  6
BYLAYER
 70
0
 71
3
 72
11
 73
7
 74
0
 42
0.0000001
 43
0.0000001
 44
0.0000000001
 40
0.0
 40
0.0
 40
0.0
 40
0.0
 40
0.2286041549
 40
0.4664770024
 40
0.7218455868
 40
1.0
 40
1.0
 40
1.0
 40
1.0
 10
36.7126495602
 20
83.0161406296
 30
0.0
 10
36.6688252671
 20
82.9895828105
 30
0.0
 10
36.5716859155
 20
82.9471792439
 30
0.0
 10
36.4102671501
 20
82.9222056442
 30
0.0
 10
36.2365776514
 20
82.9348685392
 30
0.0
 10
36.1204667951
 20
82.9663374959
 30
0.0
 10
36.0617079601
 20
82.9871937116
 30
0.0
  0
SPLINE
  5
333
100
AcDbEntity
  8
0
100
AcDbSpline
 62
7
  6
BYLAYER
 70
0
 71
3
 72
15
 73
11
 74
0
 42
0.0000001
 43
0.0000001
 44
0.0000000001
 40
0.0
 40
0.0
 40
0.0
 40
0.0
 40
0.1522085959
 40
0.2994991701
 40
0.4397327452
 40
0.5711834771
 40
0.6927156434
 40
0.803998526
 40
0.9057569225
 40
1.0
 40
1.0
 40
1.0
 40
1.0
 10
27.2555364654
 20
78.4192849683
 30
0.0
 10
27.3938923508
 20
78.1198055255
 30
0.0
 10
27.6395228961
 20
77.5177334179
 30
0.0
 10
27.9135391441
 20
76.603322822
 30
0.0
 10
28.0825787664
 20
75.7092412211
 30
0.0
 10
28.1423913779
 20
74.8568720857
 30
0.0
 10
28.0911997072
 20
74.0662461682
 30
0.0
 10
27.929051817
 20
73.3556061588
 30
0.0
 10
27.6581497938
 20
72.742184685
 30
0.0
 10
27.3992586629
 20
72.3989123529
 30
0.0
 10
27.2555364654
 20
72.2537695567
 30
0.0
  0
SPLINE
  5
334
100
AcDbEntity
  8
0
100
AcDbSpline
 62
7
  6
BYLAYER
 70
0
 71
3
 72
11
 73
7
 74
0
 42
0.0000001
 43
0.0000001
 44
0.0000000001
 40
0.0
 40
0.0
 40
0.0
 40
0.0
 40
0.2696201514
 40
0.5291638031
 40
0.7723271481
 40
1.0
 40
1.0
 40
1.0
 40
1.0
 10
26.0183397755
 20
69.6008786227
 30
0.0
 10
26.0472626787
 20
69.550782963
 30
0.0
 10
26.1181583672
 20
69.459851544
 30
0.0
 10
26.2550815482
 20
69.3621478659
 30
0.0
 10
26.4080366304
 20
69.3157832639
 30
0.0
 10
26.51197231
 20
69.3251327303
 30
0.0
 10
26.5584976132
 20
69.3400098098
 30
0.0
  0
SPLINE
  5
335
100
AcDbEntity
  8
0
100
AcDbSpline
 62
7
  6
BYLAYER
 70
0
 71
3
 72
11
 73
7
 74
0
 42
0.0000001
 43
0.0000001
 44
0.0000000001
 40
0.0
 40
0.0
 40
0.0
 40
0.0
 40
0.2276242553
 40
0.4708967552
 40
0.7304892568
 40
1.0
 40
1.0
 40
1.0
 40
1.0
 10
25.2456003065
 20
71.6140020266
 30
0.0
 10
25.1988120194
 20
71.5991199489
 30
0.0
 10
25.0942062207
 20
71.5901551626
 30
0.0
 10
24.9406901485
 20
71.6376983871
 30
0.0
 10
24.8035267889
 20
71.7365751289
 30
0.0
 10
24.7324563439
 20
71.8280816952
 30
0.0
 10
24.703389777
 20
71.8784261863
 30
0.0
  0
SPLINE
  5
336
100
AcDbEntity
  8
0
100
AcDbSpline
 62
7
  6
BYLAYER
 70
0
 71
3
 72
11
 73
7
 74
0
 42
0.0000001
 43
0.0000001
 44
0.0000000001
 40
0.0
 40
0.0
 40
0.0
 40
0.0
 40
0.2695535341
 40
0.52911114
 40
0.7723449718
 40
1.0
 40
1.0
 40
1.0
 40
1.0
 10
27.7967206165
 20
71.9911231267
 30
0.0
 10
27.767730805
 20
72.0413346743
 30
0.0
 10
27.6967147821
 20
72.1325116995
 30
0.0
 10
27.5596565843
 20
72.2307263968
 30
0.0
 10
27.4064647571
 20
72.2777221546
 30
0.0
 10
27.3021941242
 20
72.2686307589
 30
0.0
 10
27.2555364654
 20
72.2537695567
 30
0.0
  0
SPLINE
  5
337
100
AcDbEntity
  8
0
100
AcDbSpline
 62
7
  6
BYLAYER
 70
0
 71
3
 72
15
 73
11
 74
0
 42
0.0000001
 43
0.0000001
 44
0.0000000001
 40
0.0
 40
0.0
 40
0.0
 40
0.0
 40
0.1508644419
 40
0.2927769998
 40
0.4257624018
 40
0.5505010621
 40
0.6682029308
 40
0.7807109604
 40
0.8904075355
 40
1.0
 40
1.0
 40
1.0
 40
1.0
 10
23.9383548818
 20
85.0558434773
 30
0.0
 10
23.70199337
 20
85.1948531779
 30
0.0
 10
23.2302049977
 20
85.4433391141
 30
0.0
 10
22.5089819121
 20
85.7284056469
 30
0.0
 10
21.8037095731
 20
85.910809273
 30
0.0
 10
21.1231212901
 20
85.9877177395
 30
0.0
 10
20.47562972
 20
85.9571601364
 30
0.0
 10
19.8699255291
 20
85.8183454143
 30
0.0
 10
19.3152095832
 20
85.5724493429
 30
0.0
 10
18.9872604634
 20
85.3406987155
 30
0.0
 10
18.8362469266
 20
85.2108027389
 30
0.0
  0
SPLINE
  5
338
100
AcDbEntity
  8
0
100
AcDbSpline
 62
7
  6
BYLAYER
 70
0
 71
3
 72
9
 73
5
 74
0
 42
0.0000001
 43
0.0000001
 44
0.0000000001
 40
0.0
 40
0.0
 40
0.0
 40
0.0
 40
0.480701373
 40
1.0
 40
1.0
 40
1.0
 40
1.0
 10
17.4442747196
 20
82.0921509952
 30
0.0
 10
17.4065200663
 20
81.6844050587
 30
0.0
 10
17.3982502328
 20
80.8290220019
 30
0.0
 10
17.5040284626
 20
79.9814096738
 30
0.0
 10
17.5834272121
 20
79.5462238799
 30
0.0
  0
LINE
  5
339
100
AcDbEntity
  8
0
100
AcDbLine
 62
7
  6
BYLAYER
 10
28.8957362916
 20
70.0875827061
 11
26.5584976132
 21
69.3400098098
  0
SPLINE
  5
33A
100
AcDbEntity
  8
0
100
AcDbSpline
 62
7
  6
BYLAYER
 70
0
 71
3
 72
11
 73
7
 74
0
 42
0.0000001
 43
0.0000001
 44
0.0000000001
 40
0.0
 40
0.0
 40
0.0
 40
0.0
 40
0.2252249595
 40
0.4651880842
 40
0.7229729362
 40
1.0
 40
1.0
 40
1.0
 40
1.0
 10
35.2232048584
 20
86.1370467637
 30
0.0
 10
35.1944180537
 20
86.1026592364
 30
0.0
 10
35.142182868
 20
86.0253563533
 30
0.0
 10
35.0839719277
 20
85.8930046341
 30
0.0
 10
35.0443427894
 20
85.7433596733
 30
0.0
 10
35.031128908
 20
85.6373685889
 30
0.0
 10
35.0273824229
 20
85.5823350597
 30
0.0
  0
SPLINE
  5
33B
100
AcDbEntity
  8
0
100
AcDbSpline
 62
7
  6
BYLAYER
 70
0
 71
3
 72
10
 73
6
 74
0
 42
0.0000001
 43
0.0000001
 44
0.0000000001
 40
0.0
 40
0.0
 40
0.0
 40
0.0
 40
0.2372638006
 40
0.4799274275
 40
1.0
 40
1.0
 40
1.0
 40
1.0
 10
22.5704566182
 20
91.1809529718
 30
0.0
 10
22.5376364832
 20
91.161050462
 30
0.0
 10
22.467009384
 20
91.1273441824
 30
0.0
 10
22.3095256621
 20
91.0870512247
 30
0.0
 10
22.1831889769
 20
91.0907268142
 30
0.0
 10
22.1001961873
 20
91.1045398857
 30
0.0
  0
SPLINE
  5
33C
100
AcDbEntity
  8
0
100
AcDbSpline
 62
7
  6
BYLAYER
 70
0
 71
3
 72
11
 73
7
 74
0
 42
0.0000001
 43
0.0000001
 44
0.0000000001
 40
0.0
 40
0.0
 40
0.0
 40
0.0
 40
0.2428439014
 40
0.4886464695
 40
0.7402546647
 40
1.0
 40
1.0
 40
1.0
 40
1.0
 10
34.8569321263
 20
69.875257632
 30
0.0
 10
34.6967398746
 20
69.7827711412
 30
0.0
 10
34.3612190075
 20
69.6185377606
 30
0.0
 10
33.8244357743
 20
69.440768239
 30
0.0
 10
33.2565402233
 20
69.3319062162
 30
0.0
 10
32.8668349035
 20
69.3060077565
 30
0.0
 10
32.6689975473
 20
69.3039945116
 30
0.0
  0
SPLINE
  5
33D
100
AcDbEntity
  8
0
100
AcDbSpline
 62
7
  6
BYLAYER
 70
0
 71
3
 72
15
 73
11
 74
0
 42
0.0000001
 43
0.0000001
 44
0.0000000001
 40
0.0
 40
0.0
 40
0.0
 40
0.0
 40
0.0951119083
 40
0.1977486916
 40
0.3095910007
 40
0.4312462688
 40
0.5623899852
 40
0.7019852165
 40
0.8485107733
 40
1.0
 40
1.0
 40
1.0
 40
1.0
 10
18.3149186424
 20
80.6341037358
 30
0.0
 10
18.2017002914
 20
80.5091543449
 30
0.0
 10
17.9987832351
 20
80.2187172724
 30
0.0
 10
17.7866349712
 20
79.7089433293
 30
0.0
 10
17.6596464201
 20
79.1239003109
 30
0.0
 10
17.6194097445
 20
78.4766437302
 30
0.0
 10
17.6661086267
 20
77.7809038592
 30
0.0
 10
17.798387167
 20
77.0516826887
 30
0.0
 10
18.0132825058
 20
76.3050460055
 30
0.0
 10
18.2061807779
 20
75.8122898246
 30
0.0
 10
18.3149186304
 20
75.5667283536
 30
0.0
  0
SPLINE
  5
33E
100
AcDbEntity
  8
0
100
AcDbSpline
 62
7
  6
BYLAYER
 70
0
 71
3
 72
9
 73
5
 74
0
 42
0.0000001
 43
0.0000001
 44
0.0000000001
 40
0.0
 40
0.0
 40
0.0
 40
0.0
 40
0.4893528339
 40
1.0
 40
1.0
 40
1.0
 40
1.0
 10
22.6810475933
 20
90.9876496336
 30
0.0
 10
22.4451388053
 20
90.8116602122
 30
0.0
 10
22.0009147741
 20
90.3988526647
 30
0.0
 10
21.6487535593
 20
89.9063508077
 30
0.0
 10
21.4924956545
 20
89.6419424556
 30
0.0
  0
SPLINE
  5
33F
100
AcDbEntity
  8
0
100
AcDbSpline
 62
7
  6
BYLAYER
 70
0
 71
3
 72
15
 73
11
 74
0
 42
0.0000001
 43
0.0000001
 44
0.0000000001
 40
0.0
 40
0.0
 40
0.0
 40
0.0
 40
0.0946140541
 40
0.1967484555
 40
0.3082761184
 40
0.4298621385
 40
0.5611790779
 40
0.701139263
 40
0.8480943168
 40
1.0
 40
1.0
 40
1.0
 40
1.0
 10
25.2456003065
 20
71.6140020266
 30
0.0
 10
25.3748206297
 20
71.7496547717
 30
0.0
 10
25.6070643013
 20
72.0679960346
 30
0.0
 10
25.8499620026
 20
72.632337207
 30
0.0
 10
25.9953783262
 20
73.2834128683
 30
0.0
 10
26.0413440383
 20
74.0060141543
 30
0.0
 10
25.9877904459
 20
74.7840493236
 30
0.0
 10
25.836248436
 20
75.5998799122
 30
0.0
 10
25.5903921932
 20
76.4346966541
 30
0.0
 10
25.3698612686
 20
76.9849227471
 30
0.0
 10
25.2456003065
 20
77.2588502142
 30
0.0
  0
SPLINE
  5
340
100
AcDbEntity
  8
0
100
AcDbSpline
 62
7
  6
BYLAYER
 70
0
 71
3
 72
8
 73
4
 74
0
 42
0.0000001
 43
0.0000001
 44
0.0000000001
 40
0.0
 40
0.0
 40
0.0
 40
0.0
 40
1.0
 40
1.0
 40
1.0
 40
1.0
 10
25.2456003065
 20
71.6140020266
 30
0.0
 10
25.9156234918
 20
71.8271181234
 30
0.0
 10
26.5855990784
 20
72.0403839034
 30
0.0
 10
27.2555364654
 20
72.2537695567
 30
0.0
  0
SPLINE
  5
341
100
AcDbEntity
  8
0
100
AcDbSpline
 62
7
  6
BYLAYER
 70
0
 71
3
 72
9
 73
5
 74
0
 42
0.0000001
 43
0.0000001
 44
0.0000000001
 40
0.0
 40
0.0
 40
0.0
 40
0.0
 40
0.4999994695
 40
1.0
 40
1.0
 40
1.0
 40
1.0
 10
17.9999727453
 20
83.4890206176
 30
0.0
 10
17.8156879476
 20
83.4298122076
 30
0.0
 10
17.4582871221
 20
83.2725323678
 30
0.0
 10
17.1433841685
 20
83.0416462478
 30
0.0
 10
16.9999685812
 20
82.9116514371
 30
0.0
  0
SPLINE
  5
342
100
AcDbEntity
  8
0
100
AcDbSpline
 62
7
  6
BYLAYER
 70
0
 71
3
 72
11
 73
7
 74
0
 42
0.0000001
 43
0.0000001
 44
0.0000000001
 40
0.0
 40
0.0
 40
0.0
 40
0.0
 40
0.2828488168
 40
0.5422984249
 40
0.7798963581
 40
1.0
 40
1.0
 40
1.0
 40
1.0
 10
21.8013124726
 20
81.3017914202
 30
0.0
 10
21.592811592
 20
81.4221667364
 30
0.0
 10
21.1775887518
 20
81.6279477846
 30
0.0
 10
20.5411192347
 20
81.8274891918
 30
0.0
 10
19.9309206664
 20
81.8993050503
 30
0.0
 10
19.5391153391
 20
81.8573360464
 30
0.0
 10
19.357028802
 20
81.8132504382
 30
0.0
  0
SPLINE
  5
343
100
AcDbEntity
  8
0
100
AcDbSpline
 62
7
  6
BYLAYER
 70
0
 71
3
 72
11
 73
7
 74
0
 42
0.0000001
 43
0.0000001
 44
0.0000000001
 40
0.0
 40
0.0
 40
0.0
 40
0.0
 40
0.2664374206
 40
0.5241911495
 40
0.7696757136
 40
1.0
 40
1.0
 40
1.0
 40
1.0
 10
24.2455961432
 20
78.9908986179
 30
0.0
 10
24.0704977514
 20
79.2354739351
 30
0.0
 10
23.7042598711
 20
79.7015641671
 30
0.0
 10
23.1041823073
 20
80.3319038055
 30
0.0
 10
22.4735330505
 20
80.8709830959
 30
0.0
 10
22.0265006447
 20
81.1717819096
 30
0.0
 10
21.8013124726
 20
81.3017914202
 30
0.0
  0
SPLINE
  5
344
100
AcDbEntity
  8
0
100
AcDbSpline
 62
7
  6
BYLAYER
 70
0
 71
3
 72
8
 73
4
 74
0
 42
0.0000001
 43
0.0000001
 44
0.0000000001
 40
0.0
 40
0.0
 40
0.0
 40
0.0
 40
1.0
 40
1.0
 40
1.0
 40
1.0
 10
20.9160552635
 20
83.2340121381
 30
0.0
 10
20.3962880243
 20
82.7605256055
 30
0.0
 10
19.8766054982
 20
82.2869460538
 30
0.0
 10
19.357028802
 20
81.8132504382
 30
0.0
  0
SPLINE
  5
345
100
AcDbEntity
  8
0
100
AcDbSpline
 62
7
  6
BYLAYER
 70
0
 71
3
 72
15
 73
11
 74
0
 42
0.0000001
 43
0.0000001
 44
0.0000000001
 40
0.0
 40
0.0
 40
0.0
 40
0.0
 40
0.1514898372
 40
0.2980157325
 40
0.4376110515
 40
0.5687546455
 40
0.6904096433
 40
0.802251625
 40
0.9048881444
 40
1.0
 40
1.0
 40
1.0
 40
1.0
 10
23.7033855712
 20
78.6778501088
 30
0.0
 10
23.5450914071
 20
78.8947991446
 30
0.0
 10
23.2148002872
 20
79.3082287516
 30
0.0
 10
22.6756408208
 20
79.8676461642
 30
0.0
 10
22.1102562109
 20
80.3468063875
 30
0.0
 10
21.531078381
 20
80.7351107702
 30
0.0
 10
20.9504214259
 20
81.0238842331
 30
0.0
 10
20.3802678734
 20
81.2064208567
 30
0.0
 10
19.8327201497
 20
81.2775718449
 30
0.0
 10
19.479739326
 20
81.2470516921
 30
0.0
 10
19.3149228639
 20
81.2114729206
 30
0.0
  0
SPLINE
  5
346
100
AcDbEntity
  8
0
100
AcDbSpline
 62
7
  6
BYLAYER
 70
0
 71
3
 72
18
 73
14
 74
0
 42
0.0000001
 43
0.0000001
 44
0.0000000001
 40
0.0
 40
0.0
 40
0.0
 40
0.0
 40
0.1256956132
 40
0.2636338807
 40
0.4075976279
 40
0.5503590675
 40
0.6848828603
 40
0.7472917255
 40
0.8057318393
 40
0.859964002
 40
0.9100561961
 40
0.9564469689
 40
1.0
 40
1.0
 40
1.0
 40
1.0
 10
20.1302869979
 20
77.5014011629
 30
0.0
 10
20.1302869979
 20
77.3011136849
 30
0.0
 10
20.1828572928
 20
76.8805462414
 30
0.0
 10
20.3814242338
 20
76.2592326236
 30
0.0
 10
20.6898664884
 20
75.6536253734
 30
0.0
 10
21.0857709564
 20
75.1082744208
 30
0.0
 10
21.474627448
 20
74.7268412551
 30
0.0
 10
21.8057610315
 20
74.4891249954
 30
0.0
 10
22.0499989772
 20
74.3528585381
 30
0.0
 10
22.291829622
 20
74.2568149378
 30
0.0
 10
22.5270255947
 20
74.2029948454
 30
0.0
 10
22.7512568723
 20
74.1928649379
 30
0.0
 10
22.8940129013
 20
74.216611718
 30
0.0
 10
22.9606461138
 20
74.2360078693
 30
0.0
  0
SPLINE
  5
347
100
AcDbEntity
  8
0
100
AcDbSpline
 62
7
  6
BYLAYER
 70
0
 71
3
 72
9
 73
5
 74
0
 42
0.0000001
 43
0.0000001
 44
0.0000000001
 40
0.0
 40
0.0
 40
0.0
 40
0.0
 40
0.2407246832
 40
1.0
 40
1.0
 40
1.0
 40
1.0
 10
35.2067261594
 20
69.7865113318
 30
0.0
 10
35.1951143427
 20
69.7714624514
 30
0.0
 10
35.1495274021
 20
69.7069133688
 30
0.0
 10
35.1146426931
 20
69.6350810166
 30
0.0
 10
35.0938014767
 20
69.5788665604
 30
0.0
  0
SPLINE
  5
348
100
AcDbEntity
  8
0
100
AcDbSpline
 62
7
  6
BYLAYER
 70
0
 71
3
 72
12
 73
8
 74
0
 42
0.0000001
 43
0.0000001
 44
0.0000000001
 40
0.0
 40
0.0
 40
0.0
 40
0.0
 40
0.2895536602
 40
0.5486500083
 40
0.7816323076
 40
0.8918396266
 40
1.0
 40
1.0
 40
1.0
 40
1.0
 10
20.554552833
 20
77.2564567102
 30
0.0
 10
20.554552833
 20
77.3527504049
 30
0.0
 10
20.5691602725
 20
77.5358573292
 30
0.0
 10
20.6431645205
 20
77.7873063905
 30
0.0
 10
20.7496050259
 20
77.9607627105
 30
0.0
 10
20.8570155019
 20
78.0664670467
 30
0.0
 10
20.9169212462
 20
78.1082541141
 30
0.0
 10
20.9480721171
 20
78.1262386484
 30
0.0
  0
SPLINE
  5
349
100
AcDbEntity
  8
0
100
AcDbSpline
 62
7
  6
BYLAYER
 70
0
 71
3
 72
15
 73
11
 74
0
 42
0.0000001
 43
0.0000001
 44
0.0000000001
 40
0.0
 40
0.0
 40
0.0
 40
0.0
 40
0.0951119076
 40
0.1977486909
 40
0.3095910005
 40
0.4312462688
 40
0.5623899854
 40
0.7019852168
 40
0.8485107736
 40
1.0
 40
1.0
 40
1.0
 40
1.0
 10
24.7033897658
 20
71.8784262823
 30
0.0
 10
24.8166081145
 20
72.0033756737
 30
0.0
 10
25.019525183
 20
72.2938127354
 30
0.0
 10
25.2316734387
 20
72.8035866833
 30
0.0
 10
25.3586619838
 20
73.3886297027
 30
0.0
 10
25.3988986562
 20
74.0358862848
 30
0.0
 10
25.3521997701
 20
74.7316261559
 30
0.0
 10
25.2199212262
 20
75.4608473257
 30
0.0
 10
25.0050258844
 20
76.2074840068
 30
0.0
 10
24.8121276154
 20
76.7002401881
 30
0.0
 10
24.7033897618
 20
76.9458016579
 30
0.0
  0
SPLINE
  5
34A
100
AcDbEntity
  8
0
100
AcDbSpline
 62
7
  6
BYLAYER
 70
0
 71
3
 72
9
 73
5
 74
0
 42
0.0000001
 43
0.0000001
 44
0.0000000001
 40
0.0
 40
0.0
 40
0.0
 40
0.0
 40
0.4999994695
 40
1.0
 40
1.0
 40
1.0
 40
1.0
 10
25.0183356554
 20
69.0235093664
 30
0.0
 10
25.2026204531
 20
69.0827177764
 30
0.0
 10
25.5600212786
 20
69.2399976162
 30
0.0
 10
25.8749242321
 20
69.4708837362
 30
0.0
 10
26.0183398195
 20
69.6008785469
 30
0.0
  0
SPLINE
  5
34B
100
AcDbEntity
  8
0
100
AcDbSpline
 62
7
  6
BYLAYER
 70
0
 71
3
 72
15
 73
11
 74
0
 42
0.0000001
 43
0.0000001
 44
0.0000000001
 40
0.0
 40
0.0
 40
0.0
 40
0.0
 40
0.1514898375
 40
0.2980157327
 40
0.4376110517
 40
0.5687546455
 40
0.6904096431
 40
0.8022516243
 40
0.9048881438
 40
1.0
 40
1.0
 40
1.0
 40
1.0
 10
19.3149228488
 20
73.8346798544
 30
0.0
 10
19.4732170139
 20
73.6177308185
 30
0.0
 10
19.8035081327
 20
73.2043012096
 30
0.0
 10
20.3426676021
 20
72.6448837985
 30
0.0
 10
20.9080522142
 20
72.165723578
 30
0.0
 10
21.487230046
 20
71.7774191987
 30
0.0
 10
22.0678870013
 20
71.4886457391
 30
0.0
 10
22.6380405559
 20
71.3061091213
 30
0.0
 10
23.1855882791
 20
71.2349581427
 30
0.0
 10
23.5385691067
 20
71.2654782778
 30
0.0
 10
23.7033855691
 20
71.3010570534
 30
0.0
  0
SPLINE
  5
34C
100
AcDbEntity
  8
0
100
AcDbSpline
 62
7
  6
BYLAYER
 70
0
 71
3
 72
15
 73
11
 74
0
 42
0.0000001
 43
0.0000001
 44
0.0000000001
 40
0.0
 40
0.0
 40
0.0
 40
0.0
 40
0.1488448412
 40
0.2898881722
 40
0.4230930793
 40
0.548899857
 40
0.6680905047
 40
0.781871844
 40
0.8918612884
 40
1.0
 40
1.0
 40
1.0
 40
1.0
 10
24.9198067213
 20
86.5637298247
 30
0.0
 10
24.6859620124
 20
86.698737076
 30
0.0
 10
24.2191563104
 20
86.9427268852
 30
0.0
 10
23.5070084426
 20
87.2323401692
 30
0.0
 10
22.8079140516
 20
87.4329040432
 30
0.0
 10
22.128704131
 20
87.542136558
 30
0.0
 10
21.4758776911
 20
87.5584824558
 30
0.0
 10
20.8559630038
 20
87.4810811709
 30
0.0
 10
20.2758216856
 20
87.3101485508
 30
0.0
 10
19.9188265399
 20
87.1341086507
 30
0.0
 10
19.7510691936
 20
87.0324140845
 30
0.0
  0
SPLINE
  5
34D
100
AcDbEntity
  8
0
100
AcDbSpline
 62
7
  6
BYLAYER
 70
0
 71
3
 72
12
 73
8
 74
0
 42
0.0000001
 43
0.0000001
 44
0.0000000001
 40
0.0
 40
0.0
 40
0.0
 40
0.0
 40
0.2895700372
 40
0.5486410397
 40
0.7816368638
 40
0.8918393782
 40
1.0
 40
1.0
 40
1.0
 40
1.0
 10
19.7413798875
 20
77.2768668783
 30
0.0
 10
19.7413798875
 20
77.4035767208
 30
0.0
 10
19.7605863313
 20
77.6445083877
 30
0.0
 10
19.8579886852
 20
77.9753500998
 30
0.0
 10
19.9980010378
 20
78.2036071163
 30
0.0
 10
20.1393688927
 20
78.3426592435
 30
0.0
 10
20.2181785008
 20
78.3976557301
 30
0.0
 10
20.2591641419
 20
78.4213242064
 30
0.0
  0
SPLINE
  5
34E
100
AcDbEntity
  8
0
100
AcDbSpline
 62
7
  6
BYLAYER
 70
0
 71
3
 72
22
 73
18
 74
0
 42
0.0000001
 43
0.0000001
 44
0.0000000001
 40
0.0
 40
0.0
 40
0.0
 40
0.0
 40
0.0533768438
 40
0.1037545718
 40
0.152183875
 40
0.199961187
 40
0.2484728129
 40
0.2990039819
 40
0.3525862998
 40
0.4099254563
 40
0.4714000508
 40
0.5370996134
 40
0.6068727406
 40
0.6803742142
 40
0.7571068896
 40
0.8364461289
 40
1.0
 40
1.0
 40
1.0
 40
1.0
 10
26.4713472955
 20
69.0248127771
 30
0.0
 10
26.7185036628
 20
68.9911315631
 30
0.0
 10
27.2051635408
 20
68.9620818294
 30
0.0
 10
27.915348193
 20
69.0475978657
 30
0.0
 10
28.5704767422
 20
69.2639152365
 30
0.0
 10
29.1583736372
 20
69.6083882209
 30
0.0
 10
29.6683123999
 20
70.0746370789
 30
0.0
 10
30.0921785026
 20
70.6535189136
 30
0.0
 10
30.4246047472
 20
71.3347307694
 30
0.0
 10
30.6620762462
 20
72.1075311615
 30
0.0
 10
30.8022656471
 20
72.9606344552
 30
0.0
 10
30.8438363083
 20
73.8819321655
 30
0.0
 10
30.7865532256
 20
74.8583909916
 30
0.0
 10
30.6314110358
 20
75.8760851445
 30
0.0
 10
30.3806909596
 20
76.9205020901
 30
0.0
 10
29.9194368021
 20
78.3422628846
 30
0.0
 10
29.4493956525
 20
79.3811260304
 30
0.0
 10
29.0873754396
 20
80.0542729709
 30
0.0
  0
SPLINE
  5
34F
100
AcDbEntity
  8
0
100
AcDbSpline
 62
7
  6
BYLAYER
 70
0
 71
3
 72
11
 73
7
 74
0
 42
0.0000001
 43
0.0000001
 44
0.0000000001
 40
0.0
 40
0.0
 40
0.0
 40
0.0
 40
0.2177801768
 40
0.4509058316
 40
0.710293137
 40
1.0
 40
1.0
 40
1.0
 40
1.0
 10
38.5822606635
 20
64.402736174
 30
0.0
 10
38.605348447
 20
64.416065836
 30
0.0
 10
38.6485446477
 20
64.4523816848
 30
0.0
 10
38.6945298207
 20
64.5275760702
 30
0.0
 10
38.7218405332
 20
64.6202430773
 30
0.0
 10
38.7272144305
 20
64.6876887694
 30
0.0
 10
38.7272121236
 20
64.7231530723
 30
0.0
  0
SPLINE
  5
350
100
AcDbEntity
  8
0
100
AcDbSpline
 62
7
  6
BYLAYER
 70
0
 71
3
 72
20
 73
16
 74
0
 42
0.0000001
 43
0.0000001
 44
0.0000000001
 40
0.0
 40
0.0
 40
0.0
 40
0.0
 40
0.0454681284
 40
0.0916529328
 40
0.1393153048
 40
0.1890977105
 40
0.2414932771
 40
0.2968356365
 40
0.3553093816
 40
0.4169659772
 40
0.4817395366
 40
0.5494674114
 40
0.6926661178
 40
0.843965299
 40
1.0
 40
1.0
 40
1.0
 40
1.0
 10
29.9624956606
 20
69.3455990267
 30
0.0
 10
30.1278263832
 20
69.4364027103
 30
0.0
 10
30.4464139653
 20
69.6477164366
 30
0.0
 10
30.8707118309
 20
70.0436631648
 30
0.0
 10
31.2389258507
 20
70.515050382
 30
0.0
 10
31.5477292196
 20
71.0568092683
 30
0.0
 10
31.7947216232
 20
71.663636479
 30
0.0
 10
31.9781013649
 20
72.3298146815
 30
0.0
 10
32.0965386367
 20
73.0492919428
 30
0.0
 10
32.1491366016
 20
73.8155894568
 30
0.0
 10
32.1356108657
 20
74.6218510359
 30
0.0
 10
32.027601066
 20
75.7614369841
 30
0.0
 10
31.7235801898
 20
77.2381723897
 30
0.0
 10
31.1223689837
 20
79.0120280908
 30
0.0
 10
30.5771887325
 20
80.1680876323
 30
0.0
 10
30.2694966826
 20
80.7375960391
 30
0.0
  0
SPLINE
  5
351
100
AcDbEntity
  8
0
100
AcDbSpline
 62
7
  6
BYLAYER
 70
0
 71
3
 72
19
 73
15
 74
0
 42
0.0000001
 43
0.0000001
 44
0.0000000001
 40
0.0
 40
0.0
 40
0.0
 40
0.0
 40
0.0462070864
 40
0.0931323528
 40
0.1414395091
 40
0.1916968238
 40
0.2443523063
 40
0.29972403
 40
0.3580083691
 40
0.4192868881
 40
0.5505780834
 40
0.6926241583
 40
0.8433437797
 40
1.0
 40
1.0
 40
1.0
 40
1.0
 10
33.6240983496
 20
71.3574046218
 30
0.0
 10
33.7770532838
 20
71.445715084
 30
0.0
 10
34.0720231141
 20
71.6479621528
 30
0.0
 10
34.467580406
 20
72.0192972059
 30
0.0
 10
34.8147064365
 20
72.4561442137
 30
0.0
 10
35.1106569396
 20
72.9545232069
 30
0.0
 10
35.3533808312
 20
73.5102491501
 30
0.0
 10
35.5413240547
 20
74.1187797872
 30
0.0
 10
35.6732227622
 20
74.7753661366
 30
0.0
 10
35.7755062876
 20
75.7298571296
 30
0.0
 10
35.7502346026
 20
77.0141251464
 30
0.0
 10
35.4953257881
 20
78.6190776812
 30
0.0
 10
35.0234624111
 20
80.274620791
 30
0.0
 10
34.5792378144
 20
81.3650717974
 30
0.0
 10
34.325259587
 20
81.9073300696
 30
0.0
  0
SPLINE
  5
352
100
AcDbEntity
  8
0
100
AcDbSpline
 62
7
  6
BYLAYER
 70
0
 71
3
 72
22
 73
18
 74
0
 42
0.0000001
 43
0.0000001
 44
0.0000000001
 40
0.0
 40
0.0
 40
0.0
 40
0.0
 40
0.1604314919
 40
0.2387274745
 40
0.3149685865
 40
0.3886405032
 40
0.4593072531
 40
0.5266237411
 40
0.5903562403
 40
0.6504103074
 40
0.7068605114
 40
0.7599792801
 40
0.8102607926
 40
0.8584278513
 40
0.9054041572
 40
0.9522396813
 40
1.0
 40
1.0
 40
1.0
 40
1.0
 10
30.0657337347
 20
80.6191306888
 30
0.0
 10
30.4082742211
 20
79.9847763502
 30
0.0
 10
30.8609396672
 20
79.0079838297
 30
0.0
 10
31.3281849224
 20
77.6711772783
 30
0.0
 10
31.6003093899
 20
76.6815158145
 30
0.0
 10
31.7936629112
 20
75.7084117714
 30
0.0
 10
31.9060446714
 20
74.7629047202
 30
0.0
 10
31.9361172232
 20
73.8557463954
 30
0.0
 10
31.8834018604
 20
72.997178855
 30
0.0
 10
31.7482474832
 20
72.1968757703
 30
0.0
 10
31.5318084775
 20
71.4638667686
 30
0.0
 10
31.2359490865
 20
70.8065741014
 30
0.0
 10
30.8632811677
 20
70.2329325846
 30
0.0
 10
30.4174598656
 20
69.7504873751
 30
0.0
 10
29.9035528218
 20
69.3661210621
 30
0.0
 10
29.328595516
 20
69.0855275266
 30
0.0
 10
28.9162153539
 20
68.9718413111
 30
0.0
 10
28.7052137776
 20
68.932596849
 30
0.0
  0
SPLINE
  5
353
100
AcDbEntity
  8
0
100
AcDbSpline
 62
7
  6
BYLAYER
 70
0
 71
3
 72
9
 73
5
 74
0
 42
0.0000001
 43
0.0000001
 44
0.0000000001
 40
0.0
 40
0.0
 40
0.0
 40
0.0
 40
0.487520126
 40
1.0
 40
1.0
 40
1.0
 40
1.0
 10
28.5957969434
 20
68.913888686
 30
0.0
 10
28.3886219479
 20
68.8815388156
 30
0.0
 10
27.9577557074
 20
68.8497537527
 30
0.0
 10
27.5272865041
 20
68.8808831047
 30
0.0
 10
27.3088853755
 20
68.9106535377
 30
0.0
  0
SPLINE
  5
354
100
AcDbEntity
  8
0
100
AcDbSpline
 62
7
  6
BYLAYER
 70
0
 71
3
 72
11
 73
7
 74
0
 42
0.0000001
 43
0.0000001
 44
0.0000000001
 40
0.0
 40
0.0
 40
0.0
 40
0.0
 40
0.266131083
 40
0.5248582603
 40
0.7709171536
 40
1.0
 40
1.0
 40
1.0
 40
1.0
 10
29.7702071628
 20
81.6023860544
 30
0.0
 10
29.4470016652
 20
82.1273597048
 30
0.0
 10
28.7550125257
 20
83.1303090283
 30
0.0
 10
27.5855912894
 20
84.4848233737
 30
0.0
 10
26.3294613778
 20
85.6362019872
 30
0.0
 10
25.4235807881
 20
86.2693711166
 30
0.0
 10
24.965461646
 20
86.5372048855
 30
0.0
  0
SPLINE
  5
355
100
AcDbEntity
  8
0
100
AcDbSpline
 62
7
  6
BYLAYER
 70
0
 71
3
 72
18
 73
14
 74
0
 42
0.0000001
 43
0.0000001
 44
0.0000000001
 40
0.0
 40
0.0
 40
0.0
 40
0.0
 40
0.1195021964
 40
0.1768330074
 40
0.233114888
 40
0.2888783422
 40
0.3446795529
 40
0.4010731915
 40
0.4585837415
 40
0.5786196651
 40
0.7079228266
 40
0.848197801
 40
1.0
 40
1.0
 40
1.0
 40
1.0
 10
18.2445886343
 20
85.3759658928
 30
0.0
 10
18.3827006717
 20
85.6390622964
 30
0.0
 10
18.6260098293
 20
86.0106694103
 30
0.0
 10
19.0230089532
 20
86.4344287627
 30
0.0
 10
19.3461035322
 20
86.7062584541
 30
0.0
 10
19.6967867824
 20
86.9344640561
 30
0.0
 10
20.0731218952
 20
87.1179498018
 30
0.0
 10
20.4731133941
 20
87.2556081829
 30
0.0
 10
21.0427492443
 20
87.379096734
 30
0.0
 10
21.8114521367
 20
87.411103118
 30
0.0
 10
22.7735436825
 20
87.2598314023
 30
0.0
 10
23.7709730281
 20
86.9260061923
 30
0.0
 10
24.42231047
 20
86.5993242156
 30
0.0
 10
24.7492010938
 20
86.4105980955
 30
0.0
  0
SPLINE
  5
356
100
AcDbEntity
  8
0
100
AcDbSpline
 62
7
  6
BYLAYER
 70
0
 71
3
 72
11
 73
7
 74
0
 42
0.0000001
 43
0.0000001
 44
0.0000000001
 40
0.0
 40
0.0
 40
0.0
 40
0.0
 40
0.2262952093
 40
0.4671451037
 40
0.7271921921
 40
1.0
 40
1.0
 40
1.0
 40
1.0
 10
18.1419979453
 20
73.734820094
 30
0.0
 10
18.1559235001
 20
73.7428599689
 30
0.0
 10
18.180802066
 20
73.7670193705
 30
0.0
 10
18.1986440376
 20
73.8170727205
 30
0.0
 10
18.1966328959
 20
73.8731168376
 30
0.0
 10
18.1827556788
 20
73.9091725897
 30
0.0
 10
18.1730632086
 20
73.9259603474
 30
0.0
  0
SPLINE
  5
357
100
AcDbEntity
  8
0
100
AcDbSpline
 62
7
  6
BYLAYER
 70
0
 71
3
 72
11
 73
7
 74
0
 42
0.0000001
 43
0.0000001
 44
0.0000000001
 40
0.0
 40
0.0
 40
0.0
 40
0.0
 40
0.2290868342
 40
0.4751432892
 40
0.7338670025
 40
1.0
 40
1.0
 40
1.0
 40
1.0
 10
24.7945568855
 20
86.3842469488
 30
0.0
 10
25.2494200256
 20
86.1183167617
 30
0.0
 10
26.1488736759
 20
85.489699108
 30
0.0
 10
27.396166877
 20
84.346658004
 30
0.0
 10
28.5574534097
 20
83.0019803441
 30
0.0
 10
29.244708061
 20
82.0063190848
 30
0.0
 10
29.565731653
 20
81.4851548907
 30
0.0
  0
SPLINE
  5
358
100
AcDbEntity
  8
0
100
AcDbSpline
 62
7
  6
BYLAYER
 70
0
 71
3
 72
9
 73
5
 74
0
 42
0.0000001
 43
0.0000001
 44
0.0000000001
 40
0.0
 40
0.0
 40
0.0
 40
0.0
 40
0.2425466179
 40
1.0
 40
1.0
 40
1.0
 40
1.0
 10
36.2423906902
 20
66.6096764527
 30
0.0
 10
36.2290688841
 20
66.6118936942
 30
0.0
 10
36.1743469901
 20
66.6222371005
 30
0.0
 10
36.1205309888
 20
66.6371987371
 30
0.0
 10
36.0805550846
 20
66.6506402901
 30
0.0
  0
SPLINE
  5
359
100
AcDbEntity
  8
0
100
AcDbSpline
 62
7
  6
BYLAYER
 70
0
 71
3
 72
11
 73
7
 74
0
 42
0.0000001
 43
0.0000001
 44
0.0000000001
 40
0.0
 40
0.0
 40
0.0
 40
0.0
 40
0.277034619
 40
0.5320812185
 40
0.7704428943
 40
1.0
 40
1.0
 40
1.0
 40
1.0
 10
34.6186174984
 20
69.1849865332
 30
0.0
 10
34.6305878786
 20
69.2438966269
 30
0.0
 10
34.6622963257
 20
69.3556099356
 30
0.0
 10
34.7379199305
 20
69.5060024126
 30
0.0
 10
34.838408073
 20
69.6283083455
 30
0.0
 10
34.9213935243
 20
69.6890557378
 30
0.0
 10
34.9650508347
 20
69.7130401709
 30
0.0
  0
SPLINE
  5
35A
100
AcDbEntity
  8
0
100
AcDbSpline
 62
7
  6
BYLAYER
 70
0
 71
3
 72
9
 73
5
 74
0
 42
0.0000001
 43
0.0000001
 44
0.0000000001
 40
0.0
 40
0.0
 40
0.0
 40
0.0
 40
0.2296892416
 40
1.0
 40
1.0
 40
1.0
 40
1.0
 10
37.130096015
 20
66.8041974513
 30
0.0
 10
37.1490533446
 20
66.8448834361
 30
0.0
 10
37.2192201928
 20
67.0278086141
 30
0.0
 10
37.2422852335
 20
67.226320655
 30
0.0
 10
37.2422852335
 20
67.3768543437
 30
0.0
  0
SPLINE
  5
35B
100
AcDbEntity
  8
0
100
AcDbSpline
 62
7
  6
BYLAYER
 70
0
 71
3
 72
9
 73
5
 74
0
 42
0.0000001
 43
0.0000001
 44
0.0000000001
 40
0.0
 40
0.0
 40
0.0
 40
0.0
 40
0.2394581259
 40
1.0
 40
1.0
 40
1.0
 40
1.0
 10
37.2422852335
 20
67.3768543437
 30
0.0
 10
37.2422852335
 20
67.4130512579
 30
0.0
 10
37.237929095
 20
67.5642037526
 30
0.0
 10
37.2171450722
 20
67.7146972211
 30
0.0
 10
37.1940968743
 20
67.8273280283
 30
0.0
  0
SPLINE
  5
35C
100
AcDbEntity
  8
0
100
AcDbSpline
 62
7
  6
BYLAYER
 70
0
 71
3
 72
9
 73
5
 74
0
 42
0.0000001
 43
0.0000001
 44
0.0000000001
 40
0.0
 40
0.0
 40
0.0
 40
0.0
 40
0.4999999691
 40
1.0
 40
1.0
 40
1.0
 40
1.0
 10
28.476995838
 20
80.8565702902
 30
0.0
 10
28.5539948775
 20
80.7087150366
 30
0.0
 10
28.7150818204
 20
80.4166790007
 30
0.0
 10
28.8874503493
 20
80.131156428
 30
0.0
 10
28.9769979197
 20
79.9905460883
 30
0.0
  0
SPLINE
  5
35D
100
AcDbEntity
  8
0
100
AcDbSpline
 62
7
  6
BYLAYER
 70
0
 71
3
 72
11
 73
7
 74
0
 42
0.0000001
 43
0.0000001
 44
0.0000000001
 40
0.0
 40
0.0
 40
0.0
 40
0.0
 40
0.2394003232
 40
0.4832699434
 40
0.7356777126
 40
1.0
 40
1.0
 40
1.0
 40
1.0
 10
24.0312617401
 20
89.6057754494
 30
0.0
 10
24.1992903684
 20
89.7027909544
 30
0.0
 10
24.5559220227
 20
89.8699806182
 30
0.0
 10
25.1328403051
 20
90.0302955265
 30
0.0
 10
25.7476533271
 20
90.1000670819
 30
0.0
 10
26.167772207
 20
90.0864862043
 30
0.0
 10
26.3810057043
 20
90.0659188111
 30
0.0
  0
SPLINE
  5
35E
100
AcDbEntity
  8
0
100
AcDbSpline
 62
7
  6
BYLAYER
 70
0
 71
3
 72
10
 73
6
 74
0
 42
0.0000001
 43
0.0000001
 44
0.0000000001
 40
0.0
 40
0.0
 40
0.0
 40
0.0
 40
0.4717406893
 40
0.7288462229
 40
1.0
 40
1.0
 40
1.0
 40
1.0
 10
26.3810057043
 20
90.0659188111
 30
0.0
 10
26.8477510292
 20
90.0208989866
 30
0.0
 10
27.5610406941
 20
89.8505079791
 30
0.0
 10
28.4816371096
 20
89.4743122514
 30
0.0
 10
28.9478117927
 20
89.2304504556
 30
0.0
 10
29.1812308341
 20
89.095688958
 30
0.0
  0
SPLINE
  5
35F
100
AcDbEntity
  8
0
100
AcDbSpline
 62
7
  6
BYLAYER
 70
0
 71
3
 72
11
 73
7
 74
0
 42
0.0000001
 43
0.0000001
 44
0.0000000001
 40
0.0
 40
0.0
 40
0.0
 40
0.0
 40
0.2665278082
 40
0.5244731057
 40
0.770001762
 40
1.0
 40
1.0
 40
1.0
 40
1.0
 10
32.8108002405
 20
84.5303387295
 30
0.0
 10
32.5031886655
 20
84.9712067043
 30
0.0
 10
31.8574975296
 20
85.8114717812
 30
0.0
 10
30.7942259927
 20
86.9470467864
 30
0.0
 10
29.6729704273
 20
87.9164505806
 30
0.0
 10
28.8758771629
 20
88.4554994849
 30
0.0
 10
28.4741269969
 20
88.6874448041
 30
0.0
  0
SPLINE
  5
360
100
AcDbEntity
  8
0
100
AcDbSpline
 62
7
  6
BYLAYER
 70
0
 71
3
 72
11
 73
7
 74
0
 42
0.0000001
 43
0.0000001
 44
0.0000000001
 40
0.0
 40
0.0
 40
0.0
 40
0.0
 40
0.2660237076
 40
0.5246559803
 40
0.7707272651
 40
1.0
 40
1.0
 40
1.0
 40
1.0
 10
28.5873733579
 20
80.9202971728
 30
0.0
 10
28.2859902214
 20
81.4077299626
 30
0.0
 10
27.641360629
 20
82.3390934758
 30
0.0
 10
26.5533766942
 20
83.5977267235
 30
0.0
 10
25.3854897845
 20
84.6690102873
 30
0.0
 10
24.5437302746
 20
85.2594065656
 30
0.0
 10
24.1179908011
 20
85.5097938486
 30
0.0
  0
SPLINE
  5
361
100
AcDbEntity
  8
0
100
AcDbSpline
 62
7
  6
BYLAYER
 70
0
 71
3
 72
15
 73
11
 74
0
 42
0.0000001
 43
0.0000001
 44
0.0000000001
 40
0.0
 40
0.0
 40
0.0
 40
0.0
 40
0.1485830316
 40
0.2895061476
 40
0.4227204668
 40
0.5486392109
 40
0.667998939
 40
0.7819370774
 40
0.8919866862
 40
1.0
 40
1.0
 40
1.0
 40
1.0
 10
28.4741269969
 20
88.6874448041
 30
0.0
 10
28.2418274238
 20
88.821559991
 30
0.0
 10
27.7780762748
 20
89.0643219589
 30
0.0
 10
27.0707030585
 20
89.3538518022
 30
0.0
 10
26.3759180937
 20
89.5563921467
 30
0.0
 10
25.7003133129
 20
89.6697198279
 30
0.0
 10
25.050152096
 20
89.6923352143
 30
0.0
 10
24.4317056762
 20
89.6233669265
 30
0.0
 10
23.8515676183
 20
89.4629349727
 30
0.0
 10
23.4930253345
 20
89.295034241
 30
0.0
 10
23.3241556442
 20
89.1975351935
 30
0.0
  0
SPLINE
  5
362
100
AcDbEntity
  8
0
100
AcDbSpline
 62
7
  6
BYLAYER
 70
0
 71
3
 72
9
 73
5
 74
0
 42
0.0000001
 43
0.0000001
 44
0.0000000001
 40
0.0
 40
0.0
 40
0.0
 40
0.0
 40
0.2551630492
 40
1.0
 40
1.0
 40
1.0
 40
1.0
 10
23.8175492282
 20
70.1919223377
 30
0.0
 10
23.875387462
 20
70.1579063276
 30
0.0
 10
24.1035879583
 20
70.027222231
 30
0.0
 10
24.3379586401
 20
69.9072329817
 30
0.0
 10
24.5157025775
 20
69.8249451226
 30
0.0
  0
SPLINE
  5
363
100
AcDbEntity
  8
0
100
AcDbSpline
 62
7
  6
BYLAYER
 70
0
 71
3
 72
20
 73
16
 74
0
 42
0.0000001
 43
0.0000001
 44
0.0000000001
 40
0.0
 40
0.0
 40
0.0
 40
0.0
 40
0.0468338542
 40
0.093558903
 40
0.1410618568
 40
0.1901581957
 40
0.2415309734
 40
0.2956958681
 40
0.3529936046
 40
0.4136032796
 40
0.4775578272
 40
0.5447655954
 40
0.6879848399
 40
0.8408698826
 40
1.0
 40
1.0
 40
1.0
 40
1.0
 10
27.9203390118
 20
69.4616582592
 30
0.0
 10
28.0841427452
 20
69.5185642353
 30
0.0
 10
28.402643765
 20
69.6596878645
 30
0.0
 10
28.8390747196
 20
69.951014099
 30
0.0
 10
29.226439297
 20
70.3172918261
 30
0.0
 10
29.5607228742
 20
70.7540992095
 30
0.0
 10
29.8389736679
 20
71.2566395612
 30
0.0
 10
30.0589287482
 20
71.819709035
 30
0.0
 10
30.2189568954
 20
72.4377837967
 30
0.0
 10
30.3178035719
 20
73.1049883986
 30
0.0
 10
30.3547612856
 20
73.8150617089
 30
0.0
 10
30.3204446634
 20
74.8314302206
 30
0.0
 10
30.1153072951
 20
76.1662056256
 30
0.0
 10
29.6408203202
 20
77.7877010097
 30
0.0
 10
29.1854974348
 20
78.8528376659
 30
0.0
 10
28.9238799045
 20
79.3807644672
 30
0.0
  0
SPLINE
  5
364
100
AcDbEntity
  8
0
100
AcDbSpline
 62
7
  6
BYLAYER
 70
0
 71
3
 72
11
 73
7
 74
0
 42
0.0000001
 43
0.0000001
 44
0.0000000001
 40
0.0
 40
0.0
 40
0.0
 40
0.0
 40
0.2661548365
 40
0.5242705113
 40
0.7700448538
 40
1.0
 40
1.0
 40
1.0
 40
1.0
 10
27.9189693648
 20
81.1205231901
 30
0.0
 10
27.641591323
 20
81.5370342204
 30
0.0
 10
27.0555911201
 20
82.3319567175
 30
0.0
 10
26.0823705908
 20
83.4073457751
 30
0.0
 10
25.0492265708
 20
84.3260692552
 30
0.0
 10
24.3110371031
 20
84.8366603978
 30
0.0
 10
23.9383548818
 20
85.0558434773
 30
0.0
  0
SPLINE
  5
365
100
AcDbEntity
  8
0
100
AcDbSpline
 62
7
  6
BYLAYER
 70
0
 71
3
 72
9
 73
5
 74
0
 42
0.0000001
 43
0.0000001
 44
0.0000000001
 40
0.0
 40
0.0
 40
0.0
 40
0.0
 40
0.2587356884
 40
1.0
 40
1.0
 40
1.0
 40
1.0
 10
22.4408378072
 20
71.1731493221
 30
0.0
 10
22.552524238
 20
71.0792727749
 30
0.0
 10
22.9909702113
 20
70.724679381
 30
0.0
 10
23.4572478266
 20
70.4038239692
 30
0.0
 10
23.8175492282
 20
70.1919223377
 30
0.0
  0
SPLINE
  5
366
100
AcDbEntity
  8
0
100
AcDbSpline
 62
7
  6
BYLAYER
 70
0
 71
3
 72
9
 73
5
 74
0
 42
0.0000001
 43
0.0000001
 44
0.0000000001
 40
0.0
 40
0.0
 40
0.0
 40
0.0
 40
0.2366982813
 40
1.0
 40
1.0
 40
1.0
 40
1.0
 10
37.1940968743
 20
83.3120708671
 30
0.0
 10
37.2022328136
 20
83.3424348167
 30
0.0
 10
37.2316607022
 20
83.4720341482
 30
0.0
 10
37.2422852335
 20
83.6055312925
 30
0.0
 10
37.2422852335
 20
83.7069026863
 30
0.0
  0
SPLINE
  5
367
100
AcDbEntity
  8
0
100
AcDbSpline
 62
7
  6
BYLAYER
 70
0
 71
3
 72
9
 73
5
 74
0
 42
0.0000001
 43
0.0000001
 44
0.0000000001
 40
0.0
 40
0.0
 40
0.0
 40
0.0
 40
0.4807312264
 40
1.0
 40
1.0
 40
1.0
 40
1.0
 10
37.2422852335
 20
83.7069026863
 30
0.0
 10
37.2422852335
 20
83.8211554886
 30
0.0
 10
37.2209087833
 20
84.0590140481
 30
0.0
 10
37.1658777933
 20
84.2909908878
 30
0.0
 10
37.130096015
 20
84.409101599
 30
0.0
  0
SPLINE
  5
368
100
AcDbEntity
  8
0
100
AcDbSpline
 62
7
  6
BYLAYER
 70
0
 71
3
 72
11
 73
7
 74
0
 42
0.0000001
 43
0.0000001
 44
0.0000000001
 40
0.0
 40
0.0
 40
0.0
 40
0.0
 40
0.2769304373
 40
0.5319403043
 40
0.7703491281
 40
1.0
 40
1.0
 40
1.0
 40
1.0
 10
34.619052235
 20
85.5171602104
 30
0.0
 10
34.631084223
 20
85.5758312002
 30
0.0
 10
34.6628790801
 20
85.6870868997
 30
0.0
 10
34.7384755743
 20
85.8368391339
 30
0.0
 10
34.8387635323
 20
85.9586510509
 30
0.0
 10
34.9215212516
 20
86.0191727731
 30
0.0
 10
34.9650523525
 20
86.0430858705
 30
0.0
  0
SPLINE
  5
369
100
AcDbEntity
  8
0
100
AcDbSpline
 62
7
  6
BYLAYER
 70
0
 71
3
 72
11
 73
7
 74
0
 42
0.0000001
 43
0.0000001
 44
0.0000000001
 40
0.0
 40
0.0
 40
0.0
 40
0.0
 40
0.2728074472
 40
0.5328548974
 40
0.7737052294
 40
1.0
 40
1.0
 40
1.0
 40
1.0
 10
17.8230617513
 20
74.5321772887
 30
0.0
 10
17.8133692627
 20
74.5489650783
 30
0.0
 10
17.7890824431
 20
74.5790109464
 30
0.0
 10
17.7415521263
 20
74.6087746544
 30
0.0
 10
17.6892835137
 20
74.6183498054
 30
0.0
 10
17.6559214362
 20
74.6088841811
 30
0.0
 10
17.6419958635
 20
74.6008442959
 30
0.0
  0
SPLINE
  5
36A
100
AcDbEntity
  8
0
100
AcDbSpline
 62
7
  6
BYLAYER
 70
0
 71
3
 72
11
 73
7
 74
0
 42
0.0000001
 43
0.0000001
 44
0.0000000001
 40
0.0
 40
0.0
 40
0.0
 40
0.0
 40
0.2768500195
 40
0.5376616032
 40
0.7792168361
 40
1.0
 40
1.0
 40
1.0
 40
1.0
 10
36.3800928924
 20
85.7081379019
 30
0.0
 10
36.3099396952
 20
85.7829844744
 30
0.0
 10
36.1660897466
 20
85.9214828601
 30
0.0
 10
35.9358230773
 20
86.0968855419
 30
0.0
 10
35.7022851436
 20
86.2299693119
 30
0.0
 10
35.5410605596
 20
86.290894007
 30
0.0
 10
35.4620388555
 20
86.3120667037
 30
0.0
  0
SPLINE
  5
36B
100
AcDbEntity
  8
0
100
AcDbSpline
 62
7
  6
BYLAYER
 70
0
 71
3
 72
11
 73
7
 74
0
 42
0.0000001
 43
0.0000001
 44
0.0000000001
 40
0.0
 40
0.0
 40
0.0
 40
0.0
 40
0.2597463093
 40
0.5113546722
 40
0.7571568223
 40
1.0
 40
1.0
 40
1.0
 40
1.0
 10
21.0682333522
 20
89.3969959633
 30
0.0
 10
21.1688983737
 20
89.5673340495
 30
0.0
 10
21.3861870793
 20
89.8919030583
 30
0.0
 10
21.7644290902
 20
90.3293146463
 30
0.0
 10
22.1867954711
 20
90.7053217561
 30
0.0
 10
22.4968038655
 20
90.9137859234
 30
0.0
 10
22.6570049373
 20
91.0062775064
 30
0.0
  0
SPLINE
  5
36C
100
AcDbEntity
  8
0
100
AcDbSpline
 62
7
  6
BYLAYER
 70
0
 71
3
 72
10
 73
6
 74
0
 42
0.0000001
 43
0.0000001
 44
0.0000000001
 40
0.0
 40
0.0
 40
0.0
 40
0.0
 40
0.2819923061
 40
0.5439659912
 40
1.0
 40
1.0
 40
1.0
 40
1.0
 10
22.051898208
 20
94.054239865
 30
0.0
 10
21.9788418935
 20
94.1190217636
 30
0.0
 10
21.8306055321
 20
94.2364239512
 30
0.0
 10
21.5338944135
 20
94.4148359545
 30
0.0
 10
21.291144349
 20
94.4965579245
 30
0.0
 10
21.1338441711
 20
94.5103645723
 30
0.0
  0
SPLINE
  5
36D
100
AcDbEntity
  8
0
100
AcDbSpline
 62
7
  6
BYLAYER
 70
0
 71
3
 72
12
 73
8
 74
0
 42
0.0000001
 43
0.0000001
 44
0.0000000001
 40
0.0
 40
0.0
 40
0.0
 40
0.0
 40
0.2771398605
 40
0.5401941439
 40
0.6643706275
 40
0.7826931829
 40
1.0
 40
1.0
 40
1.0
 40
1.0
 10
27.7967213993
 20
78.7317413424
 30
0.0
 10
28.0039198761
 20
78.2908941135
 30
0.0
 10
28.3550185546
 20
77.4055294962
 30
0.0
 10
28.6372886133
 20
76.2680243107
 30
0.0
 10
28.7485015471
 20
75.3853297736
 30
0.0
 10
28.7811137711
 20
74.5774446388
 30
0.0
 10
28.7240458896
 20
73.9844727885
 30
0.0
 10
28.6403307143
 20
73.611813482
 30
0.0
  0
SPLINE
  5
36E
100
AcDbEntity
  8
0
100
AcDbSpline
 62
7
  6
BYLAYER
 70
0
 71
3
 72
11
 73
7
 74
0
 42
0.0000001
 43
0.0000001
 44
0.0000000001
 40
0.0
 40
0.0
 40
0.0
 40
0.0
 40
0.2709248171
 40
0.5263500324
 40
0.7684215282
 40
1.0
 40
1.0
 40
1.0
 40
1.0
 10
28.6403307143
 20
73.611813482
 30
0.0
 10
28.603687945
 20
73.4486976677
 30
0.0
 10
28.5148228611
 20
73.1353328206
 30
0.0
 10
28.3271954184
 20
72.6982692472
 30
0.0
 10
28.0909641795
 20
72.3134372956
 30
0.0
 10
27.8991419599
 20
72.0907752005
 30
0.0
 10
27.7967213846
 20
71.9911217943
 30
0.0
  0
SPLINE
  5
36F
100
AcDbEntity
  8
0
100
AcDbSpline
 62
7
  6
BYLAYER
 70
0
 71
3
 72
9
 73
5
 74
0
 42
0.0000001
 43
0.0000001
 44
0.0000000001
 40
0.0
 40
0.0
 40
0.0
 40
0.0
 40
0.2425466179
 40
1.0
 40
1.0
 40
1.0
 40
1.0
 10
22.1001961873
 20
91.1045398857
 30
0.0
 10
22.0868743811
 20
91.1067571272
 30
0.0
 10
22.0321524872
 20
91.1171005335
 30
0.0
 10
21.9783364859
 20
91.1320621701
 30
0.0
 10
21.9383605817
 20
91.1455037231
 30
0.0
  0
SPLINE
  5
370
100
AcDbEntity
  8
0
100
AcDbSpline
 62
7
  6
BYLAYER
 70
0
 71
3
 72
9
 73
5
 74
0
 42
0.0000001
 43
0.0000001
 44
0.0000000001
 40
0.0
 40
0.0
 40
0.0
 40
0.0
 40
0.2585353862
 40
1.0
 40
1.0
 40
1.0
 40
1.0
 10
20.4716532453
 20
93.6550461799
 30
0.0
 10
20.4745846103
 20
93.6712060686
 30
0.0
 10
20.4871853912
 20
93.7334693355
 30
0.0
 10
20.5050096671
 20
93.7947269759
 30
0.0
 10
20.5215432508
 20
93.8388318005
 30
0.0
  0
SPLINE
  5
371
100
AcDbEntity
  8
0
100
AcDbSpline
 62
7
  6
BYLAYER
 70
0
 71
3
 72
11
 73
7
 74
0
 42
0.0000001
 43
0.0000001
 44
0.0000000001
 40
0.0
 40
0.0
 40
0.0
 40
0.0
 40
0.2315781349
 40
0.4736493076
 40
0.7290745484
 40
1.0
 40
1.0
 40
1.0
 40
1.0
 10
20.959186831
 20
83.8340132884
 30
0.0
 10
21.0967033621
 20
83.8728899962
 30
0.0
 10
21.3854546799
 20
83.9276892781
 30
0.0
 10
21.8368605287
 20
83.9398608184
 30
0.0
 10
22.3092000571
 20
83.8838188261
 30
0.0
 10
22.6250262414
 20
83.8040920933
 30
0.0
 10
22.7846159938
 20
83.7542651237
 30
0.0
  0
SPLINE
  5
372
100
AcDbEntity
  8
0
100
AcDbSpline
 62
7
  6
BYLAYER
 70
0
 71
3
 72
12
 73
8
 74
0
 42
0.0000001
 43
0.0000001
 44
0.0000000001
 40
0.0
 40
0.0
 40
0.0
 40
0.0
 40
0.217307084
 40
0.3356296241
 40
0.4598060285
 40
0.7228601129
 40
1.0
 40
1.0
 40
1.0
 40
1.0
 10
22.7846159938
 20
83.7542651237
 30
0.0
 10
23.1491979864
 20
83.6404356603
 30
0.0
 10
23.6912484878
 20
83.3933761118
 30
0.0
 10
24.3745766393
 20
82.9611996204
 30
0.0
 10
25.0833905909
 20
82.4235517786
 30
0.0
 10
25.9273469668
 20
81.6103661905
 30
0.0
 10
26.5185356315
 20
80.8636424197
 30
0.0
 10
26.7967172229
 20
80.4637897312
 30
0.0
  0
LINE
  5
373
100
AcDbEntity
  8
0
100
AcDbLine
 62
7
  6
BYLAYER
 10
18.0441314953
 20
84.0872426551
 11
19.8601719818
 21
85.7375522891
  0
SPLINE
  5
374
100
AcDbEntity
  8
0
100
AcDbSpline
 62
7
  6
BYLAYER
 70
0
 71
3
 72
9
 73
5
 74
0
 42
0.0000001
 43
0.0000001
 44
0.0000000001
 40
0.0
 40
0.0
 40
0.0
 40
0.0
 40
0.2356427352
 40
1.0
 40
1.0
 40
1.0
 40
1.0
 10
35.0938014767
 20
69.5788665604
 30
0.0
 10
35.0841819951
 20
69.5529201899
 30
0.0
 10
35.0482751217
 20
69.4409935304
 30
0.0
 10
35.0312010981
 20
69.3235100994
 30
0.0
 10
35.0262373187
 20
69.2338869172
 30
0.0
  0
SPLINE
  5
375
100
AcDbEntity
  8
0
100
AcDbSpline
 62
7
  6
BYLAYER
 70
0
 71
3
 72
15
 73
11
 74
0
 42
0.0000001
 43
0.0000001
 44
0.0000000001
 40
0.0
 40
0.0
 40
0.0
 40
0.0
 40
0.1519626887
 40
0.2930491362
 40
0.4236460663
 40
0.5451482869
 40
0.6599636454
 40
0.7714583904
 40
0.883535382
 40
1.0
 40
1.0
 40
1.0
 40
1.0
 10
24.0547280143
 20
85.5466589795
 30
0.0
 10
23.7623454944
 20
85.7154622872
 30
0.0
 10
23.1795330209
 20
86.0099634546
 30
0.0
 10
22.2876660122
 20
86.3203214178
 30
0.0
 10
21.4241195704
 20
86.4770313997
 30
0.0
 10
20.60378749
 20
86.4753797191
 30
0.0
 10
19.842033562
 20
86.3125361132
 30
0.0
 10
19.1555749978
 20
85.9892944687
 30
0.0
 10
18.5610340209
 20
85.512668309
 30
0.0
 10
18.2427700277
 20
85.1113062763
 30
0.0
 10
18.1024651901
 20
84.8939021084
 30
0.0
  0
SPLINE
  5
376
100
AcDbEntity
  8
0
100
AcDbSpline
 62
7
  6
BYLAYER
 70
0
 71
3
 72
9
 73
5
 74
0
 42
0.0000001
 43
0.0000001
 44
0.0000000001
 40
0.0
 40
0.0
 40
0.0
 40
0.0
 40
0.2438365525
 40
1.0
 40
1.0
 40
1.0
 40
1.0
 10
18.0967378929
 20
84.8850017114
 30
0.0
 10
18.0613693924
 20
84.8298776436
 30
0.0
 10
17.9218796762
 20
84.6002626544
 30
0.0
 10
17.8045359636
 20
84.3574023355
 30
0.0
 10
17.7276604213
 20
84.1694060179
 30
0.0
  0
SPLINE
  5
377
100
AcDbEntity
  8
0
100
AcDbSpline
 62
7
  6
BYLAYER
 70
0
 71
3
 72
9
 73
5
 74
0
 42
0.0000001
 43
0.0000001
 44
0.0000000001
 40
0.0
 40
0.0
 40
0.0
 40
0.0
 40
0.2553185524
 40
1.0
 40
1.0
 40
1.0
 40
1.0
 10
36.2214134986
 20
67.0380913855
 30
0.0
 10
36.2326550648
 20
67.0312746078
 30
0.0
 10
36.2769919318
 20
67.0050876376
 30
0.0
 10
36.3225728946
 20
66.980990796
 30
0.0
 10
36.3571629168
 20
66.9644411534
 30
0.0
  0
SPLINE
  5
378
100
AcDbEntity
  8
0
100
AcDbSpline
 62
7
  6
BYLAYER
 70
0
 71
3
 72
9
 73
5
 74
0
 42
0.0000001
 43
0.0000001
 44
0.0000000001
 40
0.0
 40
0.0
 40
0.0
 40
0.0
 40
0.2640512904
 40
1.0
 40
1.0
 40
1.0
 40
1.0
 10
36.3571629168
 20
66.9644411534
 30
0.0
 10
36.3825868083
 20
66.9522770584
 30
0.0
 10
36.4801717902
 20
66.9090851478
 30
0.0
 10
36.5834117875
 20
66.8778485274
 30
0.0
 10
36.6608515719
 20
66.8646712445
 30
0.0
  0
SPLINE
  5
379
100
AcDbEntity
  8
0
100
AcDbSpline
 62
7
  6
BYLAYER
 70
0
 71
3
 72
11
 73
7
 74
0
 42
0.0000001
 43
0.0000001
 44
0.0000000001
 40
0.0
 40
0.0
 40
0.0
 40
0.0
 40
0.227663317
 40
0.4708931869
 40
0.7304484053
 40
1.0
 40
1.0
 40
1.0
 40
1.0
 10
20.9160552635
 20
83.2340121381
 30
0.0
 10
20.9522551743
 20
83.2669887648
 30
0.0
 10
21.0122585808
 20
83.352746364
 30
0.0
 10
21.0481635434
 20
83.508907845
 30
0.0
 10
21.0316274829
 20
83.6767063397
 30
0.0
 10
20.9881803099
 20
83.7837953992
 30
0.0
 10
20.9591911641
 20
83.8340057939
 30
0.0
  0
SPLINE
  5
37A
100
AcDbEntity
  8
0
100
AcDbSpline
 62
7
  6
BYLAYER
 70
0
 71
3
 72
11
 73
7
 74
0
 42
0.0000001
 43
0.0000001
 44
0.0000000001
 40
0.0
 40
0.0
 40
0.0
 40
0.0
 40
0.2695134643
 40
0.5291087251
 40
0.7723864608
 40
1.0
 40
1.0
 40
1.0
 40
1.0
 10
19.3149273786
 20
81.2114650253
 30
0.0
 10
19.2858601466
 20
81.2618106684
 30
0.0
 10
19.2421395564
 20
81.3691129878
 30
0.0
 10
19.2251003381
 20
81.5373430079
 30
0.0
 10
19.2606735691
 20
81.6940681549
 30
0.0
 10
19.3207474893
 20
81.7801729371
 30
0.0
 10
19.357028802
 20
81.8132504382
 30
0.0
  0
SPLINE
  5
37B
100
AcDbEntity
  8
0
100
AcDbSpline
 62
7
  6
BYLAYER
 70
0
 71
3
 72
11
 73
7
 74
0
 42
0.0000001
 43
0.0000001
 44
0.0000000001
 40
0.0
 40
0.0
 40
0.0
 40
0.0
 40
0.2276806787
 40
0.4708412347
 40
0.7303837606
 40
1.0
 40
1.0
 40
1.0
 40
1.0
 10
18.0441314953
 20
84.0872426551
 30
0.0
 10
18.0079836847
 20
84.0543882937
 30
0.0
 10
17.9479221008
 20
83.969049242
 30
0.0
 10
17.9115930779
 20
83.8134052612
 30
0.0
 10
17.9277509426
 20
83.6459768696
 30
0.0
 10
17.9710503953
 20
83.539115318
 30
0.0
 10
17.9999727448
 20
83.4890206173
 30
0.0
  0
SPLINE
  5
37C
100
AcDbEntity
  8
0
100
AcDbSpline
 62
7
  6
BYLAYER
 70
0
 71
3
 72
11
 73
7
 74
0
 42
0.0000001
 43
0.0000001
 44
0.0000000001
 40
0.0
 40
0.0
 40
0.0
 40
0.0
 40
0.230136876
 40
0.4756506851
 40
0.7335199839
 40
1.0
 40
1.0
 40
1.0
 40
1.0
 10
23.5857937828
 20
82.6953892114
 30
0.0
 10
23.8325274242
 20
82.5529406997
 30
0.0
 10
24.3221805326
 20
82.2225143152
 30
0.0
 10
25.0118329161
 20
81.6291665297
 30
0.0
 10
25.666765489
 20
80.9346403395
 30
0.0
 10
26.065352614
 20
80.4208911297
 30
0.0
 10
26.255532302
 20
80.1513333721
 30
0.0
  0
SPLINE
  5
37D
100
AcDbEntity
  8
0
100
AcDbSpline
 62
7
  6
BYLAYER
 70
0
 71
3
 72
11
 73
7
 74
0
 42
0.0000001
 43
0.0000001
 44
0.0000000001
 40
0.0
 40
0.0
 40
0.0
 40
0.0
 40
0.2197752544
 40
0.4570756981
 40
0.7165870979
 40
1.0
 40
1.0
 40
1.0
 40
1.0
 10
20.9160552635
 20
83.2340121381
 30
0.0
 10
21.1136111028
 20
83.2859120655
 30
0.0
 10
21.5403300988
 20
83.3384940459
 30
0.0
 10
22.2070378671
 20
83.2663899484
 30
0.0
 10
22.9034457741
 20
83.0515644781
 30
0.0
 10
23.357677642
 20
82.8270891472
 30
0.0
 10
23.5857937828
 20
82.6953892114
 30
0.0
  0
SPLINE
  5
37E
100
AcDbEntity
  8
0
100
AcDbSpline
 62
7
  6
BYLAYER
 70
0
 71
3
 72
11
 73
7
 74
0
 42
0.0000001
 43
0.0000001
 44
0.0000000001
 40
0.0
 40
0.0
 40
0.0
 40
0.0
 40
0.289705924
 40
0.5490928745
 40
0.7822189215
 40
1.0
 40
1.0
 40
1.0
 40
1.0
 10
20.1301587318
 20
96.9340173904
 30
0.0
 10
20.0994475027
 20
96.9517507507
 30
0.0
 10
20.0383522087
 20
96.9808184908
 30
0.0
 10
19.944446963
 20
97.0034991068
 30
0.0
 10
19.8563360539
 20
97.0012715961
 30
0.0
 10
19.803288564
 20
96.9820210126
 30
0.0
 10
19.7802012084
 20
96.9686915963
 30
0.0
  0
SPLINE
  5
37F
100
AcDbEntity
  8
0
100
AcDbSpline
 62
7
  6
BYLAYER
 70
0
 71
3
 72
11
 73
7
 74
0
 42
0.0000001
 43
0.0000001
 44
0.0000000001
 40
0.0
 40
0.0
 40
0.0
 40
0.0
 40
0.237239565
 40
0.5000010231
 40
0.7627619206
 40
1.0
 40
1.0
 40
1.0
 40
1.0
 10
38.7272121236
 20
85.6257746782
 30
0.0
 10
38.727217256
 20
85.7069072828
 30
0.0
 10
38.6967872813
 20
85.8780121023
 30
0.0
 10
38.5907258594
 20
86.1184434531
 30
0.0
 10
38.4355362761
 20
86.3305099158
 30
0.0
 10
38.3025698995
 20
86.4424141874
 30
0.0
 10
38.23230448
 20
86.482975104
 30
0.0
  0
SPLINE
  5
380
100
AcDbEntity
  8
0
100
AcDbSpline
 62
7
  6
BYLAYER
 70
0
 71
3
 72
18
 73
14
 74
0
 42
0.0000001
 43
0.0000001
 44
0.0000000001
 40
0.0
 40
0.0
 40
0.0
 40
0.0
 40
0.0428470792
 40
0.0874651151
 40
0.1352871379
 40
0.1872369567
 40
0.2437293633
 40
0.3047356809
 40
0.4383688013
 40
0.5826750454
 40
0.7297918754
 40
0.871341784
 40
1.0
 40
1.0
 40
1.0
 40
1.0
 10
22.8480505045
 20
74.8353599049
 30
0.0
 10
22.8012098425
 20
74.8083170816
 30
0.0
 10
22.6979589088
 20
74.7653941401
 30
0.0
 10
22.5275110463
 20
74.740413013
 30
0.0
 10
22.3444794407
 20
74.7538994225
 30
0.0
 10
22.1529226995
 20
74.8047772251
 30
0.0
 10
21.9565943236
 20
74.8915410534
 30
0.0
 10
21.6855788078
 20
75.057431347
 30
0.0
 10
21.3627155028
 20
75.3433643397
 30
0.0
 10
21.030921334
 20
75.7681441123
 30
0.0
 10
20.7695573435
 20
76.2512001407
 30
0.0
 10
20.5999905268
 20
76.7525679639
 30
0.0
 10
20.554552833
 20
77.0940492019
 30
0.0
 10
20.554552833
 20
77.2564567102
 30
0.0
  0
SPLINE
  5
381
100
AcDbEntity
  8
0
100
AcDbSpline
 62
7
  6
BYLAYER
 70
0
 71
3
 72
20
 73
16
 74
0
 42
0.0000001
 43
0.0000001
 44
0.0000000001
 40
0.0
 40
0.0
 40
0.0
 40
0.0
 40
0.0428321558
 40
0.0874330035
 40
0.1352367437
 40
0.1871687786
 40
0.2436383427
 40
0.3046205608
 40
0.3697461391
 40
0.4383823112
 40
0.5826349455
 40
0.7296945545
 40
0.8711921535
 40
0.9375940046
 40
1.0
 40
1.0
 40
1.0
 40
1.0
 10
22.7591442587
 20
74.0912057777
 30
0.0
 10
22.6975137878
 20
74.0556152806
 30
0.0
 10
22.5616403919
 20
73.9991702603
 30
0.0
 10
22.3373744446
 20
73.9662769896
 30
0.0
 10
22.0965363255
 20
73.9840089405
 30
0.0
 10
21.8444931124
 20
74.0509876301
 30
0.0
 10
21.5861800256
 20
74.1651422906
 30
0.0
 10
21.3267473132
 20
74.323852094
 30
0.0
 10
21.0714511185
 20
74.5237235686
 30
0.0
 10
20.7382935851
 20
74.8446442715
 30
0.0
 10
20.3680665914
 20
75.3187819173
 30
0.0
 10
20.02437069
 20
75.9538846213
 30
0.0
 10
19.8342083418
 20
76.5161424363
 30
0.0
 10
19.755450083
 20
76.9589973158
 30
0.0
 10
19.7413798875
 20
77.1731746901
 30
0.0
 10
19.7413798875
 20
77.2768668783
 30
0.0
  0
SPLINE
  5
382
100
AcDbEntity
  8
0
100
AcDbSpline
 62
7
  6
BYLAYER
 70
0
 71
3
 72
9
 73
5
 74
0
 42
0.0000001
 43
0.0000001
 44
0.0000000001
 40
0.0
 40
0.0
 40
0.0
 40
0.0
 40
0.510646047
 40
1.0
 40
1.0
 40
1.0
 40
1.0
 10
33.0932598496
 20
69.5489410039
 30
0.0
 10
33.400350885
 20
69.552066043
 30
0.0
 10
34.0029069911
 20
69.6108011285
 30
0.0
 10
34.5824789269
 20
69.7890960528
 30
0.0
 10
34.8528267342
 20
69.905395433
 30
0.0
  0
SPLINE
  5
383
100
AcDbEntity
  8
0
100
AcDbSpline
 62
7
  6
BYLAYER
 70
0
 71
3
 72
10
 73
6
 74
0
 42
0.0000001
 43
0.0000001
 44
0.0000000001
 40
0.0
 40
0.0
 40
0.0
 40
0.0
 40
0.4560340088
 40
0.7180076939
 40
1.0
 40
1.0
 40
1.0
 40
1.0
 10
21.5581064734
 20
94.7553110646
 30
0.0
 10
21.7154066514
 20
94.7415044169
 30
0.0
 10
21.9581567158
 20
94.6597824468
 30
0.0
 10
22.2548678344
 20
94.4813704436
 30
0.0
 10
22.4031041958
 20
94.3639682559
 30
0.0
 10
22.4761605103
 20
94.2991863574
 30
0.0
  0
SPLINE
  5
384
100
AcDbEntity
  8
0
100
AcDbSpline
 62
7
  6
BYLAYER
 70
0
 71
3
 72
9
 73
5
 74
0
 42
0.0000001
 43
0.0000001
 44
0.0000000001
 40
0.0
 40
0.0
 40
0.0
 40
0.0
 40
0.2604032204
 40
1.0
 40
1.0
 40
1.0
 40
1.0
 10
37.6183591766
 20
68.0722745207
 30
0.0
 10
37.6262502691
 20
68.0337127155
 30
0.0
 10
37.6532238819
 20
67.8849922538
 30
0.0
 10
37.6665475359
 20
67.7335936584
 30
0.0
 10
37.6665475359
 20
67.621800836
 30
0.0
  0
SPLINE
  5
385
100
AcDbEntity
  8
0
100
AcDbSpline
 62
7
  6
BYLAYER
 70
0
 71
3
 72
9
 73
5
 74
0
 42
0.0000001
 43
0.0000001
 44
0.0000000001
 40
0.0
 40
0.0
 40
0.0
 40
0.0
 40
0.2721680101
 40
1.0
 40
1.0
 40
1.0
 40
1.0
 10
37.6665475359
 20
67.621800836
 30
0.0
 10
37.6665475359
 20
67.5686405475
 30
0.0
 10
37.6583718317
 20
67.3737170785
 30
0.0
 10
37.6143996272
 20
67.1780038551
 30
0.0
 10
37.5543583173
 20
67.0491439437
 30
0.0
  0
SPLINE
  5
386
100
AcDbEntity
  8
0
100
AcDbSpline
 62
7
  6
BYLAYER
 70
0
 71
3
 72
10
 73
6
 74
0
 42
0.0000001
 43
0.0000001
 44
0.0000000001
 40
0.0
 40
0.0
 40
0.0
 40
0.0
 40
0.2769265213
 40
0.5349493323
 40
1.0
 40
1.0
 40
1.0
 40
1.0
 10
22.22244778
 20
91.4557612382
 30
0.0
 10
22.2711072192
 20
91.4328320177
 30
0.0
 10
22.3678411456
 20
91.3938055825
 30
0.0
 10
22.5562019951
 20
91.3456318135
 30
0.0
 10
22.7004690408
 20
91.3422857478
 30
0.0
 10
22.7892320437
 20
91.3590545061
 30
0.0
  0
SPLINE
  5
387
100
AcDbEntity
  8
0
100
AcDbSpline
 62
7
  6
BYLAYER
 70
0
 71
3
 72
9
 73
5
 74
0
 42
0.0000001
 43
0.0000001
 44
0.0000000001
 40
0.0
 40
0.0
 40
0.0
 40
0.0
 40
0.2356427352
 40
1.0
 40
1.0
 40
1.0
 40
1.0
 10
20.9516069737
 20
94.0737299934
 30
0.0
 10
20.9419874922
 20
94.0477836229
 30
0.0
 10
20.9060806187
 20
93.9358569634
 30
0.0
 10
20.8890065951
 20
93.8183735324
 30
0.0
 10
20.8840428157
 20
93.7287503502
 30
0.0
  0
SPLINE
  5
388
100
AcDbEntity
  8
0
100
AcDbSpline
 62
7
  6
BYLAYER
 70
0
 71
3
 72
11
 73
7
 74
0
 42
0.0000001
 43
0.0000001
 44
0.0000000001
 40
0.0
 40
0.0
 40
0.0
 40
0.0
 40
0.2299983233
 40
0.475527053
 40
0.733472248
 40
1.0
 40
1.0
 40
1.0
 40
1.0
 10
29.1812308341
 20
89.095688958
 30
0.0
 10
29.5829804002
 20
88.8637439851
 30
0.0
 10
30.3800716222
 20
88.3246945785
 30
0.0
 10
31.5013242399
 20
87.3552915864
 30
0.0
 10
32.564594564
 20
86.2197197662
 30
0.0
 10
33.210285887
 20
85.3794577382
 30
0.0
 10
33.5178975202
 20
84.9385911644
 30
0.0
  0
SPLINE
  5
389
100
AcDbEntity
  8
0
100
AcDbSpline
 62
7
  6
BYLAYER
 70
0
 71
3
 72
14
 73
10
 74
0
 42
0.0000001
 43
0.0000001
 44
0.0000000001
 40
0.0
 40
0.0
 40
0.0
 40
0.0
 40
0.144858075
 40
0.2862956933
 40
0.422920816
 40
0.5534750688
 40
0.6769650819
 40
0.7927205738
 40
1.0
 40
1.0
 40
1.0
 40
1.0
 10
35.0323658604
 20
82.3155612413
 30
0.0
 10
35.2170084529
 20
81.9213447763
 30
0.0
 10
35.5530020976
 20
81.1282372394
 30
0.0
 10
35.9566225935
 20
79.9217537508
 30
0.0
 10
36.2493363918
 20
78.7276064539
 30
0.0
 10
36.426305022
 20
77.5654433023
 30
0.0
 10
36.484398294
 20
76.4530805211
 30
0.0
 10
36.405404047
 20
75.112888457
 30
0.0
 10
36.1674989738
 20
74.1523699758
 30
0.0
 10
35.9110286797
 20
73.5847204618
 30
0.0
  0
SPLINE
  5
38A
100
AcDbEntity
  8
0
100
AcDbSpline
 62
7
  6
BYLAYER
 70
0
 71
3
 72
11
 73
7
 74
0
 42
0.0000001
 43
0.0000001
 44
0.0000000001
 40
0.0
 40
0.0
 40
0.0
 40
0.0
 40
0.2644635134
 40
0.5169019793
 40
0.7607108853
 40
1.0
 40
1.0
 40
1.0
 40
1.0
 10
35.9110286797
 20
73.5847204618
 30
0.0
 10
35.8222130949
 20
73.3881436077
 30
0.0
 10
35.6236457973
 20
73.0144405957
 30
0.0
 10
35.2545351747
 20
72.5127669065
 30
0.0
 10
34.8252037785
 20
72.0900236971
 30
0.0
 10
34.5002262997
 20
71.8632427815
 30
0.0
 10
34.331199867
 20
71.7656527831
 30
0.0
  0
SPLINE
  5
38B
100
AcDbEntity
  8
0
100
AcDbSpline
 62
7
  6
BYLAYER
 70
0
 71
3
 72
11
 73
7
 74
0
 42
0.0000001
 43
0.0000001
 44
0.0000000001
 40
0.0
 40
0.0
 40
0.0
 40
0.0
 40
0.2207831639
 40
0.4623383968
 40
0.7231499805
 40
1.0
 40
1.0
 40
1.0
 40
1.0
 10
35.8863011579
 20
86.557013196
 30
0.0
 10
35.9653228619
 20
86.5358404993
 30
0.0
 10
36.1265474459
 20
86.4749158043
 30
0.0
 10
36.3600853796
 20
86.3418320343
 30
0.0
 10
36.5903520489
 20
86.1664293524
 30
0.0
 10
36.7342019976
 20
86.0279309667
 30
0.0
 10
36.8043551947
 20
85.9530843942
 30
0.0
  0
SPLINE
  5
38C
100
AcDbEntity
  8
0
100
AcDbSpline
 62
7
  6
BYLAYER
 70
0
 71
3
 72
9
 73
5
 74
0
 42
0.0000001
 43
0.0000001
 44
0.0000000001
 40
0.0
 40
0.0
 40
0.0
 40
0.0
 40
0.2638117592
 40
1.0
 40
1.0
 40
1.0
 40
1.0
 10
37.6665475359
 20
83.9518491786
 30
0.0
 10
37.6665475359
 20
83.9168173257
 30
0.0
 10
37.6628522127
 20
83.7841008612
 30
0.0
 10
37.6436609669
 20
83.651445582
 30
0.0
 10
37.6183591766
 20
83.5570173595
 30
0.0
  0
SPLINE
  5
38D
100
AcDbEntity
  8
0
100
AcDbSpline
 62
7
  6
BYLAYER
 70
0
 71
3
 72
9
 73
5
 74
0
 42
0.0000001
 43
0.0000001
 44
0.0000000001
 40
0.0
 40
0.0
 40
0.0
 40
0.0
 40
0.5192687736
 40
1.0
 40
1.0
 40
1.0
 40
1.0
 10
37.5543583173
 20
84.6540480913
 30
0.0
 10
37.5901400957
 20
84.5359373802
 30
0.0
 10
37.6451710856
 20
84.3039605404
 30
0.0
 10
37.6665475359
 20
84.0661019809
 30
0.0
 10
37.6665475359
 20
83.9518491786
 30
0.0
  0
SPLINE
  5
38E
100
AcDbEntity
  8
0
100
AcDbSpline
 62
7
  6
BYLAYER
 70
0
 71
3
 72
9
 73
5
 74
0
 42
0.0000001
 43
0.0000001
 44
0.0000000001
 40
0.0
 40
0.0
 40
0.0
 40
0.0
 40
0.5337301792
 40
1.0
 40
1.0
 40
1.0
 40
1.0
 10
36.3320892161
 20
83.3067859826
 30
0.0
 10
36.4231937416
 20
83.261033871
 30
0.0
 10
36.6034325245
 20
83.1919583886
 30
0.0
 10
36.7979686498
 20
83.1768426177
 30
0.0
 10
36.8864099115
 20
83.1873387893
 30
0.0
  0
SPLINE
  5
38F
100
AcDbEntity
  8
0
100
AcDbSpline
 62
7
  6
BYLAYER
 70
0
 71
3
 72
11
 73
7
 74
0
 42
0.0000001
 43
0.0000001
 44
0.0000000001
 40
0.0
 40
0.0
 40
0.0
 40
0.0
 40
0.2897107796
 40
0.5490875916
 40
0.7822171389
 40
1.0
 40
1.0
 40
1.0
 40
1.0
 10
57.1825610404
 20
94.3210793388
 30
0.0
 10
57.1825610404
 20
94.1640037189
 30
0.0
 10
57.1587529453
 20
93.8652877529
 30
0.0
 10
57.0377749825
 20
93.454864479
 30
0.0
 10
56.8340834908
 20
93.1218426062
 30
0.0
 10
56.6427690396
 20
92.9609872879
 30
0.0
 10
56.5405084641
 20
92.9019524321
 30
0.0
  0
SPLINE
  5
390
100
AcDbEntity
  8
0
100
AcDbSpline
 62
7
  6
BYLAYER
 70
0
 71
3
 72
9
 73
5
 74
0
 42
0.0000001
 43
0.0000001
 44
0.0000000001
 40
0.0
 40
0.0
 40
0.0
 40
0.0
 40
0.2608695764
 40
1.0
 40
1.0
 40
1.0
 40
1.0
 10
57.099653143
 20
95.0584855167
 30
0.0
 10
57.1132165556
 20
94.995334148
 30
0.0
 10
57.1595355058
 20
94.7521197727
 30
0.0
 10
57.1825610404
 20
94.5040885708
 30
0.0
 10
57.1825610404
 20
94.3210793388
 30
0.0
  0
SPLINE
  5
391
100
AcDbEntity
  8
0
100
AcDbSpline
 62
7
  6
BYLAYER
 70
0
 71
3
 72
14
 73
10
 74
0
 42
0.0000001
 43
0.0000001
 44
0.0000000001
 40
0.0
 40
0.0
 40
0.0
 40
0.0
 40
0.0912722081
 40
0.188736466
 40
0.2967439801
 40
0.4172293605
 40
0.5500375858
 40
0.6934280171
 40
1.0
 40
1.0
 40
1.0
 40
1.0
 10
53.4405342901
 20
98.2712972427
 30
0.0
 10
53.5404563783
 20
98.328981369
 30
0.0
 10
53.7691757706
 20
98.4131180248
 30
0.0
 10
54.1490019316
 20
98.4266444559
 30
0.0
 10
54.5544543123
 20
98.3347589611
 30
0.0
 10
54.9720948261
 20
98.143715754
 30
0.0
 10
55.3888368299
 20
97.8612438492
 30
0.0
 10
55.9362371794
 20
97.365831395
 30
0.0
 10
56.2842579811
 20
96.9073778965
 30
0.0
 10
56.4848318619
 20
96.5757827126
 30
0.0
  0
SPLINE
  5
392
100
AcDbEntity
  8
0
100
AcDbSpline
 62
7
  6
BYLAYER
 70
0
 71
3
 72
15
 73
11
 74
0
 42
0.0000001
 43
0.0000001
 44
0.0000000001
 40
0.0
 40
0.0
 40
0.0
 40
0.0
 40
0.1287596281
 40
0.2706314466
 40
0.4178817753
 40
0.5623889566
 40
0.696206827
 40
0.8135916712
 40
0.913062296
 40
1.0
 40
1.0
 40
1.0
 40
1.0
 10
128.2464931476
 20
138.370665241
 30
0.0
 10
128.2908824826
 20
138.3450376263
 30
0.0
 10
128.3770685015
 20
138.2786311314
 30
0.0
 10
128.4874841149
 20
138.1531665882
 30
0.0
 10
128.5782658904
 20
138.0053694108
 30
0.0
 10
128.6421018387
 20
137.8475512986
 30
0.0
 10
128.6737601674
 20
137.6921546912
 30
0.0
 10
128.6704124446
 20
137.5511132375
 30
0.0
 10
128.630835523
 20
137.4340220374
 30
0.0
 10
128.5764504108
 20
137.3784735956
 30
0.0
 10
128.5464869634
 20
137.3611562139
 30
0.0
  0
SPLINE
  5
393
100
AcDbEntity
  8
0
100
AcDbSpline
 62
7
  6
BYLAYER
 70
0
 71
3
 72
11
 73
7
 74
0
 42
0.0000001
 43
0.0000001
 44
0.0000000001
 40
0.0
 40
0.0
 40
0.0
 40
0.0
 40
0.2634603307
 40
0.5303317723
 40
0.7821111297
 40
1.0
 40
1.0
 40
1.0
 40
1.0
 10
57.0833876905
 20
95.132986902
 30
0.0
 10
57.1462846535
 20
95.317017959
 30
0.0
 10
57.3055939398
 20
95.6768556909
 30
0.0
 10
57.6196214746
 20
96.1640891743
 30
0.0
 10
57.9850023382
 20
96.5698159572
 30
0.0
 10
58.2624973775
 20
96.7829068903
 30
0.0
 10
58.4017911529
 20
96.863327709
 30
0.0
  0
SPLINE
  5
394
100
AcDbEntity
  8
0
100
AcDbSpline
 62
7
  6
BYLAYER
 70
0
 71
3
 72
9
 73
5
 74
0
 42
0.0000001
 43
0.0000001
 44
0.0000000001
 40
0.0
 40
0.0
 40
0.0
 40
0.0
 40
0.5176921357
 40
1.0
 40
1.0
 40
1.0
 40
1.0
 10
56.4693707145
 20
96.5869995876
 30
0.0
 10
56.6468191599
 20
96.8596092357
 30
0.0
 10
57.0419912964
 20
97.3541005593
 30
0.0
 10
57.5393508113
 20
97.7510390961
 30
0.0
 10
57.801793839
 20
97.9025597444
 30
0.0
  0
SPLINE
  5
395
100
AcDbEntity
  8
0
100
AcDbSpline
 62
7
  6
BYLAYER
 70
0
 71
3
 72
17
 73
13
 74
0
 42
0.0000001
 43
0.0000001
 44
0.0000000001
 40
0.0
 40
0.0
 40
0.0
 40
0.0
 40
0.1286930371
 40
0.2702795962
 40
0.4174375935
 40
0.5617786795
 40
0.6954478243
 40
0.81271112
 40
0.8646738576
 40
0.9125098523
 40
0.9571380034
 40
1.0
 40
1.0
 40
1.0
 40
1.0
 10
47.3538177031
 20
88.6464856
 30
0.0
 10
47.3538177031
 20
88.9114667345
 30
0.0
 10
47.2796967286
 20
89.4686142175
 30
0.0
 10
47.0029921019
 20
90.2866575976
 30
0.0
 10
46.576660252
 20
91.0746927585
 30
0.0
 10
46.0349183652
 20
91.768094823
 30
0.0
 10
45.4220700411
 20
92.3108527635
 30
0.0
 10
44.8673704346
 20
92.6141911721
 30
0.0
 10
44.433444038
 20
92.729593929
 30
0.0
 10
44.1347968547
 20
92.7516192667
 30
0.0
 10
43.8567156474
 20
92.7107924716
 30
0.0
 10
43.6882155765
 20
92.6408393966
 30
0.0
 10
43.6117916499
 20
92.5967023737
 30
0.0
  0
SPLINE
  5
396
100
AcDbEntity
  8
0
100
AcDbSpline
 62
7
  6
BYLAYER
 70
0
 71
3
 72
9
 73
5
 74
0
 42
0.0000001
 43
0.0000001
 44
0.0000000001
 40
0.0
 40
0.0
 40
0.0
 40
0.0
 40
0.24497123
 40
1.0
 40
1.0
 40
1.0
 40
1.0
 10
56.758298738
 20
94.0761328465
 30
0.0
 10
56.7831119627
 20
94.1555859283
 30
0.0
 10
56.8830872646
 20
94.4803318204
 30
0.0
 10
56.9799927315
 20
94.8060197583
 30
0.0
 10
57.056502978
 20
95.0508927135
 30
0.0
  0
SPLINE
  5
397
100
AcDbEntity
  8
0
100
AcDbSpline
 62
7
  6
BYLAYER
 70
0
 71
3
 72
11
 73
7
 74
0
 42
0.0000001
 43
0.0000001
 44
0.0000000001
 40
0.0
 40
0.0
 40
0.0
 40
0.0
 40
0.280692032
 40
0.5528404184
 40
0.7961236667
 40
1.0
 40
1.0
 40
1.0
 40
1.0
 10
56.3340329029
 20
95.8177509519
 30
0.0
 10
56.334033418
 20
95.6489152788
 30
0.0
 10
56.3664480842
 20
95.3162686806
 30
0.0
 10
56.4704658866
 20
94.8481862158
 30
0.0
 10
56.6014543801
 20
94.435339269
 30
0.0
 10
56.704478179
 20
94.1863224841
 30
0.0
 10
56.758298738
 20
94.0761328465
 30
0.0
  0
SPLINE
  5
398
100
AcDbEntity
  8
0
100
AcDbSpline
 62
7
  6
BYLAYER
 70
0
 71
3
 72
11
 73
7
 74
0
 42
0.0000001
 43
0.0000001
 44
0.0000000001
 40
0.0
 40
0.0
 40
0.0
 40
0.0
 40
0.2177839466
 40
0.4509170841
 40
0.710307871
 40
1.0
 40
1.0
 40
1.0
 40
1.0
 10
46.7117634603
 20
87.2273615043
 30
0.0
 10
46.8140142611
 20
87.2864142924
 30
0.0
 10
47.0053515894
 20
87.4472380662
 30
0.0
 10
47.2090349339
 20
87.7802863317
 30
0.0
 10
47.330004306
 20
88.1907069702
 30
0.0
 10
47.3538177031
 20
88.4894202072
 30
0.0
 10
47.3538177031
 20
88.6464856
 30
0.0
  0
SPLINE
  5
399
100
AcDbEntity
  8
0
100
AcDbSpline
 62
7
  6
BYLAYER
 70
0
 71
3
 72
9
 73
5
 74
0
 42
0.0000001
 43
0.0000001
 44
0.0000000001
 40
0.0
 40
0.0
 40
0.0
 40
0.0
 40
0.4842621472
 40
1.0
 40
1.0
 40
1.0
 40
1.0
 10
56.4466212011
 20
96.4859608642
 30
0.0
 10
56.4070662884
 20
96.383477458
 30
0.0
 10
56.3494723915
 20
96.1621208056
 30
0.0
 10
56.334032546
 20
95.9347429215
 30
0.0
 10
56.3340329029
 20
95.8177509519
 30
0.0
  0
SPLINE
  5
39A
100
AcDbEntity
  8
0
100
AcDbSpline
 62
7
  6
BYLAYER
 70
0
 71
3
 72
15
 73
11
 74
0
 42
0.0000001
 43
0.0000001
 44
0.0000000001
 40
0.0
 40
0.0
 40
0.0
 40
0.0
 40
0.0869399004
 40
0.1864120468
 40
0.3037940658
 40
0.4376097849
 40
0.5821299176
 40
0.729390141
 40
0.8712544936
 40
1.0
 40
1.0
 40
1.0
 40
1.0
 10
58.401793745
 20
96.8633292056
 30
0.0
 10
58.4317564008
 20
96.8806506077
 30
0.0
 10
58.4861499061
 20
96.9361922475
 30
0.0
 10
58.5257228065
 20
97.0532900885
 30
0.0
 10
58.5290703277
 20
97.1943304867
 30
0.0
 10
58.497410099
 20
97.3497325971
 30
0.0
 10
58.4335671271
 20
97.5075594087
 30
0.0
 10
58.3427758339
 20
97.6553603162
 30
0.0
 10
58.2323616814
 20
97.7808232927
 30
0.0
 10
58.1461775428
 20
97.847220038
 30
0.0
 10
58.101792496
 20
97.872845177
 30
0.0
  0
ENDSEC
  0
SECTION
  2
OBJECTS
  0
DICTIONARY
  5
C
100
AcDbDictionary
280
0
281
1
  3
ACAD_GROUP
350
D
  3
ACAD_MLINESTYLE
350
17
  3
ACAD_LAYOUT
350
1A
  3
ACAD_PLOTSETTINGS
350
19
  3
ACAD_PLOTSTYLENAME
350
E
  0
DICTIONARY
  5
D
102
{ACAD_REACTORS
330
C
102
}
100
AcDbDictionary
280
0
281
1
  0
ACDBDICTIONARYWDFLT
  5
E
102
{ACAD_REACTORS
330
C
102
}
100
AcDbDictionary
281
1
  3
Normal
350
F
100
AcDbDictionaryWithDefault
340
F
  0
DICTIONARY
  5
17
102
{ACAD_REACTORS
330
C
102
}
100
AcDbDictionary
280
0
281
1
  3
Standard
350
18
  0
DICTIONARY
  5
19
102
{ACAD_REACTORS
330
C
102
}
100
AcDbDictionary
281
1
  0
DICTIONARY
  5
1A
102
{ACAD_REACTORS
330
C
102
}
100
AcDbDictionary
281
1
  3
Model
350
39B
  3
Layout1
350
39C
  0
ACDBPLACEHOLDER
  5
F
102
{ACAD_REACTORS
330
E
102
}
  0
MLINESTYLE
  5
18
102
{ACAD_REACTORS
330
17
102
}
100
AcDbMlineStyle
  2
STANDARD
 70
0
  3

 62
256
 51
90.0
 52
90.0
 71
2
 49
0.5
 62
256
  6
BYLAYER
 49
-0.5
 62
256
  6
BYLAYER
  0
LAYOUT
  5
39B
102
{ACAD_REACTORS
330
1A
102
}
100
AcDbPlotSettings
  1

  2
none_device
  4

  6

 40
0.0
 41
0.0
 42
0.0
 43
0.0
 44
210.0
 45
297.0
 46
0.0
 47
0.0
 48
0.0
 49
0.0
140
0.0
141
0.0
142
1.0
143
1.0
 70
1024
 72
1
 73
0
 74
0
  7

 75
0
147
1.0
148
0.0
149
0.0
100
AcDbLayout
  1
Model
 70
0
 71
0
 10
0.0
 20
0.0
 11
210.0
 21
297.0
 12
0.0
 22
0.0
 32
0.0
 14
0.0
 24
0.0
 34
0.0
 15
0.0
 25
0.0
 35
0.0
146
0.0
 13
0.0
 23
0.0
 33
0.0
 16
1.0
 26
0.0
 36
0.0
 17
0.0
 27
1.0
 37
0.0
 76
0
330
210
345
0
346
0
  0
LAYOUT
  5
39C
102
{ACAD_REACTORS
330
1A
102
}
100
AcDbPlotSettings
  1

  2
none_device
  4

  6

 40
0.0
 41
0.0
 42
0.0
 43
0.0
 44
210.0
 45
297.0
 46
0.0
 47
0.0
 48
0.0
 49
0.0
140
0.0
141
0.0
142
1.0
143
1.0
 70
0
 72
1
 73
0
 74
0
  7

 75
0
147
1.0
148
0.0
149
0.0
100
AcDbLayout
  1
Layout1
 70
0
 71
1
 10
0.0
 20
0.0
 11
210.0
 21
297.0
 12
0.0
 22
0.0
 32
0.0
 14
0.0
 24
0.0
 34
0.0
 15
0.0
 25
0.0
 35
0.0
146
0.0
 13
0.0
 23
0.0
 33
0.0
 16
1.0
 26
0.0
 36
0.0
 17
0.0
 27
1.0
 37
0.0
 76
0
330
211
345
0
346
0
  0
ENDSEC
  0
EOF
