999
DXF file: C:\Users\sesa63760\Dev\_Creo\CAD\MCADID0003595_3D-CAD\drw0001_1.dxf
999
Pro/ENGINEER 2019471 by Parametric Technology Corporation
  0
SECTION
  2
HEADER
  9
$ACADVER
  1
AC1024
  9
$DWGCODEPAGE
  3
ANSI_1252
  9
$EXTMAX
 10
134.874950931
 20
190.7517163166
 30
0.0
  9
$EXTMIN
 10
0.0
 20
0.0
 30
0.0
  9
$LIMMIN
 10
0.0
 20
0.0
  9
$LIMMAX
 10
134.874950931
 20
190.7517163166
  9
$VIEWCTR
 10
67.4374754655
 20
95.3758581583
  9
$VIEWSIZE
 40
190.7517163166
  9
$CLAYER
  8
0
  9
$LTSCALE
 40
12.4341859525
  9
$CELTYPE
  6
BYLAYER
  9
$DIMSCALE
 40
1.0
  9
$DIMASZ
 40
1.6056541777
  9
$DIMEXO
 40
1.0
  9
$DIMDLI
 40
8.5908921126
  9
$DIMEXE
 40
1.0
  9
$DIMCEN
 40
2.034684974
  9
$DIMLFAC
 40
1.0
  9
$DIMBLK
  1
_FILLED
  9
$DIMALT
 70
0
  9
$DIMALTF
 40
0.0393700787
  9
$DIMTXT
 40
2.2479158488
  9
$DIMTOL
 70
1
  9
$DIMLIM
 70
0
  9
$DIMTFAC
 40
1.0
  9
$DIMTP
 40
0.01
  9
$DIMTM
 40
0.01
  9
$DIMGAP
 40
0.625
  9
$DIMDSEP
 70
46
  9
$AUNITS
 70
0
  9
$PDMODE
 70
3
  9
$PDSIZE
 40
0.3125
  9
$HANDSEED
  5
404
  9
$TILEMODE
 70
1
  9
$MEASUREMENT
 70
1
  9
$INSUNITS
 70
4
  0
ENDSEC
  0
SECTION
  2
CLASSES
  0
CLASS
  1
ACDBDICTIONARYWDFLT
  2
AcDbDictionaryWithDefault
  3
AutoCAD 2000
 90
0
 91
1
280
0
281
0
  0
CLASS
  1
ACDBPLACEHOLDER
  2
AcDbPlaceHolder
  3
AutoCAD 2000
 90
0
 91
1
280
0
281
0
  0
CLASS
  1
LAYOUT
  2
AcDbLayout
  3
AutoCAD 2000
 90
0
 91
0
280
0
281
0
  0
ENDSEC
  0
SECTION
  2
TABLES
  0
TABLE
  2
VPORT
  5
8
100
AcDbSymbolTable
 70
2
  0
VPORT
  5
1F4
100
AcDbSymbolTableRecord
100
AcDbViewportTableRecord
  2
*ACTIVE
 70
0
 10
0.0
 20
0.0
 11
1.0
 21
1.0
 12
67.4374754655
 22
95.3758581583
 13
0.0
 23
0.0
 14
1.0
 24
1.0
 15
0.0
 25
0.0
 16
0.0
 26
0.0
 36
1.0
 17
0.0
 27
0.0
 37
0.0
 40
190.7517163166
 41
0.7070707071
 42
50.0
 43
0.0
 44
0.0
 50
0.0
 51
0.0
 71
0
 72
100
 73
1
 74
1
 75
0
 76
0
 77
0
 78
0
  0
ENDTAB
  0
TABLE
  2
LTYPE
  5
5
100
AcDbSymbolTable
 70
6
  0
LTYPE
  5
14
100
AcDbSymbolTableRecord
100
AcDbLinetypeTableRecord
  2
BYBLOCK
 70
0
  3

 72
65
 73
0
 40
0.0
  0
LTYPE
  5
15
100
AcDbSymbolTableRecord
100
AcDbLinetypeTableRecord
  2
BYLAYER
 70
0
  3

 72
65
 73
0
 40
0.0
  0
LTYPE
  5
16
100
AcDbSymbolTableRecord
100
AcDbLinetypeTableRecord
  2
CONTINUOUS
 70
64
  3
Solid line
 72
65
 73
0
 40
0.0
  0
LTYPE
  5
1F5
100
AcDbSymbolTableRecord
100
AcDbLinetypeTableRecord
  2
CENTER
 70
64
  3
____ _ ____ _ ____ _ ____ _ ____ _ ____ _ ____
 72
65
 73
4
 40
0.6
 49
0.375
 74
0
 49
-0.075
 74
0
 49
0.075
 74
0
 49
-0.075
 74
0
  0
LTYPE
  5
1F6
100
AcDbSymbolTableRecord
100
AcDbLinetypeTableRecord
  2
HIDDEN
 70
64
  3
- - - - - - - - - - - - - - - - - - - -
 72
65
 73
2
 40
0.2
 49
0.1
 74
0
 49
-0.1
 74
0
  0
LTYPE
  5
1F7
100
AcDbSymbolTableRecord
100
AcDbLinetypeTableRecord
  2
PHANTOM
 70
64
  3
_____ _ _ _____ _ _ _____ _ _ _____
 72
65
 73
6
 40
0.8
 49
0.45
 74
0
 49
-0.05
 74
0
 49
0.1
 74
0
 49
-0.05
 74
0
 49
0.1
 74
0
 49
-0.05
 74
0
  0
LTYPE
  5
1F8
100
AcDbSymbolTableRecord
100
AcDbLinetypeTableRecord
  2
DOT
 70
64
  3
. . . . . . . . . . . . . . . . . . . .
 72
65
 73
2
 40
0.2
 49
0.1
 74
0
 49
-0.1
 74
0
  0
LTYPE
  5
1F9
100
AcDbSymbolTableRecord
100
AcDbLinetypeTableRecord
  2
DASHED
 70
64
  3
- - - - - - - - - - - - - - - - - - - -
 72
65
 73
2
 40
0.2
 49
0.1
 74
0
 49
-0.1
 74
0
  0
ENDTAB
  0
TABLE
  2
LAYER
  5
2
100
AcDbSymbolTable
 70
36
  0
LAYER
  5
10
100
AcDbSymbolTableRecord
100
AcDbLayerTableRecord
  2
0
 70
0
 62
7
  6
CONTINUOUS
370
-3
390
F
  0
LAYER
  5
1FA
100
AcDbSymbolTableRecord
100
AcDbLayerTableRecord
  2
DEFAULT_1
 70
0
 62
7
  6
CENTER
370
-3
390
F
  0
LAYER
  5
1FB
100
AcDbSymbolTableRecord
100
AcDbLayerTableRecord
  2
DEFAULT_2
 70
0
 62
7
  6
HIDDEN
370
-3
390
F
  0
LAYER
  5
1FC
100
AcDbSymbolTableRecord
100
AcDbLayerTableRecord
  2
DEFAULT_3
 70
0
 62
7
  6
PHANTOM
370
-3
390
F
  0
LAYER
  5
1FD
100
AcDbSymbolTableRecord
100
AcDbLayerTableRecord
  2
00_COMPONENTS
 70
0
 62
7
  6
CONTINUOUS
370
-3
390
F
  0
LAYER
  5
1FE
100
AcDbSymbolTableRecord
100
AcDbLayerTableRecord
  2
01_1_DEFAULT_DATUMS
 70
0
 62
7
  6
CONTINUOUS
370
-3
390
F
  0
LAYER
  5
1FF
100
AcDbSymbolTableRecord
100
AcDbLayerTableRecord
  2
01_PLANES
 70
0
 62
7
  6
CONTINUOUS
370
-3
390
F
  0
LAYER
  5
200
100
AcDbSymbolTableRecord
100
AcDbLayerTableRecord
  2
02_COORD_SYS
 70
0
 62
7
  6
CONTINUOUS
370
-3
390
F
  0
LAYER
  5
201
100
AcDbSymbolTableRecord
100
AcDbLayerTableRecord
  2
03_AXES
 70
0
 62
7
  6
CONTINUOUS
370
-3
390
F
  0
LAYER
  5
202
100
AcDbSymbolTableRecord
100
AcDbLayerTableRecord
  2
04_POINTS
 70
0
 62
7
  6
CONTINUOUS
370
-3
390
F
  0
LAYER
  5
203
100
AcDbSymbolTableRecord
100
AcDbLayerTableRecord
  2
05_CURVES
 70
0
 62
7
  6
CONTINUOUS
370
-3
390
F
  0
LAYER
  5
204
100
AcDbSymbolTableRecord
100
AcDbLayerTableRecord
  2
06_SURFS
 70
0
 62
7
  6
CONTINUOUS
370
-3
390
F
  0
LAYER
  5
205
100
AcDbSymbolTableRecord
100
AcDbLayerTableRecord
  2
07_COSMETICS
 70
0
 62
7
  6
CONTINUOUS
370
-3
390
F
  0
LAYER
  5
206
100
AcDbSymbolTableRecord
100
AcDbLayerTableRecord
  2
10_NOTES
 70
0
 62
7
  6
CONTINUOUS
370
-3
390
F
  0
LAYER
  5
207
100
AcDbSymbolTableRecord
100
AcDbLayerTableRecord
  2
11_NOTES_PUB
 70
0
 62
7
  6
CONTINUOUS
370
-3
390
F
  0
LAYER
  5
208
100
AcDbSymbolTableRecord
100
AcDbLayerTableRecord
  2
13_REF_GTOL
 70
0
 62
7
  6
CONTINUOUS
370
-3
390
F
  0
LAYER
  5
209
100
AcDbSymbolTableRecord
100
AcDbLayerTableRecord
  2
16_MISC
 70
0
 62
7
  6
CONTINUOUS
370
-3
390
F
  0
LAYER
  5
20A
100
AcDbSymbolTableRecord
100
AcDbLayerTableRecord
  2
17_NO_PRINT
 70
0
 62
7
  6
CONTINUOUS
370
-3
390
F
  0
LAYER
  5
20B
100
AcDbSymbolTableRecord
100
AcDbLayerTableRecord
  2
18_DATUM_CAMS_JOINTS
 70
0
 62
7
  6
CONTINUOUS
370
-3
390
F
  0
LAYER
  5
20C
100
AcDbSymbolTableRecord
100
AcDbLayerTableRecord
  2
19_DATUM_FUNCTIONAL
 70
0
 62
7
  6
CONTINUOUS
370
-3
390
F
  0
LAYER
  5
20D
100
AcDbSymbolTableRecord
100
AcDbLayerTableRecord
  2
20_DATUM_KINEMATIC_SCHEME
 70
0
 62
7
  6
CONTINUOUS
370
-3
390
F
  0
ENDTAB
  0
TABLE
  2
STYLE
  5
3
100
AcDbSymbolTable
 70
1
  0
STYLE
  5
11
100
AcDbSymbolTableRecord
100
AcDbTextStyleTableRecord
  2
STANDARD
 70
0
 40
0.0
 41
1.0
 50
0.0
 71
0
 42
0.2
  3
ARIAL.TTF
  4

  0
STYLE
  5
20E
100
AcDbSymbolTableRecord
100
AcDbTextStyleTableRecord
  2
TEXTSTYLE_1
 70
0
 40
0.0
 41
0.8
 50
0.0
 71
0
 42
0.2
  3
gdt
  4

  0
ENDTAB
  0
TABLE
  2
VIEW
  5
6
100
AcDbSymbolTable
 70
0
  0
ENDTAB
  0
TABLE
  2
UCS
  5
7
100
AcDbSymbolTable
 70
0
  0
ENDTAB
  0
TABLE
  2
APPID
  5
9
100
AcDbSymbolTable
 70
1
  0
APPID
  5
20F
100
AcDbSymbolTableRecord
100
AcDbRegAppTableRecord
  2
ACAD
 70
0
  0
ENDTAB
  0
TABLE
  2
BLOCK_RECORD
  5
1
100
AcDbSymbolTable
 70
0
  0
BLOCK_RECORD
  5
210
100
AcDbSymbolTableRecord
100
AcDbBlockTableRecord
  2
*Model_Space
  0
BLOCK_RECORD
  5
211
100
AcDbSymbolTableRecord
100
AcDbBlockTableRecord
  2
*Paper_Space
  0
BLOCK_RECORD
  5
212
100
AcDbSymbolTableRecord
100
AcDbBlockTableRecord
  2
_FILLED
  0
ENDTAB
  0
TABLE
  2
DIMSTYLE
  5
A
100
AcDbSymbolTable
 70
1
100
AcDbDimStyleTable
 71
0
  0
DIMSTYLE
105
213
100
AcDbSymbolTableRecord
100
AcDbDimStyleTableRecord
  2
STANDARD
 70
0
  3

  4

 40
1.0
 41
1.6056541777
 42
1.0
 43
0.38
 44
1.0
 45
0.0
 46
0.0
 47
0.01
 48
0.01
140
2.2479158488
141
0.09
142
0.0
143
25.4
144
1.0
145
0.0
146
1.0
147
0.625
 71
1
 72
0
 73
0
 74
0
 75
0
 76
0
 77
1
 78
8
 79
2
170
0
171
1
172
0
173
0
174
0
175
0
176
0
177
0
178
0
270
2
179
2
271
2
272
2
273
2
274
2
275
0
280
0
281
0
282
0
283
1
284
8
285
0
286
0
287
3
288
0
340
11
278
46
341
212
342
212
343
212
344
212
  0
ENDTAB
  0
ENDSEC
  0
SECTION
  2
BLOCKS
  0
BLOCK
  5
20
100
AcDbEntity
  8
0
100
AcDbBlockBegin
  2
*Model_Space
 70
0
 10
0.0
 20
0.0
 30
0.0
  3
*Model_Space
  1

  0
ENDBLK
  5
21
100
AcDbEntity
  8
0
100
AcDbBlockEnd
  0
BLOCK
  5
1C
100
AcDbEntity
  8
0
100
AcDbBlockBegin
  2
*Paper_Space
 70
0
 10
0.0
 20
0.0
 30
0.0
  3
*Paper_Space
  1

  0
ENDBLK
  5
1D
100
AcDbEntity
  8
0
100
AcDbBlockEnd
  0
BLOCK
  5
214
100
AcDbEntity
  8
0
100
AcDbBlockBegin
  2
_FILLED
 70
64
 10
0.0
 20
0.0
  3
_FILLED
  1

  0
SOLID
  5
215
100
AcDbEntity
  8
0
  6
BYBLOCK
 62
0
100
AcDbTrace
 10
0.0
 20
0.0
 11
-1.0
 21
0.25
 12
-1.0
 22
-0.25
 13
-1.0
 23
-0.25
  0
ENDBLK
  5
216
100
AcDbEntity
  8
0
  6
BYBLOCK
 62
0
100
AcDbBlockEnd
  0
ENDSEC
  0
SECTION
  2
ENTITIES
  0
LINE
  5
217
100
AcDbEntity
  8
0
100
AcDbLine
 62
7
  6
BYLAYER
 10
15.6470460812
 20
95.0423962054
 11
15.6470460812
 21
68.0978164401
  0
LINE
  5
218
100
AcDbEntity
  8
0
100
AcDbLine
 62
7
  6
BYLAYER
 10
15.6470460812
 20
68.0978164401
 11
44.0021460596
 21
51.7273621838
  0
LINE
  5
219
100
AcDbEntity
  8
0
100
AcDbLine
 62
7
  6
BYLAYER
 10
22.7534988189
 20
90.9395766224
 11
22.7534988189
 21
94.2872365327
  0
LINE
  5
21A
100
AcDbEntity
  8
0
100
AcDbLine
 62
7
  6
BYLAYER
 10
24.6006977171
 20
95.8744116883
 11
24.6006977171
 21
96.527613622
  0
LINE
  5
21B
100
AcDbEntity
  8
0
100
AcDbLine
 62
7
  6
BYLAYER
 10
25.0729512151
 20
97.3455852151
 11
25.0729512151
 21
98.4157233027
  0
LINE
  5
21C
100
AcDbEntity
  8
0
100
AcDbLine
 62
7
  6
BYLAYER
 10
25.2193992965
 20
97.5992421408
 11
25.2193992965
 21
98.2116012258
  0
LINE
  5
21D
100
AcDbEntity
  8
0
100
AcDbLine
 62
7
  6
BYLAYER
 10
25.3078074423
 20
95.4661709337
 11
25.3078074423
 21
93.6698656161
  0
LINE
  5
21E
100
AcDbEntity
  8
0
100
AcDbLine
 62
7
  6
BYLAYER
 10
25.3874825451
 20
93.5830421392
 11
25.3874825451
 21
92.7665397221
  0
LINE
  5
21F
100
AcDbEntity
  8
0
100
AcDbLine
 62
7
  6
BYLAYER
 10
26.0679503968
 20
95.0273121226
 11
26.0679503968
 21
95.6805140563
  0
LINE
  5
220
100
AcDbEntity
  8
0
100
AcDbLine
 62
7
  6
BYLAYER
 10
26.9113623125
 20
105.845701869
 11
26.9113623125
 21
107.6420071867
  0
LINE
  5
221
100
AcDbEntity
  8
0
100
AcDbLine
 62
7
  6
BYLAYER
 10
26.9607074766
 20
101.5743026673
 11
26.9607074766
 21
104.9219625776
  0
LINE
  5
222
100
AcDbEntity
  8
0
100
AcDbLine
 62
7
  6
BYLAYER
 10
27.0578103939
 20
105.6415797921
 11
27.0578103939
 21
107.4378851097
  0
LINE
  5
223
100
AcDbEntity
  8
0
100
AcDbLine
 62
7
  6
BYLAYER
 10
31.966605954
 20
96.0283442779
 11
31.898249328
 21
96.9242932143
  0
LINE
  5
224
100
AcDbEntity
  8
0
100
AcDbLine
 62
7
  6
BYLAYER
 10
29.1084968968
 20
99.7221706859
 11
29.1084968968
 21
96.7827619843
  0
LINE
  5
225
100
AcDbEntity
  8
0
100
AcDbLine
 62
7
  6
BYLAYER
 10
29.2498399436
 20
110.5814203075
 11
29.2498399436
 21
107.6420116058
  0
LINE
  5
226
100
AcDbEntity
  8
0
100
AcDbLine
 62
7
  6
BYLAYER
 10
30.2398041571
 20
105.6008017144
 11
30.2398041571
 21
103.8044963967
  0
LINE
  5
227
100
AcDbEntity
  8
0
100
AcDbLine
 62
7
  6
BYLAYER
 10
30.3812107935
 20
110.9896742355
 11
30.3812107935
 21
110.581423027
  0
LINE
  5
228
100
AcDbEntity
  8
0
100
AcDbLine
 62
7
  6
BYLAYER
 10
30.5316115886
 20
102.8603467672
 11
30.5316115886
 21
102.2380146705
  0
LINE
  5
229
100
AcDbEntity
  8
0
100
AcDbLine
 62
7
  6
BYLAYER
 10
32.3611083088
 20
111.0304997383
 11
32.3611083088
 21
110.7855490132
  0
LINE
  5
22A
100
AcDbEntity
  8
0
100
AcDbLine
 62
7
  6
BYLAYER
 10
32.4375979347
 20
96.3002700016
 11
32.4512849951
 21
97.2435411998
  0
LINE
  5
22B
100
AcDbEntity
  8
0
100
AcDbLine
 62
7
  6
BYLAYER
 10
32.4617345545
 20
96.2863350329
 11
32.4594394061
 21
96.2266013042
  0
LINE
  5
22C
100
AcDbEntity
  8
0
100
AcDbLine
 62
7
  6
BYLAYER
 10
29.2893953662
 20
96.7179840456
 11
29.1098503841
 21
95.0455601875
  0
LINE
  5
22D
100
AcDbEntity
  8
0
100
AcDbLine
 62
7
  6
BYLAYER
 10
24.6006977171
 20
96.527613622
 11
26.5805884613
 21
99.9569040208
  0
LINE
  5
22E
100
AcDbEntity
  8
0
100
AcDbLine
 62
7
  6
BYLAYER
 10
28.047841141
 20
99.1098044551
 11
26.0679503968
 21
95.6805140563
  0
LINE
  5
22F
100
AcDbEntity
  8
0
100
AcDbLine
 62
7
  6
BYLAYER
 10
35.998695679
 20
96.7179840456
 11
36.118251448
 21
95.6043471276
  0
LINE
  5
230
100
AcDbEntity
  8
0
100
AcDbLine
 62
7
  6
BYLAYER
 10
33.1390476483
 20
90.9449045774
 11
33.1390476483
 21
91.5981065111
  0
LINE
  5
231
100
AcDbEntity
  8
0
100
AcDbLine
 62
7
  6
BYLAYER
 10
33.8991906028
 20
90.5060457663
 11
33.8991906028
 21
88.7097404486
  0
LINE
  5
232
100
AcDbEntity
  8
0
100
AcDbLine
 62
7
  6
BYLAYER
 10
34.2617095957
 20
88.45962067
 11
34.2617095957
 21
87.6431182529
  0
LINE
  5
233
100
AcDbEntity
  8
0
100
AcDbLine
 62
7
  6
BYLAYER
 10
34.606300328
 20
90.0978050118
 11
34.606300328
 21
90.7510069455
  0
LINE
  5
234
100
AcDbEntity
  8
0
100
AcDbLine
 62
7
  6
BYLAYER
 10
34.8981030491
 20
88.8270404085
 11
34.8981030491
 21
88.0105379913
  0
LINE
  5
235
100
AcDbEntity
  8
0
100
AcDbLine
 62
7
  6
BYLAYER
 10
36.2326332656
 20
91.0367631663
 11
36.2326332656
 21
90.0569461564
  0
LINE
  5
236
100
AcDbEntity
  8
0
100
AcDbLine
 62
7
  6
BYLAYER
 10
36.8956933218
 20
82.774761532
 11
36.8956933218
 21
86.1224214423
  0
LINE
  5
237
100
AcDbEntity
  8
0
100
AcDbLine
 62
7
  6
BYLAYER
 10
33.3546838906
 20
96.2327814021
 11
33.3898417172
 21
96.7017236491
  0
LINE
  5
238
100
AcDbEntity
  8
0
100
AcDbLine
 62
7
  6
BYLAYER
 10
29.2498399436
 20
110.5814203075
 11
60.6452503159
 21
128.7074607394
  0
LINE
  5
239
100
AcDbEntity
  8
0
100
AcDbLine
 62
7
  6
BYLAYER
 10
30.3812107935
 20
110.9896742355
 11
60.6452550262
 21
128.4625240212
  0
LINE
  5
23A
100
AcDbEntity
  8
0
100
AcDbLine
 62
7
  6
BYLAYER
 10
60.645258559
 20
127.9726330762
 11
31.2297389309
 21
110.9896762752
  0
LINE
  5
23B
100
AcDbEntity
  8
0
100
AcDbLine
 62
7
  6
BYLAYER
 10
60.645258559
 20
127.5643818676
 11
31.5832999031
 21
110.7855523706
  0
LINE
  5
23C
100
AcDbEntity
  8
0
100
AcDbLine
 62
7
  6
BYLAYER
 10
38.6544840743
 20
90.4550268899
 11
38.6544840743
 21
88.6587215722
  0
LINE
  5
23D
100
AcDbEntity
  8
0
100
AcDbLine
 62
7
  6
BYLAYER
 10
39.3615908554
 20
88.6587232719
 11
39.3615908554
 21
90.4550285895
  0
LINE
  5
23E
100
AcDbEntity
  8
0
100
AcDbLine
 62
7
  6
BYLAYER
 10
33.1390476483
 20
91.5981065111
 11
35.1189383925
 21
95.0273969099
  0
LINE
  5
23F
100
AcDbEntity
  8
0
100
AcDbLine
 62
7
  6
BYLAYER
 10
36.5861910722
 20
94.1802973443
 11
34.606300328
 21
90.7510069455
  0
LINE
  5
240
100
AcDbEntity
  8
0
100
AcDbLine
 62
7
  6
BYLAYER
 10
32.3611083088
 20
111.0304997383
 11
60.9988137159
 21
127.5643879701
  0
LINE
  5
241
100
AcDbEntity
  8
0
100
AcDbLine
 62
7
  6
BYLAYER
 10
27.0578074499
 20
107.8461275639
 11
29.2498399436
 21
109.1116905598
  0
LINE
  5
242
100
AcDbEntity
  8
0
100
AcDbLine
 62
7
  6
BYLAYER
 10
27.6324742291
 20
105.3098049778
 11
26.9607074766
 21
104.9219625776
  0
LINE
  5
243
100
AcDbEntity
  8
0
100
AcDbLine
 62
7
  6
BYLAYER
 10
44.0021460596
 20
78.6719419491
 11
36.8956933218
 21
82.774761532
  0
LINE
  5
244
100
AcDbEntity
  8
0
100
AcDbLine
 62
7
  6
BYLAYER
 10
22.7534988189
 20
90.9395766224
 11
15.6470460812
 21
95.0423962054
  0
LINE
  5
245
100
AcDbEntity
  8
0
100
AcDbLine
 62
7
  6
BYLAYER
 10
32.0044805411
 20
96.026769537
 11
31.9628094607
 21
96.0778952538
  0
LINE
  5
246
100
AcDbEntity
  8
0
100
AcDbLine
 62
7
  6
BYLAYER
 10
43.8536230024
 20
84.8159997376
 11
43.8536230024
 21
84.8731526038
  0
LINE
  5
247
100
AcDbEntity
  8
0
100
AcDbLine
 62
7
  6
BYLAYER
 10
44.0021460596
 20
51.7273621838
 11
44.0021460596
 21
78.6719419491
  0
LINE
  5
248
100
AcDbEntity
  8
0
100
AcDbLine
 62
7
  6
BYLAYER
 10
44.3820280997
 20
93.353562082
 11
44.3820280997
 21
91.5572567643
  0
LINE
  5
249
100
AcDbEntity
  8
0
100
AcDbLine
 62
7
  6
BYLAYER
 10
44.6738355312
 20
90.6131071349
 11
44.6738355312
 21
87.2654472246
  0
LINE
  5
24A
100
AcDbEntity
  8
0
100
AcDbLine
 62
7
  6
BYLAYER
 10
43.8526031491
 20
84.8159997376
 11
43.8536230024
 21
84.8731526038
  0
LINE
  5
24B
100
AcDbEntity
  8
0
100
AcDbLine
 62
7
  6
BYLAYER
 10
73.2760088141
 20
128.3142947459
 11
67.3011787578
 21
124.8647455956
  0
LINE
  5
24C
100
AcDbEntity
  8
0
100
AcDbLine
 62
7
  6
BYLAYER
 10
26.9607074766
 20
101.5743026673
 11
15.6470460812
 21
95.0423962054
  0
LINE
  5
24D
100
AcDbEntity
  8
0
100
AcDbLine
 62
7
  6
BYLAYER
 10
26.5805884613
 20
99.9569040208
 11
37.1164356358
 21
106.0397419135
  0
LINE
  5
24E
100
AcDbEntity
  8
0
100
AcDbLine
 62
7
  6
BYLAYER
 10
68.5118460081
 20
124.1657823453
 11
76.5728297524
 21
128.8197656995
  0
LINE
  5
24F
100
AcDbEntity
  8
0
100
AcDbLine
 62
7
  6
BYLAYER
 10
25.2193963525
 20
98.6198436799
 11
26.1032576309
 21
99.1301381809
  0
LINE
  5
250
100
AcDbEntity
  8
0
100
AcDbLine
 62
7
  6
BYLAYER
 10
78.040082432
 20
127.9726661339
 11
75.777350153
 21
126.6662848415
  0
LINE
  5
251
100
AcDbEntity
  8
0
100
AcDbLine
 62
7
  6
BYLAYER
 10
29.1084968968
 20
99.7221706859
 11
28.047841141
 21
99.1098044551
  0
LINE
  5
252
100
AcDbEntity
  8
0
100
AcDbLine
 62
7
  6
BYLAYER
 10
97.9514440412
 20
139.4228994304
 11
89.0419356923
 21
134.2790230916
  0
LINE
  5
253
100
AcDbEntity
  8
0
100
AcDbLine
 62
7
  6
BYLAYER
 10
89.2919345731
 20
134.2542609521
 11
98.201442922
 21
139.3981372909
  0
LINE
  5
254
100
AcDbEntity
  8
0
100
AcDbLine
 62
7
  6
BYLAYER
 10
78.286614579
 20
127.8303266628
 11
89.1101364823
 21
134.0792526462
  0
LINE
  5
255
100
AcDbEntity
  8
0
100
AcDbLine
 62
7
  6
BYLAYER
 10
78.5794979384
 20
127.6612255417
 11
89.6101342438
 21
134.0297283672
  0
LINE
  5
256
100
AcDbEntity
  8
0
100
AcDbLine
 62
7
  6
BYLAYER
 10
97.4601819461
 20
138.4860822406
 11
91.5080701244
 21
135.0496493909
  0
LINE
  5
257
100
AcDbEntity
  8
0
100
AcDbLine
 62
7
  6
BYLAYER
 10
91.7580711653
 20
134.7857404774
 11
97.710182987
 21
138.2221733271
  0
LINE
  5
258
100
AcDbEntity
  8
0
100
AcDbLine
 62
7
  6
BYLAYER
 10
22.7534988189
 20
94.2872365327
 11
25.3874825451
 21
92.7665397221
  0
LINE
  5
259
100
AcDbEntity
  8
0
100
AcDbLine
 62
7
  6
BYLAYER
 10
34.2617095957
 20
87.6431182529
 11
36.8956933218
 21
86.1224214423
  0
LINE
  5
25A
100
AcDbEntity
  8
0
100
AcDbLine
 62
7
  6
BYLAYER
 10
34.2617095957
 20
88.45962067
 11
25.3874825451
 21
93.5830421392
  0
LINE
  5
25B
100
AcDbEntity
  8
0
100
AcDbLine
 62
7
  6
BYLAYER
 10
33.8991906028
 20
88.7097404486
 11
25.3078074423
 21
93.6698656161
  0
LINE
  5
25C
100
AcDbEntity
  8
0
100
AcDbLine
 62
7
  6
BYLAYER
 10
34.5002288645
 20
89.0567479794
 11
34.8981030491
 21
88.8270404085
  0
LINE
  5
25D
100
AcDbEntity
  8
0
100
AcDbLine
 62
7
  6
BYLAYER
 10
31.9907425737
 20
96.0144093092
 11
32.0281206897
 21
95.9775808136
  0
LINE
  5
25E
100
AcDbEntity
  8
0
100
AcDbLine
 62
7
  6
BYLAYER
 10
47.1220382467
 20
100.263135237
 11
47.1220382467
 21
97.3237265353
  0
LINE
  5
25F
100
AcDbEntity
  8
0
100
AcDbLine
 62
7
  6
BYLAYER
 10
47.4032560937
 20
86.9225219915
 11
47.4032560937
 21
82.719744096
  0
LINE
  5
260
100
AcDbEntity
  8
0
100
AcDbLine
 62
7
  6
BYLAYER
 10
25.0516442328
 20
95.6140634859
 11
22.7534988189
 21
94.2872365327
  0
LINE
  5
261
100
AcDbEntity
  8
0
100
AcDbLine
 62
7
  6
BYLAYER
 10
29.1084968968
 20
96.7827619843
 11
26.0679503968
 21
95.0273121226
  0
LINE
  5
262
100
AcDbEntity
  8
0
100
AcDbLine
 62
7
  6
BYLAYER
 10
79.4404996401
 20
125.841783858
 11
80.0199731762
 21
126.176341063
  0
LINE
  5
263
100
AcDbEntity
  8
0
100
AcDbLine
 62
7
  6
BYLAYER
 10
25.3874825451
 20
93.5830421392
 11
25.4228377369
 21
93.6034543469
  0
LINE
  5
264
100
AcDbEntity
  8
0
100
AcDbLine
 62
7
  6
BYLAYER
 10
33.9635818867
 20
98.437505969
 11
32.3171027539
 21
97.4869164727
  0
LINE
  5
265
100
AcDbEntity
  8
0
100
AcDbLine
 62
7
  6
BYLAYER
 10
31.7497606443
 20
97.1593633083
 11
30.1032815115
 21
96.208773812
  0
LINE
  5
266
100
AcDbEntity
  8
0
100
AcDbLine
 62
7
  6
BYLAYER
 10
81.0392053066
 20
125.4584497091
 11
79.4543160134
 21
124.543418911
  0
LINE
  5
267
100
AcDbEntity
  8
0
100
AcDbLine
 62
7
  6
BYLAYER
 10
78.3229498738
 20
123.8902282648
 11
76.7380605806
 21
122.9751974667
  0
LINE
  5
268
100
AcDbEntity
  8
0
100
AcDbLine
 62
7
  6
BYLAYER
 10
97.1025530646
 20
134.5937733644
 11
95.2041905364
 21
133.49775979
  0
LINE
  5
269
100
AcDbEntity
  8
0
100
AcDbLine
 62
7
  6
BYLAYER
 10
29.9195715542
 20
95.781909888
 11
31.898249328
 21
96.9242932143
  0
LINE
  5
26A
100
AcDbEntity
  8
0
100
AcDbLine
 62
7
  6
BYLAYER
 10
32.4512856594
 20
97.2435869831
 11
34.4299634332
 21
98.3859703094
  0
LINE
  5
26B
100
AcDbEntity
  8
0
100
AcDbLine
 62
7
  6
BYLAYER
 10
95.3077443582
 20
133.1492971177
 11
97.2061068863
 21
134.245310692
  0
LINE
  5
26C
100
AcDbEntity
  8
0
100
AcDbLine
 62
7
  6
BYLAYER
 10
81.8877369768
 20
124.9685608036
 11
80.3028476836
 21
124.0535300055
  0
LINE
  5
26D
100
AcDbEntity
  8
0
100
AcDbLine
 62
7
  6
BYLAYER
 10
79.171481544
 20
123.4003393594
 11
77.5865922508
 21
122.4853085613
  0
LINE
  5
26E
100
AcDbEntity
  8
0
100
AcDbLine
 62
7
  6
BYLAYER
 10
29.8138224756
 20
94.7854415763
 11
31.966605954
 21
96.0283442779
  0
LINE
  5
26F
100
AcDbEntity
  8
0
100
AcDbLine
 62
7
  6
BYLAYER
 10
32.4375979347
 20
96.3002700016
 11
34.5903814131
 21
97.5431727032
  0
LINE
  5
270
100
AcDbEntity
  8
0
100
AcDbLine
 62
7
  6
BYLAYER
 10
35.2847981472
 20
97.8578131969
 11
33.4361601015
 21
96.7905078945
  0
LINE
  5
271
100
AcDbEntity
  8
0
100
AcDbLine
 62
7
  6
BYLAYER
 10
32.873159486
 20
96.4654612778
 11
31.0245214402
 21
95.3981559755
  0
LINE
  5
272
100
AcDbEntity
  8
0
100
AcDbLine
 62
7
  6
BYLAYER
 10
31.3245091584
 20
95.5037136518
 11
32.9709882913
 21
96.4543031482
  0
LINE
  5
273
100
AcDbEntity
  8
0
100
AcDbLine
 62
7
  6
BYLAYER
 10
33.5383304008
 20
96.7818563126
 11
35.1848095337
 21
97.7324458089
  0
LINE
  5
274
100
AcDbEntity
  8
0
100
AcDbLine
 62
7
  6
BYLAYER
 10
33.3827843388
 20
96.6075909004
 11
33.0441350442
 21
96.4120728061
  0
LINE
  5
275
100
AcDbEntity
  8
0
100
AcDbLine
 62
7
  6
BYLAYER
 10
79.9846828217
 20
123.0941443059
 11
80.3028476836
 21
123.277835778
  0
LINE
  5
276
100
AcDbEntity
  8
0
100
AcDbLine
 62
7
  6
BYLAYER
 10
34.606300328
 20
90.0978050118
 11
33.8991906028
 21
90.5060457663
  0
LINE
  5
277
100
AcDbEntity
  8
0
100
AcDbLine
 62
7
  6
BYLAYER
 10
33.1390476483
 20
90.9449045774
 11
26.0679503968
 21
95.0273121226
  0
LINE
  5
278
100
AcDbEntity
  8
0
100
AcDbLine
 62
7
  6
BYLAYER
 10
25.3078074423
 20
95.4661709337
 11
24.6006977171
 21
95.8744116883
  0
LINE
  5
279
100
AcDbEntity
  8
0
100
AcDbLine
 62
7
  6
BYLAYER
 10
34.606300328
 20
90.7510069455
 11
33.1390476483
 21
91.5981065111
  0
LINE
  5
27A
100
AcDbEntity
  8
0
100
AcDbLine
 62
7
  6
BYLAYER
 10
26.0679503968
 20
95.6805140563
 11
24.6006977171
 21
96.527613622
  0
LINE
  5
27B
100
AcDbEntity
  8
0
100
AcDbLine
 62
7
  6
BYLAYER
 10
38.6544840743
 20
88.6587215722
 11
36.2326332656
 21
90.0569461564
  0
LINE
  5
27C
100
AcDbEntity
  8
0
100
AcDbLine
 62
7
  6
BYLAYER
 10
38.6544840743
 20
90.4550268899
 11
36.9397429908
 21
91.4450107196
  0
LINE
  5
27D
100
AcDbEntity
  8
0
100
AcDbLine
 62
7
  6
BYLAYER
 10
25.484558954
 20
98.0585146893
 11
25.2193992965
 21
98.2116012258
  0
LINE
  5
27E
100
AcDbEntity
  8
0
100
AcDbLine
 62
7
  6
BYLAYER
 10
31.966605954
 20
96.0283442779
 11
31.9907425737
 21
96.0144093092
  0
LINE
  5
27F
100
AcDbEntity
  8
0
100
AcDbLine
 62
7
  6
BYLAYER
 10
35.3688550823
 20
97.8438125561
 11
35.368519491
 21
97.8441069754
  0
LINE
  5
280
100
AcDbEntity
  8
0
100
AcDbLine
 62
7
  6
BYLAYER
 10
51.4530959115
 20
91.5572737611
 11
51.4530959115
 21
93.3535790788
  0
LINE
  5
281
100
AcDbEntity
  8
0
100
AcDbLine
 62
7
  6
BYLAYER
 10
51.744903343
 20
87.2654642214
 11
51.744903343
 21
90.6131241316
  0
LINE
  5
282
100
AcDbEntity
  8
0
100
AcDbLine
 62
7
  6
BYLAYER
 10
54.6350896746
 20
91.5164956834
 11
54.6350896746
 21
89.7201903658
  0
LINE
  5
283
100
AcDbEntity
  8
0
100
AcDbLine
 62
7
  6
BYLAYER
 10
54.9886292286
 20
96.7828959782
 11
54.9886292286
 21
96.3746447697
  0
LINE
  5
284
100
AcDbEntity
  8
0
100
AcDbLine
 62
7
  6
BYLAYER
 10
54.9886339389
 20
95.721456843
 11
54.9886339389
 21
92.7820481413
  0
LINE
  5
285
100
AcDbEntity
  8
0
100
AcDbLine
 62
7
  6
BYLAYER
 10
55.315807455
 20
85.2038484111
 11
55.315807455
 21
88.5515083213
  0
LINE
  5
286
100
AcDbEntity
  8
0
100
AcDbLine
 62
7
  6
BYLAYER
 10
55.3421743761
 20
97.7626752164
 11
55.3421743761
 21
97.5177244913
  0
LINE
  5
287
100
AcDbEntity
  8
0
100
AcDbLine
 62
7
  6
BYLAYER
 10
55.3421964558
 20
89.7201920654
 11
55.3421964558
 21
91.5164973831
  0
LINE
  5
288
100
AcDbEntity
  8
0
100
AcDbLine
 62
7
  6
BYLAYER
 10
51.1519574903
 20
84.8159988587
 11
51.150937637
 21
84.7588459925
  0
LINE
  5
289
100
AcDbEntity
  8
0
100
AcDbLine
 62
7
  6
BYLAYER
 10
35.1189383925
 20
95.0273969099
 11
36.1795941483
 21
95.6397631407
  0
LINE
  5
28A
100
AcDbEntity
  8
0
100
AcDbLine
 62
7
  6
BYLAYER
 10
82.8484474044
 20
122.5838772963
 11
85.1111796835
 21
123.8902585887
  0
LINE
  5
28B
100
AcDbEntity
  8
0
100
AcDbLine
 62
7
  6
BYLAYER
 10
86.5784323632
 20
123.043159023
 11
78.517448619
 21
118.3891756689
  0
LINE
  5
28C
100
AcDbEntity
  8
0
100
AcDbLine
 62
7
  6
BYLAYER
 10
47.1220382467
 20
100.263135237
 11
36.5861910722
 21
94.1802973443
  0
LINE
  5
28D
100
AcDbEntity
  8
0
100
AcDbLine
 62
7
  6
BYLAYER
 10
34.4299634332
 20
98.3859703094
 11
34.3617850875
 21
98.4231005317
  0
LINE
  5
28E
100
AcDbEntity
  8
0
100
AcDbLine
 62
7
  6
BYLAYER
 10
32.4375979347
 20
96.3002700016
 11
32.4617345545
 21
96.2863350329
  0
LINE
  5
28F
100
AcDbEntity
  8
0
100
AcDbLine
 62
7
  6
BYLAYER
 10
36.5861910722
 20
94.1802973443
 11
35.1189383925
 21
95.0273969099
  0
LINE
  5
290
100
AcDbEntity
  8
0
100
AcDbLine
 62
7
  6
BYLAYER
 10
28.047841141
 20
99.1098044551
 11
26.5805884613
 21
99.9569040208
  0
LINE
  5
291
100
AcDbEntity
  8
0
100
AcDbLine
 62
7
  6
BYLAYER
 10
30.7589527816
 20
97.7313935535
 11
31.7497986111
 21
97.1593413887
  0
LINE
  5
292
100
AcDbEntity
  8
0
100
AcDbLine
 62
7
  6
BYLAYER
 10
32.9709503244
 20
96.4543250679
 11
33.961796154
 21
95.882272903
  0
LINE
  5
293
100
AcDbEntity
  8
0
100
AcDbLine
 62
7
  6
BYLAYER
 10
34.5291382635
 20
96.2098260674
 11
33.5382926744
 21
96.7818780935
  0
LINE
  5
294
100
AcDbEntity
  8
0
100
AcDbLine
 62
7
  6
BYLAYER
 10
32.3171404848
 20
97.4868946892
 11
31.3262948912
 21
98.0589467179
  0
LINE
  5
295
100
AcDbEntity
  8
0
100
AcDbLine
 62
7
  6
BYLAYER
 10
28.1713747269
 20
100.8753394171
 11
26.9607074766
 21
101.5743026673
  0
LINE
  5
296
100
AcDbEntity
  8
0
100
AcDbLine
 62
7
  6
BYLAYER
 10
51.744903343
 20
87.2654642214
 11
55.315807455
 21
85.2038484111
  0
LINE
  5
297
100
AcDbEntity
  8
0
100
AcDbLine
 62
7
  6
BYLAYER
 10
34.606300328
 20
90.0978050118
 11
47.1220382467
 21
97.3237265353
  0
LINE
  5
298
100
AcDbEntity
  8
0
100
AcDbLine
 62
7
  6
BYLAYER
 10
81.0630876187
 20
116.919483556
 11
83.325754712
 21
118.2258272135
  0
LINE
  5
299
100
AcDbEntity
  8
0
100
AcDbLine
 62
7
  6
BYLAYER
 10
23.6832021642
 20
82.9606985421
 11
22.7639671758
 21
82.4299811421
  0
LINE
  5
29A
100
AcDbEntity
  8
0
100
AcDbLine
 62
7
  6
BYLAYER
 10
36.2326332656
 20
90.0569461564
 11
33.8991906028
 21
88.7097404486
  0
LINE
  5
29B
100
AcDbEntity
  8
0
100
AcDbLine
 62
7
  6
BYLAYER
 10
34.8981030491
 20
88.8270404085
 11
34.2617095957
 21
88.45962067
  0
LINE
  5
29C
100
AcDbEntity
  8
0
100
AcDbLine
 62
7
  6
BYLAYER
 10
88.5583231074
 20
119.4505286345
 11
84.8814229897
 21
117.3276820334
  0
LINE
  5
29D
100
AcDbEntity
  8
0
100
AcDbLine
 62
7
  6
BYLAYER
 10
34.8981030491
 20
88.0105379913
 11
34.2617095957
 21
87.6431182529
  0
LINE
  5
29E
100
AcDbEntity
  8
0
100
AcDbLine
 62
7
  6
BYLAYER
 10
44.3820280997
 20
93.353562082
 11
39.3615908554
 21
90.4550285895
  0
LINE
  5
29F
100
AcDbEntity
  8
0
100
AcDbLine
 62
7
  6
BYLAYER
 10
32.4617345545
 20
96.2863350329
 11
32.5255246033
 21
96.2647553828
  0
LINE
  5
2A0
100
AcDbEntity
  8
0
100
AcDbLine
 62
7
  6
BYLAYER
 10
26.9607074766
 20
104.9219625776
 11
30.5316115886
 21
102.8603467672
  0
LINE
  5
2A1
100
AcDbEntity
  8
0
100
AcDbLine
 62
7
  6
BYLAYER
 10
51.744903343
 20
90.6131241316
 11
55.315807455
 21
88.5515083213
  0
LINE
  5
2A2
100
AcDbEntity
  8
0
100
AcDbLine
 62
7
  6
BYLAYER
 10
54.6350896746
 20
89.7201903658
 11
51.4530959115
 21
91.5572737611
  0
LINE
  5
2A3
100
AcDbEntity
  8
0
100
AcDbLine
 62
7
  6
BYLAYER
 10
30.2398041571
 20
103.8044963967
 11
27.0578103939
 21
105.6415797921
  0
LINE
  5
2A4
100
AcDbEntity
  8
0
100
AcDbLine
 62
7
  6
BYLAYER
 10
54.6350896746
 20
91.5164956834
 11
51.4530959115
 21
93.3535790788
  0
LINE
  5
2A5
100
AcDbEntity
  8
0
100
AcDbLine
 62
7
  6
BYLAYER
 10
30.2398041571
 20
105.6008017144
 11
27.0578103939
 21
107.4378851097
  0
LINE
  5
2A6
100
AcDbEntity
  8
0
100
AcDbLine
 62
7
  6
BYLAYER
 10
54.9886339389
 20
92.7820481413
 11
47.1220382467
 21
97.3237265353
  0
LINE
  5
2A7
100
AcDbEntity
  8
0
100
AcDbLine
 62
7
  6
BYLAYER
 10
34.570796636
 20
104.5700253247
 11
29.2498399436
 21
107.6420116058
  0
LINE
  5
2A8
100
AcDbEntity
  8
0
100
AcDbLine
 62
7
  6
BYLAYER
 10
60.645258559
 20
127.9726330762
 11
60.645258559
 21
127.5643818676
  0
LINE
  5
2A9
100
AcDbEntity
  8
0
100
AcDbLine
 62
7
  6
BYLAYER
 10
44.3820280997
 20
91.5572567643
 11
39.3615908554
 21
88.6587232719
  0
LINE
  5
2AA
100
AcDbEntity
  8
0
100
AcDbLine
 62
7
  6
BYLAYER
 10
83.9798797832
 20
114.2965634482
 11
55.3421743761
 21
97.7626752164
  0
LINE
  5
2AB
100
AcDbEntity
  8
0
100
AcDbLine
 62
7
  6
BYLAYER
 10
83.9798797832
 20
114.0516127231
 11
55.3421743761
 21
97.5177244913
  0
LINE
  5
2AC
100
AcDbEntity
  8
0
100
AcDbLine
 62
7
  6
BYLAYER
 10
54.9886256958
 20
97.2727869233
 11
84.4041453239
 21
114.2557437243
  0
LINE
  5
2AD
100
AcDbEntity
  8
0
100
AcDbLine
 62
7
  6
BYLAYER
 10
85.2526734613
 20
114.2557457639
 11
54.9886292286
 21
96.7828959782
  0
LINE
  5
2AE
100
AcDbEntity
  8
0
100
AcDbLine
 62
7
  6
BYLAYER
 10
36.8956933218
 20
86.1224214423
 11
44.6738355312
 21
90.6131071349
  0
LINE
  5
2AF
100
AcDbEntity
  8
0
100
AcDbLine
 62
7
  6
BYLAYER
 10
85.6858580896
 20
114.2912680594
 11
90.9891368687
 21
117.3530992134
  0
LINE
  5
2B0
100
AcDbEntity
  8
0
100
AcDbLine
 62
7
  6
BYLAYER
 10
85.2526734613
 20
113.8474945554
 11
54.9886292286
 21
96.3746447697
  0
LINE
  5
2B1
100
AcDbEntity
  8
0
100
AcDbLine
 62
7
  6
BYLAYER
 10
86.3840443112
 20
113.8474972748
 11
54.9886339389
 21
95.721456843
  0
LINE
  5
2B2
100
AcDbEntity
  8
0
100
AcDbLine
 62
7
  6
BYLAYER
 10
44.6738355312
 20
87.2654472246
 11
36.8956933218
 21
82.774761532
  0
LINE
  5
2B3
100
AcDbEntity
  8
0
100
AcDbLine
 62
7
  6
BYLAYER
 10
87.2769739057
 20
111.8622338104
 11
90.9891368687
 21
114.0054393032
  0
LINE
  5
2B4
100
AcDbEntity
  8
0
100
AcDbLine
 62
7
  6
BYLAYER
 10
86.3840443112
 20
110.9080885732
 11
54.9886339389
 21
92.7820481413
  0
LINE
  5
2B5
100
AcDbEntity
  8
0
100
AcDbLine
 62
7
  6
BYLAYER
 10
54.9886339389
 20
95.721456843
 11
47.1220382467
 21
100.263135237
  0
LINE
  5
2B6
100
AcDbEntity
  8
0
100
AcDbLine
 62
7
  6
BYLAYER
 10
37.1164356358
 20
106.0397419135
 11
29.2498399436
 21
110.5814203075
  0
LINE
  5
2B7
100
AcDbEntity
  8
0
100
AcDbLine
 62
7
  6
BYLAYER
 10
30.3812107935
 20
110.581423027
 11
54.9886292286
 21
96.3746447697
  0
LINE
  5
2B8
100
AcDbEntity
  8
0
100
AcDbLine
 62
7
  6
BYLAYER
 10
54.9886292286
 20
96.7828959782
 11
30.3812107935
 21
110.9896742355
  0
LINE
  5
2B9
100
AcDbEntity
  8
0
100
AcDbLine
 62
7
  6
BYLAYER
 10
31.2297389309
 20
110.9896762752
 11
54.9886256958
 21
97.2727869233
  0
LINE
  5
2BA
100
AcDbEntity
  8
0
100
AcDbLine
 62
7
  6
BYLAYER
 10
55.3421743761
 20
97.5177244913
 11
32.3611083088
 21
110.7855490132
  0
LINE
  5
2BB
100
AcDbEntity
  8
0
100
AcDbLine
 62
7
  6
BYLAYER
 10
55.3421743761
 20
97.7626752164
 11
32.3611083088
 21
111.0304997383
  0
LINE
  5
2BC
100
AcDbEntity
  8
0
100
AcDbLine
 62
7
  6
BYLAYER
 10
88.5760768049
 20
110.7039726151
 11
55.3421964558
 21
91.5164973831
  0
LINE
  5
2BD
100
AcDbEntity
  8
0
100
AcDbLine
 62
7
  6
BYLAYER
 10
43.8536230024
 20
84.8731526038
 11
47.4032560937
 21
86.9225219915
  0
LINE
  5
2BE
100
AcDbEntity
  8
0
100
AcDbLine
 62
7
  6
BYLAYER
 10
88.5760768049
 20
108.9076672974
 11
55.3421964558
 21
89.7201920654
  0
LINE
  5
2BF
100
AcDbEntity
  8
0
100
AcDbLine
 62
7
  6
BYLAYER
 10
112.5603885814
 20
122.4567228551
 11
113.1841171893
 21
122.816801516
  0
LINE
  5
2C0
100
AcDbEntity
  8
0
100
AcDbLine
 62
7
  6
BYLAYER
 10
115.6069544391
 20
124.2156189045
 11
119.1443760816
 21
126.2579671203
  0
LINE
  5
2C1
100
AcDbEntity
  8
0
100
AcDbLine
 62
7
  6
BYLAYER
 10
118.999210988
 20
125.9312253383
 11
113.0470991663
 21
122.4947924886
  0
LINE
  5
2C2
100
AcDbEntity
  8
0
100
AcDbLine
 62
7
  6
BYLAYER
 10
113.2971002072
 20
122.4700315962
 11
119.2492120289
 21
125.906464446
  0
LINE
  5
2C3
100
AcDbEntity
  8
0
100
AcDbLine
 62
7
  6
BYLAYER
 10
111.5305357234
 20
121.374264977
 11
98.2016283919
 21
113.6788626765
  0
LINE
  5
2C4
100
AcDbEntity
  8
0
100
AcDbLine
 62
7
  6
BYLAYER
 10
55.315807455
 20
88.5515083213
 11
89.2567916412
 21
108.1472277071
  0
LINE
  5
2C5
100
AcDbEntity
  8
0
100
AcDbLine
 62
7
  6
BYLAYER
 10
120.8289541267
 20
126.3344331462
 11
111.9194457778
 21
121.1905568075
  0
LINE
  5
2C6
100
AcDbEntity
  8
0
100
AcDbLine
 62
7
  6
BYLAYER
 10
112.2730006404
 20
120.5781852216
 11
121.1825089893
 21
125.7220615604
  0
LWPOLYLINE
  5
2C7
100
AcDbEntity
  8
0
100
AcDbPolyline
 62
7
  6
BYLAYER
 90
4
 70
0
 10
113.6515654499
 20
122.8437583873
 10
113.5754889594
 20
122.8050186815
 10
113.4449217808
 20
122.7568863699
 10
113.39055938
 20
122.7425087545
  0
LINE
  5
2C8
100
AcDbEntity
  8
0
100
AcDbLine
 62
7
  6
BYLAYER
 10
85.0881453287
 20
116.8384544654
 11
85.2030070777
 21
117.0224239136
  0
LINE
  5
2C9
100
AcDbEntity
  8
0
100
AcDbLine
 62
7
  6
BYLAYER
 10
85.2030070777
 20
115.2261185959
 11
85.0881453287
 21
115.0421491477
  0
LINE
  5
2CA
100
AcDbEntity
  8
0
100
AcDbLine
 62
7
  6
BYLAYER
 10
113.3906023981
 20
122.7425189292
 11
113.3825373414
 21
122.7372905756
  0
LINE
  5
2CB
100
AcDbEntity
  8
0
100
AcDbLine
 62
7
  6
BYLAYER
 10
99.8279912126
 20
112.984847359
 11
112.2376454485
 21
120.1495218054
  0
LINE
  5
2CC
100
AcDbEntity
  8
0
100
AcDbLine
 62
7
  6
BYLAYER
 10
51.150937637
 20
84.7588459925
 11
47.6013045457
 21
82.7094766048
  0
LINE
  5
2CD
100
AcDbEntity
  8
0
100
AcDbLine
 62
7
  6
BYLAYER
 10
115.7378094427
 20
120.4556752911
 11
119.48545978
 21
122.6193693066
  0
LINE
  5
2CE
100
AcDbEntity
  8
0
100
AcDbLine
 62
7
  6
BYLAYER
 10
101.6311087925
 20
111.9438404896
 11
89.2567916412
 21
104.7995677969
  0
LINE
  5
2CF
100
AcDbEntity
  8
0
100
AcDbLine
 62
7
  6
BYLAYER
 10
55.315807455
 20
85.2038484111
 11
44.0021460596
 21
78.6719419491
  0
LINE
  5
2D0
100
AcDbEntity
  8
0
100
AcDbLine
 62
7
  6
BYLAYER
 10
75.7128987787
 20
123.5636279266
 11
75.7128987787
 21
122.6396010513
  0
LINE
  5
2D1
100
AcDbEntity
  8
0
100
AcDbLine
 62
7
  6
BYLAYER
 10
75.777350153
 20
123.8897277817
 11
75.777350153
 21
126.6662848415
  0
LINE
  5
2D2
100
AcDbEntity
  8
0
100
AcDbLine
 62
7
  6
BYLAYER
 10
76.3786633141
 20
122.3520133553
 11
76.3786633141
 21
122.3594493881
  0
LINE
  5
2D3
100
AcDbEntity
  8
0
100
AcDbLine
 62
7
  6
BYLAYER
 10
77.2271705514
 20
124.6861587413
 11
77.2271705514
 21
125.2576853436
  0
LWPOLYLINE
  5
2D4
100
AcDbEntity
  8
0
100
AcDbPolyline
 62
7
  6
BYLAYER
 90
3
 70
0
 10
115.7595424552
 20
124.0896772687
 10
115.7180361296
 20
124.0560584451
 10
115.5548606988
 20
123.9426134088
  0
LINE
  5
2D5
100
AcDbEntity
  8
0
100
AcDbLine
 62
7
  6
BYLAYER
 10
115.7731646346
 20
116.8834768634
 11
112.2376454485
 21
114.842256094
  0
LINE
  5
2D6
100
AcDbEntity
  8
0
100
AcDbLine
 62
7
  6
BYLAYER
 10
78.3229486962
 20
124.0535252465
 11
78.3229498738
 21
122.9104422955
  0
LINE
  5
2D7
100
AcDbEntity
  8
0
100
AcDbLine
 62
7
  6
BYLAYER
 10
79.1714733009
 20
124.5434182311
 11
79.1714733009
 21
123.4003393594
  0
LINE
  5
2D8
100
AcDbEntity
  8
0
100
AcDbLine
 62
7
  6
BYLAYER
 10
79.4543160134
 20
123.4003400392
 11
79.4543160134
 21
124.543418911
  0
LINE
  5
2D9
100
AcDbEntity
  8
0
100
AcDbLine
 62
7
  6
BYLAYER
 10
80.0199731762
 20
126.176341063
 11
80.0199731762
 21
126.8295429967
  0
LINE
  5
2DA
100
AcDbEntity
  8
0
100
AcDbLine
 62
7
  6
BYLAYER
 10
80.3028488611
 20
122.910455213
 11
80.3028476836
 21
124.0535300055
  0
LINE
  5
2DB
100
AcDbEntity
  8
0
100
AcDbLine
 62
7
  6
BYLAYER
 10
81.3986025731
 20
125.2576953705
 11
81.3986025731
 21
124.6861606097
  0
LINE
  5
2DC
100
AcDbEntity
  8
0
100
AcDbLine
 62
7
  6
BYLAYER
 10
82.2471516106
 20
122.3594634942
 11
82.2471516106
 21
122.352024583
  0
LINE
  5
2DD
100
AcDbEntity
  8
0
100
AcDbLine
 62
7
  6
BYLAYER
 10
35.6831484416
 20
62.1760578347
 11
34.7639134533
 21
61.6453404347
  0
LINE
  5
2DE
100
AcDbEntity
  8
0
100
AcDbLine
 62
7
  6
BYLAYER
 10
82.9128987787
 20
123.5636279266
 11
82.9128987787
 21
122.6210880924
  0
LINE
  5
2DF
100
AcDbEntity
  8
0
100
AcDbLine
 62
7
  6
BYLAYER
 10
83.9798797832
 20
114.2965634482
 11
83.9798797832
 21
114.0516127231
  0
LINE
  5
2E0
100
AcDbEntity
  8
0
100
AcDbLine
 62
7
  6
BYLAYER
 10
85.0872798387
 20
116.8377052562
 11
85.0872798387
 21
115.0413999386
  0
LINE
  5
2E1
100
AcDbEntity
  8
0
100
AcDbLine
 62
7
  6
BYLAYER
 10
85.2030478942
 20
115.2261185408
 11
85.2030478942
 21
117.0224238585
  0
LINE
  5
2E2
100
AcDbEntity
  8
0
100
AcDbLine
 62
7
  6
BYLAYER
 10
85.2526734613
 20
114.2557457639
 11
85.2526734613
 21
113.8474945554
  0
LINE
  5
2E3
100
AcDbEntity
  8
0
100
AcDbLine
 62
7
  6
BYLAYER
 10
85.6858580896
 20
114.2505861588
 11
85.6858580896
 21
114.2912680594
  0
LINE
  5
2E4
100
AcDbEntity
  8
0
100
AcDbLine
 62
7
  6
BYLAYER
 10
86.3840443112
 20
113.8474972748
 11
86.3840443112
 21
110.9080885732
  0
LINE
  5
2E5
100
AcDbEntity
  8
0
100
AcDbLine
 62
7
  6
BYLAYER
 10
88.5583231074
 20
119.4505286345
 11
88.5583231074
 21
121.9000358859
  0
LINE
  5
2E6
100
AcDbEntity
  8
0
100
AcDbLine
 62
7
  6
BYLAYER
 10
88.5760768049
 20
110.7039726151
 11
88.5760768049
 21
108.9076672974
  0
LINE
  5
2E7
100
AcDbEntity
  8
0
100
AcDbLine
 62
7
  6
BYLAYER
 10
88.7225219423
 20
109.1117876747
 11
88.7225219423
 21
110.9080929923
  0
LINE
  5
2E8
100
AcDbEntity
  8
0
100
AcDbLine
 62
7
  6
BYLAYER
 10
88.9383797105
 20
133.9800894197
 11
88.9383797105
 21
134.0501301208
  0
LINE
  5
2E9
100
AcDbEntity
  8
0
100
AcDbLine
 62
7
  6
BYLAYER
 10
89.2567916412
 20
104.7995677969
 11
89.2567916412
 21
108.1472277071
  0
LINE
  5
2EA
100
AcDbEntity
  8
0
100
AcDbLine
 62
7
  6
BYLAYER
 10
90.9891368687
 20
114.0054393032
 11
90.9891368687
 21
117.3530992134
  0
LINE
  5
2EB
100
AcDbEntity
  8
0
100
AcDbLine
 62
7
  6
BYLAYER
 10
97.1025530646
 20
134.5937733644
 11
97.710182987
 21
138.2221733271
  0
LINE
  5
2EC
100
AcDbEntity
  8
0
100
AcDbLine
 62
7
  6
BYLAYER
 10
98.1968935719
 20
138.3517281887
 11
97.573164964
 21
134.6271965712
  0
LINE
  5
2ED
100
AcDbEntity
  8
0
100
AcDbLine
 62
7
  6
BYLAYER
 10
112.2376454485
 20
94.945573146
 11
119.48545978
 21
99.2031121868
  0
LINE
  5
2EE
100
AcDbEntity
  8
0
100
AcDbLine
 62
7
  6
BYLAYER
 10
112.1730364053
 20
94.5714639847
 11
119.2805059212
 21
98.7465611328
  0
LINE
  5
2EF
100
AcDbEntity
  8
0
100
AcDbLine
 62
7
  6
BYLAYER
 10
112.2376454485
 20
94.811257308
 11
101.6311087925
 21
88.6876070678
  0
LINE
  5
2F0
100
AcDbEntity
  8
0
100
AcDbLine
 62
7
  6
BYLAYER
 10
121.1825089893
 20
99.7572846957
 11
119.48545978
 21
98.7774987264
  0
LINE
  5
2F1
100
AcDbEntity
  8
0
100
AcDbLine
 62
7
  6
BYLAYER
 10
101.6311087925
 20
88.3493745752
 11
112.0305239653
 21
94.3534438852
  0
LINE
  5
2F2
100
AcDbEntity
  8
0
100
AcDbLine
 62
7
  6
BYLAYER
 10
121.0789530075
 20
99.5283917249
 11
119.3819037982
 21
98.5486057556
  0
LINE
  5
2F3
100
AcDbEntity
  8
0
100
AcDbLine
 62
7
  6
BYLAYER
 10
89.2567916412
 20
108.1472277071
 11
88.2578619709
 21
108.723946974
  0
LINE
  5
2F4
100
AcDbEntity
  8
0
100
AcDbLine
 62
7
  6
BYLAYER
 10
86.3840443112
 20
112.3777552895
 11
88.5760738609
 21
111.1122150693
  0
LINE
  5
2F5
100
AcDbEntity
  8
0
100
AcDbLine
 62
7
  6
BYLAYER
 10
101.6311087925
 20
84.9992607244
 11
44.0021460596
 21
51.7273621838
  0
LINE
  5
2F6
100
AcDbEntity
  8
0
100
AcDbLine
 62
7
  6
BYLAYER
 10
84.0505843517
 20
114.0516164203
 11
83.9798797832
 21
114.0924367985
  0
LINE
  5
2F7
100
AcDbEntity
  8
0
100
AcDbLine
 62
7
  6
BYLAYER
 10
60.8220323245
 20
127.4623237954
 11
60.645258559
 21
127.5643818676
  0
LINE
  5
2F8
100
AcDbEntity
  8
0
100
AcDbLine
 62
7
  6
BYLAYER
 10
60.9988137159
 20
127.5643879701
 11
83.9798797832
 21
114.2965634482
  0
LINE
  5
2F9
100
AcDbEntity
  8
0
100
AcDbLine
 62
7
  6
BYLAYER
 10
84.4041453239
 20
114.2557437243
 11
60.645258559
 21
127.9726330762
  0
LINE
  5
2FA
100
AcDbEntity
  8
0
100
AcDbLine
 62
7
  6
BYLAYER
 10
60.6452550262
 20
128.4625240212
 11
85.2526734613
 21
114.2557457639
  0
LINE
  5
2FB
100
AcDbEntity
  8
0
100
AcDbLine
 62
7
  6
BYLAYER
 10
60.6452503159
 20
128.7074607394
 11
68.5118460081
 21
124.1657823453
  0
LINE
  5
2FC
100
AcDbEntity
  8
0
100
AcDbLine
 62
7
  6
BYLAYER
 10
78.517448619
 20
118.3891756689
 11
86.3840443112
 21
113.8474972748
  0
LINE
  5
2FD
100
AcDbEntity
  8
0
100
AcDbLine
 62
7
  6
BYLAYER
 10
83.325754712
 20
118.2258272135
 11
85.0565998129
 21
117.2265459354
  0
LINE
  5
2FE
100
AcDbEntity
  8
0
100
AcDbLine
 62
7
  6
BYLAYER
 10
119.1319049174
 20
98.5733678951
 11
119.0581546301
 21
98.61594668
  0
LINE
  5
2FF
100
AcDbEntity
  8
0
100
AcDbLine
 62
7
  6
BYLAYER
 10
85.2030070777
 20
117.0224239136
 11
85.0565998129
 21
117.2265459354
  0
LINE
  5
300
100
AcDbEntity
  8
0
100
AcDbLine
 62
7
  6
BYLAYER
 10
97.3176241985
 20
134.2741319091
 11
97.317618935
 21
131.9858912348
  0
LINE
  5
301
100
AcDbEntity
  8
0
100
AcDbLine
 62
7
  6
BYLAYER
 10
78.3229498738
 20
123.2778221806
 11
78.6411147357
 21
123.0941337676
  0
LINE
  5
302
100
AcDbEntity
  8
0
100
AcDbLine
 62
7
  6
BYLAYER
 10
76.7380462059
 20
124.9685484253
 11
78.3229486962
 21
124.0535252465
  0
LINE
  5
303
100
AcDbEntity
  8
0
100
AcDbLine
 62
7
  6
BYLAYER
 10
79.4543242565
 20
123.4003400392
 11
81.0392267468
 21
122.4853168604
  0
LINE
  5
304
100
AcDbEntity
  8
0
100
AcDbLine
 62
7
  6
BYLAYER
 10
90.9891368687
 20
117.3530992134
 11
87.9572667386
 21
119.1035106496
  0
LINE
  5
305
100
AcDbEntity
  8
0
100
AcDbLine
 62
7
  6
BYLAYER
 10
77.5865708106
 20
125.45844141
 11
79.1714733009
 21
124.5434182311
  0
LINE
  5
306
100
AcDbEntity
  8
0
100
AcDbLine
 62
7
  6
BYLAYER
 10
80.3028488611
 20
123.8902330239
 11
81.8877513515
 21
122.975209845
  0
LINE
  5
307
100
AcDbEntity
  8
0
100
AcDbLine
 62
7
  6
BYLAYER
 10
98.2016283919
 20
113.6788626765
 11
88.3814548015
 21
119.34841428
  0
LINE
  5
308
100
AcDbEntity
  8
0
100
AcDbLine
 62
7
  6
BYLAYER
 10
101.6311087925
 20
111.9438404896
 11
88.5583231074
 21
119.4912460789
  0
LINE
  5
309
100
AcDbEntity
  8
0
100
AcDbLine
 62
7
  6
BYLAYER
 10
74.4866760644
 20
127.6153314957
 11
73.2760088141
 21
128.3142947459
  0
LINE
  5
30A
100
AcDbEntity
  8
0
100
AcDbLine
 62
7
  6
BYLAYER
 10
80.0199731762
 20
126.176341063
 11
81.1277111989
 21
125.5368026858
  0
LINE
  5
30B
100
AcDbEntity
  8
0
100
AcDbLine
 62
7
  6
BYLAYER
 10
81.3593868579
 20
125.4030477076
 11
82.040283132
 21
125.0099409537
  0
LINE
  5
30C
100
AcDbEntity
  8
0
100
AcDbLine
 62
7
  6
BYLAYER
 10
82.2456644232
 20
124.8913666925
 11
84.5454314279
 21
123.5636256307
  0
LINE
  5
30D
100
AcDbEntity
  8
0
100
AcDbLine
 62
7
  6
BYLAYER
 10
101.6311087925
 20
84.9992607244
 11
101.6311087925
 21
111.9438404896
  0
LWPOLYLINE
  5
30E
100
AcDbEntity
  8
0
100
AcDbPolyline
 62
7
  6
BYLAYER
 90
3
 70
0
 10
113.3937088489
 20
122.7427369046
 10
113.3383918661
 20
122.7529374513
 10
113.2306311865
 20
122.7987149593
  0
LINE
  5
30F
100
AcDbEntity
  8
0
100
AcDbLine
 62
7
  6
BYLAYER
 10
76.5728297524
 20
128.8197656995
 11
80.0199731762
 21
126.8295429967
  0
LINE
  5
310
100
AcDbEntity
  8
0
100
AcDbLine
 62
7
  6
BYLAYER
 10
88.5583231074
 20
121.9000358859
 11
85.1111796835
 21
123.8902585887
  0
LINE
  5
311
100
AcDbEntity
  8
0
100
AcDbLine
 62
7
  6
BYLAYER
 10
113.2309002307
 20
122.7985610126
 11
113.1841171893
 21
122.816801516
  0
LINE
  5
312
100
AcDbEntity
  8
0
100
AcDbLine
 62
7
  6
BYLAYER
 10
112.2730006404
 20
114.8626683017
 11
112.2376454485
 21
114.8830801695
  0
LINE
  5
313
100
AcDbEntity
  8
0
100
AcDbLine
 62
7
  6
BYLAYER
 10
112.2376454485
 20
94.945573146
 11
112.2376454485
 21
94.811257308
  0
LINE
  5
314
100
AcDbEntity
  8
0
100
AcDbLine
 62
7
  6
BYLAYER
 10
112.2376454485
 20
114.842256094
 11
112.2376454485
 21
120.1495218054
  0
LINE
  5
315
100
AcDbEntity
  8
0
100
AcDbLine
 62
7
  6
BYLAYER
 10
112.2730006404
 20
114.8626683017
 11
112.2730006404
 21
120.5781852216
  0
LINE
  5
316
100
AcDbEntity
  8
0
100
AcDbLine
 62
7
  6
BYLAYER
 10
95.1503277142
 20
133.2283791826
 11
91.6129060717
 21
134.5504839235
  0
LINE
  5
317
100
AcDbEntity
  8
0
100
AcDbLine
 62
7
  6
BYLAYER
 10
91.7580711653
 20
134.7857404774
 11
95.2041905364
 21
133.49775979
  0
LINE
  5
318
100
AcDbEntity
  8
0
100
AcDbLine
 62
7
  6
BYLAYER
 10
95.1503277142
 20
133.2283791826
 11
95.1972233684
 21
133.2100740449
  0
LINE
  5
319
100
AcDbEntity
  8
0
100
AcDbLine
 62
7
  6
BYLAYER
 10
115.7378094427
 20
116.9038887311
 11
115.7731646346
 21
116.8834768634
  0
LINE
  5
31A
100
AcDbEntity
  8
0
100
AcDbLine
 62
7
  6
BYLAYER
 10
89.6101342438
 20
134.0297283672
 11
111.5305357234
 21
121.374264977
  0
LINE
  5
31B
100
AcDbEntity
  8
0
100
AcDbLine
 62
7
  6
BYLAYER
 10
111.9194457778
 20
121.1905568075
 11
89.2919345731
 21
134.2542609521
  0
LINE
  5
31C
100
AcDbEntity
  8
0
100
AcDbLine
 62
7
  6
BYLAYER
 10
91.4101170222
 20
134.5072357065
 11
112.3575995319
 21
122.4134746382
  0
LINE
  5
31D
100
AcDbEntity
  8
0
100
AcDbLine
 62
7
  6
BYLAYER
 10
112.5603885814
 20
122.4567228551
 11
91.6129060717
 21
134.5504839235
  0
LINE
  5
31E
100
AcDbEntity
  8
0
100
AcDbLine
 62
7
  6
BYLAYER
 10
95.1503277142
 20
133.2283791826
 11
113.1841171893
 21
122.816801516
  0
LINE
  5
31F
100
AcDbEntity
  8
0
100
AcDbLine
 62
7
  6
BYLAYER
 10
95.1972233684
 20
133.2100740449
 11
113.231323898
 21
122.7983172413
  0
LWPOLYLINE
  5
320
100
AcDbEntity
  8
0
100
AcDbPolyline
 62
7
  6
BYLAYER
 90
3
 70
0
 10
95.1969806006
 20
133.2102132366
 10
95.091455909
 20
133.2846198934
 10
95.060882986
 20
133.3103598131
  0
LINE
  5
321
100
AcDbEntity
  8
0
100
AcDbLine
 62
7
  6
BYLAYER
 10
115.7378094427
 20
120.4556752911
 11
115.7378094427
 21
116.8630646557
  0
LINE
  5
322
100
AcDbEntity
  8
0
100
AcDbLine
 62
7
  6
BYLAYER
 10
115.7731646346
 20
120.4760874988
 11
115.7731646346
 21
116.8834768634
  0
LINE
  5
323
100
AcDbEntity
  8
0
100
AcDbLine
 62
7
  6
BYLAYER
 10
97.4224020949
 20
134.2057342956
 11
115.3769583049
 21
123.8399009411
  0
LINE
  5
324
100
AcDbEntity
  8
0
100
AcDbLine
 62
7
  6
BYLAYER
 10
115.6069544391
 20
124.2156189045
 11
97.573164964
 21
134.6271965712
  0
LINE
  5
325
100
AcDbEntity
  8
0
100
AcDbLine
 62
7
  6
BYLAYER
 10
119.48545978
 20
98.7774987264
 11
119.48545978
 21
122.6193693066
  0
LINE
  5
326
100
AcDbEntity
  8
0
100
AcDbLine
 62
7
  6
BYLAYER
 10
121.1825089893
 20
125.7220615604
 11
121.1825089893
 21
99.7572846957
  0
LINE
  5
327
100
AcDbEntity
  8
0
100
AcDbLine
 62
7
  6
BYLAYER
 10
121.3289541267
 20
125.9261819377
 11
121.3289541267
 21
99.961405073
  0
LINE
  5
328
100
AcDbEntity
  8
0
100
AcDbLine
 62
7
  6
BYLAYER
 10
98.1968935719
 20
138.3517281887
 11
119.1443760816
 21
126.2579671203
  0
LINE
  5
329
100
AcDbEntity
  8
0
100
AcDbLine
 62
7
  6
BYLAYER
 10
119.3471651311
 20
126.4488781303
 11
98.3996826214
 21
138.5426391987
  0
LINE
  5
32A
100
AcDbEntity
  8
0
100
AcDbLine
 62
7
  6
BYLAYER
 10
98.201442922
 20
139.3981372909
 11
120.8289541267
 21
126.3344331462
  0
LINE
  5
32B
100
AcDbEntity
  8
0
100
AcDbLine
 62
7
  6
BYLAYER
 10
98.4514386802
 20
139.4229012332
 11
121.0789498849
 21
126.3591970885
  0
ARC
  5
32C
100
AcDbEntity
  8
0
100
AcDbCircle
 62
7
  6
BYLAYER
 10
21.4303175167
 20
69.5530864415
 40
14.3133291611
100
AcDbArc
 50
50.7267570545
 51
53.9277629518
  0
ARC
  5
32D
100
AcDbEntity
  8
0
100
AcDbCircle
 62
7
  6
BYLAYER
 10
23.0911990682
 20
66.9480669609
 40
14.1663479621
100
AcDbArc
 50
6.3661311159
 51
9.3152930296
  0
ARC
  5
32E
100
AcDbEntity
  8
0
100
AcDbCircle
 62
7
  6
BYLAYER
 10
23.6434781323
 20
67.0122483887
 40
13.6103581583
100
AcDbArc
 50
6.120350298
 51
6.3554041396
  0
ARC
  5
32F
100
AcDbEntity
  8
0
100
AcDbCircle
 62
7
  6
BYLAYER
 10
27.4337110267
 20
67.6655720982
 40
10.7347816926
100
AcDbArc
 50
355.8090017963
 51
0.020906772
  0
ARC
  5
330
100
AcDbEntity
  8
0
100
AcDbCircle
 62
7
  6
BYLAYER
 10
28.7341610058
 20
67.5772588849
 40
9.4313576606
100
AcDbArc
 50
351.3501647388
 51
355.7667087516
  0
ARC
  5
331
100
AcDbEntity
  8
0
100
AcDbCircle
 62
7
  6
BYLAYER
 10
67.7444353433
 20
132.6234264087
 40
8.2714546849
100
AcDbArc
 50
272.7970007062
 51
280.0767142827
  0
ARC
  5
332
100
AcDbEntity
  8
0
100
AcDbCircle
 62
7
  6
BYLAYER
 10
36.3836102634
 20
78.9816488195
 40
7.6197209772
100
AcDbArc
 50
177.1320348399
 51
180.0290723564
  0
ARC
  5
333
100
AcDbEntity
  8
0
100
AcDbCircle
 62
7
  6
BYLAYER
 10
31.6174960198
 20
92.4243376665
 40
5.0290812912
100
AcDbArc
 50
117.288148437
 51
118.4173180793
  0
ARC
  5
334
100
AcDbEntity
  8
0
100
AcDbCircle
 62
7
  6
BYLAYER
 10
33.6725174134
 20
92.4279452122
 40
5.0249935951
100
AcDbArc
 50
61.5824287927
 51
62.661552961
  0
ARC
  5
335
100
AcDbEntity
  8
0
100
AcDbCircle
 62
7
  6
BYLAYER
 10
31.5235099775
 20
92.5980449259
 40
4.8315779036
100
AcDbArc
 50
118.4173701011
 51
119.9893764577
  0
ARC
  5
336
100
AcDbEntity
  8
0
100
AcDbCircle
 62
7
  6
BYLAYER
 10
33.7851924852
 20
92.6349197162
 40
4.7893376186
100
AcDbArc
 50
60.0040969251
 51
61.5896080427
  0
ARC
  5
337
100
AcDbEntity
  8
0
100
AcDbCircle
 62
7
  6
BYLAYER
 10
88.0073800579
 20
110.2701613207
 40
4.6431415715
100
AcDbArc
 50
119.999304409
 51
120.5006075711
  0
ARC
  5
338
100
AcDbEntity
  8
0
100
AcDbCircle
 62
7
  6
BYLAYER
 10
78.0298980199
 20
119.8213980617
 40
4.5085041519
100
AcDbArc
 50
120.6856278166
 51
122.1244435592
  0
ARC
  5
339
100
AcDbEntity
  8
0
100
AcDbCircle
 62
7
  6
BYLAYER
 10
33.0941112434
 20
93.7733903443
 40
4.0558702463
100
AcDbArc
 50
67.0205103552
 51
68.3513001913
  0
ARC
  5
33A
100
AcDbEntity
  8
0
100
AcDbCircle
 62
7
  6
BYLAYER
 10
26.0994272579
 20
94.9789931337
 40
3.5933264911
100
AcDbArc
 50
107.0364021511
 51
107.3085916774
  0
ARC
  5
33B
100
AcDbEntity
  8
0
100
AcDbCircle
 62
7
  6
BYLAYER
 10
31.8477829595
 20
96.2543036574
 40
3.3334712595
100
AcDbArc
 50
239.6386097899
 51
240.0008715748
  0
ARC
  5
33C
100
AcDbEntity
  8
0
100
AcDbCircle
 62
7
  6
BYLAYER
 10
31.8003084457
 20
96.3489915081
 40
3.3202925052
100
AcDbArc
 50
239.6386296249
 51
240.00089141
  0
ARC
  5
33D
100
AcDbEntity
  8
0
100
AcDbCircle
 62
7
  6
BYLAYER
 10
25.8145687749
 20
98.4286574488
 40
2.8193728865
100
AcDbArc
 50
243.8346334315
 51
244.0946915351
  0
ARC
  5
33E
100
AcDbEntity
  8
0
100
AcDbCircle
 62
7
  6
BYLAYER
 10
79.3128255793
 20
125.119026069
 40
1.724488951
100
AcDbArc
 50
265.2986004322
 51
270.0025703615
  0
ARC
  5
33F
100
AcDbEntity
  8
0
100
AcDbCircle
 62
7
  6
BYLAYER
 10
79.3129719781
 20
122.8247322013
 40
1.724488951
100
AcDbArc
 50
85.2986004322
 51
90.0025703615
  0
ARC
  5
340
100
AcDbEntity
  8
0
100
AcDbCircle
 62
7
  6
BYLAYER
 10
79.3132091036
 20
125.1132466801
 40
1.7187095877
100
AcDbArc
 50
269.9897936444
 51
274.7095883021
  0
ARC
  5
341
100
AcDbEntity
  8
0
100
AcDbCircle
 62
7
  6
BYLAYER
 10
79.3125884538
 20
122.8305115902
 40
1.7187095877
100
AcDbArc
 50
89.9897936444
 51
94.7095883021
  0
ARC
  5
342
100
AcDbEntity
  8
0
100
AcDbCircle
 62
7
  6
BYLAYER
 10
30.4211163118
 20
94.9047088382
 40
1.3188090976
100
AcDbArc
 50
173.8690073091
 51
179.993489455
  0
ARC
  5
343
100
AcDbEntity
  8
0
100
AcDbCircle
 62
7
  6
BYLAYER
 10
30.2919815735
 20
94.9195129331
 40
1.1889169474
100
AcDbArc
 50
180.6408931537
 51
187.2330446082
  0
ARC
  5
344
100
AcDbEntity
  8
0
100
AcDbCircle
 62
7
  6
BYLAYER
 10
30.2876702253
 20
94.9189583142
 40
1.1845997734
100
AcDbArc
 50
173.8649123348
 51
180.6164019431
  0
ARC
  5
345
100
AcDbEntity
  8
0
100
AcDbCircle
 62
7
  6
BYLAYER
 10
113.0940278497
 20
123.8780835626
 40
1.1767101386
100
AcDbArc
 50
284.774290586
 51
288.9441547738
  0
ARC
  5
346
100
AcDbEntity
  8
0
100
AcDbCircle
 62
7
  6
BYLAYER
 10
113.095513469
 20
123.8723177456
 40
1.1707561015
100
AcDbArc
 50
284.1914151621
 51
284.7759471933
  0
ARC
  5
347
100
AcDbEntity
  8
0
100
AcDbCircle
 62
7
  6
BYLAYER
 10
57.2413108343
 20
116.6957318513
 40
0.7182532978
100
AcDbArc
 50
162.104384106
 51
166.7424799361
  0
ARC
  5
348
100
AcDbEntity
  8
0
100
AcDbCircle
 62
7
  6
BYLAYER
 10
116.1710593167
 20
123.7622529124
 40
0.7174568917
100
AcDbArc
 50
163.4193484116
 51
166.1146942003
  0
ARC
  5
349
100
AcDbEntity
  8
0
100
AcDbCircle
 62
7
  6
BYLAYER
 10
57.219820715
 20
116.7010052733
 40
0.6961265941
100
AcDbArc
 50
166.7593191734
 51
168.6220744396
  0
ARC
  5
34A
100
AcDbEntity
  8
0
100
AcDbCircle
 62
7
  6
BYLAYER
 10
116.1386637279
 20
123.7702302331
 40
0.6840935753
100
AcDbArc
 50
166.1121769037
 51
169.7477906964
  0
ARC
  5
34B
100
AcDbEntity
  8
0
100
AcDbCircle
 62
7
  6
BYLAYER
 10
120.8289541267
 20
99.961405073
 40
0.5
100
AcDbArc
 50
299.9998519061
 51
360.0
  0
ARC
  5
34C
100
AcDbEntity
  8
0
100
AcDbCircle
 62
7
  6
BYLAYER
 10
120.8289541267
 20
125.9261819377
 40
0.5
100
AcDbArc
 50
0.0
 51
60.0005612632
  0
ARC
  5
34D
100
AcDbEntity
  8
0
100
AcDbCircle
 62
7
  6
BYLAYER
 10
98.201442922
 20
138.9898860823
 40
0.5
100
AcDbArc
 50
60.0005612632
 51
119.9998519061
  0
SPLINE
  5
34E
100
AcDbEntity
  8
0
100
AcDbSpline
 62
7
  6
BYLAYER
 70
0
 71
3
 72
11
 73
7
 74
0
 42
0.0000001
 43
0.0000001
 44
0.0000000001
 40
0.0
 40
0.0
 40
0.0
 40
0.0
 40
0.2297146143
 40
0.4828445631
 40
0.7452179041
 40
1.0
 40
1.0
 40
1.0
 40
1.0
 10
77.5865922508
 20
122.4853085613
 30
0.0
 10
77.5470314716
 20
122.4624682711
 30
0.0
 10
77.4703514545
 20
122.4030207656
 30
0.0
 10
77.3730746866
 20
122.2902085078
 30
0.0
 10
77.2946794004
 20
122.1577313539
 30
0.0
 10
77.2586304556
 20
122.06060775
 30
0.0
 10
77.246156033
 20
122.0115017478
 30
0.0
  0
SPLINE
  5
34F
100
AcDbEntity
  8
0
100
AcDbSpline
 62
7
  6
BYLAYER
 70
0
 71
3
 72
11
 73
7
 74
0
 42
0.0000001
 43
0.0000001
 44
0.0000000001
 40
0.0
 40
0.0
 40
0.0
 40
0.0
 40
0.2297361906
 40
0.4828727833
 40
0.7452280932
 40
1.0
 40
1.0
 40
1.0
 40
1.0
 10
81.0392267468
 20
122.4853168604
 30
0.0
 10
81.0787964221
 20
122.4624718145
 30
0.0
 10
81.1554926109
 20
122.403014653
 30
0.0
 10
81.2527699928
 20
122.2901747582
 30
0.0
 10
81.331167359
 20
122.1576818204
 30
0.0
 10
81.3672122907
 20
122.060548542
 30
0.0
 10
81.3796852118
 20
122.0114376224
 30
0.0
  0
SPLINE
  5
350
100
AcDbEntity
  8
0
100
AcDbSpline
 62
7
  6
BYLAYER
 70
0
 71
3
 72
9
 73
5
 74
0
 42
0.0000001
 43
0.0000001
 44
0.0000000001
 40
0.0
 40
0.0
 40
0.0
 40
0.0
 40
0.2523482844
 40
1.0
 40
1.0
 40
1.0
 40
1.0
 10
78.3229498738
 20
123.8902282648
 30
0.0
 10
78.321285383
 20
123.8969549284
 30
0.0
 10
78.3154720833
 20
123.9237980916
 30
0.0
 10
78.3128986351
 20
123.9513484511
 30
0.0
 10
78.3128986351
 20
123.9718791352
 30
0.0
  0
SPLINE
  5
351
100
AcDbEntity
  8
0
100
AcDbSpline
 62
7
  6
BYLAYER
 70
0
 71
3
 72
12
 73
8
 74
0
 42
0.0000001
 43
0.0000001
 44
0.0000000001
 40
0.0
 40
0.0
 40
0.0
 40
0.0
 40
0.291924762
 40
0.5498940769
 40
0.7803376426
 40
0.8903709649
 40
1.0
 40
1.0
 40
1.0
 40
1.0
 10
76.7380462059
 20
124.9685484253
 30
0.0
 10
76.713052465
 20
124.9829782419
 30
0.0
 10
76.6633822429
 20
125.0061547224
 30
0.0
 10
76.5869684267
 20
125.0218953207
 30
0.0
 10
76.5268353843
 20
125.0153193517
 30
0.0
 10
76.48556503
 20
124.9980245448
 30
0.0
 10
76.4674157808
 20
124.9858037925
 30
0.0
 10
76.4590432919
 20
124.9789215206
 30
0.0
  0
SPLINE
  5
352
100
AcDbEntity
  8
0
100
AcDbSpline
 62
7
  6
BYLAYER
 70
0
 71
3
 72
12
 73
8
 74
0
 42
0.0000001
 43
0.0000001
 44
0.0000000001
 40
0.0
 40
0.0
 40
0.0
 40
0.0
 40
0.2919526492
 40
0.5499198449
 40
0.7803530532
 40
0.8903791476
 40
1.0
 40
1.0
 40
1.0
 40
1.0
 10
81.8877369768
 20
124.9685608036
 30
0.0
 10
81.9127324003
 20
124.982991832
 30
0.0
 10
81.962401836
 20
125.0061743116
 30
0.0
 10
82.0388186682
 20
125.021903099
 30
0.0
 10
82.0989462797
 20
125.0153245445
 30
0.0
 10
82.1402152368
 20
124.9980355626
 30
0.0
 10
82.1583621823
 20
124.9858146255
 30
0.0
 10
82.1667332681
 20
124.9789323309
 30
0.0
  0
SPLINE
  5
353
100
AcDbEntity
  8
0
100
AcDbSpline
 62
7
  6
BYLAYER
 70
0
 71
3
 72
9
 73
5
 74
0
 42
0.0000001
 43
0.0000001
 44
0.0000000001
 40
0.0
 40
0.0
 40
0.0
 40
0.0
 40
0.2486765348
 40
1.0
 40
1.0
 40
1.0
 40
1.0
 10
80.3128989223
 20
123.9718791352
 30
0.0
 10
80.3128989223
 20
123.9650507277
 30
0.0
 10
80.3120583419
 20
123.9375965898
 30
0.0
 10
80.3078040956
 20
123.9102596747
 30
0.0
 10
80.3028488611
 20
123.8902330239
 30
0.0
  0
SPLINE
  5
354
100
AcDbEntity
  8
0
100
AcDbSpline
 62
7
  6
BYLAYER
 70
0
 71
3
 72
13
 73
9
 74
0
 42
0.0000001
 43
0.0000001
 44
0.0000000001
 40
0.0
 40
0.0
 40
0.0
 40
0.0
 40
0.1207702972
 40
0.2417423647
 40
0.3635730339
 40
0.486569613
 40
0.7378106227
 40
1.0
 40
1.0
 40
1.0
 40
1.0
 10
82.9128987787
 20
123.5636279266
 30
0.0
 10
82.9128987787
 20
123.6301541086
 30
0.0
 10
82.9042062965
 20
123.7634812305
 30
0.0
 10
82.8653755091
 20
123.9604777891
 30
0.0
 10
82.801905264
 20
124.1522707542
 30
0.0
 10
82.6854250372
 20
124.400082333
 30
0.0
 10
82.4831273159
 20
124.6898177698
 30
0.0
 10
82.2783307201
 20
124.8872553085
 30
0.0
 10
82.1667397213
 20
124.9789424247
 30
0.0
  0
SPLINE
  5
355
100
AcDbEntity
  8
0
100
AcDbSpline
 62
7
  6
BYLAYER
 70
0
 71
3
 72
12
 73
8
 74
0
 42
0.0000001
 43
0.0000001
 44
0.0000000001
 40
0.0
 40
0.0
 40
0.0
 40
0.0
 40
0.1095339304
 40
0.2196690778
 40
0.4503138554
 40
0.7081788388
 40
1.0
 40
1.0
 40
1.0
 40
1.0
 10
77.3516582787
 20
125.494969506
 30
0.0
 10
77.3420385159
 20
125.4910961495
 30
0.0
 10
77.3234087926
 20
125.481531505
 30
0.0
 10
77.2895998656
 20
125.4552007389
 30
0.0
 10
77.2554563156
 20
125.4084532406
 30
0.0
 10
77.231767936
 20
125.3375916108
 30
0.0
 10
77.2271705514
 20
125.2853139279
 30
0.0
 10
77.2271705514
 20
125.2576853436
 30
0.0
  0
SPLINE
  5
356
100
AcDbEntity
  8
0
100
AcDbSpline
 62
7
  6
BYLAYER
 70
0
 71
3
 72
12
 73
8
 74
0
 42
0.0000001
 43
0.0000001
 44
0.0000000001
 40
0.0
 40
0.0
 40
0.0
 40
0.0
 40
0.1095408472
 40
0.2196819781
 40
0.4503356104
 40
0.7082037133
 40
1.0
 40
1.0
 40
1.0
 40
1.0
 10
81.2741171787
 20
125.4949833417
 30
0.0
 10
81.2837373554
 20
125.4911089717
 30
0.0
 10
81.3023676193
 20
125.481542739
 30
0.0
 10
81.3361815328
 20
125.4552143191
 30
0.0
 10
81.3703237289
 20
125.408461011
 30
0.0
 10
81.394001299
 20
125.3375972357
 30
0.0
 10
81.3986025731
 20
125.2853218866
 30
0.0
 10
81.3986025731
 20
125.2576953705
 30
0.0
  0
SPLINE
  5
357
100
AcDbEntity
  8
0
100
AcDbSpline
 62
7
  6
BYLAYER
 70
0
 71
3
 72
13
 73
9
 74
0
 42
0.0000001
 43
0.0000001
 44
0.0000000001
 40
0.0
 40
0.0
 40
0.0
 40
0.0
 40
0.2621886051
 40
0.5134293363
 40
0.6364258588
 40
0.7582562933
 40
0.8792289435
 40
1.0
 40
1.0
 40
1.0
 40
1.0
 10
76.4590395719
 20
124.9789274204
 30
0.0
 10
76.3474512728
 20
124.8872409351
 30
0.0
 10
76.1426598658
 20
124.6898047914
 30
0.0
 10
75.9403669144
 20
124.4000729204
 30
0.0
 10
75.823890212
 20
124.1522643985
 30
0.0
 10
75.7604207287
 20
123.9604740499
 30
0.0
 10
75.7215914625
 20
123.7634794869
 30
0.0
 10
75.7128987787
 20
123.6301535775
 30
0.0
 10
75.7128987787
 20
123.5636279266
 30
0.0
  0
SPLINE
  5
358
100
AcDbEntity
  8
0
100
AcDbSpline
 62
7
  6
BYLAYER
 70
0
 71
3
 72
15
 73
11
 74
0
 42
0.0000001
 43
0.0000001
 44
0.0000000001
 40
0.0
 40
0.0
 40
0.0
 40
0.0
 40
0.1196705074
 40
0.2437728621
 40
0.3710588015
 40
0.5000011993
 40
0.6289433864
 40
0.7562288726
 40
0.8803301989
 40
1.0
 40
1.0
 40
1.0
 40
1.0
 10
81.2741193531
 20
125.4949882769
 30
0.0
 10
81.1257612355
 20
125.5547717987
 30
0.0
 10
80.816451777
 20
125.6594740802
 30
0.0
 10
80.3324273596
 20
125.7708269288
 30
0.0
 10
79.8278649301
 20
125.838341504
 30
0.0
 10
79.312881159
 20
125.8609609095
 30
0.0
 10
78.7978981197
 20
125.8383384829
 30
0.0
 10
78.2933383704
 20
125.7708209858
 30
0.0
 10
77.8093174355
 20
125.6594660847
 30
0.0
 10
77.500010828
 20
125.554762601
 30
0.0
 10
77.351653959
 20
125.4949785066
 30
0.0
  0
SPLINE
  5
359
100
AcDbEntity
  8
0
100
AcDbSpline
 62
7
  6
BYLAYER
 70
0
 71
3
 72
13
 73
9
 74
0
 42
0.0000001
 43
0.0000001
 44
0.0000000001
 40
0.0
 40
0.0
 40
0.0
 40
0.0
 40
0.2791207812
 40
0.534805013
 40
0.6555011049
 40
0.7725040082
 40
0.8869179144
 40
1.0
 40
1.0
 40
1.0
 40
1.0
 10
82.2471516106
 20
122.3594634942
 30
0.0
 10
82.3498095652
 20
122.4428451802
 30
0.0
 10
82.5348907503
 20
122.6179690864
 30
0.0
 10
82.7173656502
 20
122.8723548485
 30
0.0
 10
82.8191552295
 20
123.083360454
 30
0.0
 10
82.8731094181
 20
123.2417073579
 30
0.0
 10
82.9056255765
 20
123.4021184716
 30
0.0
 10
82.912898778
 20
123.5100469089
 30
0.0
 10
82.9128987787
 20
123.5636279266
 30
0.0
  0
SPLINE
  5
35A
100
AcDbEntity
  8
0
100
AcDbSpline
 62
7
  6
BYLAYER
 70
0
 71
3
 72
15
 73
11
 74
0
 42
0.0000001
 43
0.0000001
 44
0.0000000001
 40
0.0
 40
0.0
 40
0.0
 40
0.0
 40
0.1139944828
 40
0.2369293576
 40
0.3662983498
 40
0.4992414247
 40
0.6323877629
 40
0.7622745704
 40
0.8857582124
 40
1.0
 40
1.0
 40
1.0
 40
1.0
 10
81.8877513515
 20
122.975209845
 30
0.0
 10
81.9121226753
 20
122.961139373
 30
0.0
 10
81.9603180484
 20
122.9275309919
 30
0.0
 10
82.0268596042
 20
122.865961065
 30
0.0
 10
82.0883655697
 20
122.7931250651
 30
0.0
 10
82.1425419598
 20
122.7116635812
 30
0.0
 10
82.1872821185
 20
122.624514926
 30
0.0
 10
82.220852993
 20
122.5349456451
 30
0.0
 10
82.2418514389
 20
122.4464069879
 30
0.0
 10
82.2471516106
 20
122.3876659671
 30
0.0
 10
82.2471516106
 20
122.3594634942
 30
0.0
  0
SPLINE
  5
35B
100
AcDbEntity
  8
0
100
AcDbSpline
 62
7
  6
BYLAYER
 70
0
 71
3
 72
15
 73
11
 74
0
 42
0.0000001
 43
0.0000001
 44
0.0000000001
 40
0.0
 40
0.0
 40
0.0
 40
0.0
 40
0.1387827192
 40
0.2664978979
 40
0.3856216307
 40
0.4999991193
 40
0.6143767466
 40
0.733500867
 40
0.8612166136
 40
1.0
 40
1.0
 40
1.0
 40
1.0
 10
81.8877513515
 20
122.975209845
 30
0.0
 10
81.9691099443
 20
123.0452699925
 30
0.0
 10
82.1156524466
 20
123.1919447542
 30
0.0
 10
82.2848470692
 20
123.4400539633
 30
0.0
 10
82.3891741332
 20
123.7020907946
 30
0.0
 10
82.4245167881
 20
123.9718867814
 30
0.0
 10
82.3891701641
 20
124.2416825381
 30
0.0
 10
82.2848393123
 20
124.5037187409
 30
0.0
 10
82.1156411603
 20
124.7518270276
 30
0.0
 10
81.9690965843
 20
124.8985010436
 30
0.0
 10
81.8877369768
 20
124.9685608036
 30
0.0
  0
SPLINE
  5
35C
100
AcDbEntity
  8
0
100
AcDbSpline
 62
7
  6
BYLAYER
 70
0
 71
3
 72
9
 73
5
 74
0
 42
0.0000001
 43
0.0000001
 44
0.0000000001
 40
0.0
 40
0.0
 40
0.0
 40
0.0
 40
0.2523482844
 40
1.0
 40
1.0
 40
1.0
 40
1.0
 10
80.3028476836
 20
124.0535300055
 30
0.0
 10
80.3045121744
 20
124.046803342
 30
0.0
 10
80.3103254741
 20
124.0199601788
 30
0.0
 10
80.3128989223
 20
123.9924098192
 30
0.0
 10
80.3128989223
 20
123.9718791352
 30
0.0
  0
SPLINE
  5
35D
100
AcDbEntity
  8
0
100
AcDbSpline
 62
7
  6
BYLAYER
 70
0
 71
3
 72
15
 73
11
 74
0
 42
0.0000001
 43
0.0000001
 44
0.0000000001
 40
0.0
 40
0.0
 40
0.0
 40
0.0
 40
0.1187532231
 40
0.242776383
 40
0.3704539373
 40
0.500000401
 40
0.6295468116
 40
0.7572242089
 40
0.8812471152
 40
1.0
 40
1.0
 40
1.0
 40
1.0
 10
81.0392053066
 20
125.4584497091
 30
0.0
 10
80.9091264742
 20
125.5088003889
 30
0.0
 10
80.6373960758
 20
125.5971917659
 30
0.0
 10
80.212009617
 20
125.69144622
 30
0.0
 10
79.7673119609
 20
125.7488282925
 30
0.0
 10
79.3128859192
 20
125.7680895921
 30
0.0
 10
78.8584601534
 20
125.7488261237
 30
0.0
 10
78.4137633182
 20
125.6914419287
 30
0.0
 10
77.988378207
 20
125.5971854438
 30
0.0
 10
77.7166489674
 20
125.5087927347
 30
0.0
 10
77.5865708106
 20
125.45844141
 30
0.0
  0
SPLINE
  5
35E
100
AcDbEntity
  8
0
100
AcDbSpline
 62
7
  6
BYLAYER
 70
0
 71
3
 72
15
 73
11
 74
0
 42
0.0000001
 43
0.0000001
 44
0.0000000001
 40
0.0
 40
0.0
 40
0.0
 40
0.0
 40
0.1187532231
 40
0.242776383
 40
0.3704539373
 40
0.500000401
 40
0.6295468116
 40
0.7572242089
 40
0.8812471152
 40
1.0
 40
1.0
 40
1.0
 40
1.0
 10
77.5865922508
 20
122.4853085613
 30
0.0
 10
77.7166710832
 20
122.4349578814
 30
0.0
 10
77.9884014816
 20
122.3465665045
 30
0.0
 10
78.4137879404
 20
122.2523120503
 30
0.0
 10
78.8584855965
 20
122.1949299778
 30
0.0
 10
79.3129116381
 20
122.1756686782
 30
0.0
 10
79.767337404
 20
122.1949321467
 30
0.0
 10
80.2120342392
 20
122.2523163417
 30
0.0
 10
80.6374193504
 20
122.3465728266
 30
0.0
 10
80.90914859
 20
122.4349655356
 30
0.0
 10
81.0392267468
 20
122.4853168604
 30
0.0
  0
SPLINE
  5
35F
100
AcDbEntity
  8
0
100
AcDbSpline
 62
7
  6
BYLAYER
 70
0
 71
3
 72
15
 73
11
 74
0
 42
0.0000001
 43
0.0000001
 44
0.0000000001
 40
0.0
 40
0.0
 40
0.0
 40
0.0
 40
0.1387827192
 40
0.2664978979
 40
0.3856216307
 40
0.4999991193
 40
0.6143767466
 40
0.733500867
 40
0.8612166136
 40
1.0
 40
1.0
 40
1.0
 40
1.0
 10
76.7380462059
 20
124.9685484253
 30
0.0
 10
76.6566876131
 20
124.8984882778
 30
0.0
 10
76.5101451108
 20
124.7518135161
 30
0.0
 10
76.3409504882
 20
124.503704307
 30
0.0
 10
76.2366234242
 20
124.2416674758
 30
0.0
 10
76.2012807693
 20
123.9718714889
 30
0.0
 10
76.2366273933
 20
123.7020757322
 30
0.0
 10
76.3409582451
 20
123.4400395294
 30
0.0
 10
76.5101563971
 20
123.1919312427
 30
0.0
 10
76.6567009731
 20
123.0452572267
 30
0.0
 10
76.7380605806
 20
122.9751974667
 30
0.0
  0
SPLINE
  5
360
100
AcDbEntity
  8
0
100
AcDbSpline
 62
7
  6
BYLAYER
 70
0
 71
3
 72
15
 73
11
 74
0
 42
0.0000001
 43
0.0000001
 44
0.0000000001
 40
0.0
 40
0.0
 40
0.0
 40
0.0
 40
0.1140008295
 40
0.2369437919
 40
0.366310595
 40
0.4992434659
 40
0.6323788139
 40
0.762262056
 40
0.8857518383
 40
1.0
 40
1.0
 40
1.0
 40
1.0
 10
76.7380605806
 20
122.9751974667
 30
0.0
 10
76.7136880561
 20
122.9611260671
 30
0.0
 10
76.6654885698
 20
122.9275175192
 30
0.0
 10
76.5989481517
 20
122.8659415093
 30
0.0
 10
76.5374491825
 20
122.7931018673
 30
0.0
 10
76.4832713253
 20
122.7116485232
 30
0.0
 10
76.4385398746
 20
122.6245024002
 30
0.0
 10
76.4049652666
 20
122.5349374775
 30
0.0
 10
76.3839615098
 20
122.4463976097
 30
0.0
 10
76.3786633141
 20
122.3876533712
 30
0.0
 10
76.3786633141
 20
122.3594493881
 30
0.0
  0
SPLINE
  5
361
100
AcDbEntity
  8
0
100
AcDbSpline
 62
7
  6
BYLAYER
 70
0
 71
3
 72
11
 73
7
 74
0
 42
0.0000001
 43
0.0000001
 44
0.0000000001
 40
0.0
 40
0.0
 40
0.0
 40
0.0
 40
0.2865385861
 40
0.5464976594
 40
0.7818839915
 40
1.0
 40
1.0
 40
1.0
 40
1.0
 10
77.5865708106
 20
125.45844141
 30
0.0
 10
77.5662699136
 20
125.4701618731
 30
0.0
 10
77.5258567237
 20
125.4898072092
 30
0.0
 10
77.4638500346
 20
125.507148835
 30
0.0
 10
77.4049876406
 20
125.510064949
 30
0.0
 10
77.3682106571
 20
125.5016342507
 30
0.0
 10
77.3516582787
 20
125.494969506
 30
0.0
  0
SPLINE
  5
362
100
AcDbEntity
  8
0
100
AcDbSpline
 62
7
  6
BYLAYER
 70
0
 71
3
 72
11
 73
7
 74
0
 42
0.0000001
 43
0.0000001
 44
0.0000000001
 40
0.0
 40
0.0
 40
0.0
 40
0.0
 40
0.2865186453
 40
0.5464669392
 40
0.7818722016
 40
1.0
 40
1.0
 40
1.0
 40
1.0
 10
81.0392053066
 20
125.4584497091
 30
0.0
 10
81.059504718
 20
125.4701695097
 30
0.0
 10
81.0999165416
 20
125.4898126758
 30
0.0
 10
81.1619210413
 20
125.5071537768
 30
0.0
 10
81.2207849297
 20
125.5100855224
 30
0.0
 10
81.2575644008
 20
125.5016497042
 30
0.0
 10
81.2741171787
 20
125.4949833417
 30
0.0
  0
SPLINE
  5
363
100
AcDbEntity
  8
0
100
AcDbSpline
 62
7
  6
BYLAYER
 70
0
 71
3
 72
9
 73
5
 74
0
 42
0.0000001
 43
0.0000001
 44
0.0000000001
 40
0.0
 40
0.0
 40
0.0
 40
0.0
 40
0.2486765348
 40
1.0
 40
1.0
 40
1.0
 40
1.0
 10
78.3128986351
 20
123.9718791352
 30
0.0
 10
78.3128986351
 20
123.9787075426
 30
0.0
 10
78.3137392155
 20
124.0061616805
 30
0.0
 10
78.3179934618
 20
124.0334985956
 30
0.0
 10
78.3229486962
 20
124.0535252465
 30
0.0
  0
SPLINE
  5
364
100
AcDbEntity
  8
0
100
AcDbSpline
 62
7
  6
BYLAYER
 70
0
 71
3
 72
13
 73
9
 74
0
 42
0.0000001
 43
0.0000001
 44
0.0000000001
 40
0.0
 40
0.0
 40
0.0
 40
0.0
 40
0.1130818372
 40
0.2274955275
 40
0.3444982761
 40
0.465194297
 40
0.720878674
 40
1.0
 40
1.0
 40
1.0
 40
1.0
 10
75.7128987787
 20
123.5636279266
 30
0.0
 10
75.712898778
 20
123.5100461851
 30
0.0
 10
75.7201721802
 20
123.4021162697
 30
0.0
 10
75.7526892219
 20
123.2417030011
 30
0.0
 10
75.8066448678
 20
123.0833540291
 30
0.0
 10
75.9084372146
 20
122.8723457045
 30
0.0
 10
76.0909170182
 20
122.6179569966
 30
0.0
 10
76.2760028275
 20
122.4428316603
 30
0.0
 10
76.3786633141
 20
122.3594493881
 30
0.0
  0
LINE
  5
365
100
AcDbEntity
  8
0
100
AcDbLine
 62
7
  6
BYLAYER
 10
34.5124198802
 20
98.2109976606
 11
34.5903814131
 21
97.5431727032
  0
LINE
  5
366
100
AcDbEntity
  8
0
100
AcDbLine
 62
7
  6
BYLAYER
 10
30.7756711649
 20
94.9848824178
 11
30.6977096321
 21
94.2751406331
  0
SPLINE
  5
367
100
AcDbEntity
  8
0
100
AcDbSpline
 62
7
  6
BYLAYER
 70
0
 71
3
 72
23
 73
19
 74
0
 42
0.0000001
 43
0.0000001
 44
0.0000000001
 40
0.0
 40
0.0
 40
0.0
 40
0.0
 40
0.0514183205
 40
0.1034106087
 40
0.1565291714
 40
0.2113130134
 40
0.2682640638
 40
0.3276971527
 40
0.3897174229
 40
0.4542068255
 40
0.5208553236
 40
0.589199784
 40
0.6586639591
 40
0.7286000481
 40
0.7983345578
 40
0.8671960251
 40
0.9345927211
 40
1.0
 40
1.0
 40
1.0
 40
1.0
 10
29.2893953662
 20
96.7179840456
 30
0.0
 10
29.3003508498
 20
96.8200320779
 30
0.0
 10
29.3442512871
 20
97.0235142634
 30
0.0
 10
29.4705404467
 20
97.3112855663
 30
0.0
 10
29.6504814557
 20
97.5768180325
 30
0.0
 10
29.877417985
 20
97.816815434
 30
0.0
 10
30.1454745326
 20
98.0302460105
 30
0.0
 10
30.4499048347
 20
98.2165202104
 30
0.0
 10
30.7862346777
 20
98.3750160977
 30
0.0
 10
31.1498608015
 20
98.5048507151
 30
0.0
 10
31.5357354373
 20
98.6050292503
 30
0.0
 10
31.9383220147
 20
98.6745974056
 30
0.0
 10
32.3516504336
 20
98.7127950882
 30
0.0
 10
32.7694569456
 20
98.7191820496
 30
0.0
 10
33.1853283787
 20
98.6936700396
 30
0.0
 10
33.5929655354
 20
98.6365911717
 30
0.0
 10
33.9862061779
 20
98.5485525634
 30
0.0
 10
34.2393429798
 20
98.4684343255
 30
0.0
 10
34.3617958303
 20
98.4231517438
 30
0.0
  0
SPLINE
  5
368
100
AcDbEntity
  8
0
100
AcDbSpline
 62
7
  6
BYLAYER
 70
0
 71
3
 72
11
 73
7
 74
0
 42
0.0000001
 43
0.0000001
 44
0.0000000001
 40
0.0
 40
0.0
 40
0.0
 40
0.0
 40
0.221671158
 40
0.457380535
 40
0.7159008005
 40
1.0
 40
1.0
 40
1.0
 40
1.0
 10
33.4361643648
 20
96.7904999564
 30
0.0
 10
33.4295067446
 20
96.7866621979
 30
0.0
 10
33.4169638762
 20
96.7764965223
 30
0.0
 10
33.4028473935
 20
96.7557358731
 30
0.0
 10
33.3934745505
 20
96.7302041897
 30
0.0
 10
33.3905747159
 20
96.7115005362
 30
0.0
 10
33.3898383991
 20
96.7016793923
 30
0.0
  0
SPLINE
  5
369
100
AcDbEntity
  8
0
100
AcDbSpline
 62
7
  6
BYLAYER
 70
0
 71
3
 72
11
 73
7
 74
0
 42
0.0000001
 43
0.0000001
 44
0.0000000001
 40
0.0
 40
0.0
 40
0.0
 40
0.0
 40
0.2246440696
 40
0.4433017261
 40
0.6884227019
 40
1.0
 40
1.0
 40
1.0
 40
1.0
 10
35.2847974542
 20
97.8578130167
 30
0.0
 10
35.2907244332
 20
97.8612362512
 30
0.0
 10
35.3032857031
 20
97.866749946
 30
0.0
 10
35.3247028383
 20
97.8682901853
 30
0.0
 10
35.3475835223
 20
97.8605742324
 30
0.0
 10
35.3613783166
 20
97.8503619964
 30
0.0
 10
35.368519491
 20
97.8441069754
 30
0.0
  0
SPLINE
  5
36A
100
AcDbEntity
  8
0
100
AcDbSpline
 62
7
  6
BYLAYER
 70
0
 71
3
 72
11
 73
7
 74
0
 42
0.0000001
 43
0.0000001
 44
0.0000000001
 40
0.0
 40
0.0
 40
0.0
 40
0.0
 40
0.2599909468
 40
0.511441845
 40
0.7572356413
 40
1.0
 40
1.0
 40
1.0
 40
1.0
 10
35.3688545771
 20
97.8438126058
 30
0.0
 10
35.4546157863
 20
97.768283932
 30
0.0
 10
35.6132007725
 20
97.6075067667
 30
0.0
 10
35.805701989
 20
97.3338928193
 30
0.0
 10
35.9406857059
 20
97.0357097457
 30
0.0
 10
35.9873055249
 20
96.8240809425
 30
0.0
 10
35.998695679
 20
96.7179840456
 30
0.0
  0
SPLINE
  5
36B
100
AcDbEntity
  8
0
100
AcDbSpline
 62
7
  6
BYLAYER
 70
0
 71
3
 72
9
 73
5
 74
0
 42
0.0000001
 43
0.0000001
 44
0.0000000001
 40
0.0
 40
0.0
 40
0.0
 40
0.0
 40
0.4781544697
 40
1.0
 40
1.0
 40
1.0
 40
1.0
 10
34.5291382635
 20
96.2098260674
 30
0.0
 10
34.4483987874
 20
96.1431417435
 30
0.0
 10
34.2660949255
 20
96.019661771
 30
0.0
 10
34.0677760286
 20
95.9250449076
 30
0.0
 10
33.961796154
 20
95.882272903
 30
0.0
  0
SPLINE
  5
36C
100
AcDbEntity
  8
0
100
AcDbSpline
 62
7
  6
BYLAYER
 70
0
 71
3
 72
9
 73
5
 74
0
 42
0.0000001
 43
0.0000001
 44
0.0000000001
 40
0.0
 40
0.0
 40
0.0
 40
0.0
 40
0.5207892517
 40
1.0
 40
1.0
 40
1.0
 40
1.0
 10
30.8581276119
 20
95.240046554
 30
0.0
 10
30.8364388196
 20
95.1986363629
 30
0.0
 10
30.8008769032
 20
95.1157607405
 30
0.0
 10
30.7803794456
 20
95.0276380646
 30
0.0
 10
30.7756711649
 20
94.9848824178
 30
0.0
  0
SPLINE
  5
36D
100
AcDbEntity
  8
0
100
AcDbSpline
 62
7
  6
BYLAYER
 70
0
 71
3
 72
15
 73
11
 74
0
 42
0.0000001
 43
0.0000001
 44
0.0000000001
 40
0.0
 40
0.0
 40
0.0
 40
0.0
 40
0.1271991897
 40
0.2570209704
 40
0.387812921
 40
0.5178698966
 40
0.6455290461
 40
0.7692488264
 40
0.8877389367
 40
1.0
 40
1.0
 40
1.0
 40
1.0
 10
33.9037933063
 20
92.9126429532
 30
0.0
 10
33.7454117803
 20
92.8769260996
 30
0.0
 10
33.421880071
 20
92.8195643153
 30
0.0
 10
32.9282929897
 20
92.7753261381
 30
0.0
 10
32.4290577265
 20
92.7724418628
 30
0.0
 10
31.9340712498
 20
92.8109672414
 30
0.0
 10
31.4530668611
 20
92.8902156273
 30
0.0
 10
30.9953651278
 20
93.0087908803
 30
0.0
 10
30.5698423809
 20
93.1646999493
 30
0.0
 10
30.3051861361
 20
93.2957629119
 30
0.0
 10
30.1810912445
 20
93.3674075101
 30
0.0
  0
SPLINE
  5
36E
100
AcDbEntity
  8
0
100
AcDbSpline
 62
7
  6
BYLAYER
 70
0
 71
3
 72
11
 73
7
 74
0
 42
0.0000001
 43
0.0000001
 44
0.0000000001
 40
0.0
 40
0.0
 40
0.0
 40
0.0
 40
0.225284078
 40
0.4642873634
 40
0.7217286616
 40
1.0
 40
1.0
 40
1.0
 40
1.0
 10
34.4299634332
 20
98.3859703094
 30
0.0
 10
34.4412715056
 20
98.376347304
 30
0.0
 10
34.4622581079
 20
98.353656815
 30
0.0
 10
34.4865264825
 20
98.312390635
 30
0.0
 10
34.5038267707
 20
98.2640797143
 30
0.0
 10
34.5102872271
 20
98.2292140095
 30
0.0
 10
34.5124198802
 20
98.2109976606
 30
0.0
  0
SPLINE
  5
36F
100
AcDbEntity
  8
0
100
AcDbSpline
 62
7
  6
BYLAYER
 70
0
 71
3
 72
11
 73
7
 74
0
 42
0.0000001
 43
0.0000001
 44
0.0000000001
 40
0.0
 40
0.0
 40
0.0
 40
0.0
 40
0.2363071153
 40
0.4989329846
 40
0.762157724
 40
1.0
 40
1.0
 40
1.0
 40
1.0
 10
31.8982526461
 20
96.9242497243
 30
0.0
 10
31.8965346026
 20
96.9467680864
 30
0.0
 10
31.8849969816
 20
96.9937322914
 30
0.0
 10
31.8522444415
 20
97.0593079179
 30
0.0
 10
31.8070272818
 20
97.1171820675
 30
0.0
 10
31.7694839311
 20
97.1479763209
 30
0.0
 10
31.7497986111
 20
97.1593413887
 30
0.0
  0
SPLINE
  5
370
100
AcDbEntity
  8
0
100
AcDbSpline
 62
7
  6
BYLAYER
 70
0
 71
3
 72
14
 73
10
 74
0
 42
0.0000001
 43
0.0000001
 44
0.0000000001
 40
0.0
 40
0.0
 40
0.0
 40
0.0
 40
0.2795494148
 40
0.4103003135
 40
0.5355437404
 40
0.6560506363
 40
0.7728433477
 40
0.8870474811
 40
1.0
 40
1.0
 40
1.0
 40
1.0
 10
30.1628718145
 20
93.3780030696
 30
0.0
 10
30.0065074068
 20
93.4696010811
 30
0.0
 10
29.7868434173
 20
93.6233987653
 30
0.0
 10
29.5375976443
 20
93.8659145262
 30
0.0
 10
29.3834525886
 20
94.0559819307
 30
0.0
 10
29.2601615182
 20
94.2569303361
 30
0.0
 10
29.1699329359
 20
94.4671237109
 30
0.0
 10
29.114717432
 20
94.6840930135
 30
0.0
 10
29.1023072228
 20
94.8316371205
 30
0.0
 10
29.1023072228
 20
94.9048586951
 30
0.0
  0
SPLINE
  5
371
100
AcDbEntity
  8
0
100
AcDbSpline
 62
7
  6
BYLAYER
 70
0
 71
3
 72
11
 73
7
 74
0
 42
0.0000001
 43
0.0000001
 44
0.0000000001
 40
0.0
 40
0.0
 40
0.0
 40
0.0
 40
0.2948844291
 40
0.5565277822
 40
0.7878467424
 40
1.0
 40
1.0
 40
1.0
 40
1.0
 10
32.9709503244
 20
96.4543250679
 30
0.0
 10
32.9622082269
 20
96.459372206
 30
0.0
 10
32.9449351148
 20
96.4676736317
 30
0.0
 10
32.9185905988
 20
96.4744085679
 30
0.0
 10
32.8941216432
 20
96.4742415522
 30
0.0
 10
32.8794539411
 20
96.4690842639
 30
0.0
 10
32.873163878
 20
96.4654541646
 30
0.0
  0
SPLINE
  5
372
100
AcDbEntity
  8
0
100
AcDbSpline
 62
7
  6
BYLAYER
 70
0
 71
3
 72
9
 73
5
 74
0
 42
0.0000001
 43
0.0000001
 44
0.0000000001
 40
0.0
 40
0.0
 40
0.0
 40
0.0
 40
0.4988648196
 40
1.0
 40
1.0
 40
1.0
 40
1.0
 10
30.8581276119
 20
95.240046554
 30
0.0
 10
30.876005003
 20
95.2741796752
 30
0.0
 10
30.9271742211
 20
95.3345767433
 30
0.0
 10
30.9910007695
 20
95.3788019182
 30
0.0
 10
31.0245197937
 20
95.3981588414
 30
0.0
  0
SPLINE
  5
373
100
AcDbEntity
  8
0
100
AcDbSpline
 62
7
  6
BYLAYER
 70
0
 71
3
 72
27
 73
23
 74
0
 42
0.0000001
 43
0.0000001
 44
0.0000000001
 40
0.0
 40
0.0
 40
0.0
 40
0.0
 40
0.0740161496
 40
0.1505752217
 40
0.2284595057
 40
0.3063829314
 40
0.3830593817
 40
0.457264681
 40
0.5279081091
 40
0.5941097003
 40
0.6552909937
 40
0.7112852212
 40
0.7624660158
 40
0.7865892057
 40
0.8099551919
 40
0.8327965039
 40
0.8553769021
 40
0.8779751441
 40
0.9008670381
 40
0.9243123773
 40
0.9485455031
 40
1.0
 40
1.0
 40
1.0
 40
1.0
 10
31.3245091584
 20
95.5037136518
 30
0.0
 10
31.4613473136
 20
95.4626842174
 30
0.0
 10
31.7444030914
 20
95.3942274191
 30
0.0
 10
32.1816191671
 20
95.3324803844
 30
0.0
 10
32.6302178204
 20
95.3108844149
 30
0.0
 10
33.0791408427
 20
95.3299857196
 30
0.0
 10
33.5174060129
 20
95.3893122908
 30
0.0
 10
33.9342930256
 20
95.4874194683
 30
0.0
 10
34.3196581625
 20
95.6219474137
 30
0.0
 10
34.6641853171
 20
95.7897099913
 30
0.0
 10
34.959622827
 20
95.98694352
 30
0.0
 10
35.1987637549
 20
96.2092671872
 30
0.0
 10
35.3489482843
 20
96.4160437246
 30
0.0
 10
35.4322512475
 20
96.5877657962
 30
0.0
 10
35.4760799383
 20
96.7166366344
 30
0.0
 10
35.5020547666
 20
96.8472402969
 30
0.0
 10
35.5100123251
 20
96.9786962207
 30
0.0
 10
35.4998257972
 20
97.1100956207
 30
0.0
 10
35.4716517962
 20
97.2405287769
 30
0.0
 10
35.4256570036
 20
97.3691399301
 30
0.0
 10
35.3394617334
 20
97.540368635
 30
0.0
 10
35.2512273101
 20
97.6586123017
 30
0.0
 10
35.1848095337
 20
97.7324458089
 30
0.0
  0
SPLINE
  5
374
100
AcDbEntity
  8
0
100
AcDbSpline
 62
7
  6
BYLAYER
 70
0
 71
3
 72
25
 73
21
 74
0
 42
0.0000001
 43
0.0000001
 44
0.0000000001
 40
0.0
 40
0.0
 40
0.0
 40
0.0
 40
0.0680646372
 40
0.1390207876
 40
0.2120473859
 40
0.2862536022
 40
0.3606922074
 40
0.4344109933
 40
0.50648449
 40
0.5760542155
 40
0.6423693542
 40
0.7048333069
 40
0.7630579206
 40
0.8169281496
 40
0.8666760982
 40
0.9129515915
 40
0.9351491432
 40
0.9569251502
 40
0.978473823
 40
1.0
 40
1.0
 40
1.0
 40
1.0
 10
30.7756711649
 20
94.9848824178
 30
0.0
 10
30.9082350117
 20
94.9337018095
 30
0.0
 10
31.1845204102
 20
94.843073295
 30
0.0
 10
31.6164984849
 20
94.7438440788
 30
0.0
 10
32.0680419215
 20
94.6798666994
 30
0.0
 10
32.530510234
 20
94.6523532023
 30
0.0
 10
32.9951438917
 20
94.6618336369
 30
0.0
 10
33.4531016269
 20
94.7081213221
 30
0.0
 10
33.8956905259
 20
94.7903422926
 30
0.0
 10
34.3145265064
 20
94.9069452585
 30
0.0
 10
34.7017079786
 20
95.0557540122
 30
0.0
 10
35.0499683632
 20
95.2340427536
 30
0.0
 10
35.352794333
 20
95.4386196941
 30
0.0
 10
35.604484872
 20
95.6660159987
 30
0.0
 10
35.8000645826
 20
95.9123595663
 30
0.0
 10
35.9142164523
 20
96.1334302061
 30
0.0
 10
35.9715210854
 20
96.3133004888
 30
0.0
 10
35.997788673
 20
96.4478809191
 30
0.0
 10
36.0077607113
 20
96.5832152339
 30
0.0
 10
36.003488305
 20
96.6732997021
 30
0.0
 10
35.9986917733
 20
96.7179839059
 30
0.0
  0
SPLINE
  5
375
100
AcDbEntity
  8
0
100
AcDbSpline
 62
7
  6
BYLAYER
 70
0
 71
3
 72
11
 73
7
 74
0
 42
0.0000001
 43
0.0000001
 44
0.0000000001
 40
0.0
 40
0.0
 40
0.0
 40
0.0
 40
0.2999160289
 40
0.5674746852
 40
0.8007121739
 40
1.0
 40
1.0
 40
1.0
 40
1.0
 10
35.1848095337
 20
97.7324458089
 30
0.0
 10
35.1927932318
 20
97.7465130225
 30
0.0
 10
35.2084282432
 20
97.77283598
 30
0.0
 10
35.2328639963
 20
97.8085109434
 30
0.0
 10
35.2573057848
 20
97.8373653838
 30
0.0
 10
35.2754904237
 20
97.852437572
 30
0.0
 10
35.2847974542
 20
97.8578130167
 30
0.0
  0
SPLINE
  5
376
100
AcDbEntity
  8
0
100
AcDbSpline
 62
7
  6
BYLAYER
 70
0
 71
3
 72
11
 73
7
 74
0
 42
0.0000001
 43
0.0000001
 44
0.0000000001
 40
0.0
 40
0.0
 40
0.0
 40
0.0
 40
0.2845129803
 40
0.5420764538
 40
0.7769731549
 40
1.0
 40
1.0
 40
1.0
 40
1.0
 10
33.5382926744
 20
96.7818780935
 30
0.0
 10
33.5294972541
 20
96.7869560169
 30
0.0
 10
33.5118484338
 20
96.7952283337
 30
0.0
 10
33.4845502648
 20
96.8014330635
 30
0.0
 10
33.4586819009
 20
96.8003367326
 30
0.0
 10
33.4430616659
 20
96.7944758779
 30
0.0
 10
33.4361643648
 20
96.7904999564
 30
0.0
  0
LINE
  5
377
100
AcDbEntity
  8
0
100
AcDbLine
 62
7
  6
BYLAYER
 10
29.8138224756
 20
94.7854415763
 11
29.8501233826
 21
95.5192355903
  0
SPLINE
  5
378
100
AcDbEntity
  8
0
100
AcDbSpline
 62
7
  6
BYLAYER
 70
0
 71
3
 72
12
 73
8
 74
0
 42
0.0000001
 43
0.0000001
 44
0.0000000001
 40
0.0
 40
0.0
 40
0.0
 40
0.0
 40
0.2815777175
 40
0.5407042498
 40
0.7787576468
 40
0.8911695509
 40
1.0
 40
1.0
 40
1.0
 40
1.0
 10
30.1220595259
 20
93.4840616864
 30
0.0
 10
30.0038691354
 20
93.5532974218
 30
0.0
 10
29.7847145621
 20
93.7005546465
 30
0.0
 10
29.5043314483
 20
93.9576059595
 30
0.0
 10
29.3237002638
 20
94.1954953076
 30
0.0
 10
29.2188419006
 20
94.3932300836
 30
0.0
 10
29.1794399383
 20
94.4937055603
 30
0.0
 10
29.1631556673
 20
94.5440806467
 30
0.0
  0
SPLINE
  5
379
100
AcDbEntity
  8
0
100
AcDbSpline
 62
7
  6
BYLAYER
 70
0
 71
3
 72
9
 73
5
 74
0
 42
0.0000001
 43
0.0000001
 44
0.0000000001
 40
0.0
 40
0.0
 40
0.0
 40
0.0
 40
0.2528814896
 40
1.0
 40
1.0
 40
1.0
 40
1.0
 10
29.1631556673
 20
94.5440806467
 30
0.0
 10
29.1571524075
 20
94.5626516182
 30
0.0
 10
29.1350635501
 20
94.6366103088
 30
0.0
 10
29.1197796065
 20
94.7126179949
 30
0.0
 10
29.1125257276
 20
94.7698218667
 30
0.0
  0
SPLINE
  5
37A
100
AcDbEntity
  8
0
100
AcDbSpline
 62
7
  6
BYLAYER
 70
0
 71
3
 72
9
 73
5
 74
0
 42
0.0000001
 43
0.0000001
 44
0.0000000001
 40
0.0
 40
0.0
 40
0.0
 40
0.0
 40
0.5039371367
 40
1.0
 40
1.0
 40
1.0
 40
1.0
 10
31.0245197937
 20
95.3981588414
 30
0.0
 10
31.0709367761
 20
95.4249642149
 30
0.0
 10
31.16933048
 20
95.4674206101
 30
0.0
 10
31.2726652919
 20
95.4939058438
 30
0.0
 10
31.3245091584
 20
95.5037136518
 30
0.0
  0
LINE
  5
37B
100
AcDbEntity
  8
0
100
AcDbLine
 62
7
  6
BYLAYER
 10
31.5661496306
 20
97.2653573984
 11
31.3262948912
 21
98.0589467179
  0
SPLINE
  5
37C
100
AcDbEntity
  8
0
100
AcDbSpline
 62
7
  6
BYLAYER
 70
0
 71
3
 72
27
 73
23
 74
0
 42
0.0000001
 43
0.0000001
 44
0.0000000001
 40
0.0
 40
0.0
 40
0.0
 40
0.0
 40
0.0740161496
 40
0.1505752217
 40
0.2284595057
 40
0.3063829314
 40
0.3830593817
 40
0.457264681
 40
0.5279081091
 40
0.5941097003
 40
0.6552909937
 40
0.7112852212
 40
0.7624660158
 40
0.7865892057
 40
0.8099551919
 40
0.8327965039
 40
0.8553769021
 40
0.8779751441
 40
0.9008670381
 40
0.9243123773
 40
0.9485455031
 40
1.0
 40
1.0
 40
1.0
 40
1.0
 10
33.9635818867
 20
98.437505969
 30
0.0
 10
33.8267437315
 20
98.4785354035
 30
0.0
 10
33.5436879537
 20
98.5469922018
 30
0.0
 10
33.1064718781
 20
98.6087392365
 30
0.0
 10
32.6578732248
 20
98.630335206
 30
0.0
 10
32.2089502024
 20
98.6112339013
 30
0.0
 10
31.7706850322
 20
98.5519073301
 30
0.0
 10
31.3537980195
 20
98.4538001526
 30
0.0
 10
30.9684328826
 20
98.3192722072
 30
0.0
 10
30.623905728
 20
98.1515096296
 30
0.0
 10
30.3284682181
 20
97.9542761009
 30
0.0
 10
30.0893272902
 20
97.7319524336
 30
0.0
 10
29.9391427609
 20
97.5251758963
 30
0.0
 10
29.8558397976
 20
97.3534538247
 30
0.0
 10
29.8120111068
 20
97.2245829865
 30
0.0
 10
29.7860362786
 20
97.093979324
 30
0.0
 10
29.77807872
 20
96.9625234002
 30
0.0
 10
29.788265248
 20
96.8311240002
 30
0.0
 10
29.8164392489
 20
96.7006908439
 30
0.0
 10
29.8624340415
 20
96.5720796908
 30
0.0
 10
29.9486293118
 20
96.4008509859
 30
0.0
 10
30.0368637351
 20
96.2826073191
 30
0.0
 10
30.1032815115
 20
96.208773812
 30
0.0
  0
SPLINE
  5
37D
100
AcDbEntity
  8
0
100
AcDbSpline
 62
7
  6
BYLAYER
 70
0
 71
3
 72
9
 73
5
 74
0
 42
0.0000001
 43
0.0000001
 44
0.0000000001
 40
0.0
 40
0.0
 40
0.0
 40
0.0
 40
0.4781544697
 40
1.0
 40
1.0
 40
1.0
 40
1.0
 10
30.7589527816
 20
97.7313935535
 30
0.0
 10
30.8396922578
 20
97.7980778774
 30
0.0
 10
31.0219961197
 20
97.9215578499
 30
0.0
 10
31.2203150166
 20
98.0161747133
 30
0.0
 10
31.3262948912
 20
98.0589467179
 30
0.0
  0
SPLINE
  5
37E
100
AcDbEntity
  8
0
100
AcDbSpline
 62
7
  6
BYLAYER
 70
0
 71
3
 72
9
 73
5
 74
0
 42
0.0000001
 43
0.0000001
 44
0.0000000001
 40
0.0
 40
0.0
 40
0.0
 40
0.0
 40
0.4823755588
 40
1.0
 40
1.0
 40
1.0
 40
1.0
 10
29.8501233826
 20
95.5192355903
 30
0.0
 10
29.8523039197
 20
95.5630683006
 30
0.0
 10
29.8677947381
 20
95.6534962666
 30
0.0
 10
29.899602026
 20
95.739259542
 30
0.0
 10
29.9195715542
 20
95.781909888
 30
0.0
  0
SPLINE
  5
37F
100
AcDbEntity
  8
0
100
AcDbSpline
 62
7
  6
BYLAYER
 70
0
 71
3
 72
15
 73
11
 74
0
 42
0.0000001
 43
0.0000001
 44
0.0000000001
 40
0.0
 40
0.0
 40
0.0
 40
0.0
 40
0.1270034661
 40
0.2570515794
 40
0.3883193571
 40
0.5189280146
 40
0.6470290147
 40
0.7708811802
 40
0.8889544526
 40
1.0
 40
1.0
 40
1.0
 40
1.0
 10
33.986898588
 20
93.0274501088
 30
0.0
 10
33.8239387161
 20
92.9888900183
 30
0.0
 10
33.4902420993
 20
92.926468379
 30
0.0
 10
32.9800602535
 20
92.8766474242
 30
0.0
 10
32.4627084607
 20
92.8701262692
 30
0.0
 10
31.9492109212
 20
92.9070539552
 30
0.0
 10
31.4504428813
 20
92.9866480706
 30
0.0
 10
30.9769147797
 20
93.1072382408
 30
0.0
 10
30.538700487
 20
93.2662739156
 30
0.0
 10
30.2670098789
 20
93.4002999617
 30
0.0
 10
30.1402069298
 20
93.4735080223
 30
0.0
  0
SPLINE
  5
380
100
AcDbEntity
  8
0
100
AcDbSpline
 62
7
  6
BYLAYER
 70
0
 71
3
 72
12
 73
8
 74
0
 42
0.0000001
 43
0.0000001
 44
0.0000000001
 40
0.0
 40
0.0
 40
0.0
 40
0.0
 40
0.2034475066
 40
0.4381021917
 40
0.705499469
 40
0.8506812983
 40
1.0
 40
1.0
 40
1.0
 40
1.0
 10
30.1032815115
 20
96.208773812
 30
0.0
 10
30.0877166821
 20
96.1813487044
 30
0.0
 10
30.0575014986
 20
96.1204233621
 30
0.0
 10
30.0152376363
 20
96.0195438992
 30
0.0
 10
29.9793921611
 20
95.9258395938
 30
0.0
 10
29.9473662392
 20
95.8448504627
 30
0.0
 10
29.9293855477
 20
95.8028703341
 30
0.0
 10
29.9195715542
 20
95.781909888
 30
0.0
  0
SPLINE
  5
381
100
AcDbEntity
  8
0
100
AcDbSpline
 62
7
  6
BYLAYER
 70
0
 71
3
 72
11
 73
7
 74
0
 42
0.0000001
 43
0.0000001
 44
0.0000000001
 40
0.0
 40
0.0
 40
0.0
 40
0.0
 40
0.242283299
 40
0.5051385603
 40
0.7651948739
 40
1.0
 40
1.0
 40
1.0
 40
1.0
 10
32.4512849951
 20
97.2435411998
 30
0.0
 10
32.45162307
 20
97.2668403098
 30
0.0
 10
32.4442398581
 20
97.3156118249
 30
0.0
 10
32.4159179398
 20
97.3841753134
 30
0.0
 10
32.3735615955
 20
97.444184269
 30
0.0
 10
32.3366974846
 20
97.4756037056
 30
0.0
 10
32.3171404848
 20
97.4868946892
 30
0.0
  0
SPLINE
  5
382
100
AcDbEntity
  8
0
100
AcDbSpline
 62
7
  6
BYLAYER
 70
0
 71
3
 72
13
 73
9
 74
0
 42
0.0000001
 43
0.0000001
 44
0.0000000001
 40
0.0
 40
0.0
 40
0.0
 40
0.0
 40
0.1148282777
 40
0.230020667
 40
0.3470654655
 40
0.4673281001
 40
0.7215960274
 40
1.0
 40
1.0
 40
1.0
 40
1.0
 10
29.289398496
 20
96.7179839336
 30
0.0
 10
29.2837736034
 20
96.6656131899
 30
0.0
 10
29.279861461
 20
96.5597595365
 30
0.0
 10
29.296557876
 20
96.4009352793
 30
0.0
 10
29.3357000381
 20
96.2435230479
 30
0.0
 10
29.4187807685
 20
96.0332756909
 30
0.0
 10
29.5810672176
 20
95.7781191035
 30
0.0
 10
29.7534592092
 20
95.6026889257
 30
0.0
 10
29.8501233826
 20
95.5192355903
 30
0.0
  0
SPLINE
  5
383
100
AcDbEntity
  8
0
100
AcDbSpline
 62
7
  6
BYLAYER
 70
0
 71
3
 72
9
 73
5
 74
0
 42
0.0000001
 43
0.0000001
 44
0.0000000001
 40
0.0
 40
0.0
 40
0.0
 40
0.0
 40
0.2422606479
 40
1.0
 40
1.0
 40
1.0
 40
1.0
 10
30.2152207668
 20
94.506882412
 30
0.0
 10
30.252672882
 20
94.4852599124
 30
0.0
 10
30.4090491515
 20
94.3991086106
 30
0.0
 10
30.5719925752
 20
94.3250545912
 30
0.0
 10
30.6977096321
 20
94.2751406331
 30
0.0
  0
SPLINE
  5
384
100
AcDbEntity
  8
0
100
AcDbSpline
 62
7
  6
BYLAYER
 70
0
 71
3
 72
9
 73
5
 74
0
 42
0.0000001
 43
0.0000001
 44
0.0000000001
 40
0.0
 40
0.0
 40
0.0
 40
0.0
 40
0.2408309002
 40
1.0
 40
1.0
 40
1.0
 40
1.0
 10
29.8138224756
 20
94.7854415763
 30
0.0
 10
29.8438841498
 20
94.7602042152
 30
0.0
 10
29.9712644099
 20
94.6584677264
 30
0.0
 10
30.108066767
 20
94.5687464031
 30
0.0
 10
30.2152207668
 20
94.506882412
 30
0.0
  0
SPLINE
  5
385
100
AcDbEntity
  8
0
100
AcDbSpline
 62
7
  6
BYLAYER
 70
0
 71
3
 72
12
 73
8
 74
0
 42
0.0000001
 43
0.0000001
 44
0.0000000001
 40
0.0
 40
0.0
 40
0.0
 40
0.0
 40
0.1115814664
 40
0.2293009005
 40
0.4769399107
 40
0.7352232085
 40
1.0
 40
1.0
 40
1.0
 40
1.0
 10
34.361808828
 20
98.423154258
 30
0.0
 10
34.3477642668
 20
98.4283557187
 30
0.0
 10
34.3182332311
 20
98.4372714485
 30
0.0
 10
34.2554498667
 20
98.4500785748
 30
0.0
 10
34.1717539566
 20
98.4572362991
 30
0.0
 10
34.0681857599
 20
98.453783039
 30
0.0
 10
33.9985016735
 20
98.4441120845
 30
0.0
 10
33.9635818867
 20
98.437505969
 30
0.0
  0
SPLINE
  5
386
100
AcDbEntity
  8
0
100
AcDbSpline
 62
7
  6
BYLAYER
 70
0
 71
3
 72
25
 73
21
 74
0
 42
0.0000001
 43
0.0000001
 44
0.0000000001
 40
0.0
 40
0.0
 40
0.0
 40
0.0
 40
0.0213322896
 40
0.0428928834
 40
0.0648984397
 40
0.0875432083
 40
0.1353183906
 40
0.1872192464
 40
0.2436567483
 40
0.3046043951
 40
0.3696918663
 40
0.4382888713
 40
0.5095750849
 40
0.5825991255
 40
0.6563305032
 40
0.7297075221
 40
0.801683915
 40
0.8712766591
 40
0.9376162046
 40
1.0
 40
1.0
 40
1.0
 40
1.0
 10
24.2639653553
 20
79.8318925536
 30
0.0
 10
24.3745407453
 20
79.8957260686
 30
0.0
 10
24.6053612871
 20
80.009969374
 30
0.0
 10
24.9733819473
 20
80.1371842358
 30
0.0
 10
25.3619086961
 20
80.2200473041
 30
0.0
 10
25.9137422945
 20
80.2718388434
 30
0.0
 10
26.6495097824
 20
80.2178254588
 30
0.0
 10
27.5566787835
 20
79.976707902
 30
0.0
 10
28.4866671275
 20
79.5657349547
 30
0.0
 10
29.4206173192
 20
78.994336812
 30
0.0
 10
30.3396626708
 20
78.2748396808
 30
0.0
 10
31.2246893342
 20
77.4224841165
 30
0.0
 10
32.0570811047
 20
76.4553392875
 30
0.0
 10
32.8191760908
 20
75.3939646221
 30
0.0
 10
33.4947401837
 20
74.2609796073
 30
0.0
 10
34.0693637537
 20
73.0805488504
 30
0.0
 10
34.530789031
 20
71.8778580106
 30
0.0
 10
34.8691961551
 20
70.6783980816
 30
0.0
 10
35.0773435829
 20
69.5078212936
 30
0.0
 10
35.1279278409
 20
68.7368730068
 30
0.0
 10
35.1279278409
 20
68.3634939977
 30
0.0
  0
SPLINE
  5
387
100
AcDbEntity
  8
0
100
AcDbSpline
 62
7
  6
BYLAYER
 70
0
 71
3
 72
15
 73
11
 74
0
 42
0.0000001
 43
0.0000001
 44
0.0000000001
 40
0.0
 40
0.0
 40
0.0
 40
0.0
 40
0.108012546
 40
0.2180618733
 40
0.3319988891
 40
0.4513571168
 40
0.5772781867
 40
0.710493438
 40
0.8514108175
 40
1.0
 40
1.0
 40
1.0
 40
1.0
 10
22.7639719054
 20
82.4299729609
 30
0.0
 10
22.5672290318
 20
82.3163754429
 30
0.0
 10
22.1889423508
 20
82.0524399206
 30
0.0
 10
21.6891401911
 20
81.5605236491
 30
0.0
 10
21.2592728026
 20
80.9767126554
 30
0.0
 10
20.9033403232
 20
80.3075346385
 30
0.0
 10
20.6241425223
 20
79.5598267428
 30
0.0
 10
20.4237644556
 20
78.7408148925
 30
0.0
 10
20.3038190247
 20
77.8584177377
 30
0.0
 10
20.2786236128
 20
77.2490778798
 30
0.0
 10
20.2786236128
 20
76.9365498426
 30
0.0
  0
SPLINE
  5
388
100
AcDbEntity
  8
0
100
AcDbSpline
 62
7
  6
BYLAYER
 70
0
 71
3
 72
26
 73
22
 74
0
 42
0.0000001
 43
0.0000001
 44
0.0000000001
 40
0.0
 40
0.0
 40
0.0
 40
0.0
 40
0.0623815158
 40
0.1287158899
 40
0.1983056285
 40
0.2702783111
 40
0.3436519216
 40
0.4173798037
 40
0.4904004059
 40
0.5616833488
 40
0.6302774218
 40
0.6953621253
 40
0.7563070973
 40
0.8127420536
 40
0.8392662193
 40
0.8646883582
 40
0.9124612682
 40
0.9351049072
 40
0.9571093282
 40
0.9786688732
 40
1.0
 40
1.0
 40
1.0
 40
1.0
 10
20.2786236128
 20
76.9365498426
 30
0.0
 10
20.2786236128
 20
76.438705476
 30
0.0
 10
20.3460625737
 20
75.4107838054
 30
0.0
 10
20.6236055701
 20
73.8500249609
 30
0.0
 10
21.0747975093
 20
72.2507562679
 30
0.0
 10
21.6900378553
 20
70.6471690606
 30
0.0
 10
22.4561970705
 20
69.0732600005
 30
0.0
 10
23.3569501245
 20
67.5626113797
 30
0.0
 10
24.3730743951
 20
66.1474423357
 30
0.0
 10
25.4829344652
 20
64.8579085754
 30
0.0
 10
26.6629611881
 20
63.7214352186
 30
0.0
 10
27.8883998428
 20
62.7620726187
 30
0.0
 10
29.1335338721
 20
62.0002917749
 30
0.0
 10
30.1880387056
 20
61.5342127953
 30
0.0
 10
31.0163366802
 20
61.2815861804
 30
0.0
 10
31.7951862264
 20
61.1151770026
 30
0.0
 10
32.5642664064
 20
61.0587443142
 30
0.0
 10
33.2999795465
 20
61.1278141577
 30
0.0
 10
33.8180287088
 20
61.2382877862
 30
0.0
 10
34.3087118322
 20
61.4079211495
 30
0.0
 10
34.616482586
 20
61.5602261257
 30
0.0
 10
34.7639087236
 20
61.6453486158
 30
0.0
  0
SPLINE
  5
389
100
AcDbEntity
  8
0
100
AcDbSpline
 62
7
  6
BYLAYER
 70
0
 71
3
 72
15
 73
11
 74
0
 42
0.0000001
 43
0.0000001
 44
0.0000000001
 40
0.0
 40
0.0
 40
0.0
 40
0.0
 40
0.1485793858
 40
0.2895084877
 40
0.4227236423
 40
0.5486404529
 40
0.6680006482
 40
0.7819380075
 40
0.8919867587
 40
1.0
 40
1.0
 40
1.0
 40
1.0
 10
35.1279278409
 20
68.3634939977
 30
0.0
 10
35.1279278409
 20
68.129113566
 30
0.0
 10
35.1090194035
 20
67.6721066418
 30
0.0
 10
35.0190770973
 20
67.0103048436
 30
0.0
 10
34.8687982693
 20
66.3960315087
 30
0.0
 10
34.6593735516
 20
65.8352652802
 30
0.0
 10
34.3924454455
 20
65.3333770055
 30
0.0
 10
34.0700532352
 20
64.8955046497
 30
0.0
 10
33.6951721298
 20
64.5266015573
 30
0.0
 10
33.4114800467
 20
64.3286159544
 30
0.0
 10
33.2639152737
 20
64.2434290232
 30
0.0
  0
SPLINE
  5
38A
100
AcDbEntity
  8
0
100
AcDbSpline
 62
7
  6
BYLAYER
 70
0
 71
3
 72
16
 73
12
 74
0
 42
0.0000001
 43
0.0000001
 44
0.0000000001
 40
0.0
 40
0.0
 40
0.0
 40
0.0
 40
0.1468881159
 40
0.286536877
 40
0.4189782601
 40
0.482657002
 40
0.5447271376
 40
0.6644084443
 40
0.7791905148
 40
0.8904961109
 40
1.0
 40
1.0
 40
1.0
 40
1.0
 10
38.2270700596
 20
67.7511372851
 30
0.0
 10
38.2270700596
 20
67.4370703748
 30
0.0
 10
38.2016162466
 20
66.8239779702
 30
0.0
 10
38.0804007634
 20
65.9350131606
 30
0.0
 10
37.9089150746
 20
65.236167825
 30
0.0
 10
37.7298965916
 20
64.7136135629
 30
0.0
 10
37.5291769854
 20
64.2284574052
 30
0.0
 10
37.2298854255
 20
63.6670681808
 30
0.0
 10
36.7892742539
 20
63.0698494242
 30
0.0
 10
36.2753500224
 20
62.5647342502
 30
0.0
 10
35.8859150072
 20
62.2931244671
 30
0.0
 10
35.6831484416
 20
62.1760578347
 30
0.0
  0
SPLINE
  5
38B
100
AcDbEntity
  8
0
100
AcDbSpline
 62
7
  6
BYLAYER
 70
0
 71
3
 72
25
 73
21
 74
0
 42
0.0000001
 43
0.0000001
 44
0.0000000001
 40
0.0
 40
0.0
 40
0.0
 40
0.0
 40
0.021906856
 40
0.0440165562
 40
0.0665244526
 40
0.089609354
 40
0.1380434832
 40
0.1903096478
 40
0.2468596699
 40
0.3077239797
 40
0.3725863109
 40
0.4408615574
 40
0.5117655509
 40
0.5843759474
 40
0.65768666
 40
0.7306585149
 40
0.8022679918
 40
0.8715583696
 40
0.9376886219
 40
1.0
 40
1.0
 40
1.0
 40
1.0
 10
23.6832021642
 20
82.9606985421
 30
0.0
 10
23.8347267879
 20
83.0481808023
 30
0.0
 10
24.1507622813
 20
83.2046891984
 30
0.0
 10
24.6539522303
 20
83.3792629338
 30
0.0
 10
25.1839100305
 20
83.4931354313
 30
0.0
 10
25.9328869424
 20
83.5649891226
 30
0.0
 10
26.9266359629
 20
83.494707093
 30
0.0
 10
28.146868879
 20
83.1738374281
 30
0.0
 10
29.3920684652
 20
82.6270711853
 30
0.0
 10
30.6385636179
 20
81.8679005997
 30
0.0
 10
31.8626075104
 20
80.9129391921
 30
0.0
 10
33.0398274428
 20
79.7823056994
 30
0.0
 10
34.1462045656
 20
78.4997277422
 30
0.0
 10
35.1587480539
 20
77.0921987626
 30
0.0
 10
36.0562017824
 20
75.5894394087
 30
0.0
 10
36.8196113279
 20
74.02319717
 30
0.0
 10
37.4328199807
 20
72.4265222282
 30
0.0
 10
37.8827720852
 20
70.8327703013
 30
0.0
 10
38.1597944881
 20
69.2753328981
 30
0.0
 10
38.2270700596
 20
68.2488047357
 30
0.0
 10
38.2270700596
 20
67.7511372851
 30
0.0
  0
SPLINE
  5
38C
100
AcDbEntity
  8
0
100
AcDbSpline
 62
7
  6
BYLAYER
 70
0
 71
3
 72
15
 73
11
 74
0
 42
0.0000001
 43
0.0000001
 44
0.0000000001
 40
0.0
 40
0.0
 40
0.0
 40
0.0
 40
0.108012546
 40
0.2180618733
 40
0.3319988891
 40
0.4513571168
 40
0.5772781867
 40
0.710493438
 40
0.8514108175
 40
1.0
 40
1.0
 40
1.0
 40
1.0
 10
34.7639087236
 20
61.6453486158
 30
0.0
 10
34.9606515973
 20
61.7589461339
 30
0.0
 10
35.3389382782
 20
62.0228816562
 30
0.0
 10
35.838740438
 20
62.5147979277
 30
0.0
 10
36.2686078264
 20
63.0986089214
 30
0.0
 10
36.6245403058
 20
63.7677869383
 30
0.0
 10
36.9037381068
 20
64.515494834
 30
0.0
 10
37.1041161734
 20
65.3345066843
 30
0.0
 10
37.2240616043
 20
66.2169038391
 30
0.0
 10
37.2492570163
 20
66.826243697
 30
0.0
 10
37.2492570163
 20
67.1387717341
 30
0.0
  0
SPLINE
  5
38D
100
AcDbEntity
  8
0
100
AcDbSpline
 62
7
  6
BYLAYER
 70
0
 71
3
 72
9
 73
5
 74
0
 42
0.0000001
 43
0.0000001
 44
0.0000000001
 40
0.0
 40
0.0
 40
0.0
 40
0.0
 40
0.2609023111
 40
1.0
 40
1.0
 40
1.0
 40
1.0
 10
38.0582458648
 20
66.1588270524
 30
0.0
 10
38.0362423071
 20
66.0154577077
 30
0.0
 10
37.9382760741
 20
65.4682402725
 30
0.0
 10
37.7832091538
 20
64.9303441144
 30
0.0
 10
37.6312064106
 20
64.5485933709
 30
0.0
  0
SPLINE
  5
38E
100
AcDbEntity
  8
0
100
AcDbSpline
 62
7
  6
BYLAYER
 70
0
 71
3
 72
9
 73
5
 74
0
 42
0.0000001
 43
0.0000001
 44
0.0000000001
 40
0.0
 40
0.0
 40
0.0
 40
0.0
 40
0.2549222898
 40
1.0
 40
1.0
 40
1.0
 40
1.0
 10
37.6312064106
 20
64.5485933709
 30
0.0
 10
37.6079024057
 20
64.4900659983
 30
0.0
 10
37.5130211929
 20
64.2618797177
 30
0.0
 10
37.4039666103
 20
64.0395247816
 30
0.0
 10
37.3144628389
 20
63.8786197163
 30
0.0
  0
SPLINE
  5
38F
100
AcDbEntity
  8
0
100
AcDbSpline
 62
7
  6
BYLAYER
 70
0
 71
3
 72
9
 73
5
 74
0
 42
0.0000001
 43
0.0000001
 44
0.0000000001
 40
0.0
 40
0.0
 40
0.0
 40
0.0
 40
0.5085133785
 40
1.0
 40
1.0
 40
1.0
 40
1.0
 10
37.3144628389
 20
63.8786197163
 30
0.0
 10
37.218505181
 20
63.7061122009
 30
0.0
 10
37.010829977
 20
63.3769810015
 30
0.0
 10
36.7644649424
 20
63.0754668638
 30
0.0
 10
36.6343238602
 20
62.9359526187
 30
0.0
  0
SPLINE
  5
390
100
AcDbEntity
  8
0
100
AcDbSpline
 62
7
  6
BYLAYER
 70
0
 71
3
 72
9
 73
5
 74
0
 42
0.0000001
 43
0.0000001
 44
0.0000000001
 40
0.0
 40
0.0
 40
0.0
 40
0.0
 40
0.5037176765
 40
1.0
 40
1.0
 40
1.0
 40
1.0
 10
36.6343238602
 20
62.9359526187
 30
0.0
 10
36.4945014679
 20
62.7860597855
 30
0.0
 10
36.1954603198
 20
62.5076641853
 30
0.0
 10
35.8580426203
 20
62.2770473791
 30
0.0
 10
35.6831454226
 20
62.1760630637
 30
0.0
  0
SPLINE
  5
391
100
AcDbEntity
  8
0
100
AcDbSpline
 62
7
  6
BYLAYER
 70
0
 71
3
 72
9
 73
5
 74
0
 42
0.0000001
 43
0.0000001
 44
0.0000000001
 40
0.0
 40
0.0
 40
0.0
 40
0.0
 40
0.2441631679
 40
1.0
 40
1.0
 40
1.0
 40
1.0
 10
37.2492570163
 20
67.1387717341
 30
0.0
 10
37.2492570163
 20
67.2467687244
 30
0.0
 10
37.2429017733
 20
67.6890710106
 30
0.0
 10
37.2119024622
 20
68.1309347677
 30
0.0
 10
37.1762591351
 20
68.4633471195
 30
0.0
  0
SPLINE
  5
392
100
AcDbEntity
  8
0
100
AcDbSpline
 62
7
  6
BYLAYER
 70
0
 71
3
 72
15
 73
11
 74
0
 42
0.0000001
 43
0.0000001
 44
0.0000000001
 40
0.0
 40
0.0
 40
0.0
 40
0.0
 40
0.1189747553
 40
0.2430434245
 40
0.3706342101
 40
0.5000240142
 40
0.6294102394
 40
0.756991166
 40
0.8810429387
 40
1.0
 40
1.0
 40
1.0
 40
1.0
 10
37.0707289821
 20
69.2411343326
 30
0.0
 10
36.9848860896
 20
69.7662436155
 30
0.0
 10
36.7520795622
 20
70.830144995
 30
0.0
 10
36.2462135083
 20
72.4108474675
 30
0.0
 10
35.5853577725
 20
73.9839433911
 30
0.0
 10
34.7832556761
 20
75.5166677605
 30
0.0
 10
33.856502328
 20
76.977348821
 30
0.0
 10
32.8242354017
 20
78.3357756409
 30
0.0
 10
31.7079696811
 20
79.5637071427
 30
0.0
 10
30.9028413449
 20
80.2968648207
 30
0.0
 10
30.4909328577
 20
80.6335485851
 30
0.0
  0
SPLINE
  5
393
100
AcDbEntity
  8
0
100
AcDbSpline
 62
7
  6
BYLAYER
 70
0
 71
3
 72
15
 73
11
 74
0
 42
0.0000001
 43
0.0000001
 44
0.0000000001
 40
0.0
 40
0.0
 40
0.0
 40
0.0
 40
0.1522365814
 40
0.2961475396
 40
0.4313961155
 40
0.5580739587
 40
0.6767861311
 40
0.788723459
 40
0.8956849756
 40
1.0
 40
1.0
 40
1.0
 40
1.0
 10
29.8580740404
 20
81.1221966775
 30
0.0
 10
29.5456101494
 20
81.3495109807
 30
0.0
 10
28.9184654997
 20
81.7661172108
 30
0.0
 10
27.9503614281
 20
82.2816378158
 30
0.0
 10
26.9916096107
 20
82.664625258
 30
0.0
 10
26.0541483254
 20
82.9096711873
 30
0.0
 10
25.1496017688
 20
83.012832807
 30
0.0
 10
24.2894362326
 20
82.9713901508
 30
0.0
 10
23.4859062471
 20
82.7844667679
 30
0.0
 10
22.9932638117
 20
82.5623639898
 30
0.0
 10
22.7639719054
 20
82.4299729609
 30
0.0
  0
SPLINE
  5
394
100
AcDbEntity
  8
0
100
AcDbSpline
 62
7
  6
BYLAYER
 70
0
 71
3
 72
15
 73
11
 74
0
 42
0.0000001
 43
0.0000001
 44
0.0000000001
 40
0.0
 40
0.0
 40
0.0
 40
0.0
 40
0.1485793858
 40
0.2895084877
 40
0.4227236423
 40
0.5486404529
 40
0.6680006482
 40
0.7819380075
 40
0.8919867587
 40
1.0
 40
1.0
 40
1.0
 40
1.0
 10
22.3999527882
 20
75.7118275791
 30
0.0
 10
22.3999527882
 20
75.9462080108
 30
0.0
 10
22.4188612256
 20
76.403214935
 30
0.0
 10
22.5088035318
 20
77.0650167332
 30
0.0
 10
22.6590823598
 20
77.6792900681
 30
0.0
 10
22.8685070775
 20
78.2400562966
 30
0.0
 10
23.1354351836
 20
78.7419445713
 30
0.0
 10
23.4578273939
 20
79.1798169271
 30
0.0
 10
23.8327084993
 20
79.5487200195
 30
0.0
 10
24.1164005824
 20
79.7467056224
 30
0.0
 10
24.2639653553
 20
79.8318925536
 30
0.0
  0
SPLINE
  5
395
100
AcDbEntity
  8
0
100
AcDbSpline
 62
7
  6
BYLAYER
 70
0
 71
3
 72
19
 73
15
 74
0
 42
0.0000001
 43
0.0000001
 44
0.0000000001
 40
0.0
 40
0.0
 40
0.0
 40
0.0
 40
0.0564067433
 40
0.115496411
 40
0.1769575712
 40
0.2404639983
 40
0.371906646
 40
0.5063093479
 40
0.6398196289
 40
0.7686634469
 40
0.8303035127
 40
0.88958208
 40
0.9462150429
 40
1.0
 40
1.0
 40
1.0
 40
1.0
 10
28.0567834859
 20
78.97778081
 30
0.0
 10
28.0567834859
 20
78.7162209591
 30
0.0
 10
28.0815079366
 20
78.1804454136
 30
0.0
 10
28.1858940987
 20
77.365782448
 30
0.0
 10
28.3574519034
 20
76.5289319058
 30
0.0
 10
28.6768239443
 20
75.3828367794
 30
0.0
 10
29.2317888911
 20
73.955257637
 30
0.0
 10
30.1079357231
 20
72.3189567937
 30
0.0
 10
31.1652657628
 20
70.8080748475
 30
0.0
 10
32.1755011132
 20
69.6896530849
 30
0.0
 10
33.0379894225
 20
68.9154102037
 30
0.0
 10
33.6904972621
 20
68.4119268556
 30
0.0
 10
34.3509731587
 20
67.9825912005
 30
0.0
 10
34.8041785246
 20
67.7423956189
 30
0.0
 10
35.0302218171
 20
67.6370103277
 30
0.0
  0
SPLINE
  5
396
100
AcDbEntity
  8
0
100
AcDbSpline
 62
7
  6
BYLAYER
 70
0
 71
3
 72
19
 73
15
 74
0
 42
0.0000001
 43
0.0000001
 44
0.0000000001
 40
0.0
 40
0.0
 40
0.0
 40
0.0
 40
0.0561755166
 40
0.1149715317
 40
0.1760905706
 40
0.2392260197
 40
0.3699353707
 40
0.5037766122
 40
0.6370868108
 40
0.7662483945
 40
0.8282698112
 40
0.8880842329
 40
0.9454011897
 40
1.0
 40
1.0
 40
1.0
 40
1.0
 10
28.7638902671
 20
78.9777825097
 30
0.0
 10
28.7638902671
 20
78.7364277333
 30
0.0
 10
28.7861758001
 20
78.2422681264
 30
0.0
 10
28.8803890899
 20
77.4909101136
 30
0.0
 10
29.0353074821
 20
76.7191511265
 30
0.0
 10
29.323900751
 20
75.6616943249
 30
0.0
 10
29.8261116413
 20
74.3422048474
 30
0.0
 10
30.6206157572
 20
72.824406215
 30
0.0
 10
31.5821202159
 20
71.4145103851
 30
0.0
 10
32.502987708
 20
70.3622787362
 30
0.0
 10
33.2916034004
 20
69.625651816
 30
0.0
 10
33.8905727512
 20
69.1410584402
 30
0.0
 10
34.4986882934
 20
68.7219313831
 30
0.0
 10
34.9168099962
 20
68.4829538671
 30
0.0
 10
35.1258063661
 20
68.3764242823
 30
0.0
  0
SPLINE
  5
397
100
AcDbEntity
  8
0
100
AcDbSpline
 62
7
  6
BYLAYER
 70
0
 71
3
 72
9
 73
5
 74
0
 42
0.0000001
 43
0.0000001
 44
0.0000000001
 40
0.0
 40
0.0
 40
0.0
 40
0.0
 40
0.2449706736
 40
1.0
 40
1.0
 40
1.0
 40
1.0
 10
28.0917826362
 20
79.7270342537
 30
0.0
 10
28.0859159377
 20
79.6660540344
 30
0.0
 10
28.0651431039
 20
79.4168259332
 30
0.0
 10
28.0567834859
 20
79.1665970363
 30
0.0
 10
28.0567834859
 20
78.97778081
 30
0.0
  0
SPLINE
  5
398
100
AcDbEntity
  8
0
100
AcDbSpline
 62
7
  6
BYLAYER
 70
0
 71
3
 72
25
 73
21
 74
0
 42
0.0000001
 43
0.0000001
 44
0.0000000001
 40
0.0
 40
0.0
 40
0.0
 40
0.0
 40
0.0213322896
 40
0.0428928834
 40
0.0648984397
 40
0.0875432083
 40
0.1353183906
 40
0.1872192464
 40
0.2436567483
 40
0.3046043951
 40
0.3696918663
 40
0.4382888713
 40
0.5095750849
 40
0.5825991255
 40
0.6563305032
 40
0.7297075221
 40
0.801683915
 40
0.8712766591
 40
0.9376162046
 40
1.0
 40
1.0
 40
1.0
 40
1.0
 10
33.2639152737
 20
64.2434290232
 30
0.0
 10
33.1533398838
 20
64.1795955082
 30
0.0
 10
32.9225193419
 20
64.0653522028
 30
0.0
 10
32.5544986818
 20
63.9381373409
 30
0.0
 10
32.1659719329
 20
63.8552742726
 30
0.0
 10
31.6141383345
 20
63.8034827334
 30
0.0
 10
30.8783708467
 20
63.8574961179
 30
0.0
 10
29.9712018456
 20
64.0986136748
 30
0.0
 10
29.0412135015
 20
64.5095866221
 30
0.0
 10
28.1072633099
 20
65.0809847647
 30
0.0
 10
27.1882179583
 20
65.800481896
 30
0.0
 10
26.3031912949
 20
66.6528374602
 30
0.0
 10
25.4707995244
 20
67.6199822893
 30
0.0
 10
24.7087045383
 20
68.6813569547
 30
0.0
 10
24.0331404454
 20
69.8143419695
 30
0.0
 10
23.4585168754
 20
70.9947727264
 30
0.0
 10
22.9970915981
 20
72.1974635662
 30
0.0
 10
22.658684474
 20
73.3969234952
 30
0.0
 10
22.4505370462
 20
74.5675002832
 30
0.0
 10
22.3999527882
 20
75.3384485699
 30
0.0
 10
22.3999527882
 20
75.7118275791
 30
0.0
  0
SPLINE
  5
399
100
AcDbEntity
  8
0
100
AcDbSpline
 62
7
  6
BYLAYER
 70
0
 71
3
 72
26
 73
22
 74
0
 42
0.0000001
 43
0.0000001
 44
0.0000000001
 40
0.0
 40
0.0
 40
0.0
 40
0.0
 40
0.0213311754
 40
0.0428907759
 40
0.0648952727
 40
0.0875389926
 40
0.1353120228
 40
0.1607341814
 40
0.1872583556
 40
0.2436933244
 40
0.3046382357
 40
0.3697227806
 40
0.4383166885
 40
0.5095996542
 40
0.5826203234
 40
0.6563481859
 40
0.7297217147
 40
0.8016945744
 40
0.8712843033
 40
0.9376185345
 40
1.0
 40
1.0
 40
1.0
 40
1.0
 10
23.6832051832
 20
82.9606933132
 30
0.0
 10
23.8306315892
 20
83.0458162018
 30
0.0
 10
24.13840335
 20
83.1981212111
 30
0.0
 10
24.6290876824
 20
83.3677558785
 30
0.0
 10
25.1471388306
 20
83.4782291449
 30
0.0
 10
25.8828543379
 20
83.5472992479
 30
0.0
 10
26.6519364848
 20
83.4908653873
 30
0.0
 10
27.430787208
 20
83.3244551443
 30
0.0
 10
28.2590854376
 20
83.0718274711
 30
0.0
 10
29.3135898263
 20
82.6057475615
 30
0.0
 10
30.5587221463
 20
81.8439663928
 30
0.0
 10
31.7841582338
 20
80.8846048754
 30
0.0
 10
32.964183139
 20
79.7481324989
 30
0.0
 10
34.0740428248
 20
78.4585986299
 30
0.0
 10
35.0901674725
 20
77.0434286
 30
0.0
 10
35.9909200248
 20
75.532779478
 30
0.0
 10
36.7570795816
 20
73.9588694065
 30
0.0
 10
37.3723194135
 20
72.3552807793
 30
0.0
 10
37.8235111068
 20
70.7560113774
 30
0.0
 10
38.1010532545
 20
69.1952536158
 30
0.0
 10
38.1684920047
 20
68.1673332279
 30
0.0
 10
38.1684920047
 20
67.6694891342
 30
0.0
  0
SPLINE
  5
39A
100
AcDbEntity
  8
0
100
AcDbSpline
 62
7
  6
BYLAYER
 70
0
 71
3
 72
11
 73
7
 74
0
 42
0.0000001
 43
0.0000001
 44
0.0000000001
 40
0.0
 40
0.0
 40
0.0
 40
0.0
 40
0.2895391946
 40
0.5491157945
 40
0.7822541179
 40
1.0
 40
1.0
 40
1.0
 40
1.0
 10
119.1319049174
 20
98.5733678951
 30
0.0
 10
119.1538315463
 20
98.5607088364
 30
0.0
 10
119.1974870754
 20
98.5399688069
 30
0.0
 10
119.2645591681
 20
98.5237342733
 30
0.0
 10
119.3275248738
 20
98.5253160007
 30
0.0
 10
119.3654001173
 20
98.5391097044
 30
0.0
 10
119.3818898098
 20
98.5486299839
 30
0.0
  0
SPLINE
  5
39B
100
AcDbEntity
  8
0
100
AcDbSpline
 62
7
  6
BYLAYER
 70
0
 71
3
 72
11
 73
7
 74
0
 42
0.0000001
 43
0.0000001
 44
0.0000000001
 40
0.0
 40
0.0
 40
0.0
 40
0.0
 40
0.217745073
 40
0.4508830113
 40
0.7104597664
 40
1.0
 40
1.0
 40
1.0
 40
1.0
 10
89.0419496807
 20
134.2789988633
 30
0.0
 10
89.0254596084
 20
134.2694783646
 30
0.0
 10
88.9945754761
 20
134.2435736937
 30
0.0
 10
88.9617222707
 20
134.1898330849
 30
0.0
 10
88.9422457053
 20
134.1236276867
 30
0.0
 10
88.9383797105
 20
134.0754494359
 30
0.0
 10
88.9383797105
 20
134.0501301208
 30
0.0
  0
SPLINE
  5
39C
100
AcDbEntity
  8
0
100
AcDbSpline
 62
7
  6
BYLAYER
 70
0
 71
3
 72
9
 73
5
 74
0
 42
0.0000001
 43
0.0000001
 44
0.0000000001
 40
0.0
 40
0.0
 40
0.0
 40
0.0
 40
0.2467610574
 40
1.0
 40
1.0
 40
1.0
 40
1.0
 10
95.1503277142
 20
133.2283791826
 30
0.0
 10
95.1398037718
 20
133.2336613654
 30
0.0
 10
95.0974388635
 20
133.2556317938
 30
0.0
 10
95.0561306911
 20
133.2796050896
 30
0.0
 10
95.0255130136
 20
133.2984335897
 30
0.0
  0
SPLINE
  5
39D
100
AcDbEntity
  8
0
100
AcDbSpline
 62
7
  6
BYLAYER
 70
0
 71
3
 72
9
 73
5
 74
0
 42
0.0000001
 43
0.0000001
 44
0.0000000001
 40
0.0
 40
0.0
 40
0.0
 40
0.0
 40
0.2486938806
 40
1.0
 40
1.0
 40
1.0
 40
1.0
 10
95.0255130136
 20
133.2984335897
 30
0.0
 10
95.0013512043
 20
133.31329202
 30
0.0
 10
94.9054294677
 20
133.3750412979
 30
0.0
 10
94.813700326
 20
133.4431344054
 30
0.0
 10
94.7466439885
 20
133.496485214
 30
0.0
  0
SPLINE
  5
39E
100
AcDbEntity
  8
0
100
AcDbSpline
 62
7
  6
BYLAYER
 70
0
 71
3
 72
9
 73
5
 74
0
 42
0.0000001
 43
0.0000001
 44
0.0000000001
 40
0.0
 40
0.0
 40
0.0
 40
0.0
 40
0.4934946533
 40
1.0
 40
1.0
 40
1.0
 40
1.0
 10
94.7466439885
 20
133.496485214
 30
0.0
 10
94.8216668708
 20
133.4890738244
 30
0.0
 10
94.9743051169
 20
133.4800320195
 30
0.0
 10
95.1275520141
 20
133.487104943
 30
0.0
 10
95.2041905364
 20
133.49775979
 30
0.0
  0
SPLINE
  5
39F
100
AcDbEntity
  8
0
100
AcDbSpline
 62
7
  6
BYLAYER
 70
0
 71
3
 72
20
 73
16
 74
0
 42
0.0000001
 43
0.0000001
 44
0.0000000001
 40
0.0
 40
0.0
 40
0.0
 40
0.0
 40
0.1392901814
 40
0.273237549
 40
0.3992586005
 40
0.4579714658
 40
0.5127456242
 40
0.5627071398
 40
0.6081688264
 40
0.653495381
 40
0.7066630384
 40
0.7706564524
 40
0.8426934666
 40
0.9199636268
 40
1.0
 40
1.0
 40
1.0
 40
1.0
 10
91.7580711653
 20
134.7857404774
 30
0.0
 10
91.735440786
 20
134.7825965033
 30
0.0
 10
91.6911363985
 20
134.7756758178
 30
0.0
 10
91.6270882031
 20
134.7618865684
 30
0.0
 10
91.5768878088
 20
134.7468171568
 30
0.0
 10
91.5408000091
 20
134.7311653472
 30
0.0
 10
91.5174772736
 20
134.7177487971
 30
0.0
 10
91.498524656
 20
134.7017529864
 30
0.0
 10
91.485742692
 20
134.6816704326
 30
0.0
 10
91.4847798072
 20
134.656903687
 30
0.0
 10
91.497203274
 20
134.6324653963
 30
0.0
 10
91.5185724885
 20
134.609738793
 30
0.0
 10
91.5463407439
 20
134.5882841363
 30
0.0
 10
91.5783780053
 20
134.5684940606
 30
0.0
 10
91.6011765511
 20
134.556380679
 30
0.0
 10
91.6129060717
 20
134.5504839235
 30
0.0
  0
SPLINE
  5
3A0
100
AcDbEntity
  8
0
100
AcDbSpline
 62
7
  6
BYLAYER
 70
0
 71
3
 72
9
 73
5
 74
0
 42
0.0000001
 43
0.0000001
 44
0.0000000001
 40
0.0
 40
0.0
 40
0.0
 40
0.0
 40
0.2362662216
 40
1.0
 40
1.0
 40
1.0
 40
1.0
 10
113.3825356051
 20
122.7372903311
 30
0.0
 10
113.3773180228
 20
122.7376995641
 30
0.0
 10
113.3552873383
 20
122.7400837885
 30
0.0
 10
113.3335521136
 20
122.7449464366
 30
0.0
 10
113.3173297029
 20
122.7497466555
 30
0.0
  0
SPLINE
  5
3A1
100
AcDbEntity
  8
0
100
AcDbSpline
 62
7
  6
BYLAYER
 70
0
 71
3
 72
9
 73
5
 74
0
 42
0.0000001
 43
0.0000001
 44
0.0000000001
 40
0.0
 40
0.0
 40
0.0
 40
0.0
 40
0.2337703031
 40
1.0
 40
1.0
 40
1.0
 40
1.0
 10
113.3173297029
 20
122.7497466555
 30
0.0
 10
113.3100208775
 20
122.7519093404
 30
0.0
 10
113.2790433442
 20
122.7621165594
 30
0.0
 10
113.2493589699
 20
122.7761599363
 30
0.0
 10
113.2277147047
 20
122.7886368048
 30
0.0
  0
SPLINE
  5
3A2
100
AcDbEntity
  8
0
100
AcDbSpline
 62
7
  6
BYLAYER
 70
0
 71
3
 72
9
 73
5
 74
0
 42
0.0000001
 43
0.0000001
 44
0.0000000001
 40
0.0
 40
0.0
 40
0.0
 40
0.0
 40
0.2384660797
 40
1.0
 40
1.0
 40
1.0
 40
1.0
 10
113.2277147047
 20
122.7886368048
 30
0.0
 10
113.2241394004
 20
122.7906977942
 30
0.0
 10
113.2092592498
 20
122.7995355089
 30
0.0
 10
113.1948400961
 20
122.8091424214
 30
0.0
 10
113.1841157411
 20
122.8168019997
 30
0.0
  0
SPLINE
  5
3A3
100
AcDbEntity
  8
0
100
AcDbSpline
 62
7
  6
BYLAYER
 70
0
 71
3
 72
11
 73
7
 74
0
 42
0.0000001
 43
0.0000001
 44
0.0000000001
 40
0.0
 40
0.0
 40
0.0
 40
0.0
 40
0.2396631378
 40
0.5480576207
 40
0.7947496544
 40
1.0
 40
1.0
 40
1.0
 40
1.0
 10
112.5603885814
 20
122.4567228551
 30
0.0
 10
112.5936386662
 20
122.4327753322
 30
0.0
 10
112.6838597248
 20
122.3966209267
 30
0.0
 10
112.8229397621
 20
122.4029121583
 30
0.0
 10
112.9474084066
 20
122.4424844083
 30
0.0
 10
113.0167080143
 20
122.4772464401
 30
0.0
 10
113.0470991663
 20
122.4947924886
 30
0.0
  0
SPLINE
  5
3A4
100
AcDbEntity
  8
0
100
AcDbSpline
 62
7
  6
BYLAYER
 70
0
 71
3
 72
9
 73
5
 74
0
 42
0.0000001
 43
0.0000001
 44
0.0000000001
 40
0.0
 40
0.0
 40
0.0
 40
0.0
 40
0.496389654
 40
1.0
 40
1.0
 40
1.0
 40
1.0
 10
115.7595409066
 20
124.0896786026
 30
0.0
 10
115.7978403661
 20
124.1214608474
 30
0.0
 10
115.8794914029
 20
124.1801028078
 30
0.0
 10
115.9661134657
 20
124.2308024428
 30
0.0
 10
116.0106381648
 20
124.2546162363
 30
0.0
  0
SPLINE
  5
3A5
100
AcDbEntity
  8
0
100
AcDbSpline
 62
7
  6
BYLAYER
 70
0
 71
3
 72
9
 73
5
 74
0
 42
0.0000001
 43
0.0000001
 44
0.0000000001
 40
0.0
 40
0.0
 40
0.0
 40
0.0
 40
0.5414887351
 40
1.0
 40
1.0
 40
1.0
 40
1.0
 10
98.201442922
 20
139.3981372909
 30
0.0
 10
98.2335487237
 20
139.4166734735
 30
0.0
 10
98.2971594526
 20
139.4445520269
 30
0.0
 10
98.367865377
 20
139.4487053397
 30
0.0
 10
98.3986546983
 20
139.4425859125
 30
0.0
  0
SPLINE
  5
3A6
100
AcDbEntity
  8
0
100
AcDbSpline
 62
7
  6
BYLAYER
 70
0
 71
3
 72
9
 73
5
 74
0
 42
0.0000001
 43
0.0000001
 44
0.0000000001
 40
0.0
 40
0.0
 40
0.0
 40
0.0
 40
0.2543234312
 40
1.0
 40
1.0
 40
1.0
 40
1.0
 10
98.3986546983
 20
139.4425859125
 30
0.0
 10
98.4033503475
 20
139.4416526446
 30
0.0
 10
98.4216642699
 20
139.4372727347
 30
0.0
 10
98.4392706508
 20
139.4298994691
 30
0.0
 10
98.4514270659
 20
139.4228811161
 30
0.0
  0
SPLINE
  5
3A7
100
AcDbEntity
  8
0
100
AcDbSpline
 62
7
  6
BYLAYER
 70
0
 71
3
 72
9
 73
5
 74
0
 42
0.0000001
 43
0.0000001
 44
0.0000000001
 40
0.0
 40
0.0
 40
0.0
 40
0.0
 40
0.2544144897
 40
1.0
 40
1.0
 40
1.0
 40
1.0
 10
97.3194820662
 20
134.3176102466
 30
0.0
 10
97.3101141918
 20
134.311104819
 30
0.0
 10
97.2730704844
 20
134.2858588724
 30
0.0
 10
97.2350539812
 20
134.2620206301
 30
0.0
 10
97.2061068863
 20
134.245310692
 30
0.0
  0
SPLINE
  5
3A8
100
AcDbEntity
  8
0
100
AcDbSpline
 62
7
  6
BYLAYER
 70
0
 71
3
 72
9
 73
5
 74
0
 42
0.0000001
 43
0.0000001
 44
0.0000000001
 40
0.0
 40
0.0
 40
0.0
 40
0.0
 40
0.2455940338
 40
1.0
 40
1.0
 40
1.0
 40
1.0
 10
97.3175912499
 20
134.2741623305
 30
0.0
 10
97.3175913229
 20
134.2777231128
 30
0.0
 10
97.3177859984
 20
134.2922211093
 30
0.0
 10
97.3185616115
 20
134.3067111758
 30
0.0
 10
97.3194820662
 20
134.3176102466
 30
0.0
  0
SPLINE
  5
3A9
100
AcDbEntity
  8
0
100
AcDbSpline
 62
7
  6
BYLAYER
 70
0
 71
3
 72
9
 73
5
 74
0
 42
0.0000001
 43
0.0000001
 44
0.0000000001
 40
0.0
 40
0.0
 40
0.0
 40
0.0
 40
0.2443828878
 40
1.0
 40
1.0
 40
1.0
 40
1.0
 10
97.4224020949
 20
134.2057342956
 30
0.0
 10
97.4135720613
 20
134.2108313927
 30
0.0
 10
97.377760049
 20
134.2322404866
 30
0.0
 10
97.3431317669
 20
134.2556080248
 30
0.0
 10
97.3176241985
 20
134.2741319091
 30
0.0
  0
SPLINE
  5
3AA
100
AcDbEntity
  8
0
100
AcDbSpline
 62
7
  6
BYLAYER
 70
0
 71
3
 72
11
 73
7
 74
0
 42
0.0000001
 43
0.0000001
 44
0.0000000001
 40
0.0
 40
0.0
 40
0.0
 40
0.0
 40
0.217745073
 40
0.4508830113
 40
0.7104597664
 40
1.0
 40
1.0
 40
1.0
 40
1.0
 10
119.3818898098
 20
98.5486299839
 30
0.0
 10
119.3983798821
 20
98.5581504826
 30
0.0
 10
119.4292640144
 20
98.5840551535
 30
0.0
 10
119.4621172198
 20
98.6377957623
 30
0.0
 10
119.4815937852
 20
98.7040011605
 30
0.0
 10
119.48545978
 20
98.7521794113
 30
0.0
 10
119.48545978
 20
98.7774987264
 30
0.0
  0
SPLINE
  5
3AB
100
AcDbEntity
  8
0
100
AcDbSpline
 62
7
  6
BYLAYER
 70
0
 71
3
 72
11
 73
7
 74
0
 42
0.0000001
 43
0.0000001
 44
0.0000000001
 40
0.0
 40
0.0
 40
0.0
 40
0.0
 40
0.2895373801
 40
0.5491091728
 40
0.7822513189
 40
1.0
 40
1.0
 40
1.0
 40
1.0
 10
121.1825089893
 20
125.7220615604
 30
0.0
 10
121.2044354322
 20
125.7347207226
 30
0.0
 10
121.2442254691
 20
125.7621553927
 30
0.0
 10
121.2918218943
 20
125.8121231627
 30
0.0
 10
121.3219382496
 20
125.8674424422
 30
0.0
 10
121.3289308985
 20
125.9071410235
 30
0.0
 10
121.3289308977
 20
125.9261819377
 30
0.0
  0
SPLINE
  5
3AC
100
AcDbEntity
  8
0
100
AcDbSpline
 62
7
  6
BYLAYER
 70
0
 71
3
 72
9
 73
5
 74
0
 42
0.0000001
 43
0.0000001
 44
0.0000000001
 40
0.0
 40
0.0
 40
0.0
 40
0.0
 40
0.2342059032
 40
1.0
 40
1.0
 40
1.0
 40
1.0
 10
95.3077443582
 20
133.1492971177
 30
0.0
 10
95.3077443582
 20
133.1581206998
 30
0.0
 10
95.3066453267
 20
133.1957923562
 30
0.0
 10
95.301482781
 20
133.2333005626
 30
0.0
 10
95.2957355868
 20
133.2615732207
 30
0.0
  0
SPLINE
  5
3AD
100
AcDbEntity
  8
0
100
AcDbSpline
 62
7
  6
BYLAYER
 70
0
 71
3
 72
9
 73
5
 74
0
 42
0.0000001
 43
0.0000001
 44
0.0000000001
 40
0.0
 40
0.0
 40
0.0
 40
0.0
 40
0.4872012583
 40
1.0
 40
1.0
 40
1.0
 40
1.0
 10
95.2957355868
 20
133.2615732207
 30
0.0
 10
95.287515136
 20
133.3020127786
 30
0.0
 10
95.262741969
 20
133.3834844406
 30
0.0
 10
95.2259080063
 20
133.4601442377
 30
0.0
 10
95.2041905365
 20
133.49775979
 30
0.0
  0
SPLINE
  5
3AE
100
AcDbEntity
  8
0
100
AcDbSpline
 62
7
  6
BYLAYER
 70
0
 71
3
 72
11
 73
7
 74
0
 42
0.0000001
 43
0.0000001
 44
0.0000000001
 40
0.0
 40
0.0
 40
0.0
 40
0.0
 40
0.2372465045
 40
0.4999989083
 40
0.7627519059
 40
1.0
 40
1.0
 40
1.0
 40
1.0
 10
120.8289541267
 20
126.3344331462
 30
0.0
 10
120.8791503092
 20
126.3054530224
 30
0.0
 10
120.9741457792
 20
126.2255169345
 30
0.0
 10
121.0849770875
 20
126.0740008399
 30
0.0
 10
121.1607791553
 20
125.9022600502
 30
0.0
 10
121.1825089893
 20
125.78002318
 30
0.0
 10
121.1825089893
 20
125.7220615604
 30
0.0
  0
SPLINE
  5
3AF
100
AcDbEntity
  8
0
100
AcDbSpline
 62
7
  6
BYLAYER
 70
0
 71
3
 72
9
 73
5
 74
0
 42
0.0000001
 43
0.0000001
 44
0.0000000001
 40
0.0
 40
0.0
 40
0.0
 40
0.0
 40
0.2476556193
 40
1.0
 40
1.0
 40
1.0
 40
1.0
 10
121.3289308977
 20
99.961405073
 30
0.0
 10
121.3289308979
 20
99.9567767059
 30
0.0
 10
121.3281626284
 20
99.9380928629
 30
0.0
 10
121.3242335679
 20
99.919563406
 30
0.0
 10
121.3197415974
 20
99.9062399009
 30
0.0
  0
SPLINE
  5
3B0
100
AcDbEntity
  8
0
100
AcDbSpline
 62
7
  6
BYLAYER
 70
0
 71
3
 72
9
 73
5
 74
0
 42
0.0000001
 43
0.0000001
 44
0.0000000001
 40
0.0
 40
0.0
 40
0.0
 40
0.0
 40
0.458423076
 40
1.0
 40
1.0
 40
1.0
 40
1.0
 10
121.3197415974
 20
99.9062399009
 30
0.0
 10
121.3096949608
 20
99.8764408595
 30
0.0
 10
121.2707388996
 20
99.8171030838
 30
0.0
 10
121.2146829889
 20
99.7758602522
 30
0.0
 10
121.1825089893
 20
99.7572846957
 30
0.0
  0
SPLINE
  5
3B1
100
AcDbEntity
  8
0
100
AcDbSpline
 62
7
  6
BYLAYER
 70
0
 71
3
 72
10
 73
6
 74
0
 42
0.0000001
 43
0.0000001
 44
0.0000000001
 40
0.0
 40
0.0
 40
0.0
 40
0.0
 40
0.2454311925
 40
0.5046595814
 40
1.0
 40
1.0
 40
1.0
 40
1.0
 10
97.3194860306
 20
134.3176079599
 30
0.0
 10
97.3242897178
 20
134.3745415898
 30
0.0
 10
97.3328716416
 20
134.4917144743
 30
0.0
 10
97.3505505666
 20
134.7238401134
 30
0.0
 10
97.3654536027
 20
134.8988714714
 30
0.0
 10
97.3747448119
 20
135.0138108747
 30
0.0
  0
SPLINE
  5
3B2
100
AcDbEntity
  8
0
100
AcDbSpline
 62
7
  6
BYLAYER
 70
0
 71
3
 72
11
 73
7
 74
0
 42
0.0000001
 43
0.0000001
 44
0.0000000001
 40
0.0
 40
0.0
 40
0.0
 40
0.0
 40
0.2177504419
 40
0.4508934119
 40
0.7104646156
 40
1.0
 40
1.0
 40
1.0
 40
1.0
 10
121.0789382706
 20
126.3591769715
 30
0.0
 10
121.0624481708
 20
126.3686973226
 30
0.0
 10
121.0245717258
 20
126.3824906597
 30
0.0
 10
120.9616056614
 20
126.3840689811
 30
0.0
 10
120.8945343153
 20
126.367833631
 30
0.0
 10
120.8508803641
 20
126.3470921897
 30
0.0
 10
120.8289541267
 20
126.3344331462
 30
0.0
  0
SPLINE
  5
3B3
100
AcDbEntity
  8
0
100
AcDbSpline
 62
7
  6
BYLAYER
 70
0
 71
3
 72
10
 73
6
 74
0
 42
0.0000001
 43
0.0000001
 44
0.0000000001
 40
0.0
 40
0.0
 40
0.0
 40
0.0
 40
0.5228959485
 40
0.7721507846
 40
1.0
 40
1.0
 40
1.0
 40
1.0
 10
97.1025530646
 20
134.5937733644
 30
0.0
 10
97.1345286389
 20
134.5383903526
 30
0.0
 10
97.1732269881
 20
134.4509644627
 30
0.0
 10
97.2008601447
 20
134.3315806375
 30
0.0
 10
97.2061068863
 20
134.2731769595
 30
0.0
 10
97.2061068863
 20
134.245310692
 30
0.0
  0
SPLINE
  5
3B4
100
AcDbEntity
  8
0
100
AcDbSpline
 62
7
  6
BYLAYER
 70
0
 71
3
 72
11
 73
7
 74
0
 42
0.0000001
 43
0.0000001
 44
0.0000000001
 40
0.0
 40
0.0
 40
0.0
 40
0.0
 40
0.2261681895
 40
0.4780651716
 40
0.7416850511
 40
1.0
 40
1.0
 40
1.0
 40
1.0
 10
97.4224020949
 20
134.2057342956
 30
0.0
 10
97.4224020949
 20
134.2399587398
 30
0.0
 10
97.4304593192
 20
134.3123355696
 30
0.0
 10
97.4604588399
 20
134.4209114888
 30
0.0
 10
97.5086805872
 20
134.5280526638
 30
0.0
 10
97.5502925272
 20
134.5954979815
 30
0.0
 10
97.573164964
 20
134.6271965712
 30
0.0
  0
SPLINE
  5
3B5
100
AcDbEntity
  8
0
100
AcDbSpline
 62
7
  6
BYLAYER
 70
0
 71
3
 72
9
 73
5
 74
0
 42
0.0000001
 43
0.0000001
 44
0.0000000001
 40
0.0
 40
0.0
 40
0.0
 40
0.0
 40
0.2548025254
 40
1.0
 40
1.0
 40
1.0
 40
1.0
 10
113.5739820556
 20
122.8039663308
 30
0.0
 10
113.5658387537
 20
122.8002499404
 30
0.0
 10
113.5336766803
 20
122.7861106296
 30
0.0
 10
113.5008030233
 20
122.7736097251
 30
0.0
 10
113.4760425824
 20
122.7651093965
 30
0.0
  0
SPLINE
  5
3B6
100
AcDbEntity
  8
0
100
AcDbSpline
 62
7
  6
BYLAYER
 70
0
 71
3
 72
9
 73
5
 74
0
 42
0.0000001
 43
0.0000001
 44
0.0000000001
 40
0.0
 40
0.0
 40
0.0
 40
0.0
 40
0.504395217
 40
1.0
 40
1.0
 40
1.0
 40
1.0
 10
115.6069544391
 20
124.2156189045
 30
0.0
 10
115.5795511138
 20
124.1776410198
 30
0.0
 10
115.5316684204
 20
124.097590902
 30
0.0
 10
115.4965604253
 20
124.0110942787
 30
0.0
 10
115.4834350037
 20
123.9669898059
 30
0.0
  0
SPLINE
  5
3B7
100
AcDbEntity
  8
0
100
AcDbSpline
 62
7
  6
BYLAYER
 70
0
 71
3
 72
10
 73
6
 74
0
 42
0.0000001
 43
0.0000001
 44
0.0000000001
 40
0.0
 40
0.0
 40
0.0
 40
0.0
 40
0.2563497118
 40
0.5075217989
 40
1.0
 40
1.0
 40
1.0
 40
1.0
 10
115.6069544391
 20
124.2156189045
 30
0.0
 10
115.6414474475
 20
124.2104588229
 30
0.0
 10
115.7106957626
 20
124.2063545928
 30
0.0
 10
115.8466557509
 20
124.2148262942
 30
0.0
 10
115.946293777
 20
124.2359309125
 30
0.0
 10
116.0106381649
 20
124.2546162363
 30
0.0
  0
SPLINE
  5
3B8
100
AcDbEntity
  8
0
100
AcDbSpline
 62
7
  6
BYLAYER
 70
0
 71
3
 72
11
 73
7
 74
0
 42
0.0000001
 43
0.0000001
 44
0.0000000001
 40
0.0
 40
0.0
 40
0.0
 40
0.0
 40
0.2177508335
 40
0.4508940037
 40
0.710465094
 40
1.0
 40
1.0
 40
1.0
 40
1.0
 10
97.9514556557
 20
139.4228793134
 30
0.0
 10
97.9679459096
 20
139.4323999112
 30
0.0
 10
98.0058227341
 20
139.4461937226
 30
0.0
 10
98.068789562
 20
139.4477726001
 30
0.0
 10
98.1358617968
 20
139.4315376303
 30
0.0
 10
98.1795163733
 20
139.4107963033
 30
0.0
 10
98.201442922
 20
139.3981372909
 30
0.0
  0
SPLINE
  5
3B9
100
AcDbEntity
  8
0
100
AcDbSpline
 62
7
  6
BYLAYER
 70
0
 71
3
 72
9
 73
5
 74
0
 42
0.0000001
 43
0.0000001
 44
0.0000000001
 40
0.0
 40
0.0
 40
0.0
 40
0.0
 40
0.5040067847
 40
1.0
 40
1.0
 40
1.0
 40
1.0
 10
116.0106381649
 20
124.2546162363
 30
0.0
 10
115.9368810518
 20
124.1982371994
 30
0.0
 10
115.788370442
 20
124.0892170781
 30
0.0
 10
115.6339445586
 20
123.9883624903
 30
0.0
 10
115.5548627159
 20
123.9426145031
 30
0.0
  0
SPLINE
  5
3BA
100
AcDbEntity
  8
0
100
AcDbSpline
 62
7
  6
BYLAYER
 70
0
 71
3
 72
19
 73
15
 74
0
 42
0.0000001
 43
0.0000001
 44
0.0000000001
 40
0.0
 40
0.0
 40
0.0
 40
0.0
 40
0.1463766476
 40
0.2898739481
 40
0.4286618825
 40
0.4951785214
 40
0.5587305658
 40
0.6179794575
 40
0.6714482886
 40
0.7189040938
 40
0.7649521916
 40
0.8157590354
 40
0.8727394302
 40
1.0
 40
1.0
 40
1.0
 40
1.0
 10
118.999210988
 20
125.9312253383
 30
0.0
 10
119.0220226959
 20
125.9443956918
 30
0.0
 10
119.0667721696
 20
125.9712345114
 30
0.0
 10
119.1310488971
 20
126.0139272939
 30
0.0
 10
119.1810116105
 20
126.0520831959
 30
0.0
 10
119.2167843083
 20
126.0847081293
 30
0.0
 10
119.2400502775
 20
126.1096706698
 30
0.0
 10
119.2587095676
 20
126.1354642917
 30
0.0
 10
119.2709262031
 20
126.1618892733
 30
0.0
 10
119.2730658544
 20
126.1892392984
 30
0.0
 10
119.2609615781
 20
126.213544916
 30
0.0
 10
119.2386812039
 20
126.2308550777
 30
0.0
 10
119.1999657744
 20
126.2483695357
 30
0.0
 10
119.1670093899
 20
126.2544776036
 30
0.0
 10
119.1443760816
 20
126.2579671203
 30
0.0
  0
SPLINE
  5
3BB
100
AcDbEntity
  8
0
100
AcDbSpline
 62
7
  6
BYLAYER
 70
0
 71
3
 72
9
 73
5
 74
0
 42
0.0000001
 43
0.0000001
 44
0.0000000001
 40
0.0
 40
0.0
 40
0.0
 40
0.0
 40
0.5414534137
 40
1.0
 40
1.0
 40
1.0
 40
1.0
 10
121.1825089893
 20
99.7572846957
 30
0.0
 10
121.1825089893
 20
99.7202432621
 30
0.0
 10
121.1748585984
 20
99.6512705367
 30
0.0
 10
121.1431649611
 20
99.5879980334
 30
0.0
 10
121.122506764
 20
99.5643909155
 30
0.0
  0
SPLINE
  5
3BC
100
AcDbEntity
  8
0
100
AcDbSpline
 62
7
  6
BYLAYER
 70
0
 71
3
 72
9
 73
5
 74
0
 42
0.0000001
 43
0.0000001
 44
0.0000000001
 40
0.0
 40
0.0
 40
0.0
 40
0.0
 40
0.2543484668
 40
1.0
 40
1.0
 40
1.0
 40
1.0
 10
121.122506764
 20
99.5643909155
 30
0.0
 10
121.1193441091
 20
99.5607767972
 30
0.0
 10
121.106365974
 20
99.5470541308
 30
0.0
 10
121.0911343093
 20
99.5354513848
 30
0.0
 10
121.078941393
 20
99.5284118418
 30
0.0
  0
SPLINE
  5
3BD
100
AcDbEntity
  8
0
100
AcDbSpline
 62
7
  6
BYLAYER
 70
0
 71
3
 72
9
 73
5
 74
0
 42
0.0000001
 43
0.0000001
 44
0.0000000001
 40
0.0
 40
0.0
 40
0.0
 40
0.0
 40
0.4907829073
 40
1.0
 40
1.0
 40
1.0
 40
1.0
 10
95.060884823
 20
133.3103608937
 30
0.0
 10
95.0156808694
 20
133.3496734656
 30
0.0
 10
94.9133569881
 20
133.4178908389
 30
0.0
 10
94.803616192
 20
133.4716314641
 30
0.0
 10
94.7466439885
 20
133.496485214
 30
0.0
  0
SPLINE
  5
3BE
100
AcDbEntity
  8
0
100
AcDbSpline
 62
7
  6
BYLAYER
 70
0
 71
3
 72
9
 73
5
 74
0
 42
0.0000001
 43
0.0000001
 44
0.0000000001
 40
0.0
 40
0.0
 40
0.0
 40
0.0
 40
0.4791690913
 40
1.0
 40
1.0
 40
1.0
 40
1.0
 10
119.3471651311
 20
126.4488781303
 30
0.0
 10
119.308433269
 20
126.4265164127
 30
0.0
 10
119.2340170434
 20
126.3685693032
 30
0.0
 10
119.1728208934
 20
126.2973883865
 30
0.0
 10
119.1443760816
 20
126.2579671203
 30
0.0
  0
SPLINE
  5
3BF
100
AcDbEntity
  8
0
100
AcDbSpline
 62
7
  6
BYLAYER
 70
0
 71
3
 72
11
 73
7
 74
0
 42
0.0000001
 43
0.0000001
 44
0.0000000001
 40
0.0
 40
0.0
 40
0.0
 40
0.0
 40
0.2158194367
 40
0.4509225604
 40
0.7128230506
 40
1.0
 40
1.0
 40
1.0
 40
1.0
 10
118.999210988
 20
125.9312253383
 30
0.0
 10
119.0155526109
 20
125.9406604485
 30
0.0
 10
119.0534502741
 20
125.954307457
 30
0.0
 10
119.1166115301
 20
125.9562188017
 30
0.0
 10
119.1838064265
 20
125.9396692068
 30
0.0
 10
119.227467011
 20
125.9190186539
 30
0.0
 10
119.2492120289
 20
125.906464446
 30
0.0
  0
SPLINE
  5
3C0
100
AcDbEntity
  8
0
100
AcDbSpline
 62
7
  6
BYLAYER
 70
0
 71
3
 72
9
 73
5
 74
0
 42
0.0000001
 43
0.0000001
 44
0.0000000001
 40
0.0
 40
0.0
 40
0.0
 40
0.0
 40
0.5318802365
 40
1.0
 40
1.0
 40
1.0
 40
1.0
 10
97.3747465483
 20
135.0138113834
 30
0.0
 10
97.4028330736
 20
134.9419120655
 30
0.0
 10
97.4607007207
 20
134.8087531256
 30
0.0
 10
97.5327995584
 20
134.6818416683
 30
0.0
 10
97.5731664122
 20
134.627197734
 30
0.0
  0
SPLINE
  5
3C1
100
AcDbEntity
  8
0
100
AcDbSpline
 62
7
  6
BYLAYER
 70
0
 71
3
 72
11
 73
7
 74
0
 42
0.0000001
 43
0.0000001
 44
0.0000000001
 40
0.0
 40
0.0
 40
0.0
 40
0.0
 40
0.2895391946
 40
0.5491157945
 40
0.7822541179
 40
1.0
 40
1.0
 40
1.0
 40
1.0
 10
89.2919345731
 20
134.2542609521
 30
0.0
 10
89.2700079442
 20
134.2669200108
 30
0.0
 10
89.2263524151
 20
134.2876600403
 30
0.0
 10
89.1592803224
 20
134.3038945739
 30
0.0
 10
89.0963146167
 20
134.3023128465
 30
0.0
 10
89.0584393732
 20
134.2885191428
 30
0.0
 10
89.0419496807
 20
134.2789988633
 30
0.0
  0
SPLINE
  5
3C2
100
AcDbEntity
  8
0
100
AcDbSpline
 62
7
  6
BYLAYER
 70
0
 71
3
 72
11
 73
7
 74
0
 42
0.0000001
 43
0.0000001
 44
0.0000000001
 40
0.0
 40
0.0
 40
0.0
 40
0.0
 40
0.2372539654
 40
0.5000012591
 40
0.7627478695
 40
1.0
 40
1.0
 40
1.0
 40
1.0
 10
112.2730006404
 20
120.5781852216
 30
0.0
 10
112.2730006404
 20
120.6361481632
 30
0.0
 10
112.2512685076
 20
120.7583846755
 30
0.0
 10
112.17546563
 20
120.9301228247
 30
0.0
 10
112.0646370109
 20
121.0816382244
 30
0.0
 10
111.9696430534
 20
121.1615760525
 30
0.0
 10
111.9194457778
 20
121.1905568075
 30
0.0
  0
SPLINE
  5
3C3
100
AcDbEntity
  8
0
100
AcDbSpline
 62
7
  6
BYLAYER
 70
0
 71
3
 72
11
 73
7
 74
0
 42
0.0000001
 43
0.0000001
 44
0.0000000001
 40
0.0
 40
0.0
 40
0.0
 40
0.0
 40
0.2209557044
 40
0.4752676246
 40
0.7548191735
 40
1.0
 40
1.0
 40
1.0
 40
1.0
 10
113.2971002072
 20
122.4700315962
 30
0.0
 10
113.2344209839
 20
122.4338439458
 30
0.0
 10
113.093027894
 20
122.3666971417
 30
0.0
 10
112.8511209186
 20
122.3061572233
 30
0.0
 10
112.5917500241
 20
122.3125042784
 30
0.0
 10
112.4271510639
 20
122.3733199509
 30
0.0
 10
112.3575995319
 20
122.4134746382
 30
0.0
  0
SPLINE
  5
3C4
100
AcDbEntity
  8
0
100
AcDbSpline
 62
7
  6
BYLAYER
 70
0
 71
3
 72
17
 73
13
 74
0
 42
0.0000001
 43
0.0000001
 44
0.0000000001
 40
0.0
 40
0.0
 40
0.0
 40
0.0
 40
0.1412755669
 40
0.2658200684
 40
0.3222243613
 40
0.3758689578
 40
0.4284303845
 40
0.4816416353
 40
0.5944836376
 40
0.7192867529
 40
0.855168617
 40
1.0
 40
1.0
 40
1.0
 40
1.0
 10
119.3471651311
 20
126.4488781303
 30
0.0
 10
119.3770704229
 20
126.4316080845
 30
0.0
 10
119.4312490908
 20
126.3951817976
 30
0.0
 10
119.4858125774
 20
126.3365316374
 30
0.0
 10
119.5118965139
 20
126.2850290772
 30
0.0
 10
119.5219148733
 20
126.2462137212
 30
0.0
 10
119.5228089604
 20
126.2069141762
 30
0.0
 10
119.5121496837
 20
126.1541529377
 30
0.0
 10
119.4778560742
 20
126.0903157911
 30
0.0
 10
119.4158450123
 20
126.0226512951
 30
0.0
 10
119.3380233733
 20
125.96079152
 30
0.0
 10
119.2798716705
 20
125.9241663057
 30
0.0
 10
119.2492120289
 20
125.906464446
 30
0.0
  0
SPLINE
  5
3C5
100
AcDbEntity
  8
0
100
AcDbSpline
 62
7
  6
BYLAYER
 70
0
 71
3
 72
11
 73
7
 74
0
 42
0.0000001
 43
0.0000001
 44
0.0000000001
 40
0.0
 40
0.0
 40
0.0
 40
0.0
 40
0.2209557044
 40
0.4752676246
 40
0.7548191735
 40
1.0
 40
1.0
 40
1.0
 40
1.0
 10
97.4601819462
 20
138.4860822406
 30
0.0
 10
97.5228611694
 20
138.522269891
 30
0.0
 10
97.6642542593
 20
138.5894166951
 30
0.0
 10
97.9061612348
 20
138.6499566135
 30
0.0
 10
98.1655321292
 20
138.6436095584
 30
0.0
 10
98.3301310894
 20
138.582793886
 30
0.0
 10
98.3996826214
 20
138.5426391987
 30
0.0
  0
SPLINE
  5
3C6
100
AcDbEntity
  8
0
100
AcDbSpline
 62
7
  6
BYLAYER
 70
0
 71
3
 72
17
 73
13
 74
0
 42
0.0000001
 43
0.0000001
 44
0.0000000001
 40
0.0
 40
0.0
 40
0.0
 40
0.0
 40
0.1412757841
 40
0.2658200285
 40
0.3222243259
 40
0.3758689176
 40
0.4284303547
 40
0.4816416038
 40
0.5944836327
 40
0.7192867395
 40
0.8551685316
 40
1.0
 40
1.0
 40
1.0
 40
1.0
 10
91.4101170222
 20
134.5072357065
 30
0.0
 10
91.3802103915
 20
134.5245035345
 30
0.0
 10
91.3260338091
 20
134.5609332992
 30
0.0
 10
91.2714694604
 20
134.619582135
 30
0.0
 10
91.2453856551
 20
134.671084783
 30
0.0
 10
91.2353672755
 20
134.7099001107
 30
0.0
 10
91.2344731929
 20
134.7491996619
 30
0.0
 10
91.2451324744
 20
134.8019608967
 30
0.0
 10
91.2794260502
 20
134.8657980892
 30
0.0
 10
91.3414372127
 20
134.9334623769
 30
0.0
 10
91.4192584336
 20
134.9953229038
 30
0.0
 10
91.4774114217
 20
135.0319458688
 30
0.0
 10
91.5080701244
 20
135.0496493909
 30
0.0
  0
SPLINE
  5
3C7
100
AcDbEntity
  8
0
100
AcDbSpline
 62
7
  6
BYLAYER
 70
0
 71
3
 72
13
 73
9
 74
0
 42
0.0000001
 43
0.0000001
 44
0.0000000001
 40
0.0
 40
0.0
 40
0.0
 40
0.0
 40
0.2381452254
 40
0.3751364656
 40
0.5105222563
 40
0.6390792684
 40
0.7625279647
 40
1.0
 40
1.0
 40
1.0
 40
1.0
 10
98.1968935719
 20
138.3517281887
 30
0.0
 10
98.1692104076
 20
138.3901454407
 30
0.0
 10
98.1064163917
 20
138.4434563824
 30
0.0
 10
98.0012557616
 20
138.4473317257
 30
0.0
 10
97.9252689431
 20
138.419590151
 30
0.0
 10
97.860246333
 20
138.3776664482
 30
0.0
 10
97.7864739343
 20
138.3138820253
 30
0.0
 10
97.7391393083
 20
138.2594709872
 30
0.0
 10
97.710182987
 20
138.2221733271
 30
0.0
  0
SPLINE
  5
3C8
100
AcDbEntity
  8
0
100
AcDbSpline
 62
7
  6
BYLAYER
 70
0
 71
3
 72
10
 73
6
 74
0
 42
0.0000001
 43
0.0000001
 44
0.0000000001
 40
0.0
 40
0.0
 40
0.0
 40
0.0
 40
0.2264338936
 40
0.4750626195
 40
1.0
 40
1.0
 40
1.0
 40
1.0
 10
97.4601819461
 20
138.4860822406
 30
0.0
 10
97.4841647622
 20
138.4722360686
 30
0.0
 10
97.5319335622
 20
138.4386673601
 30
0.0
 10
97.62157718
 20
138.3551227608
 30
0.0
 10
97.6780829919
 20
138.277771841
 30
0.0
 10
97.710182987
 20
138.2221733271
 30
0.0
  0
SPLINE
  5
3C9
100
AcDbEntity
  8
0
100
AcDbSpline
 62
7
  6
BYLAYER
 70
0
 71
3
 72
9
 73
5
 74
0
 42
0.0000001
 43
0.0000001
 44
0.0000000001
 40
0.0
 40
0.0
 40
0.0
 40
0.0
 40
0.4807995516
 40
1.0
 40
1.0
 40
1.0
 40
1.0
 10
97.1025521451
 20
134.5937742782
 30
0.0
 10
97.1518096818
 20
134.6571427245
 30
0.0
 10
97.2459911691
 20
134.7953044196
 30
0.0
 10
97.3317509879
 20
134.9385546034
 30
0.0
 10
97.3747436277
 20
135.0138114907
 30
0.0
  0
SPLINE
  5
3CA
100
AcDbEntity
  8
0
100
AcDbSpline
 62
7
  6
BYLAYER
 70
0
 71
3
 72
9
 73
5
 74
0
 42
0.0000001
 43
0.0000001
 44
0.0000000001
 40
0.0
 40
0.0
 40
0.0
 40
0.0
 40
0.5276366127
 40
1.0
 40
1.0
 40
1.0
 40
1.0
 10
98.1968935719
 20
138.3517281887
 30
0.0
 10
98.2257102773
 20
138.3916648571
 30
0.0
 10
98.2869993186
 20
138.462802824
 30
0.0
 10
98.3615006016
 20
138.5205949308
 30
0.0
 10
98.3996826214
 20
138.5426391987
 30
0.0
  0
SPLINE
  5
3CB
100
AcDbEntity
  8
0
100
AcDbSpline
 62
7
  6
BYLAYER
 70
0
 71
3
 72
9
 73
5
 74
0
 42
0.0000001
 43
0.0000001
 44
0.0000000001
 40
0.0
 40
0.0
 40
0.0
 40
0.0
 40
0.4606316811
 40
1.0
 40
1.0
 40
1.0
 40
1.0
 10
112.5603885814
 20
122.4567228551
 30
0.0
 10
112.5288290411
 20
122.4640191792
 30
0.0
 10
112.4558767661
 20
122.4609844823
 30
0.0
 10
112.3904468957
 20
122.4324389593
 30
0.0
 10
112.3575995319
 20
122.4134746382
 30
0.0
  0
SPLINE
  5
3CC
100
AcDbEntity
  8
0
100
AcDbSpline
 62
7
  6
BYLAYER
 70
0
 71
3
 72
11
 73
7
 74
0
 42
0.0000001
 43
0.0000001
 44
0.0000000001
 40
0.0
 40
0.0
 40
0.0
 40
0.0
 40
0.2871769494
 40
0.5490774396
 40
0.7841805633
 40
1.0
 40
1.0
 40
1.0
 40
1.0
 10
113.2971002072
 20
122.4700315962
 30
0.0
 10
113.2753551893
 20
122.4825858041
 30
0.0
 10
113.2316946048
 20
122.503236357
 30
0.0
 10
113.1644997084
 20
122.519785952
 30
0.0
 10
113.1013384524
 20
122.5178746072
 30
0.0
 10
113.0634407892
 20
122.5042275987
 30
0.0
 10
113.0470991663
 20
122.4947924886
 30
0.0
  0
SPLINE
  5
3CD
100
AcDbEntity
  8
0
100
AcDbSpline
 62
7
  6
BYLAYER
 70
0
 71
3
 72
10
 73
6
 74
0
 42
0.0000001
 43
0.0000001
 44
0.0000000001
 40
0.0
 40
0.0
 40
0.0
 40
0.0
 40
0.5249373805
 40
0.7735661064
 40
1.0
 40
1.0
 40
1.0
 40
1.0
 10
91.7580711653
 20
134.7857404774
 30
0.0
 10
91.7259711702
 20
134.8413389912
 30
0.0
 10
91.6694653583
 20
134.9186899111
 30
0.0
 10
91.5798217405
 20
135.0022345103
 30
0.0
 10
91.5320529405
 20
135.0358032188
 30
0.0
 10
91.5080701244
 20
135.0496493909
 30
0.0
  0
SPLINE
  5
3CE
100
AcDbEntity
  8
0
100
AcDbSpline
 62
7
  6
BYLAYER
 70
0
 71
3
 72
9
 73
5
 74
0
 42
0.0000001
 43
0.0000001
 44
0.0000000001
 40
0.0
 40
0.0
 40
0.0
 40
0.0
 40
0.5460102586
 40
1.0
 40
1.0
 40
1.0
 40
1.0
 10
91.4101170222
 20
134.5072357065
 30
0.0
 10
91.4433702159
 20
134.5264343323
 30
0.0
 10
91.508903987
 20
134.5549174366
 30
0.0
 10
91.5818003433
 20
134.5576753298
 30
0.0
 10
91.6129060717
 20
134.5504839235
 30
0.0
  0
SPLINE
  5
3CF
100
AcDbEntity
  8
0
100
AcDbSpline
 62
7
  6
BYLAYER
 70
0
 71
3
 72
9
 73
5
 74
0
 42
0.0000001
 43
0.0000001
 44
0.0000000001
 40
0.0
 40
0.0
 40
0.0
 40
0.0
 40
0.2473880228
 40
1.0
 40
1.0
 40
1.0
 40
1.0
 10
60.5173498041
 20
116.7992952404
 30
0.0
 10
60.515745006
 20
116.8106259806
 30
0.0
 10
60.5081022499
 20
116.8562588163
 30
0.0
 10
60.4958387086
 20
116.9010975372
 30
0.0
 10
60.4843286306
 20
116.9339545961
 30
0.0
  0
SPLINE
  5
3D0
100
AcDbEntity
  8
0
100
AcDbSpline
 62
7
  6
BYLAYER
 70
0
 71
3
 72
11
 73
7
 74
0
 42
0.0000001
 43
0.0000001
 44
0.0000000001
 40
0.0
 40
0.0
 40
0.0
 40
0.0
 40
0.2210626395
 40
0.4594135901
 40
0.7188080964
 40
1.0
 40
1.0
 40
1.0
 40
1.0
 10
60.4843286306
 20
116.9339545961
 30
0.0
 10
60.4644021041
 20
116.9908375345
 30
0.0
 10
60.4084612691
 20
117.1042818382
 30
0.0
 10
60.2867753125
 20
117.259317831
 30
0.0
 10
60.127991489
 20
117.4016953205
 30
0.0
 10
60.0046195114
 20
117.4832833107
 30
0.0
 10
59.9382241994
 20
117.5216157947
 30
0.0
  0
SPLINE
  5
3D1
100
AcDbEntity
  8
0
100
AcDbSpline
 62
7
  6
BYLAYER
 70
0
 71
3
 72
18
 73
14
 74
0
 42
0.0000001
 43
0.0000001
 44
0.0000000001
 40
0.0
 40
0.0
 40
0.0
 40
0.0
 40
0.0428455822
 40
0.0874622168
 40
0.1352833547
 40
0.1872328375
 40
0.2437254133
 40
0.3047322981
 40
0.4383664926
 40
0.582672644
 40
0.729789722
 40
0.8713404653
 40
1.0
 40
1.0
 40
1.0
 40
1.0
 10
60.5240029853
 20
116.9500782116
 30
0.0
 10
60.5240025362
 20
116.8931471343
 30
0.0
 10
60.5087889733
 20
116.7764363232
 30
0.0
 10
60.4418550529
 20
116.6079122822
 30
0.0
 10
60.3332294444
 20
116.4481619705
 30
0.0
 10
60.186030139
 20
116.3003181767
 30
0.0
 10
60.0036044996
 20
116.1670104696
 30
0.0
 10
59.7097357265
 20
116.0072639878
 30
0.0
 10
59.279148567
 20
115.8634331995
 30
0.0
 10
58.7172888239
 20
115.7845371539
 30
0.0
 10
58.1393732095
 20
115.800514929
 30
0.0
 10
57.5930758214
 20
115.9098100576
 30
0.0
 10
57.2578622614
 20
116.0481131615
 30
0.0
 10
57.1098088505
 20
116.1335899044
 30
0.0
  0
SPLINE
  5
3D2
100
AcDbEntity
  8
0
100
AcDbSpline
 62
7
  6
BYLAYER
 70
0
 71
3
 72
17
 73
13
 74
0
 42
0.0000001
 43
0.0000001
 44
0.0000000001
 40
0.0
 40
0.0
 40
0.0
 40
0.0
 40
0.1247951624
 40
0.2616216449
 40
0.4045877594
 40
0.5467991766
 40
0.6814916546
 40
0.8031023239
 40
0.8580380085
 40
0.9088873636
 40
0.9559731832
 40
1.0
 40
1.0
 40
1.0
 40
1.0
 10
59.9382241994
 20
117.5216157947
 30
0.0
 10
59.8023239745
 20
117.6000760512
 30
0.0
 10
59.4969248024
 20
117.7298128907
 30
0.0
 10
58.9982934831
 20
117.8410456899
 30
0.0
 10
58.4664302831
 20
117.8731622343
 30
0.0
 10
57.9385767136
 20
117.8236514736
 30
0.0
 10
57.4515945311
 20
117.6961235364
 30
0.0
 10
57.0952608173
 20
117.5259426124
 30
0.0
 10
56.8644197305
 20
117.3558543827
 30
0.0
 10
56.7271425704
 20
117.2201546705
 30
0.0
 10
56.6224738548
 20
117.074411873
 30
0.0
 10
56.5748038166
 20
116.9691274522
 30
0.0
 10
56.5578081256
 20
116.9164394566
 30
0.0
  0
SPLINE
  5
3D3
100
AcDbEntity
  8
0
100
AcDbSpline
 62
7
  6
BYLAYER
 70
0
 71
3
 72
12
 73
8
 74
0
 42
0.0000001
 43
0.0000001
 44
0.0000000001
 40
0.0
 40
0.0
 40
0.0
 40
0.0
 40
0.2895581753
 40
0.5486558726
 40
0.7816359858
 40
0.8918418637
 40
1.0
 40
1.0
 40
1.0
 40
1.0
 10
57.1098088505
 20
116.1335899044
 30
0.0
 10
57.0220271375
 20
116.1842695535
 30
0.0
 10
56.8627953225
 20
116.2939554336
 30
0.0
 10
56.6725230546
 20
116.4937533321
 30
0.0
 10
56.5704226527
 20
116.6820725321
 30
0.0
 10
56.5305940242
 20
116.8356164864
 30
0.0
 10
56.5240297659
 20
116.9122170168
 30
0.0
 10
56.5240300646
 20
116.9500782127
 30
0.0
  0
SPLINE
  5
3D4
100
AcDbEntity
  8
0
100
AcDbSpline
 62
7
  6
BYLAYER
 70
0
 71
3
 72
18
 73
14
 74
0
 42
0.0000001
 43
0.0000001
 44
0.0000000001
 40
0.0
 40
0.0
 40
0.0
 40
0.0
 40
0.0428455822
 40
0.0874622168
 40
0.1352833547
 40
0.1872328375
 40
0.2437254133
 40
0.3047322981
 40
0.4383664926
 40
0.582672644
 40
0.729789722
 40
0.8713404653
 40
1.0
 40
1.0
 40
1.0
 40
1.0
 10
56.5240300646
 20
116.9500782127
 30
0.0
 10
56.5240305137
 20
117.00700929
 30
0.0
 10
56.5392440766
 20
117.1237201011
 30
0.0
 10
56.6061779969
 20
117.2922441421
 30
0.0
 10
56.7148036055
 20
117.4519944538
 30
0.0
 10
56.8620029108
 20
117.5998382476
 30
0.0
 10
57.0444285502
 20
117.7331459547
 30
0.0
 10
57.3382973234
 20
117.8928924365
 30
0.0
 10
57.7688844828
 20
118.0367232248
 30
0.0
 10
58.3307442259
 20
118.1156192704
 30
0.0
 10
58.9086598404
 20
118.0996414953
 30
0.0
 10
59.4549572285
 20
117.9903463667
 30
0.0
 10
59.7901707884
 20
117.8520432628
 30
0.0
 10
59.9382241994
 20
117.7665665199
 30
0.0
  0
SPLINE
  5
3D5
100
AcDbEntity
  8
0
100
AcDbSpline
 62
7
  6
BYLAYER
 70
0
 71
3
 72
12
 73
8
 74
0
 42
0.0000001
 43
0.0000001
 44
0.0000000001
 40
0.0
 40
0.0
 40
0.0
 40
0.0
 40
0.2895581753
 40
0.5486558726
 40
0.7816359858
 40
0.8918418637
 40
1.0
 40
1.0
 40
1.0
 40
1.0
 10
59.9382241994
 20
117.7665665199
 30
0.0
 10
60.0260059124
 20
117.7158868708
 30
0.0
 10
60.1852377274
 20
117.6062009907
 30
0.0
 10
60.3755099952
 20
117.4064030922
 30
0.0
 10
60.4776103971
 20
117.2180838921
 30
0.0
 10
60.5174390257
 20
117.0645399379
 30
0.0
 10
60.524003284
 20
116.9879394075
 30
0.0
 10
60.5240029853
 20
116.9500782116
 30
0.0
  0
SPLINE
  5
3D6
100
AcDbEntity
  8
0
100
AcDbSpline
 62
7
  6
BYLAYER
 70
0
 71
3
 72
11
 73
7
 74
0
 42
0.0000001
 43
0.0000001
 44
0.0000000001
 40
0.0
 40
0.0
 40
0.0
 40
0.0
 40
0.2177843137
 40
0.4509117637
 40
0.7102976701
 40
1.0
 40
1.0
 40
1.0
 40
1.0
 10
89.1101389772
 20
134.0792483248
 30
0.0
 10
89.1431248411
 20
134.098292594
 30
0.0
 10
89.2189149916
 20
134.1257974603
 30
0.0
 10
89.3448011402
 20
134.1289848733
 30
0.0
 10
89.4789662717
 20
134.0965863858
 30
0.0
 10
89.5662554198
 20
134.0550612449
 30
0.0
 10
89.6101342438
 20
134.0297283672
 30
0.0
  0
SPLINE
  5
3D7
100
AcDbEntity
  8
0
100
AcDbSpline
 62
7
  6
BYLAYER
 70
0
 71
3
 72
13
 73
9
 74
0
 42
0.0000001
 43
0.0000001
 44
0.0000000001
 40
0.0
 40
0.0
 40
0.0
 40
0.0
 40
0.1142250362
 40
0.2375584228
 40
0.4999988469
 40
0.762439898
 40
0.8857740437
 40
1.0
 40
1.0
 40
1.0
 40
1.0
 10
111.5305357234
 20
121.374264977
 30
0.0
 10
111.5789295301
 20
121.3463254318
 30
0.0
 10
111.6745502823
 20
121.2792818946
 30
0.0
 10
111.8535810678
 20
121.1117517282
 30
0.0
 10
112.0426679167
 20
120.8534502642
 30
0.0
 10
112.1718216217
 20
120.5605458096
 30
0.0
 10
112.2273933744
 20
120.3217347827
 30
0.0
 10
112.2376454485
 20
120.2054022941
 30
0.0
 10
112.2376454485
 20
120.1495218054
 30
0.0
  0
SPLINE
  5
3D8
100
AcDbEntity
  8
0
100
AcDbSpline
 62
7
  6
BYLAYER
 70
0
 71
3
 72
11
 73
7
 74
0
 42
0.0000001
 43
0.0000001
 44
0.0000000001
 40
0.0
 40
0.0
 40
0.0
 40
0.0
 40
0.2177434119
 40
0.4508805377
 40
0.710457812
 40
1.0
 40
1.0
 40
1.0
 40
1.0
 10
88.7224939658
 20
110.9080929921
 30
0.0
 10
88.7224939599
 20
110.9271334788
 30
0.0
 10
88.7155018613
 20
110.9668311122
 30
0.0
 10
88.6853878569
 20
111.022151364
 30
0.0
 10
88.6377909507
 20
111.0721196148
 30
0.0
 10
88.5980007975
 20
111.0995558329
 30
0.0
 10
88.5760738609
 20
111.1122150693
 30
0.0
  0
SPLINE
  5
3D9
100
AcDbEntity
  8
0
100
AcDbSpline
 62
7
  6
BYLAYER
 70
0
 71
3
 72
11
 73
7
 74
0
 42
0.0000001
 43
0.0000001
 44
0.0000000001
 40
0.0
 40
0.0
 40
0.0
 40
0.0
 40
0.2177438688
 40
0.4508811915
 40
0.7104582954
 40
1.0
 40
1.0
 40
1.0
 40
1.0
 10
88.7224939658
 20
109.1117876748
 30
0.0
 10
88.7224939616
 20
109.0927473935
 30
0.0
 10
88.7155020224
 20
109.0530502179
 30
0.0
 10
88.6853886696
 20
108.9977305014
 30
0.0
 10
88.6377927284
 20
108.9477626211
 30
0.0
 10
88.5980033311
 20
108.9203265076
 30
0.0
 10
88.5760768049
 20
108.9076672974
 30
0.0
  0
SPLINE
  5
3DA
100
AcDbEntity
  8
0
100
AcDbSpline
 62
7
  6
BYLAYER
 70
0
 71
3
 72
11
 73
7
 74
0
 42
0.0000001
 43
0.0000001
 44
0.0000000001
 40
0.0
 40
0.0
 40
0.0
 40
0.0
 40
0.2372524156
 40
0.4999996414
 40
0.7627470637
 40
1.0
 40
1.0
 40
1.0
 40
1.0
 10
39.3615908554
 20
88.6587232719
 30
0.0
 10
39.3113938164
 20
88.6297421708
 30
0.0
 10
39.194668319
 20
88.5874450412
 30
0.0
 10
39.0080379181
 20
88.5672229193
 30
0.0
 10
38.8214073003
 20
88.5874442296
 30
0.0
 10
38.7046814325
 20
88.6297407695
 30
0.0
 10
38.6544840743
 20
88.6587215722
 30
0.0
  0
SPLINE
  5
3DB
100
AcDbEntity
  8
0
100
AcDbSpline
 62
7
  6
BYLAYER
 70
0
 71
3
 72
15
 73
11
 74
0
 42
0.0000001
 43
0.0000001
 44
0.0000000001
 40
0.0
 40
0.0
 40
0.0
 40
0.0
 40
0.1141549974
 40
0.2373268943
 40
0.3669765742
 40
0.5000005394
 40
0.633024429
 40
0.7626738905
 40
0.8858454396
 40
1.0
 40
1.0
 40
1.0
 40
1.0
 10
51.4530959115
 20
91.5572737611
 30
0.0
 10
51.2110590588
 20
91.6970106419
 30
0.0
 10
50.6818026774
 20
91.9434610681
 30
0.0
 10
49.8199407136
 20
92.2054102778
 30
0.0
 10
48.8868418885
 20
92.3666481783
 30
0.0
 10
47.9175559174
 20
92.421046231
 30
0.0
 10
46.9482707382
 20
92.366643554
 30
0.0
 10
46.0151742656
 20
92.2054012018
 30
0.0
 10
45.153316093
 20
91.9434479078
 30
0.0
 10
44.6240630181
 20
91.6969948555
 30
0.0
 10
44.3820280997
 20
91.5572567643
 30
0.0
  0
SPLINE
  5
3DC
100
AcDbEntity
  8
0
100
AcDbSpline
 62
7
  6
BYLAYER
 70
0
 71
3
 72
11
 73
7
 74
0
 42
0.0000001
 43
0.0000001
 44
0.0000000001
 40
0.0
 40
0.0
 40
0.0
 40
0.0
 40
0.2372524156
 40
0.4999996414
 40
0.7627470637
 40
1.0
 40
1.0
 40
1.0
 40
1.0
 10
55.3421964558
 20
89.7201920654
 30
0.0
 10
55.2919994167
 20
89.6912109644
 30
0.0
 10
55.1752739194
 20
89.6489138348
 30
0.0
 10
54.9886435185
 20
89.6286917129
 30
0.0
 10
54.8020129007
 20
89.6489130232
 30
0.0
 10
54.6852870329
 20
89.6912095631
 30
0.0
 10
54.6350896746
 20
89.7201903658
 30
0.0
  0
SPLINE
  5
3DD
100
AcDbEntity
  8
0
100
AcDbSpline
 62
7
  6
BYLAYER
 70
0
 71
3
 72
9
 73
5
 74
0
 42
0.0000001
 43
0.0000001
 44
0.0000000001
 40
0.0
 40
0.0
 40
0.0
 40
0.0
 40
0.2556694219
 40
1.0
 40
1.0
 40
1.0
 40
1.0
 10
85.0881453287
 20
115.0421491477
 30
0.0
 10
85.0586026395
 20
115.0216658826
 30
0.0
 10
84.9441232678
 20
114.9400226127
 30
0.0
 10
84.8340284421
 20
114.8521797759
 30
0.0
 10
84.7553007181
 20
114.7832207303
 30
0.0
  0
SPLINE
  5
3DE
100
AcDbEntity
  8
0
100
AcDbSpline
 62
7
  6
BYLAYER
 70
0
 71
3
 72
10
 73
6
 74
0
 42
0.0000001
 43
0.0000001
 44
0.0000000001
 40
0.0
 40
0.0
 40
0.0
 40
0.0
 40
0.2271059187
 40
0.5955648096
 40
1.0
 40
1.0
 40
1.0
 40
1.0
 10
31.4140378986
 20
102.7324513767
 30
0.0
 10
31.3502567381
 20
102.835789562
 30
0.0
 10
31.1609323488
 20
103.0935152974
 30
0.0
 10
30.7716640812
 20
103.4648320024
 30
0.0
 10
30.4270890372
 20
103.6963698669
 30
0.0
 10
30.2398041571
 20
103.8044963967
 30
0.0
  0
SPLINE
  5
3DF
100
AcDbEntity
  8
0
100
AcDbSpline
 62
7
  6
BYLAYER
 70
0
 71
3
 72
9
 73
5
 74
0
 42
0.0000001
 43
0.0000001
 44
0.0000000001
 40
0.0
 40
0.0
 40
0.0
 40
0.0
 40
0.4903662599
 40
1.0
 40
1.0
 40
1.0
 40
1.0
 10
31.704276435
 20
103.559580945
 30
0.0
 10
31.7042764382
 20
103.420993471
 30
0.0
 10
31.6683179177
 20
103.1373356544
 30
0.0
 10
31.5655065331
 20
102.8711429309
 30
0.0
 10
31.4999724065
 20
102.7428824859
 30
0.0
  0
SPLINE
  5
3E0
100
AcDbEntity
  8
0
100
AcDbSpline
 62
7
  6
BYLAYER
 70
0
 71
3
 72
11
 73
7
 74
0
 42
0.0000001
 43
0.0000001
 44
0.0000000001
 40
0.0
 40
0.0
 40
0.0
 40
0.0
 40
0.2895421522
 40
0.5491196247
 40
0.782256727
 40
1.0
 40
1.0
 40
1.0
 40
1.0
 10
27.0578103939
 20
105.6415797921
 30
0.0
 10
27.0358834604
 20
105.6542390266
 30
0.0
 10
26.9960933149
 20
105.6816752751
 30
0.0
 10
26.9484963734
 20
105.7316435107
 30
0.0
 10
26.918382396
 20
105.7869637784
 30
0.0
 10
26.9113902847
 20
105.8266613946
 30
0.0
 10
26.911390289
 20
105.8457018688
 30
0.0
  0
SPLINE
  5
3E1
100
AcDbEntity
  8
0
100
AcDbSpline
 62
7
  6
BYLAYER
 70
0
 71
3
 72
12
 73
8
 74
0
 42
0.0000001
 43
0.0000001
 44
0.0000000001
 40
0.0
 40
0.0
 40
0.0
 40
0.0
 40
0.1081611056
 40
0.2183619689
 40
0.4513635024
 40
0.7104173283
 40
1.0
 40
1.0
 40
1.0
 40
1.0
 10
37.6440369865
 20
97.6809669133
 30
0.0
 10
37.6440369888
 20
97.5863121292
 30
0.0
 10
37.6275437801
 20
97.3948252781
 30
0.0
 10
37.5281310248
 20
97.0109135234
 30
0.0
 10
37.2727413083
 20
96.5401984099
 30
0.0
 10
36.7971600494
 20
96.0406484139
 30
0.0
 10
36.3990642181
 20
95.7664734882
 30
0.0
 10
36.1795941483
 20
95.6397631407
 30
0.0
  0
SPLINE
  5
3E2
100
AcDbEntity
  8
0
100
AcDbSpline
 62
7
  6
BYLAYER
 70
0
 71
3
 72
11
 73
7
 74
0
 42
0.0000001
 43
0.0000001
 44
0.0000000001
 40
0.0
 40
0.0
 40
0.0
 40
0.0
 40
0.2895416688
 40
0.549118971
 40
0.7822562702
 40
1.0
 40
1.0
 40
1.0
 40
1.0
 10
25.2193963525
 20
98.6198436799
 30
0.0
 10
25.1974698293
 20
98.6071844715
 30
0.0
 10
25.1576804398
 20
98.5797483277
 30
0.0
 10
25.1100844633
 20
98.5297804626
 30
0.0
 10
25.0799711375
 20
98.4744607301
 30
0.0
 10
25.0729791856
 20
98.4347635718
 30
0.0
 10
25.0729791916
 20
98.4157233029
 30
0.0
  0
SPLINE
  5
3E3
100
AcDbEntity
  8
0
100
AcDbSpline
 62
7
  6
BYLAYER
 70
0
 71
3
 72
11
 73
7
 74
0
 42
0.0000001
 43
0.0000001
 44
0.0000000001
 40
0.0
 40
0.0
 40
0.0
 40
0.0
 40
0.2895416688
 40
0.549118971
 40
0.7822562702
 40
1.0
 40
1.0
 40
1.0
 40
1.0
 10
27.0578074499
 20
107.8461275639
 30
0.0
 10
27.0358809268
 20
107.8334683555
 30
0.0
 10
26.9960915373
 20
107.8060322117
 30
0.0
 10
26.9484955608
 20
107.7560643466
 30
0.0
 10
26.9183822349
 20
107.7007446141
 30
0.0
 10
26.9113902831
 20
107.6610474557
 30
0.0
 10
26.911390289
 20
107.6420071869
 30
0.0
  0
SPLINE
  5
3E4
100
AcDbEntity
  8
0
100
AcDbSpline
 62
7
  6
BYLAYER
 70
0
 71
3
 72
12
 73
8
 74
0
 42
0.0000001
 43
0.0000001
 44
0.0000000001
 40
0.0
 40
0.0
 40
0.0
 40
0.0
 40
0.2895831544
 40
0.5486371605
 40
0.781638491
 40
0.891839144
 40
1.0
 40
1.0
 40
1.0
 40
1.0
 10
75.7773795926
 20
122.5838602995
 30
0.0
 10
75.5579054133
 20
122.7105709094
 30
0.0
 10
75.1598020216
 20
122.9847469029
 30
0.0
 10
74.6842110897
 20
123.4843005903
 30
0.0
 10
74.4288157992
 20
123.9550204485
 30
0.0
 10
74.3294008754
 20
124.3389363581
 30
0.0
 10
74.312907317
 20
124.5304252826
 30
0.0
 10
74.3129073147
 20
124.6250810689
 30
0.0
  0
SPLINE
  5
3E5
100
AcDbEntity
  8
0
100
AcDbSpline
 62
7
  6
BYLAYER
 70
0
 71
3
 72
15
 73
11
 74
0
 42
0.0000001
 43
0.0000001
 44
0.0000000001
 40
0.0
 40
0.0
 40
0.0
 40
0.0
 40
0.1141545727
 40
0.2373261359
 40
0.366975604
 40
0.4999994966
 40
0.6330234588
 40
0.7626731321
 40
0.8858450149
 40
1.0
 40
1.0
 40
1.0
 40
1.0
 10
82.8484474044
 20
122.5838772963
 30
0.0
 10
82.6064124599
 20
122.44413919
 30
0.0
 10
82.0771593212
 20
122.1976861203
 30
0.0
 10
81.2153010675
 20
121.9357328137
 30
0.0
 10
80.2822045318
 20
121.7744904827
 30
0.0
 10
79.3129193354
 20
121.7200878296
 30
0.0
 10
78.3436333815
 20
121.7744859062
 30
0.0
 10
77.4105346195
 20
121.9357238278
 30
0.0
 10
76.5486727367
 20
122.197673025
 30
0.0
 10
76.0194164192
 20
122.4441234338
 30
0.0
 10
75.7773795926
 20
122.5838602995
 30
0.0
  0
SPLINE
  5
3E6
100
AcDbEntity
  8
0
100
AcDbSpline
 62
7
  6
BYLAYER
 70
0
 71
3
 72
11
 73
7
 74
0
 42
0.0000001
 43
0.0000001
 44
0.0000000001
 40
0.0
 40
0.0
 40
0.0
 40
0.0
 40
0.2232169691
 40
0.460691252
 40
0.7186847815
 40
1.0
 40
1.0
 40
1.0
 40
1.0
 10
83.9482908748
 20
115.2397649748
 30
0.0
 10
83.9705735332
 20
115.3880492905
 30
0.0
 10
84.0578503062
 20
115.6890028937
 30
0.0
 10
84.3004003796
 20
116.1107705152
 30
0.0
 10
84.6486718316
 20
116.5033463396
 30
0.0
 10
84.9328449072
 20
116.7307777505
 30
0.0
 10
85.0881453287
 20
116.8384544654
 30
0.0
  0
SPLINE
  5
3E7
100
AcDbEntity
  8
0
100
AcDbSpline
 62
7
  6
BYLAYER
 70
0
 71
3
 72
12
 73
8
 74
0
 42
0.0000001
 43
0.0000001
 44
0.0000000001
 40
0.0
 40
0.0
 40
0.0
 40
0.0
 40
0.2895831544
 40
0.5486371605
 40
0.781638491
 40
0.891839144
 40
1.0
 40
1.0
 40
1.0
 40
1.0
 10
30.2398041571
 20
105.6008017144
 30
0.0
 10
30.4592783364
 20
105.4740911045
 30
0.0
 10
30.8573817281
 20
105.199915111
 30
0.0
 10
31.3329726599
 20
104.7003614236
 30
0.0
 10
31.5883679505
 20
104.2296415654
 30
0.0
 10
31.6877828743
 20
103.8457256558
 30
0.0
 10
31.7042764327
 20
103.6542367313
 30
0.0
 10
31.704276435
 20
103.559580945
 30
0.0
  0
SPLINE
  5
3E8
100
AcDbEntity
  8
0
100
AcDbSpline
 62
7
  6
BYLAYER
 70
0
 71
3
 72
12
 73
8
 74
0
 42
0.0000001
 43
0.0000001
 44
0.0000000001
 40
0.0
 40
0.0
 40
0.0
 40
0.0
 40
0.1081611056
 40
0.2183619689
 40
0.4513635024
 40
0.7104173283
 40
1.0
 40
1.0
 40
1.0
 40
1.0
 10
74.3129073147
 20
124.6250810689
 30
0.0
 10
74.3129073125
 20
124.719735853
 30
0.0
 10
74.3294005211
 20
124.9112227041
 30
0.0
 10
74.4288132765
 20
125.2951344588
 30
0.0
 10
74.6842029929
 20
125.7658495723
 30
0.0
 10
75.1597842519
 20
126.2653995683
 30
0.0
 10
75.5578800832
 20
126.539574494
 30
0.0
 10
75.777350153
 20
126.6662848415
 30
0.0
  0
SPLINE
  5
3E9
100
AcDbEntity
  8
0
100
AcDbSpline
 62
7
  6
BYLAYER
 70
0
 71
3
 72
11
 73
7
 74
0
 42
0.0000001
 43
0.0000001
 44
0.0000000001
 40
0.0
 40
0.0
 40
0.0
 40
0.0
 40
0.2177434119
 40
0.4508805377
 40
0.710457812
 40
1.0
 40
1.0
 40
1.0
 40
1.0
 10
26.911390289
 20
107.6420071869
 30
0.0
 10
26.9113902949
 20
107.6229667002
 30
0.0
 10
26.9183823935
 20
107.5832690668
 30
0.0
 10
26.9484963979
 20
107.527948815
 30
0.0
 10
26.9960933041
 20
107.4779805642
 30
0.0
 10
27.0358834573
 20
107.4505443461
 30
0.0
 10
27.0578103939
 20
107.4378851097
 30
0.0
  0
SPLINE
  5
3EA
100
AcDbEntity
  8
0
100
AcDbSpline
 62
7
  6
BYLAYER
 70
0
 71
3
 72
11
 73
7
 74
0
 42
0.0000001
 43
0.0000001
 44
0.0000000001
 40
0.0
 40
0.0
 40
0.0
 40
0.0
 40
0.2177434119
 40
0.4508805377
 40
0.710457812
 40
1.0
 40
1.0
 40
1.0
 40
1.0
 10
25.0729791916
 20
98.4157233029
 30
0.0
 10
25.0729791975
 20
98.3966828162
 30
0.0
 10
25.0799712961
 20
98.3569851828
 30
0.0
 10
25.1100853005
 20
98.301664931
 30
0.0
 10
25.1576822066
 20
98.2516966802
 30
0.0
 10
25.1974723599
 20
98.2242604621
 30
0.0
 10
25.2193992965
 20
98.2116012258
 30
0.0
  0
SPLINE
  5
3EB
100
AcDbEntity
  8
0
100
AcDbSpline
 62
7
  6
BYLAYER
 70
0
 71
3
 72
9
 73
5
 74
0
 42
0.0000001
 43
0.0000001
 44
0.0000000001
 40
0.0
 40
0.0
 40
0.0
 40
0.0
 40
0.2379092149
 40
1.0
 40
1.0
 40
1.0
 40
1.0
 10
36.9190385822
 20
96.2386966294
 30
0.0
 10
36.8662313618
 20
96.2889598747
 30
0.0
 10
36.6369825662
 20
96.4925510854
 30
0.0
 10
36.3818107453
 20
96.6660148189
 30
0.0
 10
36.1795647086
 20
96.782778981
 30
0.0
  0
SPLINE
  5
3EC
100
AcDbEntity
  8
0
100
AcDbSpline
 62
7
  6
BYLAYER
 70
0
 71
3
 72
11
 73
7
 74
0
 42
0.0000001
 43
0.0000001
 44
0.0000000001
 40
0.0
 40
0.0
 40
0.0
 40
0.0
 40
0.2895416688
 40
0.549118971
 40
0.7822562702
 40
1.0
 40
1.0
 40
1.0
 40
1.0
 10
88.5760768049
 20
110.7039726151
 30
0.0
 10
88.598003328
 20
110.7166318236
 30
0.0
 10
88.6377927175
 20
110.7440679674
 30
0.0
 10
88.685388694
 20
110.7940358324
 30
0.0
 10
88.7155020199
 20
110.8493555649
 30
0.0
 10
88.7224939717
 20
110.8890527233
 30
0.0
 10
88.7224939658
 20
110.9080929921
 30
0.0
  0
SPLINE
  5
3ED
100
AcDbEntity
  8
0
100
AcDbSpline
 62
7
  6
BYLAYER
 70
0
 71
3
 72
11
 73
7
 74
0
 42
0.0000001
 43
0.0000001
 44
0.0000000001
 40
0.0
 40
0.0
 40
0.0
 40
0.0
 40
0.2372531816
 40
0.5000006935
 40
0.7627478297
 40
1.0
 40
1.0
 40
1.0
 40
1.0
 10
54.6350896746
 20
91.5164956834
 30
0.0
 10
54.6852870848
 20
91.4875148508
 30
0.0
 10
54.8020130412
 20
91.4452183008
 30
0.0
 10
54.9886437235
 20
91.4249970306
 30
0.0
 10
55.1752740599
 20
91.4452191925
 30
0.0
 10
55.2919994686
 20
91.487516312
 30
0.0
 10
55.3421964558
 20
91.5164973831
 30
0.0
  0
SPLINE
  5
3EE
100
AcDbEntity
  8
0
100
AcDbSpline
 62
7
  6
BYLAYER
 70
0
 71
3
 72
15
 73
11
 74
0
 42
0.0000001
 43
0.0000001
 44
0.0000000001
 40
0.0
 40
0.0
 40
0.0
 40
0.0
 40
0.1141545727
 40
0.2373261359
 40
0.366975604
 40
0.4999994966
 40
0.6330234588
 40
0.7626731321
 40
0.8858450149
 40
1.0
 40
1.0
 40
1.0
 40
1.0
 10
44.3820280997
 20
93.353562082
 30
0.0
 10
44.6240630442
 20
93.4933001883
 30
0.0
 10
45.1533161829
 20
93.739753258
 30
0.0
 10
46.0151744365
 20
94.0017065645
 30
0.0
 10
46.9482709723
 20
94.1629488956
 30
0.0
 10
47.9175561687
 20
94.2173515486
 30
0.0
 10
48.8868421226
 20
94.1629534721
 30
0.0
 10
49.8199408846
 20
94.0017155505
 30
0.0
 10
50.6818027673
 20
93.7397663533
 30
0.0
 10
51.2110590849
 20
93.4933159445
 30
0.0
 10
51.4530959115
 20
93.3535790788
 30
0.0
  0
SPLINE
  5
3EF
100
AcDbEntity
  8
0
100
AcDbSpline
 62
7
  6
BYLAYER
 70
0
 71
3
 72
11
 73
7
 74
0
 42
0.0000001
 43
0.0000001
 44
0.0000000001
 40
0.0
 40
0.0
 40
0.0
 40
0.0
 40
0.2372531816
 40
0.5000006935
 40
0.7627478297
 40
1.0
 40
1.0
 40
1.0
 40
1.0
 10
38.6544840743
 20
90.4550268899
 30
0.0
 10
38.7046814844
 20
90.4260460572
 30
0.0
 10
38.8214074408
 20
90.3837495072
 30
0.0
 10
39.0080381232
 20
90.363528237
 30
0.0
 10
39.1946684595
 20
90.383750399
 30
0.0
 10
39.3113938682
 20
90.4260475185
 30
0.0
 10
39.3615908554
 20
90.4550285895
 30
0.0
  0
SPLINE
  5
3F0
100
AcDbEntity
  8
0
100
AcDbSpline
 62
7
  6
BYLAYER
 70
0
 71
3
 72
12
 73
8
 74
0
 42
0.0000001
 43
0.0000001
 44
0.0000000001
 40
0.0
 40
0.0
 40
0.0
 40
0.0
 40
0.2895831544
 40
0.5486371605
 40
0.781638491
 40
0.891839144
 40
1.0
 40
1.0
 40
1.0
 40
1.0
 10
36.1795647086
 20
99.7221876827
 30
0.0
 10
36.399038888
 20
99.5954770728
 30
0.0
 10
36.7971422797
 20
99.3213010793
 30
0.0
 10
37.2727332115
 20
98.8217473919
 30
0.0
 10
37.5281285021
 20
98.3510275337
 30
0.0
 10
37.6275434259
 20
97.9671116241
 30
0.0
 10
37.6440369843
 20
97.7756226996
 30
0.0
 10
37.6440369865
 20
97.6809669133
 30
0.0
  0
SPLINE
  5
3F1
100
AcDbEntity
  8
0
100
AcDbSpline
 62
7
  6
BYLAYER
 70
0
 71
3
 72
15
 73
11
 74
0
 42
0.0000001
 43
0.0000001
 44
0.0000000001
 40
0.0
 40
0.0
 40
0.0
 40
0.0
 40
0.1141545727
 40
0.2373261359
 40
0.366975604
 40
0.4999994966
 40
0.6330234588
 40
0.7626731321
 40
0.8858450149
 40
1.0
 40
1.0
 40
1.0
 40
1.0
 10
29.1084968968
 20
99.7221706859
 30
0.0
 10
29.3505318414
 20
99.8619087922
 30
0.0
 10
29.8797849801
 20
100.1083618619
 30
0.0
 10
30.7416432337
 20
100.3703151685
 30
0.0
 10
31.6747397695
 20
100.5315574995
 30
0.0
 10
32.6440249659
 20
100.5859601526
 30
0.0
 10
33.6133109197
 20
100.531562076
 30
0.0
 10
34.5464096818
 20
100.3703241544
 30
0.0
 10
35.4082715645
 20
100.1083749572
 30
0.0
 10
35.937527882
 20
99.8619245484
 30
0.0
 10
36.1795647086
 20
99.7221876827
 30
0.0
  0
SPLINE
  5
3F2
100
AcDbEntity
  8
0
100
AcDbSpline
 62
7
  6
BYLAYER
 70
0
 71
3
 72
9
 73
5
 74
0
 42
0.0000001
 43
0.0000001
 44
0.0000000001
 40
0.0
 40
0.0
 40
0.0
 40
0.0
 40
0.2603789658
 40
1.0
 40
1.0
 40
1.0
 40
1.0
 10
75.632456164
 20
123.6396283109
 30
0.0
 10
75.5772968763
 20
123.6049877414
 30
0.0
 10
75.3684550617
 20
123.4673069039
 30
0.0
 10
75.171922806
 20
123.3103715224
 30
0.0
 10
75.0379066664
 20
123.1828116871
 30
0.0
  0
SPLINE
  5
3F3
100
AcDbEntity
  8
0
100
AcDbSpline
 62
7
  6
BYLAYER
 70
0
 71
3
 72
11
 73
7
 74
0
 42
0.0000001
 43
0.0000001
 44
0.0000000001
 40
0.0
 40
0.0
 40
0.0
 40
0.0
 40
0.2941458555
 40
0.5551366584
 40
0.7865773849
 40
1.0
 40
1.0
 40
1.0
 40
1.0
 10
24.5713284964
 20
95.8981995687
 30
0.0
 10
24.4334956385
 20
95.9659188068
 30
0.0
 10
24.1828085739
 20
96.1153174495
 30
0.0
 10
23.8795482238
 20
96.3979527906
 30
0.0
 10
23.6850954565
 20
96.7177557915
 30
0.0
 10
23.638985525
 20
96.9517964228
 30
0.0
 10
23.6390007496
 20
97.0632219035
 30
0.0
  0
SPLINE
  5
3F4
100
AcDbEntity
  8
0
100
AcDbSpline
 62
7
  6
BYLAYER
 70
0
 71
3
 72
15
 73
11
 74
0
 42
0.0000001
 43
0.0000001
 44
0.0000000001
 40
0.0
 40
0.0
 40
0.0
 40
0.0
 40
0.1547451724
 40
0.3060178775
 40
0.4499453443
 40
0.5834595843
 40
0.7044851858
 40
0.8125849076
 40
0.9095843631
 40
1.0
 40
1.0
 40
1.0
 40
1.0
 10
47.6013045457
 20
82.7094766048
 30
0.0
 10
47.3591781062
 20
82.7056827225
 30
0.0
 10
46.8794649757
 20
82.7256144854
 30
0.0
 10
46.1825089193
 20
82.8364615271
 30
0.0
 10
45.5363732767
 20
83.0241493845
 30
0.0
 10
44.965758178
 20
83.2815172916
 30
0.0
 10
44.492027618
 20
83.5997849638
 30
0.0
 10
44.1331439788
 20
83.969207368
 30
0.0
 10
43.9055494188
 20
84.3791986678
 30
0.0
 10
43.8523328975
 20
84.6745109463
 30
0.0
 10
43.8522901557
 20
84.815999706
 30
0.0
  0
SPLINE
  5
3F5
100
AcDbEntity
  8
0
100
AcDbSpline
 62
7
  6
BYLAYER
 70
0
 71
3
 72
9
 73
5
 74
0
 42
0.0000001
 43
0.0000001
 44
0.0000000001
 40
0.0
 40
0.0
 40
0.0
 40
0.0
 40
0.2333042493
 40
1.0
 40
1.0
 40
1.0
 40
1.0
 10
94.413599446
 20
80.7635617276
 30
0.0
 10
94.3518572423
 20
80.6912169662
 30
0.0
 10
94.0710208904
 20
80.3949507802
 30
0.0
 10
93.7347395221
 20
80.1545404622
 30
0.0
 10
93.4640591783
 20
79.9982640257
 30
0.0
  0
SPLINE
  5
3F6
100
AcDbEntity
  8
0
100
AcDbSpline
 62
7
  6
BYLAYER
 70
0
 71
3
 72
11
 73
7
 74
0
 42
0.0000001
 43
0.0000001
 44
0.0000000001
 40
0.0
 40
0.0
 40
0.0
 40
0.0
 40
0.2279493188
 40
0.4774394897
 40
0.7386347594
 40
1.0
 40
1.0
 40
1.0
 40
1.0
 10
91.8023513242
 20
108.228810531
 30
0.0
 10
91.6299762367
 20
108.1292903219
 30
0.0
 10
91.2440271545
 20
107.9630600147
 30
0.0
 10
90.6135690881
 20
107.8152624728
 30
0.0
 10
89.938927767
 20
107.7638045155
 30
0.0
 10
89.4817627615
 20
107.7965942994
 30
0.0
 10
89.2561164066
 20
107.8307683088
 30
0.0
  0
SPLINE
  5
3F7
100
AcDbEntity
  8
0
100
AcDbSpline
 62
7
  6
BYLAYER
 70
0
 71
3
 72
11
 73
7
 74
0
 42
0.0000001
 43
0.0000001
 44
0.0000000001
 40
0.0
 40
0.0
 40
0.0
 40
0.0
 40
0.2177827477
 40
0.4509152641
 40
0.7103063952
 40
1.0
 40
1.0
 40
1.0
 40
1.0
 10
92.5784983682
 20
109.3106485607
 30
0.0
 10
92.5784845772
 20
109.2097149403
 30
0.0
 10
92.5412066449
 20
108.9993349137
 30
0.0
 10
92.3817092994
 20
108.706206592
 30
0.0
 10
92.1295816822
 20
108.4412404869
 30
0.0
 10
91.9186253127
 20
108.2959409488
 30
0.0
 10
91.8023513242
 20
108.228810531
 30
0.0
  0
SPLINE
  5
3F8
100
AcDbEntity
  8
0
100
AcDbSpline
 62
7
  6
BYLAYER
 70
0
 71
3
 72
9
 73
5
 74
0
 42
0.0000001
 43
0.0000001
 44
0.0000000001
 40
0.0
 40
0.0
 40
0.0
 40
0.0
 40
0.4832254251
 40
1.0
 40
1.0
 40
1.0
 40
1.0
 10
93.4640591783
 20
79.9982640257
 30
0.0
 10
93.2634879405
 20
79.8824648588
 30
0.0
 10
92.830589592
 20
79.6730852684
 30
0.0
 10
92.3760632242
 20
79.5175998363
 30
0.0
 10
92.1378298313
 20
79.4498531707
 30
0.0
  0
SPLINE
  5
3F9
100
AcDbEntity
  8
0
100
AcDbSpline
 62
7
  6
BYLAYER
 70
0
 71
3
 72
15
 73
11
 74
0
 42
0.0000001
 43
0.0000001
 44
0.0000000001
 40
0.0
 40
0.0
 40
0.0
 40
0.0
 40
0.114145882
 40
0.237333957
 40
0.3669755095
 40
0.5000005446
 40
0.633025503
 40
0.7626668365
 40
0.8858545571
 40
1.0
 40
1.0
 40
1.0
 40
1.0
 10
51.744903343
 20
87.2654642214
 30
0.0
 10
51.5028862084
 20
87.4051897182
 30
0.0
 10
50.9736015776
 20
87.6516134629
 30
0.0
 10
50.1117613425
 20
87.9136226571
 30
0.0
 10
49.1786298949
 20
88.0747988976
 30
0.0
 10
48.2093633128
 20
88.1292387046
 30
0.0
 10
47.2400975233
 20
88.0747942728
 30
0.0
 10
46.3069684529
 20
87.9136135618
 30
0.0
 10
45.4451320281
 20
87.6516003007
 30
0.0
 10
44.9158507272
 20
87.4051739292
 30
0.0
 10
44.6738355312
 20
87.2654472246
 30
0.0
  0
SPLINE
  5
3FA
100
AcDbEntity
  8
0
100
AcDbSpline
 62
7
  6
BYLAYER
 70
0
 71
3
 72
15
 73
11
 74
0
 42
0.0000001
 43
0.0000001
 44
0.0000000001
 40
0.0
 40
0.0
 40
0.0
 40
0.0
 40
0.1547451724
 40
0.3060178775
 40
0.4499453443
 40
0.5834595843
 40
0.7044851858
 40
0.8125849076
 40
0.9095843631
 40
1.0
 40
1.0
 40
1.0
 40
1.0
 10
47.4032560937
 20
86.9225219915
 30
0.0
 10
47.6453825332
 20
86.9263158738
 30
0.0
 10
48.1250956637
 20
86.9063841109
 30
0.0
 10
48.8220517201
 20
86.7955370692
 30
0.0
 10
49.4681873627
 20
86.6078492118
 30
0.0
 10
50.0388024614
 20
86.3504813047
 30
0.0
 10
50.5125330214
 20
86.0322136326
 30
0.0
 10
50.8714166606
 20
85.6627912283
 30
0.0
 10
51.0990112206
 20
85.2527999285
 30
0.0
 10
51.1522277419
 20
84.95748765
 30
0.0
 10
51.1522704837
 20
84.8159988903
 30
0.0
  0
SPLINE
  5
3FB
100
AcDbEntity
  8
0
100
AcDbSpline
 62
7
  6
BYLAYER
 70
0
 71
3
 72
17
 73
13
 74
0
 42
0.0000001
 43
0.0000001
 44
0.0000000001
 40
0.0
 40
0.0
 40
0.0
 40
0.0
 40
0.1416645127
 40
0.28911443
 40
0.4359273372
 40
0.5757963536
 40
0.7033956402
 40
0.8154801842
 40
0.8657594246
 40
0.9126603824
 40
0.9570154524
 40
1.0
 40
1.0
 40
1.0
 40
1.0
 10
88.6804434909
 20
110.6603039473
 30
0.0
 10
88.8880796296
 20
110.7243082025
 30
0.0
 10
89.3240292164
 20
110.8172326973
 30
0.0
 10
89.9937149799
 20
110.8566572797
 30
0.0
 10
90.6594922267
 20
110.7984372599
 30
0.0
 10
91.2793402831
 20
110.6460382037
 30
0.0
 10
91.8145911733
 20
110.408951072
 30
0.0
 10
92.1767042598
 20
110.1410724377
 30
0.0
 10
92.3852598296
 20
109.8953658535
 30
0.0
 10
92.495737002
 20
109.7070099722
 30
0.0
 10
92.5631906683
 20
109.5109728435
 30
0.0
 10
92.5785073762
 20
109.376575834
 30
0.0
 10
92.5784983682
 20
109.3106485607
 30
0.0
  0
SPLINE
  5
3FC
100
AcDbEntity
  8
0
100
AcDbSpline
 62
7
  6
BYLAYER
 70
0
 71
3
 72
9
 73
5
 74
0
 42
0.0000001
 43
0.0000001
 44
0.0000000001
 40
0.0
 40
0.0
 40
0.0
 40
0.0
 40
0.257460683
 40
1.0
 40
1.0
 40
1.0
 40
1.0
 10
30.5316115886
 20
102.8603467672
 30
0.0
 10
30.5764529493
 20
102.8344581812
 30
0.0
 10
30.7489266412
 20
102.7310222994
 30
0.0
 10
30.9144652483
 20
102.6158397675
 30
0.0
 10
31.0316945336
 20
102.5233331211
 30
0.0
  0
SPLINE
  5
3FD
100
AcDbEntity
  8
0
100
AcDbSpline
 62
7
  6
BYLAYER
 70
0
 71
3
 72
11
 73
7
 74
0
 42
0.0000001
 43
0.0000001
 44
0.0000000001
 40
0.0
 40
0.0
 40
0.0
 40
0.0
 40
0.2177827477
 40
0.4509152641
 40
0.7103063952
 40
1.0
 40
1.0
 40
1.0
 40
1.0
 10
23.6390007496
 20
97.0632219035
 30
0.0
 10
23.6390145406
 20
97.1641555239
 30
0.0
 10
23.6762924729
 20
97.3745355505
 30
0.0
 10
23.8357898184
 20
97.6676638722
 30
0.0
 10
24.0879174356
 20
97.9326299773
 30
0.0
 10
24.2988738052
 20
98.0779295154
 30
0.0
 10
24.4151477936
 20
98.1450599332
 30
0.0
  0
SPLINE
  5
3FE
100
AcDbEntity
  8
0
100
AcDbSpline
 62
7
  6
BYLAYER
 70
0
 71
3
 72
9
 73
5
 74
0
 42
0.0000001
 43
0.0000001
 44
0.0000000001
 40
0.0
 40
0.0
 40
0.0
 40
0.0
 40
0.2381401595
 40
1.0
 40
1.0
 40
1.0
 40
1.0
 10
24.4151477936
 20
98.1450599332
 30
0.0
 10
24.4612379435
 20
98.1716699348
 30
0.0
 10
24.6583787314
 20
98.2771416001
 30
0.0
 10
24.8677954837
 20
98.3589434552
 30
0.0
 10
25.0303478031
 20
98.409600134
 30
0.0
  0
SPLINE
  5
3FF
100
AcDbEntity
  8
0
100
AcDbSpline
 62
7
  6
BYLAYER
 70
0
 71
3
 72
15
 73
11
 74
0
 42
0.0000001
 43
0.0000001
 44
0.0000000001
 40
0.0
 40
0.0
 40
0.0
 40
0.0
 40
0.1141454573
 40
0.2373331986
 40
0.3669745393
 40
0.4999995019
 40
0.6330245328
 40
0.7626660781
 40
0.8858541324
 40
1.0
 40
1.0
 40
1.0
 40
1.0
 10
44.6738355312
 20
90.6131071349
 30
0.0
 10
44.9158507578
 20
90.752833857
 30
0.0
 10
45.4451321461
 20
90.9992602452
 30
0.0
 10
46.3069686707
 20
91.2612735364
 30
0.0
 10
47.2400978292
 20
91.4224542075
 30
0.0
 10
48.2093636364
 20
91.4768986148
 30
0.0
 10
49.1786302008
 20
91.4224587833
 30
0.0
 10
50.1117615603
 20
91.261282503
 30
0.0
 10
50.9736016956
 20
90.9992733388
 30
0.0
 10
51.502886239
 20
90.7528496108
 30
0.0
 10
51.744903343
 20
90.6131241316
 30
0.0
  0
ELLIPSE
  5
400
100
AcDbEntity
  8
0
100
AcDbEllipse
 62
7
  6
BYLAYER
 10
118.7783500548
 20
99.6113529413
 30
0.0
 11
-0.4999787218
 21
0.8660596736
 31
0.0
 40
0.5773567985
 41
-3.1372290536
 42
-2.3561477717
  0
ELLIPSE
  5
401
100
AcDbEntity
  8
0
100
AcDbEllipse
 62
7
  6
BYLAYER
 10
111.5305357234
 20
95.2194980626
 30
0.0
 11
-0.4999787218
 21
0.8660596736
 31
0.0
 40
0.5773567985
 41
-3.1415736141
 42
-2.3561477717
  0
ENDSEC
  0
SECTION
  2
OBJECTS
  0
DICTIONARY
  5
C
100
AcDbDictionary
280
0
281
1
  3
ACAD_GROUP
350
D
  3
ACAD_MLINESTYLE
350
17
  3
ACAD_LAYOUT
350
1A
  3
ACAD_PLOTSETTINGS
350
19
  3
ACAD_PLOTSTYLENAME
350
E
  0
DICTIONARY
  5
D
102
{ACAD_REACTORS
330
C
102
}
100
AcDbDictionary
280
0
281
1
  0
ACDBDICTIONARYWDFLT
  5
E
102
{ACAD_REACTORS
330
C
102
}
100
AcDbDictionary
281
1
  3
Normal
350
F
100
AcDbDictionaryWithDefault
340
F
  0
DICTIONARY
  5
17
102
{ACAD_REACTORS
330
C
102
}
100
AcDbDictionary
280
0
281
1
  3
Standard
350
18
  0
DICTIONARY
  5
19
102
{ACAD_REACTORS
330
C
102
}
100
AcDbDictionary
281
1
  0
DICTIONARY
  5
1A
102
{ACAD_REACTORS
330
C
102
}
100
AcDbDictionary
281
1
  3
Model
350
402
  3
Layout1
350
403
  0
ACDBPLACEHOLDER
  5
F
102
{ACAD_REACTORS
330
E
102
}
  0
MLINESTYLE
  5
18
102
{ACAD_REACTORS
330
17
102
}
100
AcDbMlineStyle
  2
STANDARD
 70
0
  3

 62
256
 51
90.0
 52
90.0
 71
2
 49
0.5
 62
256
  6
BYLAYER
 49
-0.5
 62
256
  6
BYLAYER
  0
LAYOUT
  5
402
102
{ACAD_REACTORS
330
1A
102
}
100
AcDbPlotSettings
  1

  2
none_device
  4

  6

 40
0.0
 41
0.0
 42
0.0
 43
0.0
 44
210.0
 45
297.0
 46
0.0
 47
0.0
 48
0.0
 49
0.0
140
0.0
141
0.0
142
1.0
143
1.0
 70
1024
 72
1
 73
0
 74
0
  7

 75
0
147
1.0
148
0.0
149
0.0
100
AcDbLayout
  1
Model
 70
0
 71
0
 10
0.0
 20
0.0
 11
210.0
 21
297.0
 12
0.0
 22
0.0
 32
0.0
 14
0.0
 24
0.0
 34
0.0
 15
0.0
 25
0.0
 35
0.0
146
0.0
 13
0.0
 23
0.0
 33
0.0
 16
1.0
 26
0.0
 36
0.0
 17
0.0
 27
1.0
 37
0.0
 76
0
330
210
345
0
346
0
  0
LAYOUT
  5
403
102
{ACAD_REACTORS
330
1A
102
}
100
AcDbPlotSettings
  1

  2
none_device
  4

  6

 40
0.0
 41
0.0
 42
0.0
 43
0.0
 44
210.0
 45
297.0
 46
0.0
 47
0.0
 48
0.0
 49
0.0
140
0.0
141
0.0
142
1.0
143
1.0
 70
0
 72
1
 73
0
 74
0
  7

 75
0
147
1.0
148
0.0
149
0.0
100
AcDbLayout
  1
Layout1
 70
0
 71
1
 10
0.0
 20
0.0
 11
210.0
 21
297.0
 12
0.0
 22
0.0
 32
0.0
 14
0.0
 24
0.0
 34
0.0
 15
0.0
 25
0.0
 35
0.0
146
0.0
 13
0.0
 23
0.0
 33
0.0
 16
1.0
 26
0.0
 36
0.0
 17
0.0
 27
1.0
 37
0.0
 76
0
330
211
345
0
346
0
  0
ENDSEC
  0
EOF
