999
DXF file: C:\Users\sesa63760\Dev\_Creo\CAD\MCADID0004783_3D-CAD\drw0001_1.dxf
999
Pro/ENGINEER 2019471 by Parametric Technology Corporation
  0
SECTION
  2
HEADER
  9
$ACADVER
  1
AC1024
  9
$DWGCODEPAGE
  3
ANSI_1252
  9
$EXTMAX
 10
53.3996528402
 20
75.5223661597
 30
0.0
  9
$EXTMIN
 10
0.0
 20
0.0
 30
0.0
  9
$LIMMIN
 10
0.0
 20
0.0
  9
$LIMMAX
 10
53.3996528402
 20
75.5223661597
  9
$VIEWCTR
 10
26.6998264201
 20
37.7611830799
  9
$VIEWSIZE
 40
75.5223661597
  9
$CLAYER
  8
0
  9
$LTSCALE
 40
4.9229394237
  9
$CELTYPE
  6
BYLAYER
  9
$DIMSCALE
 40
1.0
  9
$DIMASZ
 40
0.6357101529
  9
$DIMEXO
 40
1.0
  9
$DIMDLI
 40
3.4013036019
  9
$DIMEXE
 40
1.0
  9
$DIMCEN
 40
0.8055719057
  9
$DIMLFAC
 40
1.0
  9
$DIMBLK
  1
_FILLED
  9
$DIMALT
 70
0
  9
$DIMALTF
 40
0.0393700787
  9
$DIMTXT
 40
0.889994214
  9
$DIMTOL
 70
1
  9
$DIMLIM
 70
0
  9
$DIMTFAC
 40
1.0
  9
$DIMTP
 40
0.01
  9
$DIMTM
 40
0.01
  9
$DIMGAP
 40
0.625
  9
$DIMDSEP
 70
46
  9
$AUNITS
 70
0
  9
$PDMODE
 70
3
  9
$PDSIZE
 40
0.3125
  9
$HANDSEED
  5
318
  9
$TILEMODE
 70
1
  9
$MEASUREMENT
 70
1
  9
$INSUNITS
 70
4
  0
ENDSEC
  0
SECTION
  2
CLASSES
  0
CLASS
  1
ACDBDICTIONARYWDFLT
  2
AcDbDictionaryWithDefault
  3
AutoCAD 2000
 90
0
 91
1
280
0
281
0
  0
CLASS
  1
ACDBPLACEHOLDER
  2
AcDbPlaceHolder
  3
AutoCAD 2000
 90
0
 91
1
280
0
281
0
  0
CLASS
  1
LAYOUT
  2
AcDbLayout
  3
AutoCAD 2000
 90
0
 91
0
280
0
281
0
  0
ENDSEC
  0
SECTION
  2
TABLES
  0
TABLE
  2
VPORT
  5
8
100
AcDbSymbolTable
 70
2
  0
VPORT
  5
1F4
100
AcDbSymbolTableRecord
100
AcDbViewportTableRecord
  2
*ACTIVE
 70
0
 10
0.0
 20
0.0
 11
1.0
 21
1.0
 12
26.6998264201
 22
37.7611830799
 13
0.0
 23
0.0
 14
1.0
 24
1.0
 15
0.0
 25
0.0
 16
0.0
 26
0.0
 36
1.0
 17
0.0
 27
0.0
 37
0.0
 40
75.5223661597
 41
0.7070707071
 42
50.0
 43
0.0
 44
0.0
 50
0.0
 51
0.0
 71
0
 72
100
 73
1
 74
1
 75
0
 76
0
 77
0
 78
0
  0
ENDTAB
  0
TABLE
  2
LTYPE
  5
5
100
AcDbSymbolTable
 70
6
  0
LTYPE
  5
14
100
AcDbSymbolTableRecord
100
AcDbLinetypeTableRecord
  2
BYBLOCK
 70
0
  3

 72
65
 73
0
 40
0.0
  0
LTYPE
  5
15
100
AcDbSymbolTableRecord
100
AcDbLinetypeTableRecord
  2
BYLAYER
 70
0
  3

 72
65
 73
0
 40
0.0
  0
LTYPE
  5
16
100
AcDbSymbolTableRecord
100
AcDbLinetypeTableRecord
  2
CONTINUOUS
 70
64
  3
Solid line
 72
65
 73
0
 40
0.0
  0
LTYPE
  5
1F5
100
AcDbSymbolTableRecord
100
AcDbLinetypeTableRecord
  2
CENTER
 70
64
  3
____ _ ____ _ ____ _ ____ _ ____ _ ____ _ ____
 72
65
 73
4
 40
0.6
 49
0.375
 74
0
 49
-0.075
 74
0
 49
0.075
 74
0
 49
-0.075
 74
0
  0
LTYPE
  5
1F6
100
AcDbSymbolTableRecord
100
AcDbLinetypeTableRecord
  2
HIDDEN
 70
64
  3
- - - - - - - - - - - - - - - - - - - -
 72
65
 73
2
 40
0.2
 49
0.1
 74
0
 49
-0.1
 74
0
  0
LTYPE
  5
1F7
100
AcDbSymbolTableRecord
100
AcDbLinetypeTableRecord
  2
PHANTOM
 70
64
  3
_____ _ _ _____ _ _ _____ _ _ _____
 72
65
 73
6
 40
0.8
 49
0.45
 74
0
 49
-0.05
 74
0
 49
0.1
 74
0
 49
-0.05
 74
0
 49
0.1
 74
0
 49
-0.05
 74
0
  0
LTYPE
  5
1F8
100
AcDbSymbolTableRecord
100
AcDbLinetypeTableRecord
  2
DOT
 70
64
  3
. . . . . . . . . . . . . . . . . . . .
 72
65
 73
2
 40
0.2
 49
0.1
 74
0
 49
-0.1
 74
0
  0
LTYPE
  5
1F9
100
AcDbSymbolTableRecord
100
AcDbLinetypeTableRecord
  2
DASHED
 70
64
  3
- - - - - - - - - - - - - - - - - - - -
 72
65
 73
2
 40
0.2
 49
0.1
 74
0
 49
-0.1
 74
0
  0
ENDTAB
  0
TABLE
  2
LAYER
  5
2
100
AcDbSymbolTable
 70
36
  0
LAYER
  5
10
100
AcDbSymbolTableRecord
100
AcDbLayerTableRecord
  2
0
 70
0
 62
7
  6
CONTINUOUS
370
-3
390
F
  0
LAYER
  5
1FA
100
AcDbSymbolTableRecord
100
AcDbLayerTableRecord
  2
DEFAULT_1
 70
0
 62
7
  6
CENTER
370
-3
390
F
  0
LAYER
  5
1FB
100
AcDbSymbolTableRecord
100
AcDbLayerTableRecord
  2
DEFAULT_2
 70
0
 62
7
  6
HIDDEN
370
-3
390
F
  0
LAYER
  5
1FC
100
AcDbSymbolTableRecord
100
AcDbLayerTableRecord
  2
DEFAULT_3
 70
0
 62
7
  6
PHANTOM
370
-3
390
F
  0
LAYER
  5
1FD
100
AcDbSymbolTableRecord
100
AcDbLayerTableRecord
  2
00_COMPONENTS
 70
0
 62
7
  6
CONTINUOUS
370
-3
390
F
  0
LAYER
  5
1FE
100
AcDbSymbolTableRecord
100
AcDbLayerTableRecord
  2
01_1_DEFAULT_DATUMS
 70
0
 62
7
  6
CONTINUOUS
370
-3
390
F
  0
LAYER
  5
1FF
100
AcDbSymbolTableRecord
100
AcDbLayerTableRecord
  2
01_PLANES
 70
0
 62
7
  6
CONTINUOUS
370
-3
390
F
  0
LAYER
  5
200
100
AcDbSymbolTableRecord
100
AcDbLayerTableRecord
  2
02_COORD_SYS
 70
0
 62
7
  6
CONTINUOUS
370
-3
390
F
  0
LAYER
  5
201
100
AcDbSymbolTableRecord
100
AcDbLayerTableRecord
  2
03_AXES
 70
0
 62
7
  6
CONTINUOUS
370
-3
390
F
  0
LAYER
  5
202
100
AcDbSymbolTableRecord
100
AcDbLayerTableRecord
  2
04_POINTS
 70
0
 62
7
  6
CONTINUOUS
370
-3
390
F
  0
LAYER
  5
203
100
AcDbSymbolTableRecord
100
AcDbLayerTableRecord
  2
05_CURVES
 70
0
 62
7
  6
CONTINUOUS
370
-3
390
F
  0
LAYER
  5
204
100
AcDbSymbolTableRecord
100
AcDbLayerTableRecord
  2
06_SURFS
 70
0
 62
7
  6
CONTINUOUS
370
-3
390
F
  0
LAYER
  5
205
100
AcDbSymbolTableRecord
100
AcDbLayerTableRecord
  2
07_COSMETICS
 70
0
 62
7
  6
CONTINUOUS
370
-3
390
F
  0
LAYER
  5
206
100
AcDbSymbolTableRecord
100
AcDbLayerTableRecord
  2
10_NOTES
 70
0
 62
7
  6
CONTINUOUS
370
-3
390
F
  0
LAYER
  5
207
100
AcDbSymbolTableRecord
100
AcDbLayerTableRecord
  2
11_NOTES_PUB
 70
0
 62
7
  6
CONTINUOUS
370
-3
390
F
  0
LAYER
  5
208
100
AcDbSymbolTableRecord
100
AcDbLayerTableRecord
  2
13_REF_GTOL
 70
0
 62
7
  6
CONTINUOUS
370
-3
390
F
  0
LAYER
  5
209
100
AcDbSymbolTableRecord
100
AcDbLayerTableRecord
  2
16_MISC
 70
0
 62
7
  6
CONTINUOUS
370
-3
390
F
  0
LAYER
  5
20A
100
AcDbSymbolTableRecord
100
AcDbLayerTableRecord
  2
17_NO_PRINT
 70
0
 62
7
  6
CONTINUOUS
370
-3
390
F
  0
LAYER
  5
20B
100
AcDbSymbolTableRecord
100
AcDbLayerTableRecord
  2
18_DATUM_CAMS_JOINTS
 70
0
 62
7
  6
CONTINUOUS
370
-3
390
F
  0
LAYER
  5
20C
100
AcDbSymbolTableRecord
100
AcDbLayerTableRecord
  2
19_DATUM_FUNCTIONAL
 70
0
 62
7
  6
CONTINUOUS
370
-3
390
F
  0
LAYER
  5
20D
100
AcDbSymbolTableRecord
100
AcDbLayerTableRecord
  2
20_DATUM_KINEMATIC_SCHEME
 70
0
 62
7
  6
CONTINUOUS
370
-3
390
F
  0
ENDTAB
  0
TABLE
  2
STYLE
  5
3
100
AcDbSymbolTable
 70
1
  0
STYLE
  5
11
100
AcDbSymbolTableRecord
100
AcDbTextStyleTableRecord
  2
STANDARD
 70
0
 40
0.0
 41
1.0
 50
0.0
 71
0
 42
0.2
  3
ARIAL.TTF
  4

  0
STYLE
  5
20E
100
AcDbSymbolTableRecord
100
AcDbTextStyleTableRecord
  2
TEXTSTYLE_1
 70
0
 40
0.0
 41
0.8
 50
0.0
 71
0
 42
0.2
  3
gdt
  4

  0
ENDTAB
  0
TABLE
  2
VIEW
  5
6
100
AcDbSymbolTable
 70
0
  0
ENDTAB
  0
TABLE
  2
UCS
  5
7
100
AcDbSymbolTable
 70
0
  0
ENDTAB
  0
TABLE
  2
APPID
  5
9
100
AcDbSymbolTable
 70
1
  0
APPID
  5
20F
100
AcDbSymbolTableRecord
100
AcDbRegAppTableRecord
  2
ACAD
 70
0
  0
ENDTAB
  0
TABLE
  2
BLOCK_RECORD
  5
1
100
AcDbSymbolTable
 70
0
  0
BLOCK_RECORD
  5
210
100
AcDbSymbolTableRecord
100
AcDbBlockTableRecord
  2
*Model_Space
  0
BLOCK_RECORD
  5
211
100
AcDbSymbolTableRecord
100
AcDbBlockTableRecord
  2
*Paper_Space
  0
BLOCK_RECORD
  5
212
100
AcDbSymbolTableRecord
100
AcDbBlockTableRecord
  2
_FILLED
  0
ENDTAB
  0
TABLE
  2
DIMSTYLE
  5
A
100
AcDbSymbolTable
 70
1
100
AcDbDimStyleTable
 71
0
  0
DIMSTYLE
105
213
100
AcDbSymbolTableRecord
100
AcDbDimStyleTableRecord
  2
STANDARD
 70
0
  3

  4

 40
1.0
 41
0.6357101529
 42
1.0
 43
0.38
 44
1.0
 45
0.0
 46
0.0
 47
0.01
 48
0.01
140
0.889994214
141
0.09
142
0.0
143
25.4
144
1.0
145
0.0
146
1.0
147
0.625
 71
1
 72
0
 73
0
 74
0
 75
0
 76
0
 77
1
 78
8
 79
2
170
0
171
1
172
0
173
0
174
0
175
0
176
0
177
0
178
0
270
2
179
2
271
2
272
2
273
2
274
2
275
0
280
0
281
0
282
0
283
1
284
8
285
0
286
0
287
3
288
0
340
11
278
46
341
212
342
212
343
212
344
212
  0
ENDTAB
  0
ENDSEC
  0
SECTION
  2
BLOCKS
  0
BLOCK
  5
20
100
AcDbEntity
  8
0
100
AcDbBlockBegin
  2
*Model_Space
 70
0
 10
0.0
 20
0.0
 30
0.0
  3
*Model_Space
  1

  0
ENDBLK
  5
21
100
AcDbEntity
  8
0
100
AcDbBlockEnd
  0
BLOCK
  5
1C
100
AcDbEntity
  8
0
100
AcDbBlockBegin
  2
*Paper_Space
 70
0
 10
0.0
 20
0.0
 30
0.0
  3
*Paper_Space
  1

  0
ENDBLK
  5
1D
100
AcDbEntity
  8
0
100
AcDbBlockEnd
  0
BLOCK
  5
214
100
AcDbEntity
  8
0
100
AcDbBlockBegin
  2
_FILLED
 70
64
 10
0.0
 20
0.0
  3
_FILLED
  1

  0
SOLID
  5
215
100
AcDbEntity
  8
0
  6
BYBLOCK
 62
0
100
AcDbTrace
 10
0.0
 20
0.0
 11
-1.0
 21
0.25
 12
-1.0
 22
-0.25
 13
-1.0
 23
-0.25
  0
ENDBLK
  5
216
100
AcDbEntity
  8
0
  6
BYBLOCK
 62
0
100
AcDbBlockEnd
  0
ENDSEC
  0
SECTION
  2
ENTITIES
  0
LINE
  5
217
100
AcDbEntity
  8
0
100
AcDbLine
 62
7
  6
BYLAYER
 10
27.7099600185
 20
69.2198652562
 11
24.8815462183
 21
67.5868895348
  0
LINE
  5
218
100
AcDbEntity
  8
0
100
AcDbLine
 62
7
  6
BYLAYER
 10
25.9724010763
 20
7.6444079432
 11
17.7152870176
 21
12.4115471206
  0
LINE
  5
219
100
AcDbEntity
  8
0
100
AcDbLine
 62
7
  6
BYLAYER
 10
26.7855627141
 20
7.5424167864
 11
27.0683970061
 21
7.3791176628
  0
LWPOLYLINE
  5
21A
100
AcDbEntity
  8
0
100
AcDbPolyline
 62
7
  6
BYLAYER
 90
4
 70
0
 10
20.6374420022
 20
14.0986440169
 10
22.7770941488
 20
13.2596361361
 10
25.2324606402
 20
13.2905587692
 10
25.5339196715
 20
13.4140004525
  0
LINE
  5
21B
100
AcDbEntity
  8
0
100
AcDbLine
 62
7
  6
BYLAYER
 10
34.9526675012
 20
6.2155809393
 11
30.5886505957
 21
8.7350902755
  0
LINE
  5
21C
100
AcDbEntity
  8
0
100
AcDbLine
 62
7
  6
BYLAYER
 10
25.5935844899
 20
62.8018379002
 11
25.3814539649
 21
62.6793650156
  0
LINE
  5
21D
100
AcDbEntity
  8
0
100
AcDbLine
 62
7
  6
BYLAYER
 10
27.7301947876
 20
13.2432378082
 11
31.69998985
 21
10.9513274103
  0
LINE
  5
21E
100
AcDbEntity
  8
0
100
AcDbLine
 62
7
  6
BYLAYER
 10
8.3653689201
 20
28.6062694576
 11
8.3653689201
 21
38.1405129172
  0
LINE
  5
21F
100
AcDbEntity
  8
0
100
AcDbLine
 62
7
  6
BYLAYER
 10
8.6835827219
 20
38.8958252538
 11
8.6835803667
 21
39.2224192172
  0
LWPOLYLINE
  5
220
100
AcDbEntity
  8
0
100
AcDbPolyline
 62
7
  6
BYLAYER
 90
3
 70
0
 10
24.1643005969
 20
56.8886115893
 10
21.9818459545
 20
55.6250291997
 10
21.1505001047
 20
54.7773436477
  0
LINE
  5
221
100
AcDbEntity
  8
0
100
AcDbLine
 62
7
  6
BYLAYER
 10
27.0935777745
 20
60.2037578117
 11
26.8814472496
 21
60.0812849271
  0
LWPOLYLINE
  5
222
100
AcDbEntity
  8
0
100
AcDbPolyline
 62
7
  6
BYLAYER
 90
6
 70
0
 10
23.4477326147
 20
56.4737380494
 10
22.8174481026
 20
56.2559347861
 10
21.6546789483
 20
55.5822041311
 10
19.9783923099
 20
53.9543777783
 10
19.304401434
 20
52.0979967043
 10
19.2959626115
 20
51.8578336859
  0
LINE
  5
223
100
AcDbEntity
  8
0
100
AcDbLine
 62
7
  6
BYLAYER
 10
11.6180465713
 20
41.5930449722
 11
11.6180465713
 21
46.6321056038
  0
LWPOLYLINE
  5
224
100
AcDbEntity
  8
0
100
AcDbPolyline
 62
7
  6
BYLAYER
 90
3
 70
0
 10
11.1938369662
 20
25.607277966
 10
11.2749434872
 20
26.63097387
 10
11.6492859829
 20
27.6024622424
  0
LWPOLYLINE
  5
225
100
AcDbEntity
  8
0
100
AcDbPolyline
 62
7
  6
BYLAYER
 90
3
 70
0
 10
11.193843206
 20
25.7705693067
 10
11.2776576548
 20
26.8247226828
 10
11.5864245085
 20
27.6258917742
  0
LWPOLYLINE
  5
226
100
AcDbEntity
  8
0
100
AcDbPolyline
 62
7
  6
BYLAYER
 90
4
 70
0
 10
10.582815728
 20
29.886505327
 10
10.9185807368
 20
32.1426678877
 10
12.1698322619
 20
34.2601800401
 10
13.075606411
 20
34.9630047189
  0
LINE
  5
227
100
AcDbEntity
  8
0
100
AcDbLine
 62
7
  6
BYLAYER
 10
21.15047717
 20
54.7773495651
 11
20.623428633
 21
54.096925048
  0
LINE
  5
228
100
AcDbEntity
  8
0
100
AcDbLine
 62
7
  6
BYLAYER
 10
19.2957396526
 20
51.0647973114
 11
11.6180465713
 21
46.6321056038
  0
LINE
  5
229
100
AcDbEntity
  8
0
100
AcDbLine
 62
7
  6
BYLAYER
 10
33.7099331572
 20
58.8275449025
 11
30.881519357
 21
57.1945691811
  0
LINE
  5
22A
100
AcDbEntity
  8
0
100
AcDbLine
 62
7
  6
BYLAYER
 10
14.0929576938
 20
36.8634942081
 11
14.0929576938
 21
41.4474323844
  0
LWPOLYLINE
  5
22B
100
AcDbEntity
  8
0
100
AcDbPolyline
 62
7
  6
BYLAYER
 90
7
 70
0
 10
11.1124585588
 20
27.8025468777
 10
10.8575092093
 20
27.1370571735
 10
10.8599971141
 20
24.7747638894
 10
11.5589267045
 20
22.1543203809
 10
12.8751822586
 20
19.5805880814
 10
14.6450780339
 20
17.3754461775
 10
16.6739361583
 20
15.7889652498
  0
LWPOLYLINE
  5
22C
100
AcDbEntity
  8
0
100
AcDbPolyline
 62
7
  6
BYLAYER
 90
7
 70
0
 10
11.9041100946
 20
27.507484998
 10
11.5545543049
 20
26.5973220872
 10
11.556130675
 20
24.5161637851
 10
12.1719439286
 20
22.2073665292
 10
13.3302415494
 20
19.9428201982
 10
14.8886291989
 20
18.0013768397
 10
16.6739361583
 20
16.605467667
  0
LINE
  5
22D
100
AcDbEntity
  8
0
100
AcDbLine
 62
7
  6
BYLAYER
 10
14.121102752
 20
43.0381765056
 11
9.0978042939
 21
40.1379911004
  0
LINE
  5
22E
100
AcDbEntity
  8
0
100
AcDbLine
 62
7
  6
BYLAYER
 10
19.2957396526
 20
43.3662084621
 11
19.2957396526
 21
51.8578336003
  0
LINE
  5
22F
100
AcDbEntity
  8
0
100
AcDbLine
 62
7
  6
BYLAYER
 10
24.5012629523
 20
65.8019251134
 11
24.3957396526
 21
65.2179833578
  0
LINE
  5
230
100
AcDbEntity
  8
0
100
AcDbLine
 62
7
  6
BYLAYER
 10
17.345635345
 20
43.3253554922
 11
14.0929576938
 21
41.4474323844
  0
LINE
  5
231
100
AcDbEntity
  8
0
100
AcDbLine
 62
7
  6
BYLAYER
 10
8.7807352215
 20
38.3803233316
 11
8.3653689201
 21
38.1405129172
  0
LINE
  5
232
100
AcDbEntity
  8
0
100
AcDbLine
 62
7
  6
BYLAYER
 10
9.8149293105
 20
36.936252906
 11
10.0977636025
 21
36.7729537824
  0
LINE
  5
233
100
AcDbEntity
  8
0
100
AcDbLine
 62
7
  6
BYLAYER
 10
26.7855627141
 20
27.1384747975
 11
27.0683970061
 21
26.9751756739
  0
LINE
  5
234
100
AcDbEntity
  8
0
100
AcDbLine
 62
7
  6
BYLAYER
 10
12.2613752703
 20
35.8912034884
 11
11.0497735453
 21
36.5907062456
  0
LINE
  5
235
100
AcDbEntity
  8
0
100
AcDbLine
 62
7
  6
BYLAYER
 10
9.0640578645
 20
37.7371337928
 11
8.3653689201
 21
38.1405129172
  0
LINE
  5
236
100
AcDbEntity
  8
0
100
AcDbLine
 62
7
  6
BYLAYER
 10
27.9246868126
 20
26.8481909333
 11
31.69998985
 21
24.6685680181
  0
LWPOLYLINE
  5
237
100
AcDbEntity
  8
0
100
AcDbPolyline
 62
7
  6
BYLAYER
 90
4
 70
0
 10
13.1434100341
 20
34.8755575947
 10
12.8791047085
 20
34.6706239408
 10
11.6293767524
 20
32.5618824179
 10
11.2904193251
 20
30.2950380157
  0
LINE
  5
238
100
AcDbEntity
  8
0
100
AcDbLine
 62
7
  6
BYLAYER
 10
14.0929576938
 20
38.4031317848
 11
11.0977953401
 21
36.6738843158
  0
LINE
  5
239
100
AcDbEntity
  8
0
100
AcDbLine
 62
7
  6
BYLAYER
 10
12.4506063264
 20
36.0455430819
 11
14.0929576938
 21
36.9937494259
  0
LINE
  5
23A
100
AcDbEntity
  8
0
100
AcDbLine
 62
7
  6
BYLAYER
 10
34.9526675012
 20
26.5464911259
 11
31.2250603457
 21
28.6985774338
  0
LINE
  5
23B
100
AcDbEntity
  8
0
100
AcDbLine
 62
7
  6
BYLAYER
 10
27.362053963
 20
25.8169037382
 11
26.5152936325
 21
27.3586539862
  0
LINE
  5
23C
100
AcDbEntity
  8
0
100
AcDbLine
 62
7
  6
BYLAYER
 10
23.0457396526
 20
53.4091881928
 11
23.0457396526
 21
53.082587226
  0
LINE
  5
23D
100
AcDbEntity
  8
0
100
AcDbLine
 62
7
  6
BYLAYER
 10
23.6388773134
 20
64.4318942701
 11
23.6388744369
 21
64.8401337297
  0
LINE
  5
23E
100
AcDbEntity
  8
0
100
AcDbLine
 62
7
  6
BYLAYER
 10
24.2957396526
 20
48.6734741735
 11
24.2957396526
 21
58.8797543876
  0
LINE
  5
23F
100
AcDbEntity
  8
0
100
AcDbLine
 62
7
  6
BYLAYER
 10
24.3957396526
 20
65.2179833578
 11
24.3957396526
 21
58.8797543876
  0
LINE
  5
240
100
AcDbEntity
  8
0
100
AcDbLine
 62
7
  6
BYLAYER
 10
14.0929576938
 20
41.4474323844
 11
25.9724010763
 21
34.5889877084
  0
LINE
  5
241
100
AcDbEntity
  8
0
100
AcDbLine
 62
7
  6
BYLAYER
 10
25.0707871137
 20
61.8293804037
 11
25.0707860196
 21
61.9926764347
  0
LINE
  5
242
100
AcDbEntity
  8
0
100
AcDbLine
 62
7
  6
BYLAYER
 10
25.6542161254
 20
9.5019891342
 11
25.6542137702
 21
9.8285830976
  0
LINE
  5
243
100
AcDbEntity
  8
0
100
AcDbLine
 62
7
  6
BYLAYER
 10
25.6542161254
 20
29.0980471453
 11
25.6542137702
 21
29.4246411087
  0
LINE
  5
244
100
AcDbEntity
  8
0
100
AcDbLine
 62
7
  6
BYLAYER
 10
25.9724010763
 20
12.126254404
 11
25.9724010763
 21
10.6336376441
  0
LINE
  5
245
100
AcDbEntity
  8
0
100
AcDbLine
 62
7
  6
BYLAYER
 10
25.9724010763
 20
8.4440695343
 11
25.9724010763
 21
7.6444079432
  0
LINE
  5
246
100
AcDbEntity
  8
0
100
AcDbLine
 62
7
  6
BYLAYER
 10
25.9724010763
 20
30.2296956552
 11
25.9724010763
 21
34.5889877084
  0
LINE
  5
247
100
AcDbEntity
  8
0
100
AcDbLine
 62
7
  6
BYLAYER
 10
15.3577003145
 20
32.6432697727
 11
8.109885983
 21
28.4587671955
  0
LINE
  5
248
100
AcDbEntity
  8
0
100
AcDbLine
 62
7
  6
BYLAYER
 10
34.9526675012
 20
33.1601607046
 11
29.2250787275
 21
36.4669108162
  0
LINE
  5
249
100
AcDbEntity
  8
0
100
AcDbLine
 62
7
  6
BYLAYER
 10
11.6180465713
 20
46.6321056038
 11
17.345635345
 21
43.3253554922
  0
LWPOLYLINE
  5
24A
100
AcDbEntity
  8
0
100
AcDbPolyline
 62
7
  6
BYLAYER
 90
3
 70
0
 10
29.0483342686
 20
18.5243656352
 10
28.6169340156
 20
22.0805384983
 10
27.362053963
 20
25.8169037382
  0
LINE
  5
24B
100
AcDbEntity
  8
0
100
AcDbLine
 62
7
  6
BYLAYER
 10
29.2250787275
 20
32.1626896616
 11
29.2250787275
 21
36.4669108162
  0
LINE
  5
24C
100
AcDbEntity
  8
0
100
AcDbLine
 62
7
  6
BYLAYER
 10
29.2250787275
 20
36.4669108162
 11
25.9724010763
 21
34.5889877084
  0
LINE
  5
24D
100
AcDbEntity
  8
0
100
AcDbLine
 62
7
  6
BYLAYER
 10
30.3072108237
 20
56.1117064088
 11
30.3072108237
 21
62.4499353791
  0
LINE
  5
24E
100
AcDbEntity
  8
0
100
AcDbLine
 62
7
  6
BYLAYER
 10
30.3912524208
 20
55.3274318389
 11
30.3912524208
 21
56.0631860678
  0
LINE
  5
24F
100
AcDbEntity
  8
0
100
AcDbLine
 62
7
  6
BYLAYER
 10
31.69998985
 20
24.6685680181
 11
31.69998985
 21
10.9513274103
  0
LINE
  5
250
100
AcDbEntity
  8
0
100
AcDbLine
 62
7
  6
BYLAYER
 10
34.1956875211
 20
58.879754378
 11
34.0902163528
 21
58.295812632
  0
LINE
  5
251
100
AcDbEntity
  8
0
100
AcDbLine
 62
7
  6
BYLAYER
 10
34.1742579499
 20
58.247292291
 11
34.2956933614
 21
58.8797543761
  0
LINE
  5
252
100
AcDbEntity
  8
0
100
AcDbLine
 62
7
  6
BYLAYER
 10
34.0902163528
 20
59.1802532437
 11
34.0902163528
 21
58.295812632
  0
LINE
  5
253
100
AcDbEntity
  8
0
100
AcDbLine
 62
7
  6
BYLAYER
 10
34.1742579499
 20
58.247292291
 11
34.1742579499
 21
57.5115380621
  0
LINE
  5
254
100
AcDbEntity
  8
0
100
AcDbLine
 62
7
  6
BYLAYER
 10
34.1957396526
 20
65.2179833578
 11
34.1957396526
 21
65.0648685285
  0
LINE
  5
255
100
AcDbEntity
  8
0
100
AcDbLine
 62
7
  6
BYLAYER
 10
34.1957396526
 20
59.2781249288
 11
34.1957396526
 21
58.8797543876
  0
LINE
  5
256
100
AcDbEntity
  8
0
100
AcDbLine
 62
7
  6
BYLAYER
 10
34.2957396526
 20
48.6734741735
 11
34.2957396526
 21
58.8797543876
  0
LINE
  5
257
100
AcDbEntity
  8
0
100
AcDbLine
 62
7
  6
BYLAYER
 10
34.9526675012
 20
33.1601607046
 11
34.9526675012
 21
26.5464911259
  0
LINE
  5
258
100
AcDbEntity
  8
0
100
AcDbLine
 62
7
  6
BYLAYER
 10
34.9526675012
 20
12.8292505181
 11
34.9526675012
 21
6.2155809393
  0
LINE
  5
259
100
AcDbEntity
  8
0
100
AcDbLine
 62
7
  6
BYLAYER
 10
34.9526020562
 20
61.9825401719
 11
34.9526049386
 21
61.5743007804
  0
LINE
  5
25A
100
AcDbEntity
  8
0
100
AcDbLine
 62
7
  6
BYLAYER
 10
31.0917361555
 20
33.2403983971
 11
26.0684376974
 21
30.3402129919
  0
LINE
  5
25B
100
AcDbEntity
  8
0
100
AcDbLine
 62
7
  6
BYLAYER
 10
35.5457396526
 20
53.4091881928
 11
35.5457396526
 21
53.082587226
  0
LINE
  5
25C
100
AcDbEntity
  8
0
100
AcDbLine
 62
7
  6
BYLAYER
 10
34.9526675012
 20
33.1601607046
 11
48.0340884896
 21
40.7126775512
  0
LINE
  5
25D
100
AcDbEntity
  8
0
100
AcDbLine
 62
7
  6
BYLAYER
 10
33.133717737
 20
29.8005347147
 11
28.0684287437
 21
26.8761062073
  0
LWPOLYLINE
  5
25E
100
AcDbEntity
  8
0
100
AcDbPolyline
 62
7
  6
BYLAYER
 90
9
 70
0
 10
22.9864997898
 20
49.0317164277
 10
25.5253342868
 20
48.0054415222
 10
28.5122893537
 20
47.5428158384
 10
31.6164843261
 20
47.7002129979
 10
34.4271787082
 20
48.4600604455
 10
36.6096333507
 20
49.723642835
 10
37.9137893574
 20
51.3398267794
 10
38.1846979343
 20
53.1215344272
 10
37.4410067173
 20
54.7773507477
  0
LINE
  5
25F
100
AcDbEntity
  8
0
100
AcDbLine
 62
7
  6
BYLAYER
 10
39.2957396526
 20
43.3662084621
 11
39.2957396526
 21
51.8578336003
  0
LINE
  5
260
100
AcDbEntity
  8
0
100
AcDbLine
 62
7
  6
BYLAYER
 10
39.2957396526
 20
45.757651472
 11
48.0340884896
 21
40.7126775512
  0
LINE
  5
261
100
AcDbEntity
  8
0
100
AcDbLine
 62
7
  6
BYLAYER
 10
34.9526675012
 20
26.5464911259
 11
31.69998985
 21
24.6685680181
  0
LINE
  5
262
100
AcDbEntity
  8
0
100
AcDbLine
 62
7
  6
BYLAYER
 10
24.7076584556
 20
16.4485705548
 11
17.4598441242
 21
12.2640679776
  0
LINE
  5
263
100
AcDbEntity
  8
0
100
AcDbLine
 62
7
  6
BYLAYER
 10
30.3072108237
 20
56.1117064088
 11
30.3912524208
 21
56.0631860678
  0
LINE
  5
264
100
AcDbEntity
  8
0
100
AcDbLine
 62
7
  6
BYLAYER
 10
24.2957396526
 20
56.924145026
 11
24.1643005969
 21
56.8886115893
  0
LINE
  5
265
100
AcDbEntity
  8
0
100
AcDbLine
 62
7
  6
BYLAYER
 10
35.6049795153
 20
56.316955607
 11
34.2957396526
 21
56.846190584
  0
LINE
  5
266
100
AcDbEntity
  8
0
100
AcDbLine
 62
7
  6
BYLAYER
 10
26.1314504401
 20
60.1555714421
 11
25.9900293601
 21
60.2372231789
  0
LINE
  5
267
100
AcDbEntity
  8
0
100
AcDbLine
 62
7
  6
BYLAYER
 10
37.4410067173
 20
54.7773507477
 11
35.6049795153
 21
56.316955607
  0
LINE
  5
268
100
AcDbEntity
  8
0
100
AcDbLine
 62
7
  6
BYLAYER
 10
37.4410021351
 20
54.7773495651
 11
37.9680506722
 21
54.096925048
  0
LINE
  5
269
100
AcDbEntity
  8
0
100
AcDbLine
 62
7
  6
BYLAYER
 10
48.0340884896
 20
40.7126775512
 11
48.0340884896
 21
13.768097786
  0
LINE
  5
26A
100
AcDbEntity
  8
0
100
AcDbLine
 62
7
  6
BYLAYER
 10
26.2005447693
 20
12.2298089379
 11
27.8430311035
 21
13.1780932046
  0
LINE
  5
26B
100
AcDbEntity
  8
0
100
AcDbLine
 62
7
  6
BYLAYER
 10
29.0636094791
 20
12.473407893
 11
26.0684376974
 21
10.7441549808
  0
LWPOLYLINE
  5
26C
100
AcDbEntity
  8
0
100
AcDbPolyline
 62
7
  6
BYLAYER
 90
4
 70
0
 10
25.5755446847
 20
13.3123473008
 10
24.5124232509
 20
12.8789382833
 10
22.0367603043
 20
12.8581280488
 10
19.9350153783
 20
13.6931002373
  0
LINE
  5
26D
100
AcDbEntity
  8
0
100
AcDbLine
 62
7
  6
BYLAYER
 10
34.0902163528
 20
58.295812632
 11
34.1742579499
 21
58.247292291
  0
LINE
  5
26E
100
AcDbEntity
  8
0
100
AcDbLine
 62
7
  6
BYLAYER
 10
34.9526675012
 20
12.8292505181
 11
31.69998985
 21
10.9513274103
  0
LINE
  5
26F
100
AcDbEntity
  8
0
100
AcDbLine
 62
7
  6
BYLAYER
 10
26.3877639582
 20
7.8842163834
 11
25.9724010763
 21
7.6444079432
  0
LINE
  5
270
100
AcDbEntity
  8
0
100
AcDbLine
 62
7
  6
BYLAYER
 10
33.133717737
 20
10.2044767036
 11
28.0684287437
 21
7.2800481962
  0
LINE
  5
271
100
AcDbEntity
  8
0
100
AcDbLine
 62
7
  6
BYLAYER
 10
31.0634990163
 20
68.7185902272
 11
30.7099468368
 21
68.9227194384
  0
LINE
  5
272
100
AcDbEntity
  8
0
100
AcDbLine
 62
7
  6
BYLAYER
 10
34.9526675012
 20
6.2155809393
 11
48.0340884896
 21
13.768097786
  0
ARC
  5
273
100
AcDbEntity
  8
0
100
AcDbCircle
 62
7
  6
BYLAYER
 10
29.6116114982
 20
60.6752221587
 40
14.2759557337
100
AcDbArc
 50
282.6872902286
 51
282.8627069633
  0
ARC
  5
274
100
AcDbEntity
  8
0
100
AcDbCircle
 62
7
  6
BYLAYER
 10
22.8125235084
 20
29.7518380223
 40
13.2097067088
100
AcDbArc
 50
180.0036938936
 51
181.6468474006
  0
ARC
  5
275
100
AcDbEntity
  8
0
100
AcDbCircle
 62
7
  6
BYLAYER
 10
27.9596261674
 20
58.0114730839
 40
11.7386419623
100
AcDbArc
 50
246.7412290552
 51
248.4182885758
  0
ARC
  5
276
100
AcDbEntity
  8
0
100
AcDbCircle
 62
7
  6
BYLAYER
 10
29.3317449127
 20
64.2358998914
 40
8.2411047441
100
AcDbArc
 50
276.8360289603
 51
277.3866060531
  0
ARC
  5
277
100
AcDbEntity
  8
0
100
AcDbCircle
 62
7
  6
BYLAYER
 10
30.8654064179
 20
55.4671043929
 40
6.1996047628
100
AcDbArc
 50
299.9996545772
 51
300.279678021
  0
ARC
  5
278
100
AcDbEntity
  8
0
100
AcDbCircle
 62
7
  6
BYLAYER
 10
28.9031977939
 20
61.5684465029
 40
6.0494102262
100
AcDbArc
 50
0.0554462663
 51
3.7413739866
  0
ARC
  5
279
100
AcDbEntity
  8
0
100
AcDbCircle
 62
7
  6
BYLAYER
 10
29.2957396526
 20
62.3907147812
 40
6.0
100
AcDbArc
 50
44.9757175592
 51
52.8717729588
  0
ARC
  5
27A
100
AcDbEntity
  8
0
100
AcDbCircle
 62
7
  6
BYLAYER
 10
27.7418081272
 20
63.785557733
 40
5.9329824491
100
AcDbArc
 50
56.2234638253
 51
59.9816269759
  0
ARC
  5
27B
100
AcDbEntity
  8
0
100
AcDbCircle
 62
7
  6
BYLAYER
 10
24.1563999896
 20
17.4241037086
 40
4.2709926365
100
AcDbArc
 50
289.0116021022
 51
294.3315647596
  0
ARC
  5
27C
100
AcDbEntity
  8
0
100
AcDbCircle
 62
7
  6
BYLAYER
 10
15.9152130353
 20
31.6928740475
 40
4.2521699643
100
AcDbArc
 50
125.6396583078
 51
130.99753275
  0
ARC
  5
27D
100
AcDbEntity
  8
0
100
AcDbCircle
 62
7
  6
BYLAYER
 10
27.4341615107
 20
60.9502529664
 40
2.922026899
100
AcDbArc
 50
353.3214080538
 51
357.7484726247
  0
ARC
  5
27E
100
AcDbEntity
  8
0
100
AcDbCircle
 62
7
  6
BYLAYER
 10
25.9610869695
 20
58.879786119
 40
1.6653503209
100
AcDbArc
 50
180.001091325
 51
180.5707436906
  0
ARC
  5
27F
100
AcDbEntity
  8
0
100
AcDbCircle
 62
7
  6
BYLAYER
 10
32.6303923365
 20
58.8797226561
 40
1.6653503201
100
AcDbArc
 50
0.0010913249
 51
0.5707436908
  0
ARC
  5
280
100
AcDbEntity
  8
0
100
AcDbCircle
 62
7
  6
BYLAYER
 10
25.9605974277
 20
58.8797858022
 40
1.6648607791
100
AcDbArc
 50
179.3636329235
 51
180.0010807421
  0
ARC
  5
281
100
AcDbEntity
  8
0
100
AcDbCircle
 62
7
  6
BYLAYER
 10
32.5628474161
 20
65.218063748
 40
1.6328968494
100
AcDbArc
 50
355.9334677384
 51
359.9971792346
  0
SPLINE
  5
282
100
AcDbEntity
  8
0
100
AcDbSpline
 62
7
  6
BYLAYER
 70
0
 71
3
 72
25
 73
21
 74
0
 42
0.0000001
 43
0.0000001
 44
0.0000000001
 40
0.0
 40
0.0
 40
0.0
 40
0.0
 40
0.021332095
 40
0.0428928498
 40
0.0648982948
 40
0.0875438233
 40
0.1353189869
 40
0.187219658
 40
0.2436574648
 40
0.3046046779
 40
0.3696909325
 40
0.4382870676
 40
0.5095731726
 40
0.5825970891
 40
0.6563272093
 40
0.7297037078
 40
0.8016824001
 40
0.8712693956
 40
0.9376259174
 40
1.0
 40
1.0
 40
1.0
 40
1.0
 10
25.6150312869
 20
61.948195117
 30
0.0
 10
25.6242456676
 20
61.9535147451
 30
0.0
 10
25.6434827891
 20
61.9630307509
 30
0.0
 10
25.6741497978
 20
61.9736344023
 30
0.0
 10
25.7065271949
 20
61.9805419035
 30
0.0
 10
25.7525140789
 20
61.9848521218
 30
0.0
 10
25.8138278543
 20
61.9803548491
 30
0.0
 10
25.8894258788
 20
61.9602624811
 30
0.0
 10
25.9669236835
 20
61.9260128872
 30
0.0
 10
26.0447514988
 20
61.8783959453
 30
0.0
 10
26.1213381053
 20
61.8184396969
 30
0.0
 10
26.1950906457
 20
61.7474122068
 30
0.0
 10
26.2644552888
 20
61.666816583
 30
0.0
 10
26.3279616386
 20
61.5783688338
 30
0.0
 10
26.3842595447
 20
61.483955454
 30
0.0
 10
26.4321469437
 20
61.3855869967
 30
0.0
 10
26.4705947241
 20
61.2853636602
 30
0.0
 10
26.4988029903
 20
61.1854038697
 30
0.0
 10
26.5161407221
 20
61.087853858
 30
0.0
 10
26.5203615074
 20
61.0236052209
 30
0.0
 10
26.5203615074
 20
60.9924952131
 30
0.0
  0
SPLINE
  5
283
100
AcDbEntity
  8
0
100
AcDbSpline
 62
7
  6
BYLAYER
 70
0
 71
3
 72
19
 73
15
 74
0
 42
0.0000001
 43
0.0000001
 44
0.0000000001
 40
0.0
 40
0.0
 40
0.0
 40
0.0
 40
0.055834458
 40
0.1142094064
 40
0.1748278868
 40
0.2374075105
 40
0.3670190603
 40
0.5000015571
 40
0.6329838374
 40
0.762594755
 40
0.8251739209
 40
0.8857918658
 40
0.9441662096
 40
1.0
 40
1.0
 40
1.0
 40
1.0
 10
25.0707869672
 20
61.8293803189
 30
0.0
 10
25.0707872066
 20
61.7938285364
 30
0.0
 10
25.0739534516
 20
61.7210811388
 30
0.0
 10
25.0873396797
 20
61.6104753718
 30
0.0
 10
25.1093833855
 20
61.4968850007
 30
0.0
 10
25.1504823433
 20
61.3411477973
 30
0.0
 10
25.2221604352
 20
61.1463172245
 30
0.0
 10
25.3359140792
 20
60.9210058423
 30
0.0
 10
25.4741643547
 20
60.7098382092
 30
0.0
 10
25.607054587
 20
60.5503498221
 30
0.0
 10
25.7213780221
 20
60.4368904881
 30
0.0
 10
25.8087284817
 20
60.3610066312
 30
0.0
 10
25.8978227691
 20
60.294112843
 30
0.0
 10
25.9592406609
 20
60.2549984714
 30
0.0
 10
25.9900292136
 20
60.2372230943
 30
0.0
  0
SPLINE
  5
284
100
AcDbEntity
  8
0
100
AcDbSpline
 62
7
  6
BYLAYER
 70
0
 71
3
 72
15
 73
11
 74
0
 42
0.0000001
 43
0.0000001
 44
0.0000000001
 40
0.0
 40
0.0
 40
0.0
 40
0.0
 40
0.1080132808
 40
0.2180617278
 40
0.3319995396
 40
0.4513614582
 40
0.5772752832
 40
0.7104914711
 40
0.8514274728
 40
1.0
 40
1.0
 40
1.0
 40
1.0
 10
25.3814536306
 20
62.6793648226
 30
0.0
 10
25.3568601478
 20
62.6651658544
 30
0.0
 10
25.3095779882
 20
62.6321686413
 30
0.0
 10
25.2470995182
 20
62.5706831242
 30
0.0
 10
25.1933639973
 20
62.4977063069
 30
0.0
 10
25.1488795651
 20
62.414056423
 30
0.0
 10
25.1139732875
 20
62.3205964951
 30
0.0
 10
25.0889266031
 20
62.2182160841
 30
0.0
 10
25.073938462
 20
62.1079152616
 30
0.0
 10
25.0707856852
 20
62.0317475167
 30
0.0
 10
25.0707856852
 20
61.9926859101
 30
0.0
  0
SPLINE
  5
285
100
AcDbEntity
  8
0
100
AcDbSpline
 62
7
  6
BYLAYER
 70
0
 71
3
 72
15
 73
11
 74
0
 42
0.0000001
 43
0.0000001
 44
0.0000000001
 40
0.0
 40
0.0
 40
0.0
 40
0.0
 40
0.1485719805
 40
0.2895075541
 40
0.4227234707
 40
0.5486372073
 40
0.6679992337
 40
0.781937334
 40
0.891986211
 40
1.0
 40
1.0
 40
1.0
 40
1.0
 10
26.131450273
 20
60.1555711526
 30
0.0
 10
26.1652777771
 20
60.1360412759
 30
0.0
 10
26.2328156694
 20
60.1006895047
 30
0.0
 10
26.3358303725
 20
60.0585213973
 30
0.0
 10
26.4370150851
 20
60.0290239547
 30
0.0
 10
26.5354043089
 20
60.0125248857
 30
0.0
 10
26.6300870041
 20
60.0092252134
 30
0.0
 10
26.7201522992
 20
60.0192731907
 30
0.0
 10
26.8046375805
 20
60.0426378577
 30
0.0
 10
26.8568539757
 20
60.0670860796
 30
0.0
 10
26.8814469153
 20
60.0812847341
 30
0.0
  0
SPLINE
  5
286
100
AcDbEntity
  8
0
100
AcDbSpline
 62
7
  6
BYLAYER
 70
0
 71
3
 72
14
 73
10
 74
0
 42
0.0000001
 43
0.0000001
 44
0.0000000001
 40
0.0
 40
0.0
 40
0.0
 40
0.0
 40
0.1485923335
 40
0.289630174
 40
0.5484427936
 40
0.6678481703
 40
0.7818437554
 40
0.8919406425
 40
1.0
 40
1.0
 40
1.0
 40
1.0
 10
26.5203615074
 20
60.9924952131
 30
0.0
 10
26.5203615074
 20
60.9729706319
 30
0.0
 10
26.518777812
 20
60.9348762404
 30
0.0
 10
26.5090822558
 20
60.8634216977
 30
0.0
 10
26.4895343706
 20
60.7972520639
 30
0.0
 10
26.4590667047
 20
60.7399911128
 30
0.0
 10
26.4322063224
 20
60.703494033
 30
0.0
 10
26.4009624589
 20
60.6727563377
 30
0.0
 10
26.3773237219
 20
60.6562554795
 30
0.0
 10
26.3650271402
 20
60.6491564411
 30
0.0
  0
SPLINE
  5
287
100
AcDbEntity
  8
0
100
AcDbSpline
 62
7
  6
BYLAYER
 70
0
 71
3
 72
25
 73
21
 74
0
 42
0.0000001
 43
0.0000001
 44
0.0000000001
 40
0.0
 40
0.0
 40
0.0
 40
0.0
 40
0.021332095
 40
0.0428928498
 40
0.0648982948
 40
0.0875438233
 40
0.1353189869
 40
0.187219658
 40
0.2436574648
 40
0.3046046779
 40
0.3696909325
 40
0.4382870676
 40
0.5095731726
 40
0.5825970891
 40
0.6563272093
 40
0.7297037078
 40
0.8016824001
 40
0.8712693956
 40
0.9376259174
 40
1.0
 40
1.0
 40
1.0
 40
1.0
 10
26.3650271402
 20
60.6491564411
 30
0.0
 10
26.3558127596
 20
60.6438368129
 30
0.0
 10
26.3365756381
 20
60.6343208072
 30
0.0
 10
26.3059086294
 20
60.6237171557
 30
0.0
 10
26.2735312323
 20
60.6168096545
 30
0.0
 10
26.2275443483
 20
60.6124994363
 30
0.0
 10
26.1662305729
 20
60.6169967089
 30
0.0
 10
26.0906325484
 20
60.6370890769
 30
0.0
 10
26.0131347437
 20
60.6713386708
 30
0.0
 10
25.9353069284
 20
60.7189556127
 30
0.0
 10
25.8587203219
 20
60.7789118611
 30
0.0
 10
25.7849677815
 20
60.8499393512
 30
0.0
 10
25.7156031384
 20
60.930534975
 30
0.0
 10
25.6520967885
 20
61.0189827242
 30
0.0
 10
25.5957988825
 20
61.113396104
 30
0.0
 10
25.5479114834
 20
61.2117645614
 30
0.0
 10
25.5094637031
 20
61.3119878979
 30
0.0
 10
25.4812554368
 20
61.4119476884
 30
0.0
 10
25.4639177051
 20
61.5094977
 30
0.0
 10
25.4596969197
 20
61.5737463372
 30
0.0
 10
25.4596969197
 20
61.6048563449
 30
0.0
  0
SPLINE
  5
288
100
AcDbEntity
  8
0
100
AcDbSpline
 62
7
  6
BYLAYER
 70
0
 71
3
 72
19
 73
15
 74
0
 42
0.0000001
 43
0.0000001
 44
0.0000000001
 40
0.0
 40
0.0
 40
0.0
 40
0.0
 40
0.055840264
 40
0.1142091933
 40
0.1748240212
 40
0.2374068459
 40
0.3670178759
 40
0.5000010801
 40
0.6329841338
 40
0.7625947243
 40
0.8251772317
 40
0.8857916858
 40
0.9441601937
 40
1.0
 40
1.0
 40
1.0
 40
1.0
 10
27.1921148607
 20
60.7679636466
 30
0.0
 10
27.1921148607
 20
60.808989417
 30
0.0
 10
27.1884658058
 20
60.8929292925
 30
0.0
 10
27.1730149876
 20
61.0205485941
 30
0.0
 10
27.147584121
 20
61.1516109395
 30
0.0
 10
27.1001622776
 20
61.3313081324
 30
0.0
 10
27.017457623
 20
61.556116751
 30
0.0
 10
26.8862053984
 20
61.8160951207
 30
0.0
 10
26.7266826588
 20
62.0597510406
 30
0.0
 10
26.5733444669
 20
62.2437783703
 30
0.0
 10
26.4414328381
 20
62.3746940936
 30
0.0
 10
26.3406449632
 20
62.4622478136
 30
0.0
 10
26.2378489442
 20
62.5394369083
 30
0.0
 10
26.1669795421
 20
62.584566035
 30
0.0
 10
26.131450273
 20
62.605078404
 30
0.0
  0
SPLINE
  5
289
100
AcDbEntity
  8
0
100
AcDbSpline
 62
7
  6
BYLAYER
 70
0
 71
3
 72
15
 73
11
 74
0
 42
0.0000001
 43
0.0000001
 44
0.0000000001
 40
0.0
 40
0.0
 40
0.0
 40
0.0
 40
0.1485719805
 40
0.2895075541
 40
0.4227234707
 40
0.5486372073
 40
0.6679992337
 40
0.781937334
 40
0.891986211
 40
1.0
 40
1.0
 40
1.0
 40
1.0
 10
26.131450273
 20
62.605078404
 30
0.0
 10
26.0976227689
 20
62.6246082808
 30
0.0
 10
26.0300848765
 20
62.659960052
 30
0.0
 10
25.9270701735
 20
62.7021281594
 30
0.0
 10
25.8258854608
 20
62.731625602
 30
0.0
 10
25.727496237
 20
62.748124671
 30
0.0
 10
25.6328135418
 20
62.7514243432
 30
0.0
 10
25.5427482468
 20
62.741376366
 30
0.0
 10
25.4582629654
 20
62.718011699
 30
0.0
 10
25.4060465702
 20
62.6935634771
 30
0.0
 10
25.3814536306
 20
62.6793648226
 30
0.0
  0
SPLINE
  5
28A
100
AcDbEntity
  8
0
100
AcDbSpline
 62
7
  6
BYLAYER
 70
0
 71
3
 72
22
 73
18
 74
0
 42
0.0000001
 43
0.0000001
 44
0.0000000001
 40
0.0
 40
0.0
 40
0.0
 40
0.0
 40
0.0759964512
 40
0.1485470673
 40
0.2175584428
 40
0.2831543795
 40
0.3455959554
 40
0.4052705666
 40
0.4627023124
 40
0.5185630136
 40
0.5736282187
 40
0.6287318291
 40
0.6847052466
 40
0.7423158741
 40
0.8022238443
 40
0.8649393758
 40
1.0
 40
1.0
 40
1.0
 40
1.0
 10
25.9900292136
 20
62.3601284637
 30
0.0
 10
25.9637680731
 20
62.3752899973
 30
0.0
 10
25.9113068216
 20
62.4030313798
 30
0.0
 10
25.8313815304
 20
62.4371780801
 30
0.0
 10
25.7525934434
 20
62.462597459
 30
0.0
 10
25.6755662292
 20
62.4790920332
 30
0.0
 10
25.6008599945
 20
62.4864934357
 30
0.0
 10
25.5290403984
 20
62.4847382009
 30
0.0
 10
25.460676835
 20
62.4737534666
 30
0.0
 10
25.3963317291
 20
62.4536179032
 30
0.0
 10
25.3365715652
 20
62.4244362598
 30
0.0
 10
25.2819058626
 20
62.3864837268
 30
0.0
 10
25.2328212056
 20
62.3400719424
 30
0.0
 10
25.189685666
 20
62.2856471085
 30
0.0
 10
25.1528367835
 20
62.2236518994
 30
0.0
 10
25.1113839599
 20
62.1293485828
 30
0.0
 10
25.0921445462
 20
62.0520669517
 30
0.0
 10
25.0836411035
 20
61.9988510966
 30
0.0
  0
SPLINE
  5
28B
100
AcDbEntity
  8
0
100
AcDbSpline
 62
7
  6
BYLAYER
 70
0
 71
3
 72
9
 73
5
 74
0
 42
0.0000001
 43
0.0000001
 44
0.0000000001
 40
0.0
 40
0.0
 40
0.0
 40
0.0
 40
0.2417693332
 40
1.0
 40
1.0
 40
1.0
 40
1.0
 10
25.0836411035
 20
61.9988510966
 30
0.0
 10
25.0814786916
 20
61.9853183894
 30
0.0
 10
25.07376674
 20
61.9291506181
 30
0.0
 10
25.0707869671
 20
61.8723678678
 30
0.0
 10
25.0707869671
 20
61.8293885311
 30
0.0
  0
SPLINE
  5
28C
100
AcDbEntity
  8
0
100
AcDbSpline
 62
7
  6
BYLAYER
 70
0
 71
3
 72
9
 73
5
 74
0
 42
0.0000001
 43
0.0000001
 44
0.0000000001
 40
0.0
 40
0.0
 40
0.0
 40
0.0
 40
0.2582967349
 40
1.0
 40
1.0
 40
1.0
 40
1.0
 10
25.9900292136
 20
60.2372230943
 30
0.0
 10
26.0027086861
 20
60.229902763
 30
0.0
 10
26.052300053
 20
60.2024511271
 30
0.0
 10
26.1039466699
 20
60.1786370476
 30
0.0
 10
26.1432167777
 20
60.1636251895
 30
0.0
  0
SPLINE
  5
28D
100
AcDbEntity
  8
0
100
AcDbSpline
 62
7
  6
BYLAYER
 70
0
 71
3
 72
33
 73
29
 74
0
 42
0.0000001
 43
0.0000001
 44
0.0000000001
 40
0.0
 40
0.0
 40
0.0
 40
0.0
 40
0.0282606487
 40
0.0550414877
 40
0.0804620477
 40
0.1047030676
 40
0.1280132893
 40
0.1507104695
 40
0.1731590349
 40
0.1957430021
 40
0.2188358126
 40
0.2427699904
 40
0.2940843635
 40
0.3218949215
 40
0.3512192693
 40
0.3820645223
 40
0.4143902026
 40
0.4830683464
 40
0.556241981
 40
0.5940882221
 40
0.6324945051
 40
0.7100904669
 40
0.7872835207
 40
0.8623312727
 40
0.8985569046
 40
0.9336761386
 40
0.9675425802
 40
1.0
 40
1.0
 40
1.0
 40
1.0
 10
26.1432167777
 20
60.1636251895
 30
0.0
 10
26.1705561848
 20
60.1531741028
 30
0.0
 10
26.224806759
 20
60.1353005616
 30
0.0
 10
26.3064499996
 20
60.1177750598
 30
0.0
 10
26.3854903717
 20
60.1104608334
 30
0.0
 10
26.4612469458
 20
60.1134464244
 30
0.0
 10
26.5330422601
 20
60.1268032878
 30
0.0
 10
26.6001983641
 20
60.1504406267
 30
0.0
 10
26.6620447145
 20
60.1841864146
 30
0.0
 10
26.717969204
 20
60.2276948114
 30
0.0
 10
26.767439055
 20
60.2805317102
 30
0.0
 10
26.8255364702
 20
60.3645622331
 30
0.0
 10
26.8672982362
 20
60.4641973678
 30
0.0
 10
26.8935573616
 20
60.5735029917
 30
0.0
 10
26.9060076514
 20
60.6639255872
 30
0.0
 10
26.9105698953
 20
60.7597228004
 30
0.0
 10
26.9059925166
 20
60.8963260823
 30
0.0
 10
26.8796450617
 20
61.0754128623
 30
0.0
 10
26.8294279586
 20
61.2550871418
 30
0.0
 10
26.7752604605
 20
61.4001278278
 30
0.0
 10
26.711268187
 20
61.5461273123
 30
0.0
 10
26.6161196051
 20
61.7226226713
 30
0.0
 10
26.4813057614
 20
61.9193246031
 30
0.0
 10
26.3536466762
 20
62.0676115484
 30
0.0
 10
26.2446809895
 20
62.1731518432
 30
0.0
 10
26.1616982321
 20
62.2438990423
 30
0.0
 10
26.0772338364
 20
62.3065150245
 30
0.0
 10
26.0191411657
 20
62.3433210506
 30
0.0
 10
25.9900292136
 20
62.3601284637
 30
0.0
  0
SPLINE
  5
28E
100
AcDbEntity
  8
0
100
AcDbSpline
 62
7
  6
BYLAYER
 70
0
 71
3
 72
14
 73
10
 74
0
 42
0.0000001
 43
0.0000001
 44
0.0000000001
 40
0.0
 40
0.0
 40
0.0
 40
0.0
 40
0.1485923335
 40
0.289630174
 40
0.5484427936
 40
0.6678481703
 40
0.7818437554
 40
0.8919406425
 40
1.0
 40
1.0
 40
1.0
 40
1.0
 10
25.4596969197
 20
61.6048563449
 30
0.0
 10
25.4596969197
 20
61.6243809261
 30
0.0
 10
25.4612806151
 20
61.6624753177
 30
0.0
 10
25.4709761714
 20
61.7339298603
 30
0.0
 10
25.4905240565
 20
61.8000994942
 30
0.0
 10
25.5209917225
 20
61.8573604452
 30
0.0
 10
25.5478521048
 20
61.893857525
 30
0.0
 10
25.5790959683
 20
61.9245952203
 30
0.0
 10
25.6027347053
 20
61.9410960786
 30
0.0
 10
25.6150312869
 20
61.948195117
 30
0.0
  0
SPLINE
  5
28F
100
AcDbEntity
  8
0
100
AcDbSpline
 62
7
  6
BYLAYER
 70
0
 71
3
 72
11
 73
7
 74
0
 42
0.0000001
 43
0.0000001
 44
0.0000000001
 40
0.0
 40
0.0
 40
0.0
 40
0.0
 40
0.2454160335
 40
0.4927066646
 40
0.7436758713
 40
1.0
 40
1.0
 40
1.0
 40
1.0
 10
26.8814469153
 20
60.0812847341
 30
0.0
 10
26.8969823841
 20
60.090254087
 30
0.0
 10
26.9272226873
 20
60.1099639641
 30
0.0
 10
26.9694103564
 20
60.1443988911
 30
0.0
 10
27.0083307694
 20
60.1836152674
 30
0.0
 10
27.0317102248
 20
60.2124872317
 30
0.0
 10
27.0427991287
 20
60.2275894951
 30
0.0
  0
SPLINE
  5
290
100
AcDbEntity
  8
0
100
AcDbSpline
 62
7
  6
BYLAYER
 70
0
 71
3
 72
11
 73
7
 74
0
 42
0.0000001
 43
0.0000001
 44
0.0000000001
 40
0.0
 40
0.0
 40
0.0
 40
0.0
 40
0.2228664945
 40
0.4624185264
 40
0.7212307371
 40
1.0
 40
1.0
 40
1.0
 40
1.0
 10
27.0427991287
 20
60.2275894951
 30
0.0
 10
27.0678308506
 20
60.261680841
 30
0.0
 10
27.112242731
 20
60.3381411795
 30
0.0
 10
27.1586324345
 20
60.4675492637
 30
0.0
 10
27.1864166215
 20
60.6128998726
 30
0.0
 10
27.1921148607
 20
60.7150604585
 30
0.0
 10
27.1921148607
 20
60.7679636466
 30
0.0
  0
SPLINE
  5
291
100
AcDbEntity
  8
0
100
AcDbSpline
 62
7
  6
BYLAYER
 70
0
 71
3
 72
18
 73
14
 74
0
 42
0.0000001
 43
0.0000001
 44
0.0000000001
 40
0.0
 40
0.0
 40
0.0
 40
0.0
 40
0.0539109731
 40
0.1080803067
 40
0.1627601212
 40
0.2181913446
 40
0.2745967493
 40
0.3321803562
 40
0.4515062931
 40
0.5773940332
 40
0.7105735488
 40
0.8514474612
 40
1.0
 40
1.0
 40
1.0
 40
1.0
 10
24.8815459619
 20
67.5868893869
 30
0.0
 10
24.8324328047
 20
67.558534063
 30
0.0
 10
24.7363471426
 20
67.4974549703
 30
0.0
 10
24.599993496
 20
67.3935919026
 30
0.0
 10
24.471591453
 20
67.2776335733
 30
0.0
 10
24.3514800878
 20
67.1498784305
 30
0.0
 10
24.2399190111
 20
67.0106594621
 30
0.0
 10
24.1013446407
 20
66.8078475462
 30
0.0
 10
23.9512062692
 20
66.5256398249
 30
0.0
 10
23.8116407563
 20
66.1518148383
 30
0.0
 10
23.711443327
 20
65.7423044724
 30
0.0
 10
23.6514694532
 20
65.3011104842
 30
0.0
 10
23.6388741804
 20
64.9964415292
 30
0.0
 10
23.6388741804
 20
64.8401737371
 30
0.0
  0
SPLINE
  5
292
100
AcDbEntity
  8
0
100
AcDbSpline
 62
7
  6
BYLAYER
 70
0
 71
3
 72
9
 73
5
 74
0
 42
0.0000001
 43
0.0000001
 44
0.0000000001
 40
0.0
 40
0.0
 40
0.0
 40
0.0
 40
0.5035809377
 40
1.0
 40
1.0
 40
1.0
 40
1.0
 10
30.3261397585
 20
56.9753525124
 30
0.0
 10
30.4239312986
 20
56.9984990037
 30
0.0
 10
30.615202156
 20
57.0580550022
 30
0.0
 10
30.7957267704
 20
57.1450371062
 30
0.0
 10
30.8815191007
 20
57.1945690331
 30
0.0
  0
SPLINE
  5
293
100
AcDbEntity
  8
0
100
AcDbSpline
 62
7
  6
BYLAYER
 70
0
 71
3
 72
18
 73
14
 74
0
 42
0.0000001
 43
0.0000001
 44
0.0000000001
 40
0.0
 40
0.0
 40
0.0
 40
0.0
 40
0.0539112308
 40
0.108080812
 40
0.1627608545
 40
0.2181922775
 40
0.2745978463
 40
0.3321815761
 40
0.4515076217
 40
0.5773952755
 40
0.71057452
 40
0.8514480057
 40
1.0
 40
1.0
 40
1.0
 40
1.0
 10
27.7099602675
 20
69.2198654
 30
0.0
 10
27.7590723431
 20
69.2482200994
 30
0.0
 10
27.8600092023
 20
69.300891582
 30
0.0
 10
28.0181307023
 20
69.3670439214
 30
0.0
 10
28.1827508731
 20
69.420262873
 30
0.0
 10
28.3534417357
 20
69.4604040429
 30
0.0
 10
28.5297851416
 20
69.4874090903
 30
0.0
 10
28.7747063697
 20
69.5060125357
 30
0.0
 10
29.0941662316
 20
69.4949344251
 30
0.0
 10
29.4876805785
 20
69.4288938985
 30
0.0
 10
29.8924150064
 20
69.3109190247
 30
0.0
 10
30.3044764173
 20
69.1422697017
 30
0.0
 10
30.574618317
 20
69.0008499157
 30
0.0
 10
30.7099468368
 20
68.9227197259
 30
0.0
  0
SPLINE
  5
294
100
AcDbEntity
  8
0
100
AcDbSpline
 62
7
  6
BYLAYER
 70
0
 71
3
 72
9
 73
5
 74
0
 42
0.0000001
 43
0.0000001
 44
0.0000000001
 40
0.0
 40
0.0
 40
0.0
 40
0.0
 40
0.5096680337
 40
1.0
 40
1.0
 40
1.0
 40
1.0
 10
30.3164486853
 20
61.1238558343
 30
0.0
 10
30.3295084003
 20
61.0275718765
 30
0.0
 10
30.3493310028
 20
60.8378142491
 30
0.0
 10
30.356419587
 20
60.6471227257
 30
0.0
 10
30.356419587
 20
60.5536434337
 30
0.0
  0
SPLINE
  5
295
100
AcDbEntity
  8
0
100
AcDbSpline
 62
7
  6
BYLAYER
 70
0
 71
3
 72
23
 73
19
 74
0
 42
0.0000001
 43
0.0000001
 44
0.0000000001
 40
0.0
 40
0.0
 40
0.0
 40
0.0
 40
0.0558327145
 40
0.114181631
 40
0.1747819614
 40
0.2373524317
 40
0.3015477405
 40
0.3669909726
 40
0.4332810808
 40
0.4999985896
 40
0.5667159682
 40
0.6330060938
 40
0.6984499883
 40
0.7626452938
 40
0.8252157843
 40
0.8858200672
 40
0.9441613206
 40
1.0
 40
1.0
 40
1.0
 40
1.0
 10
31.0634992456
 20
68.7185903596
 30
0.0
 10
31.1937854056
 20
68.6433713117
 30
0.0
 10
31.4536421444
 20
68.4779097703
 30
0.0
 10
31.8305485489
 20
68.1948711529
 30
0.0
 10
32.2000807624
 20
67.8738562545
 30
0.0
 10
32.5586866873
 20
67.5180042852
 30
0.0
 10
32.9029730762
 20
67.1306701411
 30
0.0
 10
33.2296520177
 20
66.7155677966
 30
0.0
 10
33.5356059624
 20
66.2766652253
 30
0.0
 10
33.8178987618
 20
65.8181529688
 30
0.0
 10
34.0738355647
 20
65.3444242479
 30
0.0
 10
34.3009710752
 20
64.8600130389
 30
0.0
 10
34.4971271372
 20
64.3695499019
 30
0.0
 10
34.6604246185
 20
63.877720116
 30
0.0
 10
34.7893105186
 20
63.3892243411
 30
0.0
 10
34.8825513822
 20
62.9087029751
 30
0.0
 10
34.9392376522
 20
62.4407693495
 30
0.0
 10
34.9525958584
 20
62.1330001253
 30
0.0
 10
34.9525969166
 20
61.9825434045
 30
0.0
  0
SPLINE
  5
296
100
AcDbEntity
  8
0
100
AcDbSpline
 62
7
  6
BYLAYER
 70
0
 71
3
 72
14
 73
10
 74
0
 42
0.0000001
 43
0.0000001
 44
0.0000000001
 40
0.0
 40
0.0
 40
0.0
 40
0.0
 40
0.1129955142
 40
0.2301478597
 40
0.3511647872
 40
0.4756921595
 40
0.6033196409
 40
0.7335916104
 40
1.0
 40
1.0
 40
1.0
 40
1.0
 10
23.638882446
 20
64.4318910348
 30
0.0
 10
23.6388832964
 20
64.3114688316
 30
0.0
 10
23.6474101123
 20
64.0661314979
 30
0.0
 10
23.6840486695
 20
63.693465522
 30
0.0
 10
23.744515929
 20
63.3114712567
 30
0.0
 10
23.8284436981
 20
62.9225356626
 30
0.0
 10
23.9353170396
 20
62.5290361796
 30
0.0
 10
24.1087661426
 20
61.9976994726
 30
0.0
 10
24.2692924652
 20
61.6057031085
 30
0.0
 10
24.3887434348
 20
61.3481356004
 30
0.0
  0
SPLINE
  5
297
100
AcDbEntity
  8
0
100
AcDbSpline
 62
7
  6
BYLAYER
 70
0
 71
3
 72
18
 73
14
 74
0
 42
0.0000001
 43
0.0000001
 44
0.0000000001
 40
0.0
 40
0.0
 40
0.0
 40
0.0
 40
0.1485525388
 40
0.2894264512
 40
0.4226059668
 40
0.5484937069
 40
0.6678196438
 40
0.7254032507
 40
0.7818086554
 40
0.8372398788
 40
0.8919196933
 40
0.9460890269
 40
1.0
 40
1.0
 40
1.0
 40
1.0
 10
34.9526051877
 20
61.574260696
 30
0.0
 10
34.9526051877
 20
61.4179929039
 30
0.0
 10
34.9400099149
 20
61.1133239489
 30
0.0
 10
34.8800360411
 20
60.6721299607
 30
0.0
 10
34.7798386119
 20
60.2626195948
 30
0.0
 10
34.6402730989
 20
59.8887946082
 30
0.0
 10
34.4901347274
 20
59.6065868869
 30
0.0
 10
34.351560357
 20
59.403774971
 30
0.0
 10
34.2399992803
 20
59.2645560026
 30
0.0
 10
34.1198879152
 20
59.1368008598
 30
0.0
 10
33.9914858721
 20
59.0208425305
 30
0.0
 10
33.8551322255
 20
58.9169794628
 30
0.0
 10
33.7590465634
 20
58.8559003701
 30
0.0
 10
33.7099334062
 20
58.8275450462
 30
0.0
  0
SPLINE
  5
298
100
AcDbEntity
  8
0
100
AcDbSpline
 62
7
  6
BYLAYER
 70
0
 71
3
 72
26
 73
22
 74
0
 42
0.0000001
 43
0.0000001
 44
0.0000000001
 40
0.0
 40
0.0
 40
0.0
 40
0.0
 40
0.0753045298
 40
0.1469664043
 40
0.2149500962
 40
0.2476207867
 40
0.2794436208
 40
0.3406877093
 40
0.3991687765
 40
0.455517902
 40
0.4831527288
 40
0.5105567147
 40
0.537843269
 40
0.5651278756
 40
0.6201095747
 40
0.6764306287
 40
0.7348721452
 40
0.7960674669
 40
0.8604811534
 40
0.9284105079
 40
1.0
 40
1.0
 40
1.0
 40
1.0
 10
27.5279800595
 20
66.6773695238
 30
0.0
 10
27.4111573384
 20
66.7448156274
 30
0.0
 10
27.1778892481
 20
66.86763693
 30
0.0
 10
26.8223284318
 20
67.016713595
 30
0.0
 10
26.5268346572
 20
67.1080258593
 30
0.0
 10
26.2949954864
 20
67.1592283237
 30
0.0
 10
26.0725497112
 20
67.1951905723
 30
0.0
 10
25.8009840688
 20
67.2145217536
 30
0.0
 10
25.4852117933
 20
67.19492913
 30
0.0
 10
25.2344383477
 20
67.1421835885
 30
0.0
 10
25.0451135861
 20
67.0786352225
 30
0.0
 10
24.9092864334
 20
67.0207951085
 30
0.0
 10
24.7790484168
 20
66.9526147052
 30
0.0
 10
24.6128667218
 20
66.8479022519
 30
0.0
 10
24.4193554994
 20
66.6905936775
 30
0.0
 10
24.2151254185
 20
66.4638163068
 30
0.0
 10
24.0397424128
 20
66.20068198
 30
0.0
 10
23.8946042441
 20
65.9036726474
 30
0.0
 10
23.7807239076
 20
65.5754162113
 30
0.0
 10
23.6988825807
 20
65.218759005
 30
0.0
 10
23.6669055279
 20
64.9704704124
 30
0.0
 10
23.6559786113
 20
64.8426971097
 30
0.0
  0
SPLINE
  5
299
100
AcDbEntity
  8
0
100
AcDbSpline
 62
7
  6
BYLAYER
 70
0
 71
3
 72
9
 73
5
 74
0
 42
0.0000001
 43
0.0000001
 44
0.0000000001
 40
0.0
 40
0.0
 40
0.0
 40
0.0
 40
0.2454224487
 40
1.0
 40
1.0
 40
1.0
 40
1.0
 10
23.6559786113
 20
64.8426971097
 30
0.0
 10
23.6531120856
 20
64.8091775485
 30
0.0
 10
23.6429720892
 20
64.6724694727
 30
0.0
 10
23.6388817155
 20
64.5353266761
 30
0.0
 10
23.638882446
 20
64.4318910348
 30
0.0
  0
SPLINE
  5
29A
100
AcDbEntity
  8
0
100
AcDbSpline
 62
7
  6
BYLAYER
 70
0
 71
3
 72
23
 73
19
 74
0
 42
0.0000001
 43
0.0000001
 44
0.0000000001
 40
0.0
 40
0.0
 40
0.0
 40
0.0
 40
0.0558344003
 40
0.1141820664
 40
0.1747831324
 40
0.2373540659
 40
0.3015496891
 40
0.3669934743
 40
0.4332836316
 40
0.5000010794
 40
0.5667184895
 40
0.6330085343
 40
0.6984521346
 40
0.762647504
 40
0.8252181202
 40
0.8858188126
 40
0.9441660574
 40
1.0
 40
1.0
 40
1.0
 40
1.0
 10
32.1241908822
 20
59.9412846829
 30
0.0
 10
32.1241908822
 20
60.1054075566
 30
0.0
 10
32.1096096392
 20
60.4411632834
 30
0.0
 10
32.0477841473
 20
60.9516373695
 30
0.0
 10
31.9460616962
 20
61.4758553284
 30
0.0
 10
31.8054695011
 20
62.0087580351
 30
0.0
 10
31.6273200699
 20
62.5453027058
 30
0.0
 10
31.4133315796
 20
63.080357086
 30
0.0
 10
31.1655521541
 20
63.6088112328
 30
0.0
 10
30.8863481739
 20
64.1256097392
 30
0.0
 10
30.5783873052
 20
64.6258049756
 30
0.0
 10
30.2446205091
 20
65.1046128771
 30
0.0
 10
29.8882427229
 20
65.5574564187
 30
0.0
 10
29.5126552374
 20
65.9800069319
 30
0.0
 10
29.1214436341
 20
66.3682103408
 30
0.0
 10
28.7183188395
 20
66.7184086309
 30
0.0
 10
28.3071485752
 20
67.0271826918
 30
0.0
 10
28.0236667481
 20
67.2076843409
 30
0.0
 10
27.8815325313
 20
67.2897437128
 30
0.0
  0
SPLINE
  5
29B
100
AcDbEntity
  8
0
100
AcDbSpline
 62
7
  6
BYLAYER
 70
0
 71
3
 72
9
 73
5
 74
0
 42
0.0000001
 43
0.0000001
 44
0.0000000001
 40
0.0
 40
0.0
 40
0.0
 40
0.0
 40
0.5111889114
 40
1.0
 40
1.0
 40
1.0
 40
1.0
 10
30.356419587
 20
60.5536434337
 30
0.0
 10
30.356419587
 20
60.4640151457
 30
0.0
 10
30.3501678901
 20
60.2886106553
 30
0.0
 10
30.3300570328
 20
60.114199582
 30
0.0
 10
30.3164483294
 20
60.0295821978
 30
0.0
  0
SPLINE
  5
29C
100
AcDbEntity
  8
0
100
AcDbSpline
 62
7
  6
BYLAYER
 70
0
 71
3
 72
18
 73
14
 74
0
 42
0.0000001
 43
0.0000001
 44
0.0000000001
 40
0.0
 40
0.0
 40
0.0
 40
0.0
 40
0.1485519943
 40
0.28942548
 40
0.4226047245
 40
0.5484923783
 40
0.6678184239
 40
0.7254021537
 40
0.7818077225
 40
0.8372391455
 40
0.891919188
 40
0.9460887692
 40
1.0
 40
1.0
 40
1.0
 40
1.0
 10
27.8815325313
 20
67.2897437128
 30
0.0
 10
27.7462040115
 20
67.3678739025
 30
0.0
 10
27.4760621118
 20
67.5092936886
 30
0.0
 10
27.0640007009
 20
67.6779430116
 30
0.0
 10
26.6592662729
 20
67.7959178854
 30
0.0
 10
26.2657519261
 20
67.861958412
 30
0.0
 10
25.9462920642
 20
67.8730365225
 30
0.0
 10
25.7013708361
 20
67.8544330772
 30
0.0
 10
25.5250274302
 20
67.8274280298
 30
0.0
 10
25.3543365675
 20
67.7872868599
 30
0.0
 10
25.1897163968
 20
67.7340679083
 30
0.0
 10
25.0315948968
 20
67.6679155689
 30
0.0
 10
24.9306580376
 20
67.6152440863
 30
0.0
 10
24.8815459619
 20
67.5868893869
 30
0.0
  0
SPLINE
  5
29D
100
AcDbEntity
  8
0
100
AcDbSpline
 62
7
  6
BYLAYER
 70
0
 71
3
 72
31
 73
27
 74
0
 42
0.0000001
 43
0.0000001
 44
0.0000000001
 40
0.0
 40
0.0
 40
0.0
 40
0.0
 40
0.0213080528
 40
0.0429004262
 40
0.0649846857
 40
0.0877443473
 40
0.1113343707
 40
0.135876305
 40
0.1614602091
 40
0.1881436404
 40
0.2159563678
 40
0.2449012746
 40
0.2749587522
 40
0.3060885583
 40
0.3712951156
 40
0.43991392
 40
0.5111296854
 40
0.5840036626
 40
0.6575229847
 40
0.7306469795
 40
0.8023514232
 40
0.8716764487
 40
0.9051836033
 40
0.9377924677
 40
0.9694263361
 40
1.0
 40
1.0
 40
1.0
 40
1.0
 10
30.3330878664
 20
57.4565888464
 30
0.0
 10
30.3988054029
 20
57.4976655847
 30
0.0
 10
30.5259893693
 20
57.5888949853
 30
0.0
 10
30.6998322973
 20
57.7498572926
 30
0.0
 10
30.8565097832
 20
57.9345484928
 30
0.0
 10
30.995208116
 20
58.1418252996
 30
0.0
 10
31.1152062357
 20
58.3705485811
 30
0.0
 10
31.2159668724
 20
58.6194353496
 30
0.0
 10
31.2969757516
 20
58.8871614792
 30
0.0
 10
31.3578853788
 20
59.1722952382
 30
0.0
 10
31.3983859774
 20
59.473338655
 30
0.0
 10
31.4183060437
 20
59.7887042406
 30
0.0
 10
31.4175539185
 20
60.1167431615
 30
0.0
 10
31.388545943
 20
60.5757667349
 30
0.0
 10
31.2990767535
 20
61.1703054322
 30
0.0
 10
31.1142664799
 20
61.8939233287
 30
0.0
 10
30.8542239061
 20
62.6236534918
 30
0.0
 10
30.5244135799
 20
63.344175281
 30
0.0
 10
30.1317457003
 20
64.0404145797
 30
0.0
 10
29.6844455259
 20
64.6977733961
 30
0.0
 10
29.1919280458
 20
65.3024304546
 30
0.0
 10
28.7473435368
 20
65.7570259768
 30
0.0
 10
28.3774236692
 20
66.0826073104
 30
0.0
 10
28.0985442089
 20
66.3034021054
 30
0.0
 10
27.8166258065
 20
66.5023137653
 30
0.0
 10
27.6242815123
 20
66.6217711119
 30
0.0
 10
27.5279800595
 20
66.6773695238
 30
0.0
  0
SPLINE
  5
29E
100
AcDbEntity
  8
0
100
AcDbSpline
 62
7
  6
BYLAYER
 70
0
 71
3
 72
18
 73
14
 74
0
 42
0.0000001
 43
0.0000001
 44
0.0000000001
 40
0.0
 40
0.0
 40
0.0
 40
0.0
 40
0.0539109731
 40
0.1080803067
 40
0.1627601212
 40
0.2181913446
 40
0.2745967493
 40
0.3321803562
 40
0.4515062931
 40
0.5773940332
 40
0.7105735488
 40
0.8514474612
 40
1.0
 40
1.0
 40
1.0
 40
1.0
 10
30.8815191007
 20
57.1945690331
 30
0.0
 10
30.9306322579
 20
57.222924357
 30
0.0
 10
31.02671792
 20
57.2840034497
 30
0.0
 10
31.1630715666
 20
57.3878665173
 30
0.0
 10
31.2914736096
 20
57.5038248467
 30
0.0
 10
31.4115849748
 20
57.6315799895
 30
0.0
 10
31.5231460515
 20
57.7707989579
 30
0.0
 10
31.6617204219
 20
57.9736108738
 30
0.0
 10
31.8118587934
 20
58.2558185951
 30
0.0
 10
31.9514243063
 20
58.6296435817
 30
0.0
 10
32.0516217356
 20
59.0391539476
 30
0.0
 10
32.1115956094
 20
59.4803479358
 30
0.0
 10
32.1241908822
 20
59.7850168908
 30
0.0
 10
32.1241908822
 20
59.9412846829
 30
0.0
  0
SPLINE
  5
29F
100
AcDbEntity
  8
0
100
AcDbSpline
 62
7
  6
BYLAYER
 70
0
 71
3
 72
23
 73
19
 74
0
 42
0.0000001
 43
0.0000001
 44
0.0000000001
 40
0.0
 40
0.0
 40
0.0
 40
0.0
 40
0.0570363461
 40
0.116145572
 40
0.1771188943
 40
0.2396973825
 40
0.3035916655
 40
0.3684928856
 40
0.434074255
 40
0.4999984654
 40
0.5659227282
 40
0.6315042541
 40
0.6964057323
 40
0.7603003707
 40
0.8228793058
 40
0.8838531592
 40
0.9429629886
 40
1.0
 40
1.0
 40
1.0
 40
1.0
 10
31.0402809466
 20
68.717125212
 30
0.0
 10
31.1674245054
 20
68.6322565174
 30
0.0
 10
31.4201561634
 20
68.4500275164
 30
0.0
 10
31.7863862363
 20
68.147529034
 30
0.0
 10
32.1442164783
 20
67.8129899194
 30
0.0
 10
32.4908849915
 20
67.449011855
 30
0.0
 10
32.8237018903
 20
67.0584074743
 30
0.0
 10
33.1400764038
 20
66.6442114994
 30
0.0
 10
33.437561897
 20
66.2096466585
 30
0.0
 10
33.7138448942
 20
65.7580895837
 30
0.0
 10
33.9667683252
 20
65.2930452116
 30
0.0
 10
34.194375324
 20
64.8181340723
 30
0.0
 10
34.3948983315
 20
64.3370479987
 30
0.0
 10
34.5667696552
 20
63.8535172023
 30
0.0
 10
34.7086564884
 20
63.3713027244
 30
0.0
 10
34.8194679009
 20
62.8941404067
 30
0.0
 10
34.8983316684
 20
62.4257229875
 30
0.0
 10
34.9297859658
 20
62.1157335688
 30
0.0
 10
34.9397152662
 20
61.9631880543
 30
0.0
  0
SPLINE
  5
2A0
100
AcDbEntity
  8
0
100
AcDbSpline
 62
7
  6
BYLAYER
 70
0
 71
3
 72
34
 73
30
 74
0
 42
0.0000001
 43
0.0000001
 44
0.0000000001
 40
0.0
 40
0.0
 40
0.0
 40
0.0
 40
0.031433418
 40
0.0640513308
 40
0.097745226
 40
0.1324158905
 40
0.1679548592
 40
0.2042309582
 40
0.2784038686
 40
0.3537583445
 40
0.4290287863
 40
0.502956101
 40
0.5743511589
 40
0.6087765846
 40
0.6421919765
 40
0.6745003705
 40
0.7056254854
 40
0.735512209
 40
0.7641331857
 40
0.7914900166
 40
0.8176201722
 40
0.8425986481
 40
0.8665434111
 40
0.8896152294
 40
0.9120173902
 40
0.9339890695
 40
0.9557948062
 40
0.9777093478
 40
1.0
 40
1.0
 40
1.0
 40
1.0
 10
32.8489660214
 20
51.8476798516
 30
0.0
 10
32.7529014879
 20
51.7922172984
 30
0.0
 10
32.5531282844
 20
51.686057449
 30
0.0
 10
32.2386855962
 20
51.5437716666
 30
0.0
 10
31.9056612152
 20
51.4163769313
 30
0.0
 10
31.5562465414
 20
51.3046460691
 30
0.0
 10
31.1925870873
 20
51.2092935932
 30
0.0
 10
30.6881048556
 20
51.1039744229
 30
0.0
 10
30.0370618349
 20
51.0174222058
 30
0.0
 10
29.2433243842
 20
50.985964315
 30
0.0
 10
28.4508223574
 20
51.0269386978
 30
0.0
 10
27.6793884882
 20
51.1393172108
 30
0.0
 10
27.0624515919
 20
51.2919947158
 30
0.0
 10
26.5964440352
 20
51.4484439234
 30
0.0
 10
26.2681300666
 20
51.5798240997
 30
0.0
 10
25.9588880531
 20
51.7258655482
 30
0.0
 10
25.6706306206
 20
51.8856249707
 30
0.0
 10
25.4051889517
 20
52.0581602811
 30
0.0
 10
25.1642042103
 20
52.242374865
 30
0.0
 10
24.9492243569
 20
52.4371900216
 30
0.0
 10
24.7615895961
 20
52.6413957549
 30
0.0
 10
24.6025547724
 20
52.8537972762
 30
0.0
 10
24.4731590229
 20
53.0730843118
 30
0.0
 10
24.3743606862
 20
53.2979286955
 30
0.0
 10
24.3068781982
 20
53.5268821737
 30
0.0
 10
24.271300864
 20
53.7584289917
 30
0.0
 10
24.2679096633
 20
53.9909752341
 30
0.0
 10
24.2967534883
 20
54.2228341766
 30
0.0
 10
24.3368210911
 20
54.3741491756
 30
0.0
 10
24.3617585895
 20
54.4487532902
 30
0.0
  0
SPLINE
  5
2A1
100
AcDbEntity
  8
0
100
AcDbSpline
 62
7
  6
BYLAYER
 70
0
 71
3
 72
15
 73
11
 74
0
 42
0.0000001
 43
0.0000001
 44
0.0000000001
 40
0.0
 40
0.0
 40
0.0
 40
0.0
 40
0.1431147218
 40
0.2798868895
 40
0.4106600486
 40
0.5359508685
 40
0.6564866271
 40
0.7732206596
 40
0.8872956877
 40
1.0
 40
1.0
 40
1.0
 40
1.0
 10
24.2392628185
 20
55.5300505233
 30
0.0
 10
24.1452320361
 20
55.4553279826
 30
0.0
 10
23.9669741548
 20
55.3018744041
 30
0.0
 10
23.7261826906
 20
55.0546600209
 30
0.0
 10
23.5195637829
 20
54.7970464562
 30
0.0
 10
23.3484284024
 20
54.5305844468
 30
0.0
 10
23.213993053
 20
54.256831286
 30
0.0
 10
23.1171879695
 20
53.9774709768
 30
0.0
 10
23.0587927316
 20
53.6943386643
 30
0.0
 10
23.0457420779
 20
53.5037722356
 30
0.0
 10
23.0457464613
 20
53.4091882004
 30
0.0
  0
SPLINE
  5
2A2
100
AcDbEntity
  8
0
100
AcDbSpline
 62
7
  6
BYLAYER
 70
0
 71
3
 72
21
 73
17
 74
0
 42
0.0000001
 43
0.0000001
 44
0.0000000001
 40
0.0
 40
0.0
 40
0.0
 40
0.0
 40
0.0518943725
 40
0.1039527598
 40
0.156556899
 40
0.2100691578
 40
0.2648204749
 40
0.3211019898
 40
0.3791607624
 40
0.439194774
 40
0.565673977
 40
0.6323706969
 40
0.7013906896
 40
0.7727250332
 40
0.8463303846
 40
1.0
 40
1.0
 40
1.0
 40
1.0
 10
37.890353431
 20
52.4987957252
 30
0.0
 10
37.8965507291
 20
52.5999388868
 30
0.0
 10
37.8982461522
 20
52.8033695183
 30
0.0
 10
37.8682578599
 20
53.1081448727
 30
0.0
 10
37.8059561857
 20
53.4112299444
 30
0.0
 10
37.7115676669
 20
53.7113824187
 30
0.0
 10
37.5855368842
 20
54.0074665987
 30
0.0
 10
37.4283916273
 20
54.2983596052
 30
0.0
 10
37.2407491475
 20
54.5829897496
 30
0.0
 10
36.9458824841
 20
54.9592037026
 30
0.0
 10
36.5962693462
 20
55.311685451
 30
0.0
 10
36.2018305138
 20
55.6384134932
 30
0.0
 10
35.8749031499
 20
55.8767377421
 30
0.0
 10
35.523416733
 20
56.1029991664
 30
0.0
 10
35.0165533317
 20
56.3916573992
 30
0.0
 10
34.6142129287
 20
56.5811279207
 30
0.0
 10
34.3373385616
 20
56.6968028215
 30
0.0
  0
SPLINE
  5
2A3
100
AcDbEntity
  8
0
100
AcDbSpline
 62
7
  6
BYLAYER
 70
0
 71
3
 72
9
 73
5
 74
0
 42
0.0000001
 43
0.0000001
 44
0.0000000001
 40
0.0
 40
0.0
 40
0.0
 40
0.0
 40
0.5093704908
 40
1.0
 40
1.0
 40
1.0
 40
1.0
 10
24.2796625999
 20
56.707432914
 30
0.0
 10
24.093511647
 20
56.6302618107
 30
0.0
 10
23.7324834431
 20
56.4678044478
 30
0.0
 10
23.3826909376
 20
56.282255575
 30
0.0
 10
23.2145960163
 20
56.1852065063
 30
0.0
  0
SPLINE
  5
2A4
100
AcDbEntity
  8
0
100
AcDbSpline
 62
7
  6
BYLAYER
 70
0
 71
3
 72
18
 73
14
 74
0
 42
0.0000001
 43
0.0000001
 44
0.0000000001
 40
0.0
 40
0.0
 40
0.0
 40
0.0
 40
0.149269834
 40
0.2904644563
 40
0.4235901106
 40
0.549132872
 40
0.6679628186
 40
0.7253083849
 40
0.7815184912
 40
0.8368291649
 40
0.8914960319
 40
0.9457923115
 40
1.0
 40
1.0
 40
1.0
 40
1.0
 10
23.2145960163
 20
56.1852065063
 30
0.0
 10
23.01213582
 20
56.0683167552
 30
0.0
 10
22.6276868803
 20
55.8236781507
 30
0.0
 10
22.1047943424
 20
55.4135228907
 30
0.0
 10
21.6567057668
 20
54.9739331917
 30
0.0
 10
21.2883246758
 20
54.5093946814
 30
0.0
 10
21.0483954162
 20
54.1000723526
 30
0.0
 10
20.9024247333
 20
53.7663042074
 30
0.0
 10
20.8163491791
 20
53.5159036352
 30
0.0
 10
20.7526303092
 20
53.2632239249
 30
0.0
 10
20.7115006579
 20
53.0089152179
 30
0.0
 10
20.6930636719
 20
52.7537100913
 30
0.0
 10
20.6959257249
 20
52.5835345705
 30
0.0
 10
20.7011185023
 20
52.4987955754
 30
0.0
  0
SPLINE
  5
2A5
100
AcDbEntity
  8
0
100
AcDbSpline
 62
7
  6
BYLAYER
 70
0
 71
3
 72
14
 73
10
 74
0
 42
0.0000001
 43
0.0000001
 44
0.0000000001
 40
0.0
 40
0.0
 40
0.0
 40
0.0
 40
0.1126301788
 40
0.2266447346
 40
0.3433459129
 40
0.4638852081
 40
0.5892163148
 40
0.7200799054
 40
1.0
 40
1.0
 40
1.0
 40
1.0
 10
35.5457328438
 20
53.4091881852
 30
0.0
 10
35.5457284361
 20
53.5042984965
 30
0.0
 10
35.5325471679
 20
53.69594108
 30
0.0
 10
35.4734798828
 20
53.9806364543
 30
0.0
 10
35.3756082717
 20
54.2615043806
 30
0.0
 10
35.2396705481
 20
54.536643431
 30
0.0
 10
35.0666753974
 20
54.8044246694
 30
0.0
 10
34.7819096688
 20
55.1571755589
 30
0.0
 10
34.5249448157
 20
55.3938108816
 30
0.0
 10
34.3393632565
 20
55.5402144534
 30
0.0
  0
SPLINE
  5
2A6
100
AcDbEntity
  8
0
100
AcDbSpline
 62
7
  6
BYLAYER
 70
0
 71
3
 72
19
 73
15
 74
0
 42
0.0000001
 43
0.0000001
 44
0.0000000001
 40
0.0
 40
0.0
 40
0.0
 40
0.0
 40
0.0566546186
 40
0.1124603487
 40
0.1678081267
 40
0.223104841
 40
0.2787592716
 40
0.3351661937
 40
0.3926962671
 40
0.4516813206
 40
0.5750140025
 40
0.7069907217
 40
0.848594688
 40
1.0
 40
1.0
 40
1.0
 40
1.0
 10
34.2297180519
 20
54.4487530121
 30
0.0
 10
34.2488864955
 20
54.3914101639
 30
0.0
 10
34.2813911574
 20
54.2756294789
 30
0.0
 10
34.3119370093
 20
54.09885663
 30
0.0
 10
34.3237289836
 20
53.9212775411
 30
0.0
 10
34.3166433173
 20
53.7436133306
 30
0.0
 10
34.2907659396
 20
53.5665651272
 30
0.0
 10
34.2462038848
 20
53.3908282215
 30
0.0
 10
34.1831200334
 20
53.217083698
 30
0.0
 10
34.0731556788
 20
52.9855761479
 30
0.0
 10
33.8880764931
 20
52.703691365
 30
0.0
 10
33.601625454
 20
52.3896483043
 30
0.0
 10
33.2520327128
 20
52.0988058118
 30
0.0
 10
32.9888984191
 20
51.9284693768
 30
0.0
 10
32.8489660214
 20
51.8476798516
 30
0.0
  0
SPLINE
  5
2A7
100
AcDbEntity
  8
0
100
AcDbSpline
 62
7
  6
BYLAYER
 70
0
 71
3
 72
33
 73
29
 74
0
 42
0.0000001
 43
0.0000001
 44
0.0000000001
 40
0.0
 40
0.0
 40
0.0
 40
0.0
 40
0.0306591528
 40
0.0623937289
 40
0.0951136451
 40
0.1287375058
 40
0.1631784521
 40
0.1983310025
 40
0.27028834
 40
0.3436458842
 40
0.4173578532
 40
0.4903627878
 40
0.5616303766
 40
0.6302094121
 40
0.663239154
 40
0.6953039587
 40
0.726330967
 40
0.756264901
 40
0.7850677787
 40
0.8127243676
 40
0.8392425692
 40
0.8646588309
 40
0.889038894
 40
0.9124819888
 40
0.9351203427
 40
0.9571195868
 40
0.9786739358
 40
1.0
 40
1.0
 40
1.0
 40
1.0
 10
33.7151754347
 20
50.5310825102
 30
0.0
 10
33.6047867868
 20
50.4673499751
 30
0.0
 10
33.3758729228
 20
50.3449201189
 30
0.0
 10
33.0165819031
 20
50.1792706861
 30
0.0
 10
32.6371686897
 20
50.0293375601
 30
0.0
 10
32.2397793251
 20
49.8959057306
 30
0.0
 10
31.8265016341
 20
49.7797063725
 30
0.0
 10
31.2528551179
 20
49.6475110001
 30
0.0
 10
30.5107337065
 20
49.5298512435
 30
0.0
 10
29.6013266075
 20
49.4655599968
 30
0.0
 10
28.6853578244
 20
49.4784465983
 30
0.0
 10
27.7824054526
 20
49.5682403401
 30
0.0
 10
26.9117720207
 20
49.7330188229
 30
0.0
 10
26.219909507
 20
49.9323934602
 30
0.0
 10
25.699290032
 20
50.1274959558
 30
0.0
 10
25.3330659738
 20
50.2879752703
 30
0.0
 10
24.9882187452
 20
50.4635823125
 30
0.0
 10
24.66658115
 20
50.6533601709
 30
0.0
 10
24.3698986116
 20
50.8563342602
 30
0.0
 10
24.0997529838
 20
51.071412244
 30
0.0
 10
23.8576225048
 20
51.2974958123
 30
0.0
 10
23.6448137522
 20
51.5333902255
 30
0.0
 10
23.4625276263
 20
51.7778902346
 30
0.0
 10
23.3117931253
 20
52.0297097466
 30
0.0
 10
23.1935268948
 20
52.2875243415
 30
0.0
 10
23.1084655828
 20
52.5499440335
 30
0.0
 10
23.0571862279
 20
52.8154433422
 30
0.0
 10
23.0457481305
 20
52.9939239661
 30
0.0
 10
23.045744131
 20
53.082587226
 30
0.0
  0
SPLINE
  5
2A8
100
AcDbEntity
  8
0
100
AcDbSpline
 62
7
  6
BYLAYER
 70
0
 71
3
 72
18
 73
14
 74
0
 42
0.0000001
 43
0.0000001
 44
0.0000000001
 40
0.0
 40
0.0
 40
0.0
 40
0.0
 40
0.0514245512
 40
0.1033776833
 40
0.1561668068
 40
0.2100743155
 40
0.2653510174
 40
0.3222143463
 40
0.4412974882
 40
0.5684074041
 40
0.7039833005
 40
0.8479902705
 40
1.0
 40
1.0
 40
1.0
 40
1.0
 10
20.7011185023
 20
52.4987955754
 30
0.0
 10
20.706895846
 20
52.404517261
 30
0.0
 10
20.7278915225
 20
52.2154397821
 30
0.0
 10
20.7870879312
 20
51.9343454588
 30
0.0
 10
20.8739182348
 20
51.6557331246
 30
0.0
 10
20.9880323512
 20
51.3805601679
 30
0.0
 10
21.1290209722
 20
51.109691958
 30
0.0
 10
21.3556414295
 20
50.7500231651
 30
0.0
 10
21.7071047441
 20
50.3155332009
 30
0.0
 10
22.2193390122
 20
49.8340155938
 30
0.0
 10
22.8218350437
 20
49.3897402571
 30
0.0
 10
23.506752098
 20
48.9881338188
 30
0.0
 10
24.0002130703
 20
48.7578365117
 30
0.0
 10
24.2578833016
 20
48.6503064994
 30
0.0
  0
SPLINE
  5
2A9
100
AcDbEntity
  8
0
100
AcDbSpline
 62
7
  6
BYLAYER
 70
0
 71
3
 72
18
 73
14
 74
0
 42
0.0000001
 43
0.0000001
 44
0.0000000001
 40
0.0
 40
0.0
 40
0.0
 40
0.0
 40
0.0581713233
 40
0.1180094484
 40
0.1793212971
 40
0.241892676
 40
0.3054928618
 40
0.3698768728
 40
0.4999394118
 40
0.6300181917
 40
0.758014644
 40
0.8819368908
 40
1.0
 40
1.0
 40
1.0
 40
1.0
 10
24.2578833016
 20
48.6503064994
 30
0.0
 10
24.4420953296
 20
48.5734317997
 30
0.0
 10
24.8204964954
 20
48.4285311268
 30
0.0
 10
25.406600494
 20
48.2402671535
 30
0.0
 10
26.0163141362
 20
48.0789266577
 30
0.0
 10
26.6459074274
 20
47.9454683496
 30
0.0
 10
27.2915952133
 20
47.8407306996
 30
0.0
 10
28.1715557539
 20
47.7398600127
 30
0.0
 10
29.285643374
 20
47.6891992199
 30
0.0
 10
30.6179390148
 20
47.7479863197
 30
0.0
 10
31.9187061181
 20
47.9247727128
 30
0.0
 10
33.156549702
 20
48.2152755862
 30
0.0
 10
33.9429242068
 20
48.4880652942
 30
0.0
 10
34.3170744634
 20
48.6434205207
 30
0.0
  0
SPLINE
  5
2AA
100
AcDbEntity
  8
0
100
AcDbSpline
 62
7
  6
BYLAYER
 70
0
 71
3
 72
9
 73
5
 74
0
 42
0.0000001
 43
0.0000001
 44
0.0000000001
 40
0.0
 40
0.0
 40
0.0
 40
0.0
 40
0.5093326339
 40
1.0
 40
1.0
 40
1.0
 40
1.0
 10
34.3170744634
 20
48.6434205207
 30
0.0
 10
34.502276029
 20
48.7203201904
 30
0.0
 10
34.8614993448
 20
48.8821578995
 30
0.0
 10
35.2095812802
 20
49.0668742454
 30
0.0
 10
35.3768832888
 20
49.1634655285
 30
0.0
  0
SPLINE
  5
2AB
100
AcDbEntity
  8
0
100
AcDbSpline
 62
7
  6
BYLAYER
 70
0
 71
3
 72
34
 73
30
 74
0
 42
0.0000001
 43
0.0000001
 44
0.0000000001
 40
0.0
 40
0.0
 40
0.0
 40
0.0
 40
0.0320499858
 40
0.0653845454
 40
0.0998824284
 40
0.1354285498
 40
0.2090605559
 40
0.285007174
 40
0.3618235484
 40
0.4380117242
 40
0.5121113683
 40
0.5479689636
 40
0.5828216847
 40
0.6165405426
 40
0.6490175748
 40
0.6801704873
 40
0.7099483573
 40
0.7383348065
 40
0.7653562338
 40
0.7910855645
 40
0.8156479647
 40
0.8392244224
 40
0.8620490104
 40
0.8844030541
 40
0.9065995785
 40
0.9289628173
 40
0.951804991
 40
0.975406324
 40
1.0
 40
1.0
 40
1.0
 40
1.0
 10
33.9651764307
 20
50.098070487
 30
0.0
 10
33.8289896696
 20
50.0194434931
 30
0.0
 10
33.5450002701
 20
49.8695159764
 30
0.0
 10
33.0967488864
 20
49.6706017483
 30
0.0
 10
32.6206935469
 20
49.4945498059
 30
0.0
 10
31.9458192662
 20
49.289655667
 30
0.0
 10
31.0555077978
 20
49.1001028753
 30
0.0
 10
29.949231756
 20
48.98154704
 30
0.0
 10
28.8240601557
 20
48.9726112168
 30
0.0
 10
27.7125589694
 20
49.0735625665
 30
0.0
 10
26.8142541637
 20
49.2487726523
 30
0.0
 10
26.1303535795
 20
49.4426416356
 30
0.0
 10
25.6460838674
 20
49.6110113672
 30
0.0
 10
25.1884523604
 20
49.8026489196
 30
0.0
 10
24.7607767025
 20
50.0161996069
 30
0.0
 10
24.3661716248
 20
50.2501421418
 30
0.0
 10
24.00748649
 20
50.5027906675
 30
0.0
 10
23.6873611496
 20
50.7724086378
 30
0.0
 10
23.4081277826
 20
51.057087738
 30
0.0
 10
23.1718935912
 20
51.3548754162
 30
0.0
 10
22.9805170732
 20
51.6637119098
 30
0.0
 10
22.8355504052
 20
51.9813936135
 30
0.0
 10
22.7383530635
 20
52.305605766
 30
0.0
 10
22.6898355689
 20
52.633811734
 30
0.0
 10
22.6905308427
 20
52.9633502577
 30
0.0
 10
22.7404447064
 20
53.2914762682
 30
0.0
 10
22.8390134586
 20
53.6155453618
 30
0.0
 10
22.9852946792
 20
53.9329775071
 30
0.0
 10
23.1109014383
 20
54.1341261051
 30
0.0
 10
23.1804924761
 20
54.2327076959
 30
0.0
  0
SPLINE
  5
2AC
100
AcDbEntity
  8
0
100
AcDbSpline
 62
7
  6
BYLAYER
 70
0
 71
3
 72
16
 73
12
 74
0
 42
0.0000001
 43
0.0000001
 44
0.0000000001
 40
0.0
 40
0.0
 40
0.0
 40
0.0
 40
0.1477787286
 40
0.2882903168
 40
0.4214741475
 40
0.5476680278
 40
0.667482442
 40
0.7818746483
 40
0.8921505117
 40
0.9462792151
 40
1.0
 40
1.0
 40
1.0
 40
1.0
 10
35.3768832888
 20
49.1634655285
 30
0.0
 10
35.5623328017
 20
49.2705342156
 30
0.0
 10
35.9160707316
 20
49.4938539863
 30
0.0
 10
36.4021145218
 20
49.8650890526
 30
0.0
 10
36.8263181155
 20
50.2613940378
 30
0.0
 10
37.1848384412
 20
50.6794120995
 30
0.0
 10
37.4743973239
 20
51.1157943884
 30
0.0
 10
37.6921073499
 20
51.5668056492
 30
0.0
 10
37.8124178121
 20
51.9543035651
 30
0.0
 10
37.8696905801
 20
52.2654202277
 30
0.0
 10
37.8855926633
 20
52.421097495
 30
0.0
 10
37.890353431
 20
52.4987957252
 30
0.0
  0
SPLINE
  5
2AD
100
AcDbEntity
  8
0
100
AcDbSpline
 62
7
  6
BYLAYER
 70
0
 71
3
 72
24
 73
20
 74
0
 42
0.0000001
 43
0.0000001
 44
0.0000000001
 40
0.0
 40
0.0
 40
0.0
 40
0.0
 40
0.0717449081
 40
0.1398332651
 40
0.2044024162
 40
0.2657449912
 40
0.3243180124
 40
0.380745387
 40
0.4358012434
 40
0.4903647924
 40
0.5453557217
 40
0.6016580444
 40
0.6600552395
 40
0.721184672
 40
0.7529398196
 40
0.7855375768
 40
0.8533654621
 40
0.9248651199
 40
1.0
 40
1.0
 40
1.0
 40
1.0
 10
34.6426853522
 20
55.2440833824
 30
0.0
 10
34.775906887
 20
55.1516903548
 30
0.0
 10
35.0280605405
 20
54.9603903529
 30
0.0
 10
35.3678815353
 20
54.646408042
 30
0.0
 10
35.6565955785
 20
54.3152520151
 30
0.0
 10
35.8916237666
 20
53.9695965896
 30
0.0
 10
36.0707373317
 20
53.6121993781
 30
0.0
 10
36.1920417314
 20
53.2460495831
 30
0.0
 10
36.2541743053
 20
52.8744301669
 30
0.0
 10
36.2563205664
 20
52.5008563885
 30
0.0
 10
36.1984445355
 20
52.1289794866
 30
0.0
 10
36.0813184537
 20
51.7623244173
 30
0.0
 10
35.9062840845
 20
51.4042115355
 30
0.0
 10
35.7160718882
 20
51.1189786718
 30
0.0
 10
35.5382293494
 20
50.8979633933
 30
0.0
 10
35.3378482461
 20
50.6762562034
 30
0.0
 10
35.0538793681
 20
50.4099895088
 30
0.0
 10
34.6691933239
 20
50.114182207
 30
0.0
 10
34.3894052078
 20
49.9357995191
 30
0.0
 10
34.2427833026
 20
49.8501896651
 30
0.0
  0
SPLINE
  5
2AE
100
AcDbEntity
  8
0
100
AcDbSpline
 62
7
  6
BYLAYER
 70
0
 71
3
 72
39
 73
35
 74
0
 42
0.0000001
 43
0.0000001
 44
0.0000000001
 40
0.0
 40
0.0
 40
0.0
 40
0.0
 40
0.0323763478
 40
0.066161403
 40
0.1012138178
 40
0.1373921346
 40
0.1745207778
 40
0.2124048459
 40
0.2508373599
 40
0.2896003323
 40
0.3284700922
 40
0.3672210038
 40
0.4056297614
 40
0.4434790177
 40
0.4805614139
 40
0.5166845407
 40
0.5516744454
 40
0.5853813115
 40
0.617685459
 40
0.6485022098
 40
0.6777903242
 40
0.7055595438
 40
0.7318776682
 40
0.7568797807
 40
0.7807724345
 40
0.8038324541
 40
0.8263980038
 40
0.8488469773
 40
0.8715671071
 40
0.8949231243
 40
0.9192308944
 40
0.9447405096
 40
0.9716264778
 40
1.0
 40
1.0
 40
1.0
 40
1.0
 10
34.2427833026
 20
49.8501896651
 30
0.0
 10
34.0871158478
 20
49.7592982798
 30
0.0
 10
33.7611852751
 20
49.5867115254
 30
0.0
 10
33.2446320708
 20
49.3603726585
 30
0.0
 10
32.69388199
 20
49.1627744233
 30
0.0
 10
32.113794207
 20
48.9956230407
 30
0.0
 10
31.5093239268
 20
48.8603112053
 30
0.0
 10
30.8856963152
 20
48.7580309235
 30
0.0
 10
30.2483071143
 20
48.6896709246
 30
0.0
 10
29.6026708753
 20
48.6557982998
 30
0.0
 10
28.9543767557
 20
48.6567216111
 30
0.0
 10
28.3090393329
 20
48.6924409537
 30
0.0
 10
27.6722434524
 20
48.7626237441
 30
0.0
 10
27.0495003514
 20
48.8666804928
 30
0.0
 10
26.4461958626
 20
49.0037168202
 30
0.0
 10
25.8675358652
 20
49.1725307149
 30
0.0
 10
25.3185174268
 20
49.3716945568
 30
0.0
 10
24.8038702538
 20
49.5995058113
 30
0.0
 10
24.3280107489
 20
49.8540127697
 30
0.0
 10
23.8950404479
 20
50.133102122
 30
0.0
 10
23.5086842828
 20
50.4344466172
 30
0.0
 10
23.1722804206
 20
50.7555603117
 30
0.0
 10
22.88883238
 20
51.0938625803
 30
0.0
 10
22.6609467753
 20
51.4465923473
 30
0.0
 10
22.4908701801
 20
51.8108237778
 30
0.0
 10
22.3805094446
 20
52.1834036598
 30
0.0
 10
22.3311867669
 20
52.5608462594
 30
0.0
 10
22.3435499789
 20
52.9394333643
 30
0.0
 10
22.4174731975
 20
53.3153603786
 30
0.0
 10
22.5519557939
 20
53.6849944883
 30
0.0
 10
22.7454327405
 20
54.0449919279
 30
0.0
 10
22.9959024555
 20
54.3922667692
 30
0.0
 10
23.3008636606
 20
54.7239931538
 30
0.0
 10
23.5324472441
 20
54.9274695561
 30
0.0
 10
23.6558436371
 20
55.0261050732
 30
0.0
  0
SPLINE
  5
2AF
100
AcDbEntity
  8
0
100
AcDbSpline
 62
7
  6
BYLAYER
 70
0
 71
3
 72
20
 73
16
 74
0
 42
0.0000001
 43
0.0000001
 44
0.0000000001
 40
0.0
 40
0.0
 40
0.0
 40
0.0
 40
0.1518124528
 40
0.2929233754
 40
0.4236922106
 40
0.4856379547
 40
0.5455679072
 40
0.6038033708
 40
0.6607214729
 40
0.7167510096
 40
0.7723545534
 40
0.8280146601
 40
0.8842106821
 40
0.9414004684
 40
1.0
 40
1.0
 40
1.0
 40
1.0
 10
33.0080657096
 20
51.7558256819
 30
0.0
 10
33.1660301187
 20
51.8470259316
 30
0.0
 10
33.4615642127
 20
52.0400335713
 30
0.0
 10
33.8490482829
 20
52.3725600618
 30
0.0
 10
34.1115351712
 20
52.678545514
 30
0.0
 10
34.2764646646
 20
52.9338448906
 30
0.0
 10
34.376193165
 20
53.1262991919
 30
0.0
 10
34.4537118472
 20
53.3222659085
 30
0.0
 10
34.5085753501
 20
53.5209146547
 30
0.0
 10
34.540554906
 20
53.7213221705
 30
0.0
 10
34.5494196085
 20
53.922570481
 30
0.0
 10
34.5351532933
 20
54.1237045296
 30
0.0
 10
34.4978259311
 20
54.3237913934
 30
0.0
 10
34.437633729
 20
54.5218739704
 30
0.0
 10
34.3832497457
 20
54.6502373865
 30
0.0
 10
34.3526143221
 20
54.7136297425
 30
0.0
  0
SPLINE
  5
2B0
100
AcDbEntity
  8
0
100
AcDbSpline
 62
7
  6
BYLAYER
 70
0
 71
3
 72
33
 73
29
 74
0
 42
0.0000001
 43
0.0000001
 44
0.0000000001
 40
0.0
 40
0.0
 40
0.0
 40
0.0
 40
0.0231840928
 40
0.0457022414
 40
0.0678181751
 40
0.0898203898
 40
0.1120052994
 40
0.1346576707
 40
0.1580325159
 40
0.1823441563
 40
0.2077589246
 40
0.2343948253
 40
0.2623242093
 40
0.291576294
 40
0.3221444976
 40
0.3539878323
 40
0.3870391935
 40
0.4212059467
 40
0.492396085
 40
0.566509
 40
0.6422884518
 40
0.71838444
 40
0.7934288679
 40
0.8661140255
 40
0.9012085841
 40
0.9352928911
 40
0.9682614795
 40
1.0
 40
1.0
 40
1.0
 40
1.0
 10
24.2480541506
 20
54.7324067944
 30
0.0
 10
24.2091588096
 20
54.653870717
 30
0.0
 10
24.1418127058
 20
54.4941686374
 30
0.0
 10
24.0742480848
 20
54.2460727935
 30
0.0
 10
24.042390093
 20
53.9953384064
 30
0.0
 10
24.046645901
 20
53.7438793624
 30
0.0
 10
24.0868960174
 20
53.493593094
 30
0.0
 10
24.1628189356
 20
53.2463497062
 30
0.0
 10
24.2736993268
 20
53.0038988016
 30
0.0
 10
24.4186498062
 20
52.7678933594
 30
0.0
 10
24.5965615827
 20
52.5398802071
 30
0.0
 10
24.8061438695
 20
52.3213138922
 30
0.0
 10
25.0459629594
 20
52.1136178237
 30
0.0
 10
25.3143618442
 20
51.9180927067
 30
0.0
 10
25.6095622175
 20
51.7360498249
 30
0.0
 10
25.929556007
 20
51.5686368125
 30
0.0
 10
26.2722260372
 20
51.4169934079
 30
0.0
 10
26.7629260172
 20
51.2346764448
 30
0.0
 10
27.4183782655
 20
51.0539520847
 30
0.0
 10
28.2439303688
 20
50.9156593348
 30
0.0
 10
29.0974749946
 20
50.8566358208
 30
0.0
 10
29.9562834553
 20
50.8784645984
 30
0.0
 10
30.7974939453
 20
50.9805459173
 30
0.0
 10
31.4732185939
 20
51.1320199735
 30
0.0
 10
31.9853151795
 20
51.2920300831
 30
0.0
 10
32.3468718924
 20
51.4282690295
 30
0.0
 10
32.687821433
 20
51.5812092066
 30
0.0
 10
32.9041622437
 20
51.6958373459
 30
0.0
 10
33.0080657096
 20
51.7558256819
 30
0.0
  0
SPLINE
  5
2B1
100
AcDbEntity
  8
0
100
AcDbSpline
 62
7
  6
BYLAYER
 70
0
 71
3
 72
22
 73
18
 74
0
 42
0.0000001
 43
0.0000001
 44
0.0000000001
 40
0.0
 40
0.0
 40
0.0
 40
0.0
 40
0.0634384459
 40
0.1243972922
 40
0.1832604799
 40
0.2405017144
 40
0.2966760832
 40
0.3523946835
 40
0.4082941189
 40
0.4650012026
 40
0.5230977507
 40
0.5830959063
 40
0.7102343431
 40
0.778089927
 40
0.8489793436
 40
0.9229740971
 40
1.0
 40
1.0
 40
1.0
 40
1.0
 10
35.2885067606
 20
54.3952995573
 30
0.0
 10
35.3571360504
 20
54.3096928395
 30
0.0
 10
35.4838605032
 20
54.1352896266
 30
0.0
 10
35.642404498
 20
53.8601270906
 30
0.0
 10
35.7644627647
 20
53.5784837014
 30
0.0
 10
35.8491135881
 20
53.2919910756
 30
0.0
 10
35.8958037965
 20
53.0023836812
 30
0.0
 10
35.9041222133
 20
52.71145512
 30
0.0
 10
35.8740413
 20
52.4210478674
 30
0.0
 10
35.8057753048
 20
52.1329948824
 30
0.0
 10
35.6998293108
 20
51.8490288237
 30
0.0
 10
35.5057227718
 20
51.4710083547
 30
0.0
 10
35.2397672036
 20
51.114707178
 30
0.0
 10
34.9172096742
 20
50.7864995455
 30
0.0
 10
34.637743719
 20
50.54644887
 30
0.0
 10
34.3278103715
 20
50.3195244086
 30
0.0
 10
34.1064249287
 20
50.1804570466
 30
0.0
 10
33.991379552
 20
50.1132841512
 30
0.0
  0
SPLINE
  5
2B2
100
AcDbEntity
  8
0
100
AcDbSpline
 62
7
  6
BYLAYER
 70
0
 71
3
 72
33
 73
29
 74
0
 42
0.0000001
 43
0.0000001
 44
0.0000000001
 40
0.0
 40
0.0
 40
0.0
 40
0.0
 40
0.0213261028
 40
0.042880465
 40
0.0648796998
 40
0.0875180168
 40
0.1109610564
 40
0.1353410586
 40
0.1607572581
 40
0.1872754068
 40
0.2149319409
 40
0.2437347708
 40
0.2736686457
 40
0.3046955974
 40
0.3367603302
 40
0.3697900023
 40
0.438368872
 40
0.5096362878
 40
0.5826410656
 40
0.6563529465
 40
0.7297104849
 40
0.8016676652
 40
0.8368203507
 40
0.8712614983
 40
0.9048856328
 40
0.9376059078
 40
0.9693407569
 40
1.0
 40
1.0
 40
1.0
 40
1.0
 10
23.0457464613
 20
53.4091882004
 30
0.0
 10
23.0457505703
 20
53.3205248133
 30
0.0
 10
23.0571890397
 20
53.1420440692
 30
0.0
 10
23.1084685303
 20
52.8765447099
 30
0.0
 10
23.1935302596
 20
52.6141254059
 30
0.0
 10
23.3117963022
 20
52.3563113206
 30
0.0
 10
23.4625305924
 20
52.104492545
 30
0.0
 10
23.6448162823
 20
51.8599932938
 30
0.0
 10
23.857624336
 20
51.6240993947
 30
0.0
 10
24.0997542522
 20
51.3980164472
 30
0.0
 10
24.3698990265
 20
51.1829386397
 30
0.0
 10
24.6665809101
 20
50.9799650251
 30
0.0
 10
24.9882175242
 20
50.7901871222
 30
0.0
 10
25.3330639198
 20
50.6145804819
 30
0.0
 10
25.6992868233
 20
50.4541009705
 30
0.0
 10
26.2199048412
 20
50.25899881
 30
0.0
 10
26.9117651827
 20
50.0596238302
 30
0.0
 10
27.7823960801
 20
49.8948448162
 30
0.0
 10
28.685346248
 20
49.8050499903
 30
0.0
 10
29.6013136186
 20
49.7921621323
 30
0.0
 10
30.5107194528
 20
49.856451618
 30
0.0
 10
31.2528406451
 20
49.9741101909
 30
0.0
 10
31.8264879268
 20
50.106304545
 30
0.0
 10
32.2397682021
 20
50.2225035053
 30
0.0
 10
32.6371608878
 20
50.355935865
 30
0.0
 10
33.0165776142
 20
50.5058699497
 30
0.0
 10
33.3758712577
 20
50.6715205042
 30
0.0
 10
33.6047865032
 20
50.7939507782
 30
0.0
 10
33.7151754347
 20
50.8576834771
 30
0.0
  0
SPLINE
  5
2B3
100
AcDbEntity
  8
0
100
AcDbSpline
 62
7
  6
BYLAYER
 70
0
 71
3
 72
20
 73
16
 74
0
 42
0.0000001
 43
0.0000001
 44
0.0000000001
 40
0.0
 40
0.0
 40
0.0
 40
0.0
 40
0.1512710035
 40
0.2974340988
 40
0.4366783501
 40
0.5032621512
 40
0.5676120245
 40
0.6296240939
 40
0.6892410699
 40
0.7464476482
 40
0.8012877845
 40
0.8538602523
 40
0.9043342042
 40
0.9529446426
 40
1.0
 40
1.0
 40
1.0
 40
1.0
 10
30.3134832733
 20
56.740101312
 30
0.0
 10
30.551612298
 20
56.7116626779
 30
0.0
 10
31.0177359271
 20
56.6356070866
 30
0.0
 10
31.6888656896
 20
56.461883401
 30
0.0
 10
32.2136658833
 20
56.2687823523
 30
0.0
 10
32.6018859475
 20
56.0873067855
 30
0.0
 10
32.8709773839
 20
55.9414260577
 30
0.0
 10
33.1208404793
 20
55.7844882812
 30
0.0
 10
33.3501739877
 20
55.6173683206
 30
0.0
 10
33.5577059374
 20
55.4408835865
 30
0.0
 10
33.7423547002
 20
55.2560022942
 30
0.0
 10
33.9030647387
 20
55.0636362105
 30
0.0
 10
34.0389794308
 20
54.8648073153
 30
0.0
 10
34.1492618445
 20
54.6605654321
 30
0.0
 10
34.206067214
 20
54.5195050482
 30
0.0
 10
34.2297180519
 20
54.4487530121
 30
0.0
  0
SPLINE
  5
2B4
100
AcDbEntity
  8
0
100
AcDbSpline
 62
7
  6
BYLAYER
 70
0
 71
3
 72
17
 73
13
 74
0
 42
0.0000001
 43
0.0000001
 44
0.0000000001
 40
0.0
 40
0.0
 40
0.0
 40
0.0
 40
0.0539150287
 40
0.1080887733
 40
0.1627728946
 40
0.2182075996
 40
0.3321237571
 40
0.4514617022
 40
0.5773549169
 40
0.7105451098
 40
0.8514478287
 40
1.0
 40
1.0
 40
1.0
 40
1.0
 10
35.5457351741
 20
53.0825872259
 30
0.0
 10
35.5457378388
 20
53.023515944
 30
0.0
 10
35.5406929043
 20
52.9050277302
 30
0.0
 10
35.5179981349
 20
52.7279369733
 30
0.0
 10
35.4802662859
 20
52.5517123772
 30
0.0
 10
35.4094216057
 20
52.3164567331
 30
0.0
 10
35.2820823879
 20
52.0254414507
 30
0.0
 10
35.0729392433
 20
51.6906933561
 30
0.0
 10
34.8084119531
 20
51.3700357023
 30
0.0
 10
34.4911738585
 20
51.0663835335
 30
0.0
 10
34.1244026463
 20
50.7825095232
 30
0.0
 10
33.8561292511
 20
50.6124617483
 30
0.0
 10
33.7151754347
 20
50.5310825102
 30
0.0
  0
SPLINE
  5
2B5
100
AcDbEntity
  8
0
100
AcDbSpline
 62
7
  6
BYLAYER
 70
0
 71
3
 72
17
 73
13
 74
0
 42
0.0000001
 43
0.0000001
 44
0.0000000001
 40
0.0
 40
0.0
 40
0.0
 40
0.0
 40
0.1485523134
 40
0.2894554625
 40
0.4226458602
 40
0.5485390312
 40
0.6678765726
 40
0.7817920893
 40
0.8372267159
 40
0.8919109301
 40
0.9460848343
 40
1.0
 40
1.0
 40
1.0
 40
1.0
 10
33.7151754347
 20
50.8576834771
 30
0.0
 10
33.8561293384
 20
50.9390627655
 30
0.0
 10
34.1244030708
 20
51.1091109841
 30
0.0
 10
34.4911748049
 20
51.3929854469
 30
0.0
 10
34.8084130402
 20
51.6966382482
 30
0.0
 10
35.0729392566
 20
52.0172962303
 30
0.0
 10
35.2820818238
 20
52.3520431012
 30
0.0
 10
35.4094200717
 20
52.6430573763
 30
0.0
 10
35.4802641025
 20
52.8783124059
 30
0.0
 10
35.5179958666
 20
53.054537148
 30
0.0
 10
35.5406906845
 20
53.2316282677
 30
0.0
 10
35.5457355814
 20
53.3501167731
 30
0.0
 10
35.5457328438
 20
53.4091881852
 30
0.0
  0
SPLINE
  5
2B6
100
AcDbEntity
  8
0
100
AcDbSpline
 62
7
  6
BYLAYER
 70
0
 71
3
 72
23
 73
19
 74
0
 42
0.0000001
 43
0.0000001
 44
0.0000000001
 40
0.0
 40
0.0
 40
0.0
 40
0.0
 40
0.0664031138
 40
0.1297908217
 40
0.1904837584
 40
0.2489216047
 40
0.3056629837
 40
0.3613623492
 40
0.4167412653
 40
0.4725418347
 40
0.5294774268
 40
0.588192848
 40
0.6492311806
 40
0.7130152963
 40
0.779843472
 40
0.8499147951
 40
0.9233263211
 40
1.0
 40
1.0
 40
1.0
 40
1.0
 10
34.34923973
 20
55.1105897038
 30
0.0
 10
34.4279609874
 20
55.0326479164
 30
0.0
 10
34.5749590955
 20
54.8731051867
 30
0.0
 10
34.7653242383
 20
54.6179068891
 30
0.0
 10
34.9189639735
 20
54.354188273
 30
0.0
 10
35.0346331087
 20
54.0836782361
 30
0.0
 10
35.1114413412
 20
53.8082346428
 30
0.0
 10
35.148627376
 20
53.5298055641
 30
0.0
 10
35.1459188674
 20
53.2504695789
 30
0.0
 10
35.1032635303
 20
52.9723318693
 30
0.0
 10
35.0211332201
 20
52.6974418085
 30
0.0
 10
34.9002030317
 20
52.4277574111
 30
0.0
 10
34.7414826195
 20
52.1650983148
 30
0.0
 10
34.5461833207
 20
51.9111809372
 30
0.0
 10
34.3157005275
 20
51.667624552
 30
0.0
 10
34.0515931424
 20
51.435949712
 30
0.0
 10
33.7556861913
 20
51.2177365605
 30
0.0
 10
33.5431076461
 20
51.0849360091
 30
0.0
 10
33.4323315447
 20
51.0209797789
 30
0.0
  0
SPLINE
  5
2B7
100
AcDbEntity
  8
0
100
AcDbSpline
 62
7
  6
BYLAYER
 70
0
 71
3
 72
38
 73
34
 74
0
 42
0.0000001
 43
0.0000001
 44
0.0000000001
 40
0.0
 40
0.0
 40
0.0
 40
0.0
 40
0.0323493152
 40
0.0660591918
 40
0.1009918832
 40
0.1370154039
 40
0.2116427868
 40
0.2884878444
 40
0.3659142827
 40
0.404333584
 40
0.4422732535
 40
0.4795364752
 40
0.515937768
 40
0.5513082026
 40
0.5854976422
 40
0.6183814697
 40
0.6498645136
 40
0.6798866528
 40
0.7084311761
 40
0.7355290815
 40
0.7612688311
 40
0.7858009048
 40
0.8093405456
 40
0.8321660966
 40
0.8546058334
 40
0.8658011113
 40
0.8770350954
 40
0.8997800485
 40
0.9231923274
 40
0.9475586987
 40
0.9601790772
 40
0.9731164942
 40
1.0
 40
1.0
 40
1.0
 40
1.0
 10
33.4323315447
 20
51.0209797789
 30
0.0
 10
33.3050267242
 20
50.9474807452
 30
0.0
 10
33.0389810743
 20
50.8077344709
 30
0.0
 10
32.6181975355
 20
50.6237388134
 30
0.0
 10
32.1704256224
 20
50.4623860978
 30
0.0
 10
31.5350105193
 20
50.2770516654
 30
0.0
 10
30.6972387344
 20
50.1113890513
 30
0.0
 10
29.6593186742
 20
50.0200689393
 30
0.0
 10
28.7820754938
 20
50.0339996291
 30
0.0
 10
28.0861170077
 20
50.1000495509
 30
0.0
 10
27.5752026728
 20
50.1763263488
 30
0.0
 10
27.0782585388
 20
50.2788343153
 30
0.0
 10
26.5992947309
 20
50.4067641888
 30
0.0
 10
26.1421831344
 20
50.5590516184
 30
0.0
 10
25.7106271245
 20
50.7345128193
 30
0.0
 10
25.3080998836
 20
50.9317185045
 30
0.0
 10
24.937845697
 20
51.1491116977
 30
0.0
 10
24.6028624377
 20
51.3850051622
 30
0.0
 10
24.3058359675
 20
51.6375319065
 30
0.0
 10
24.0492262069
 20
51.9047909621
 30
0.0
 10
23.8351690489
 20
52.1847203931
 30
0.0
 10
23.6655455759
 20
52.4751732701
 30
0.0
 10
23.5420069911
 20
52.7738869875
 30
0.0
 10
23.4657834496
 20
53.0783117676
 30
0.0
 10
23.4424842921
 20
53.3349566433
 30
0.0
 10
23.4480647029
 20
53.5389505606
 30
0.0
 10
23.4696964124
 20
53.743268858
 30
0.0
 10
23.5273793278
 20
53.9987320721
 30
0.0
 10
23.6438471537
 20
54.2984177909
 30
0.0
 10
23.7779113451
 20
54.5388894764
 30
0.0
 10
23.9064895071
 20
54.7259321984
 30
0.0
 10
24.053066683
 20
54.9139625344
 30
0.0
 10
24.1765729541
 20
55.0468544098
 30
0.0
 10
24.2641081017
 20
55.1320660971
 30
0.0
  0
SPLINE
  5
2B8
100
AcDbEntity
  8
0
100
AcDbSpline
 62
7
  6
BYLAYER
 70
0
 71
3
 72
15
 73
11
 74
0
 42
0.0000001
 43
0.0000001
 44
0.0000000001
 40
0.0
 40
0.0
 40
0.0
 40
0.0
 40
0.1141515087
 40
0.2373301591
 40
0.3669778071
 40
0.5000005759
 40
0.6330236626
 40
0.7626743904
 40
0.8858459846
 40
1.0
 40
1.0
 40
1.0
 40
1.0
 10
8.6835827219
 20
38.8958252538
 30
0.0
 10
8.6835827219
 20
38.806396283
 30
0.0
 10
8.6999661715
 20
38.6202931137
 30
0.0
 10
8.7652601392
 20
38.3395361164
 30
0.0
 10
8.869876703
 20
38.0551537326
 30
0.0
 10
9.009877765
 20
37.7778381349
 30
0.0
 10
9.1800386282
 20
37.5179318582
 30
0.0
 10
9.3740148616
 20
37.2851459013
 30
0.0
 10
9.5845041178
 20
37.0882161029
 30
0.0
 10
9.7374804706
 20
36.9809791716
 30
0.0
 10
9.8149293086
 20
36.9362626249
 30
0.0
  0
SPLINE
  5
2B9
100
AcDbEntity
  8
0
100
AcDbSpline
 62
7
  6
BYLAYER
 70
0
 71
3
 72
14
 73
10
 74
0
 42
0.0000001
 43
0.0000001
 44
0.0000000001
 40
0.0
 40
0.0
 40
0.0
 40
0.0
 40
0.1080610879
 40
0.2181596691
 40
0.332155279
 40
0.4515599132
 40
0.7103708631
 40
0.8514080973
 40
1.0
 40
1.0
 40
1.0
 40
1.0
 10
9.0978042939
 20
40.1379911003
 30
0.0
 10
9.0650130709
 20
40.1190596349
 30
0.0
 10
9.0019759025
 20
40.0750559745
 30
0.0
 10
8.9186578358
 20
39.9930880436
 30
0.0
 10
8.8470303831
 20
39.8957616805
 30
0.0
 10
8.7657851522
 20
39.7430656099
 30
0.0
 10
8.7136579413
 20
39.5666141744
 30
0.0
 10
8.6878034884
 20
39.3760694333
 30
0.0
 10
8.6835803667
 20
39.2744846644
 30
0.0
 10
8.6835803667
 20
39.2224192172
 30
0.0
  0
SPLINE
  5
2BA
100
AcDbEntity
  8
0
100
AcDbSpline
 62
7
  6
BYLAYER
 70
0
 71
3
 72
15
 73
11
 74
0
 42
0.0000001
 43
0.0000001
 44
0.0000000001
 40
0.0
 40
0.0
 40
0.0
 40
0.0
 40
0.1486025682
 40
0.2895002298
 40
0.4227203132
 40
0.5486432716
 40
0.6679991308
 40
0.7819389812
 40
0.8919869925
 40
1.0
 40
1.0
 40
1.0
 40
1.0
 10
10.0977636025
 20
36.7729537824
 30
0.0
 10
10.1428773515
 20
36.7469065982
 30
0.0
 10
10.2329292203
 20
36.6997712774
 30
0.0
 10
10.3702840288
 20
36.6435378589
 30
0.0
 10
10.5051967188
 20
36.6042232666
 30
0.0
 10
10.6363857118
 20
36.5821925473
 30
0.0
 10
10.7626363628
 20
36.5778200904
 30
0.0
 10
10.8827288438
 20
36.5911917561
 30
0.0
 10
10.9953757425
 20
36.622364154
 30
0.0
 10
11.0650035615
 20
36.6549525297
 30
0.0
 10
11.0977953401
 20
36.6738843159
 30
0.0
  0
SPLINE
  5
2BB
100
AcDbEntity
  8
0
100
AcDbSpline
 62
7
  6
BYLAYER
 70
0
 71
3
 72
25
 73
21
 74
0
 42
0.0000001
 43
0.0000001
 44
0.0000000001
 40
0.0
 40
0.0
 40
0.0
 40
0.0
 40
0.0623733757
 40
0.1287280346
 40
0.1983135594
 40
0.2702912948
 40
0.3436687514
 40
0.4173996816
 40
0.4904238624
 40
0.5617106244
 40
0.6303076443
 40
0.6953947824
 40
0.7563427378
 40
0.8127809614
 40
0.8646816231
 40
0.9124565119
 40
0.9351018586
 40
0.9571071324
 40
0.9786678002
 40
1.0
 40
1.0
 40
1.0
 40
1.0
 10
11.5120192673
 20
37.5894561991
 30
0.0
 10
11.5120192673
 20
37.6724153699
 30
0.0
 10
11.5007648117
 20
37.8437418796
 30
0.0
 10
11.4545319825
 20
38.1038702738
 30
0.0
 10
11.379312947
 20
38.3704248846
 30
0.0
 10
11.2767882211
 20
38.6376864042
 30
0.0
 10
11.1490889963
 20
38.9000040983
 30
0.0
 10
10.9989613007
 20
39.151776682
 30
0.0
 10
10.8296099292
 20
39.3876397876
 30
0.0
 10
10.6446369396
 20
39.6025644869
 30
0.0
 10
10.4479615272
 20
39.7919742153
 30
0.0
 10
10.243727834
 20
39.9518599394
 30
0.0
 10
10.0361845228
 20
40.0788401523
 30
0.0
 10
9.8295219693
 20
40.1701729305
 30
0.0
 10
9.6279266748
 20
40.2237520975
 30
0.0
 10
9.464423676
 20
40.2357442173
 30
0.0
 10
9.3417927231
 20
40.2242499051
 30
0.0
 10
9.2554535581
 20
40.2058296978
 30
0.0
 10
9.173674924
 20
40.177553483
 30
0.0
 10
9.1223759606
 20
40.1521771421
 30
0.0
 10
9.0978042939
 20
40.1379911003
 30
0.0
  0
SPLINE
  5
2BC
100
AcDbEntity
  8
0
100
AcDbSpline
 62
7
  6
BYLAYER
 70
0
 71
3
 72
14
 73
10
 74
0
 42
0.0000001
 43
0.0000001
 44
0.0000000001
 40
0.0
 40
0.0
 40
0.0
 40
0.0
 40
0.1080610879
 40
0.2181596691
 40
0.332155279
 40
0.4515599132
 40
0.7103708631
 40
0.8514080973
 40
1.0
 40
1.0
 40
1.0
 40
1.0
 10
11.0977953401
 20
36.6738843159
 30
0.0
 10
11.1305865631
 20
36.6928157814
 30
0.0
 10
11.1936237315
 20
36.7368194417
 30
0.0
 10
11.2769417982
 20
36.8187873726
 30
0.0
 10
11.3485692509
 20
36.9161137358
 30
0.0
 10
11.4298144818
 20
37.0688098064
 30
0.0
 10
11.4819416927
 20
37.2452612419
 30
0.0
 10
11.5077961456
 20
37.435805983
 30
0.0
 10
11.5120192673
 20
37.5373907519
 30
0.0
 10
11.5120192673
 20
37.5894561991
 30
0.0
  0
SPLINE
  5
2BD
100
AcDbEntity
  8
0
100
AcDbSpline
 62
7
  6
BYLAYER
 70
0
 71
3
 72
9
 73
5
 74
0
 42
0.0000001
 43
0.0000001
 44
0.0000000001
 40
0.0
 40
0.0
 40
0.0
 40
0.0
 40
0.264352799
 40
1.0
 40
1.0
 40
1.0
 40
1.0
 10
9.8149293086
 20
36.9362626249
 30
0.0
 10
9.840024775
 20
36.9217732844
 30
0.0
 10
9.936469128
 20
36.8697172102
 30
0.0
 10
10.0395148105
 20
36.8291791012
 30
0.0
 10
10.1176203493
 20
36.8091183711
 30
0.0
  0
SPLINE
  5
2BE
100
AcDbEntity
  8
0
100
AcDbSpline
 62
7
  6
BYLAYER
 70
0
 71
3
 72
19
 73
15
 74
0
 42
0.0000001
 43
0.0000001
 44
0.0000000001
 40
0.0
 40
0.0
 40
0.0
 40
0.0
 40
0.1288908106
 40
0.1893352687
 40
0.2476088899
 40
0.3042768334
 40
0.3599882974
 40
0.4154564381
 40
0.4714093401
 40
0.5285470446
 40
0.5874904681
 40
0.7125676935
 40
0.8497672198
 40
1.0
 40
1.0
 40
1.0
 40
1.0
 10
10.1176203493
 20
36.8091183711
 30
0.0
 10
10.173920938
 20
36.7946580532
 30
0.0
 10
10.2590251199
 20
36.7808222344
 30
0.0
 10
10.37089905
 20
36.7822130049
 30
0.0
 10
10.4494870315
 20
36.79297091
 30
0.0
 10
10.5239316754
 20
36.8133887372
 30
0.0
 10
10.5937105936
 20
36.8433680007
 30
0.0
 10
10.6582864882
 20
36.8827273561
 30
0.0
 10
10.7172181345
 20
36.9311303829
 30
0.0
 10
10.7700530524
 20
36.9882635995
 30
0.0
 10
10.8331708539
 20
37.077151899
 30
0.0
 10
10.8946058908
 20
37.209819398
 30
0.0
 10
10.9376347164
 20
37.3917778238
 30
0.0
 10
10.9463338424
 20
37.521701975
 30
0.0
 10
10.9463338424
 20
37.5894548393
 30
0.0
  0
SPLINE
  5
2BF
100
AcDbEntity
  8
0
100
AcDbSpline
 62
7
  6
BYLAYER
 70
0
 71
3
 72
27
 73
23
 74
0
 42
0.0000001
 43
0.0000001
 44
0.0000000001
 40
0.0
 40
0.0
 40
0.0
 40
0.0
 40
0.0660126528
 40
0.1369399478
 40
0.2115540965
 40
0.2883979008
 40
0.3658370048
 40
0.4422091809
 40
0.5159155427
 40
0.5855452021
 40
0.6500037508
 40
0.7086695419
 40
0.7615868221
 40
0.7861914351
 40
0.8097901234
 40
0.832657395
 40
0.8551158317
 40
0.8775213426
 40
0.9002333962
 40
0.9235891638
 40
0.9478734838
 40
1.0
 40
1.0
 40
1.0
 40
1.0
 10
10.9463338424
 20
37.5894548393
 30
0.0
 10
10.9463338424
 20
37.6712632849
 30
0.0
 10
10.9326285035
 20
37.8411147751
 30
0.0
 10
10.8774598688
 20
38.0980345893
 30
0.0
 10
10.7885821987
 20
38.3595239898
 30
0.0
 10
10.6688715443
 20
38.6172636609
 30
0.0
 10
10.5220728198
 20
38.8631305998
 30
0.0
 10
10.3528602383
 20
39.0893303661
 30
0.0
 10
10.1665638533
 20
39.2887078875
 30
0.0
 10
9.9690272194
 20
39.4549873349
 30
0.0
 10
9.7662628172
 20
39.5829513538
 30
0.0
 10
9.564399166
 20
39.6685239615
 30
0.0
 10
9.3974950727
 20
39.702633462
 30
0.0
 10
9.2718605475
 20
39.7042613865
 30
0.0
 10
9.1841514339
 20
39.6934591437
 30
0.0
 10
9.1014818219
 20
39.6707318338
 30
0.0
 10
9.0245972093
 20
39.6362080735
 30
0.0
 10
8.9542275645
 20
39.5901745222
 30
0.0
 10
8.8909923752
 20
39.5330977274
 30
0.0
 10
8.835470394
 20
39.4654722375
 30
0.0
 10
8.7707441973
 20
39.3597760455
 30
0.0
 10
8.7374465953
 20
39.2699171798
 30
0.0
 10
8.7210045942
 20
39.2074450614
 30
0.0
  0
SPLINE
  5
2C0
100
AcDbEntity
  8
0
100
AcDbSpline
 62
7
  6
BYLAYER
 70
0
 71
3
 72
9
 73
5
 74
0
 42
0.0000001
 43
0.0000001
 44
0.0000000001
 40
0.0
 40
0.0
 40
0.0
 40
0.0
 40
0.4824304407
 40
1.0
 40
1.0
 40
1.0
 40
1.0
 10
8.7210045942
 20
39.2074450614
 30
0.0
 10
8.7081321374
 20
39.158535586
 30
0.0
 10
8.6892352029
 20
39.0550265838
 30
0.0
 10
8.6835827219
 20
38.9500840868
 30
0.0
 10
8.6835827219
 20
38.8958252538
 30
0.0
  0
SPLINE
  5
2C1
100
AcDbEntity
  8
0
100
AcDbSpline
 62
7
  6
BYLAYER
 70
0
 71
3
 72
15
 73
11
 74
0
 42
0.0000001
 43
0.0000001
 44
0.0000000001
 40
0.0
 40
0.0
 40
0.0
 40
0.0
 40
0.1141515087
 40
0.2373301591
 40
0.3669778071
 40
0.5000005759
 40
0.6330236626
 40
0.7626743904
 40
0.8858459846
 40
1.0
 40
1.0
 40
1.0
 40
1.0
 10
25.6542161254
 20
9.5019891342
 30
0.0
 10
25.6542161254
 20
9.4125601634
 30
0.0
 10
25.670599575
 20
9.2264569941
 30
0.0
 10
25.7358935427
 20
8.9456999968
 30
0.0
 10
25.8405101065
 20
8.661317613
 30
0.0
 10
25.9805111686
 20
8.3840020153
 30
0.0
 10
26.1506720317
 20
8.1240957386
 30
0.0
 10
26.3446482651
 20
7.8913097817
 30
0.0
 10
26.5551375213
 20
7.6943799833
 30
0.0
 10
26.7081138741
 20
7.587143052
 30
0.0
 10
26.7855627121
 20
7.5424265054
 30
0.0
  0
SPLINE
  5
2C2
100
AcDbEntity
  8
0
100
AcDbSpline
 62
7
  6
BYLAYER
 70
0
 71
3
 72
14
 73
10
 74
0
 42
0.0000001
 43
0.0000001
 44
0.0000000001
 40
0.0
 40
0.0
 40
0.0
 40
0.0
 40
0.1080610879
 40
0.2181596691
 40
0.332155279
 40
0.4515599132
 40
0.7103708631
 40
0.8514080973
 40
1.0
 40
1.0
 40
1.0
 40
1.0
 10
26.0684376975
 20
10.7441549807
 30
0.0
 10
26.0356464745
 20
10.7252235153
 30
0.0
 10
25.972609306
 20
10.6812198549
 30
0.0
 10
25.8892912393
 20
10.599251924
 30
0.0
 10
25.8176637867
 20
10.5019255609
 30
0.0
 10
25.7364185558
 20
10.3492294903
 30
0.0
 10
25.6842913449
 20
10.1727780548
 30
0.0
 10
25.658436892
 20
9.9822333137
 30
0.0
 10
25.6542137702
 20
9.8806485448
 30
0.0
 10
25.6542137702
 20
9.8285830976
 30
0.0
  0
SPLINE
  5
2C3
100
AcDbEntity
  8
0
100
AcDbSpline
 62
7
  6
BYLAYER
 70
0
 71
3
 72
15
 73
11
 74
0
 42
0.0000001
 43
0.0000001
 44
0.0000000001
 40
0.0
 40
0.0
 40
0.0
 40
0.0
 40
0.1486025682
 40
0.2895002298
 40
0.4227203132
 40
0.5486432716
 40
0.6679991308
 40
0.7819389812
 40
0.8919869925
 40
1.0
 40
1.0
 40
1.0
 40
1.0
 10
27.0683970061
 20
7.3791176628
 30
0.0
 10
27.113510755
 20
7.3530704786
 30
0.0
 10
27.2035626239
 20
7.3059351578
 30
0.0
 10
27.3409174323
 20
7.2497017393
 30
0.0
 10
27.4758301224
 20
7.210387147
 30
0.0
 10
27.6070191153
 20
7.1883564277
 30
0.0
 10
27.7332697663
 20
7.1839839708
 30
0.0
 10
27.8533622474
 20
7.1973556365
 30
0.0
 10
27.966009146
 20
7.2285280344
 30
0.0
 10
28.035636965
 20
7.2611164101
 30
0.0
 10
28.0684287436
 20
7.2800481963
 30
0.0
  0
SPLINE
  5
2C4
100
AcDbEntity
  8
0
100
AcDbSpline
 62
7
  6
BYLAYER
 70
0
 71
3
 72
25
 73
21
 74
0
 42
0.0000001
 43
0.0000001
 44
0.0000000001
 40
0.0
 40
0.0
 40
0.0
 40
0.0
 40
0.0623733757
 40
0.1287280346
 40
0.1983135594
 40
0.2702912948
 40
0.3436687514
 40
0.4173996816
 40
0.4904238624
 40
0.5617106244
 40
0.6303076443
 40
0.6953947824
 40
0.7563427378
 40
0.8127809614
 40
0.8646816231
 40
0.9124565119
 40
0.9351018586
 40
0.9571071324
 40
0.9786678002
 40
1.0
 40
1.0
 40
1.0
 40
1.0
 10
28.4826526708
 20
8.1956200795
 30
0.0
 10
28.4826526708
 20
8.2785792503
 30
0.0
 10
28.4713982153
 20
8.44990576
 30
0.0
 10
28.425165386
 20
8.7100341542
 30
0.0
 10
28.3499463505
 20
8.976588765
 30
0.0
 10
28.2474216246
 20
9.2438502846
 30
0.0
 10
28.1197223998
 20
9.5061679787
 30
0.0
 10
27.9695947042
 20
9.7579405624
 30
0.0
 10
27.8002433327
 20
9.993803668
 30
0.0
 10
27.6152703432
 20
10.2087283673
 30
0.0
 10
27.4185949308
 20
10.3981380957
 30
0.0
 10
27.2143612375
 20
10.5580238198
 30
0.0
 10
27.0068179263
 20
10.6850040327
 30
0.0
 10
26.8001553729
 20
10.7763368109
 30
0.0
 10
26.5985600783
 20
10.8299159779
 30
0.0
 10
26.4350570795
 20
10.8419080977
 30
0.0
 10
26.3124261266
 20
10.8304137855
 30
0.0
 10
26.2260869616
 20
10.8119935782
 30
0.0
 10
26.1443083275
 20
10.7837173634
 30
0.0
 10
26.0930093642
 20
10.7583410225
 30
0.0
 10
26.0684376975
 20
10.7441549807
 30
0.0
  0
SPLINE
  5
2C5
100
AcDbEntity
  8
0
100
AcDbSpline
 62
7
  6
BYLAYER
 70
0
 71
3
 72
14
 73
10
 74
0
 42
0.0000001
 43
0.0000001
 44
0.0000000001
 40
0.0
 40
0.0
 40
0.0
 40
0.0
 40
0.1080610879
 40
0.2181596691
 40
0.332155279
 40
0.4515599132
 40
0.7103708631
 40
0.8514080973
 40
1.0
 40
1.0
 40
1.0
 40
1.0
 10
28.0684287436
 20
7.2800481963
 30
0.0
 10
28.1012199666
 20
7.2989796618
 30
0.0
 10
28.1642571351
 20
7.3429833221
 30
0.0
 10
28.2475752018
 20
7.424951253
 30
0.0
 10
28.3192026544
 20
7.5222776162
 30
0.0
 10
28.4004478853
 20
7.6749736868
 30
0.0
 10
28.4525750962
 20
7.8514251223
 30
0.0
 10
28.4784295491
 20
8.0419698634
 30
0.0
 10
28.4826526708
 20
8.1435546323
 30
0.0
 10
28.4826526708
 20
8.1956200795
 30
0.0
  0
SPLINE
  5
2C6
100
AcDbEntity
  8
0
100
AcDbSpline
 62
7
  6
BYLAYER
 70
0
 71
3
 72
9
 73
5
 74
0
 42
0.0000001
 43
0.0000001
 44
0.0000000001
 40
0.0
 40
0.0
 40
0.0
 40
0.0
 40
0.264352799
 40
1.0
 40
1.0
 40
1.0
 40
1.0
 10
26.7855627121
 20
7.5424265054
 30
0.0
 10
26.8106581785
 20
7.5279371648
 30
0.0
 10
26.9071025315
 20
7.4758810906
 30
0.0
 10
27.0101482141
 20
7.4353429816
 30
0.0
 10
27.0882537529
 20
7.4152822515
 30
0.0
  0
SPLINE
  5
2C7
100
AcDbEntity
  8
0
100
AcDbSpline
 62
7
  6
BYLAYER
 70
0
 71
3
 72
19
 73
15
 74
0
 42
0.0000001
 43
0.0000001
 44
0.0000000001
 40
0.0
 40
0.0
 40
0.0
 40
0.0
 40
0.1288908106
 40
0.1893352687
 40
0.2476088899
 40
0.3042768334
 40
0.3599882974
 40
0.4154564381
 40
0.4714093401
 40
0.5285470446
 40
0.5874904681
 40
0.7125676935
 40
0.8497672198
 40
1.0
 40
1.0
 40
1.0
 40
1.0
 10
27.0882537529
 20
7.4152822515
 30
0.0
 10
27.1445543415
 20
7.4008219336
 30
0.0
 10
27.2296585235
 20
7.3869861148
 30
0.0
 10
27.3415324535
 20
7.3883768853
 30
0.0
 10
27.420120435
 20
7.3991347904
 30
0.0
 10
27.494565079
 20
7.4195526176
 30
0.0
 10
27.5643439971
 20
7.4495318811
 30
0.0
 10
27.6289198918
 20
7.4888912365
 30
0.0
 10
27.687851538
 20
7.5372942633
 30
0.0
 10
27.7406864559
 20
7.5944274799
 30
0.0
 10
27.8038042574
 20
7.6833157794
 30
0.0
 10
27.8652392943
 20
7.8159832784
 30
0.0
 10
27.9082681199
 20
7.9979417042
 30
0.0
 10
27.9169672459
 20
8.1278658554
 30
0.0
 10
27.9169672459
 20
8.1956187197
 30
0.0
  0
SPLINE
  5
2C8
100
AcDbEntity
  8
0
100
AcDbSpline
 62
7
  6
BYLAYER
 70
0
 71
3
 72
27
 73
23
 74
0
 42
0.0000001
 43
0.0000001
 44
0.0000000001
 40
0.0
 40
0.0
 40
0.0
 40
0.0
 40
0.0660126528
 40
0.1369399478
 40
0.2115540965
 40
0.2883979008
 40
0.3658370048
 40
0.4422091809
 40
0.5159155427
 40
0.5855452021
 40
0.6500037508
 40
0.7086695419
 40
0.7615868221
 40
0.7861914351
 40
0.8097901234
 40
0.832657395
 40
0.8551158317
 40
0.8775213426
 40
0.9002333962
 40
0.9235891638
 40
0.9478734838
 40
1.0
 40
1.0
 40
1.0
 40
1.0
 10
27.9169672459
 20
8.1956187197
 30
0.0
 10
27.9169672459
 20
8.2774271653
 30
0.0
 10
27.9032619071
 20
8.4472786555
 30
0.0
 10
27.8480932723
 20
8.7041984697
 30
0.0
 10
27.7592156022
 20
8.9656878702
 30
0.0
 10
27.6395049479
 20
9.2234275413
 30
0.0
 10
27.4927062233
 20
9.4692944802
 30
0.0
 10
27.3234936418
 20
9.6954942465
 30
0.0
 10
27.1371972568
 20
9.8948717679
 30
0.0
 10
26.9396606229
 20
10.0611512153
 30
0.0
 10
26.7368962207
 20
10.1891152342
 30
0.0
 10
26.5350325695
 20
10.2746878419
 30
0.0
 10
26.3681284762
 20
10.3087973424
 30
0.0
 10
26.242493951
 20
10.3104252669
 30
0.0
 10
26.1547848375
 20
10.2996230241
 30
0.0
 10
26.0721152254
 20
10.2768957142
 30
0.0
 10
25.9952306128
 20
10.2423719539
 30
0.0
 10
25.9248609681
 20
10.1963384026
 30
0.0
 10
25.8616257788
 20
10.1392616078
 30
0.0
 10
25.8061037975
 20
10.0716361179
 30
0.0
 10
25.7413776008
 20
9.9659399259
 30
0.0
 10
25.7080799988
 20
9.8760810602
 30
0.0
 10
25.6916379977
 20
9.8136089418
 30
0.0
  0
SPLINE
  5
2C9
100
AcDbEntity
  8
0
100
AcDbSpline
 62
7
  6
BYLAYER
 70
0
 71
3
 72
9
 73
5
 74
0
 42
0.0000001
 43
0.0000001
 44
0.0000000001
 40
0.0
 40
0.0
 40
0.0
 40
0.0
 40
0.4824304407
 40
1.0
 40
1.0
 40
1.0
 40
1.0
 10
25.6916379977
 20
9.8136089418
 30
0.0
 10
25.6787655409
 20
9.7646994664
 30
0.0
 10
25.6598686064
 20
9.6611904642
 30
0.0
 10
25.6542161254
 20
9.5562479672
 30
0.0
 10
25.6542161254
 20
9.5019891342
 30
0.0
  0
SPLINE
  5
2CA
100
AcDbEntity
  8
0
100
AcDbSpline
 62
7
  6
BYLAYER
 70
0
 71
3
 72
15
 73
11
 74
0
 42
0.0000001
 43
0.0000001
 44
0.0000000001
 40
0.0
 40
0.0
 40
0.0
 40
0.0
 40
0.1141515087
 40
0.2373301591
 40
0.3669778071
 40
0.5000005759
 40
0.6330236626
 40
0.7626743904
 40
0.8858459846
 40
1.0
 40
1.0
 40
1.0
 40
1.0
 10
25.6542161254
 20
29.0980471453
 30
0.0
 10
25.6542161254
 20
29.0086181745
 30
0.0
 10
25.670599575
 20
28.8225150052
 30
0.0
 10
25.7358935427
 20
28.5417580079
 30
0.0
 10
25.8405101065
 20
28.2573756241
 30
0.0
 10
25.9805111686
 20
27.9800600264
 30
0.0
 10
26.1506720317
 20
27.7201537497
 30
0.0
 10
26.3446482651
 20
27.4873677928
 30
0.0
 10
26.5551375213
 20
27.2904379944
 30
0.0
 10
26.7081138741
 20
27.1832010631
 30
0.0
 10
26.7855627121
 20
27.1384845165
 30
0.0
  0
SPLINE
  5
2CB
100
AcDbEntity
  8
0
100
AcDbSpline
 62
7
  6
BYLAYER
 70
0
 71
3
 72
14
 73
10
 74
0
 42
0.0000001
 43
0.0000001
 44
0.0000000001
 40
0.0
 40
0.0
 40
0.0
 40
0.0
 40
0.1080610879
 40
0.2181596691
 40
0.332155279
 40
0.4515599132
 40
0.7103708631
 40
0.8514080973
 40
1.0
 40
1.0
 40
1.0
 40
1.0
 10
26.0684376975
 20
30.3402129918
 30
0.0
 10
26.0356464745
 20
30.3212815264
 30
0.0
 10
25.972609306
 20
30.277277866
 30
0.0
 10
25.8892912393
 20
30.1953099351
 30
0.0
 10
25.8176637867
 20
30.097983572
 30
0.0
 10
25.7364185558
 20
29.9452875014
 30
0.0
 10
25.6842913449
 20
29.7688360659
 30
0.0
 10
25.658436892
 20
29.5782913248
 30
0.0
 10
25.6542137702
 20
29.4767065559
 30
0.0
 10
25.6542137702
 20
29.4246411087
 30
0.0
  0
SPLINE
  5
2CC
100
AcDbEntity
  8
0
100
AcDbSpline
 62
7
  6
BYLAYER
 70
0
 71
3
 72
15
 73
11
 74
0
 42
0.0000001
 43
0.0000001
 44
0.0000000001
 40
0.0
 40
0.0
 40
0.0
 40
0.0
 40
0.1486025682
 40
0.2895002298
 40
0.4227203132
 40
0.5486432716
 40
0.6679991308
 40
0.7819389812
 40
0.8919869925
 40
1.0
 40
1.0
 40
1.0
 40
1.0
 10
27.0683970061
 20
26.9751756739
 30
0.0
 10
27.113510755
 20
26.9491284897
 30
0.0
 10
27.2035626239
 20
26.9019931689
 30
0.0
 10
27.3409174323
 20
26.8457597504
 30
0.0
 10
27.4758301224
 20
26.8064451581
 30
0.0
 10
27.6070191153
 20
26.7844144388
 30
0.0
 10
27.7332697663
 20
26.780041982
 30
0.0
 10
27.8533622474
 20
26.7934136476
 30
0.0
 10
27.966009146
 20
26.8245860455
 30
0.0
 10
28.035636965
 20
26.8571744212
 30
0.0
 10
28.0684287436
 20
26.8761062074
 30
0.0
  0
SPLINE
  5
2CD
100
AcDbEntity
  8
0
100
AcDbSpline
 62
7
  6
BYLAYER
 70
0
 71
3
 72
25
 73
21
 74
0
 42
0.0000001
 43
0.0000001
 44
0.0000000001
 40
0.0
 40
0.0
 40
0.0
 40
0.0
 40
0.0623733757
 40
0.1287280346
 40
0.1983135594
 40
0.2702912948
 40
0.3436687514
 40
0.4173996816
 40
0.4904238624
 40
0.5617106244
 40
0.6303076443
 40
0.6953947824
 40
0.7563427378
 40
0.8127809614
 40
0.8646816231
 40
0.9124565119
 40
0.9351018586
 40
0.9571071324
 40
0.9786678002
 40
1.0
 40
1.0
 40
1.0
 40
1.0
 10
28.4826526708
 20
27.7916780906
 30
0.0
 10
28.4826526708
 20
27.8746372614
 30
0.0
 10
28.4713982153
 20
28.0459637711
 30
0.0
 10
28.425165386
 20
28.3060921654
 30
0.0
 10
28.3499463505
 20
28.5726467761
 30
0.0
 10
28.2474216246
 20
28.8399082957
 30
0.0
 10
28.1197223998
 20
29.1022259898
 30
0.0
 10
27.9695947042
 20
29.3539985735
 30
0.0
 10
27.8002433327
 20
29.5898616791
 30
0.0
 10
27.6152703432
 20
29.8047863784
 30
0.0
 10
27.4185949308
 20
29.9941961068
 30
0.0
 10
27.2143612375
 20
30.1540818309
 30
0.0
 10
27.0068179263
 20
30.2810620438
 30
0.0
 10
26.8001553729
 20
30.372394822
 30
0.0
 10
26.5985600783
 20
30.425973989
 30
0.0
 10
26.4350570795
 20
30.4379661088
 30
0.0
 10
26.3124261266
 20
30.4264717966
 30
0.0
 10
26.2260869616
 20
30.4080515893
 30
0.0
 10
26.1443083275
 20
30.3797753745
 30
0.0
 10
26.0930093642
 20
30.3543990336
 30
0.0
 10
26.0684376975
 20
30.3402129918
 30
0.0
  0
SPLINE
  5
2CE
100
AcDbEntity
  8
0
100
AcDbSpline
 62
7
  6
BYLAYER
 70
0
 71
3
 72
14
 73
10
 74
0
 42
0.0000001
 43
0.0000001
 44
0.0000000001
 40
0.0
 40
0.0
 40
0.0
 40
0.0
 40
0.1080610879
 40
0.2181596691
 40
0.332155279
 40
0.4515599132
 40
0.7103708631
 40
0.8514080973
 40
1.0
 40
1.0
 40
1.0
 40
1.0
 10
28.0684287436
 20
26.8761062074
 30
0.0
 10
28.1012199666
 20
26.8950376729
 30
0.0
 10
28.1642571351
 20
26.9390413332
 30
0.0
 10
28.2475752018
 20
27.0210092642
 30
0.0
 10
28.3192026544
 20
27.1183356273
 30
0.0
 10
28.4004478853
 20
27.2710316979
 30
0.0
 10
28.4525750962
 20
27.4474831334
 30
0.0
 10
28.4784295491
 20
27.6380278745
 30
0.0
 10
28.4826526708
 20
27.7396126434
 30
0.0
 10
28.4826526708
 20
27.7916780906
 30
0.0
  0
SPLINE
  5
2CF
100
AcDbEntity
  8
0
100
AcDbSpline
 62
7
  6
BYLAYER
 70
0
 71
3
 72
9
 73
5
 74
0
 42
0.0000001
 43
0.0000001
 44
0.0000000001
 40
0.0
 40
0.0
 40
0.0
 40
0.0
 40
0.264352799
 40
1.0
 40
1.0
 40
1.0
 40
1.0
 10
26.7855627121
 20
27.1384845165
 30
0.0
 10
26.8106581785
 20
27.1239951759
 30
0.0
 10
26.9071025315
 20
27.0719391018
 30
0.0
 10
27.0101482141
 20
27.0314009927
 30
0.0
 10
27.0882537529
 20
27.0113402626
 30
0.0
  0
SPLINE
  5
2D0
100
AcDbEntity
  8
0
100
AcDbSpline
 62
7
  6
BYLAYER
 70
0
 71
3
 72
19
 73
15
 74
0
 42
0.0000001
 43
0.0000001
 44
0.0000000001
 40
0.0
 40
0.0
 40
0.0
 40
0.0
 40
0.1288908106
 40
0.1893352687
 40
0.2476088899
 40
0.3042768334
 40
0.3599882974
 40
0.4154564381
 40
0.4714093401
 40
0.5285470446
 40
0.5874904681
 40
0.7125676935
 40
0.8497672198
 40
1.0
 40
1.0
 40
1.0
 40
1.0
 10
27.0882537529
 20
27.0113402626
 30
0.0
 10
27.1445543415
 20
26.9968799447
 30
0.0
 10
27.2296585235
 20
26.9830441259
 30
0.0
 10
27.3415324535
 20
26.9844348964
 30
0.0
 10
27.420120435
 20
26.9951928015
 30
0.0
 10
27.494565079
 20
27.0156106287
 30
0.0
 10
27.5643439971
 20
27.0455898922
 30
0.0
 10
27.6289198918
 20
27.0849492476
 30
0.0
 10
27.687851538
 20
27.1333522744
 30
0.0
 10
27.7406864559
 20
27.190485491
 30
0.0
 10
27.8038042574
 20
27.2793737905
 30
0.0
 10
27.8652392943
 20
27.4120412895
 30
0.0
 10
27.9082681199
 20
27.5939997153
 30
0.0
 10
27.9169672459
 20
27.7239238665
 30
0.0
 10
27.9169672459
 20
27.7916767309
 30
0.0
  0
SPLINE
  5
2D1
100
AcDbEntity
  8
0
100
AcDbSpline
 62
7
  6
BYLAYER
 70
0
 71
3
 72
27
 73
23
 74
0
 42
0.0000001
 43
0.0000001
 44
0.0000000001
 40
0.0
 40
0.0
 40
0.0
 40
0.0
 40
0.0660126528
 40
0.1369399478
 40
0.2115540965
 40
0.2883979008
 40
0.3658370048
 40
0.4422091809
 40
0.5159155427
 40
0.5855452021
 40
0.6500037508
 40
0.7086695419
 40
0.7615868221
 40
0.7861914351
 40
0.8097901234
 40
0.832657395
 40
0.8551158317
 40
0.8775213426
 40
0.9002333962
 40
0.9235891638
 40
0.9478734838
 40
1.0
 40
1.0
 40
1.0
 40
1.0
 10
27.9169672459
 20
27.7916767309
 30
0.0
 10
27.9169672459
 20
27.8734851764
 30
0.0
 10
27.9032619071
 20
28.0433366666
 30
0.0
 10
27.8480932723
 20
28.3002564808
 30
0.0
 10
27.7592156022
 20
28.5617458813
 30
0.0
 10
27.6395049479
 20
28.8194855524
 30
0.0
 10
27.4927062233
 20
29.0653524913
 30
0.0
 10
27.3234936418
 20
29.2915522577
 30
0.0
 10
27.1371972568
 20
29.490929779
 30
0.0
 10
26.9396606229
 20
29.6572092264
 30
0.0
 10
26.7368962207
 20
29.7851732453
 30
0.0
 10
26.5350325695
 20
29.870745853
 30
0.0
 10
26.3681284762
 20
29.9048553535
 30
0.0
 10
26.242493951
 20
29.906483278
 30
0.0
 10
26.1547848375
 20
29.8956810352
 30
0.0
 10
26.0721152254
 20
29.8729537254
 30
0.0
 10
25.9952306128
 20
29.838429965
 30
0.0
 10
25.9248609681
 20
29.7923964137
 30
0.0
 10
25.8616257788
 20
29.7353196189
 30
0.0
 10
25.8061037975
 20
29.667694129
 30
0.0
 10
25.7413776008
 20
29.561997937
 30
0.0
 10
25.7080799988
 20
29.4721390713
 30
0.0
 10
25.6916379977
 20
29.409666953
 30
0.0
  0
SPLINE
  5
2D2
100
AcDbEntity
  8
0
100
AcDbSpline
 62
7
  6
BYLAYER
 70
0
 71
3
 72
9
 73
5
 74
0
 42
0.0000001
 43
0.0000001
 44
0.0000000001
 40
0.0
 40
0.0
 40
0.0
 40
0.0
 40
0.4824304407
 40
1.0
 40
1.0
 40
1.0
 40
1.0
 10
25.6916379977
 20
29.409666953
 30
0.0
 10
25.6787655409
 20
29.3607574776
 30
0.0
 10
25.6598686064
 20
29.2572484753
 30
0.0
 10
25.6542161254
 20
29.1523059783
 30
0.0
 10
25.6542161254
 20
29.0980471453
 30
0.0
  0
SPLINE
  5
2D3
100
AcDbEntity
  8
0
100
AcDbSpline
 62
7
  6
BYLAYER
 70
0
 71
3
 72
11
 73
7
 74
0
 42
0.0000001
 43
0.0000001
 44
0.0000000001
 40
0.0
 40
0.0
 40
0.0
 40
0.0
 40
0.2284967834
 40
0.4665514946
 40
0.7219834748
 40
1.0
 40
1.0
 40
1.0
 40
1.0
 10
25.5935844899
 20
62.8018379002
 30
0.0
 10
25.6309418681
 20
62.8234060589
 30
0.0
 10
25.713392107
 20
62.8574997187
 30
0.0
 10
25.8495150682
 20
62.8769889499
 30
0.0
 10
25.9957049373
 20
62.8654633693
 30
0.0
 10
26.0934179203
 20
62.8388371776
 30
0.0
 10
26.1428768144
 20
62.8212730621
 30
0.0
  0
SPLINE
  5
2D4
100
AcDbEntity
  8
0
100
AcDbSpline
 62
7
  6
BYLAYER
 70
0
 71
3
 72
17
 73
13
 74
0
 42
0.0000001
 43
0.0000001
 44
0.0000000001
 40
0.0
 40
0.0
 40
0.0
 40
0.0
 40
0.1124217258
 40
0.2305250979
 40
0.3545119648
 40
0.4838871544
 40
0.6172111482
 40
0.7515114008
 40
0.817512057
 40
0.8815999903
 40
0.9427912
 40
1.0
 40
1.0
 40
1.0
 40
1.0
 10
27.4042490566
 20
60.5975245252
 30
0.0
 10
27.4042390315
 20
60.7100870089
 30
0.0
 10
27.3818640912
 20
60.9413055786
 30
0.0
 10
27.2882293289
 20
61.2851147493
 30
0.0
 10
27.138747246
 20
61.6269539118
 30
0.0
 10
26.9397963121
 20
61.9601330558
 30
0.0
 10
26.6992088653
 20
62.2774370305
 30
0.0
 10
26.4711827396
 20
62.5223972182
 30
0.0
 10
26.2763225275
 20
62.7017278071
 30
0.0
 10
26.1285052199
 20
62.8236766412
 30
0.0
 10
25.9808111841
 20
62.9314304656
 30
0.0
 10
25.8805374371
 20
62.9948989941
 30
0.0
 10
25.8309308502
 20
63.0235387225
 30
0.0
  0
SPLINE
  5
2D5
100
AcDbEntity
  8
0
100
AcDbSpline
 62
7
  6
BYLAYER
 70
0
 71
3
 72
11
 73
7
 74
0
 42
0.0000001
 43
0.0000001
 44
0.0000000001
 40
0.0
 40
0.0
 40
0.0
 40
0.0
 40
0.2325030509
 40
0.4726668118
 40
0.7269412374
 40
1.0
 40
1.0
 40
1.0
 40
1.0
 10
34.1957442636
 20
65.2179833578
 30
0.0
 10
34.1957458197
 20
65.3417663267
 30
0.0
 10
34.1666439157
 20
65.5942781825
 30
0.0
 10
34.03778732
 20
65.9621624652
 30
0.0
 10
33.8274464915
 20
66.3152290915
 30
0.0
 10
33.6429372923
 20
66.5287281326
 30
0.0
 10
33.5401743019
 20
66.6315557795
 30
0.0
  0
SPLINE
  5
2D6
100
AcDbEntity
  8
0
100
AcDbSpline
 62
7
  6
BYLAYER
 70
0
 71
3
 72
9
 73
5
 74
0
 42
0.0000001
 43
0.0000001
 44
0.0000000001
 40
0.0
 40
0.0
 40
0.0
 40
0.0
 40
0.5039439407
 40
1.0
 40
1.0
 40
1.0
 40
1.0
 10
24.3783177167
 20
59.4021849109
 30
0.0
 10
24.3522117317
 20
59.3202300967
 30
0.0
 10
24.3118222915
 20
59.1536992241
 30
0.0
 10
24.296779696
 20
58.9829373101
 30
0.0
 10
24.2958393351
 20
58.8982765325
 30
0.0
  0
SPLINE
  5
2D7
100
AcDbEntity
  8
0
100
AcDbSpline
 62
7
  6
BYLAYER
 70
0
 71
3
 72
9
 73
5
 74
0
 42
0.0000001
 43
0.0000001
 44
0.0000000001
 40
0.0
 40
0.0
 40
0.0
 40
0.0
 40
0.2598467693
 40
1.0
 40
1.0
 40
1.0
 40
1.0
 10
27.4004534391
 20
60.7894391297
 30
0.0
 10
27.3990847089
 20
60.7715964629
 30
0.0
 10
27.3923360266
 20
60.7030626632
 30
0.0
 10
27.3794722983
 20
60.635049148
 30
0.0
 10
27.365819702
 20
60.5859387723
 30
0.0
  0
SPLINE
  5
2D8
100
AcDbEntity
  8
0
100
AcDbSpline
 62
7
  6
BYLAYER
 70
0
 71
3
 72
11
 73
7
 74
0
 42
0.0000001
 43
0.0000001
 44
0.0000000001
 40
0.0
 40
0.0
 40
0.0
 40
0.0
 40
0.2725562795
 40
0.5266721352
 40
0.7670388601
 40
1.0
 40
1.0
 40
1.0
 40
1.0
 10
27.365819702
 20
60.5859387723
 30
0.0
 10
27.3541225553
 20
60.5438624338
 30
0.0
 10
27.3255631978
 20
60.4640041908
 30
0.0
 10
27.2644832837
 20
60.3565461663
 30
0.0
 10
27.1874594542
 20
60.2679819712
 30
0.0
 10
27.1259044794
 20
60.2224215278
 30
0.0
 10
27.0935777745
 20
60.2037578117
 30
0.0
  0
SPLINE
  5
2D9
100
AcDbEntity
  8
0
100
AcDbSpline
 62
7
  6
BYLAYER
 70
0
 71
3
 72
11
 73
7
 74
0
 42
0.0000001
 43
0.0000001
 44
0.0000000001
 40
0.0
 40
0.0
 40
0.0
 40
0.0
 40
0.2599553562
 40
0.5168430728
 40
0.7651503076
 40
1.0
 40
1.0
 40
1.0
 40
1.0
 10
30.3072108237
 20
62.4499353791
 30
0.0
 10
30.1585188077
 20
62.7393467216
 30
0.0
 10
29.8323708354
 20
63.2996304846
 30
0.0
 10
29.265572203
 20
64.0737942876
 30
0.0
 10
28.6387225216
 20
64.7582809277
 30
0.0
 10
28.1784436543
 20
65.1535937737
 30
0.0
 10
27.9424539021
 20
65.3288526733
 30
0.0
  0
SPLINE
  5
2DA
100
AcDbEntity
  8
0
100
AcDbSpline
 62
7
  6
BYLAYER
 70
0
 71
3
 72
15
 73
11
 74
0
 42
0.0000001
 43
0.0000001
 44
0.0000000001
 40
0.0
 40
0.0
 40
0.0
 40
0.0
 40
0.154373561
 40
0.2994406469
 40
0.4348091335
 40
0.560687569
 40
0.6780117024
 40
0.7885368581
 40
0.8948172686
 40
1.0
 40
1.0
 40
1.0
 40
1.0
 10
27.9424539021
 20
65.3288526733
 30
0.0
 10
27.7883491445
 20
65.4432992964
 30
0.0
 10
27.478832261
 20
65.6515897599
 30
0.0
 10
26.9995599684
 20
65.9042462551
 30
0.0
 10
26.5258668543
 20
66.0840842819
 30
0.0
 10
26.0648705589
 20
66.1878976898
 30
0.0
 10
25.6235106743
 20
66.2133645818
 30
0.0
 10
25.2088098554
 20
66.1589183687
 30
0.0
 10
24.8285079036
 20
66.0244409556
 30
0.0
 10
24.603804878
 20
65.8831082501
 30
0.0
 10
24.5012629523
 20
65.8019251134
 30
0.0
  0
SPLINE
  5
2DB
100
AcDbEntity
  8
0
100
AcDbSpline
 62
7
  6
BYLAYER
 70
0
 71
3
 72
12
 73
8
 74
0
 42
0.0000001
 43
0.0000001
 44
0.0000000001
 40
0.0
 40
0.0
 40
0.0
 40
0.0
 40
0.2896817507
 40
0.424580506
 40
0.5525404141
 40
0.7882295002
 40
1.0
 40
1.0
 40
1.0
 40
1.0
 10
32.8312882962
 20
56.2013530239
 30
0.0
 10
32.9905720725
 20
56.2933150061
 30
0.0
 10
33.217911275
 20
56.4395620275
 30
0.0
 10
33.4942574734
 20
56.6560365247
 30
0.0
 10
33.7297064355
 20
56.8679039699
 30
0.0
 10
33.9738796112
 20
57.1418809402
 30
0.0
 10
34.1204009409
 20
57.3883382042
 30
0.0
 10
34.1742579499
 20
57.5115380621
 30
0.0
  0
SPLINE
  5
2DC
100
AcDbEntity
  8
0
100
AcDbSpline
 62
7
  6
BYLAYER
 70
0
 71
3
 72
11
 73
7
 74
0
 42
0.0000001
 43
0.0000001
 44
0.0000000001
 40
0.0
 40
0.0
 40
0.0
 40
0.0
 40
0.2660472462
 40
0.5239335989
 40
0.7697472882
 40
1.0
 40
1.0
 40
1.0
 40
1.0
 10
30.3912524208
 20
55.3274318389
 30
0.0
 10
30.6178591074
 20
55.371240073
 30
0.0
 10
31.0610570312
 20
55.4743521564
 30
0.0
 10
31.6987459266
 20
55.6747197091
 30
0.0
 10
32.289670181
 20
55.9136437156
 30
0.0
 10
32.6582996491
 20
56.1014785781
 30
0.0
 10
32.8312882962
 20
56.2013530239
 30
0.0
  0
SPLINE
  5
2DD
100
AcDbEntity
  8
0
100
AcDbSpline
 62
7
  6
BYLAYER
 70
0
 71
3
 72
9
 73
5
 74
0
 42
0.0000001
 43
0.0000001
 44
0.0000000001
 40
0.0
 40
0.0
 40
0.0
 40
0.0
 40
0.253726611
 40
1.0
 40
1.0
 40
1.0
 40
1.0
 10
32.6604506168
 20
58.200617314
 30
0.0
 10
32.7864390143
 20
58.138009225
 30
0.0
 10
33.2850284063
 20
57.8953856232
 30
0.0
 10
33.7918112322
 20
57.6695301019
 30
0.0
 10
34.1742579499
 20
57.5115380621
 30
0.0
  0
SPLINE
  5
2DE
100
AcDbEntity
  8
0
100
AcDbSpline
 62
7
  6
BYLAYER
 70
0
 71
3
 72
15
 73
11
 74
0
 42
0.0000001
 43
0.0000001
 44
0.0000000001
 40
0.0
 40
0.0
 40
0.0
 40
0.0
 40
0.1485665239
 40
0.2895130155
 40
0.4227331666
 40
0.5486441831
 40
0.6680074742
 40
0.7819477108
 40
0.8919923046
 40
1.0
 40
1.0
 40
1.0
 40
1.0
 10
25.8309308502
 20
56.8793580336
 30
0.0
 10
25.7204314242
 20
56.9431534637
 30
0.0
 10
25.5101051304
 20
57.0764819157
 30
0.0
 10
25.2225362125
 20
57.2990303729
 30
0.0
 10
24.9738092977
 20
57.5371118762
 30
0.0
 10
24.7664268697
 20
57.7885079382
 30
0.0
 10
24.6024324415
 20
58.050974041
 30
0.0
 10
24.4837735075
 20
58.3221897356
 30
0.0
 10
24.4118453237
 20
58.5993471306
 30
0.0
 10
24.3957418285
 20
58.7869944114
 30
0.0
 10
24.3957393457
 20
58.8797543967
 30
0.0
  0
SPLINE
  5
2DF
100
AcDbEntity
  8
0
100
AcDbSpline
 62
7
  6
BYLAYER
 70
0
 71
3
 72
15
 73
11
 74
0
 42
0.0000001
 43
0.0000001
 44
0.0000000001
 40
0.0
 40
0.0
 40
0.0
 40
0.0
 40
0.1308244813
 40
0.2626004584
 40
0.3939007518
 40
0.5234380224
 40
0.6499175196
 40
0.7721486504
 40
0.8891409586
 40
1.0
 40
1.0
 40
1.0
 40
1.0
 10
30.3072108237
 20
56.1117064088
 30
0.0
 10
30.1074733121
 20
56.0873784395
 30
0.0
 10
29.7045917965
 20
56.0534048653
 30
0.0
 10
29.0983145464
 20
56.0458363685
 30
0.0
 10
28.4949835489
 20
56.0814949779
 30
0.0
 10
27.903891805
 20
56.1597653219
 30
0.0
 10
27.3339992571
 20
56.2795203097
 30
0.0
 10
26.7939009397
 20
56.4389056433
 30
0.0
 10
26.2919219398
 20
56.6355508609
 30
0.0
 10
25.9785941519
 20
56.7941065153
 30
0.0
 10
25.8309308502
 20
56.8793580336
 30
0.0
  0
SPLINE
  5
2E0
100
AcDbEntity
  8
0
100
AcDbSpline
 62
7
  6
BYLAYER
 70
0
 71
3
 72
20
 73
16
 74
0
 42
0.0000001
 43
0.0000001
 44
0.0000000001
 40
0.0
 40
0.0
 40
0.0
 40
0.0
 40
0.0668302064
 40
0.1310382064
 40
0.1930538278
 40
0.2535946275
 40
0.3132915264
 40
0.3726978662
 40
0.4917320059
 40
0.5521043308
 40
0.613163955
 40
0.6750287393
 40
0.7377910914
 40
0.8663232976
 40
1.0
 40
1.0
 40
1.0
 40
1.0
 10
25.8309308502
 20
59.3901029663
 30
0.0
 10
25.8774980037
 20
59.3632180159
 30
0.0
 10
25.9729193865
 20
59.3172148479
 30
0.0
 10
26.1224805075
 20
59.2727864898
 30
0.0
 10
26.2724228673
 20
59.2549450689
 30
0.0
 10
26.4195493245
 20
59.2621141012
 30
0.0
 10
26.561471281
 20
59.2926278381
 30
0.0
 10
26.7410513137
 20
59.3611009469
 30
0.0
 10
26.9041117228
 20
59.4678923592
 30
0.0
 10
27.0434531904
 20
59.6025685947
 30
0.0
 10
27.1367896138
 20
59.7172273173
 30
0.0
 10
27.2174220799
 20
59.843373285
 30
0.0
 10
27.3077630131
 20
60.0263298559
 30
0.0
 10
27.3846871175
 20
60.2783570199
 30
0.0
 10
27.4042586357
 20
60.4899697931
 30
0.0
 10
27.4042490566
 20
60.5975245252
 30
0.0
  0
SPLINE
  5
2E1
100
AcDbEntity
  8
0
100
AcDbSpline
 62
7
  6
BYLAYER
 70
0
 71
3
 72
32
 73
28
 74
0
 42
0.0000001
 43
0.0000001
 44
0.0000000001
 40
0.0
 40
0.0
 40
0.0
 40
0.0
 40
0.0319539224
 40
0.0607558284
 40
0.0862593063
 40
0.1087471152
 40
0.1287411716
 40
0.1470408003
 40
0.1645645512
 40
0.182253512
 40
0.2008937317
 40
0.2210526497
 40
0.2430935962
 40
0.2672143846
 40
0.2935000408
 40
0.3219616305
 40
0.3850518874
 40
0.455395366
 40
0.5313595402
 40
0.6111033867
 40
0.6927576482
 40
0.7744598536
 40
0.8147504385
 40
0.8542871186
 40
0.8928227292
 40
0.9300989409
 40
1.0
 40
1.0
 40
1.0
 40
1.0
 10
25.8309308502
 20
63.0235387225
 30
0.0
 10
25.7854471835
 20
63.0497981356
 30
0.0
 10
25.6970376569
 20
63.0965197849
 30
0.0
 10
25.5658674911
 20
63.1509727493
 30
0.0
 10
25.4441162635
 20
63.185557218
 30
0.0
 10
25.3328806158
 20
63.2004051356
 30
0.0
 10
25.2324458205
 20
63.195656298
 30
0.0
 10
25.1430474325
 20
63.1718091897
 30
0.0
 10
25.0649381841
 20
63.129644116
 30
0.0
 10
24.9981163531
 20
63.0705538905
 30
0.0
 10
24.9418211629
 20
62.9960933247
 30
0.0
 10
24.8950408742
 20
62.9073258225
 30
0.0
 10
24.856811844
 20
62.8050029235
 30
0.0
 10
24.8263701694
 20
62.6897266245
 30
0.0
 10
24.8032627734
 20
62.5620651743
 30
0.0
 10
24.7809027026
 20
62.369580652
 30
0.0
 10
24.7713969525
 20
62.1032512381
 30
0.0
 10
24.7852558877
 20
61.7591145171
 30
0.0
 10
24.82523977
 20
61.3894459752
 30
0.0
 10
24.8938393343
 20
61.0050369904
 30
0.0
 10
24.9950643202
 20
60.6180293258
 30
0.0
 10
25.1114327079
 20
60.3033231363
 30
0.0
 10
25.2273986617
 20
60.0642708617
 30
0.0
 10
25.3253060012
 20
59.8959296475
 30
0.0
 10
25.4349150472
 20
59.7408121496
 30
0.0
 10
25.5922696522
 20
59.5600518755
 30
0.0
 10
25.7314326904
 20
59.4475469561
 30
0.0
 10
25.8309308502
 20
59.3901029663
 30
0.0
  0
SPLINE
  5
2E2
100
AcDbEntity
  8
0
100
AcDbSpline
 62
7
  6
BYLAYER
 70
0
 71
3
 72
15
 73
11
 74
0
 42
0.0000001
 43
0.0000001
 44
0.0000000001
 40
0.0
 40
0.0
 40
0.0
 40
0.0
 40
0.1108590153
 40
0.2278512521
 40
0.3500823321
 40
0.4765618308
 40
0.6060991405
 40
0.7373994787
 40
0.8691754918
 40
1.0
 40
1.0
 40
1.0
 40
1.0
 10
25.8309308502
 20
63.2175870039
 30
0.0
 10
25.9785941421
 20
63.1323354912
 30
0.0
 10
26.2919216176
 20
62.9737794717
 30
0.0
 10
26.7939001242
 20
62.7771333565
 30
0.0
 10
27.3339981453
 20
62.6177472977
 30
0.0
 10
27.9038907328
 20
62.4979920204
 30
0.0
 10
28.4949827589
 20
62.4197219363
 30
0.0
 10
29.0983140943
 20
62.3840640504
 30
0.0
 10
29.7045916018
 20
62.3916334497
 30
0.0
 10
30.1074732372
 20
62.4256074007
 30
0.0
 10
30.3072108237
 20
62.4499353791
 30
0.0
  0
SPLINE
  5
2E3
100
AcDbEntity
  8
0
100
AcDbSpline
 62
7
  6
BYLAYER
 70
0
 71
3
 72
20
 73
16
 74
0
 42
0.0000001
 43
0.0000001
 44
0.0000000001
 40
0.0
 40
0.0
 40
0.0
 40
0.0
 40
0.0438588832
 40
0.0888127268
 40
0.1357800902
 40
0.1854740301
 40
0.2383765263
 40
0.2947482145
 40
0.3546495343
 40
0.4179709804
 40
0.4844699016
 40
0.5537868457
 40
0.6989495674
 40
0.8492771197
 40
1.0
 40
1.0
 40
1.0
 40
1.0
 10
24.2958192731
 20
58.863197245
 30
0.0
 10
24.2968828455
 20
58.7564279636
 30
0.0
 10
24.3200600668
 20
58.5398894504
 30
0.0
 10
24.4167355632
 20
58.2219684412
 30
0.0
 10
24.5734980473
 20
57.9130998171
 30
0.0
 10
24.7879706532
 20
57.6172185221
 30
0.0
 10
25.0570522759
 20
57.3375465378
 30
0.0
 10
25.3773414174
 20
57.0771926784
 30
0.0
 10
25.7449395173
 20
56.8390937976
 30
0.0
 10
26.1553860606
 20
56.6259116398
 30
0.0
 10
26.6038099744
 20
56.4401875575
 30
0.0
 10
27.2549965832
 20
56.228860126
 30
0.0
 10
28.1279887184
 20
56.0491330842
 30
0.0
 10
29.2140896456
 20
55.9702605674
 30
0.0
 10
29.9483436079
 20
56.0097039105
 30
0.0
 10
30.3126699745
 20
56.0533823433
 30
0.0
  0
SPLINE
  5
2E4
100
AcDbEntity
  8
0
100
AcDbSpline
 62
7
  6
BYLAYER
 70
0
 71
3
 72
15
 73
11
 74
0
 42
0.0000001
 43
0.0000001
 44
0.0000000001
 40
0.0
 40
0.0
 40
0.0
 40
0.0
 40
0.1080076188
 40
0.2180521035
 40
0.3319922512
 40
0.451355518
 40
0.5772665884
 40
0.7104868533
 40
0.8514334604
 40
1.0
 40
1.0
 40
1.0
 40
1.0
 10
24.3957376318
 20
65.2179833578
 30
0.0
 10
24.3957397183
 20
65.1252233471
 30
0.0
 10
24.4118424124
 20
64.9375759641
 30
0.0
 10
24.4837698246
 20
64.6604182932
 30
0.0
 10
24.6024285752
 20
64.3892023771
 30
0.0
 10
24.7664234207
 20
64.1267362091
 30
0.0
 10
24.9738067154
 20
63.8753402722
 30
0.0
 10
25.2225347036
 20
63.6372590482
 30
0.0
 10
25.5101045888
 20
63.4147109287
 30
0.0
 10
25.720431304
 20
63.2813825033
 30
0.0
 10
25.8309308502
 20
63.2175870039
 30
0.0
  0
SPLINE
  5
2E5
100
AcDbEntity
  8
0
100
AcDbSpline
 62
7
  6
BYLAYER
 70
0
 71
3
 72
9
 73
5
 74
0
 42
0.0000001
 43
0.0000001
 44
0.0000000001
 40
0.0
 40
0.0
 40
0.0
 40
0.0
 40
0.2454764846
 40
1.0
 40
1.0
 40
1.0
 40
1.0
 10
36.3667780247
 20
55.940275139
 30
0.0
 10
36.3084426407
 20
55.9739543267
 30
0.0
 10
36.0693281365
 20
56.108592156
 30
0.0
 10
35.8245693186
 20
56.2331560111
 30
0.0
 10
35.6374472187
 20
56.3217696739
 30
0.0
  0
SPLINE
  5
2E6
100
AcDbEntity
  8
0
100
AcDbSpline
 62
7
  6
BYLAYER
 70
0
 71
3
 72
15
 73
11
 74
0
 42
0.0000001
 43
0.0000001
 44
0.0000000001
 40
0.0
 40
0.0
 40
0.0
 40
0.0
 40
0.0958874063
 40
0.1962985528
 40
0.3047808178
 40
0.4234744286
 40
0.553131585
 40
0.6933652395
 40
0.842946048
 40
1.0
 40
1.0
 40
1.0
 40
1.0
 10
13.7250513922
 20
42.982707912
 30
0.0
 10
13.7819346408
 20
43.0155363409
 30
0.0
 10
13.9084002417
 20
43.0666944549
 30
0.0
 10
14.1177179268
 20
43.091674692
 30
0.0
 10
14.3423853126
 20
43.0667070393
 30
0.0
 10
14.5768412647
 20
42.9934230324
 30
0.0
 10
14.8158669311
 20
42.8742253311
 30
0.0
 10
15.0540629311
 20
42.7122326048
 30
0.0
 10
15.2858110674
 20
42.511386526
 30
0.0
 10
15.4295939429
 20
42.3577312485
 30
0.0
 10
15.499296612
 20
42.2757971994
 30
0.0
  0
SPLINE
  5
2E7
100
AcDbEntity
  8
0
100
AcDbSpline
 62
7
  6
BYLAYER
 70
0
 71
3
 72
22
 73
18
 74
0
 42
0.0000001
 43
0.0000001
 44
0.0000000001
 40
0.0
 40
0.0
 40
0.0
 40
0.0
 40
0.0428184687
 40
0.0874059793
 40
0.1351932462
 40
0.1871102295
 40
0.2435625034
 40
0.3045255173
 40
0.3696316116
 40
0.438246209
 40
0.5095535931
 40
0.5825967692
 40
0.7296196733
 40
0.8016145919
 40
0.87122677
 40
0.9376267433
 40
1.0
 40
1.0
 40
1.0
 40
1.0
 10
30.6956847957
 20
33.1849298035
 30
0.0
 10
30.7486937132
 20
33.2155222806
 30
0.0
 10
30.8655222802
 20
33.2641115163
 30
0.0
 10
31.058398602
 20
33.2923341611
 30
0.0
 10
31.2655125957
 20
33.2771343179
 30
0.0
 10
31.4822659105
 20
33.2195191983
 30
0.0
 10
31.7044086359
 20
33.1213489771
 30
0.0
 10
31.9275283031
 20
32.9848711534
 30
0.0
 10
32.1470559408
 20
32.8129779132
 30
0.0
 10
32.3584881414
 20
32.6093882789
 30
0.0
 10
32.5573459624
 20
32.37832986
 30
0.0
 10
32.800462405
 20
32.0397098341
 30
0.0
 10
33.0003048484
 20
31.670409625
 30
0.0
 10
33.1482935904
 20
31.284869421
 30
0.0
 10
33.2291741019
 20
30.9982603991
 30
0.0
 10
33.2788269925
 20
30.7186036735
 30
0.0
 10
33.2909596471
 20
30.5344198791
 30
0.0
 10
33.2909596471
 20
30.4452656007
 30
0.0
  0
SPLINE
  5
2E8
100
AcDbEntity
  8
0
100
AcDbSpline
 62
7
  6
BYLAYER
 70
0
 71
3
 72
15
 73
11
 74
0
 42
0.0000001
 43
0.0000001
 44
0.0000000001
 40
0.0
 40
0.0
 40
0.0
 40
0.0
 40
0.149697619
 40
0.2914638802
 40
0.4252489475
 40
0.55135796
 40
0.670505361
 40
0.7838585026
 40
0.8930291193
 40
1.0
 40
1.0
 40
1.0
 40
1.0
 10
18.978714167
 20
13.1181863243
 30
0.0
 10
19.3026584315
 20
12.9178177546
 30
0.0
 10
19.9500788753
 20
12.5536875083
 30
0.0
 10
20.9408038541
 20
12.1143079944
 30
0.0
 10
21.9157763703
 20
11.8006359524
 30
0.0
 10
22.8651187837
 20
11.6164121588
 30
0.0
 10
23.7791852396
 20
11.5642963619
 30
0.0
 10
24.6484113939
 20
11.6458284014
 30
0.0
 10
25.4627389083
 20
11.8610051483
 30
0.0
 10
25.9648108443
 20
12.0937403213
 30
0.0
 10
26.2005373397
 20
12.2298218277
 30
0.0
  0
SPLINE
  5
2E9
100
AcDbEntity
  8
0
100
AcDbSpline
 62
7
  6
BYLAYER
 70
0
 71
3
 72
15
 73
11
 74
0
 42
0.0000001
 43
0.0000001
 44
0.0000000001
 40
0.0
 40
0.0
 40
0.0
 40
0.0
 40
0.1485721183
 40
0.289507459
 40
0.4227237702
 40
0.5486379108
 40
0.6679993787
 40
0.781935988
 40
0.891984832
 40
1.0
 40
1.0
 40
1.0
 40
1.0
 10
28.1644471122
 20
19.0346665784
 30
0.0
 10
28.1644471122
 20
18.7091542128
 30
0.0
 10
28.1381748843
 20
18.0744255357
 30
0.0
 10
28.013273062
 20
17.155254589
 30
0.0
 10
27.804552057
 20
16.3020850113
 30
0.0
 10
27.5136652756
 20
15.5232529888
 30
0.0
 10
27.1429641667
 20
14.826173317
 30
0.0
 10
26.6951732214
 20
14.2180328505
 30
0.0
 10
26.1745139185
 20
13.7056560139
 30
0.0
 10
25.7804936101
 20
13.4306745171
 30
0.0
 10
25.5755446994
 20
13.3123472754
 30
0.0
  0
SPLINE
  5
2EA
100
AcDbEntity
  8
0
100
AcDbSpline
 62
7
  6
BYLAYER
 70
0
 71
3
 72
15
 73
11
 74
0
 42
0.0000001
 43
0.0000001
 44
0.0000000001
 40
0.0
 40
0.0
 40
0.0
 40
0.0
 40
0.1485634656
 40
0.2895070254
 40
0.4227257335
 40
0.5486367082
 40
0.6679993296
 40
0.7819364074
 40
0.8919851004
 40
1.0
 40
1.0
 40
1.0
 40
1.0
 10
12.7848650536
 20
12.7271199864
 30
0.0
 10
12.9957109124
 20
12.605390827
 30
0.0
 10
13.416700739
 20
12.3850419156
 30
0.0
 10
14.058821321
 20
12.122175715
 30
0.0
 10
14.6895539733
 20
11.9383091567
 30
0.0
 10
15.3028472628
 20
11.835472975
 30
0.0
 10
15.8930317593
 20
11.8148922222
 30
0.0
 10
16.4544317462
 20
11.8775496627
 30
0.0
 10
16.9810712975
 20
12.0231460511
 30
0.0
 10
17.3065326659
 20
12.1755865858
 30
0.0
 10
17.4598358465
 20
12.26408244
 30
0.0
  0
SPLINE
  5
2EB
100
AcDbEntity
  8
0
100
AcDbSpline
 62
7
  6
BYLAYER
 70
0
 71
3
 72
26
 73
22
 74
0
 42
0.0000001
 43
0.0000001
 44
0.0000000001
 40
0.0
 40
0.0
 40
0.0
 40
0.0
 40
0.0623757798
 40
0.1287181357
 40
0.1983040956
 40
0.2702775893
 40
0.3436502435
 40
0.4173795299
 40
0.4904013179
 40
0.5616848547
 40
0.6302788033
 40
0.6953630644
 40
0.7563076644
 40
0.8127424057
 40
0.8392661923
 40
0.864688428
 40
0.912461069
 40
0.93510462
 40
0.9571090112
 40
0.9786686983
 40
1.0
 40
1.0
 40
1.0
 40
1.0
 10
12.7848650536
 20
27.1792127696
 30
0.0
 10
13.0848466223
 20
27.0060222483
 30
0.0
 10
13.6808211308
 20
26.6077275873
 30
0.0
 10
14.5248215941
 20
25.8975063291
 30
0.0
 10
15.3315702087
 20
25.0691438854
 30
0.0
 10
16.0838724494
 20
24.1405147653
 30
0.0
 10
16.7657675894
 20
23.1312141392
 30
0.0
 10
17.3627313678
 20
22.0628248841
 30
0.0
 10
17.8620054031
 20
20.9581129161
 30
0.0
 10
18.2529477795
 20
19.8406319309
 30
0.0
 10
18.5272387567
 20
18.7341300074
 30
0.0
 10
18.6790054558
 20
17.6618888421
 30
0.0
 10
18.7048546494
 20
16.6465243306
 30
0.0
 10
18.6188554741
 20
15.8489100128
 30
0.0
 10
18.4828892764
 20
15.2618820045
 30
0.0
 10
18.3122184694
 20
14.7346349397
 30
0.0
 10
18.0786274474
 20
14.2515555382
 30
0.0
 10
17.7810511579
 20
13.8322269229
 30
0.0
 10
17.5342192509
 20
13.5584998322
 30
0.0
 10
17.2613060793
 20
13.321789564
 30
0.0
 10
17.0624195148
 20
13.1893479637
 30
0.0
 10
16.9598322198
 20
13.1301192114
 30
0.0
  0
SPLINE
  5
2EC
100
AcDbEntity
  8
0
100
AcDbSpline
 62
7
  6
BYLAYER
 70
0
 71
3
 72
19
 73
15
 74
0
 42
0.0000001
 43
0.0000001
 44
0.0000000001
 40
0.0
 40
0.0
 40
0.0
 40
0.0
 40
0.055833641
 40
0.1142076605
 40
0.1748254221
 40
0.237404591
 40
0.36701571
 40
0.4999982915
 40
0.632981645
 40
0.7625917533
 40
0.8251760892
 40
0.8857941665
 40
0.9441479562
 40
1.0
 40
1.0
 40
1.0
 40
1.0
 10
16.5325153909
 20
16.3605183528
 30
0.0
 10
16.3537053614
 20
16.463752036
 30
0.0
 10
15.9970100858
 20
16.6909147634
 30
0.0
 10
15.4795793441
 20
17.079411619
 30
0.0
 10
14.9722749977
 20
17.5201194883
 30
0.0
 10
14.3083179318
 20
18.1790553391
 30
0.0
 10
13.5365304826
 20
19.105315991
 30
0.0
 10
12.7336075277
 20
20.3317149548
 30
0.0
 10
12.0729729637
 20
21.6402583208
 30
0.0
 10
11.6566623666
 20
22.7717822
 30
0.0
 10
11.4179964642
 20
23.6762745141
 30
0.0
 10
11.2899919948
 20
24.3359112464
 30
0.0
 10
11.2122006476
 20
24.9782556397
 30
0.0
 10
11.1938384594
 20
25.4007390434
 30
0.0
 10
11.1938369662
 20
25.607277966
 30
0.0
  0
SPLINE
  5
2ED
100
AcDbEntity
  8
0
100
AcDbSpline
 62
7
  6
BYLAYER
 70
0
 71
3
 72
10
 73
6
 74
0
 42
0.0000001
 43
0.0000001
 44
0.0000000001
 40
0.0
 40
0.0
 40
0.0
 40
0.0
 40
0.5214212176
 40
0.7671551857
 40
1.0
 40
1.0
 40
1.0
 40
1.0
 10
33.1158149543
 20
11.768339785
 30
0.0
 10
33.1712770896
 20
11.6147396646
 30
0.0
 10
33.2370368485
 20
11.3822289268
 30
0.0
 10
33.2828471971
 20
11.0721079329
 30
0.0
 10
33.2909596471
 20
10.9221334575
 30
0.0
 10
33.2909596471
 20
10.8492075896
 30
0.0
  0
SPLINE
  5
2EE
100
AcDbEntity
  8
0
100
AcDbSpline
 62
7
  6
BYLAYER
 70
0
 71
3
 72
13
 73
9
 74
0
 42
0.0000001
 43
0.0000001
 44
0.0000000001
 40
0.0
 40
0.0
 40
0.0
 40
0.0
 40
0.2893470396
 40
0.5483223607
 40
0.6677484676
 40
0.7817629939
 40
0.891904606
 40
1.0
 40
1.0
 40
1.0
 40
1.0
 10
33.2909596471
 20
10.8492075896
 30
0.0
 10
33.2909596471
 20
10.7402546709
 30
0.0
 10
33.2745224741
 20
10.5331671593
 30
0.0
 10
33.2025895505
 20
10.2895509935
 30
0.0
 10
33.1152653945
 20
10.1253386341
 30
0.0
 10
33.0382120339
 20
10.020775039
 30
0.0
 10
32.9486926082
 20
9.9326207647
 30
0.0
 10
32.8809160836
 20
9.8853240558
 30
0.0
 10
32.8456626803
 20
9.8649786312
 30
0.0
  0
SPLINE
  5
2EF
100
AcDbEntity
  8
0
100
AcDbSpline
 62
7
  6
BYLAYER
 70
0
 71
3
 72
15
 73
11
 74
0
 42
0.0000001
 43
0.0000001
 44
0.0000000001
 40
0.0
 40
0.0
 40
0.0
 40
0.0
 40
0.1080123718
 40
0.2180599367
 40
0.3319979203
 40
0.4513585807
 40
0.5772662592
 40
0.7104904768
 40
0.8514459875
 40
1.0
 40
1.0
 40
1.0
 40
1.0
 10
8.6098978874
 20
27.5927159618
 30
0.0
 10
8.7467964043
 20
27.6717542906
 30
0.0
 10
9.0374402208
 20
27.8078992297
 30
0.0
 10
9.5077532044
 20
27.9379179385
 30
0.0
 10
10.0091073923
 20
27.9938545994
 30
0.0
 10
10.5361647288
 20
27.975508401
 30
0.0
 10
11.0838637835
 20
27.883657788
 30
0.0
 10
11.6471619812
 20
27.7194647891
 30
0.0
 10
12.2206082092
 20
27.4846860064
 30
0.0
 10
12.5965816711
 20
27.287915772
 30
0.0
 10
12.7848650536
 20
27.1792127696
 30
0.0
  0
SPLINE
  5
2F0
100
AcDbEntity
  8
0
100
AcDbSpline
 62
7
  6
BYLAYER
 70
0
 71
3
 72
26
 73
22
 74
0
 42
0.0000001
 43
0.0000001
 44
0.0000000001
 40
0.0
 40
0.0
 40
0.0
 40
0.0
 40
0.0213311985
 40
0.042890915
 40
0.0648951777
 40
0.0875392047
 40
0.1109873514
 40
0.1353733774
 40
0.1872713571
 40
0.2437054733
 40
0.3046493336
 40
0.3697327388
 40
0.4383254686
 40
0.5096072396
 40
0.5826267398
 40
0.6563537397
 40
0.7297251402
 40
0.8016969593
 40
0.8712833884
 40
0.9376225566
 40
1.0
 40
1.0
 40
1.0
 40
1.0
 10
8.1098942608
 20
28.4587527332
 30
0.0
 10
7.9950155876
 20
28.3924378252
 30
0.0
 10
7.7723296356
 20
28.2441007008
 30
0.0
 10
7.4667163602
 20
27.9790487707
 30
0.0
 10
7.190314966
 20
27.6725690483
 30
0.0
 10
6.9447935126
 20
27.3264673706
 30
0.0
 10
6.7312308125
 20
26.9428198005
 30
0.0
 10
6.4856856737
 20
26.3723479949
 30
0.0
 10
6.2690892487
 20
25.5712672885
 30
0.0
 10
6.1559088667
 20
24.5213086811
 30
0.0
 10
6.1848206786
 20
23.3841404484
 30
0.0
 10
6.3547784078
 20
22.1835480098
 30
0.0
 10
6.6619272587
 20
20.9445227826
 30
0.0
 10
7.0996999232
 20
19.6932356818
 30
0.0
 10
7.6587641715
 20
18.4562434834
 30
0.0
 10
8.327207106
 20
17.2599161396
 30
0.0
 10
9.0907558936
 20
16.1297509273
 30
0.0
 10
9.9331449021
 20
15.0898964579
 30
0.0
 10
10.8365141431
 20
14.1623464058
 30
0.0
 10
11.781588334
 20
13.3670477448
 30
0.0
 10
12.4489439564
 20
12.9210597348
 30
0.0
 10
12.7848650536
 20
12.7271199864
 30
0.0
  0
SPLINE
  5
2F1
100
AcDbEntity
  8
0
100
AcDbSpline
 62
7
  6
BYLAYER
 70
0
 71
3
 72
13
 73
9
 74
0
 42
0.0000001
 43
0.0000001
 44
0.0000000001
 40
0.0
 40
0.0
 40
0.0
 40
0.0
 40
0.2893470396
 40
0.5483223607
 40
0.6677484676
 40
0.7817629939
 40
0.891904606
 40
1.0
 40
1.0
 40
1.0
 40
1.0
 10
33.2909596471
 20
30.4452656007
 30
0.0
 10
33.2909596471
 20
30.336312682
 30
0.0
 10
33.2745224741
 20
30.1292251704
 30
0.0
 10
33.2025895505
 20
29.8856090046
 30
0.0
 10
33.1152653945
 20
29.7213966452
 30
0.0
 10
33.0382120339
 20
29.6168330501
 30
0.0
 10
32.9486926082
 20
29.5286787758
 30
0.0
 10
32.8809160836
 20
29.4813820669
 30
0.0
 10
32.8456626803
 20
29.4610366423
 30
0.0
  0
SPLINE
  5
2F2
100
AcDbEntity
  8
0
100
AcDbSpline
 62
7
  6
BYLAYER
 70
0
 71
3
 72
28
 73
24
 74
0
 42
0.0000001
 43
0.0000001
 44
0.0000000001
 40
0.0
 40
0.0
 40
0.0
 40
0.0
 40
0.0213299035
 40
0.0428880166
 40
0.0648911473
 40
0.0875333104
 40
0.1109803334
 40
0.135364391
 40
0.1872591944
 40
0.2149196469
 40
0.2437270608
 40
0.3046670768
 40
0.3697462065
 40
0.438334283
 40
0.5096112011
 40
0.5826257777
 40
0.6563479725
 40
0.7297153027
 40
0.8016818403
 40
0.8712647017
 40
0.9375973807
 40
0.9693377128
 40
1.0
 40
1.0
 40
1.0
 40
1.0
 10
13.0756063963
 20
34.9630047444
 30
0.0
 10
13.2291811086
 20
35.0516710958
 30
0.0
 10
13.5497890465
 20
35.2103003078
 30
0.0
 10
14.0609236996
 20
35.3870380074
 30
0.0
 10
14.6005370779
 20
35.5020877544
 30
0.0
 10
15.1653537905
 20
35.5550954017
 30
0.0
 10
15.7522952042
 20
35.5458151859
 30
0.0
 10
16.5768663493
 20
35.4488668237
 30
0.0
 10
17.4169978577
 20
35.2257728084
 30
0.0
 10
18.2558120137
 20
34.8958132438
 30
0.0
 10
19.1366525107
 20
34.473311389
 30
0.0
 10
20.237770733
 20
33.7996187622
 30
0.0
 10
21.5140892949
 20
32.8003942298
 30
0.0
 10
22.7433206105
 20
31.6165447262
 30
0.0
 10
23.8994010638
 20
30.2732974332
 30
0.0
 10
24.9578652395
 20
28.799168206
 30
0.0
 10
25.8961407822
 20
27.2255768433
 30
0.0
 10
26.6942266535
 20
25.5861152213
 30
0.0
 10
27.335089375
 20
23.9156750212
 30
0.0
 10
27.8050695181
 20
22.2499493741
 30
0.0
 10
28.0496191659
 20
20.8747916523
 30
0.0
 10
28.147586641
 20
19.8085163664
 30
0.0
 10
28.1644471122
 20
19.2895870268
 30
0.0
 10
28.1644471122
 20
19.0346665784
 30
0.0
  0
SPLINE
  5
2F3
100
AcDbEntity
  8
0
100
AcDbSpline
 62
7
  6
BYLAYER
 70
0
 71
3
 72
15
 73
11
 74
0
 42
0.0000001
 43
0.0000001
 44
0.0000000001
 40
0.0
 40
0.0
 40
0.0
 40
0.0
 40
0.1080125539
 40
0.2180607767
 40
0.3319980125
 40
0.4513585441
 40
0.577275767
 40
0.7104913654
 40
0.8514207096
 40
1.0
 40
1.0
 40
1.0
 40
1.0
 10
12.450613756
 20
36.0455301921
 30
0.0
 10
12.225169071
 20
35.9153842267
 30
0.0
 10
11.7917528798
 20
35.6129081603
 30
0.0
 10
11.2190199747
 20
35.0493088352
 30
0.0
 10
10.7264746903
 20
34.380339315
 30
0.0
 10
10.3186674113
 20
33.6135640698
 30
0.0
 10
9.9987100446
 20
32.7568359756
 30
0.0
 10
9.7691169296
 20
31.8183601482
 30
0.0
 10
9.6317047231
 20
30.8072727312
 30
0.0
 10
9.6028168271
 20
30.109067361
 30
0.0
 10
9.6028168271
 20
29.7509863845
 30
0.0
  0
SPLINE
  5
2F4
100
AcDbEntity
  8
0
100
AcDbSpline
 62
7
  6
BYLAYER
 70
0
 71
3
 72
15
 73
11
 74
0
 42
0.0000001
 43
0.0000001
 44
0.0000000001
 40
0.0
 40
0.0
 40
0.0
 40
0.0
 40
0.1080123313
 40
0.2180587787
 40
0.3319941707
 40
0.4513557784
 40
0.5772665129
 40
0.7104867315
 40
0.8514339157
 40
1.0
 40
1.0
 40
1.0
 40
1.0
 10
39.2957217665
 20
51.857833519
 30
0.0
 10
39.2957095729
 20
52.0471477712
 30
0.0
 10
39.2628617448
 20
52.4301120832
 30
0.0
 10
39.1160913414
 20
52.9957511176
 30
0.0
 10
38.8739086726
 20
53.5492347596
 30
0.0
 10
38.5392351648
 20
54.0848698975
 30
0.0
 10
38.11601014
 20
54.5979232042
 30
0.0
 10
37.6084016166
 20
55.0838026655
 30
0.0
 10
37.0215236462
 20
55.5379807811
 30
0.0
 10
36.5922864313
 20
55.8100807451
 30
0.0
 10
36.3667780247
 20
55.940275139
 30
0.0
  0
SPLINE
  5
2F5
100
AcDbEntity
  8
0
100
AcDbSpline
 62
7
  6
BYLAYER
 70
0
 71
3
 72
9
 73
5
 74
0
 42
0.0000001
 43
0.0000001
 44
0.0000000001
 40
0.0
 40
0.0
 40
0.0
 40
0.0
 40
0.488824008
 40
1.0
 40
1.0
 40
1.0
 40
1.0
 10
32.8456626803
 20
9.8649786312
 30
0.0
 10
32.7897200418
 20
9.8326930466
 30
0.0
 10
32.6656756284
 20
9.7821471716
 30
0.0
 10
32.5331222771
 20
9.7654847352
 30
0.0
 10
32.4655870655
 20
9.7643946468
 30
0.0
  0
SPLINE
  5
2F6
100
AcDbEntity
  8
0
100
AcDbSpline
 62
7
  6
BYLAYER
 70
0
 71
3
 72
10
 73
6
 74
0
 42
0.0000001
 43
0.0000001
 44
0.0000000001
 40
0.0
 40
0.0
 40
0.0
 40
0.0
 40
0.2703384869
 40
0.5272677114
 40
1.0
 40
1.0
 40
1.0
 40
1.0
 10
16.6739361583
 20
16.605467667
 30
0.0
 10
16.8350638538
 20
16.5124426531
 30
0.0
 10
17.1569661271
 20
16.3435307142
 30
0.0
 10
17.7930834094
 20
16.0799896668
 30
0.0
 10
18.2856825937
 20
15.9566444109
 30
0.0
 10
18.6089325541
 20
15.9197796983
 30
0.0
  0
SPLINE
  5
2F7
100
AcDbEntity
  8
0
100
AcDbSpline
 62
7
  6
BYLAYER
 70
0
 71
3
 72
23
 73
19
 74
0
 42
0.0000001
 43
0.0000001
 44
0.0000000001
 40
0.0
 40
0.0
 40
0.0
 40
0.0
 40
0.0587969765
 40
0.120849441
 40
0.1856655511
 40
0.2527326448
 40
0.3214261474
 40
0.3910710974
 40
0.4609683621
 40
0.5304055212
 40
0.5986862806
 40
0.6651501932
 40
0.7291980969
 40
0.7903172611
 40
0.8481073679
 40
0.9023198486
 40
0.9528942403
 40
1.0
 40
1.0
 40
1.0
 40
1.0
 10
16.6739361583
 20
16.9728937547
 30
0.0
 10
16.4669091683
 20
17.0924181391
 30
0.0
 10
16.0546900636
 20
17.3616233917
 30
0.0
 10
15.463768337
 20
17.8328596415
 30
0.0
 10
14.8912196922
 20
18.3763262441
 30
0.0
 10
14.3457562575
 20
18.9836204275
 30
0.0
 10
13.8354604273
 20
19.6456576364
 30
0.0
 10
13.3680703002
 20
20.3524516491
 30
0.0
 10
12.9506734294
 20
21.0933374875
 30
0.0
 10
12.5895373983
 20
21.8570993078
 30
0.0
 10
12.2901176515
 20
22.6321938393
 30
0.0
 10
12.0569908109
 20
23.406949715
 30
0.0
 10
11.8936276479
 20
24.1696983201
 30
0.0
 10
11.8025043222
 20
24.9090291912
 30
0.0
 10
11.7851238549
 20
25.6139327506
 30
0.0
 10
11.8419130057
 20
26.2740546391
 30
0.0
 10
11.9722350398
 20
26.8794905548
 30
0.0
 10
12.1121810778
 20
27.2532556958
 30
0.0
 10
12.1946081316
 20
27.4261298774
 30
0.0
  0
SPLINE
  5
2F8
100
AcDbEntity
  8
0
100
AcDbSpline
 62
7
  6
BYLAYER
 70
0
 71
3
 72
14
 73
10
 74
0
 42
0.0000001
 43
0.0000001
 44
0.0000000001
 40
0.0
 40
0.0
 40
0.0
 40
0.0
 40
0.1454356854
 40
0.284647197
 40
0.5439840693
 40
0.6649392146
 40
0.7806808476
 40
0.8920435161
 40
1.0
 40
1.0
 40
1.0
 40
1.0
 10
29.7554381058
 20
18.9326097891
 30
0.0
 10
29.7554381058
 20
18.6316794063
 30
0.0
 10
29.7349159185
 20
18.0423151327
 30
0.0
 10
29.6091171612
 20
16.923214828
 30
0.0
 10
29.3564781351
 20
15.87062171
 30
0.0
 10
28.9638259869
 20
14.9204466199
 30
0.0
 10
28.615089401
 20
14.2883545398
 30
0.0
 10
28.2076341489
 20
13.7252730981
 30
0.0
 10
27.8946615511
 20
13.3943973045
 30
0.0
 10
27.7301947876
 20
13.2432378082
 30
0.0
  0
SPLINE
  5
2F9
100
AcDbEntity
  8
0
100
AcDbSpline
 62
7
  6
BYLAYER
 70
0
 71
3
 72
12
 73
8
 74
0
 42
0.0000001
 43
0.0000001
 44
0.0000000001
 40
0.0
 40
0.0
 40
0.0
 40
0.0
 40
0.2665054018
 40
0.5245003643
 40
0.7700286442
 40
0.8871529114
 40
1.0
 40
1.0
 40
1.0
 40
1.0
 10
27.7953878006
 20
26.8241577191
 30
0.0
 10
28.1072512463
 20
26.1665789443
 30
0.0
 10
28.6612290644
 20
24.8428703519
 30
0.0
 10
29.2796587178
 20
22.8295835156
 30
0.0
 10
29.6031645094
 20
21.1616700707
 30
0.0
 10
29.7330547435
 20
19.868971946
 30
0.0
 10
29.7554381058
 20
19.240777036
 30
0.0
 10
29.7554381058
 20
18.9326097891
 30
0.0
  0
SPLINE
  5
2FA
100
AcDbEntity
  8
0
100
AcDbSpline
 62
7
  6
BYLAYER
 70
0
 71
3
 72
10
 73
6
 74
0
 42
0.0000001
 43
0.0000001
 44
0.0000000001
 40
0.0
 40
0.0
 40
0.0
 40
0.0
 40
0.5130443089
 40
0.7583324675
 40
1.0
 40
1.0
 40
1.0
 40
1.0
 10
13.4227253817
 20
42.6591493721
 30
0.0
 10
13.4584930634
 20
42.7268832201
 30
0.0
 10
13.5238523271
 20
42.8215275018
 30
0.0
 10
13.6334939536
 20
42.9234568465
 30
0.0
 10
13.6938011808
 20
42.9646728072
 30
0.0
 10
13.7250513922
 20
42.982707912
 30
0.0
  0
SPLINE
  5
2FB
100
AcDbEntity
  8
0
100
AcDbSpline
 62
7
  6
BYLAYER
 70
0
 71
3
 72
9
 73
5
 74
0
 42
0.0000001
 43
0.0000001
 44
0.0000000001
 40
0.0
 40
0.0
 40
0.0
 40
0.0
 40
0.2435454323
 40
1.0
 40
1.0
 40
1.0
 40
1.0
 10
22.2247012804
 20
47.7753920615
 30
0.0
 10
22.3111192112
 20
47.7254997747
 30
0.0
 10
22.6692090489
 20
47.5263095655
 30
0.0
 10
23.0394763101
 20
47.349226525
 30
0.0
 10
23.3242183817
 20
47.2268215004
 30
0.0
  0
SPLINE
  5
2FC
100
AcDbEntity
  8
0
100
AcDbSpline
 62
7
  6
BYLAYER
 70
0
 71
3
 72
15
 73
11
 74
0
 42
0.0000001
 43
0.0000001
 44
0.0000000001
 40
0.0
 40
0.0
 40
0.0
 40
0.0
 40
0.1168790992
 40
0.2383693293
 40
0.363434175
 40
0.4909097031
 40
0.6195693523
 40
0.7481413324
 40
0.8753595322
 40
1.0
 40
1.0
 40
1.0
 40
1.0
 10
23.6418278697
 20
47.0957810317
 30
0.0
 10
23.9844142878
 20
46.9601998163
 30
0.0
 10
24.6959940191
 20
46.7154168745
 30
0.0
 10
25.8071784862
 20
46.4319889607
 30
0.0
 10
26.969612148
 20
46.2281739482
 30
0.0
 10
28.1661810868
 20
46.107062446
 30
0.0
 10
29.3793395555
 20
46.0704090774
 30
0.0
 10
30.5912967333
 20
46.1187574088
 30
0.0
 10
31.784156567
 20
46.2513590743
 30
0.0
 10
32.5655953626
 20
46.3966140179
 30
0.0
 10
32.948789313
 20
46.4834322019
 30
0.0
  0
SPLINE
  5
2FD
100
AcDbEntity
  8
0
100
AcDbSpline
 62
7
  6
BYLAYER
 70
0
 71
3
 72
9
 73
5
 74
0
 42
0.0000001
 43
0.0000001
 44
0.0000000001
 40
0.0
 40
0.0
 40
0.0
 40
0.0
 40
0.5113793425
 40
1.0
 40
1.0
 40
1.0
 40
1.0
 10
32.948789313
 20
46.4834322019
 30
0.0
 10
33.3600654888
 20
46.5766128241
 30
0.0
 10
34.1571271579
 20
46.7925820008
 30
0.0
 10
34.9312447711
 20
47.0810803905
 30
0.0
 10
35.3009252738
 20
47.2413636739
 30
0.0
  0
SPLINE
  5
2FE
100
AcDbEntity
  8
0
100
AcDbSpline
 62
7
  6
BYLAYER
 70
0
 71
3
 72
17
 73
13
 74
0
 42
0.0000001
 43
0.0000001
 44
0.0000000001
 40
0.0
 40
0.0
 40
0.0
 40
0.0
 40
0.1524877268
 40
0.2966211151
 40
0.4320199771
 40
0.5587456884
 40
0.677385902
 40
0.7891280223
 40
0.8430154058
 40
0.8959112042
 40
0.9481283538
 40
1.0
 40
1.0
 40
1.0
 40
1.0
 10
35.3009252738
 20
47.2413636739
 30
0.0
 10
35.6017473346
 20
47.3717918335
 30
0.0
 10
36.1764886916
 20
47.6507281393
 30
0.0
 10
36.9702155361
 20
48.1363824256
 30
0.0
 10
37.6625537149
 20
48.6723101509
 30
0.0
 10
38.2442256194
 20
49.2519549316
 30
0.0
 10
38.7071586003
 20
49.8681637525
 30
0.0
 10
38.9915532912
 20
50.4130356063
 30
0.0
 10
39.1497519409
 20
50.8561148295
 30
0.0
 10
39.233838743
 20
51.1880650393
 30
0.0
 10
39.2844675587
 20
51.5223231013
 30
0.0
 10
39.2957289504
 20
51.7462987392
 30
0.0
 10
39.2957217665
 20
51.857833519
 30
0.0
  0
SPLINE
  5
2FF
100
AcDbEntity
  8
0
100
AcDbSpline
 62
7
  6
BYLAYER
 70
0
 71
3
 72
9
 73
5
 74
0
 42
0.0000001
 43
0.0000001
 44
0.0000000001
 40
0.0
 40
0.0
 40
0.0
 40
0.0
 40
0.488824008
 40
1.0
 40
1.0
 40
1.0
 40
1.0
 10
32.8456626803
 20
29.4610366423
 30
0.0
 10
32.7897200418
 20
29.4287510577
 30
0.0
 10
32.6656756284
 20
29.3782051827
 30
0.0
 10
32.5331222771
 20
29.3615427463
 30
0.0
 10
32.4655870655
 20
29.3604526579
 30
0.0
  0
SPLINE
  5
300
100
AcDbEntity
  8
0
100
AcDbSpline
 62
7
  6
BYLAYER
 70
0
 71
3
 72
10
 73
6
 74
0
 42
0.0000001
 43
0.0000001
 44
0.0000000001
 40
0.0
 40
0.0
 40
0.0
 40
0.0
 40
0.470708002
 40
0.7281241935
 40
1.0
 40
1.0
 40
1.0
 40
1.0
 10
18.6113375098
 20
16.3175831733
 30
0.0
 10
18.2892317012
 20
16.3425931945
 30
0.0
 10
17.7953049379
 20
16.4546679746
 30
0.0
 10
17.1583688063
 20
16.711339784
 30
0.0
 10
16.8355415451
 20
16.8795929519
 30
0.0
 10
16.6739361583
 20
16.9728937547
 30
0.0
  0
SPLINE
  5
301
100
AcDbEntity
  8
0
100
AcDbSpline
 62
7
  6
BYLAYER
 70
0
 71
3
 72
15
 73
11
 74
0
 42
0.0000001
 43
0.0000001
 44
0.0000000001
 40
0.0
 40
0.0
 40
0.0
 40
0.0
 40
0.1485651051
 40
0.2895098187
 40
0.4227292061
 40
0.5486402875
 40
0.6680024427
 40
0.7819386286
 40
0.8919862284
 40
1.0
 40
1.0
 40
1.0
 40
1.0
 10
22.2247012804
 20
39.2837669234
 30
0.0
 10
21.9991943493
 20
39.4139604654
 30
0.0
 10
21.5699610046
 20
39.6860553745
 30
0.0
 10
20.9830900314
 20
40.1402302395
 30
0.0
 10
20.4754827036
 20
40.6261033954
 30
0.0
 10
20.0522562891
 20
41.1391557247
 30
0.0
 10
19.7175776531
 20
41.6747911884
 30
0.0
 10
19.4753919176
 20
42.2282784084
 30
0.0
 10
19.3286185908
 20
42.7939228712
 30
0.0
 10
19.2957700262
 20
43.1768917644
 30
0.0
 10
19.2957576746
 20
43.3662085502
 30
0.0
  0
SPLINE
  5
302
100
AcDbEntity
  8
0
100
AcDbSpline
 62
7
  6
BYLAYER
 70
0
 71
3
 72
11
 73
7
 74
0
 42
0.0000001
 43
0.0000001
 44
0.0000000001
 40
0.0
 40
0.0
 40
0.0
 40
0.0
 40
0.2471116369
 40
0.5005226597
 40
0.753662231
 40
1.0
 40
1.0
 40
1.0
 40
1.0
 10
15.3557672764
 20
24.8651658829
 30
0.0
 10
15.4829914367
 20
24.440991497
 30
0.0
 10
15.7961336946
 20
23.5976859262
 30
0.0
 10
16.4109497981
 20
22.3919818929
 30
0.0
 10
17.157254147
 20
21.2645857255
 30
0.0
 10
17.7364638444
 20
20.5787144511
 30
0.0
 10
18.0424860349
 20
20.2605416324
 30
0.0
  0
SPLINE
  5
303
100
AcDbEntity
  8
0
100
AcDbSpline
 62
7
  6
BYLAYER
 70
0
 71
3
 72
10
 73
6
 74
0
 42
0.0000001
 43
0.0000001
 44
0.0000000001
 40
0.0
 40
0.0
 40
0.0
 40
0.0
 40
0.4720401722
 40
0.7291301259
 40
1.0
 40
1.0
 40
1.0
 40
1.0
 10
18.5652966657
 20
15.6512998142
 30
0.0
 10
18.2262304925
 20
15.6858077241
 30
0.0
 10
17.7084962469
 20
15.8113188551
 30
0.0
 10
17.0402326575
 20
16.0855969577
 30
0.0
 10
16.7018855525
 20
16.2627346565
 30
0.0
 10
16.5325153909
 20
16.3605183528
 30
0.0
  0
SPLINE
  5
304
100
AcDbEntity
  8
0
100
AcDbSpline
 62
7
  6
BYLAYER
 70
0
 71
3
 72
24
 73
20
 74
0
 42
0.0000001
 43
0.0000001
 44
0.0000000001
 40
0.0
 40
0.0
 40
0.0
 40
0.0
 40
0.078478973
 40
0.156107324
 40
0.2324528222
 40
0.3071070404
 40
0.3796939169
 40
0.4498785078
 40
0.5173798572
 40
0.581978227
 40
0.6435308666
 40
0.701987079
 40
0.7574008128
 40
0.7840298346
 40
0.8099764045
 40
0.8599820607
 40
0.9079026261
 40
0.9543384032
 40
1.0
 40
1.0
 40
1.0
 40
1.0
 10
25.6080599515
 20
29.0789215523
 30
0.0
 10
25.3788785365
 20
29.4353034312
 30
0.0
 10
24.9038402697
 20
30.1321012884
 30
0.0
 10
24.1409535582
 20
31.1294114483
 30
0.0
 10
23.3366221769
 20
32.0666514345
 30
0.0
 10
22.4978350235
 20
32.9357861783
 30
0.0
 10
21.6317481315
 20
33.7293611367
 30
0.0
 10
20.7457303051
 20
34.4405470711
 30
0.0
 10
19.8473616556
 20
35.0633147258
 30
0.0
 10
18.944214104
 20
35.5922685842
 30
0.0
 10
18.0438763161
 20
36.0228489456
 30
0.0
 10
17.1540031052
 20
36.3513166883
 30
0.0
 10
16.4175236422
 20
36.5398151536
 30
0.0
 10
15.8419399715
 20
36.634769991
 30
0.0
 10
15.290754184
 20
36.6916790994
 30
0.0
 10
14.6198623591
 20
36.6974556319
 30
0.0
 10
13.8444482114
 20
36.5947283875
 30
0.0
 10
13.1157417939
 20
36.382833882
 30
0.0
 10
12.6641205572
 20
36.1687845894
 30
0.0
 10
12.450613756
 20
36.0455301921
 30
0.0
  0
SPLINE
  5
305
100
AcDbEntity
  8
0
100
AcDbSpline
 62
7
  6
BYLAYER
 70
0
 71
3
 72
15
 73
11
 74
0
 42
0.0000001
 43
0.0000001
 44
0.0000000001
 40
0.0
 40
0.0
 40
0.0
 40
0.0
 40
0.1080123718
 40
0.2180599367
 40
0.3319979203
 40
0.4513585807
 40
0.5772662592
 40
0.7104904768
 40
0.8514459875
 40
1.0
 40
1.0
 40
1.0
 40
1.0
 10
16.9598322198
 20
13.1301192114
 30
0.0
 10
16.822933703
 20
13.0510808826
 30
0.0
 10
16.5322898864
 20
12.9149359435
 30
0.0
 10
16.0619769028
 20
12.7849172347
 30
0.0
 10
15.5606227149
 20
12.7289805737
 30
0.0
 10
15.0335653784
 20
12.7473267722
 30
0.0
 10
14.4858663237
 20
12.8391773852
 30
0.0
 10
13.922568126
 20
13.003370384
 30
0.0
 10
13.349121898
 20
13.2381491668
 30
0.0
 10
12.9731484361
 20
13.4349194012
 30
0.0
 10
12.7848650536
 20
13.5436224035
 30
0.0
  0
SPLINE
  5
306
100
AcDbEntity
  8
0
100
AcDbSpline
 62
7
  6
BYLAYER
 70
0
 71
3
 72
15
 73
11
 74
0
 42
0.0000001
 43
0.0000001
 44
0.0000000001
 40
0.0
 40
0.0
 40
0.0
 40
0.0
 40
0.1080134886
 40
0.2180610782
 40
0.3319974163
 40
0.4513595351
 40
0.5772701869
 40
0.7104897268
 40
0.8514356726
 40
1.0
 40
1.0
 40
1.0
 40
1.0
 10
15.3577086258
 20
32.6432552595
 30
0.0
 10
15.5110097164
 20
32.7317500884
 30
0.0
 10
15.836467039
 20
32.8841893759
 30
0.0
 10
16.3631011287
 20
33.0297853708
 30
0.0
 10
16.924497004
 20
33.0924436737
 30
0.0
 10
17.5146790414
 20
33.0718668103
 30
0.0
 10
18.1279725628
 20
32.9690321019
 30
0.0
 10
18.7587107427
 20
32.78516743
 30
0.0
 10
19.4008369081
 20
32.5222971951
 30
0.0
 10
19.8218323152
 20
32.3019476226
 30
0.0
 10
20.0326793851
 20
32.1802177639
 30
0.0
  0
SPLINE
  5
307
100
AcDbEntity
  8
0
100
AcDbSpline
 62
7
  6
BYLAYER
 70
0
 71
3
 72
10
 73
6
 74
0
 42
0.0000001
 43
0.0000001
 44
0.0000000001
 40
0.0
 40
0.0
 40
0.0
 40
0.0
 40
0.5130443089
 40
0.7583324675
 40
1.0
 40
1.0
 40
1.0
 40
1.0
 10
30.3933587852
 20
32.8613712636
 30
0.0
 10
30.4291264669
 20
32.9291051116
 30
0.0
 10
30.4944857307
 20
33.0237493933
 30
0.0
 10
30.6041273571
 20
33.125678738
 30
0.0
 10
30.6644345843
 20
33.1668946987
 30
0.0
 10
30.6956847957
 20
33.1849298035
 30
0.0
  0
SPLINE
  5
308
100
AcDbEntity
  8
0
100
AcDbSpline
 62
7
  6
BYLAYER
 70
0
 71
3
 72
21
 73
17
 74
0
 42
0.0000001
 43
0.0000001
 44
0.0000000001
 40
0.0
 40
0.0
 40
0.0
 40
0.0
 40
0.0461292899
 40
0.0937054848
 40
0.1431294061
 40
0.1947501686
 40
0.248819813
 40
0.3054884498
 40
0.3648238197
 40
0.4268216858
 40
0.4914088673
 40
0.5584589181
 40
0.6991439222
 40
0.7723624891
 40
0.8471221372
 40
1.0
 40
1.0
 40
1.0
 40
1.0
 10
14.0929576938
 20
36.8634942081
 30
0.0
 10
14.3042637459
 20
36.929776735
 30
0.0
 10
14.7433563856
 20
37.0347071657
 30
0.0
 10
15.4284463903
 20
37.1065753299
 30
0.0
 10
16.143488061
 20
37.0944653965
 30
0.0
 10
16.8834129597
 20
36.9988837488
 30
0.0
 10
17.6434991713
 20
36.820753639
 30
0.0
 10
18.4188180162
 20
36.56139169
 30
0.0
 10
19.2043808541
 20
36.2226684579
 30
0.0
 10
19.9950649412
 20
35.8068210626
 30
0.0
 10
20.7858414292
 20
35.3167042962
 30
0.0
 10
21.8502141607
 20
34.5562831517
 30
0.0
 10
22.8733368835
 20
33.671927878
 30
0.0
 10
23.8464929106
 20
32.6846769369
 30
0.0
 10
24.8061378168
 20
31.6045309449
 30
0.0
 10
25.4699380609
 20
30.7335333236
 30
0.0
 10
25.8869863287
 20
30.1296003454
 30
0.0
  0
SPLINE
  5
309
100
AcDbEntity
  8
0
100
AcDbSpline
 62
7
  6
BYLAYER
 70
0
 71
3
 72
26
 73
22
 74
0
 42
0.0000001
 43
0.0000001
 44
0.0000000001
 40
0.0
 40
0.0
 40
0.0
 40
0.0
 40
0.0623767309
 40
0.1287150539
 40
0.1983014471
 40
0.2702735134
 40
0.3436456214
 40
0.4173736378
 40
0.4903942739
 40
0.561677051
 40
0.6302704397
 40
0.6953540516
 40
0.756297739
 40
0.8127313958
 40
0.8646287129
 40
0.8890143679
 40
0.9124621325
 40
0.935105777
 40
0.9571096953
 40
0.9786690861
 40
1.0
 40
1.0
 40
1.0
 40
1.0
 10
20.0326793851
 20
32.1802177639
 30
0.0
 10
20.368596649
 20
31.9862802286
 30
0.0
 10
21.0359452806
 20
31.5402992582
 30
0.0
 10
21.9810122917
 20
30.7450074783
 30
0.0
 10
22.8843817093
 20
29.8174631315
 30
0.0
 10
23.7267754671
 20
28.7776050356
 30
0.0
 10
24.4903322893
 20
27.6474304211
 30
0.0
 10
25.158783968
 20
26.4510874948
 30
0.0
 10
25.7178551819
 20
25.2140768007
 30
0.0
 10
26.1556307125
 20
23.9627721395
 30
0.0
 10
26.462777228
 20
22.7237342185
 30
0.0
 10
26.6327283569
 20
21.5231364226
 30
0.0
 10
26.6616324634
 20
20.3859705918
 30
0.0
 10
26.5484451976
 20
19.3360208652
 30
0.0
 10
26.3318456727
 20
18.5349506045
 30
0.0
 10
26.0862995306
 20
17.9644888832
 30
0.0
 10
25.8727384385
 20
17.5808484494
 30
0.0
 10
25.6272175223
 20
17.2347549238
 30
0.0
 10
25.3508204215
 20
16.928280239
 30
0.0
 10
25.0452102393
 20
16.6632337247
 30
0.0
 10
24.8225272274
 20
16.514899194
 30
0.0
 10
24.7076501443
 20
16.4485850681
 30
0.0
  0
SPLINE
  5
30A
100
AcDbEntity
  8
0
100
AcDbSpline
 62
7
  6
BYLAYER
 70
0
 71
3
 72
26
 73
22
 74
0
 42
0.0000001
 43
0.0000001
 44
0.0000000001
 40
0.0
 40
0.0
 40
0.0
 40
0.0
 40
0.0213311985
 40
0.042890915
 40
0.0648951777
 40
0.0875392047
 40
0.1109873514
 40
0.1353733774
 40
0.1872713571
 40
0.2437054733
 40
0.3046493336
 40
0.3697327388
 40
0.4383254686
 40
0.5096072396
 40
0.5826267398
 40
0.6563537397
 40
0.7297251402
 40
0.8016969593
 40
0.8712833884
 40
0.9376225566
 40
1.0
 40
1.0
 40
1.0
 40
1.0
 10
17.4598358465
 20
12.26408244
 30
0.0
 10
17.5747145196
 20
12.330397348
 30
0.0
 10
17.7974004716
 20
12.4787344723
 30
0.0
 10
18.103013747
 20
12.7437864025
 30
0.0
 10
18.3794151412
 20
13.0502661249
 30
0.0
 10
18.6249365947
 20
13.3963678025
 30
0.0
 10
18.8384992948
 20
13.7800153727
 30
0.0
 10
19.0840444336
 20
14.3504871783
 30
0.0
 10
19.3006408586
 20
15.1515678847
 30
0.0
 10
19.4138212405
 20
16.2015264921
 30
0.0
 10
19.3849094286
 20
17.3386947248
 30
0.0
 10
19.2149516995
 20
18.5392871634
 30
0.0
 10
18.9078028485
 20
19.7783123905
 30
0.0
 10
18.4700301841
 20
21.0295994914
 30
0.0
 10
17.9109659358
 20
22.2665916898
 30
0.0
 10
17.2425230012
 20
23.4629190335
 30
0.0
 10
16.4789742137
 20
24.5930842459
 30
0.0
 10
15.6365852052
 20
25.6329387153
 30
0.0
 10
14.7332159641
 20
26.5604887674
 30
0.0
 10
13.7881417733
 20
27.3557874283
 30
0.0
 10
13.1207861508
 20
27.8017754384
 30
0.0
 10
12.7848650536
 20
27.9957151867
 30
0.0
  0
SPLINE
  5
30B
100
AcDbEntity
  8
0
100
AcDbSpline
 62
7
  6
BYLAYER
 70
0
 71
3
 72
15
 73
11
 74
0
 42
0.0000001
 43
0.0000001
 44
0.0000000001
 40
0.0
 40
0.0
 40
0.0
 40
0.0
 40
0.1080125539
 40
0.2180607767
 40
0.3319980125
 40
0.4513585441
 40
0.577275767
 40
0.7104913654
 40
0.8514207096
 40
1.0
 40
1.0
 40
1.0
 40
1.0
 10
26.2005373397
 20
12.2298218277
 30
0.0
 10
26.4259820247
 20
12.3599677931
 30
0.0
 10
26.8593982159
 20
12.6624438595
 30
0.0
 10
27.432131121
 20
13.2260431846
 30
0.0
 10
27.9246764054
 20
13.8950127048
 30
0.0
 10
28.3324836844
 20
14.66178795
 30
0.0
 10
28.6524410511
 20
15.5185160442
 30
0.0
 10
28.8820341661
 20
16.4569918716
 30
0.0
 10
29.0194463726
 20
17.4680792886
 30
0.0
 10
29.0483342686
 20
18.1662846587
 30
0.0
 10
29.0483342686
 20
18.5243656352
 30
0.0
  0
SPLINE
  5
30C
100
AcDbEntity
  8
0
100
AcDbSpline
 62
7
  6
BYLAYER
 70
0
 71
3
 72
15
 73
11
 74
0
 42
0.0000001
 43
0.0000001
 44
0.0000000001
 40
0.0
 40
0.0
 40
0.0
 40
0.0
 40
0.1485634656
 40
0.2895070254
 40
0.4227257335
 40
0.5486367082
 40
0.6679993296
 40
0.7819364074
 40
0.8919851004
 40
1.0
 40
1.0
 40
1.0
 40
1.0
 10
12.7848650536
 20
27.9957151867
 30
0.0
 10
12.5740191948
 20
28.1174443462
 30
0.0
 10
12.1530293682
 20
28.3377932575
 30
0.0
 10
11.5109087862
 20
28.6006594582
 30
0.0
 10
10.880176134
 20
28.7845260165
 30
0.0
 10
10.2668828444
 20
28.8873621982
 30
0.0
 10
9.6766983479
 20
28.907942951
 30
0.0
 10
9.1152983611
 20
28.8452855104
 30
0.0
 10
8.5886588098
 20
28.699689122
 30
0.0
 10
8.2631974413
 20
28.5472485874
 30
0.0
 10
8.1098942608
 20
28.4587527332
 30
0.0
  0
SPLINE
  5
30D
100
AcDbEntity
  8
0
100
AcDbSpline
 62
7
  6
BYLAYER
 70
0
 71
3
 72
26
 73
22
 74
0
 42
0.0000001
 43
0.0000001
 44
0.0000000001
 40
0.0
 40
0.0
 40
0.0
 40
0.0
 40
0.0623757798
 40
0.1287181357
 40
0.1983040956
 40
0.2702775893
 40
0.3436502435
 40
0.4173795299
 40
0.4904013179
 40
0.5616848547
 40
0.6302788033
 40
0.6953630644
 40
0.7563076644
 40
0.8127424057
 40
0.8392661923
 40
0.864688428
 40
0.912461069
 40
0.93510462
 40
0.9571090112
 40
0.9786686983
 40
1.0
 40
1.0
 40
1.0
 40
1.0
 10
12.7848650536
 20
13.5436224035
 30
0.0
 10
12.4848834849
 20
13.7168129249
 30
0.0
 10
11.8889089764
 20
14.1151075858
 30
0.0
 10
11.0449085132
 20
14.8253288441
 30
0.0
 10
10.2381598986
 20
15.6536912877
 30
0.0
 10
9.4858576578
 20
16.5823204079
 30
0.0
 10
8.8039625179
 20
17.591621034
 30
0.0
 10
8.2069987395
 20
18.6600102891
 30
0.0
 10
7.7077247041
 20
19.7647222571
 30
0.0
 10
7.3167823278
 20
20.8822032423
 30
0.0
 10
7.0424913506
 20
21.9887051657
 30
0.0
 10
6.8907246514
 20
23.0609463311
 30
0.0
 10
6.8648754578
 20
24.0763108426
 30
0.0
 10
6.9508746332
 20
24.8739251604
 30
0.0
 10
7.0868408309
 20
25.4609531687
 30
0.0
 10
7.2575116378
 20
25.9882002334
 30
0.0
 10
7.4911026599
 20
26.471279635
 30
0.0
 10
7.7886789494
 20
26.8906082503
 30
0.0
 10
8.0355108563
 20
27.164335341
 30
0.0
 10
8.3084240279
 20
27.4010456092
 30
0.0
 10
8.5073105925
 20
27.5334872094
 30
0.0
 10
8.6098978874
 20
27.5927159618
 30
0.0
  0
SPLINE
  5
30E
100
AcDbEntity
  8
0
100
AcDbSpline
 62
7
  6
BYLAYER
 70
0
 71
3
 72
22
 73
18
 74
0
 42
0.0000001
 43
0.0000001
 44
0.0000000001
 40
0.0
 40
0.0
 40
0.0
 40
0.0
 40
0.0771771132
 40
0.1513689383
 40
0.2904364631
 40
0.3556318097
 40
0.4181707965
 40
0.4783603548
 40
0.536605845
 40
0.5934048663
 40
0.6493253592
 40
0.7049814644
 40
0.7610020738
 40
0.8179954291
 40
0.8765202929
 40
0.9370572282
 40
1.0
 40
1.0
 40
1.0
 40
1.0
 10
22.578253199
 20
47.9795141385
 30
0.0
 10
22.4128046262
 20
48.0750337556
 30
0.0
 10
22.0941499511
 20
48.272891982
 30
0.0
 10
21.5112182208
 20
48.694207198
 30
0.0
 10
20.9983184868
 20
49.1604879856
 30
0.0
 10
20.5753441688
 20
49.668839106
 30
0.0
 10
20.3141880189
 20
50.0548214323
 30
0.0
 10
20.1039966774
 20
50.4514783853
 30
0.0
 10
19.9461807004
 20
50.8566292341
 30
0.0
 10
19.841734136
 20
51.2678935796
 30
0.0
 10
19.7915465191
 20
51.6828337836
 30
0.0
 10
19.7958303253
 20
52.0988683528
 30
0.0
 10
19.8547584699
 20
52.5133895822
 30
0.0
 10
19.9676763701
 20
52.9238658803
 30
0.0
 10
20.1339527508
 20
53.3278117817
 30
0.0
 10
20.3522763421
 20
53.7229120704
 30
0.0
 10
20.5280309739
 20
53.9737474651
 30
0.0
 10
20.6234477322
 20
54.0969200987
 30
0.0
  0
SPLINE
  5
30F
100
AcDbEntity
  8
0
100
AcDbSpline
 62
7
  6
BYLAYER
 70
0
 71
3
 72
9
 73
5
 74
0
 42
0.0000001
 43
0.0000001
 44
0.0000000001
 40
0.0
 40
0.0
 40
0.0
 40
0.0
 40
0.5201279792
 40
1.0
 40
1.0
 40
1.0
 40
1.0
 10
16.6739361583
 20
15.7889652498
 30
0.0
 10
16.9484682632
 20
15.6304676509
 30
0.0
 10
17.4952987977
 20
15.3569888518
 30
0.0
 10
18.0770104637
 20
15.1653289349
 30
0.0
 10
18.3618552546
 20
15.0989982583
 30
0.0
  0
SPLINE
  5
310
100
AcDbEntity
  8
0
100
AcDbSpline
 62
7
  6
BYLAYER
 70
0
 71
3
 72
26
 73
22
 74
0
 42
0.0000001
 43
0.0000001
 44
0.0000000001
 40
0.0
 40
0.0
 40
0.0
 40
0.0
 40
0.0213308052
 40
0.0428901086
 40
0.0648939687
 40
0.0875376265
 40
0.1109854407
 40
0.1353711709
 40
0.1872686891
 40
0.2437025206
 40
0.3046462566
 40
0.3697296738
 40
0.4383225202
 40
0.509604501
 40
0.5826242672
 40
0.656351729
 40
0.7297236142
 40
0.8016957881
 40
0.8712826023
 40
0.9376221837
 40
1.0
 40
1.0
 40
1.0
 40
1.0
 10
39.2957216305
 20
43.3662083741
 30
0.0
 10
39.295730886
 20
43.2243458921
 30
0.0
 10
39.277419642
 20
42.938771202
 30
0.0
 10
39.1953494452
 20
42.5139769481
 30
0.0
 10
39.0592870818
 20
42.094085908
 30
0.0
 10
38.8700128115
 20
41.6816085139
 30
0.0
 10
38.6288728235
 20
41.2786539548
 30
0.0
 10
38.2317942385
 20
40.7461738445
 30
0.0
 10
37.6056396308
 20
40.1171899671
 30
0.0
 10
36.6936672294
 20
39.4509049705
 30
0.0
 10
35.6249347579
 20
38.8695909317
 30
0.0
 10
34.4220323014
 20
38.3849978173
 30
0.0
 10
33.1101687534
 20
38.0069190819
 30
0.0
 10
31.7170960266
 20
37.7432668261
 30
0.0
 10
30.2724008734
 20
37.5995978993
 30
0.0
 10
28.8068779707
 20
37.5789808326
 30
0.0
 10
27.351776527
 20
37.6818293172
 30
0.0
 10
25.9381621073
 20
37.9059925052
 30
0.0
 10
24.595955653
 20
38.2466887978
 30
0.0
 10
23.3539386264
 20
38.6967323221
 30
0.0
 10
22.5839734364
 20
39.0763457399
 30
0.0
 10
22.2247012804
 20
39.2837669234
 30
0.0
  0
SPLINE
  5
311
100
AcDbEntity
  8
0
100
AcDbSpline
 62
7
  6
BYLAYER
 70
0
 71
3
 72
15
 73
11
 74
0
 42
0.0000001
 43
0.0000001
 44
0.0000000001
 40
0.0
 40
0.0
 40
0.0
 40
0.0
 40
0.1080123313
 40
0.2180587787
 40
0.3319941707
 40
0.4513557784
 40
0.5772665129
 40
0.7104867315
 40
0.8514339157
 40
1.0
 40
1.0
 40
1.0
 40
1.0
 10
19.2957575386
 20
51.8578336815
 30
0.0
 10
19.2957697322
 20
51.6685194293
 30
0.0
 10
19.3286175604
 20
51.2855551173
 30
0.0
 10
19.4753879638
 20
50.7199160829
 30
0.0
 10
19.7175706325
 20
50.1664324409
 30
0.0
 10
20.0522441403
 20
49.630797303
 30
0.0
 10
20.4754691652
 20
49.1177439963
 30
0.0
 10
20.9830776886
 20
48.631864535
 30
0.0
 10
21.5699556589
 20
48.1776864194
 30
0.0
 10
21.9991928738
 20
47.9055864554
 30
0.0
 10
22.2247012804
 20
47.7753920615
 30
0.0
  0
SPLINE
  5
312
100
AcDbEntity
  8
0
100
AcDbSpline
 62
7
  6
BYLAYER
 70
0
 71
3
 72
10
 73
6
 74
0
 42
0.0000001
 43
0.0000001
 44
0.0000000001
 40
0.0
 40
0.0
 40
0.0
 40
0.0
 40
0.4756874719
 40
0.731917717
 40
1.0
 40
1.0
 40
1.0
 40
1.0
 10
18.5154385777
 20
15.5836680655
 30
0.0
 10
18.2061472833
 20
15.6348052648
 30
0.0
 10
17.7382140102
 20
15.7677116912
 30
0.0
 10
17.132699814
 20
16.0285343016
 30
0.0
 10
16.8269404046
 20
16.1905316557
 30
0.0
 10
16.6739361583
 20
16.2788667001
 30
0.0
  0
SPLINE
  5
313
100
AcDbEntity
  8
0
100
AcDbSpline
 62
7
  6
BYLAYER
 70
0
 71
3
 72
24
 73
20
 74
0
 42
0.0000001
 43
0.0000001
 44
0.0000000001
 40
0.0
 40
0.0
 40
0.0
 40
0.0
 40
0.0570994818
 40
0.1114097499
 40
0.1636495941
 40
0.2147140118
 40
0.265606658
 40
0.3173483423
 40
0.370878813
 40
0.4269787604
 40
0.456199887
 40
0.4862644403
 40
0.5490513577
 40
0.6155575563
 40
0.6858025004
 40
0.7596593933
 40
0.8368864322
 40
0.9171403146
 40
1.0
 40
1.0
 40
1.0
 40
1.0
 10
37.968035822
 20
54.0969212464
 30
0.0
 10
38.0948797824
 20
53.9331420964
 30
0.0
 10
38.3224468351
 20
53.5972794823
 30
0.0
 10
38.5812266194
 20
53.0604316173
 30
0.0
 10
38.7448573568
 20
52.5097474054
 30
0.0
 10
38.8106906954
 20
51.9513525755
 30
0.0
 10
38.7777819142
 20
51.3918342308
 30
0.0
 10
38.6466125183
 20
50.83785509
 30
0.0
 10
38.4192147389
 20
50.2957607106
 30
0.0
 10
38.1557116137
 20
49.8642640628
 30
0.0
 10
37.9025544219
 20
49.5305831346
 30
0.0
 10
37.6126184835
 20
49.1954403708
 30
0.0
 10
37.1946701415
 20
48.7939545921
 30
0.0
 10
36.6207717446
 20
48.3507539661
 30
0.0
 10
35.9730439606
 20
47.9434449401
 30
0.0
 10
35.2581019588
 20
47.5759246683
 30
0.0
 10
34.4830376354
 20
47.2518502457
 30
0.0
 10
33.6556952558
 20
46.9744008551
 30
0.0
 10
33.0827300574
 20
46.8244240499
 30
0.0
 10
32.7896620933
 20
46.757503002
 30
0.0
  0
SPLINE
  5
314
100
AcDbEntity
  8
0
100
AcDbSpline
 62
7
  6
BYLAYER
 70
0
 71
3
 72
15
 73
11
 74
0
 42
0.0000001
 43
0.0000001
 44
0.0000000001
 40
0.0
 40
0.0
 40
0.0
 40
0.0
 40
0.127426935
 40
0.2576753377
 40
0.3889647539
 40
0.5194673677
 40
0.6473960784
 40
0.7710650338
 40
0.8890075222
 40
1.0
 40
1.0
 40
1.0
 40
1.0
 10
32.7470367822
 20
46.7478383269
 30
0.0
 10
32.3137037549
 20
46.6502831395
 30
0.0
 10
31.4278767164
 20
46.4935299666
 30
0.0
 10
30.0759275218
 20
46.3725764155
 30
0.0
 10
28.7077984002
 20
46.3645945463
 30
0.0
 10
27.3518024572
 20
46.469755016
 30
0.0
 10
26.0358480773
 20
46.6859274687
 30
0.0
 10
24.7868211132
 20
47.0086545611
 30
0.0
 10
23.6305934094
 20
47.4313808581
 30
0.0
 10
22.9133134553
 20
47.7860713856
 30
0.0
 10
22.578253199
 20
47.9795141385
 30
0.0
  0
SPLINE
  5
315
100
AcDbEntity
  8
0
100
AcDbSpline
 62
7
  6
BYLAYER
 70
0
 71
3
 72
20
 73
16
 74
0
 42
0.0000001
 43
0.0000001
 44
0.0000000001
 40
0.0
 40
0.0
 40
0.0
 40
0.0
 40
0.1233425027
 40
0.1818833123
 40
0.2388941703
 40
0.294931006
 40
0.3506038761
 40
0.4065403825
 40
0.4633563422
 40
0.5216192879
 40
0.5818285053
 40
0.7094410867
 40
0.7775418843
 40
0.8486816546
 40
1.0
 40
1.0
 40
1.0
 40
1.0
 10
21.1504813377
 20
54.7773484928
 30
0.0
 10
20.9749378695
 20
54.5507036916
 30
0.0
 10
20.7462295596
 20
54.1900884562
 30
0.0
 10
20.5346395441
 20
53.6756147231
 30
0.0
 10
20.4284827136
 20
53.2900687527
 30
0.0
 10
20.3732072353
 20
52.9007417214
 30
0.0
 10
20.3691431456
 20
52.5099969218
 30
0.0
 10
20.416286412
 20
52.1202751334
 30
0.0
 10
20.5143898399
 20
51.734018055
 30
0.0
 10
20.6626059888
 20
51.3534577314
 30
0.0
 10
20.9309223263
 20
50.847151876
 30
0.0
 10
21.2944266808
 20
50.3704207327
 30
0.0
 10
21.7331719404
 20
49.9313851928
 30
0.0
 10
22.2491649406
 20
49.494662693
 30
0.0
 10
22.6819180228
 20
49.2075628147
 30
0.0
 10
22.9864997898
 20
49.0317164277
 30
0.0
  0
ENDSEC
  0
SECTION
  2
OBJECTS
  0
DICTIONARY
  5
C
100
AcDbDictionary
280
0
281
1
  3
ACAD_GROUP
350
D
  3
ACAD_MLINESTYLE
350
17
  3
ACAD_LAYOUT
350
1A
  3
ACAD_PLOTSETTINGS
350
19
  3
ACAD_PLOTSTYLENAME
350
E
  0
DICTIONARY
  5
D
102
{ACAD_REACTORS
330
C
102
}
100
AcDbDictionary
280
0
281
1
  0
ACDBDICTIONARYWDFLT
  5
E
102
{ACAD_REACTORS
330
C
102
}
100
AcDbDictionary
281
1
  3
Normal
350
F
100
AcDbDictionaryWithDefault
340
F
  0
DICTIONARY
  5
17
102
{ACAD_REACTORS
330
C
102
}
100
AcDbDictionary
280
0
281
1
  3
Standard
350
18
  0
DICTIONARY
  5
19
102
{ACAD_REACTORS
330
C
102
}
100
AcDbDictionary
281
1
  0
DICTIONARY
  5
1A
102
{ACAD_REACTORS
330
C
102
}
100
AcDbDictionary
281
1
  3
Model
350
316
  3
Layout1
350
317
  0
ACDBPLACEHOLDER
  5
F
102
{ACAD_REACTORS
330
E
102
}
  0
MLINESTYLE
  5
18
102
{ACAD_REACTORS
330
17
102
}
100
AcDbMlineStyle
  2
STANDARD
 70
0
  3

 62
256
 51
90.0
 52
90.0
 71
2
 49
0.5
 62
256
  6
BYLAYER
 49
-0.5
 62
256
  6
BYLAYER
  0
LAYOUT
  5
316
102
{ACAD_REACTORS
330
1A
102
}
100
AcDbPlotSettings
  1

  2
none_device
  4

  6

 40
0.0
 41
0.0
 42
0.0
 43
0.0
 44
210.0
 45
297.0
 46
0.0
 47
0.0
 48
0.0
 49
0.0
140
0.0
141
0.0
142
1.0
143
1.0
 70
1024
 72
1
 73
0
 74
0
  7

 75
0
147
1.0
148
0.0
149
0.0
100
AcDbLayout
  1
Model
 70
0
 71
0
 10
0.0
 20
0.0
 11
210.0
 21
297.0
 12
0.0
 22
0.0
 32
0.0
 14
0.0
 24
0.0
 34
0.0
 15
0.0
 25
0.0
 35
0.0
146
0.0
 13
0.0
 23
0.0
 33
0.0
 16
1.0
 26
0.0
 36
0.0
 17
0.0
 27
1.0
 37
0.0
 76
0
330
210
345
0
346
0
  0
LAYOUT
  5
317
102
{ACAD_REACTORS
330
1A
102
}
100
AcDbPlotSettings
  1

  2
none_device
  4

  6

 40
0.0
 41
0.0
 42
0.0
 43
0.0
 44
210.0
 45
297.0
 46
0.0
 47
0.0
 48
0.0
 49
0.0
140
0.0
141
0.0
142
1.0
143
1.0
 70
0
 72
1
 73
0
 74
0
  7

 75
0
147
1.0
148
0.0
149
0.0
100
AcDbLayout
  1
Layout1
 70
0
 71
1
 10
0.0
 20
0.0
 11
210.0
 21
297.0
 12
0.0
 22
0.0
 32
0.0
 14
0.0
 24
0.0
 34
0.0
 15
0.0
 25
0.0
 35
0.0
146
0.0
 13
0.0
 23
0.0
 33
0.0
 16
1.0
 26
0.0
 36
0.0
 17
0.0
 27
1.0
 37
0.0
 76
0
330
211
345
0
346
0
  0
ENDSEC
  0
EOF
