999
DXF file: C:\Users\sesa63760\Dev\_Creo\CAD\MCADID0004764_3D-CAD\drw0001_1.dxf
999
Pro/ENGINEER 2019471 by Parametric Technology Corporation
  0
SECTION
  2
HEADER
  9
$ACADVER
  1
AC1024
  9
$DWGCODEPAGE
  3
ANSI_1252
  9
$EXTMAX
 10
131.3114208669
 20
185.7118666546
 30
0.0
  9
$EXTMIN
 10
0.0
 20
0.0
 30
0.0
  9
$LIMMIN
 10
0.0
 20
0.0
  9
$LIMMAX
 10
131.3114208669
 20
185.7118666546
  9
$VIEWCTR
 10
65.6557104334
 20
92.8559333273
  9
$VIEWSIZE
 40
185.7118666546
  9
$CLAYER
  8
0
  9
$LTSCALE
 40
12.105662419
  9
$CELTYPE
  6
BYLAYER
  9
$DIMSCALE
 40
1.0
  9
$DIMASZ
 40
1.5632312008
  9
$DIMEXO
 40
1.0
  9
$DIMDLI
 40
8.3639122167
  9
$DIMEXE
 40
1.0
  9
$DIMCEN
 40
1.9809265776
  9
$DIMLFAC
 40
1.0
  9
$DIMBLK
  1
_FILLED
  9
$DIMALT
 70
0
  9
$DIMALTF
 40
0.0393700787
  9
$DIMTXT
 40
2.1885236811
  9
$DIMTOL
 70
1
  9
$DIMLIM
 70
0
  9
$DIMTFAC
 40
1.0
  9
$DIMTP
 40
0.01
  9
$DIMTM
 40
0.01
  9
$DIMGAP
 40
0.625
  9
$DIMDSEP
 70
46
  9
$AUNITS
 70
0
  9
$PDMODE
 70
3
  9
$PDSIZE
 40
0.3125
  9
$HANDSEED
  5
388
  9
$TILEMODE
 70
1
  9
$MEASUREMENT
 70
1
  9
$INSUNITS
 70
4
  0
ENDSEC
  0
SECTION
  2
CLASSES
  0
CLASS
  1
ACDBDICTIONARYWDFLT
  2
AcDbDictionaryWithDefault
  3
AutoCAD 2000
 90
0
 91
1
280
0
281
0
  0
CLASS
  1
ACDBPLACEHOLDER
  2
AcDbPlaceHolder
  3
AutoCAD 2000
 90
0
 91
1
280
0
281
0
  0
CLASS
  1
LAYOUT
  2
AcDbLayout
  3
AutoCAD 2000
 90
0
 91
0
280
0
281
0
  0
ENDSEC
  0
SECTION
  2
TABLES
  0
TABLE
  2
VPORT
  5
8
100
AcDbSymbolTable
 70
2
  0
VPORT
  5
1F4
100
AcDbSymbolTableRecord
100
AcDbViewportTableRecord
  2
*ACTIVE
 70
0
 10
0.0
 20
0.0
 11
1.0
 21
1.0
 12
65.6557104334
 22
92.8559333273
 13
0.0
 23
0.0
 14
1.0
 24
1.0
 15
0.0
 25
0.0
 16
0.0
 26
0.0
 36
1.0
 17
0.0
 27
0.0
 37
0.0
 40
185.7118666546
 41
0.7070707071
 42
50.0
 43
0.0
 44
0.0
 50
0.0
 51
0.0
 71
0
 72
100
 73
1
 74
1
 75
0
 76
0
 77
0
 78
0
  0
ENDTAB
  0
TABLE
  2
LTYPE
  5
5
100
AcDbSymbolTable
 70
6
  0
LTYPE
  5
14
100
AcDbSymbolTableRecord
100
AcDbLinetypeTableRecord
  2
BYBLOCK
 70
0
  3

 72
65
 73
0
 40
0.0
  0
LTYPE
  5
15
100
AcDbSymbolTableRecord
100
AcDbLinetypeTableRecord
  2
BYLAYER
 70
0
  3

 72
65
 73
0
 40
0.0
  0
LTYPE
  5
16
100
AcDbSymbolTableRecord
100
AcDbLinetypeTableRecord
  2
CONTINUOUS
 70
64
  3
Solid line
 72
65
 73
0
 40
0.0
  0
LTYPE
  5
1F5
100
AcDbSymbolTableRecord
100
AcDbLinetypeTableRecord
  2
CENTER
 70
64
  3
____ _ ____ _ ____ _ ____ _ ____ _ ____ _ ____
 72
65
 73
4
 40
0.6
 49
0.375
 74
0
 49
-0.075
 74
0
 49
0.075
 74
0
 49
-0.075
 74
0
  0
LTYPE
  5
1F6
100
AcDbSymbolTableRecord
100
AcDbLinetypeTableRecord
  2
HIDDEN
 70
64
  3
- - - - - - - - - - - - - - - - - - - -
 72
65
 73
2
 40
0.2
 49
0.1
 74
0
 49
-0.1
 74
0
  0
LTYPE
  5
1F7
100
AcDbSymbolTableRecord
100
AcDbLinetypeTableRecord
  2
PHANTOM
 70
64
  3
_____ _ _ _____ _ _ _____ _ _ _____
 72
65
 73
6
 40
0.8
 49
0.45
 74
0
 49
-0.05
 74
0
 49
0.1
 74
0
 49
-0.05
 74
0
 49
0.1
 74
0
 49
-0.05
 74
0
  0
LTYPE
  5
1F8
100
AcDbSymbolTableRecord
100
AcDbLinetypeTableRecord
  2
DOT
 70
64
  3
. . . . . . . . . . . . . . . . . . . .
 72
65
 73
2
 40
0.2
 49
0.1
 74
0
 49
-0.1
 74
0
  0
LTYPE
  5
1F9
100
AcDbSymbolTableRecord
100
AcDbLinetypeTableRecord
  2
DASHED
 70
64
  3
- - - - - - - - - - - - - - - - - - - -
 72
65
 73
2
 40
0.2
 49
0.1
 74
0
 49
-0.1
 74
0
  0
ENDTAB
  0
TABLE
  2
LAYER
  5
2
100
AcDbSymbolTable
 70
36
  0
LAYER
  5
10
100
AcDbSymbolTableRecord
100
AcDbLayerTableRecord
  2
0
 70
0
 62
7
  6
CONTINUOUS
370
-3
390
F
  0
LAYER
  5
1FA
100
AcDbSymbolTableRecord
100
AcDbLayerTableRecord
  2
DEFAULT_1
 70
0
 62
7
  6
CENTER
370
-3
390
F
  0
LAYER
  5
1FB
100
AcDbSymbolTableRecord
100
AcDbLayerTableRecord
  2
DEFAULT_2
 70
0
 62
7
  6
HIDDEN
370
-3
390
F
  0
LAYER
  5
1FC
100
AcDbSymbolTableRecord
100
AcDbLayerTableRecord
  2
DEFAULT_3
 70
0
 62
7
  6
PHANTOM
370
-3
390
F
  0
LAYER
  5
1FD
100
AcDbSymbolTableRecord
100
AcDbLayerTableRecord
  2
00_COMPONENTS
 70
0
 62
7
  6
CONTINUOUS
370
-3
390
F
  0
LAYER
  5
1FE
100
AcDbSymbolTableRecord
100
AcDbLayerTableRecord
  2
01_1_DEFAULT_DATUMS
 70
0
 62
7
  6
CONTINUOUS
370
-3
390
F
  0
LAYER
  5
1FF
100
AcDbSymbolTableRecord
100
AcDbLayerTableRecord
  2
01_PLANES
 70
0
 62
7
  6
CONTINUOUS
370
-3
390
F
  0
LAYER
  5
200
100
AcDbSymbolTableRecord
100
AcDbLayerTableRecord
  2
02_COORD_SYS
 70
0
 62
7
  6
CONTINUOUS
370
-3
390
F
  0
LAYER
  5
201
100
AcDbSymbolTableRecord
100
AcDbLayerTableRecord
  2
03_AXES
 70
0
 62
7
  6
CONTINUOUS
370
-3
390
F
  0
LAYER
  5
202
100
AcDbSymbolTableRecord
100
AcDbLayerTableRecord
  2
04_POINTS
 70
0
 62
7
  6
CONTINUOUS
370
-3
390
F
  0
LAYER
  5
203
100
AcDbSymbolTableRecord
100
AcDbLayerTableRecord
  2
05_CURVES
 70
0
 62
7
  6
CONTINUOUS
370
-3
390
F
  0
LAYER
  5
204
100
AcDbSymbolTableRecord
100
AcDbLayerTableRecord
  2
06_SURFS
 70
0
 62
7
  6
CONTINUOUS
370
-3
390
F
  0
LAYER
  5
205
100
AcDbSymbolTableRecord
100
AcDbLayerTableRecord
  2
07_COSMETICS
 70
0
 62
7
  6
CONTINUOUS
370
-3
390
F
  0
LAYER
  5
206
100
AcDbSymbolTableRecord
100
AcDbLayerTableRecord
  2
10_NOTES
 70
0
 62
7
  6
CONTINUOUS
370
-3
390
F
  0
LAYER
  5
207
100
AcDbSymbolTableRecord
100
AcDbLayerTableRecord
  2
11_NOTES_PUB
 70
0
 62
7
  6
CONTINUOUS
370
-3
390
F
  0
LAYER
  5
208
100
AcDbSymbolTableRecord
100
AcDbLayerTableRecord
  2
13_REF_GTOL
 70
0
 62
7
  6
CONTINUOUS
370
-3
390
F
  0
LAYER
  5
209
100
AcDbSymbolTableRecord
100
AcDbLayerTableRecord
  2
16_MISC
 70
0
 62
7
  6
CONTINUOUS
370
-3
390
F
  0
LAYER
  5
20A
100
AcDbSymbolTableRecord
100
AcDbLayerTableRecord
  2
17_NO_PRINT
 70
0
 62
7
  6
CONTINUOUS
370
-3
390
F
  0
LAYER
  5
20B
100
AcDbSymbolTableRecord
100
AcDbLayerTableRecord
  2
18_DATUM_CAMS_JOINTS
 70
0
 62
7
  6
CONTINUOUS
370
-3
390
F
  0
LAYER
  5
20C
100
AcDbSymbolTableRecord
100
AcDbLayerTableRecord
  2
19_DATUM_FUNCTIONAL
 70
0
 62
7
  6
CONTINUOUS
370
-3
390
F
  0
LAYER
  5
20D
100
AcDbSymbolTableRecord
100
AcDbLayerTableRecord
  2
20_DATUM_KINEMATIC_SCHEME
 70
0
 62
7
  6
CONTINUOUS
370
-3
390
F
  0
ENDTAB
  0
TABLE
  2
STYLE
  5
3
100
AcDbSymbolTable
 70
1
  0
STYLE
  5
11
100
AcDbSymbolTableRecord
100
AcDbTextStyleTableRecord
  2
STANDARD
 70
0
 40
0.0
 41
1.0
 50
0.0
 71
0
 42
0.2
  3
ARIAL.TTF
  4

  0
STYLE
  5
20E
100
AcDbSymbolTableRecord
100
AcDbTextStyleTableRecord
  2
TEXTSTYLE_1
 70
0
 40
0.0
 41
0.8
 50
0.0
 71
0
 42
0.2
  3
gdt
  4

  0
ENDTAB
  0
TABLE
  2
VIEW
  5
6
100
AcDbSymbolTable
 70
0
  0
ENDTAB
  0
TABLE
  2
UCS
  5
7
100
AcDbSymbolTable
 70
0
  0
ENDTAB
  0
TABLE
  2
APPID
  5
9
100
AcDbSymbolTable
 70
1
  0
APPID
  5
20F
100
AcDbSymbolTableRecord
100
AcDbRegAppTableRecord
  2
ACAD
 70
0
  0
ENDTAB
  0
TABLE
  2
BLOCK_RECORD
  5
1
100
AcDbSymbolTable
 70
0
  0
BLOCK_RECORD
  5
210
100
AcDbSymbolTableRecord
100
AcDbBlockTableRecord
  2
*Model_Space
  0
BLOCK_RECORD
  5
211
100
AcDbSymbolTableRecord
100
AcDbBlockTableRecord
  2
*Paper_Space
  0
BLOCK_RECORD
  5
212
100
AcDbSymbolTableRecord
100
AcDbBlockTableRecord
  2
_FILLED
  0
ENDTAB
  0
TABLE
  2
DIMSTYLE
  5
A
100
AcDbSymbolTable
 70
1
100
AcDbDimStyleTable
 71
0
  0
DIMSTYLE
105
213
100
AcDbSymbolTableRecord
100
AcDbDimStyleTableRecord
  2
STANDARD
 70
0
  3

  4

 40
1.0
 41
1.5632312008
 42
1.0
 43
0.38
 44
1.0
 45
0.0
 46
0.0
 47
0.01
 48
0.01
140
2.1885236811
141
0.09
142
0.0
143
25.4
144
1.0
145
0.0
146
1.0
147
0.625
 71
1
 72
0
 73
0
 74
0
 75
0
 76
0
 77
1
 78
8
 79
2
170
0
171
1
172
0
173
0
174
0
175
0
176
0
177
0
178
0
270
2
179
2
271
2
272
2
273
2
274
2
275
0
280
0
281
0
282
0
283
1
284
8
285
0
286
0
287
3
288
0
340
11
278
46
341
212
342
212
343
212
344
212
  0
ENDTAB
  0
ENDSEC
  0
SECTION
  2
BLOCKS
  0
BLOCK
  5
20
100
AcDbEntity
  8
0
100
AcDbBlockBegin
  2
*Model_Space
 70
0
 10
0.0
 20
0.0
 30
0.0
  3
*Model_Space
  1

  0
ENDBLK
  5
21
100
AcDbEntity
  8
0
100
AcDbBlockEnd
  0
BLOCK
  5
1C
100
AcDbEntity
  8
0
100
AcDbBlockBegin
  2
*Paper_Space
 70
0
 10
0.0
 20
0.0
 30
0.0
  3
*Paper_Space
  1

  0
ENDBLK
  5
1D
100
AcDbEntity
  8
0
100
AcDbBlockEnd
  0
BLOCK
  5
214
100
AcDbEntity
  8
0
100
AcDbBlockBegin
  2
_FILLED
 70
64
 10
0.0
 20
0.0
  3
_FILLED
  1

  0
SOLID
  5
215
100
AcDbEntity
  8
0
  6
BYBLOCK
 62
0
100
AcDbTrace
 10
0.0
 20
0.0
 11
-1.0
 21
0.25
 12
-1.0
 22
-0.25
 13
-1.0
 23
-0.25
  0
ENDBLK
  5
216
100
AcDbEntity
  8
0
  6
BYBLOCK
 62
0
100
AcDbBlockEnd
  0
ENDSEC
  0
SECTION
  2
ENTITIES
  0
LINE
  5
217
100
AcDbEntity
  8
0
100
AcDbLine
 62
7
  6
BYLAYER
 10
16.7881459278
 20
67.624648818
 11
16.4381444706
 21
68.2308657593
  0
LINE
  5
218
100
AcDbEntity
  8
0
100
AcDbLine
 62
7
  6
BYLAYER
 10
16.4619825252
 20
68.2446294485
 11
16.8119839825
 21
67.6384125072
  0
LINE
  5
219
100
AcDbEntity
  8
0
100
AcDbLine
 62
7
  6
BYLAYER
 10
16.9730617554
 20
68.5397180817
 11
17.3230632126
 21
67.9335011404
  0
LINE
  5
21A
100
AcDbEntity
  8
0
100
AcDbLine
 62
7
  6
BYLAYER
 10
15.233636772
 20
68.1926667372
 11
15.2336355944
 21
68.3559623591
  0
LINE
  5
21B
100
AcDbEntity
  8
0
100
AcDbLine
 62
7
  6
BYLAYER
 10
15.233636772
 20
84.5227150798
 11
15.2336355944
 21
84.6860107016
  0
LINE
  5
21C
100
AcDbEntity
  8
0
100
AcDbLine
 62
7
  6
BYLAYER
 10
15.6388893551
 20
76.6241035969
 11
16.9538394108
 21
74.3465559057
  0
LINE
  5
21D
100
AcDbEntity
  8
0
100
AcDbLine
 62
7
  6
BYLAYER
 10
22.342306349
 20
65.0135092031
 11
23.6572564292
 21
62.7359615262
  0
LINE
  5
21E
100
AcDbEntity
  8
0
100
AcDbLine
 62
7
  6
BYLAYER
 10
24.6572605933
 20
63.3133307067
 11
23.3423105542
 21
65.5908784157
  0
LINE
  5
21F
100
AcDbEntity
  8
0
100
AcDbLine
 62
7
  6
BYLAYER
 10
17.9538436223
 20
74.9239251058
 11
16.6388935192
 21
77.2014727775
  0
LINE
  5
220
100
AcDbEntity
  8
0
100
AcDbLine
 62
7
  6
BYLAYER
 10
18.2741703185
 20
80.6551005648
 11
18.2741703185
 21
83.4846832786
  0
LINE
  5
221
100
AcDbEntity
  8
0
100
AcDbLine
 62
7
  6
BYLAYER
 10
18.2741703185
 20
86.9487797243
 11
18.2741703185
 21
90.3607259277
  0
LINE
  5
222
100
AcDbEntity
  8
0
100
AcDbLine
 62
7
  6
BYLAYER
 10
20.7490620108
 20
85.5841763956
 11
20.7490631884
 21
85.4208807738
  0
LINE
  5
223
100
AcDbEntity
  8
0
100
AcDbLine
 62
7
  6
BYLAYER
 10
16.1528794146
 20
66.6005094528
 11
16.2943001821
 21
66.5188578001
  0
LINE
  5
224
100
AcDbEntity
  8
0
100
AcDbLine
 62
7
  6
BYLAYER
 10
30.2950739176
 20
58.4356943624
 11
30.436494685
 21
58.3540427097
  0
LINE
  5
225
100
AcDbEntity
  8
0
100
AcDbLine
 62
7
  6
BYLAYER
 10
36.8712259449
 20
58.1498616023
 11
33.9163412597
 21
59.8558264766
  0
LINE
  5
226
100
AcDbEntity
  8
0
100
AcDbLine
 62
7
  6
BYLAYER
 10
30.9163028485
 20
61.5878602771
 11
28.465785205
 21
63.0026352917
  0
LINE
  5
227
100
AcDbEntity
  8
0
100
AcDbLine
 62
7
  6
BYLAYER
 10
31.3079183212
 20
63.0164466714
 11
32.1292419455
 21
62.2881468111
  0
LINE
  5
228
100
AcDbEntity
  8
0
100
AcDbLine
 62
7
  6
BYLAYER
 10
18.4990927557
 20
79.4500044489
 11
19.5981076564
 21
77.5464653591
  0
LINE
  5
229
100
AcDbEntity
  8
0
100
AcDbLine
 62
7
  6
BYLAYER
 10
26.4356421595
 20
65.7035739525
 11
27.5346570654
 21
63.8000348659
  0
LINE
  5
22A
100
AcDbEntity
  8
0
100
AcDbLine
 62
7
  6
BYLAYER
 10
19.4870695282
 20
84.1849467838
 11
19.7071541261
 21
83.1094481231
  0
LINE
  5
22B
100
AcDbEntity
  8
0
100
AcDbLine
 62
7
  6
BYLAYER
 10
24.6381048534
 20
94.1899425504
 11
24.6381048534
 21
94.1981452149
  0
LINE
  5
22C
100
AcDbEntity
  8
0
100
AcDbLine
 62
7
  6
BYLAYER
 10
33.8305931036
 20
62.7631218997
 11
33.9720138711
 21
62.681470247
  0
LINE
  5
22D
100
AcDbEntity
  8
0
100
AcDbLine
 62
7
  6
BYLAYER
 10
35.0190136663
 20
60.0836227259
 11
34.8813114641
 21
60.3221286125
  0
LINE
  5
22E
100
AcDbEntity
  8
0
100
AcDbLine
 62
7
  6
BYLAYER
 10
19.1604640247
 20
87.5512839603
 11
19.0227618225
 21
87.7897898468
  0
LINE
  5
22F
100
AcDbEntity
  8
0
100
AcDbLine
 62
7
  6
BYLAYER
 10
19.4470241248
 20
88.0347363392
 11
19.5905277476
 21
87.7861821532
  0
LINE
  5
230
100
AcDbEntity
  8
0
100
AcDbLine
 62
7
  6
BYLAYER
 10
35.2997723458
 20
60.5771234043
 11
35.4432759686
 21
60.3285692183
  0
LINE
  5
231
100
AcDbEntity
  8
0
100
AcDbLine
 62
7
  6
BYLAYER
 10
19.772764945
 20
88.222816732
 11
19.9104671472
 21
87.9843108455
  0
LINE
  5
232
100
AcDbEntity
  8
0
100
AcDbLine
 62
7
  6
BYLAYER
 10
35.6313145866
 20
60.7551554977
 11
35.7690167888
 21
60.5166496111
  0
LINE
  5
233
100
AcDbEntity
  8
0
100
AcDbLine
 62
7
  6
BYLAYER
 10
29.3758312749
 20
60.0278516468
 11
29.3758300973
 21
60.1911472686
  0
LINE
  5
234
100
AcDbEntity
  8
0
100
AcDbLine
 62
7
  6
BYLAYER
 10
29.3758312749
 20
76.3578999894
 11
29.3758300973
 21
76.5211956112
  0
LINE
  5
235
100
AcDbEntity
  8
0
100
AcDbLine
 62
7
  6
BYLAYER
 10
16.3665788438
 20
77.8818605724
 11
16.686488606
 21
78.6642662857
  0
LINE
  5
236
100
AcDbEntity
  8
0
100
AcDbLine
 62
7
  6
BYLAYER
 10
16.7413859645
 20
78.606354269
 11
16.7356586512
 21
78.5974538471
  0
LINE
  5
237
100
AcDbEntity
  8
0
100
AcDbLine
 62
7
  6
BYLAYER
 10
25.1102727524
 20
62.7372480764
 11
25.9478102672
 21
62.6230908711
  0
LINE
  5
238
100
AcDbEntity
  8
0
100
AcDbLine
 62
7
  6
BYLAYER
 10
16.1528794146
 20
82.9305577954
 11
16.2943001821
 21
82.8489061427
  0
LINE
  5
239
100
AcDbEntity
  8
0
100
AcDbLine
 62
7
  6
BYLAYER
 10
30.2950739176
 20
74.765742705
 11
30.436494685
 21
74.6840910523
  0
LINE
  5
23A
100
AcDbEntity
  8
0
100
AcDbLine
 62
7
  6
BYLAYER
 10
23.4838602901
 20
85.2899927866
 11
20.6908189819
 21
87.7666920248
  0
LINE
  5
23B
100
AcDbEntity
  8
0
100
AcDbLine
 62
7
  6
BYLAYER
 10
21.1150812842
 20
88.0116385171
 11
23.9081225924
 21
85.5349392789
  0
LINE
  5
23C
100
AcDbEntity
  8
0
100
AcDbLine
 62
7
  6
BYLAYER
 10
35.8330176482
 20
61.5397801881
 11
35.0846244852
 21
65.1969913349
  0
LINE
  5
23D
100
AcDbEntity
  8
0
100
AcDbLine
 62
7
  6
BYLAYER
 10
35.5088867876
 20
65.4419378272
 11
36.2572799505
 21
61.7847266806
  0
LINE
  5
23E
100
AcDbEntity
  8
0
100
AcDbLine
 62
7
  6
BYLAYER
 10
34.8912565137
 20
61.0893129627
 11
34.8912576913
 21
60.9260173408
  0
LINE
  5
23F
100
AcDbEntity
  8
0
100
AcDbLine
 62
7
  6
BYLAYER
 10
34.8912565137
 20
77.4193613052
 11
34.8912576913
 21
77.2560656834
  0
LINE
  5
240
100
AcDbEntity
  8
0
100
AcDbLine
 62
7
  6
BYLAYER
 10
37.3661328975
 20
79.3382276365
 11
37.3661328975
 21
58.4356052314
  0
LINE
  5
241
100
AcDbEntity
  8
0
100
AcDbLine
 62
7
  6
BYLAYER
 10
19.6883986007
 20
87.2579853327
 11
19.8298193681
 21
87.17633368
  0
LINE
  5
242
100
AcDbEntity
  8
0
100
AcDbLine
 62
7
  6
BYLAYER
 10
33.8305931036
 20
79.0931702423
 11
33.9720138711
 21
79.0115185896
  0
LINE
  5
243
100
AcDbEntity
  8
0
100
AcDbLine
 62
7
  6
BYLAYER
 10
41.9623070929
 20
81.991803603
 11
41.9623070964
 21
61.0892056621
  0
LINE
  5
244
100
AcDbEntity
  8
0
100
AcDbLine
 62
7
  6
BYLAYER
 10
35.0846244852
 20
74.2314623186
 11
35.8330176482
 21
77.0245230269
  0
LINE
  5
245
100
AcDbEntity
  8
0
100
AcDbLine
 62
7
  6
BYLAYER
 10
36.2572799505
 20
77.2694695192
 11
35.5088867876
 21
74.4764088109
  0
LINE
  5
246
100
AcDbEntity
  8
0
100
AcDbLine
 62
7
  6
BYLAYER
 10
18.7690786427
 20
90.6464700485
 11
36.8712256002
 21
80.1954270638
  0
LINE
  5
247
100
AcDbEntity
  8
0
100
AcDbLine
 62
7
  6
BYLAYER
 10
43.6947119461
 20
62.1711196395
 11
43.6947119461
 21
82.9919312763
  0
LINE
  5
248
100
AcDbEntity
  8
0
100
AcDbLine
 62
7
  6
BYLAYER
 10
43.7300674324
 20
83.1756448428
 11
43.7300674324
 21
61.9465819974
  0
LINE
  5
249
100
AcDbEntity
  8
0
100
AcDbLine
 62
7
  6
BYLAYER
 10
44.4371712696
 20
83.5838889967
 11
44.4371712696
 21
62.3548261513
  0
LINE
  5
24A
100
AcDbEntity
  8
0
100
AcDbLine
 62
7
  6
BYLAYER
 10
16.7430119915
 20
78.6043961324
 11
16.7356586512
 21
78.5974538471
  0
LINE
  5
24B
100
AcDbEntity
  8
0
100
AcDbLine
 62
7
  6
BYLAYER
 10
25.4487646724
 20
94.8352823395
 11
24.7416608352
 21
94.4270381857
  0
LINE
  5
24C
100
AcDbEntity
  8
0
100
AcDbLine
 62
7
  6
BYLAYER
 10
18.4191193541
 20
90.6811483083
 11
23.0152942959
 21
93.3347353085
  0
LINE
  5
24D
100
AcDbEntity
  8
0
100
AcDbLine
 62
7
  6
BYLAYER
 10
24.991659716
 20
94.4022760462
 11
25.6987635532
 21
94.8105202
  0
LINE
  5
24E
100
AcDbEntity
  8
0
100
AcDbLine
 62
7
  6
BYLAYER
 10
23.181798722
 20
93.3491488323
 11
24.8184387142
 21
94.294057732
  0
LINE
  5
24F
100
AcDbEntity
  8
0
100
AcDbLine
 62
7
  6
BYLAYER
 10
18.7690786427
 20
90.6464700485
 11
23.3652522901
 21
93.3000577959
  0
LINE
  5
250
100
AcDbEntity
  8
0
100
AcDbLine
 62
7
  6
BYLAYER
 10
23.4360329047
 20
93.2591926513
 11
25.1684371473
 21
94.2593907367
  0
LINE
  5
251
100
AcDbEntity
  8
0
100
AcDbLine
 62
7
  6
BYLAYER
 10
27.2949811228
 20
93.8889644049
 11
27.7343071184
 21
94.1426078727
  0
LINE
  5
252
100
AcDbEntity
  8
0
100
AcDbLine
 62
7
  6
BYLAYER
 10
34.1009596294
 20
80.0245188635
 11
31.3079183212
 21
80.7728729671
  0
LINE
  5
253
100
AcDbEntity
  8
0
100
AcDbLine
 62
7
  6
BYLAYER
 10
31.7321806235
 20
81.0178194595
 11
34.5252219317
 21
80.2694653558
  0
LINE
  5
254
100
AcDbEntity
  8
0
100
AcDbLine
 62
7
  6
BYLAYER
 10
23.3652631748
 20
93.3000506496
 11
41.4673910113
 21
82.8490187086
  0
LINE
  5
255
100
AcDbEntity
  8
0
100
AcDbLine
 62
7
  6
BYLAYER
 10
20.1970272473
 20
88.4677632244
 11
19.772764945
 21
88.222816732
  0
LINE
  5
256
100
AcDbEntity
  8
0
100
AcDbLine
 62
7
  6
BYLAYER
 10
19.0227618225
 20
87.7897898468
 11
19.4470241248
 21
88.0347363392
  0
LINE
  5
257
100
AcDbEntity
  8
0
100
AcDbLine
 62
7
  6
BYLAYER
 10
18.9384019583
 20
87.3322717512
 11
15.5443035397
 21
85.3726998126
  0
LINE
  5
258
100
AcDbEntity
  8
0
100
AcDbLine
 62
7
  6
BYLAYER
 10
20.2306733124
 20
87.8474207488
 11
19.3896363361
 21
87.3618507226
  0
LINE
  5
259
100
AcDbEntity
  8
0
100
AcDbLine
 62
7
  6
BYLAYER
 10
20.6908189819
 20
87.7666920248
 11
21.1150812842
 21
88.0116385172
  0
LINE
  5
25A
100
AcDbEntity
  8
0
100
AcDbLine
 62
7
  6
BYLAYER
 10
21.5416477461
 20
85.6020907533
 11
20.6896320862
 21
85.110182219
  0
LINE
  5
25B
100
AcDbEntity
  8
0
100
AcDbLine
 62
7
  6
BYLAYER
 10
19.1604640247
 20
87.5512839603
 11
19.5905277476
 21
87.7861821532
  0
LINE
  5
25C
100
AcDbEntity
  8
0
100
AcDbLine
 62
7
  6
BYLAYER
 10
43.1997351385
 20
83.8492514964
 11
25.1684371473
 21
94.2593907367
  0
LINE
  5
25D
100
AcDbEntity
  8
0
100
AcDbLine
 62
7
  6
BYLAYER
 10
24.991659716
 20
94.4022760462
 11
43.3765125698
 21
83.7880164286
  0
LINE
  5
25E
100
AcDbEntity
  8
0
100
AcDbLine
 62
7
  6
BYLAYER
 10
25.6987635532
 20
94.8105202
 11
44.083616407
 21
84.1962605825
  0
LINE
  5
25F
100
AcDbEntity
  8
0
100
AcDbLine
 62
7
  6
BYLAYER
 10
18.3899842584
 20
80.7448759722
 11
21.8998968723
 21
82.8726177726
  0
LINE
  5
260
100
AcDbEntity
  8
0
100
AcDbLine
 62
7
  6
BYLAYER
 10
21.9630708267
 20
82.9099970377
 11
21.8998968723
 21
82.8726177726
  0
LINE
  5
261
100
AcDbEntity
  8
0
100
AcDbLine
 62
7
  6
BYLAYER
 10
20.438395243
 20
84.7341916628
 11
17.0442968244
 21
82.7746197242
  0
LINE
  5
262
100
AcDbEntity
  8
0
100
AcDbLine
 62
7
  6
BYLAYER
 10
23.9081225924
 20
85.5349392789
 11
23.4838602901
 21
85.2899927866
  0
LINE
  5
263
100
AcDbEntity
  8
0
100
AcDbLine
 62
7
  6
BYLAYER
 10
19.7071541261
 20
83.1094481231
 11
20.1314164284
 21
83.3543946154
  0
LINE
  5
264
100
AcDbEntity
  8
0
100
AcDbLine
 62
7
  6
BYLAYER
 10
22.6701746639
 20
83.3182411916
 11
21.9630708267
 21
82.9099970377
  0
LINE
  5
265
100
AcDbEntity
  8
0
100
AcDbLine
 62
7
  6
BYLAYER
 10
31.3079183212
 20
80.7728729671
 11
31.7321806235
 21
81.0178194595
  0
LINE
  5
266
100
AcDbEntity
  8
0
100
AcDbLine
 62
7
  6
BYLAYER
 10
42.2507052682
 20
86.3091668569
 11
114.375296664
 21
127.9500705517
  0
LINE
  5
267
100
AcDbEntity
  8
0
100
AcDbLine
 62
7
  6
BYLAYER
 10
41.4371756257
 20
85.7241493145
 11
41.8765016213
 21
85.9777927823
  0
LINE
  5
268
100
AcDbEntity
  8
0
100
AcDbLine
 62
7
  6
BYLAYER
 10
34.5252219317
 20
80.2694653558
 11
34.1009596294
 21
80.0245188635
  0
LINE
  5
269
100
AcDbEntity
  8
0
100
AcDbLine
 62
7
  6
BYLAYER
 10
33.0805964613
 20
79.1674566608
 11
29.6864980427
 21
77.2078847222
  0
LINE
  5
26A
100
AcDbEntity
  8
0
100
AcDbLine
 62
7
  6
BYLAYER
 10
16.7074911704
 20
69.714214153
 11
15.5443035397
 21
69.04265147
  0
LINE
  5
26B
100
AcDbEntity
  8
0
100
AcDbLine
 62
7
  6
BYLAYER
 10
34.3944849118
 20
79.6950862203
 11
33.5318308391
 21
79.1970356322
  0
LINE
  5
26C
100
AcDbEntity
  8
0
100
AcDbLine
 62
7
  6
BYLAYER
 10
16.9538393986
 20
69.2791805097
 11
15.5583492048
 21
68.4734694631
  0
LINE
  5
26D
100
AcDbEntity
  8
0
100
AcDbLine
 62
7
  6
BYLAYER
 10
26.534652902
 20
74.8107765887
 11
22.342306348
 21
72.3903022701
  0
LINE
  5
26E
100
AcDbEntity
  8
0
100
AcDbLine
 62
7
  6
BYLAYER
 10
34.8813114641
 20
79.341085385
 11
35.4432759686
 21
79.665536554
  0
LINE
  5
26F
100
AcDbEntity
  8
0
100
AcDbLine
 62
7
  6
BYLAYER
 10
15.7858722612
 20
68.0274793308
 11
16.8230611309
 21
68.6263190235
  0
LINE
  5
270
100
AcDbEntity
  8
0
100
AcDbLine
 62
7
  6
BYLAYER
 10
29.4586843338
 20
75.9216193121
 11
27.1159165697
 21
74.5690224257
  0
LINE
  5
271
100
AcDbEntity
  8
0
100
AcDbLine
 62
7
  6
BYLAYER
 10
43.1997351385
 20
83.8492514964
 11
36.8712256002
 21
80.1954270638
  0
LINE
  5
272
100
AcDbEntity
  8
0
100
AcDbLine
 62
7
  6
BYLAYER
 10
44.083616407
 20
84.1962605825
 11
43.3765125698
 21
83.7880164286
  0
LINE
  5
273
100
AcDbEntity
  8
0
100
AcDbLine
 62
7
  6
BYLAYER
 10
16.9730654212
 20
68.5397117326
 11
16.4381444706
 21
68.2308657593
  0
LINE
  5
274
100
AcDbEntity
  8
0
100
AcDbLine
 62
7
  6
BYLAYER
 10
16.7881459278
 20
67.624648818
 11
17.3230668784
 21
67.9334947913
  0
LINE
  5
275
100
AcDbEntity
  8
0
100
AcDbLine
 62
7
  6
BYLAYER
 10
43.7300674324
 20
83.1756448428
 11
44.4371712696
 21
83.5838889967
  0
LINE
  5
276
100
AcDbEntity
  8
0
100
AcDbLine
 62
7
  6
BYLAYER
 10
37.3661328975
 20
79.3382276365
 11
43.6947119461
 21
82.9919312763
  0
LINE
  5
277
100
AcDbEntity
  8
0
100
AcDbLine
 62
7
  6
BYLAYER
 10
17.3230632126
 20
67.7602948216
 11
16.2858742965
 21
67.1614551021
  0
LINE
  5
278
100
AcDbEntity
  8
0
100
AcDbLine
 62
7
  6
BYLAYER
 10
27.6159188632
 20
73.7029983461
 11
29.9601448769
 21
75.0564371486
  0
LINE
  5
279
100
AcDbEntity
  8
0
100
AcDbLine
 62
7
  6
BYLAYER
 10
36.1932790912
 20
78.3665002511
 11
35.6313145866
 21
78.0420490822
  0
LINE
  5
27A
100
AcDbEntity
  8
0
100
AcDbLine
 62
7
  6
BYLAYER
 10
16.5583486839
 20
66.7414183548
 11
17.9538436168
 21
67.547132011
  0
LINE
  5
27B
100
AcDbEntity
  8
0
100
AcDbLine
 62
7
  6
BYLAYER
 10
23.3423105385
 20
70.6582538195
 11
27.5346570654
 21
73.0787281849
  0
LINE
  5
27C
100
AcDbEntity
  8
0
100
AcDbLine
 62
7
  6
BYLAYER
 10
35.6838422491
 20
77.4372756629
 11
34.8318265891
 21
76.9453671286
  0
LINE
  5
27D
100
AcDbEntity
  8
0
100
AcDbLine
 62
7
  6
BYLAYER
 10
34.580589746
 20
76.5693765724
 11
31.1864913273
 21
74.6098046338
  0
LINE
  5
27E
100
AcDbEntity
  8
0
100
AcDbLine
 62
7
  6
BYLAYER
 10
18.2074299894
 20
67.116102619
 11
17.0442968244
 21
66.4445713816
  0
LINE
  5
27F
100
AcDbEntity
  8
0
100
AcDbLine
 62
7
  6
BYLAYER
 10
35.8330176482
 20
77.0245230269
 11
36.2572799505
 21
77.2694695193
  0
LINE
  5
280
100
AcDbEntity
  8
0
100
AcDbLine
 62
7
  6
BYLAYER
 10
44.4371712696
 20
80.5279943768
 11
44.8764881907
 21
80.7816326054
  0
LINE
  5
281
100
AcDbEntity
  8
0
100
AcDbLine
 62
7
  6
BYLAYER
 10
45.3506913898
 20
80.9398013408
 11
117.4752827857
 21
122.5807050357
  0
LINE
  5
282
100
AcDbEntity
  8
0
100
AcDbLine
 62
7
  6
BYLAYER
 10
35.5088867876
 20
74.4764088109
 11
35.0846244852
 21
74.2314623186
  0
LINE
  5
283
100
AcDbEntity
  8
0
100
AcDbLine
 62
7
  6
BYLAYER
 10
32.970128552
 20
65.478091251
 11
32.2630247148
 21
65.0698470972
  0
LINE
  5
284
100
AcDbEntity
  8
0
100
AcDbLine
 62
7
  6
BYLAYER
 10
35.0846244852
 20
65.1969913349
 11
35.5088867876
 21
65.4419378272
  0
LINE
  5
285
100
AcDbEntity
  8
0
100
AcDbLine
 62
7
  6
BYLAYER
 10
31.7321806235
 20
63.2613931637
 11
31.3079183212
 21
63.0164466714
  0
LINE
  5
286
100
AcDbEntity
  8
0
100
AcDbLine
 62
7
  6
BYLAYER
 10
32.1990661583
 20
65.033826811
 11
32.2630247148
 21
65.0698470972
  0
LINE
  5
287
100
AcDbEntity
  8
0
100
AcDbLine
 62
7
  6
BYLAYER
 10
28.6014211856
 20
63.0580428203
 11
32.1990661583
 21
65.033826811
  0
LINE
  5
288
100
AcDbEntity
  8
0
100
AcDbLine
 62
7
  6
BYLAYER
 10
35.2997723458
 20
60.5771234043
 11
34.8813114641
 21
60.3221286125
  0
LINE
  5
289
100
AcDbEntity
  8
0
100
AcDbLine
 62
7
  6
BYLAYER
 10
33.0805964613
 20
62.8374083182
 11
29.6864980427
 21
60.8778363796
  0
LINE
  5
28A
100
AcDbEntity
  8
0
100
AcDbLine
 62
7
  6
BYLAYER
 10
34.3716433829
 20
63.3518503936
 11
33.5318308391
 21
62.8669872896
  0
LINE
  5
28B
100
AcDbEntity
  8
0
100
AcDbLine
 62
7
  6
BYLAYER
 10
36.2572799505
 20
61.7847266804
 11
35.8330176482
 21
61.5397801881
  0
LINE
  5
28C
100
AcDbEntity
  8
0
100
AcDbLine
 62
7
  6
BYLAYER
 10
35.6989549292
 20
61.1159525782
 11
34.8318265891
 21
60.615318786
  0
LINE
  5
28D
100
AcDbEntity
  8
0
100
AcDbLine
 62
7
  6
BYLAYER
 10
34.580589746
 20
60.2393282298
 11
31.1864913273
 21
58.2797562912
  0
LINE
  5
28E
100
AcDbEntity
  8
0
100
AcDbLine
 62
7
  6
BYLAYER
 10
35.7690167888
 20
60.5166496111
 11
36.1932790912
 21
60.7615961035
  0
LINE
  5
28F
100
AcDbEntity
  8
0
100
AcDbLine
 62
7
  6
BYLAYER
 10
35.4432759686
 20
60.3285692183
 11
35.0190136663
 21
60.0836227259
  0
LINE
  5
290
100
AcDbEntity
  8
0
100
AcDbLine
 62
7
  6
BYLAYER
 10
44.4371712696
 20
64.1979460342
 11
44.8764881907
 21
64.4515842628
  0
LINE
  5
291
100
AcDbEntity
  8
0
100
AcDbLine
 62
7
  6
BYLAYER
 10
43.6947119461
 20
62.1711196395
 11
41.9623070964
 21
61.1709212035
  0
LINE
  5
292
100
AcDbEntity
  8
0
100
AcDbLine
 62
7
  6
BYLAYER
 10
41.9623078393
 20
61.0891922312
 11
37.3661328975
 21
58.4356052314
  0
LINE
  5
293
100
AcDbEntity
  8
0
100
AcDbLine
 62
7
  6
BYLAYER
 10
41.9131004208
 20
60.9057645305
 11
43.5497335716
 21
61.8506694803
  0
LINE
  5
294
100
AcDbEntity
  8
0
100
AcDbLine
 62
7
  6
BYLAYER
 10
44.4371712696
 20
62.3548261513
 11
43.7300674324
 21
61.9465819974
  0
LINE
  5
295
100
AcDbEntity
  8
0
100
AcDbLine
 62
7
  6
BYLAYER
 10
37.2211840971
 20
58.115183727
 11
41.817359039
 21
60.7687707271
  0
LINE
  5
296
100
AcDbEntity
  8
0
100
AcDbLine
 62
7
  6
BYLAYER
 10
44.3336152878
 20
62.1259331805
 11
43.6265114506
 21
61.7176890266
  0
ARC
  5
297
100
AcDbEntity
  8
0
100
AcDbCircle
 62
7
  6
BYLAYER
 10
13.403728743
 20
66.0748308841
 40
15.80307111
100
AcDbArc
 50
26.3667501077
 51
33.6559895896
  0
ARC
  5
298
100
AcDbEntity
  8
0
100
AcDbCircle
 62
7
  6
BYLAYER
 10
13.4603868658
 20
66.1076015292
 40
15.7061035429
100
AcDbArc
 50
26.3496739958
 51
33.6506014537
  0
ARC
  5
299
100
AcDbEntity
  8
0
100
AcDbCircle
 62
7
  6
BYLAYER
 10
11.9036786792
 20
65.2088409952
 40
14.8067631737
100
AcDbArc
 50
26.1276218482
 51
33.8726536013
  0
ARC
  5
29A
100
AcDbEntity
  8
0
100
AcDbCircle
 62
7
  6
BYLAYER
 10
28.4916948077
 20
74.7895161832
 40
14.3931904359
100
AcDbArc
 50
206.0287401913
 51
208.021905464
  0
ARC
  5
29B
100
AcDbEntity
  8
0
100
AcDbCircle
 62
7
  6
BYLAYER
 10
28.4738797464
 20
74.7704599331
 40
14.3682041424
100
AcDbArc
 50
211.9766407224
 51
213.973270465
  0
ARC
  5
29C
100
AcDbEntity
  8
0
100
AcDbCircle
 62
7
  6
BYLAYER
 10
12.1060894414
 20
65.3257021962
 40
13.9513955843
100
AcDbArc
 50
25.8897995179
 51
34.1104759286
  0
ARC
  5
29D
100
AcDbEntity
  8
0
100
AcDbCircle
 62
7
  6
BYLAYER
 10
28.1349663401
 20
74.5758786219
 40
13.8856737011
100
AcDbArc
 50
212.0492480658
 51
214.1154732554
  0
ARC
  5
29E
100
AcDbEntity
  8
0
100
AcDbCircle
 62
7
  6
BYLAYER
 10
28.1076686016
 20
74.569864994
 40
13.8589920771
100
AcDbArc
 50
205.8828151808
 51
207.9530210741
  0
ARC
  5
29F
100
AcDbEntity
  8
0
100
AcDbCircle
 62
7
  6
BYLAYER
 10
18.7219080114
 20
71.8984586562
 40
9.6737309702
100
AcDbArc
 50
59.6875833919
 51
60.0003146063
  0
ARC
  5
2A0
100
AcDbEntity
  8
0
100
AcDbCircle
 62
7
  6
BYLAYER
 10
18.5829934206
 20
71.8002181088
 40
9.610348294
100
AcDbArc
 50
59.6875833919
 51
60.0003146063
  0
ARC
  5
2A1
100
AcDbEntity
  8
0
100
AcDbCircle
 62
7
  6
BYLAYER
 10
18.1468152216
 20
71.3837567028
 40
9.0936737891
100
AcDbArc
 50
59.5386894598
 51
60.0000242119
  0
ARC
  5
2A2
100
AcDbEntity
  8
0
100
AcDbCircle
 62
7
  6
BYLAYER
 10
25.8145804115
 20
67.9040882482
 40
5.2146223871
100
AcDbArc
 50
261.6296242142
 51
262.2376803842
  0
ARC
  5
2A3
100
AcDbEntity
  8
0
100
AcDbCircle
 62
7
  6
BYLAYER
 10
21.1874909293
 20
75.9107344885
 40
5.2083136786
100
AcDbArc
 50
157.7618222238
 51
158.2719458138
  0
ARC
  5
2A4
100
AcDbEntity
  8
0
100
AcDbCircle
 62
7
  6
BYLAYER
 10
23.7803455058
 20
81.4020471839
 40
4.1146834472
100
AcDbArc
 50
126.2295984924
 51
126.7232555863
  0
ARC
  5
2A5
100
AcDbEntity
  8
0
100
AcDbCircle
 62
7
  6
BYLAYER
 10
31.8657563559
 20
67.3976185616
 40
4.1146708014
100
AcDbArc
 50
293.2765267955
 51
293.7718061465
  0
ARC
  5
2A6
100
AcDbEntity
  8
0
100
AcDbCircle
 62
7
  6
BYLAYER
 10
23.7692714785
 20
81.4173132395
 40
4.0958240078
100
AcDbArc
 50
123.4490848545
 51
126.2308527451
  0
ARC
  5
2A7
100
AcDbEntity
  8
0
100
AcDbCircle
 62
7
  6
BYLAYER
 10
31.8734392493
 20
67.3803977331
 40
4.095814085
100
AcDbArc
 50
293.7705550925
 51
296.5496723515
  0
ARC
  5
2A8
100
AcDbEntity
  8
0
100
AcDbCircle
 62
7
  6
BYLAYER
 10
26.6441808203
 20
66.409486052
 40
3.8289582758
100
AcDbArc
 50
278.872090966
 51
280.5332013666
  0
ARC
  5
2A9
100
AcDbEntity
  8
0
100
AcDbCircle
 62
7
  6
BYLAYER
 10
25.4668360258
 20
66.3593406612
 40
3.3678359735
100
AcDbArc
 50
279.5101584872
 51
285.1402940122
  0
ARC
  5
2AA
100
AcDbEntity
  8
0
100
AcDbCircle
 62
7
  6
BYLAYER
 10
25.5042403607
 20
66.2135602532
 40
3.2173469321
100
AcDbArc
 50
285.1753663318
 51
289.1423317863
  0
ARC
  5
2AB
100
AcDbEntity
  8
0
100
AcDbCircle
 62
7
  6
BYLAYER
 10
18.8040852699
 20
68.8836778491
 40
3.1153513689
100
AcDbArc
 50
9.4862653818
 51
9.7972738412
  0
ARC
  5
2AC
100
AcDbEntity
  8
0
100
AcDbCircle
 62
7
  6
BYLAYER
 10
25.5378756046
 20
66.103774087
 40
3.0486637402
100
AcDbArc
 50
289.084088942
 51
310.917329743
  0
ARC
  5
2AD
100
AcDbEntity
  8
0
100
AcDbCircle
 62
7
  6
BYLAYER
 10
19.4958700531
 20
76.5688960475
 40
3.0486637402
100
AcDbArc
 50
109.084088942
 51
130.9173297429
  0
ARC
  5
2AE
100
AcDbEntity
  8
0
100
AcDbCircle
 62
7
  6
BYLAYER
 10
17.5923937401
 20
75.0700253774
 40
2.8771508734
100
AcDbArc
 50
108.4245894762
 51
131.5768292088
  0
ARC
  5
2AF
100
AcDbEntity
  8
0
100
AcDbCircle
 62
7
  6
BYLAYER
 10
23.2880727527
 20
65.2047622267
 40
2.8771508734
100
AcDbArc
 50
288.4245894762
 51
311.5768292088
  0
ARC
  5
2B0
100
AcDbEntity
  8
0
100
AcDbCircle
 62
7
  6
BYLAYER
 10
20.6063435451
 20
87.2228389379
 40
1.6956527305
100
AcDbArc
 50
176.1875688837
 51
176.6538401254
  0
ARC
  5
2B1
100
AcDbEntity
  8
0
100
AcDbCircle
 62
7
  6
BYLAYER
 10
35.3144514415
 20
61.7276868434
 40
1.6835812396
100
AcDbArc
 50
243.5818097911
 51
243.9266631202
  0
ARC
  5
2B2
100
AcDbEntity
  8
0
100
AcDbCircle
 62
7
  6
BYLAYER
 10
15.5582434754
 20
67.6946196501
 40
1.4711243398
100
AcDbArc
 50
57.6569760321
 51
59.9777571777
  0
ARC
  5
2B3
100
AcDbEntity
  8
0
100
AcDbCircle
 62
7
  6
BYLAYER
 10
44.8313781017
 20
81.8399625713
 40
1.0392008603
100
AcDbArc
 50
293.9994378155
 51
299.9811373271
  0
ARC
  5
2B4
100
AcDbEntity
  8
0
100
AcDbCircle
 62
7
  6
BYLAYER
 10
42.767577263
 20
85.4136299685
 40
1.0339753696
100
AcDbArc
 50
119.9920109713
 51
124.8671748869
  0
ARC
  5
2B5
100
AcDbEntity
  8
0
100
AcDbCircle
 62
7
  6
BYLAYER
 10
41.7009793648
 20
60.9703201446
 40
0.2327332597
100
AcDbArc
 50
300.003211671
 51
303.7913049585
  0
ARC
  5
2B6
100
AcDbEntity
  8
0
100
AcDbCircle
 62
7
  6
BYLAYER
 10
16.3082408403
 20
68.1558654471
 40
0.15
100
AcDbArc
 50
30.0001377247
 51
119.9974944231
  0
ARC
  5
2B7
100
AcDbEntity
  8
0
100
AcDbCircle
 62
7
  6
BYLAYER
 10
16.6582422975
 20
67.5496485058
 40
0.15
100
AcDbArc
 50
300.0027808079
 51
30.0001377247
  0
SPLINE
  5
2B8
100
AcDbEntity
  8
0
100
AcDbSpline
 62
7
  6
BYLAYER
 70
0
 71
3
 72
13
 73
9
 74
0
 42
0.0000001
 43
0.0000001
 44
0.0000000001
 40
0.0
 40
0.0
 40
0.0
 40
0.0
 40
0.1081142374
 40
0.2182653865
 40
0.4511637281
 40
0.5772047018
 40
0.7105496401
 40
1.0
 40
1.0
 40
1.0
 40
1.0
 10
15.5443035397
 20
69.0426514701
 30
0.0
 10
15.5197099922
 20
69.0284521345
 30
0.0
 10
15.4724302917
 20
68.9954391255
 30
0.0
 10
15.3876053461
 20
68.9120340918
 30
0.0
 10
15.3220747982
 20
68.8052193388
 30
0.0
 10
15.276846524
 20
68.6838882353
 30
0.0
 10
15.2424923676
 20
68.5435796764
 30
0.0
 10
15.2336350443
 20
68.431992119
 30
0.0
 10
15.2336355944
 20
68.3559623591
 30
0.0
  0
SPLINE
  5
2B9
100
AcDbEntity
  8
0
100
AcDbSpline
 62
7
  6
BYLAYER
 70
0
 71
3
 72
15
 73
11
 74
0
 42
0.0000001
 43
0.0000001
 44
0.0000000001
 40
0.0
 40
0.0
 40
0.0
 40
0.0
 40
0.114152781
 40
0.2373221433
 40
0.366970794
 40
0.4999933359
 40
0.6330172808
 40
0.7626664617
 40
0.8858478475
 40
1.0
 40
1.0
 40
1.0
 40
1.0
 10
15.2336435899
 20
68.1926628032
 30
0.0
 10
15.2336440294
 20
68.1200002656
 30
0.0
 10
15.2469536779
 20
67.9687948305
 30
0.0
 10
15.3000094412
 20
67.7406832245
 30
0.0
 10
15.3850039943
 20
67.509623685
 30
0.0
 10
15.4987571438
 20
67.2843016936
 30
0.0
 10
15.6370148174
 20
67.0731273631
 30
0.0
 10
15.7946214543
 20
66.883978668
 30
0.0
 10
15.9656535489
 20
66.7239740334
 30
0.0
 10
16.0899518017
 20
66.6368399051
 30
0.0
 10
16.1528794146
 20
66.6005094528
 30
0.0
  0
SPLINE
  5
2BA
100
AcDbEntity
  8
0
100
AcDbSpline
 62
7
  6
BYLAYER
 70
0
 71
3
 72
12
 73
8
 74
0
 42
0.0000001
 43
0.0000001
 44
0.0000000001
 40
0.0
 40
0.0
 40
0.0
 40
0.0
 40
0.2895787201
 40
0.5486316933
 40
0.7816350898
 40
0.8918372065
 40
1.0
 40
1.0
 40
1.0
 40
1.0
 10
16.2943001821
 20
66.5188578001
 30
0.0
 10
16.3601413161
 20
66.4808452636
 30
0.0
 10
16.4910893969
 20
66.4185444708
 30
0.0
 10
16.692215434
 20
66.3699188322
 30
0.0
 10
16.8528215081
 20
66.3741750945
 30
0.0
 10
16.9674791773
 20
66.4059340379
 30
0.0
 10
17.0197042367
 20
66.4303726001
 30
0.0
 10
17.0442968244
 20
66.4445713815
 30
0.0
  0
SPLINE
  5
2BB
100
AcDbEntity
  8
0
100
AcDbSpline
 62
7
  6
BYLAYER
 70
0
 71
3
 72
9
 73
5
 74
0
 42
0.0000001
 43
0.0000001
 44
0.0000000001
 40
0.0
 40
0.0
 40
0.0
 40
0.0
 40
0.2579356538
 40
1.0
 40
1.0
 40
1.0
 40
1.0
 10
16.1528794146
 20
66.6005094528
 30
0.0
 10
16.1651651825
 20
66.5934164218
 30
0.0
 10
16.2132703468
 20
66.5667546882
 30
0.0
 10
16.263308415
 20
66.5435164404
 30
0.0
 10
16.3013509798
 20
66.5287356747
 30
0.0
  0
SPLINE
  5
2BC
100
AcDbEntity
  8
0
100
AcDbSpline
 62
7
  6
BYLAYER
 70
0
 71
3
 72
15
 73
11
 74
0
 42
0.0000001
 43
0.0000001
 44
0.0000000001
 40
0.0
 40
0.0
 40
0.0
 40
0.0
 40
0.138177266
 40
0.2640239705
 40
0.3805416289
 40
0.4924600284
 40
0.6056260697
 40
0.7255684108
 40
0.856317515
 40
1.0
 40
1.0
 40
1.0
 40
1.0
 10
16.3013509798
 20
66.5287356747
 30
0.0
 10
16.3487309344
 20
66.5103270313
 30
0.0
 10
16.4423974281
 20
66.4823108037
 30
0.0
 10
16.582981973
 20
66.4700562333
 30
0.0
 10
16.7132013197
 20
66.4907698067
 30
0.0
 10
16.828564817
 20
66.5448770995
 30
0.0
 10
16.9244764733
 20
66.6305616367
 30
0.0
 10
16.997898022
 20
66.7441241364
 30
0.0
 10
17.0475230985
 20
66.8815090156
 30
0.0
 10
17.0636112251
 20
66.9817465349
 30
0.0
 10
17.0680995868
 20
67.0344112793
 30
0.0
  0
SPLINE
  5
2BD
100
AcDbEntity
  8
0
100
AcDbSpline
 62
7
  6
BYLAYER
 70
0
 71
3
 72
15
 73
11
 74
0
 42
0.0000001
 43
0.0000001
 44
0.0000000001
 40
0.0
 40
0.0
 40
0.0
 40
0.0
 40
0.1434268474
 40
0.2739008401
 40
0.3936883908
 40
0.5068334068
 40
0.6188577593
 40
0.7355614727
 40
0.8616475925
 40
1.0
 40
1.0
 40
1.0
 40
1.0
 10
16.0620736277
 20
68.7706377545
 30
0.0
 10
16.0143700073
 20
68.7927080914
 30
0.0
 10
15.9198726754
 20
68.8282029109
 30
0.0
 10
15.7767165604
 20
68.852914508
 30
0.0
 10
15.6423801674
 20
68.8452835838
 30
0.0
 10
15.5209695996
 20
68.8044478164
 30
0.0
 10
15.4171628131
 20
68.7312411236
 30
0.0
 10
15.3347238261
 20
68.6287430183
 30
0.0
 10
15.2755482759
 20
68.5009868057
 30
0.0
 10
15.2531970864
 20
68.4060423238
 30
0.0
 10
15.2455236967
 20
68.3559242488
 30
0.0
  0
SPLINE
  5
2BE
100
AcDbEntity
  8
0
100
AcDbSpline
 62
7
  6
BYLAYER
 70
0
 71
3
 72
9
 73
5
 74
0
 42
0.0000001
 43
0.0000001
 44
0.0000000001
 40
0.0
 40
0.0
 40
0.0
 40
0.0
 40
0.2419718772
 40
1.0
 40
1.0
 40
1.0
 40
1.0
 10
15.2455236967
 20
68.3559242488
 30
0.0
 10
15.2435244097
 20
68.3428660801
 30
0.0
 10
15.2363909596
 20
68.288729821
 30
0.0
 10
15.2336433396
 20
68.2340469698
 30
0.0
 10
15.2336435899
 20
68.1926628032
 30
0.0
  0
SPLINE
  5
2BF
100
AcDbEntity
  8
0
100
AcDbSpline
 62
7
  6
BYLAYER
 70
0
 71
3
 72
12
 73
8
 74
0
 42
0.0000001
 43
0.0000001
 44
0.0000000001
 40
0.0
 40
0.0
 40
0.0
 40
0.0
 40
0.2895787201
 40
0.5486316933
 40
0.7816350898
 40
0.8918372065
 40
1.0
 40
1.0
 40
1.0
 40
1.0
 10
16.2943001821
 20
68.9683650515
 30
0.0
 10
16.228459048
 20
69.006377588
 30
0.0
 10
16.0975109672
 20
69.0686783808
 30
0.0
 10
15.8963849301
 20
69.1173040195
 30
0.0
 10
15.735778856
 20
69.1130477571
 30
0.0
 10
15.6211211868
 20
69.0812888137
 30
0.0
 10
15.5688961274
 20
69.0568502516
 30
0.0
 10
15.5443035397
 20
69.0426514701
 30
0.0
  0
SPLINE
  5
2C0
100
AcDbEntity
  8
0
100
AcDbSpline
 62
7
  6
BYLAYER
 70
0
 71
3
 72
14
 73
10
 74
0
 42
0.0000001
 43
0.0000001
 44
0.0000000001
 40
0.0
 40
0.0
 40
0.0
 40
0.0
 40
0.1066451422
 40
0.2155472225
 40
0.3287412306
 40
0.4478588162
 40
0.574081003
 40
0.7081053332
 40
1.0
 40
1.0
 40
1.0
 40
1.0
 10
17.0442968244
 20
66.4445713815
 30
0.0
 10
17.070404951
 20
66.4596451749
 30
0.0
 10
17.1205001516
 20
66.4950138188
 30
0.0
 10
17.1860453928
 20
66.5615140543
 30
0.0
 10
17.2416091499
 20
66.6408696014
 30
0.0
 10
17.286670601
 20
66.7320387036
 30
0.0
 10
17.3208162717
 20
66.83401752
 30
0.0
 10
17.3523170136
 20
66.9871724845
 30
0.0
 10
17.3570972354
 20
67.1084855151
 30
0.0
 10
17.353732333
 20
67.1909317108
 30
0.0
  0
SPLINE
  5
2C1
100
AcDbEntity
  8
0
100
AcDbSpline
 62
7
  6
BYLAYER
 70
0
 71
3
 72
13
 73
9
 74
0
 42
0.0000001
 43
0.0000001
 44
0.0000000001
 40
0.0
 40
0.0
 40
0.0
 40
0.0
 40
0.1081142374
 40
0.2182653865
 40
0.4511637281
 40
0.5772047018
 40
0.7105496401
 40
1.0
 40
1.0
 40
1.0
 40
1.0
 10
15.5443035397
 20
85.3726998127
 30
0.0
 10
15.5197099922
 20
85.3585004771
 30
0.0
 10
15.4724302917
 20
85.325487468
 30
0.0
 10
15.3876053461
 20
85.2420824344
 30
0.0
 10
15.3220747982
 20
85.1352676814
 30
0.0
 10
15.276846524
 20
85.0139365779
 30
0.0
 10
15.2424923676
 20
84.873628019
 30
0.0
 10
15.2336350443
 20
84.7620404616
 30
0.0
 10
15.2336355944
 20
84.6860107016
 30
0.0
  0
SPLINE
  5
2C2
100
AcDbEntity
  8
0
100
AcDbSpline
 62
7
  6
BYLAYER
 70
0
 71
3
 72
12
 73
8
 74
0
 42
0.0000001
 43
0.0000001
 44
0.0000000001
 40
0.0
 40
0.0
 40
0.0
 40
0.0
 40
0.1081627935
 40
0.2183649102
 40
0.4513683067
 40
0.7104212799
 40
1.0
 40
1.0
 40
1.0
 40
1.0
 10
18.9384019583
 20
87.3322717513
 30
0.0
 10
18.962994546
 20
87.3464705328
 30
0.0
 10
19.0152196054
 20
87.3709090949
 30
0.0
 10
19.1298772746
 20
87.4026680383
 30
0.0
 10
19.2904833487
 20
87.4069243007
 30
0.0
 10
19.4916093858
 20
87.358298662
 30
0.0
 10
19.6225574666
 20
87.2959978692
 30
0.0
 10
19.6883986007
 20
87.2579853327
 30
0.0
  0
SPLINE
  5
2C3
100
AcDbEntity
  8
0
100
AcDbSpline
 62
7
  6
BYLAYER
 70
0
 71
3
 72
14
 73
10
 74
0
 42
0.0000001
 43
0.0000001
 44
0.0000000001
 40
0.0
 40
0.0
 40
0.0
 40
0.0
 40
0.1108549636
 40
0.2280740567
 40
0.3506925039
 40
0.4775818326
 40
0.6074168533
 40
0.7387795698
 40
1.0
 40
1.0
 40
1.0
 40
1.0
 10
29.2343004031
 20
93.9940350357
 30
0.0
 10
29.329175661
 20
93.9392600191
 30
0.0
 10
29.5179584623
 20
93.8152022256
 30
0.0
 10
29.7876940188
 20
93.5968419198
 30
0.0
 10
30.0481413649
 20
93.3441643209
 30
0.0
 10
30.2949400406
 20
93.0614602632
 30
0.0
 10
30.524026973
 20
92.7533554153
 30
0.0
 10
30.800025846
 20
92.3166859802
 30
0.0
 10
30.9704959615
 20
91.965975642
 30
0.0
 10
31.0647818008
 20
91.7256601702
 30
0.0
  0
SPLINE
  5
2C4
100
AcDbEntity
  8
0
100
AcDbSpline
 62
7
  6
BYLAYER
 70
0
 71
3
 72
15
 73
11
 74
0
 42
0.0000001
 43
0.0000001
 44
0.0000000001
 40
0.0
 40
0.0
 40
0.0
 40
0.0
 40
0.114152781
 40
0.2373221433
 40
0.366970794
 40
0.4999933359
 40
0.6330172808
 40
0.7626664617
 40
0.8858478475
 40
1.0
 40
1.0
 40
1.0
 40
1.0
 10
15.2336435899
 20
84.5227111458
 30
0.0
 10
15.2336440294
 20
84.4500486082
 30
0.0
 10
15.2469536779
 20
84.2988431731
 30
0.0
 10
15.3000094412
 20
84.0707315671
 30
0.0
 10
15.3850039943
 20
83.8396720276
 30
0.0
 10
15.4987571438
 20
83.6143500362
 30
0.0
 10
15.6370148174
 20
83.4031757057
 30
0.0
 10
15.7946214543
 20
83.2140270106
 30
0.0
 10
15.9656535489
 20
83.054022376
 30
0.0
 10
16.0899518017
 20
82.9668882477
 30
0.0
 10
16.1528794146
 20
82.9305577954
 30
0.0
  0
SPLINE
  5
2C5
100
AcDbEntity
  8
0
100
AcDbSpline
 62
7
  6
BYLAYER
 70
0
 71
3
 72
12
 73
8
 74
0
 42
0.0000001
 43
0.0000001
 44
0.0000000001
 40
0.0
 40
0.0
 40
0.0
 40
0.0
 40
0.2895787201
 40
0.5486316933
 40
0.7816350898
 40
0.8918372065
 40
1.0
 40
1.0
 40
1.0
 40
1.0
 10
16.2943001821
 20
82.8489061427
 30
0.0
 10
16.3601413161
 20
82.8108936062
 30
0.0
 10
16.4910893969
 20
82.7485928134
 30
0.0
 10
16.692215434
 20
82.6999671748
 30
0.0
 10
16.8528215081
 20
82.7042234371
 30
0.0
 10
16.9674791773
 20
82.7359823805
 30
0.0
 10
17.0197042367
 20
82.7604209426
 30
0.0
 10
17.0442968244
 20
82.7746197241
 30
0.0
  0
SPLINE
  5
2C6
100
AcDbEntity
  8
0
100
AcDbSpline
 62
7
  6
BYLAYER
 70
0
 71
3
 72
14
 73
10
 74
0
 42
0.0000001
 43
0.0000001
 44
0.0000000001
 40
0.0
 40
0.0
 40
0.0
 40
0.0
 40
0.1080480577
 40
0.2181318654
 40
0.3321061645
 40
0.4515062392
 40
0.5774601266
 40
0.7107189811
 40
1.0
 40
1.0
 40
1.0
 40
1.0
 10
27.7343082184
 20
94.1426059674
 30
0.0
 10
27.7834938695
 20
94.1710031447
 30
0.0
 10
27.8879261674
 20
94.2198995161
 30
0.0
 10
28.056895621
 20
94.2666288676
 30
0.0
 10
28.2370265643
 20
94.2867252771
 30
0.0
 10
28.4263867475
 20
94.2801270181
 30
0.0
 10
28.6231834708
 20
94.2471274471
 30
0.0
 10
28.9004419923
 20
94.1662839629
 30
0.0
 10
29.1026133136
 20
94.0700628922
 30
0.0
 10
29.2343004031
 20
93.9940350357
 30
0.0
  0
SPLINE
  5
2C7
100
AcDbEntity
  8
0
100
AcDbSpline
 62
7
  6
BYLAYER
 70
0
 71
3
 72
13
 73
9
 74
0
 42
0.0000001
 43
0.0000001
 44
0.0000000001
 40
0.0
 40
0.0
 40
0.0
 40
0.0
 40
0.2894503599
 40
0.4227952982
 40
0.5488362719
 40
0.7817346135
 40
0.8918857626
 40
1.0
 40
1.0
 40
1.0
 40
1.0
 10
20.7490631884
 20
85.4208807738
 30
0.0
 10
20.7490637384
 20
85.3448510139
 30
0.0
 10
20.7402064152
 20
85.2332634564
 30
0.0
 10
20.7058522587
 20
85.0929548975
 30
0.0
 10
20.6606239845
 20
84.9716237941
 30
0.0
 10
20.5950934366
 20
84.864809041
 30
0.0
 10
20.510268491
 20
84.7814040074
 30
0.0
 10
20.4629887905
 20
84.7483909983
 30
0.0
 10
20.4383952431
 20
84.7341916627
 30
0.0
  0
SPLINE
  5
2C8
100
AcDbEntity
  8
0
100
AcDbSpline
 62
7
  6
BYLAYER
 70
0
 71
3
 72
9
 73
5
 74
0
 42
0.0000001
 43
0.0000001
 44
0.0000000001
 40
0.0
 40
0.0
 40
0.0
 40
0.0
 40
0.2579356538
 40
1.0
 40
1.0
 40
1.0
 40
1.0
 10
16.1528794146
 20
82.9305577954
 30
0.0
 10
16.1651651825
 20
82.9234647644
 30
0.0
 10
16.2132703468
 20
82.8968030308
 30
0.0
 10
16.263308415
 20
82.873564783
 30
0.0
 10
16.3013509798
 20
82.8587840172
 30
0.0
  0
SPLINE
  5
2C9
100
AcDbEntity
  8
0
100
AcDbSpline
 62
7
  6
BYLAYER
 70
0
 71
3
 72
28
 73
24
 74
0
 42
0.0000001
 43
0.0000001
 44
0.0000000001
 40
0.0
 40
0.0
 40
0.0
 40
0.0
 40
0.0551566964
 40
0.1048459009
 40
0.1282052044
 40
0.1509321042
 40
0.1733920241
 40
0.1959712578
 40
0.2190457121
 40
0.2429510667
 40
0.2941898762
 40
0.3219621542
 40
0.3512480511
 40
0.3820608965
 40
0.4143571136
 40
0.4829963582
 40
0.5561562479
 40
0.6323889473
 40
0.7100110468
 40
0.7872455917
 40
0.8623344627
 40
0.9336942364
 40
1.0
 40
1.0
 40
1.0
 40
1.0
 10
16.3013509798
 20
82.8587840172
 30
0.0
 10
16.3546682094
 20
82.8380685507
 30
0.0
 10
16.459978054
 20
82.8076298408
 30
0.0
 10
16.5944910752
 20
82.8017576908
 30
0.0
 10
16.6926168128
 20
82.8192657326
 30
0.0
 10
16.7601198054
 20
82.8424890509
 30
0.0
 10
16.8223306026
 20
82.8758363409
 30
0.0
 10
16.8786086839
 20
82.9190248664
 30
0.0
 10
16.9284441206
 20
82.9715769465
 30
0.0
 10
16.9870125788
 20
83.0552933368
 30
0.0
 10
17.0292298245
 20
83.1547452429
 30
0.0
 10
17.0558570381
 20
83.2639531935
 30
0.0
 10
17.0685997661
 20
83.3543441257
 30
0.0
 10
17.0733930592
 20
83.4501544637
 30
0.0
 10
17.0691348122
 20
83.5868439975
 30
0.0
 10
17.0430647609
 20
83.7661420777
 30
0.0
 10
16.982358547
 20
83.9844810115
 30
0.0
 10
16.8936211713
 20
84.203069328
 30
0.0
 10
16.779864318
 20
84.4145167434
 30
0.0
 10
16.6449183941
 20
84.6116817074
 30
0.0
 10
16.4933279274
 20
84.7879492418
 30
0.0
 10
16.3302182307
 20
84.9373163021
 30
0.0
 10
16.212429627
 20
85.0190835266
 30
0.0
 10
16.1528794146
 20
85.0534640799
 30
0.0
  0
SPLINE
  5
2CA
100
AcDbEntity
  8
0
100
AcDbSpline
 62
7
  6
BYLAYER
 70
0
 71
3
 72
15
 73
11
 74
0
 42
0.0000001
 43
0.0000001
 44
0.0000000001
 40
0.0
 40
0.0
 40
0.0
 40
0.0
 40
0.1485214471
 40
0.2830261085
 40
0.4048962736
 40
0.5179158326
 40
0.6278839583
 40
0.741465523
 40
0.8643281266
 40
1.0
 40
1.0
 40
1.0
 40
1.0
 10
16.1528794146
 20
85.0534640799
 30
0.0
 10
16.101374
 20
85.0832000722
 30
0.0
 10
15.9988666067
 20
85.1329250457
 30
0.0
 10
15.841552458
 20
85.1763631042
 30
0.0
 10
15.6922558122
 20
85.1830207146
 30
0.0
 10
15.5558080986
 20
85.1513077595
 30
0.0
 10
15.4381320926
 20
85.0812034086
 30
0.0
 10
15.3446784226
 20
84.9760486118
 30
0.0
 10
15.2782108731
 20
84.8410785917
 30
0.0
 10
15.2537457788
 20
84.7396744027
 30
0.0
 10
15.2455236967
 20
84.6859725914
 30
0.0
  0
SPLINE
  5
2CB
100
AcDbEntity
  8
0
100
AcDbSpline
 62
7
  6
BYLAYER
 70
0
 71
3
 72
9
 73
5
 74
0
 42
0.0000001
 43
0.0000001
 44
0.0000000001
 40
0.0
 40
0.0
 40
0.0
 40
0.0
 40
0.2419718772
 40
1.0
 40
1.0
 40
1.0
 40
1.0
 10
15.2455236967
 20
84.6859725914
 30
0.0
 10
15.2435244097
 20
84.6729144227
 30
0.0
 10
15.2363909596
 20
84.6187781636
 30
0.0
 10
15.2336433396
 20
84.5640953124
 30
0.0
 10
15.2336435899
 20
84.5227111458
 30
0.0
  0
SPLINE
  5
2CC
100
AcDbEntity
  8
0
100
AcDbSpline
 62
7
  6
BYLAYER
 70
0
 71
3
 72
12
 73
8
 74
0
 42
0.0000001
 43
0.0000001
 44
0.0000000001
 40
0.0
 40
0.0
 40
0.0
 40
0.0
 40
0.2895787201
 40
0.5486316933
 40
0.7816350898
 40
0.8918372065
 40
1.0
 40
1.0
 40
1.0
 40
1.0
 10
16.2943001821
 20
85.2984133941
 30
0.0
 10
16.228459048
 20
85.3364259306
 30
0.0
 10
16.0975109672
 20
85.3987267234
 30
0.0
 10
15.8963849301
 20
85.4473523621
 30
0.0
 10
15.735778856
 20
85.4430960997
 30
0.0
 10
15.6211211868
 20
85.4113371563
 30
0.0
 10
15.5688961274
 20
85.3868985942
 30
0.0
 10
15.5443035397
 20
85.3726998127
 30
0.0
  0
SPLINE
  5
2CD
100
AcDbEntity
  8
0
100
AcDbSpline
 62
7
  6
BYLAYER
 70
0
 71
3
 72
21
 73
17
 74
0
 42
0.0000001
 43
0.0000001
 44
0.0000000001
 40
0.0
 40
0.0
 40
0.0
 40
0.0
 40
0.0428265368
 40
0.0874210446
 40
0.1352168486
 40
0.1871402706
 40
0.2436032725
 40
0.3045779987
 40
0.3696937216
 40
0.4383208458
 40
0.5825532947
 40
0.729592089
 40
0.8016010569
 40
0.8712166638
 40
0.9375998888
 40
1.0
 40
1.0
 40
1.0
 40
1.0
 10
17.0442968244
 20
82.7746197241
 30
0.0
 10
17.0812780972
 20
82.7959712394
 30
0.0
 10
17.151378943
 20
82.8496305823
 30
0.0
 10
17.235738869
 20
82.9563080269
 30
0.0
 10
17.2987805771
 20
83.0867664476
 30
0.0
 10
17.339602541
 20
83.2378251103
 30
0.0
 10
17.3577718061
 20
83.40630072
 30
0.0
 10
17.3531257387
 20
83.5887235959
 30
0.0
 10
17.3258673383
 20
83.7813446458
 30
0.0
 10
17.2590547979
 20
84.0507502791
 30
0.0
 10
17.1237760844
 20
84.3852895846
 30
0.0
 10
16.9331714787
 20
84.6954413672
 30
0.0
 10
16.7517998721
 20
84.9193536905
 30
0.0
 10
16.606864232
 20
85.0681719123
 30
0.0
 10
16.4552445921
 20
85.1957474219
 30
0.0
 10
16.348184028
 20
85.2673042449
 30
0.0
 10
16.2943001821
 20
85.2984133941
 30
0.0
  0
SPLINE
  5
2CE
100
AcDbEntity
  8
0
100
AcDbSpline
 62
7
  6
BYLAYER
 70
0
 71
3
 72
15
 73
11
 74
0
 42
0.0000001
 43
0.0000001
 44
0.0000000001
 40
0.0
 40
0.0
 40
0.0
 40
0.0
 40
0.1141538955
 40
0.2373248521
 40
0.3669742658
 40
0.4999983967
 40
0.6330227505
 40
0.7626728157
 40
0.8858447981
 40
1.0
 40
1.0
 40
1.0
 40
1.0
 10
19.6883986007
 20
87.2579853327
 30
0.0
 10
19.7610087806
 20
87.2160647741
 30
0.0
 10
19.9044274363
 20
87.1155315534
 30
0.0
 10
20.1017645817
 20
86.9309105486
 30
0.0
 10
20.2836223051
 20
86.7126735992
 30
0.0
 10
20.4431502116
 20
86.469007185
 30
0.0
 10
20.5744102525
 20
86.2090195827
 30
0.0
 10
20.6724833502
 20
85.9424074075
 30
0.0
 10
20.7337048837
 20
85.6791965332
 30
0.0
 10
20.7490625818
 20
85.5047242729
 30
0.0
 10
20.7490631884
 20
85.4208807738
 30
0.0
  0
SPLINE
  5
2CF
100
AcDbEntity
  8
0
100
AcDbSpline
 62
7
  6
BYLAYER
 70
0
 71
3
 72
15
 73
11
 74
0
 42
0.0000001
 43
0.0000001
 44
0.0000000001
 40
0.0
 40
0.0
 40
0.0
 40
0.0
 40
0.11415483
 40
0.237326361
 40
0.366976207
 40
0.5000000242
 40
0.6330253919
 40
0.7626721589
 40
0.8858495393
 40
1.0
 40
1.0
 40
1.0
 40
1.0
 10
20.749057365
 20
85.5841790778
 30
0.0
 10
20.7490568419
 20
85.6568430159
 30
0.0
 10
20.7357469328
 20
85.8080513588
 30
0.0
 10
20.6826892632
 20
86.036166399
 30
0.0
 10
20.597692924
 20
86.2672288124
 30
0.0
 10
20.4839365091
 20
86.4925522968
 30
0.0
 10
20.3456779332
 20
86.7037266904
 30
0.0
 10
20.1880708971
 20
86.8928713284
 30
0.0
 10
20.0170419223
 20
87.0528720883
 30
0.0
 10
19.8927461318
 20
87.140003718
 30
0.0
 10
19.8298193681
 20
87.17633368
 30
0.0
  0
SPLINE
  5
2D0
100
AcDbEntity
  8
0
100
AcDbSpline
 62
7
  6
BYLAYER
 70
0
 71
3
 72
13
 73
9
 74
0
 42
0.0000001
 43
0.0000001
 44
0.0000000001
 40
0.0
 40
0.0
 40
0.0
 40
0.0
 40
0.1081142374
 40
0.2182653865
 40
0.4511637281
 40
0.5772047018
 40
0.7105496401
 40
1.0
 40
1.0
 40
1.0
 40
1.0
 10
29.6864980426
 20
60.8778363797
 30
0.0
 10
29.6619044951
 20
60.8636370441
 30
0.0
 10
29.6146247946
 20
60.830624035
 30
0.0
 10
29.5297998491
 20
60.7472190014
 30
0.0
 10
29.4642693011
 20
60.6404042484
 30
0.0
 10
29.419041027
 20
60.5190731449
 30
0.0
 10
29.3846868705
 20
60.378764586
 30
0.0
 10
29.3758295473
 20
60.2671770286
 30
0.0
 10
29.3758300973
 20
60.1911472686
 30
0.0
  0
SPLINE
  5
2D1
100
AcDbEntity
  8
0
100
AcDbSpline
 62
7
  6
BYLAYER
 70
0
 71
3
 72
12
 73
8
 74
0
 42
0.0000001
 43
0.0000001
 44
0.0000000001
 40
0.0
 40
0.0
 40
0.0
 40
0.0
 40
0.1081627935
 40
0.2183649102
 40
0.4513683067
 40
0.7104212799
 40
1.0
 40
1.0
 40
1.0
 40
1.0
 10
33.0805964612
 20
62.8374083183
 30
0.0
 10
33.1051890489
 20
62.8516070998
 30
0.0
 10
33.1574141084
 20
62.8760456619
 30
0.0
 10
33.2720717776
 20
62.9078046053
 30
0.0
 10
33.4326778517
 20
62.9120608677
 30
0.0
 10
33.6338038887
 20
62.863435229
 30
0.0
 10
33.7647519695
 20
62.8011344362
 30
0.0
 10
33.8305931036
 20
62.7631218997
 30
0.0
  0
SPLINE
  5
2D2
100
AcDbEntity
  8
0
100
AcDbSpline
 62
7
  6
BYLAYER
 70
0
 71
3
 72
14
 73
10
 74
0
 42
0.0000001
 43
0.0000001
 44
0.0000000001
 40
0.0
 40
0.0
 40
0.0
 40
0.0
 40
0.2892819907
 40
0.4225411172
 40
0.5484950936
 40
0.667895061
 40
0.781869072
 40
0.8919524501
 40
1.0
 40
1.0
 40
1.0
 40
1.0
 10
45.4978240815
 20
65.8249420877
 30
0.0
 10
45.4978240815
 20
65.6728792102
 30
0.0
 10
45.4800699077
 20
65.4496763481
 30
0.0
 10
45.4114535045
 20
65.1691329021
 30
0.0
 10
45.3416330523
 20
64.9821965018
 30
0.0
 10
45.2526658516
 20
64.8149017866
 30
0.0
 10
45.1451942389
 20
64.6689480736
 30
0.0
 10
45.0202378383
 20
64.5459780088
 30
0.0
 10
44.9256738282
 20
64.4799839728
 30
0.0
 10
44.8764870907
 20
64.4515861681
 30
0.0
  0
SPLINE
  5
2D3
100
AcDbEntity
  8
0
100
AcDbSpline
 62
7
  6
BYLAYER
 70
0
 71
3
 72
14
 73
10
 74
0
 42
0.0000001
 43
0.0000001
 44
0.0000000001
 40
0.0
 40
0.0
 40
0.0
 40
0.0
 40
0.2612189488
 40
0.3925814029
 40
0.5224164315
 40
0.6493059927
 40
0.7719248454
 40
0.8891444587
 40
1.0
 40
1.0
 40
1.0
 40
1.0
 10
44.4485530622
 20
68.5444056062
 30
0.0
 10
44.6095337131
 20
68.3425940183
 30
0.0
 10
44.8280288273
 20
68.0196061336
 30
0.0
 10
45.0682037489
 20
67.5622460938
 30
0.0
 10
45.2204925972
 20
67.2097944602
 30
0.0
 10
45.3419274837
 20
66.8547034127
 30
0.0
 10
45.4305338605
 20
66.5028047415
 30
0.0
 10
45.4847758705
 20
66.1600203789
 30
0.0
 10
45.4978240815
 20
65.9344962744
 30
0.0
 10
45.4978240815
 20
65.8249420877
 30
0.0
  0
SPLINE
  5
2D4
100
AcDbEntity
  8
0
100
AcDbSpline
 62
7
  6
BYLAYER
 70
0
 71
3
 72
15
 73
11
 74
0
 42
0.0000001
 43
0.0000001
 44
0.0000000001
 40
0.0
 40
0.0
 40
0.0
 40
0.0
 40
0.114152781
 40
0.2373221433
 40
0.366970794
 40
0.4999933359
 40
0.6330172808
 40
0.7626664617
 40
0.8858478475
 40
1.0
 40
1.0
 40
1.0
 40
1.0
 10
29.3758380929
 20
60.0278477128
 30
0.0
 10
29.3758385323
 20
59.9551851752
 30
0.0
 10
29.3891481808
 20
59.8039797401
 30
0.0
 10
29.4422039442
 20
59.5758681341
 30
0.0
 10
29.5271984973
 20
59.3448085946
 30
0.0
 10
29.6409516468
 20
59.1194866032
 30
0.0
 10
29.7792093204
 20
58.9083122727
 30
0.0
 10
29.9368159572
 20
58.7191635776
 30
0.0
 10
30.1078480519
 20
58.559158943
 30
0.0
 10
30.2321463046
 20
58.4720248147
 30
0.0
 10
30.2950739176
 20
58.4356943624
 30
0.0
  0
SPLINE
  5
2D5
100
AcDbEntity
  8
0
100
AcDbSpline
 62
7
  6
BYLAYER
 70
0
 71
3
 72
12
 73
8
 74
0
 42
0.0000001
 43
0.0000001
 44
0.0000000001
 40
0.0
 40
0.0
 40
0.0
 40
0.0
 40
0.2895787201
 40
0.5486316933
 40
0.7816350898
 40
0.8918372065
 40
1.0
 40
1.0
 40
1.0
 40
1.0
 10
30.436494685
 20
58.3540427097
 30
0.0
 10
30.5023358191
 20
58.3160301732
 30
0.0
 10
30.6332838999
 20
58.2537293804
 30
0.0
 10
30.8344099369
 20
58.2051037418
 30
0.0
 10
30.995016011
 20
58.2093600041
 30
0.0
 10
31.1096736803
 20
58.2411189475
 30
0.0
 10
31.1618987397
 20
58.2655575097
 30
0.0
 10
31.1864913274
 20
58.2797562911
 30
0.0
  0
SPLINE
  5
2D6
100
AcDbEntity
  8
0
100
AcDbSpline
 62
7
  6
BYLAYER
 70
0
 71
3
 72
13
 73
9
 74
0
 42
0.0000001
 43
0.0000001
 44
0.0000000001
 40
0.0
 40
0.0
 40
0.0
 40
0.0
 40
0.2894503599
 40
0.4227952982
 40
0.5488362719
 40
0.7817346135
 40
0.8918857626
 40
1.0
 40
1.0
 40
1.0
 40
1.0
 10
34.8912576913
 20
60.9260173408
 30
0.0
 10
34.8912582414
 20
60.8499875809
 30
0.0
 10
34.8824009181
 20
60.7384000234
 30
0.0
 10
34.8480467617
 20
60.5980914645
 30
0.0
 10
34.8028184875
 20
60.4767603611
 30
0.0
 10
34.7372879395
 20
60.369945608
 30
0.0
 10
34.652462994
 20
60.2865405744
 30
0.0
 10
34.6051832935
 20
60.2535275654
 30
0.0
 10
34.580589746
 20
60.2393282297
 30
0.0
  0
SPLINE
  5
2D7
100
AcDbEntity
  8
0
100
AcDbSpline
 62
7
  6
BYLAYER
 70
0
 71
3
 72
9
 73
5
 74
0
 42
0.0000001
 43
0.0000001
 44
0.0000000001
 40
0.0
 40
0.0
 40
0.0
 40
0.0
 40
0.2579356538
 40
1.0
 40
1.0
 40
1.0
 40
1.0
 10
30.2950739176
 20
58.4356943624
 30
0.0
 10
30.3073596855
 20
58.4286013314
 30
0.0
 10
30.3554648497
 20
58.4019395978
 30
0.0
 10
30.4055029179
 20
58.37870135
 30
0.0
 10
30.4435454828
 20
58.3639205842
 30
0.0
  0
SPLINE
  5
2D8
100
AcDbEntity
  8
0
100
AcDbSpline
 62
7
  6
BYLAYER
 70
0
 71
3
 72
28
 73
24
 74
0
 42
0.0000001
 43
0.0000001
 44
0.0000000001
 40
0.0
 40
0.0
 40
0.0
 40
0.0
 40
0.0551566964
 40
0.1048459009
 40
0.1282052044
 40
0.1509321042
 40
0.1733920241
 40
0.1959712578
 40
0.2190457121
 40
0.2429510667
 40
0.2941898762
 40
0.3219621542
 40
0.3512480511
 40
0.3820608965
 40
0.4143571136
 40
0.4829963582
 40
0.5561562479
 40
0.6323889473
 40
0.7100110468
 40
0.7872455917
 40
0.8623344627
 40
0.9336942364
 40
1.0
 40
1.0
 40
1.0
 40
1.0
 10
30.4435454828
 20
58.3639205842
 30
0.0
 10
30.4968627124
 20
58.3432051177
 30
0.0
 10
30.602172557
 20
58.3127664078
 30
0.0
 10
30.7366855781
 20
58.3068942578
 30
0.0
 10
30.8348113157
 20
58.3244022996
 30
0.0
 10
30.9023143083
 20
58.3476256179
 30
0.0
 10
30.9645251055
 20
58.380972908
 30
0.0
 10
31.0208031868
 20
58.4241614334
 30
0.0
 10
31.0706386235
 20
58.4767135135
 30
0.0
 10
31.1292070818
 20
58.5604299038
 30
0.0
 10
31.1714243275
 20
58.6598818099
 30
0.0
 10
31.1980515411
 20
58.7690897605
 30
0.0
 10
31.210794269
 20
58.8594806927
 30
0.0
 10
31.2155875621
 20
58.9552910307
 30
0.0
 10
31.2113293152
 20
59.0919805645
 30
0.0
 10
31.1852592639
 20
59.2712786447
 30
0.0
 10
31.1245530499
 20
59.4896175785
 30
0.0
 10
31.0358156742
 20
59.708205895
 30
0.0
 10
30.922058821
 20
59.9196533104
 30
0.0
 10
30.7871128971
 20
60.1168182744
 30
0.0
 10
30.6355224304
 20
60.2930858088
 30
0.0
 10
30.4724127336
 20
60.4424528691
 30
0.0
 10
30.3546241299
 20
60.5242200936
 30
0.0
 10
30.2950739176
 20
60.5586006469
 30
0.0
  0
SPLINE
  5
2D9
100
AcDbEntity
  8
0
100
AcDbSpline
 62
7
  6
BYLAYER
 70
0
 71
3
 72
15
 73
11
 74
0
 42
0.0000001
 43
0.0000001
 44
0.0000000001
 40
0.0
 40
0.0
 40
0.0
 40
0.0
 40
0.1485214471
 40
0.2830261085
 40
0.4048962736
 40
0.5179158326
 40
0.6278839583
 40
0.741465523
 40
0.8643281266
 40
1.0
 40
1.0
 40
1.0
 40
1.0
 10
30.2950739176
 20
60.5586006469
 30
0.0
 10
30.2435685029
 20
60.5883366392
 30
0.0
 10
30.1410611096
 20
60.6380616127
 30
0.0
 10
29.9837469609
 20
60.6814996712
 30
0.0
 10
29.8344503151
 20
60.6881572816
 30
0.0
 10
29.6980026016
 20
60.6564443265
 30
0.0
 10
29.5803265956
 20
60.5863399756
 30
0.0
 10
29.4868729256
 20
60.4811851788
 30
0.0
 10
29.4204053761
 20
60.3462151587
 30
0.0
 10
29.3959402817
 20
60.2448109697
 30
0.0
 10
29.3877181997
 20
60.1911091584
 30
0.0
  0
SPLINE
  5
2DA
100
AcDbEntity
  8
0
100
AcDbSpline
 62
7
  6
BYLAYER
 70
0
 71
3
 72
9
 73
5
 74
0
 42
0.0000001
 43
0.0000001
 44
0.0000000001
 40
0.0
 40
0.0
 40
0.0
 40
0.0
 40
0.2419718772
 40
1.0
 40
1.0
 40
1.0
 40
1.0
 10
29.3877181997
 20
60.1911091584
 30
0.0
 10
29.3857189126
 20
60.1780509897
 30
0.0
 10
29.3785854625
 20
60.1239147306
 30
0.0
 10
29.3758378426
 20
60.0692318794
 30
0.0
 10
29.3758380929
 20
60.0278477128
 30
0.0
  0
SPLINE
  5
2DB
100
AcDbEntity
  8
0
100
AcDbSpline
 62
7
  6
BYLAYER
 70
0
 71
3
 72
12
 73
8
 74
0
 42
0.0000001
 43
0.0000001
 44
0.0000000001
 40
0.0
 40
0.0
 40
0.0
 40
0.0
 40
0.2895787201
 40
0.5486316933
 40
0.7816350898
 40
0.8918372065
 40
1.0
 40
1.0
 40
1.0
 40
1.0
 10
30.436494685
 20
60.8035499611
 30
0.0
 10
30.3706535509
 20
60.8415624976
 30
0.0
 10
30.2397054701
 20
60.9038632904
 30
0.0
 10
30.038579433
 20
60.9524889291
 30
0.0
 10
29.8779733589
 20
60.9482326667
 30
0.0
 10
29.7633156897
 20
60.9164737233
 30
0.0
 10
29.7110906303
 20
60.8920351612
 30
0.0
 10
29.6864980426
 20
60.8778363797
 30
0.0
  0
SPLINE
  5
2DC
100
AcDbEntity
  8
0
100
AcDbSpline
 62
7
  6
BYLAYER
 70
0
 71
3
 72
21
 73
17
 74
0
 42
0.0000001
 43
0.0000001
 44
0.0000000001
 40
0.0
 40
0.0
 40
0.0
 40
0.0
 40
0.0428265368
 40
0.0874210446
 40
0.1352168486
 40
0.1871402706
 40
0.2436032725
 40
0.3045779987
 40
0.3696937216
 40
0.4383208458
 40
0.5825532947
 40
0.729592089
 40
0.8016010569
 40
0.8712166638
 40
0.9375998888
 40
1.0
 40
1.0
 40
1.0
 40
1.0
 10
31.1864913274
 20
58.2797562911
 30
0.0
 10
31.2234726002
 20
58.3011078064
 30
0.0
 10
31.293573446
 20
58.3547671493
 30
0.0
 10
31.3779333719
 20
58.4614445939
 30
0.0
 10
31.4409750801
 20
58.5919030146
 30
0.0
 10
31.4817970439
 20
58.7429616773
 30
0.0
 10
31.499966309
 20
58.911437287
 30
0.0
 10
31.4953202417
 20
59.0938601629
 30
0.0
 10
31.4680618412
 20
59.2864812128
 30
0.0
 10
31.4012493008
 20
59.5558868461
 30
0.0
 10
31.2659705874
 20
59.8904261516
 30
0.0
 10
31.0753659817
 20
60.2005779342
 30
0.0
 10
30.893994375
 20
60.4244902575
 30
0.0
 10
30.7490587349
 20
60.5733084793
 30
0.0
 10
30.597439095
 20
60.7008839889
 30
0.0
 10
30.4903785309
 20
60.7724408119
 30
0.0
 10
30.436494685
 20
60.8035499611
 30
0.0
  0
SPLINE
  5
2DD
100
AcDbEntity
  8
0
100
AcDbSpline
 62
7
  6
BYLAYER
 70
0
 71
3
 72
15
 73
11
 74
0
 42
0.0000001
 43
0.0000001
 44
0.0000000001
 40
0.0
 40
0.0
 40
0.0
 40
0.0
 40
0.1141538955
 40
0.2373248521
 40
0.3669742658
 40
0.4999983967
 40
0.6330227505
 40
0.7626728157
 40
0.8858447981
 40
1.0
 40
1.0
 40
1.0
 40
1.0
 10
33.8305931036
 20
62.7631218997
 30
0.0
 10
33.9032032836
 20
62.7212013411
 30
0.0
 10
34.0466219393
 20
62.6206681204
 30
0.0
 10
34.2439590846
 20
62.4360471156
 30
0.0
 10
34.425816808
 20
62.2178101662
 30
0.0
 10
34.5853447145
 20
61.974143752
 30
0.0
 10
34.7166047555
 20
61.7141561497
 30
0.0
 10
34.8146778531
 20
61.4475439745
 30
0.0
 10
34.8758993866
 20
61.1843331002
 30
0.0
 10
34.8912570847
 20
61.0098608399
 30
0.0
 10
34.8912576913
 20
60.9260173408
 30
0.0
  0
SPLINE
  5
2DE
100
AcDbEntity
  8
0
100
AcDbSpline
 62
7
  6
BYLAYER
 70
0
 71
3
 72
15
 73
11
 74
0
 42
0.0000001
 43
0.0000001
 44
0.0000000001
 40
0.0
 40
0.0
 40
0.0
 40
0.0
 40
0.11415483
 40
0.237326361
 40
0.366976207
 40
0.5000000242
 40
0.6330253919
 40
0.7626721589
 40
0.8858495393
 40
1.0
 40
1.0
 40
1.0
 40
1.0
 10
34.8912518679
 20
61.0893156448
 30
0.0
 10
34.8912513449
 20
61.1619795829
 30
0.0
 10
34.8779414358
 20
61.3131879258
 30
0.0
 10
34.8248837662
 20
61.541302966
 30
0.0
 10
34.739887427
 20
61.7723653794
 30
0.0
 10
34.6261310121
 20
61.9976888638
 30
0.0
 10
34.4878724361
 20
62.2088632574
 30
0.0
 10
34.3302654001
 20
62.3980078954
 30
0.0
 10
34.1592364252
 20
62.5580086553
 30
0.0
 10
34.0349406347
 20
62.645140285
 30
0.0
 10
33.9720138711
 20
62.681470247
 30
0.0
  0
SPLINE
  5
2DF
100
AcDbEntity
  8
0
100
AcDbSpline
 62
7
  6
BYLAYER
 70
0
 71
3
 72
13
 73
9
 74
0
 42
0.0000001
 43
0.0000001
 44
0.0000000001
 40
0.0
 40
0.0
 40
0.0
 40
0.0
 40
0.1081142374
 40
0.2182653865
 40
0.4511637281
 40
0.5772047018
 40
0.7105496401
 40
1.0
 40
1.0
 40
1.0
 40
1.0
 10
29.6864980426
 20
77.2078847223
 30
0.0
 10
29.6619044951
 20
77.1936853867
 30
0.0
 10
29.6146247946
 20
77.1606723776
 30
0.0
 10
29.5297998491
 20
77.077267344
 30
0.0
 10
29.4642693011
 20
76.970452591
 30
0.0
 10
29.419041027
 20
76.8491214875
 30
0.0
 10
29.3846868705
 20
76.7088129286
 30
0.0
 10
29.3758295473
 20
76.5972253712
 30
0.0
 10
29.3758300973
 20
76.5211956112
 30
0.0
  0
SPLINE
  5
2E0
100
AcDbEntity
  8
0
100
AcDbSpline
 62
7
  6
BYLAYER
 70
0
 71
3
 72
12
 73
8
 74
0
 42
0.0000001
 43
0.0000001
 44
0.0000000001
 40
0.0
 40
0.0
 40
0.0
 40
0.0
 40
0.1081627935
 40
0.2183649102
 40
0.4513683067
 40
0.7104212799
 40
1.0
 40
1.0
 40
1.0
 40
1.0
 10
33.0805964612
 20
79.1674566609
 30
0.0
 10
33.1051890489
 20
79.1816554424
 30
0.0
 10
33.1574141084
 20
79.2060940045
 30
0.0
 10
33.2720717776
 20
79.2378529479
 30
0.0
 10
33.4326778517
 20
79.2421092103
 30
0.0
 10
33.6338038887
 20
79.1934835716
 30
0.0
 10
33.7647519695
 20
79.1311827788
 30
0.0
 10
33.8305931036
 20
79.0931702423
 30
0.0
  0
SPLINE
  5
2E1
100
AcDbEntity
  8
0
100
AcDbSpline
 62
7
  6
BYLAYER
 70
0
 71
3
 72
14
 73
10
 74
0
 42
0.0000001
 43
0.0000001
 44
0.0000000001
 40
0.0
 40
0.0
 40
0.0
 40
0.0
 40
0.2892819907
 40
0.4225411172
 40
0.5484950936
 40
0.667895061
 40
0.781869072
 40
0.8919524501
 40
1.0
 40
1.0
 40
1.0
 40
1.0
 10
45.4978240815
 20
82.1549904303
 30
0.0
 10
45.4978240815
 20
82.0029275528
 30
0.0
 10
45.4800699077
 20
81.7797246907
 30
0.0
 10
45.4114535045
 20
81.4991812447
 30
0.0
 10
45.3416330523
 20
81.3122448444
 30
0.0
 10
45.2526658516
 20
81.1449501292
 30
0.0
 10
45.1451942389
 20
80.9989964162
 30
0.0
 10
45.0202378383
 20
80.8760263514
 30
0.0
 10
44.9256738282
 20
80.8100323153
 30
0.0
 10
44.8764870907
 20
80.7816345107
 30
0.0
  0
SPLINE
  5
2E2
100
AcDbEntity
  8
0
100
AcDbSpline
 62
7
  6
BYLAYER
 70
0
 71
3
 72
15
 73
11
 74
0
 42
0.0000001
 43
0.0000001
 44
0.0000000001
 40
0.0
 40
0.0
 40
0.0
 40
0.0
 40
0.1141584997
 40
0.2373252489
 40
0.3669754739
 40
0.499998918
 40
0.6330225126
 40
0.7626731772
 40
0.8858406189
 40
1.0
 40
1.0
 40
1.0
 40
1.0
 10
43.376494906
 20
85.8292199453
 30
0.0
 10
43.5217217325
 20
85.7453750947
 30
0.0
 10
43.808561996
 20
85.5443084802
 30
0.0
 10
44.2032304921
 20
85.1750546156
 30
0.0
 10
44.5669475512
 20
84.738587268
 30
0.0
 10
44.8860032609
 20
84.2512522836
 30
0.0
 10
45.1485226379
 20
83.7312751133
 30
0.0
 10
45.344659366
 20
83.1980525023
 30
0.0
 10
45.4671123516
 20
82.6716305433
 30
0.0
 10
45.4978240815
 20
82.3226842714
 30
0.0
 10
45.4978240815
 20
82.1549904303
 30
0.0
  0
SPLINE
  5
2E3
100
AcDbEntity
  8
0
100
AcDbSpline
 62
7
  6
BYLAYER
 70
0
 71
3
 72
15
 73
11
 74
0
 42
0.0000001
 43
0.0000001
 44
0.0000000001
 40
0.0
 40
0.0
 40
0.0
 40
0.0
 40
0.114152781
 40
0.2373221433
 40
0.366970794
 40
0.4999933359
 40
0.6330172808
 40
0.7626664617
 40
0.8858478475
 40
1.0
 40
1.0
 40
1.0
 40
1.0
 10
29.3758380929
 20
76.3578960554
 30
0.0
 10
29.3758385323
 20
76.2852335178
 30
0.0
 10
29.3891481808
 20
76.1340280827
 30
0.0
 10
29.4422039442
 20
75.9059164767
 30
0.0
 10
29.5271984973
 20
75.6748569372
 30
0.0
 10
29.6409516468
 20
75.4495349458
 30
0.0
 10
29.7792093204
 20
75.2383606153
 30
0.0
 10
29.9368159572
 20
75.0492119202
 30
0.0
 10
30.1078480519
 20
74.8892072856
 30
0.0
 10
30.2321463046
 20
74.8020731573
 30
0.0
 10
30.2950739176
 20
74.765742705
 30
0.0
  0
SPLINE
  5
2E4
100
AcDbEntity
  8
0
100
AcDbSpline
 62
7
  6
BYLAYER
 70
0
 71
3
 72
12
 73
8
 74
0
 42
0.0000001
 43
0.0000001
 44
0.0000000001
 40
0.0
 40
0.0
 40
0.0
 40
0.0
 40
0.2895787201
 40
0.5486316933
 40
0.7816350898
 40
0.8918372065
 40
1.0
 40
1.0
 40
1.0
 40
1.0
 10
30.436494685
 20
74.6840910523
 30
0.0
 10
30.5023358191
 20
74.6460785158
 30
0.0
 10
30.6332838999
 20
74.583777723
 30
0.0
 10
30.8344099369
 20
74.5351520844
 30
0.0
 10
30.995016011
 20
74.5394083467
 30
0.0
 10
31.1096736803
 20
74.5711672901
 30
0.0
 10
31.1618987397
 20
74.5956058522
 30
0.0
 10
31.1864913274
 20
74.6098046337
 30
0.0
  0
SPLINE
  5
2E5
100
AcDbEntity
  8
0
100
AcDbSpline
 62
7
  6
BYLAYER
 70
0
 71
3
 72
14
 73
10
 74
0
 42
0.0000001
 43
0.0000001
 44
0.0000000001
 40
0.0
 40
0.0
 40
0.0
 40
0.0
 40
0.1080480577
 40
0.2181318654
 40
0.3321061645
 40
0.4515062392
 40
0.5774601266
 40
0.7107189811
 40
1.0
 40
1.0
 40
1.0
 40
1.0
 10
41.8765027213
 20
85.977790877
 30
0.0
 10
41.9256883724
 20
86.0061880543
 30
0.0
 10
42.0301206704
 20
86.0550844256
 30
0.0
 10
42.1990901239
 20
86.1018137772
 30
0.0
 10
42.3792210673
 20
86.1219101867
 30
0.0
 10
42.5685812504
 20
86.1153119277
 30
0.0
 10
42.7653779737
 20
86.0823123567
 30
0.0
 10
43.0426364952
 20
86.0014688725
 30
0.0
 10
43.2448078165
 20
85.9052478018
 30
0.0
 10
43.376494906
 20
85.8292199453
 30
0.0
  0
SPLINE
  5
2E6
100
AcDbEntity
  8
0
100
AcDbSpline
 62
7
  6
BYLAYER
 70
0
 71
3
 72
13
 73
9
 74
0
 42
0.0000001
 43
0.0000001
 44
0.0000000001
 40
0.0
 40
0.0
 40
0.0
 40
0.0
 40
0.2894503599
 40
0.4227952982
 40
0.5488362719
 40
0.7817346135
 40
0.8918857626
 40
1.0
 40
1.0
 40
1.0
 40
1.0
 10
34.8912576913
 20
77.2560656834
 30
0.0
 10
34.8912582414
 20
77.1800359235
 30
0.0
 10
34.8824009181
 20
77.068448366
 30
0.0
 10
34.8480467617
 20
76.9281398071
 30
0.0
 10
34.8028184875
 20
76.8068087037
 30
0.0
 10
34.7372879395
 20
76.6999939506
 30
0.0
 10
34.652462994
 20
76.616588917
 30
0.0
 10
34.6051832935
 20
76.5835759079
 30
0.0
 10
34.580589746
 20
76.5693765723
 30
0.0
  0
SPLINE
  5
2E7
100
AcDbEntity
  8
0
100
AcDbSpline
 62
7
  6
BYLAYER
 70
0
 71
3
 72
9
 73
5
 74
0
 42
0.0000001
 43
0.0000001
 44
0.0000000001
 40
0.0
 40
0.0
 40
0.0
 40
0.0
 40
0.2579356538
 40
1.0
 40
1.0
 40
1.0
 40
1.0
 10
30.2950739176
 20
74.765742705
 30
0.0
 10
30.3073596855
 20
74.758649674
 30
0.0
 10
30.3554648497
 20
74.7319879404
 30
0.0
 10
30.4055029179
 20
74.7087496926
 30
0.0
 10
30.4435454828
 20
74.6939689268
 30
0.0
  0
SPLINE
  5
2E8
100
AcDbEntity
  8
0
100
AcDbSpline
 62
7
  6
BYLAYER
 70
0
 71
3
 72
28
 73
24
 74
0
 42
0.0000001
 43
0.0000001
 44
0.0000000001
 40
0.0
 40
0.0
 40
0.0
 40
0.0
 40
0.0551566964
 40
0.1048459009
 40
0.1282052044
 40
0.1509321042
 40
0.1733920241
 40
0.1959712578
 40
0.2190457121
 40
0.2429510667
 40
0.2941898762
 40
0.3219621542
 40
0.3512480511
 40
0.3820608965
 40
0.4143571136
 40
0.4829963582
 40
0.5561562479
 40
0.6323889473
 40
0.7100110468
 40
0.7872455917
 40
0.8623344627
 40
0.9336942364
 40
1.0
 40
1.0
 40
1.0
 40
1.0
 10
30.4435454828
 20
74.6939689268
 30
0.0
 10
30.4968627124
 20
74.6732534603
 30
0.0
 10
30.602172557
 20
74.6428147504
 30
0.0
 10
30.7366855781
 20
74.6369426004
 30
0.0
 10
30.8348113157
 20
74.6544506421
 30
0.0
 10
30.9023143083
 20
74.6776739605
 30
0.0
 10
30.9645251055
 20
74.7110212505
 30
0.0
 10
31.0208031868
 20
74.754209776
 30
0.0
 10
31.0706386235
 20
74.8067618561
 30
0.0
 10
31.1292070818
 20
74.8904782464
 30
0.0
 10
31.1714243275
 20
74.9899301525
 30
0.0
 10
31.1980515411
 20
75.0991381031
 30
0.0
 10
31.210794269
 20
75.1895290353
 30
0.0
 10
31.2155875621
 20
75.2853393733
 30
0.0
 10
31.2113293152
 20
75.4220289071
 30
0.0
 10
31.1852592639
 20
75.6013269873
 30
0.0
 10
31.1245530499
 20
75.8196659211
 30
0.0
 10
31.0358156742
 20
76.0382542376
 30
0.0
 10
30.922058821
 20
76.249701653
 30
0.0
 10
30.7871128971
 20
76.446866617
 30
0.0
 10
30.6355224304
 20
76.6231341514
 30
0.0
 10
30.4724127336
 20
76.7725012117
 30
0.0
 10
30.3546241299
 20
76.8542684362
 30
0.0
 10
30.2950739176
 20
76.8886489895
 30
0.0
  0
SPLINE
  5
2E9
100
AcDbEntity
  8
0
100
AcDbSpline
 62
7
  6
BYLAYER
 70
0
 71
3
 72
15
 73
11
 74
0
 42
0.0000001
 43
0.0000001
 44
0.0000000001
 40
0.0
 40
0.0
 40
0.0
 40
0.0
 40
0.1485214471
 40
0.2830261085
 40
0.4048962736
 40
0.5179158326
 40
0.6278839583
 40
0.741465523
 40
0.8643281266
 40
1.0
 40
1.0
 40
1.0
 40
1.0
 10
30.2950739176
 20
76.8886489895
 30
0.0
 10
30.2435685029
 20
76.9183849818
 30
0.0
 10
30.1410611096
 20
76.9681099553
 30
0.0
 10
29.9837469609
 20
77.0115480138
 30
0.0
 10
29.8344503151
 20
77.0182056242
 30
0.0
 10
29.6980026016
 20
76.9864926691
 30
0.0
 10
29.5803265956
 20
76.9163883182
 30
0.0
 10
29.4868729256
 20
76.8112335214
 30
0.0
 10
29.4204053761
 20
76.6762635012
 30
0.0
 10
29.3959402817
 20
76.5748593123
 30
0.0
 10
29.3877181997
 20
76.521157501
 30
0.0
  0
SPLINE
  5
2EA
100
AcDbEntity
  8
0
100
AcDbSpline
 62
7
  6
BYLAYER
 70
0
 71
3
 72
9
 73
5
 74
0
 42
0.0000001
 43
0.0000001
 44
0.0000000001
 40
0.0
 40
0.0
 40
0.0
 40
0.0
 40
0.2419718772
 40
1.0
 40
1.0
 40
1.0
 40
1.0
 10
29.3877181997
 20
76.521157501
 30
0.0
 10
29.3857189126
 20
76.5080993323
 30
0.0
 10
29.3785854625
 20
76.4539630732
 30
0.0
 10
29.3758378426
 20
76.399280222
 30
0.0
 10
29.3758380929
 20
76.3578960554
 30
0.0
  0
SPLINE
  5
2EB
100
AcDbEntity
  8
0
100
AcDbSpline
 62
7
  6
BYLAYER
 70
0
 71
3
 72
12
 73
8
 74
0
 42
0.0000001
 43
0.0000001
 44
0.0000000001
 40
0.0
 40
0.0
 40
0.0
 40
0.0
 40
0.2895787201
 40
0.5486316933
 40
0.7816350898
 40
0.8918372065
 40
1.0
 40
1.0
 40
1.0
 40
1.0
 10
30.436494685
 20
77.1335983037
 30
0.0
 10
30.3706535509
 20
77.1716108402
 30
0.0
 10
30.2397054701
 20
77.233911633
 30
0.0
 10
30.038579433
 20
77.2825372717
 30
0.0
 10
29.8779733589
 20
77.2782810093
 30
0.0
 10
29.7633156897
 20
77.2465220659
 30
0.0
 10
29.7110906303
 20
77.2220835038
 30
0.0
 10
29.6864980426
 20
77.2078847223
 30
0.0
  0
SPLINE
  5
2EC
100
AcDbEntity
  8
0
100
AcDbSpline
 62
7
  6
BYLAYER
 70
0
 71
3
 72
21
 73
17
 74
0
 42
0.0000001
 43
0.0000001
 44
0.0000000001
 40
0.0
 40
0.0
 40
0.0
 40
0.0
 40
0.0428265368
 40
0.0874210446
 40
0.1352168486
 40
0.1871402706
 40
0.2436032725
 40
0.3045779987
 40
0.3696937216
 40
0.4383208458
 40
0.5825532947
 40
0.729592089
 40
0.8016010569
 40
0.8712166638
 40
0.9375998888
 40
1.0
 40
1.0
 40
1.0
 40
1.0
 10
31.1864913274
 20
74.6098046337
 30
0.0
 10
31.2234726002
 20
74.631156149
 30
0.0
 10
31.293573446
 20
74.6848154919
 30
0.0
 10
31.3779333719
 20
74.7914929365
 30
0.0
 10
31.4409750801
 20
74.9219513572
 30
0.0
 10
31.4817970439
 20
75.0730100198
 30
0.0
 10
31.499966309
 20
75.2414856296
 30
0.0
 10
31.4953202417
 20
75.4239085055
 30
0.0
 10
31.4680618412
 20
75.6165295554
 30
0.0
 10
31.4012493008
 20
75.8859351886
 30
0.0
 10
31.2659705874
 20
76.2204744942
 30
0.0
 10
31.0753659817
 20
76.5306262768
 30
0.0
 10
30.893994375
 20
76.7545386001
 30
0.0
 10
30.7490587349
 20
76.9033568219
 30
0.0
 10
30.597439095
 20
77.0309323315
 30
0.0
 10
30.4903785309
 20
77.1024891545
 30
0.0
 10
30.436494685
 20
77.1335983037
 30
0.0
  0
SPLINE
  5
2ED
100
AcDbEntity
  8
0
100
AcDbSpline
 62
7
  6
BYLAYER
 70
0
 71
3
 72
15
 73
11
 74
0
 42
0.0000001
 43
0.0000001
 44
0.0000000001
 40
0.0
 40
0.0
 40
0.0
 40
0.0
 40
0.1141538955
 40
0.2373248521
 40
0.3669742658
 40
0.4999983967
 40
0.6330227505
 40
0.7626728157
 40
0.8858447981
 40
1.0
 40
1.0
 40
1.0
 40
1.0
 10
33.8305931036
 20
79.0931702423
 30
0.0
 10
33.9032032836
 20
79.0512496837
 30
0.0
 10
34.0466219393
 20
78.950716463
 30
0.0
 10
34.2439590846
 20
78.7660954582
 30
0.0
 10
34.425816808
 20
78.5478585088
 30
0.0
 10
34.5853447145
 20
78.3041920945
 30
0.0
 10
34.7166047555
 20
78.0442044923
 30
0.0
 10
34.8146778531
 20
77.7775923171
 30
0.0
 10
34.8758993866
 20
77.5143814428
 30
0.0
 10
34.8912570847
 20
77.3399091825
 30
0.0
 10
34.8912576913
 20
77.2560656834
 30
0.0
  0
SPLINE
  5
2EE
100
AcDbEntity
  8
0
100
AcDbSpline
 62
7
  6
BYLAYER
 70
0
 71
3
 72
15
 73
11
 74
0
 42
0.0000001
 43
0.0000001
 44
0.0000000001
 40
0.0
 40
0.0
 40
0.0
 40
0.0
 40
0.11415483
 40
0.237326361
 40
0.366976207
 40
0.5000000242
 40
0.6330253919
 40
0.7626721589
 40
0.8858495393
 40
1.0
 40
1.0
 40
1.0
 40
1.0
 10
34.8912518679
 20
77.4193639874
 30
0.0
 10
34.8912513449
 20
77.4920279255
 30
0.0
 10
34.8779414358
 20
77.6432362684
 30
0.0
 10
34.8248837662
 20
77.8713513086
 30
0.0
 10
34.739887427
 20
78.102413722
 30
0.0
 10
34.6261310121
 20
78.3277372064
 30
0.0
 10
34.4878724361
 20
78.5389116
 30
0.0
 10
34.3302654001
 20
78.728056238
 30
0.0
 10
34.1592364252
 20
78.8880569979
 30
0.0
 10
34.0349406347
 20
78.9751886276
 30
0.0
 10
33.9720138711
 20
79.0115185896
 30
0.0
  0
SPLINE
  5
2EF
100
AcDbEntity
  8
0
100
AcDbSpline
 62
7
  6
BYLAYER
 70
0
 71
3
 72
13
 73
9
 74
0
 42
0.0000001
 43
0.0000001
 44
0.0000000001
 40
0.0
 40
0.0
 40
0.0
 40
0.0
 40
0.1177887393
 40
0.2364340954
 40
0.3565711022
 40
0.4788810491
 40
0.7321563967
 40
1.0
 40
1.0
 40
1.0
 40
1.0
 10
39.3322002919
 20
86.9864594616
 30
0.0
 10
39.4595485153
 20
87.0168484108
 30
0.0
 10
39.7201929215
 20
87.0584878798
 30
0.0
 10
40.1176902604
 20
87.0640126408
 30
0.0
 10
40.5173149559
 20
87.016233544
 30
0.0
 10
41.0535903614
 20
86.8848353694
 30
0.0
 10
41.7152423161
 20
86.5999819957
 30
0.0
 10
42.200078456
 20
86.2779350874
 30
0.0
 10
42.4353700685
 20
86.0955336508
 30
0.0
  0
SPLINE
  5
2F0
100
AcDbEntity
  8
0
100
AcDbSpline
 62
7
  6
BYLAYER
 70
0
 71
3
 72
9
 73
5
 74
0
 42
0.0000001
 43
0.0000001
 44
0.0000000001
 40
0.0
 40
0.0
 40
0.0
 40
0.0
 40
0.2543237571
 40
1.0
 40
1.0
 40
1.0
 40
1.0
 10
45.2666204926
 20
81.1408192157
 30
0.0
 10
45.2738098305
 20
81.083463642
 30
0.0
 10
45.2987902935
 20
80.8575497114
 30
0.0
 10
45.3103405525
 20
80.6300884477
 30
0.0
 10
45.3103405525
 20
80.4606061836
 30
0.0
  0
SPLINE
  5
2F1
100
AcDbEntity
  8
0
100
AcDbSpline
 62
7
  6
BYLAYER
 70
0
 71
3
 72
12
 73
8
 74
0
 42
0.0000001
 43
0.0000001
 44
0.0000000001
 40
0.0
 40
0.0
 40
0.0
 40
0.0
 40
0.2624761067
 40
0.5144722534
 40
0.7590446207
 40
0.8798124695
 40
1.0
 40
1.0
 40
1.0
 40
1.0
 10
45.3103405525
 20
80.4606061836
 30
0.0
 10
45.3103405525
 20
80.2323710564
 30
0.0
 10
45.2798065182
 20
79.7840714208
 30
0.0
 10
45.1282157799
 20
79.1384482296
 30
0.0
 10
44.9064671314
 20
78.6448817484
 30
0.0
 10
44.6716819833
 20
78.2930759293
 30
0.0
 10
44.5353991229
 20
78.1331302991
 30
0.0
 10
44.4629039732
 20
78.0578541049
 30
0.0
  0
SPLINE
  5
2F2
100
AcDbEntity
  8
0
100
AcDbSpline
 62
7
  6
BYLAYER
 70
0
 71
3
 72
11
 73
7
 74
0
 42
0.0000001
 43
0.0000001
 44
0.0000000001
 40
0.0
 40
0.0
 40
0.0
 40
0.0
 40
0.2793964726
 40
0.538341251
 40
0.7776004681
 40
1.0
 40
1.0
 40
1.0
 40
1.0
 10
45.0028057639
 20
80.0319533913
 30
0.0
 10
45.0028057639
 20
79.8427947063
 30
0.0
 10
44.982009383
 20
79.4777918063
 30
0.0
 10
44.8804326309
 20
78.9592975552
 30
0.0
 10
44.7108015126
 20
78.4994420818
 30
0.0
 10
44.5484315177
 20
78.2294042114
 30
0.0
 10
44.4570558452
 20
78.109730098
 30
0.0
  0
SPLINE
  5
2F3
100
AcDbEntity
  8
0
100
AcDbSpline
 62
7
  6
BYLAYER
 70
0
 71
3
 72
13
 73
9
 74
0
 42
0.0000001
 43
0.0000001
 44
0.0000000001
 40
0.0
 40
0.0
 40
0.0
 40
0.0
 40
0.1051839412
 40
0.215196742
 40
0.3307622439
 40
0.4523478144
 40
0.7140371248
 40
1.0
 40
1.0
 40
1.0
 40
1.0
 10
39.3878458581
 20
86.9545082745
 30
0.0
 10
39.4833327458
 20
86.9651851831
 30
0.0
 10
39.6804077983
 20
86.9734489211
 30
0.0
 10
39.9821587387
 20
86.948093775
 30
0.0
 10
40.2937319809
 20
86.8856828559
 30
0.0
 10
40.7295903173
 20
86.7504590077
 30
0.0
 10
41.2848421686
 20
86.4871427802
 30
0.0
 10
41.7005791471
 20
86.205719241
 30
0.0
 10
41.907357467
 20
86.0461033299
 30
0.0
  0
SPLINE
  5
2F4
100
AcDbEntity
  8
0
100
AcDbSpline
 62
7
  6
BYLAYER
 70
0
 71
3
 72
9
 73
5
 74
0
 42
0.0000001
 43
0.0000001
 44
0.0000000001
 40
0.0
 40
0.0
 40
0.0
 40
0.0
 40
0.2573811895
 40
1.0
 40
1.0
 40
1.0
 40
1.0
 10
44.9480253883
 20
80.7972779505
 30
0.0
 10
44.9570538251
 20
80.7320432377
 30
0.0
 10
44.9881063427
 20
80.4780610696
 30
0.0
 10
45.0028057639
 20
80.2219683888
 30
0.0
 10
45.0028057639
 20
80.0319533913
 30
0.0
  0
SPLINE
  5
2F5
100
AcDbEntity
  8
0
100
AcDbSpline
 62
7
  6
BYLAYER
 70
0
 71
3
 72
11
 73
7
 74
0
 42
0.0000001
 43
0.0000001
 44
0.0000000001
 40
0.0
 40
0.0
 40
0.0
 40
0.0
 40
0.2372523758
 40
0.4999990758
 40
0.7627462798
 40
1.0
 40
1.0
 40
1.0
 40
1.0
 10
44.083616407
 20
84.1962605825
 30
0.0
 10
44.1338137345
 20
84.1672797976
 30
0.0
 10
44.228807745
 20
84.0873418978
 30
0.0
 10
44.3396363617
 20
83.9358264222
 30
0.0
 10
44.4154391723
 20
83.7640883088
 30
0.0
 10
44.4371712696
 20
83.6418518783
 30
0.0
 10
44.4371712696
 20
83.5838889967
 30
0.0
  0
SPLINE
  5
2F6
100
AcDbEntity
  8
0
100
AcDbSpline
 62
7
  6
BYLAYER
 70
0
 71
3
 72
11
 73
7
 74
0
 42
0.0000001
 43
0.0000001
 44
0.0000000001
 40
0.0
 40
0.0
 40
0.0
 40
0.0
 40
0.2895401978
 40
0.5491171512
 40
0.782255066
 40
1.0
 40
1.0
 40
1.0
 40
1.0
 10
44.4371712696
 20
62.3548261513
 30
0.0
 10
44.4371712696
 20
62.3295068397
 30
0.0
 10
44.4333052447
 20
62.2813285805
 30
0.0
 10
44.4138287101
 20
62.2151231594
 30
0.0
 10
44.3809754774
 20
62.1613825658
 30
0.0
 10
44.3500913664
 20
62.1354778927
 30
0.0
 10
44.3336012998
 20
62.125957409
 30
0.0
  0
SPLINE
  5
2F7
100
AcDbEntity
  8
0
100
AcDbSpline
 62
7
  6
BYLAYER
 70
0
 71
3
 72
11
 73
7
 74
0
 42
0.0000001
 43
0.0000001
 44
0.0000000001
 40
0.0
 40
0.0
 40
0.0
 40
0.0
 40
0.2895391946
 40
0.5491157945
 40
0.7822541179
 40
1.0
 40
1.0
 40
1.0
 40
1.0
 10
43.3765125698
 20
61.7424511661
 30
0.0
 10
43.3984391987
 20
61.7297921074
 30
0.0
 10
43.4420947278
 20
61.709052078
 30
0.0
 10
43.5091668206
 20
61.6928175443
 30
0.0
 10
43.5721325262
 20
61.6943992717
 30
0.0
 10
43.6100077697
 20
61.7081929755
 30
0.0
 10
43.6264974622
 20
61.7177132549
 30
0.0
  0
SPLINE
  5
2F8
100
AcDbEntity
  8
0
100
AcDbSpline
 62
7
  6
BYLAYER
 70
0
 71
3
 72
11
 73
7
 74
0
 42
0.0000001
 43
0.0000001
 44
0.0000000001
 40
0.0
 40
0.0
 40
0.0
 40
0.0
 40
0.2177460211
 40
0.4508843679
 40
0.7104607696
 40
1.0
 40
1.0
 40
1.0
 40
1.0
 10
25.4487786604
 20
94.8352581111
 30
0.0
 10
25.4652683688
 20
94.844778388
 30
0.0
 10
25.503143621
 20
94.8585721113
 30
0.0
 10
25.5661093262
 20
94.8601538074
 30
0.0
 10
25.6331814145
 20
94.8439193119
 30
0.0
 10
25.6768369212
 20
94.8231792605
 30
0.0
 10
25.6987635532
 20
94.8105202
 30
0.0
  0
SPLINE
  5
2F9
100
AcDbEntity
  8
0
100
AcDbSpline
 62
7
  6
BYLAYER
 70
0
 71
3
 72
11
 73
7
 74
0
 42
0.0000001
 43
0.0000001
 44
0.0000000001
 40
0.0
 40
0.0
 40
0.0
 40
0.0
 40
0.217745073
 40
0.4508830113
 40
0.7104597664
 40
1.0
 40
1.0
 40
1.0
 40
1.0
 10
24.7416748236
 20
94.4270139574
 30
0.0
 10
24.7251847512
 20
94.4174934587
 30
0.0
 10
24.694300619
 20
94.3915887878
 30
0.0
 10
24.6614474136
 20
94.3378481789
 30
0.0
 10
24.6419708481
 20
94.2716427808
 30
0.0
 10
24.6381048534
 20
94.22346453
 30
0.0
 10
24.6381048534
 20
94.1981452149
 30
0.0
  0
SPLINE
  5
2FA
100
AcDbEntity
  8
0
100
AcDbSpline
 62
7
  6
BYLAYER
 70
0
 71
3
 72
11
 73
7
 74
0
 42
0.0000001
 43
0.0000001
 44
0.0000000001
 40
0.0
 40
0.0
 40
0.0
 40
0.0
 40
0.2895391946
 40
0.5491157945
 40
0.7822541179
 40
1.0
 40
1.0
 40
1.0
 40
1.0
 10
24.991659716
 20
94.4022760462
 30
0.0
 10
24.9697330871
 20
94.4149351049
 30
0.0
 10
24.926077558
 20
94.4356751344
 30
0.0
 10
24.8590054652
 20
94.451909668
 30
0.0
 10
24.7960397596
 20
94.4503279406
 30
0.0
 10
24.7581645161
 20
94.4365342369
 30
0.0
 10
24.7416748236
 20
94.4270139574
 30
0.0
  0
SPLINE
  5
2FB
100
AcDbEntity
  8
0
100
AcDbSpline
 62
7
  6
BYLAYER
 70
0
 71
3
 72
11
 73
7
 74
0
 42
0.0000001
 43
0.0000001
 44
0.0000000001
 40
0.0
 40
0.0
 40
0.0
 40
0.0
 40
0.2372539654
 40
0.5000012591
 40
0.7627478695
 40
1.0
 40
1.0
 40
1.0
 40
1.0
 10
43.7300674324
 20
83.1756448428
 30
0.0
 10
43.7300674324
 20
83.2336077844
 30
0.0
 10
43.7083352996
 20
83.3558442966
 30
0.0
 10
43.6325324219
 20
83.5275824459
 30
0.0
 10
43.5217038029
 20
83.6790978456
 30
0.0
 10
43.4267098454
 20
83.7590356737
 30
0.0
 10
43.3765125698
 20
83.7880164286
 30
0.0
  0
SPLINE
  5
2FC
100
AcDbEntity
  8
0
100
AcDbSpline
 62
7
  6
BYLAYER
 70
0
 71
3
 72
11
 73
7
 74
0
 42
0.0000001
 43
0.0000001
 44
0.0000000001
 40
0.0
 40
0.0
 40
0.0
 40
0.0
 40
0.217745073
 40
0.4508830113
 40
0.7104597664
 40
1.0
 40
1.0
 40
1.0
 40
1.0
 10
43.6264974622
 20
61.7177132549
 30
0.0
 10
43.6429875346
 20
61.7272337536
 30
0.0
 10
43.6738716668
 20
61.7531384245
 30
0.0
 10
43.7067248722
 20
61.8068790334
 30
0.0
 10
43.7262014377
 20
61.8730844315
 30
0.0
 10
43.7300674324
 20
61.9212626823
 30
0.0
 10
43.7300674324
 20
61.9465819974
 30
0.0
  0
SPLINE
  5
2FD
100
AcDbEntity
  8
0
100
AcDbSpline
 62
7
  6
BYLAYER
 70
0
 71
3
 72
11
 73
7
 74
0
 42
0.0000001
 43
0.0000001
 44
0.0000000001
 40
0.0
 40
0.0
 40
0.0
 40
0.0
 40
0.2897033281
 40
0.5490895198
 40
0.7822165953
 40
1.0
 40
1.0
 40
1.0
 40
1.0
 10
43.6947119461
 20
62.1711196395
 30
0.0
 10
43.6947119461
 20
62.1356519384
 30
0.0
 10
43.6893345208
 20
62.068199888
 30
0.0
 10
43.6620172497
 20
61.9755243055
 30
0.0
 10
43.6160240375
 20
61.9003233112
 30
0.0
 10
43.5728224509
 20
61.8640037944
 30
0.0
 10
43.5497318252
 20
61.8506725053
 30
0.0
  0
SPLINE
  5
2FE
100
AcDbEntity
  8
0
100
AcDbSpline
 62
7
  6
BYLAYER
 70
0
 71
3
 72
11
 73
7
 74
0
 42
0.0000001
 43
0.0000001
 44
0.0000000001
 40
0.0
 40
0.0
 40
0.0
 40
0.0
 40
0.237239768
 40
0.4999988393
 40
0.7627585384
 40
1.0
 40
1.0
 40
1.0
 40
1.0
 10
43.1997351385
 20
83.8492514964
 30
0.0
 10
43.2700079007
 20
83.8086804161
 30
0.0
 10
43.4029895422
 20
83.696759556
 30
0.0
 10
43.5581971907
 20
83.4846636039
 30
0.0
 10
43.6642751964
 20
83.2442018201
 30
0.0
 10
43.6947119461
 20
83.0730753928
 30
0.0
 10
43.6947119461
 20
82.9919312763
 30
0.0
  0
SPLINE
  5
2FF
100
AcDbEntity
  8
0
100
AcDbSpline
 62
7
  6
BYLAYER
 70
0
 71
3
 72
11
 73
7
 74
0
 42
0.0000001
 43
0.0000001
 44
0.0000000001
 40
0.0
 40
0.0
 40
0.0
 40
0.0
 40
0.2177843137
 40
0.4509117637
 40
0.7102976701
 40
1.0
 40
1.0
 40
1.0
 40
1.0
 10
24.8184404606
 20
94.294054707
 30
0.0
 10
24.8415305654
 20
94.3073856954
 30
0.0
 10
24.8945836707
 20
94.3266391019
 30
0.0
 10
24.9827039747
 20
94.328870291
 30
0.0
 10
25.0766195668
 20
94.3061913498
 30
0.0
 10
25.1377219704
 20
94.2771237511
 30
0.0
 10
25.1684371473
 20
94.2593907367
 30
0.0
  0
SPLINE
  5
300
100
AcDbEntity
  8
0
100
AcDbSpline
 62
7
  6
BYLAYER
 70
0
 71
3
 72
11
 73
7
 74
0
 42
0.0000001
 43
0.0000001
 44
0.0000000001
 40
0.0
 40
0.0
 40
0.0
 40
0.0
 40
0.289706476
 40
0.5490947845
 40
0.7822205565
 40
1.0
 40
1.0
 40
1.0
 40
1.0
 10
36.8712139397
 20
58.1498693952
 30
0.0
 10
36.9019262987
 20
58.1321354296
 30
0.0
 10
36.9630230553
 20
58.1030652011
 30
0.0
 10
37.05693101
 20
58.0803806279
 30
0.0
 10
37.1450450104
 20
58.0826062975
 30
0.0
 10
37.198094377
 20
58.1018569819
 30
0.0
 10
37.2211823504
 20
58.1151867524
 30
0.0
  0
SPLINE
  5
301
100
AcDbEntity
  8
0
100
AcDbSpline
 62
7
  6
BYLAYER
 70
0
 71
3
 72
18
 73
14
 74
0
 42
0.0000001
 43
0.0000001
 44
0.0000000001
 40
0.0
 40
0.0
 40
0.0
 40
0.0
 40
0.0428545678
 40
0.0875952023
 40
0.1356040209
 40
0.1877556301
 40
0.2444284636
 40
0.3055719708
 40
0.4393120163
 40
0.5835039998
 40
0.7303570309
 40
0.8715966909
 40
1.0
 40
1.0
 40
1.0
 40
1.0
 10
33.6039748768
 20
63.4254865717
 30
0.0
 10
33.6474360255
 20
63.4493567102
 30
0.0
 10
33.7429987526
 20
63.4867603012
 30
0.0
 10
33.8999365648
 20
63.5069385277
 30
0.0
 10
34.0680684076
 20
63.4921506507
 30
0.0
 10
34.243735346
 20
63.4434142267
 30
0.0
 10
34.4235378775
 20
63.3621136462
 30
0.0
 10
34.6713296377
 20
63.2081445704
 30
0.0
 10
34.9661368622
 20
62.944655066
 30
0.0
 10
35.2688414255
 20
62.5546254403
 30
0.0
 10
35.5070544645
 20
62.1120594999
 30
0.0
 10
35.6614963423
 20
61.6532045564
 30
0.0
 10
35.7028364221
 20
61.3408547953
 30
0.0
 10
35.7028364221
 20
61.1922859018
 30
0.0
  0
SPLINE
  5
302
100
AcDbEntity
  8
0
100
AcDbSpline
 62
7
  6
BYLAYER
 70
0
 71
3
 72
11
 73
7
 74
0
 42
0.0000001
 43
0.0000001
 44
0.0000000001
 40
0.0
 40
0.0
 40
0.0
 40
0.0
 40
0.2883528719
 40
0.5480354168
 40
0.7821861564
 40
1.0
 40
1.0
 40
1.0
 40
1.0
 10
41.9623070964
 20
61.0892056621
 30
0.0
 10
41.9623092975
 20
61.0553686234
 30
0.0
 10
41.9573966566
 20
60.99086501
 30
0.0
 10
41.9326280311
 20
60.9017404224
 30
0.0
 10
41.8910082358
 20
60.8282132987
 30
0.0
 10
41.8516608502
 20
60.7911173598
 30
0.0
 10
41.8304185057
 20
60.7769027748
 30
0.0
  0
SPLINE
  5
303
100
AcDbEntity
  8
0
100
AcDbSpline
 62
7
  6
BYLAYER
 70
0
 71
3
 72
11
 73
7
 74
0
 42
0.0000001
 43
0.0000001
 44
0.0000000001
 40
0.0
 40
0.0
 40
0.0
 40
0.0
 40
0.2372372697
 40
0.4999988451
 40
0.7627610454
 40
1.0
 40
1.0
 40
1.0
 40
1.0
 10
41.4673910113
 20
82.8490187086
 30
0.0
 10
41.5376575854
 20
82.8084571256
 30
0.0
 10
41.6706294015
 20
82.6965543556
 30
0.0
 10
41.8258227573
 20
82.4844833977
 30
0.0
 10
41.9318862617
 20
82.2440464794
 30
0.0
 10
41.9623122009
 20
82.072937609
 30
0.0
 10
41.9623070929
 20
81.991803603
 30
0.0
  0
SPLINE
  5
304
100
AcDbEntity
  8
0
100
AcDbSpline
 62
7
  6
BYLAYER
 70
0
 71
3
 72
9
 73
5
 74
0
 42
0.0000001
 43
0.0000001
 44
0.0000000001
 40
0.0
 40
0.0
 40
0.0
 40
0.0
 40
0.2331950403
 40
1.0
 40
1.0
 40
1.0
 40
1.0
 10
19.0227618225
 20
87.7897898468
 30
0.0
 10
19.0073812285
 20
87.7567802078
 30
0.0
 10
18.9494398528
 20
87.6114881761
 30
0.0
 10
18.9224064309
 20
87.455066933
 30
0.0
 10
18.9144431826
 20
87.3355835421
 30
0.0
  0
SPLINE
  5
305
100
AcDbEntity
  8
0
100
AcDbSpline
 62
7
  6
BYLAYER
 70
0
 71
3
 72
12
 73
8
 74
0
 42
0.0000001
 43
0.0000001
 44
0.0000000001
 40
0.0
 40
0.0
 40
0.0
 40
0.0
 40
0.2891448142
 40
0.548357273
 40
0.7816760038
 40
0.8919500203
 40
1.0
 40
1.0
 40
1.0
 40
1.0
 10
21.5606419192
 20
85.6871493348
 30
0.0
 10
21.5606419192
 20
85.5998874902
 30
0.0
 10
21.5475840556
 20
85.4338305431
 30
0.0
 10
21.4815925891
 20
85.2053775982
 30
0.0
 10
21.3867345625
 20
85.046885388
 30
0.0
 10
21.2908312352
 20
84.9493004322
 30
0.0
 10
21.2372619268
 20
84.9103102779
 30
0.0
 10
21.2093760761
 20
84.8934073918
 30
0.0
  0
SPLINE
  5
306
100
AcDbEntity
  8
0
100
AcDbSpline
 62
7
  6
BYLAYER
 70
0
 71
3
 72
15
 73
11
 74
0
 42
0.0000001
 43
0.0000001
 44
0.0000000001
 40
0.0
 40
0.0
 40
0.0
 40
0.0
 40
0.1001684614
 40
0.2141627529
 40
0.3403026596
 40
0.4749268323
 40
0.6132683173
 40
0.7501192235
 40
0.8804305576
 40
1.0
 40
1.0
 40
1.0
 40
1.0
 10
19.9104671472
 20
87.9843108455
 30
0.0
 10
20.0096254643
 20
87.9678072319
 30
0.0
 10
20.2162230104
 20
87.8984422525
 30
0.0
 10
20.5089786962
 20
87.718836588
 30
0.0
 10
20.7910278476
 20
87.4674544766
 30
0.0
 10
21.0471825199
 20
87.1577940848
 30
0.0
 10
21.263786825
 20
86.8067007863
 30
0.0
 10
21.4289293321
 20
86.4332959029
 30
0.0
 10
21.533630172
 20
86.0581790576
 30
0.0
 10
21.5606419192
 20
85.8071411979
 30
0.0
 10
21.5606419192
 20
85.6871493348
 30
0.0
  0
SPLINE
  5
307
100
AcDbEntity
  8
0
100
AcDbSpline
 62
7
  6
BYLAYER
 70
0
 71
3
 72
12
 73
8
 74
0
 42
0.0000001
 43
0.0000001
 44
0.0000000001
 40
0.0
 40
0.0
 40
0.0
 40
0.0
 40
0.2891448142
 40
0.548357273
 40
0.7816760038
 40
0.8919500203
 40
1.0
 40
1.0
 40
1.0
 40
1.0
 10
35.7028364221
 20
77.5223342444
 30
0.0
 10
35.7028364221
 20
77.4350723998
 30
0.0
 10
35.6897785586
 20
77.2690154527
 30
0.0
 10
35.6237870921
 20
77.0405625078
 30
0.0
 10
35.5289290654
 20
76.8820702976
 30
0.0
 10
35.4330257382
 20
76.7844853418
 30
0.0
 10
35.3794564297
 20
76.7454951875
 30
0.0
 10
35.351570579
 20
76.7285923014
 30
0.0
  0
SPLINE
  5
308
100
AcDbEntity
  8
0
100
AcDbSpline
 62
7
  6
BYLAYER
 70
0
 71
3
 72
9
 73
5
 74
0
 42
0.0000001
 43
0.0000001
 44
0.0000000001
 40
0.0
 40
0.0
 40
0.0
 40
0.0
 40
0.2627183391
 40
1.0
 40
1.0
 40
1.0
 40
1.0
 10
35.6313145866
 20
78.0420490822
 30
0.0
 10
35.6429597663
 20
77.9975381249
 30
0.0
 10
35.682553188
 20
77.8269730257
 30
0.0
 10
35.7028364221
 20
77.6514521878
 30
0.0
 10
35.7028364221
 20
77.5223342444
 30
0.0
  0
SPLINE
  5
309
100
AcDbEntity
  8
0
100
AcDbSpline
 62
7
  6
BYLAYER
 70
0
 71
3
 72
9
 73
5
 74
0
 42
0.0000001
 43
0.0000001
 44
0.0000000001
 40
0.0
 40
0.0
 40
0.0
 40
0.0
 40
0.2471776277
 40
1.0
 40
1.0
 40
1.0
 40
1.0
 10
31.3079183212
 20
80.7728729671
 30
0.0
 10
31.4306738206
 20
80.6298811403
 30
0.0
 10
31.9187163022
 20
80.0440555117
 30
0.0
 10
32.3727558037
 20
79.4299934598
 30
0.0
 10
32.6946787986
 20
78.9547960349
 30
0.0
  0
SPLINE
  5
30A
100
AcDbEntity
  8
0
100
AcDbSpline
 62
7
  6
BYLAYER
 70
0
 71
3
 72
9
 73
5
 74
0
 42
0.0000001
 43
0.0000001
 44
0.0000000001
 40
0.0
 40
0.0
 40
0.0
 40
0.0
 40
0.252481465
 40
1.0
 40
1.0
 40
1.0
 40
1.0
 10
34.2034747034
 20
76.3415046882
 30
0.0
 10
34.2875137536
 20
76.1683151445
 30
0.0
 10
34.6108263884
 20
75.4777888927
 30
0.0
 10
34.8957358756
 20
74.7691908402
 30
0.0
 10
35.0846244852
 20
74.2314623186
 30
0.0
  0
SPLINE
  5
30B
100
AcDbEntity
  8
0
100
AcDbSpline
 62
7
  6
BYLAYER
 70
0
 71
3
 72
12
 73
8
 74
0
 42
0.0000001
 43
0.0000001
 44
0.0000000001
 40
0.0
 40
0.0
 40
0.0
 40
0.0
 40
0.1086500311
 40
0.2192679802
 40
0.4526709392
 40
0.7113788427
 40
1.0
 40
1.0
 40
1.0
 40
1.0
 10
19.586992891
 20
71.8386908082
 30
0.0
 10
19.617475999
 20
71.8562898187
 30
0.0
 10
19.6821026087
 20
71.8867101851
 30
0.0
 10
19.823771935
 20
71.9267167846
 30
0.0
 10
20.0219374996
 20
71.9339819033
 30
0.0
 10
20.2705682378
 20
71.8773019001
 30
0.0
 10
20.4328358967
 20
71.8029269475
 30
0.0
 10
20.514489063
 20
71.7573690448
 30
0.0
  0
SPLINE
  5
30C
100
AcDbEntity
  8
0
100
AcDbSpline
 62
7
  6
BYLAYER
 70
0
 71
3
 72
19
 73
15
 74
0
 42
0.0000001
 43
0.0000001
 44
0.0000000001
 40
0.0
 40
0.0
 40
0.0
 40
0.0
 40
0.0428562859
 40
0.0871825978
 40
0.1342153725
 40
0.1848172326
 40
0.23945972
 40
0.2982625356
 40
0.3610507088
 40
0.4274274545
 40
0.5683902312
 40
0.715362131
 40
0.8614811658
 40
1.0
 40
1.0
 40
1.0
 40
1.0
 10
18.8980849158
 20
72.1337763662
 30
0.0
 10
18.9539687753
 20
72.1660482977
 30
0.0
 10
19.0758418851
 20
72.2184500555
 30
0.0
 10
19.2761541141
 20
72.2548738984
 30
0.0
 10
19.491171326
 20
72.2496294342
 30
0.0
 10
19.7168236208
 20
72.2035307949
 30
0.0
 10
19.949372786
 20
72.1178510903
 30
0.0
 10
20.184938025
 20
71.9942709015
 30
0.0
 10
20.4196240034
 20
71.8350823861
 30
0.0
 10
20.7321203387
 20
71.5738398348
 30
0.0
 10
21.09263389
 20
71.1767631331
 30
0.0
 10
21.4524655928
 20
70.6281840246
 30
0.0
 10
21.7239351684
 20
70.035043564
 30
0.0
 10
21.8385105005
 20
69.6193334345
 30
0.0
 10
21.874002342
 20
69.4137941779
 30
0.0
  0
SPLINE
  5
30D
100
AcDbEntity
  8
0
100
AcDbSpline
 62
7
  6
BYLAYER
 70
0
 71
3
 72
9
 73
5
 74
0
 42
0.0000001
 43
0.0000001
 44
0.0000000001
 40
0.0
 40
0.0
 40
0.0
 40
0.0
 40
0.2588367446
 40
1.0
 40
1.0
 40
1.0
 40
1.0
 10
21.876834637
 20
69.3971225668
 30
0.0
 10
21.8832472889
 20
69.3587445734
 30
0.0
 10
21.9052224347
 20
69.2100342038
 30
0.0
 10
21.9158492871
 20
69.0595318421
 30
0.0
 10
21.9158492871
 20
68.9481152655
 30
0.0
  0
LINE
  5
30E
100
AcDbEntity
  8
0
100
AcDbLine
 62
7
  6
BYLAYER
 10
16.8720298856
 20
69.2319449786
 11
16.8644564837
 21
69.2488395327
  0
SPLINE
  5
30F
100
AcDbEntity
  8
0
100
AcDbSpline
 62
7
  6
BYLAYER
 70
0
 71
3
 72
15
 73
11
 74
0
 42
0.0000001
 43
0.0000001
 44
0.0000000001
 40
0.0
 40
0.0
 40
0.0
 40
0.0
 40
0.1448233502
 40
0.2857286241
 40
0.4212789789
 40
0.5504079323
 40
0.6725189943
 40
0.7876125643
 40
0.896358814
 40
1.0
 40
1.0
 40
1.0
 40
1.0
 10
16.8644564837
 20
69.2488395327
 30
0.0
 10
16.7533059456
 20
69.4974282609
 30
0.0
 10
16.5544763398
 20
69.9973759242
 30
0.0
 10
16.327756941
 20
70.7574614362
 30
0.0
 10
16.1800644633
 20
71.5069291524
 30
0.0
 10
16.1150007188
 20
72.2327927968
 30
0.0
 10
16.1353888272
 20
72.923137214
 30
0.0
 10
16.2437725547
 20
73.5669877429
 30
0.0
 10
16.4425843596
 20
74.1527905842
 30
0.0
 10
16.6409486874
 20
74.5031169755
 30
0.0
 10
16.7548835158
 20
74.6612129775
 30
0.0
  0
SPLINE
  5
310
100
AcDbEntity
  8
0
100
AcDbSpline
 62
7
  6
BYLAYER
 70
0
 71
3
 72
15
 73
11
 74
0
 42
0.0000001
 43
0.0000001
 44
0.0000000001
 40
0.0
 40
0.0
 40
0.0
 40
0.0
 40
0.1035975295
 40
0.2123176675
 40
0.3274048264
 40
0.4495283204
 40
0.5786821717
 40
0.714259855
 40
0.8551841758
 40
1.0
 40
1.0
 40
1.0
 40
1.0
 10
22.515307201
 20
64.6838698705
 30
0.0
 10
22.3208735229
 20
64.6641902107
 30
0.0
 10
21.9171017352
 20
64.6676999361
 30
0.0
 10
21.3086155136
 20
64.7892523523
 30
0.0
 10
20.6951060691
 20
65.0187011108
 30
0.0
 10
20.0854313801
 20
65.3480890088
 30
0.0
 10
19.4878949773
 20
65.769658017
 30
0.0
 10
18.9114806792
 20
66.2749208309
 30
0.0
 10
18.365724717
 20
66.8541613293
 30
0.0
 10
18.0318336085
 20
67.2783289435
 30
0.0
 10
17.8720340059
 20
67.4998966472
 30
0.0
  0
SPLINE
  5
311
100
AcDbEntity
  8
0
100
AcDbSpline
 62
7
  6
BYLAYER
 70
0
 71
3
 72
9
 73
5
 74
0
 42
0.0000001
 43
0.0000001
 44
0.0000000001
 40
0.0
 40
0.0
 40
0.0
 40
0.0
 40
0.5191552544
 40
1.0
 40
1.0
 40
1.0
 40
1.0
 10
16.1569089762
 20
73.0052887276
 30
0.0
 10
16.0448473663
 20
73.5294518633
 30
0.0
 10
15.8919725797
 20
74.5540538025
 30
0.0
 10
15.8940868796
 20
75.5920649292
 30
0.0
 10
15.9418318125
 20
76.0862177873
 30
0.0
  0
SPLINE
  5
312
100
AcDbEntity
  8
0
100
AcDbSpline
 62
7
  6
BYLAYER
 70
0
 71
3
 72
13
 73
9
 74
0
 42
0.0000001
 43
0.0000001
 44
0.0000000001
 40
0.0
 40
0.0
 40
0.0
 40
0.0
 40
0.3063283668
 40
0.5828058969
 40
0.7036327616
 40
0.811862735
 40
0.9093071587
 40
1.0
 40
1.0
 40
1.0
 40
1.0
 10
17.3230632126
 20
67.9335011404
 30
0.0
 10
17.3326939229
 20
67.9168203534
 30
0.0
 10
17.3476038521
 20
67.8829928772
 30
0.0
 10
17.3555007353
 20
67.8387791649
 30
0.0
 10
17.3529748987
 20
67.8069213231
 30
0.0
 10
17.3471300834
 20
67.7870392066
 30
0.0
 10
17.3372372453
 20
67.7709518317
 30
0.0
 10
17.3280017669
 20
67.7631461787
 30
0.0
 10
17.3230632126
 20
67.7602948216
 30
0.0
  0
SPLINE
  5
313
100
AcDbEntity
  8
0
100
AcDbSpline
 62
7
  6
BYLAYER
 70
0
 71
3
 72
13
 73
9
 74
0
 42
0.0000001
 43
0.0000001
 44
0.0000000001
 40
0.0
 40
0.0
 40
0.0
 40
0.0
 40
0.090693071
 40
0.1881372662
 40
0.296366797
 40
0.4171932349
 40
0.6936705319
 40
1.0
 40
1.0
 40
1.0
 40
1.0
 10
16.8230611309
 20
68.6263190235
 30
0.0
 10
16.8279996687
 20
68.6291703711
 30
0.0
 10
16.8393771355
 20
68.6332659671
 30
0.0
 10
16.8582554902
 20
68.6337901164
 30
0.0
 10
16.8783962124
 20
68.6289111675
 30
0.0
 10
16.9072487574
 20
68.6151701124
 30
0.0
 10
16.9415905383
 20
68.5862247177
 30
0.0
 10
16.9634310669
 20
68.5563988309
 30
0.0
 10
16.9730617554
 20
68.5397180817
 30
0.0
  0
SPLINE
  5
314
100
AcDbEntity
  8
0
100
AcDbSpline
 62
7
  6
BYLAYER
 70
0
 71
3
 72
12
 73
8
 74
0
 42
0.0000001
 43
0.0000001
 44
0.0000000001
 40
0.0
 40
0.0
 40
0.0
 40
0.0
 40
0.2895700372
 40
0.5486410397
 40
0.7816368638
 40
0.8918393782
 40
1.0
 40
1.0
 40
1.0
 40
1.0
 10
21.9158492871
 20
68.9481152655
 30
0.0
 10
21.9158492871
 20
68.821405423
 30
0.0
 10
21.8966428432
 20
68.5804737562
 30
0.0
 10
21.7992404894
 20
68.2496320441
 30
0.0
 10
21.6592281368
 20
68.0213750276
 30
0.0
 10
21.5178602818
 20
67.8823229003
 30
0.0
 10
21.4390506738
 20
67.8273264137
 30
0.0
 10
21.3980650326
 20
67.8036579374
 30
0.0
  0
SPLINE
  5
315
100
AcDbEntity
  8
0
100
AcDbSpline
 62
7
  6
BYLAYER
 70
0
 71
3
 72
11
 73
7
 74
0
 42
0.0000001
 43
0.0000001
 44
0.0000000001
 40
0.0
 40
0.0
 40
0.0
 40
0.0
 40
0.2614962747
 40
0.5134474709
 40
0.7585120952
 40
1.0
 40
1.0
 40
1.0
 40
1.0
 10
16.686488606
 20
78.6642662857
 30
0.0
 10
16.7766477629
 20
78.8847692142
 30
0.0
 10
16.9822175946
 20
79.3069221184
 30
0.0
 10
17.3749672455
 20
79.8787796605
 30
0.0
 10
17.8424777745
 20
80.3667982911
 30
0.0
 10
18.2018570584
 20
80.6308315069
 30
0.0
 10
18.3899842584
 20
80.7448759722
 30
0.0
  0
SPLINE
  5
316
100
AcDbEntity
  8
0
100
AcDbSpline
 62
7
  6
BYLAYER
 70
0
 71
3
 72
9
 73
5
 74
0
 42
0.0000001
 43
0.0000001
 44
0.0000000001
 40
0.0
 40
0.0
 40
0.0
 40
0.0
 40
0.4868971654
 40
1.0
 40
1.0
 40
1.0
 40
1.0
 10
22.5565477339
 20
63.677508365
 30
0.0
 10
22.2297177799
 20
63.86972466
 30
0.0
 10
21.5822897635
 20
64.3058512974
 30
0.0
 10
20.9844496835
 20
64.8070219813
 30
0.0
 10
20.6904462577
 20
65.0776115798
 30
0.0
  0
SPLINE
  5
317
100
AcDbEntity
  8
0
100
AcDbSpline
 62
7
  6
BYLAYER
 70
0
 71
3
 72
9
 73
5
 74
0
 42
0.0000001
 43
0.0000001
 44
0.0000000001
 40
0.0
 40
0.0
 40
0.0
 40
0.0
 40
0.2452232883
 40
1.0
 40
1.0
 40
1.0
 40
1.0
 10
23.3497364047
 20
63.2641023734
 30
0.0
 10
23.2831496699
 20
63.294345735
 30
0.0
 10
23.0133578082
 20
63.421493337
 30
0.0
 10
22.7505765816
 20
63.5633954884
 30
0.0
 10
22.5565477339
 20
63.677508365
 30
0.0
  0
SPLINE
  5
318
100
AcDbEntity
  8
0
100
AcDbSpline
 62
7
  6
BYLAYER
 70
0
 71
3
 72
11
 73
7
 74
0
 42
0.0000001
 43
0.0000001
 44
0.0000000001
 40
0.0
 40
0.0
 40
0.0
 40
0.0
 40
0.2414877865
 40
0.4865523277
 40
0.7385036304
 40
1.0
 40
1.0
 40
1.0
 40
1.0
 10
28.6014211856
 20
63.0580428203
 30
0.0
 10
28.4085917285
 20
62.9521431672
 30
0.0
 10
28.0002419283
 20
62.772930176
 30
0.0
 10
27.3438493115
 20
62.6120672181
 30
0.0
 10
26.6522309805
 20
62.5578680087
 30
0.0
 10
26.1838509029
 20
62.5909182951
 30
0.0
 10
25.9478102672
 20
62.6230908711
 30
0.0
  0
SPLINE
  5
319
100
AcDbEntity
  8
0
100
AcDbSpline
 62
7
  6
BYLAYER
 70
0
 71
3
 72
13
 73
9
 74
0
 42
0.0000001
 43
0.0000001
 44
0.0000000001
 40
0.0
 40
0.0
 40
0.0
 40
0.0
 40
0.0988978863
 40
0.2017651723
 40
0.3115668729
 40
0.4302721423
 40
0.6967088375
 40
1.0
 40
1.0
 40
1.0
 40
1.0
 10
33.6039731264
 20
79.7555380303
 30
0.0
 10
33.6452995956
 20
79.7782400494
 30
0.0
 10
33.7356711065
 20
79.8142696215
 30
0.0
 10
33.8837851388
 20
79.8359947679
 30
0.0
 10
34.0424707028
 20
79.8260822335
 30
0.0
 10
34.2725986921
 20
79.7694251285
 30
0.0
 10
34.5683664176
 20
79.6177147308
 30
0.0
 10
34.7784608459
 20
79.4427262134
 30
0.0
 10
34.8813114641
 20
79.341085385
 30
0.0
  0
SPLINE
  5
31A
100
AcDbEntity
  8
0
100
AcDbSpline
 62
7
  6
BYLAYER
 70
0
 71
3
 72
11
 73
7
 74
0
 42
0.0000001
 43
0.0000001
 44
0.0000000001
 40
0.0
 40
0.0
 40
0.0
 40
0.0
 40
0.2428439014
 40
0.4886464695
 40
0.7402546647
 40
1.0
 40
1.0
 40
1.0
 40
1.0
 10
21.2959257111
 20
84.7187296662
 30
0.0
 10
21.4561179628
 20
84.811216157
 30
0.0
 10
21.7916388299
 20
84.9754495376
 30
0.0
 10
22.3284220631
 20
85.1532190592
 30
0.0
 10
22.8963176141
 20
85.262081082
 30
0.0
 10
23.2860229339
 20
85.2879795417
 30
0.0
 10
23.4838602901
 20
85.2899927866
 30
0.0
  0
SPLINE
  5
31B
100
AcDbEntity
  8
0
100
AcDbSpline
 62
7
  6
BYLAYER
 70
0
 71
3
 72
9
 73
5
 74
0
 42
0.0000001
 43
0.0000001
 44
0.0000000001
 40
0.0
 40
0.0
 40
0.0
 40
0.0
 40
0.4919751828
 40
1.0
 40
1.0
 40
1.0
 40
1.0
 10
23.0152960426
 20
93.3347322831
 30
0.0
 10
23.030584911
 20
93.3435592557
 30
0.0
 10
23.0638345857
 20
93.3579529236
 30
0.0
 10
23.0993774336
 20
93.3647064556
 30
0.0
 10
23.1175333969
 20
93.3663473174
 30
0.0
  0
SPLINE
  5
31C
100
AcDbEntity
  8
0
100
AcDbSpline
 62
7
  6
BYLAYER
 70
0
 71
3
 72
9
 73
5
 74
0
 42
0.0000001
 43
0.0000001
 44
0.0000000001
 40
0.0
 40
0.0
 40
0.0
 40
0.0
 40
0.2244704631
 40
1.0
 40
1.0
 40
1.0
 40
1.0
 10
23.1175333969
 20
93.3663473174
 30
0.0
 10
23.1368228029
 20
93.3680906152
 30
0.0
 10
23.2236276912
 20
93.366892798
 30
0.0
 10
23.307314766
 20
93.3335113461
 30
0.0
 10
23.3652631748
 20
93.3000506496
 30
0.0
  0
SPLINE
  5
31D
100
AcDbEntity
  8
0
100
AcDbSpline
 62
7
  6
BYLAYER
 70
0
 71
3
 72
11
 73
7
 74
0
 42
0.0000001
 43
0.0000001
 44
0.0000000001
 40
0.0
 40
0.0
 40
0.0
 40
0.0
 40
0.2177783651
 40
0.4509036776
 40
0.7102924417
 40
1.0
 40
1.0
 40
1.0
 40
1.0
 10
18.4191211008
 20
90.6811452828
 30
0.0
 10
18.3960325386
 20
90.6678151709
 30
0.0
 10
18.3528350292
 20
90.6314974356
 30
0.0
 10
18.306849636
 20
90.5562988203
 30
0.0
 10
18.2795410728
 20
90.4636266354
 30
0.0
 10
18.274168789
 20
90.3961778724
 30
0.0
 10
18.2741710617
 20
90.360711993
 30
0.0
  0
SPLINE
  5
31E
100
AcDbEntity
  8
0
100
AcDbSpline
 62
7
  6
BYLAYER
 70
0
 71
3
 72
11
 73
7
 74
0
 42
0.0000001
 43
0.0000001
 44
0.0000000001
 40
0.0
 40
0.0
 40
0.0
 40
0.0
 40
0.2597463093
 40
0.5113546722
 40
0.7571568223
 40
1.0
 40
1.0
 40
1.0
 40
1.0
 10
35.0846244852
 20
65.1969913349
 30
0.0
 10
34.9839594637
 20
65.0266532487
 30
0.0
 10
34.7666707581
 20
64.7020842399
 30
0.0
 10
34.3884287473
 20
64.2646726519
 30
0.0
 10
33.9660623663
 20
63.8886655421
 30
0.0
 10
33.6560539719
 20
63.6802013748
 30
0.0
 10
33.4958529001
 20
63.5877097918
 30
0.0
  0
SPLINE
  5
31F
100
AcDbEntity
  8
0
100
AcDbSpline
 62
7
  6
BYLAYER
 70
0
 71
3
 72
11
 73
7
 74
0
 42
0.0000001
 43
0.0000001
 44
0.0000000001
 40
0.0
 40
0.0
 40
0.0
 40
0.0
 40
0.2276695224
 40
0.4708555841
 40
0.7303857568
 40
1.0
 40
1.0
 40
1.0
 40
1.0
 10
15.6830481058
 20
77.2223256346
 30
0.0
 10
15.6469014124
 20
77.1894722886
 30
0.0
 10
15.5867624337
 20
77.1041662438
 30
0.0
 10
15.550600204
 20
76.9484800697
 30
0.0
 10
15.5665881206
 20
76.7810426896
 30
0.0
 10
15.6099667112
 20
76.6741988079
 30
0.0
 10
15.6388893698
 20
76.6241035717
 30
0.0
  0
LINE
  5
320
100
AcDbEntity
  8
0
100
AcDbLine
 62
7
  6
BYLAYER
 10
17.4990885923
 20
78.8726352686
 11
15.6830481058
 21
77.2223256346
  0
SPLINE
  5
321
100
AcDbEntity
  8
0
100
AcDbSpline
 62
7
  6
BYLAYER
 70
0
 71
3
 72
9
 73
5
 74
0
 42
0.0000001
 43
0.0000001
 44
0.0000000001
 40
0.0
 40
0.0
 40
0.0
 40
0.0
 40
0.2681364145
 40
1.0
 40
1.0
 40
1.0
 40
1.0
 10
34.5744817664
 20
60.2154399488
 30
0.0
 10
34.6118177201
 20
60.1971710334
 30
0.0
 10
34.7534041089
 20
60.1342729353
 30
0.0
 10
34.9059962521
 20
60.0935425597
 30
0.0
 10
35.0190136663
 20
60.0836227259
 30
0.0
  0
SPLINE
  5
322
100
AcDbEntity
  8
0
100
AcDbSpline
 62
7
  6
BYLAYER
 70
0
 71
3
 72
11
 73
7
 74
0
 42
0.0000001
 43
0.0000001
 44
0.0000000001
 40
0.0
 40
0.0
 40
0.0
 40
0.0
 40
0.2696121324
 40
0.5291459435
 40
0.7723338875
 40
1.0
 40
1.0
 40
1.0
 40
1.0
 10
23.6572564297
 20
62.7359615264
 30
0.0
 10
23.6861789572
 20
62.6858665176
 30
0.0
 10
23.7570200453
 20
62.5948774339
 30
0.0
 10
23.8940325431
 20
62.4973125336
 30
0.0
 10
24.0469429592
 20
62.4507871517
 30
0.0
 10
24.1508895184
 20
62.460215901
 30
0.0
 10
24.1974142237
 20
62.4750927893
 30
0.0
  0
LINE
  5
323
100
AcDbEntity
  8
0
100
AcDbLine
 62
7
  6
BYLAYER
 10
24.1974142237
 20
62.4750927893
 11
26.534652902
 21
63.2226656857
  0
SPLINE
  5
324
100
AcDbEntity
  8
0
100
AcDbSpline
 62
7
  6
BYLAYER
 70
0
 71
3
 72
9
 73
5
 74
0
 42
0.0000001
 43
0.0000001
 44
0.0000000001
 40
0.0
 40
0.0
 40
0.0
 40
0.0
 40
0.2685566662
 40
1.0
 40
1.0
 40
1.0
 40
1.0
 10
35.7028364221
 20
61.1922859018
 30
0.0
 10
35.7028364221
 20
61.1525215196
 30
0.0
 10
35.6975031518
 20
61.0046388589
 30
0.0
 10
35.6693306356
 20
60.8565667344
 30
0.0
 10
35.6313145866
 20
60.7551554977
 30
0.0
  0
SPLINE
  5
325
100
AcDbEntity
  8
0
100
AcDbSpline
 62
7
  6
BYLAYER
 70
0
 71
3
 72
12
 73
8
 74
0
 42
0.0000001
 43
0.0000001
 44
0.0000000001
 40
0.0
 40
0.0
 40
0.0
 40
0.0
 40
0.2888082029
 40
0.5475973221
 40
0.7808986593
 40
0.89144173
 40
1.0
 40
1.0
 40
1.0
 40
1.0
 10
21.8803633874
 20
69.39640219
 30
0.0
 10
21.8792316246
 20
69.3023950765
 30
0.0
 10
21.862883198
 20
69.123693318
 30
0.0
 10
21.787876114
 20
68.8786125837
 30
0.0
 10
21.6822850662
 20
68.7096547381
 30
0.0
 10
21.5764616034
 20
68.6064238836
 30
0.0
 10
21.5175753213
 20
68.5654808953
 30
0.0
 10
21.4869712783
 20
68.5478120646
 30
0.0
  0
SPLINE
  5
326
100
AcDbEntity
  8
0
100
AcDbSpline
 62
7
  6
BYLAYER
 70
0
 71
3
 72
11
 73
7
 74
0
 42
0.0000001
 43
0.0000001
 44
0.0000000001
 40
0.0
 40
0.0
 40
0.0
 40
0.0
 40
0.2897065534
 40
0.5490949011
 40
0.7822206413
 40
1.0
 40
1.0
 40
1.0
 40
1.0
 10
18.7690908242
 20
90.6464621533
 30
0.0
 10
18.7383783494
 20
90.6641962175
 30
0.0
 10
18.6772813833
 20
90.6932666532
 30
0.0
 10
18.5833730739
 20
90.7159514456
 30
0.0
 10
18.4952587305
 20
90.7137258354
 30
0.0
 10
18.4422091558
 20
90.6944751019
 30
0.0
 10
18.4191211008
 20
90.6811452828
 30
0.0
  0
SPLINE
  5
327
100
AcDbEntity
  8
0
100
AcDbSpline
 62
7
  6
BYLAYER
 70
0
 71
3
 72
9
 73
5
 74
0
 42
0.0000001
 43
0.0000001
 44
0.0000000001
 40
0.0
 40
0.0
 40
0.0
 40
0.0
 40
0.2551630492
 40
1.0
 40
1.0
 40
1.0
 40
1.0
 10
22.4564700021
 20
63.9043744975
 30
0.0
 10
22.5143082359
 20
63.8703584874
 30
0.0
 10
22.7425087322
 20
63.7396743908
 30
0.0
 10
22.9768794141
 20
63.6196851415
 30
0.0
 10
23.1546233515
 20
63.5373972823
 30
0.0
  0
SPLINE
  5
328
100
AcDbEntity
  8
0
100
AcDbSpline
 62
7
  6
BYLAYER
 70
0
 71
3
 72
21
 73
17
 74
0
 42
0.0000001
 43
0.0000001
 44
0.0000000001
 40
0.0
 40
0.0
 40
0.0
 40
0.0
 40
0.0468294956
 40
0.0935501959
 40
0.1410487288
 40
0.1901404986
 40
0.2415084952
 40
0.295668349
 40
0.3529607531
 40
0.4135647874
 40
0.4775133831
 40
0.5447148965
 40
0.6149755886
 40
0.6880138777
 40
0.8408846922
 40
1.0
 40
1.0
 40
1.0
 40
1.0
 10
26.5592597857
 20
63.174110419
 30
0.0
 10
26.7230635191
 20
63.2310163951
 30
0.0
 10
27.0415645388
 20
63.3721400241
 30
0.0
 10
27.477995494
 20
63.6634662597
 30
0.0
 10
27.8653600687
 20
64.0297439824
 30
0.0
 10
28.1996436563
 20
64.4665513828
 30
0.0
 10
28.4778944085
 20
64.9690916665
 30
0.0
 10
28.6978496568
 20
65.5321614155
 30
0.0
 10
28.8578771219
 20
66.1502350598
 30
0.0
 10
28.9567265666
 20
66.8174441971
 30
0.0
 10
28.9936730887
 20
67.5274991709
 30
0.0
 10
28.968525464
 20
68.2737113523
 30
0.0
 10
28.8815611197
 20
69.0490612189
 30
0.0
 10
28.6812696312
 20
70.1281230794
 30
0.0
 10
28.2796706674
 20
71.5003402437
 30
0.0
 10
27.8244182087
 20
72.5652898257
 30
0.0
 10
27.5628006784
 20
73.093216627
 30
0.0
  0
SPLINE
  5
329
100
AcDbEntity
  8
0
100
AcDbSpline
 62
7
  6
BYLAYER
 70
0
 71
3
 72
11
 73
7
 74
0
 42
0.0000001
 43
0.0000001
 44
0.0000000001
 40
0.0
 40
0.0
 40
0.0
 40
0.0
 40
0.2661548365
 40
0.5242705113
 40
0.7700448538
 40
1.0
 40
1.0
 40
1.0
 40
1.0
 10
26.5578901387
 20
74.8329753499
 30
0.0
 10
26.2805120969
 20
75.2494863802
 30
0.0
 10
25.694511894
 20
76.0444088773
 30
0.0
 10
24.7212913647
 20
77.1197979349
 30
0.0
 10
23.6881473447
 20
78.038521415
 30
0.0
 10
22.949957877
 20
78.5491125575
 30
0.0
 10
22.5772756557
 20
78.7682956371
 30
0.0
  0
SPLINE
  5
32A
100
AcDbEntity
  8
0
100
AcDbSpline
 62
7
  6
BYLAYER
 70
0
 71
3
 72
9
 73
5
 74
0
 42
0.0000001
 43
0.0000001
 44
0.0000000001
 40
0.0
 40
0.0
 40
0.0
 40
0.0
 40
0.2587356882
 40
1.0
 40
1.0
 40
1.0
 40
1.0
 10
21.0797586176
 20
64.8856014511
 30
0.0
 10
21.1914450455
 20
64.7917249071
 30
0.0
 10
21.6298910079
 20
64.4371315249
 30
0.0
 10
22.0961686106
 20
64.1162761231
 30
0.0
 10
22.4564700021
 20
63.9043744975
 30
0.0
  0
SPLINE
  5
32B
100
AcDbEntity
  8
0
100
AcDbSpline
 62
7
  6
BYLAYER
 70
0
 71
3
 72
13
 73
9
 74
0
 42
0.0000001
 43
0.0000001
 44
0.0000000001
 40
0.0
 40
0.0
 40
0.0
 40
0.0
 40
0.2770920272
 40
0.4108981636
 40
0.5402735058
 40
0.6644285566
 40
0.7827306897
 40
1.0
 40
1.0
 40
1.0
 40
1.0
 10
26.4356421589
 20
72.4441934939
 30
0.0
 10
26.6428406358
 20
72.0033462646
 30
0.0
 10
26.9101701857
 20
71.3293530484
 30
0.0
 10
27.168280222
 20
70.4147203563
 30
0.0
 10
27.3056449313
 20
69.7471659176
 30
0.0
 10
27.3874141156
 20
69.0977688035
 30
0.0
 10
27.4200389519
 20
68.2899038521
 30
0.0
 10
27.3629666637
 20
67.6969249506
 30
0.0
 10
27.2792514888
 20
67.3242656445
 30
0.0
  0
SPLINE
  5
32C
100
AcDbEntity
  8
0
100
AcDbSpline
 62
7
  6
BYLAYER
 70
0
 71
3
 72
11
 73
7
 74
0
 42
0.0000001
 43
0.0000001
 44
0.0000000001
 40
0.0
 40
0.0
 40
0.0
 40
0.0
 40
0.270924817
 40
0.5263500322
 40
0.7684215281
 40
1.0
 40
1.0
 40
1.0
 40
1.0
 10
27.2792514888
 20
67.3242656445
 30
0.0
 10
27.2426087196
 20
67.1611498299
 30
0.0
 10
27.1537436358
 20
66.8477849822
 30
0.0
 10
26.9661161924
 20
66.4107214081
 30
0.0
 10
26.729884954
 20
66.0258894553
 30
0.0
 10
26.538062735
 20
65.8032273589
 30
0.0
 10
26.4356421595
 20
65.7035739525
 30
0.0
  0
SPLINE
  5
32D
100
AcDbEntity
  8
0
100
AcDbSpline
 62
7
  6
BYLAYER
 70
0
 71
3
 72
9
 73
5
 74
0
 42
0.0000001
 43
0.0000001
 44
0.0000000001
 40
0.0
 40
0.0
 40
0.0
 40
0.0
 40
0.2585353862
 40
1.0
 40
1.0
 40
1.0
 40
1.0
 10
19.1105740192
 20
87.3674983397
 30
0.0
 10
19.1135053842
 20
87.3836582284
 30
0.0
 10
19.126106165
 20
87.4459214953
 30
0.0
 10
19.143930441
 20
87.5071791357
 30
0.0
 10
19.1604640247
 20
87.5512839603
 30
0.0
  0
SPLINE
  5
32E
100
AcDbEntity
  8
0
100
AcDbSpline
 62
7
  6
BYLAYER
 70
0
 71
3
 72
11
 73
7
 74
0
 42
0.0000001
 43
0.0000001
 44
0.0000000001
 40
0.0
 40
0.0
 40
0.0
 40
0.0
 40
0.2315781316
 40
0.473649297
 40
0.7290745441
 40
1.0
 40
1.0
 40
1.0
 40
1.0
 10
19.5981076564
 20
77.5464653591
 30
0.0
 10
19.7356241796
 20
77.5853420644
 30
0.0
 10
20.0243754627
 20
77.6401414081
 30
0.0
 10
20.4757812937
 20
77.6523130044
 30
0.0
 10
20.9481208012
 20
77.5962709859
 30
0.0
 10
21.2639469781
 20
77.5165442596
 30
0.0
 10
21.4235367269
 20
77.4667172939
 30
0.0
  0
SPLINE
  5
32F
100
AcDbEntity
  8
0
100
AcDbSpline
 62
7
  6
BYLAYER
 70
0
 71
3
 72
13
 73
9
 74
0
 42
0.0000001
 43
0.0000001
 44
0.0000000001
 40
0.0
 40
0.0
 40
0.0
 40
0.0
 40
0.2172695773
 40
0.3355716957
 40
0.459726668
 40
0.5891019032
 40
0.722907945
 40
1.0
 40
1.0
 40
1.0
 40
1.0
 10
21.4235367269
 20
77.4667172939
 30
0.0
 10
21.7881187228
 20
77.3528878357
 30
0.0
 10
22.3301775399
 20
77.1058285803
 30
0.0
 10
23.0134819136
 20
76.6736512571
 30
0.0
 10
23.5349803592
 20
76.2781478018
 30
0.0
 10
24.0444064083
 20
75.8254203815
 30
0.0
 10
24.7074336457
 20
75.1445910411
 30
0.0
 10
25.1574564049
 20
74.5760945847
 30
0.0
 10
25.435637999
 20
74.1762418923
 30
0.0
  0
SPLINE
  5
330
100
AcDbEntity
  8
0
100
AcDbSpline
 62
7
  6
BYLAYER
 70
0
 71
3
 72
10
 73
6
 74
0
 42
0.0000001
 43
0.0000001
 44
0.0000000001
 40
0.0
 40
0.0
 40
0.0
 40
0.0
 40
0.2819923061
 40
0.5439659912
 40
1.0
 40
1.0
 40
1.0
 40
1.0
 10
20.6908189819
 20
87.7666920248
 30
0.0
 10
20.6177626674
 20
87.8314739233
 30
0.0
 10
20.469526306
 20
87.948876111
 30
0.0
 10
20.1728151874
 20
88.1272881143
 30
0.0
 10
19.9300651229
 20
88.2090100843
 30
0.0
 10
19.772764945
 20
88.222816732
 30
0.0
  0
SPLINE
  5
331
100
AcDbEntity
  8
0
100
AcDbSpline
 62
7
  6
BYLAYER
 70
0
 71
3
 72
15
 73
11
 74
0
 42
0.0000001
 43
0.0000001
 44
0.0000000001
 40
0.0
 40
0.0
 40
0.0
 40
0.0
 40
0.1508644419
 40
0.2927769998
 40
0.4257624018
 40
0.5505010621
 40
0.6682029308
 40
0.7807109604
 40
0.8904075355
 40
1.0
 40
1.0
 40
1.0
 40
1.0
 10
22.5772756557
 20
78.7682956371
 30
0.0
 10
22.3409141439
 20
78.9073053377
 30
0.0
 10
21.8691257715
 20
79.1557912739
 30
0.0
 10
21.1479026859
 20
79.4408578067
 30
0.0
 10
20.442630347
 20
79.6232614328
 30
0.0
 10
19.762042064
 20
79.7001698993
 30
0.0
 10
19.1145504939
 20
79.6696122962
 30
0.0
 10
18.5088463029
 20
79.5307975741
 30
0.0
 10
17.9541303571
 20
79.2849015027
 30
0.0
 10
17.6261812373
 20
79.0531508753
 30
0.0
 10
17.4751677004
 20
78.9232548987
 30
0.0
  0
SPLINE
  5
332
100
AcDbEntity
  8
0
100
AcDbSpline
 62
7
  6
BYLAYER
 70
0
 71
3
 72
9
 73
5
 74
0
 42
0.0000001
 43
0.0000001
 44
0.0000000001
 40
0.0
 40
0.0
 40
0.0
 40
0.0
 40
0.480701373
 40
1.0
 40
1.0
 40
1.0
 40
1.0
 10
16.0831954935
 20
75.8046031552
 30
0.0
 10
16.0454408402
 20
75.3968572186
 30
0.0
 10
16.0371710067
 20
74.5414741617
 30
0.0
 10
16.1429492365
 20
73.6938618335
 30
0.0
 10
16.222347986
 20
73.2586760395
 30
0.0
  0
SPLINE
  5
333
100
AcDbEntity
  8
0
100
AcDbSpline
 62
7
  6
BYLAYER
 70
0
 71
3
 72
11
 73
7
 74
0
 42
0.0000001
 43
0.0000001
 44
0.0000000001
 40
0.0
 40
0.0
 40
0.0
 40
0.0
 40
0.2597463093
 40
0.5113546722
 40
0.7571568223
 40
1.0
 40
1.0
 40
1.0
 40
1.0
 10
19.7071541261
 20
83.1094481231
 30
0.0
 10
19.8078191476
 20
83.2797862092
 30
0.0
 10
20.0251078532
 20
83.6043552181
 30
0.0
 10
20.403349864
 20
84.0417668061
 30
0.0
 10
20.825716245
 20
84.4177739159
 30
0.0
 10
21.1357246394
 20
84.6262380832
 30
0.0
 10
21.2959257111
 20
84.7187296662
 30
0.0
  0
SPLINE
  5
334
100
AcDbEntity
  8
0
100
AcDbSpline
 62
7
  6
BYLAYER
 70
0
 71
3
 72
15
 73
11
 74
0
 42
0.0000001
 43
0.0000001
 44
0.0000000001
 40
0.0
 40
0.0
 40
0.0
 40
0.0
 40
0.0951119087
 40
0.1977486922
 40
0.3095910012
 40
0.4312462693
 40
0.5623899857
 40
0.7019852169
 40
0.8485107736
 40
1.0
 40
1.0
 40
1.0
 40
1.0
 10
16.9538394108
 20
74.3465559057
 30
0.0
 10
16.840621059
 20
74.221606514
 30
0.0
 10
16.6377040121
 20
73.9311694327
 30
0.0
 10
16.4255557458
 20
73.4213954905
 30
0.0
 10
16.2985671934
 20
72.8363524711
 30
0.0
 10
16.2583305189
 20
72.1890958901
 30
0.0
 10
16.3050294
 20
71.4933560182
 30
0.0
 10
16.4373079419
 20
70.7641348471
 30
0.0
 10
16.6522032814
 20
70.0174981643
 30
0.0
 10
16.8451015452
 20
69.5247419801
 30
0.0
 10
16.9538393986
 20
69.2791805097
 30
0.0
  0
SPLINE
  5
335
100
AcDbEntity
  8
0
100
AcDbSpline
 62
7
  6
BYLAYER
 70
0
 71
3
 72
9
 73
5
 74
0
 42
0.0000001
 43
0.0000001
 44
0.0000000001
 40
0.0
 40
0.0
 40
0.0
 40
0.0
 40
0.4999994695
 40
1.0
 40
1.0
 40
1.0
 40
1.0
 10
16.6388935192
 20
77.2014727775
 30
0.0
 10
16.4546087214
 20
77.1422643674
 30
0.0
 10
16.097207896
 20
76.9849845276
 30
0.0
 10
15.7823049424
 20
76.7540984076
 30
0.0
 10
15.6388893551
 20
76.6241035969
 30
0.0
  0
SPLINE
  5
336
100
AcDbEntity
  8
0
100
AcDbSpline
 62
7
  6
BYLAYER
 70
0
 71
3
 72
15
 73
11
 74
0
 42
0.0000001
 43
0.0000001
 44
0.0000000001
 40
0.0
 40
0.0
 40
0.0
 40
0.0
 40
0.1514898369
 40
0.2980157319
 40
0.4376110509
 40
0.5687546446
 40
0.6904096423
 40
0.8022516235
 40
0.9048881433
 40
1.0
 40
1.0
 40
1.0
 40
1.0
 10
22.342306348
 20
72.3903022701
 30
0.0
 10
22.1840121839
 20
72.607251306
 30
0.0
 10
21.8537210606
 20
73.0206809111
 30
0.0
 10
21.3145615939
 20
73.5800983243
 30
0.0
 10
20.7491769837
 20
74.0592585488
 30
0.0
 10
20.169999152
 20
74.4475629308
 30
0.0
 10
19.5893421978
 20
74.7363363953
 30
0.0
 10
19.0191886418
 20
74.9188730168
 30
0.0
 10
18.4716409179
 20
74.9900239978
 30
0.0
 10
18.1186600864
 20
74.9595038799
 30
0.0
 10
17.9538436223
 20
74.9239251058
 30
0.0
  0
SPLINE
  5
337
100
AcDbEntity
  8
0
100
AcDbSpline
 62
7
  6
BYLAYER
 70
0
 71
3
 72
15
 73
11
 74
0
 42
0.0000001
 43
0.0000001
 44
0.0000000001
 40
0.0
 40
0.0
 40
0.0
 40
0.0
 40
0.0951119088
 40
0.1977486924
 40
0.3095910015
 40
0.4312462697
 40
0.5623899861
 40
0.7019852173
 40
0.8485107739
 40
1.0
 40
1.0
 40
1.0
 40
1.0
 10
23.3423105542
 20
65.5908784157
 30
0.0
 10
23.4555289047
 20
65.715827809
 30
0.0
 10
23.6584459482
 20
66.0062648933
 30
0.0
 10
23.8705942103
 20
66.5160388382
 30
0.0
 10
23.9975827586
 20
67.1010818596
 30
0.0
 10
24.0378194293
 20
67.7483384417
 30
0.0
 10
23.9911205448
 20
68.444078314
 30
0.0
 10
23.8588419998
 20
69.1732994847
 30
0.0
 10
23.6439466578
 20
69.9199361664
 30
0.0
 10
23.4510483927
 20
70.4126923498
 30
0.0
 10
23.3423105385
 20
70.6582538195
 30
0.0
  0
SPLINE
  5
338
100
AcDbEntity
  8
0
100
AcDbSpline
 62
7
  6
BYLAYER
 70
0
 71
3
 72
9
 73
5
 74
0
 42
0.0000001
 43
0.0000001
 44
0.0000000001
 40
0.0
 40
0.0
 40
0.0
 40
0.0
 40
0.4999994695
 40
1.0
 40
1.0
 40
1.0
 40
1.0
 10
23.6572564292
 20
62.7359615262
 30
0.0
 10
23.841541227
 20
62.7951699362
 30
0.0
 10
24.1989420524
 20
62.952449776
 30
0.0
 10
24.513845006
 20
63.183335896
 30
0.0
 10
24.6572605933
 20
63.3133307067
 30
0.0
  0
SPLINE
  5
339
100
AcDbEntity
  8
0
100
AcDbSpline
 62
7
  6
BYLAYER
 70
0
 71
3
 72
15
 73
11
 74
0
 42
0.0000001
 43
0.0000001
 44
0.0000000001
 40
0.0
 40
0.0
 40
0.0
 40
0.0
 40
0.1514898371
 40
0.2980157323
 40
0.4376110513
 40
0.568754645
 40
0.6904096427
 40
0.8022516237
 40
0.9048881433
 40
1.0
 40
1.0
 40
1.0
 40
1.0
 10
17.9538436168
 20
67.547132011
 30
0.0
 10
18.1121377817
 20
67.3301829754
 30
0.0
 10
18.4424289065
 20
66.9167533712
 30
0.0
 10
18.9815883753
 20
66.3573359597
 30
0.0
 10
19.5469729872
 20
65.8781757377
 30
0.0
 10
20.1261508203
 20
65.4898713588
 30
0.0
 10
20.7068077753
 20
65.2010978982
 30
0.0
 10
21.2769613316
 20
65.0185612811
 30
0.0
 10
21.8245090551
 20
64.9474103052
 30
0.0
 10
22.1774898858
 20
64.9779304265
 30
0.0
 10
22.342306349
 20
65.0135092031
 30
0.0
  0
SPLINE
  5
33A
100
AcDbEntity
  8
0
100
AcDbSpline
 62
7
  6
BYLAYER
 70
0
 71
3
 72
10
 73
6
 74
0
 42
0.0000001
 43
0.0000001
 44
0.0000000001
 40
0.0
 40
0.0
 40
0.0
 40
0.0
 40
0.4560340088
 40
0.7180076939
 40
1.0
 40
1.0
 40
1.0
 40
1.0
 10
20.1970272473
 20
88.4677632244
 30
0.0
 10
20.3543274252
 20
88.4539565766
 30
0.0
 10
20.5970774897
 20
88.3722346066
 30
0.0
 10
20.8937886083
 20
88.1938226033
 30
0.0
 10
21.0420249697
 20
88.0764204157
 30
0.0
 10
21.1150812842
 20
88.0116385171
 30
0.0
  0
SPLINE
  5
33B
100
AcDbEntity
  8
0
100
AcDbSpline
 62
7
  6
BYLAYER
 70
0
 71
3
 72
12
 73
8
 74
0
 42
0.0000001
 43
0.0000001
 44
0.0000000001
 40
0.0
 40
0.0
 40
0.0
 40
0.0
 40
0.2895700372
 40
0.5486410397
 40
0.7816368638
 40
0.8918393782
 40
1.0
 40
1.0
 40
1.0
 40
1.0
 10
18.3803006613
 20
70.9893190381
 30
0.0
 10
18.3803006613
 20
71.1160288806
 30
0.0
 10
18.3995071052
 20
71.3569605475
 30
0.0
 10
18.496909459
 20
71.6878022595
 30
0.0
 10
18.6369218116
 20
71.916059276
 30
0.0
 10
18.7782896666
 20
72.0551114033
 30
0.0
 10
18.8570992746
 20
72.1101078899
 30
0.0
 10
18.8980849158
 20
72.1337763662
 30
0.0
  0
SPLINE
  5
33C
100
AcDbEntity
  8
0
100
AcDbSpline
 62
7
  6
BYLAYER
 70
0
 71
3
 72
14
 73
10
 74
0
 42
0.0000001
 43
0.0000001
 44
0.0000000001
 40
0.0
 40
0.0
 40
0.0
 40
0.0
 40
0.1448580841
 40
0.2862957038
 40
0.4229208231
 40
0.5534750771
 40
0.676965089
 40
0.7927205797
 40
1.0
 40
1.0
 40
1.0
 40
1.0
 10
33.6712842391
 20
76.028014364
 30
0.0
 10
33.8559286893
 20
75.6337986403
 30
0.0
 10
34.1919233526
 20
74.8406911599
 30
0.0
 10
34.5955424678
 20
73.6342069512
 30
0.0
 10
34.8882571987
 20
72.4400596476
 30
0.0
 10
35.0652256484
 20
71.2778962117
 30
0.0
 10
35.1233190968
 20
70.1655332268
 30
0.0
 10
35.0443248698
 20
68.8253409038
 30
0.0
 10
34.8064197933
 20
67.8648222357
 30
0.0
 10
34.5499494536
 20
67.2971726215
 30
0.0
  0
SPLINE
  5
33D
100
AcDbEntity
  8
0
100
AcDbSpline
 62
7
  6
BYLAYER
 70
0
 71
3
 72
11
 73
7
 74
0
 42
0.0000001
 43
0.0000001
 44
0.0000000001
 40
0.0
 40
0.0
 40
0.0
 40
0.0
 40
0.2644635134
 40
0.5169019793
 40
0.7607108853
 40
1.0
 40
1.0
 40
1.0
 40
1.0
 10
34.5499494536
 20
67.2971726215
 30
0.0
 10
34.4611338687
 20
67.1005957674
 30
0.0
 10
34.2625665711
 20
66.7268927555
 30
0.0
 10
33.8934559486
 20
66.2252190662
 30
0.0
 10
33.4641245523
 20
65.8024758569
 30
0.0
 10
33.1391470735
 20
65.5756949413
 30
0.0
 10
32.9701206409
 20
65.4781049429
 30
0.0
  0
SPLINE
  5
33E
100
AcDbEntity
  8
0
100
AcDbSpline
 62
7
  6
BYLAYER
 70
0
 71
3
 72
9
 73
5
 74
0
 42
0.0000001
 43
0.0000001
 44
0.0000000001
 40
0.0
 40
0.0
 40
0.0
 40
0.0
 40
0.4680214868
 40
1.0
 40
1.0
 40
1.0
 40
1.0
 10
33.8289859793
 20
63.4764283243
 30
0.0
 10
33.7802631567
 20
63.4077111474
 30
0.0
 10
33.702859242
 20
63.2414962559
 30
0.0
 10
33.6730804643
 20
63.0622541054
 30
0.0
 10
33.6664428619
 20
62.9667355069
 30
0.0
  0
SPLINE
  5
33F
100
AcDbEntity
  8
0
100
AcDbSpline
 62
7
  6
BYLAYER
 70
0
 71
3
 72
19
 73
15
 74
0
 42
0.0000001
 43
0.0000001
 44
0.0000000001
 40
0.0
 40
0.0
 40
0.0
 40
0.0
 40
0.1233592775
 40
0.181909034
 40
0.2389272534
 40
0.2949714347
 40
0.3506511243
 40
0.406595575
 40
0.463419632
 40
0.5216907194
 40
0.5819044947
 40
0.709540171
 40
0.8486554222
 40
1.0
 40
1.0
 40
1.0
 40
1.0
 10
16.6864951009
 20
78.6642596715
 30
0.0
 10
16.8098581603
 20
78.9659873062
 30
0.0
 10
17.0349792735
 20
79.3962066103
 30
0.0
 10
17.4212453597
 20
79.8971104361
 30
0.0
 10
17.7405759259
 20
80.2208235689
 30
0.0
 10
18.0925105089
 20
80.4966207228
 30
0.0
 10
18.4749667659
 20
80.7228016587
 30
0.0
 10
18.8855540101
 20
80.8979144161
 30
0.0
 10
19.3216772905
 20
81.0209767521
 30
0.0
 10
19.7806857801
 20
81.0913333585
 30
0.0
 10
20.4318581272
 20
81.1150853398
 30
0.0
 10
21.2951462002
 20
81.003969291
 30
0.0
 10
22.3518456483
 20
80.6660401504
 30
0.0
 10
23.041776825
 20
80.3230081352
 30
0.0
 10
23.3881218677
 20
80.1230502552
 30
0.0
  0
SPLINE
  5
340
100
AcDbEntity
  8
0
100
AcDbSpline
 62
7
  6
BYLAYER
 70
0
 71
3
 72
11
 73
7
 74
0
 42
0.0000001
 43
0.0000001
 44
0.0000000001
 40
0.0
 40
0.0
 40
0.0
 40
0.0
 40
0.2768500195
 40
0.5376616032
 40
0.7792168361
 40
1.0
 40
1.0
 40
1.0
 40
1.0
 10
35.0190136663
 20
79.4205900616
 30
0.0
 10
34.9488604691
 20
79.4954366342
 30
0.0
 10
34.8050105205
 20
79.6339350199
 30
0.0
 10
34.5747438512
 20
79.8093377017
 30
0.0
 10
34.3412059175
 20
79.9424214717
 30
0.0
 10
34.1799813335
 20
80.0033461668
 30
0.0
 10
34.1009596294
 20
80.0245188635
 30
0.0
  0
SPLINE
  5
341
100
AcDbEntity
  8
0
100
AcDbSpline
 62
7
  6
BYLAYER
 70
0
 71
3
 72
11
 73
7
 74
0
 42
0.0000001
 43
0.0000001
 44
0.0000000001
 40
0.0
 40
0.0
 40
0.0
 40
0.0
 40
0.2262952093
 40
0.4671451036
 40
0.7271921921
 40
1.0
 40
1.0
 40
1.0
 40
1.0
 10
16.7809187191
 20
67.4472722538
 30
0.0
 10
16.7948442739
 20
67.4553121286
 30
0.0
 10
16.8197228399
 20
67.4794715303
 30
0.0
 10
16.8375648115
 20
67.5295248803
 30
0.0
 10
16.8355536698
 20
67.5855689974
 30
0.0
 10
16.8216764527
 20
67.6216247495
 30
0.0
 10
16.8119839825
 20
67.6384125072
 30
0.0
  0
SPLINE
  5
342
100
AcDbEntity
  8
0
100
AcDbSpline
 62
7
  6
BYLAYER
 70
0
 71
3
 72
11
 73
7
 74
0
 42
0.0000001
 43
0.0000001
 44
0.0000000001
 40
0.0
 40
0.0
 40
0.0
 40
0.0
 40
0.2769304373
 40
0.5319403043
 40
0.7703491281
 40
1.0
 40
1.0
 40
1.0
 40
1.0
 10
33.2579730089
 20
79.2296123701
 30
0.0
 10
33.2700049968
 20
79.28828336
 30
0.0
 10
33.301799854
 20
79.3995390595
 30
0.0
 10
33.3773963482
 20
79.5492912937
 30
0.0
 10
33.4776843062
 20
79.6711032107
 30
0.0
 10
33.5604420255
 20
79.7316249329
 30
0.0
 10
33.6039731264
 20
79.7555380303
 30
0.0
  0
SPLINE
  5
343
100
AcDbEntity
  8
0
100
AcDbSpline
 62
7
  6
BYLAYER
 70
0
 71
3
 72
11
 73
7
 74
0
 42
0.0000001
 43
0.0000001
 44
0.0000000001
 40
0.0
 40
0.0
 40
0.0
 40
0.0
 40
0.2394003232
 40
0.4832699434
 40
0.7356777126
 40
1.0
 40
1.0
 40
1.0
 40
1.0
 10
22.670182514
 20
83.3182276092
 30
0.0
 10
22.8382111423
 20
83.4152431141
 30
0.0
 10
23.1948427966
 20
83.5824327779
 30
0.0
 10
23.771761079
 20
83.7427476863
 30
0.0
 10
24.386574101
 20
83.8125192416
 30
0.0
 10
24.8066929809
 20
83.7989383641
 30
0.0
 10
25.0199264782
 20
83.7783709709
 30
0.0
  0
SPLINE
  5
344
100
AcDbEntity
  8
0
100
AcDbSpline
 62
7
  6
BYLAYER
 70
0
 71
3
 72
10
 73
6
 74
0
 42
0.0000001
 43
0.0000001
 44
0.0000000001
 40
0.0
 40
0.0
 40
0.0
 40
0.0
 40
0.4717406893
 40
0.7288462229
 40
1.0
 40
1.0
 40
1.0
 40
1.0
 10
25.0199264782
 20
83.7783709709
 30
0.0
 10
25.4866718031
 20
83.7333511464
 30
0.0
 10
26.199961468
 20
83.5629601389
 30
0.0
 10
27.1205578835
 20
83.1867644111
 30
0.0
 10
27.5867325666
 20
82.9429026154
 30
0.0
 10
27.820151608
 20
82.8081411177
 30
0.0
  0
SPLINE
  5
345
100
AcDbEntity
  8
0
100
AcDbSpline
 62
7
  6
BYLAYER
 70
0
 71
3
 72
11
 73
7
 74
0
 42
0.0000001
 43
0.0000001
 44
0.0000000001
 40
0.0
 40
0.0
 40
0.0
 40
0.0
 40
0.2299983172
 40
0.4755270416
 40
0.7334722381
 40
1.0
 40
1.0
 40
1.0
 40
1.0
 10
27.820151608
 20
82.8081411177
 30
0.0
 10
28.2219012898
 20
82.5761960781
 30
0.0
 10
29.0189927757
 20
82.0371465488
 30
0.0
 10
30.140245509
 20
81.0677430007
 30
0.0
 10
31.2035165122
 20
79.9321712359
 30
0.0
 10
31.8492081589
 20
79.091908775
 30
0.0
 10
32.1568178665
 20
78.6510406269
 30
0.0
  0
SPLINE
  5
346
100
AcDbEntity
  8
0
100
AcDbSpline
 62
7
  6
BYLAYER
 70
0
 71
3
 72
9
 73
5
 74
0
 42
0.0000001
 43
0.0000001
 44
0.0000000001
 40
0.0
 40
0.0
 40
0.0
 40
0.0
 40
0.4807312264
 40
1.0
 40
1.0
 40
1.0
 40
1.0
 10
35.8812060074
 20
77.419354846
 30
0.0
 10
35.8812060074
 20
77.5336076484
 30
0.0
 10
35.8598295572
 20
77.7714662079
 30
0.0
 10
35.8047985672
 20
78.0034430476
 30
0.0
 10
35.7690167888
 20
78.1215537588
 30
0.0
  0
SPLINE
  5
347
100
AcDbEntity
  8
0
100
AcDbSpline
 62
7
  6
BYLAYER
 70
0
 71
3
 72
9
 73
5
 74
0
 42
0.0000001
 43
0.0000001
 44
0.0000000001
 40
0.0
 40
0.0
 40
0.0
 40
0.0
 40
0.2366982813
 40
1.0
 40
1.0
 40
1.0
 40
1.0
 10
35.8330176482
 20
77.0245230269
 30
0.0
 10
35.8411535874
 20
77.0548869765
 30
0.0
 10
35.8705814761
 20
77.184486308
 30
0.0
 10
35.8812060074
 20
77.3179834522
 30
0.0
 10
35.8812060074
 20
77.419354846
 30
0.0
  0
SPLINE
  5
348
100
AcDbEntity
  8
0
100
AcDbSpline
 62
7
  6
BYLAYER
 70
0
 71
3
 72
11
 73
7
 74
0
 42
0.0000001
 43
0.0000001
 44
0.0000000001
 40
0.0
 40
0.0
 40
0.0
 40
0.0
 40
0.2665278425
 40
0.5244731226
 40
0.7700017693
 40
1.0
 40
1.0
 40
1.0
 40
1.0
 10
31.4497210915
 20
78.2427907532
 30
0.0
 10
31.1421094679
 20
78.6836587952
 30
0.0
 10
30.4964183273
 20
79.5239239468
 30
0.0
 10
29.4331467254
 20
80.659498967
 30
0.0
 10
28.3118911938
 20
81.6289027506
 30
0.0
 10
27.5147979343
 20
82.1679516461
 30
0.0
 10
27.1130477708
 20
82.3998969639
 30
0.0
  0
SPLINE
  5
349
100
AcDbEntity
  8
0
100
AcDbSpline
 62
7
  6
BYLAYER
 70
0
 71
3
 72
15
 73
11
 74
0
 42
0.0000001
 43
0.0000001
 44
0.0000000001
 40
0.0
 40
0.0
 40
0.0
 40
0.0
 40
0.1485830333
 40
0.2895061473
 40
0.4227204664
 40
0.5486392112
 40
0.6679989389
 40
0.7819370772
 40
0.8919866862
 40
1.0
 40
1.0
 40
1.0
 40
1.0
 10
27.1130477708
 20
82.3998969639
 30
0.0
 10
26.8807481951
 20
82.5340121523
 30
0.0
 10
26.4169970475
 20
82.7767741219
 30
0.0
 10
25.7096238305
 20
83.066303962
 30
0.0
 10
25.0148388678
 20
83.2688443041
 30
0.0
 10
24.3392340874
 20
83.3821719915
 30
0.0
 10
23.6890728693
 20
83.4047873737
 30
0.0
 10
23.0706264514
 20
83.3358190823
 30
0.0
 10
22.4904883893
 20
83.1753871398
 30
0.0
 10
22.1319461101
 20
83.0074863977
 30
0.0
 10
21.9630764181
 20
82.9099873531
 30
0.0
  0
SPLINE
  5
34A
100
AcDbEntity
  8
0
100
AcDbSpline
 62
7
  6
BYLAYER
 70
0
 71
3
 72
15
 73
11
 74
0
 42
0.0000001
 43
0.0000001
 44
0.0000000001
 40
0.0
 40
0.0
 40
0.0
 40
0.0
 40
0.1488448412
 40
0.2898881722
 40
0.4230930793
 40
0.548899857
 40
0.6680905047
 40
0.781871844
 40
0.8918612884
 40
1.0
 40
1.0
 40
1.0
 40
1.0
 10
23.5587274952
 20
80.2761819845
 30
0.0
 10
23.3248827863
 20
80.4111892358
 30
0.0
 10
22.8580770843
 20
80.655179045
 30
0.0
 10
22.1459292165
 20
80.944792329
 30
0.0
 10
21.4468348255
 20
81.145356203
 30
0.0
 10
20.7676249048
 20
81.2545887178
 30
0.0
 10
20.1147984649
 20
81.2709346156
 30
0.0
 10
19.4948837777
 20
81.1935333307
 30
0.0
 10
18.9147424594
 20
81.0226007106
 30
0.0
 10
18.5577473138
 20
80.8465608105
 30
0.0
 10
18.3899899675
 20
80.7448662443
 30
0.0
  0
SPLINE
  5
34B
100
AcDbEntity
  8
0
100
AcDbSpline
 62
7
  6
BYLAYER
 70
0
 71
3
 72
11
 73
7
 74
0
 42
0.0000001
 43
0.0000001
 44
0.0000000001
 40
0.0
 40
0.0
 40
0.0
 40
0.0
 40
0.266130969
 40
0.5248583519
 40
0.7709173901
 40
1.0
 40
1.0
 40
1.0
 40
1.0
 10
28.4092528066
 20
75.3146353885
 30
0.0
 10
28.0860434743
 20
75.8396311401
 30
0.0
 10
27.3940423579
 20
76.8426232979
 30
0.0
 10
26.2245928851
 20
78.1971951301
 30
0.0
 10
24.9684267317
 20
79.3486211772
 30
0.0
 10
24.0625167648
 20
79.9818143882
 30
0.0
 10
23.6043824199
 20
80.2496570453
 30
0.0
  0
SPLINE
  5
34C
100
AcDbEntity
  8
0
100
AcDbSpline
 62
7
  6
BYLAYER
 70
0
 71
3
 72
11
 73
7
 74
0
 42
0.0000001
 43
0.0000001
 44
0.0000000001
 40
0.0
 40
0.0
 40
0.0
 40
0.0
 40
0.2290868342
 40
0.4751432892
 40
0.7338670025
 40
1.0
 40
1.0
 40
1.0
 40
1.0
 10
23.4334776594
 20
80.0966991086
 30
0.0
 10
23.8883407995
 20
79.8307689215
 30
0.0
 10
24.7877944498
 20
79.2021512678
 30
0.0
 10
26.0350876509
 20
78.0591101638
 30
0.0
 10
27.1963741836
 20
76.7144325039
 30
0.0
 10
27.8836288349
 20
75.7187712446
 30
0.0
 10
28.2046524269
 20
75.1976070505
 30
0.0
  0
SPLINE
  5
34D
100
AcDbEntity
  8
0
100
AcDbSpline
 62
7
  6
BYLAYER
 70
0
 71
3
 72
11
 73
7
 74
0
 42
0.0000001
 43
0.0000001
 44
0.0000000001
 40
0.0
 40
0.0
 40
0.0
 40
0.0
 40
0.2372386968
 40
0.500001017
 40
0.7627627797
 40
1.0
 40
1.0
 40
1.0
 40
1.0
 10
37.366132151
 20
79.338214205
 30
0.0
 10
37.366137259
 20
79.4193484984
 30
0.0
 10
37.3357120119
 20
79.590458234
 30
0.0
 10
37.2296478813
 20
79.8308962953
 30
0.0
 10
37.0744538501
 20
80.0429684552
 30
0.0
 10
36.9414808796
 20
80.1548711438
 30
0.0
 10
36.8712139948
 20
80.1954329061
 30
0.0
  0
SPLINE
  5
34E
100
AcDbEntity
  8
0
100
AcDbSpline
 62
7
  6
BYLAYER
 70
0
 71
3
 72
18
 73
14
 74
0
 42
0.0000001
 43
0.0000001
 44
0.0000000001
 40
0.0
 40
0.0
 40
0.0
 40
0.0
 40
0.151880515
 40
0.2928906702
 40
0.4234169803
 40
0.5448534987
 40
0.602957033
 40
0.6597776608
 40
0.7157642288
 40
0.7713985707
 40
0.8271795192
 40
0.8835983601
 40
1.0
 40
1.0
 40
1.0
 40
1.0
 10
22.6936487882
 20
79.2591111393
 30
0.0
 10
22.4012662684
 20
79.4279144469
 30
0.0
 10
21.8184670919
 20
79.7224204012
 30
0.0
 10
20.9265451665
 20
80.0327585943
 30
0.0
 10
20.0631784059
 20
80.1895332617
 30
0.0
 10
19.3690595839
 20
80.1879529938
 30
0.0
 10
18.849513273
 20
80.1038854113
 30
0.0
 10
18.4825646712
 20
80.0024117616
 30
0.0
 10
18.1345467804
 20
79.8620684278
 30
0.0
 10
17.8071550271
 20
79.6834486244
 30
0.0
 10
17.5019506716
 20
79.4673589669
 30
0.0
 10
17.1228889805
 20
79.1276812643
 30
0.0
 10
16.8816908022
 20
78.8237584369
 30
0.0
 10
16.7413859645
 20
78.606354269
 30
0.0
  0
SPLINE
  5
34F
100
AcDbEntity
  8
0
100
AcDbSpline
 62
7
  6
BYLAYER
 70
0
 71
3
 72
9
 73
5
 74
0
 42
0.0000001
 43
0.0000001
 44
0.0000000001
 40
0.0
 40
0.0
 40
0.0
 40
0.0
 40
0.2438365527
 40
1.0
 40
1.0
 40
1.0
 40
1.0
 10
16.7356586512
 20
78.5974538471
 30
0.0
 10
16.7002901524
 20
78.5423297809
 30
0.0
 10
16.5608004425
 20
78.312714799
 30
0.0
 10
16.4434567347
 20
78.0698544885
 30
0.0
 10
16.3665811952
 20
77.8818581777
 30
0.0
  0
SPLINE
  5
350
100
AcDbEntity
  8
0
100
AcDbSpline
 62
7
  6
BYLAYER
 70
0
 71
3
 72
9
 73
5
 74
0
 42
0.0000001
 43
0.0000001
 44
0.0000000001
 40
0.0
 40
0.0
 40
0.0
 40
0.0
 40
0.2721680101
 40
1.0
 40
1.0
 40
1.0
 40
1.0
 10
36.3054683097
 20
61.3342529958
 30
0.0
 10
36.3054683097
 20
61.2810927073
 30
0.0
 10
36.2972926056
 20
61.0861692383
 30
0.0
 10
36.253320401
 20
60.8904560149
 30
0.0
 10
36.1932790912
 20
60.7615961035
 30
0.0
  0
SPLINE
  5
351
100
AcDbEntity
  8
0
100
AcDbSpline
 62
7
  6
BYLAYER
 70
0
 71
3
 72
25
 73
21
 74
0
 42
0.0000001
 43
0.0000001
 44
0.0000000001
 40
0.0
 40
0.0
 40
0.0
 40
0.0
 40
0.0533644026
 40
0.1037303885
 40
0.1521484037
 40
0.1760591076
 40
0.1999804057
 40
0.2240860223
 40
0.2485436331
 40
0.2990630242
 40
0.3526328531
 40
0.4099586448
 40
0.4714189107
 40
0.53710316
 40
0.6068600243
 40
0.680344366
 40
0.7570591564
 40
0.8363799032
 40
0.9176259592
 40
1.0
 40
1.0
 40
1.0
 40
1.0
 10
25.1102680694
 20
62.7372649369
 30
0.0
 10
25.3574244367
 20
62.7035837229
 30
0.0
 10
25.8441080683
 20
62.6745549766
 30
0.0
 10
26.5541921127
 20
62.7599821213
 30
0.0
 10
27.1029709081
 20
62.9413454938
 30
0.0
 10
27.5031967921
 20
63.1483882137
 30
0.0
 10
27.7845200618
 20
63.3337392654
 30
0.0
 10
28.0469683106
 20
63.5489888679
 30
0.0
 10
28.3737698093
 20
63.8781413549
 30
0.0
 10
28.7311902184
 20
64.3660290556
 30
0.0
 10
29.0634986673
 20
65.0471657939
 30
0.0
 10
29.3010049869
 20
65.819988463
 30
0.0
 10
29.4411841034
 20
66.6730848783
 30
0.0
 10
29.4827575865
 20
67.5943857129
 30
0.0
 10
29.4254745732
 20
68.570839177
 30
0.0
 10
29.2703287498
 20
69.5885527989
 30
0.0
 10
29.0196240758
 20
70.6328929665
 30
0.0
 10
28.6770609307
 20
71.6889167229
 30
0.0
 10
28.2475613196
 20
72.7411561053
 30
0.0
 10
27.9086704975
 20
73.4276150839
 30
0.0
 10
27.7262962135
 20
73.7667251307
 30
0.0
  0
SPLINE
  5
352
100
AcDbEntity
  8
0
100
AcDbSpline
 62
7
  6
BYLAYER
 70
0
 71
3
 72
9
 73
5
 74
0
 42
0.0000001
 43
0.0000001
 44
0.0000000001
 40
0.0
 40
0.0
 40
0.0
 40
0.0
 40
0.2604032204
 40
1.0
 40
1.0
 40
1.0
 40
1.0
 10
36.2572799505
 20
61.7847266806
 30
0.0
 10
36.265171043
 20
61.7461648754
 30
0.0
 10
36.2921446558
 20
61.5974444136
 30
0.0
 10
36.3054683097
 20
61.4460458182
 30
0.0
 10
36.3054683097
 20
61.3342529958
 30
0.0
  0
SPLINE
  5
353
100
AcDbEntity
  8
0
100
AcDbSpline
 62
7
  6
BYLAYER
 70
0
 71
3
 72
9
 73
5
 74
0
 42
0.0000001
 43
0.0000001
 44
0.0000000001
 40
0.0
 40
0.0
 40
0.0
 40
0.0
 40
0.510646047
 40
1.0
 40
1.0
 40
1.0
 40
1.0
 10
31.7321806235
 20
63.2613931637
 30
0.0
 10
32.0392716588
 20
63.2645182028
 30
0.0
 10
32.641827765
 20
63.3232532883
 30
0.0
 10
33.2213997007
 20
63.5015482126
 30
0.0
 10
33.4917475081
 20
63.6178475928
 30
0.0
  0
SPLINE
  5
354
100
AcDbEntity
  8
0
100
AcDbSpline
 62
7
  6
BYLAYER
 70
0
 71
3
 72
10
 73
6
 74
0
 42
0.0000001
 43
0.0000001
 44
0.0000000001
 40
0.0
 40
0.0
 40
0.0
 40
0.0
 40
0.5329425439
 40
0.7736690293
 40
1.0
 40
1.0
 40
1.0
 40
1.0
 10
20.853364583
 20
85.1720224531
 30
0.0
 10
20.9453402074
 20
85.1279777529
 30
0.0
 10
21.0870138083
 20
85.0775129231
 30
0.0
 10
21.2778291107
 20
85.0560934944
 30
0.0
 10
21.3676422255
 20
85.0615580216
 30
0.0
 10
21.4104042764
 20
85.0684133629
 30
0.0
  0
SPLINE
  5
355
100
AcDbEntity
  8
0
100
AcDbSpline
 62
7
  6
BYLAYER
 70
0
 71
3
 72
9
 73
5
 74
0
 42
0.0000001
 43
0.0000001
 44
0.0000000001
 40
0.0
 40
0.0
 40
0.0
 40
0.0
 40
0.2356427352
 40
1.0
 40
1.0
 40
1.0
 40
1.0
 10
19.5905277476
 20
87.7861821532
 30
0.0
 10
19.580908266
 20
87.7602357827
 30
0.0
 10
19.5450013926
 20
87.6483091231
 30
0.0
 10
19.527927369
 20
87.5308256922
 30
0.0
 10
19.5229635896
 20
87.44120251
 30
0.0
  0
SPLINE
  5
356
100
AcDbEntity
  8
0
100
AcDbSpline
 62
7
  6
BYLAYER
 70
0
 71
3
 72
9
 73
5
 74
0
 42
0.0000001
 43
0.0000001
 44
0.0000000001
 40
0.0
 40
0.0
 40
0.0
 40
0.0
 40
0.2553185524
 40
1.0
 40
1.0
 40
1.0
 40
1.0
 10
34.8603342725
 20
60.7505435453
 30
0.0
 10
34.8715758387
 20
60.7437267675
 30
0.0
 10
34.9159127057
 20
60.7175397974
 30
0.0
 10
34.9614936685
 20
60.6934429558
 30
0.0
 10
34.9960836907
 20
60.6768933132
 30
0.0
  0
SPLINE
  5
357
100
AcDbEntity
  8
0
100
AcDbSpline
 62
7
  6
BYLAYER
 70
0
 71
3
 72
9
 73
5
 74
0
 42
0.0000001
 43
0.0000001
 44
0.0000000001
 40
0.0
 40
0.0
 40
0.0
 40
0.0
 40
0.2640512904
 40
1.0
 40
1.0
 40
1.0
 40
1.0
 10
34.9960836907
 20
60.6768933132
 30
0.0
 10
35.0215075822
 20
60.6647292181
 30
0.0
 10
35.1190925641
 20
60.6215373076
 30
0.0
 10
35.2223325613
 20
60.5903006872
 30
0.0
 10
35.2997723458
 20
60.5771234043
 30
0.0
  0
SPLINE
  5
358
100
AcDbEntity
  8
0
100
AcDbSpline
 62
7
  6
BYLAYER
 70
0
 71
3
 72
20
 73
16
 74
0
 42
0.0000001
 43
0.0000001
 44
0.0000000001
 40
0.0
 40
0.0
 40
0.0
 40
0.0
 40
0.0454679516
 40
0.0916525993
 40
0.1393148528
 40
0.1890971895
 40
0.2414927413
 40
0.2968351386
 40
0.3553089669
 40
0.4169656804
 40
0.4817393786
 40
0.5494673968
 40
0.6926663367
 40
0.8439655535
 40
1.0
 40
1.0
 40
1.0
 40
1.0
 10
28.6014164345
 20
63.0580511865
 30
0.0
 10
28.7667496747
 20
63.1488562528
 30
0.0
 10
29.0853419685
 20
63.3601736946
 30
0.0
 10
29.5096451351
 20
63.7561283429
 30
0.0
 10
29.8778625914
 20
64.2275256382
 30
0.0
 10
30.1866674246
 20
64.7692964869
 30
0.0
 10
30.4336592611
 20
65.376137273
 30
0.0
 10
30.6170363583
 20
66.0423303791
 30
0.0
 10
30.7354689134
 20
66.7618235596
 30
0.0
 10
30.7880601036
 20
67.5281376786
 30
0.0
 10
30.7745255686
 20
68.3344161942
 30
0.0
 10
30.6665012333
 20
69.4740249006
 30
0.0
 10
30.3624577954
 20
70.95078688
 30
0.0
 10
29.7612143375
 20
72.724669572
 30
0.0
 10
29.2160093554
 20
73.8807435403
 30
0.0
 10
28.9083042382
 20
74.4502577517
 30
0.0
  0
SPLINE
  5
359
100
AcDbEntity
  8
0
100
AcDbSpline
 62
7
  6
BYLAYER
 70
0
 71
3
 72
19
 73
15
 74
0
 42
0.0000001
 43
0.0000001
 44
0.0000000001
 40
0.0
 40
0.0
 40
0.0
 40
0.0
 40
0.0462070862
 40
0.0931323522
 40
0.1414395081
 40
0.191696822
 40
0.2443523037
 40
0.2997240263
 40
0.3580083636
 40
0.4192868813
 40
0.5505780728
 40
0.6926241437
 40
0.8433437592
 40
1.0
 40
1.0
 40
1.0
 40
1.0
 10
32.2630191234
 20
65.0698567818
 30
0.0
 10
32.4159740499
 20
65.1581672359
 30
0.0
 10
32.7109438575
 20
65.3604142985
 30
0.0
 10
33.1065011403
 20
65.7317493123
 30
0.0
 10
33.4536271448
 20
66.1685962945
 30
0.0
 10
33.7495776522
 20
66.6669752378
 30
0.0
 10
33.9923015415
 20
67.2227011355
 30
0.0
 10
34.1802447618
 20
67.8312317218
 30
0.0
 10
34.3121435012
 20
68.4878180115
 30
0.0
 10
34.4144270363
 20
69.4423089247
 30
0.0
 10
34.3891554219
 20
70.7265768361
 30
0.0
 10
34.1342466926
 20
72.3315292418
 30
0.0
 10
33.6623834152
 20
73.987072325
 30
0.0
 10
33.2181588346
 20
75.0775233291
 30
0.0
 10
32.9641806123
 20
75.619781654
 30
0.0
  0
SPLINE
  5
35A
100
AcDbEntity
  8
0
100
AcDbSpline
 62
7
  6
BYLAYER
 70
0
 71
3
 72
10
 73
6
 74
0
 42
0.0000001
 43
0.0000001
 44
0.0000000001
 40
0.0
 40
0.0
 40
0.0
 40
0.0
 40
0.5329425439
 40
0.7736690293
 40
1.0
 40
1.0
 40
1.0
 40
1.0
 10
34.9955590859
 20
77.0072073627
 30
0.0
 10
35.0875347104
 20
76.9631626625
 30
0.0
 10
35.2292083112
 20
76.9126978326
 30
0.0
 10
35.4200236137
 20
76.891278404
 30
0.0
 10
35.5098367284
 20
76.8967429312
 30
0.0
 10
35.5525987793
 20
76.9035982725
 30
0.0
  0
SPLINE
  5
35B
100
AcDbEntity
  8
0
100
AcDbSpline
 62
7
  6
BYLAYER
 70
0
 71
3
 72
11
 73
7
 74
0
 42
0.0000001
 43
0.0000001
 44
0.0000000001
 40
0.0
 40
0.0
 40
0.0
 40
0.0
 40
0.2252249595
 40
0.4651880842
 40
0.7229729362
 40
1.0
 40
1.0
 40
1.0
 40
1.0
 10
33.8621256322
 20
79.8494989235
 30
0.0
 10
33.8333388276
 20
79.8151113962
 30
0.0
 10
33.7811036418
 20
79.7378085131
 30
0.0
 10
33.7228927016
 20
79.6054567939
 30
0.0
 10
33.6832635632
 20
79.4558118331
 30
0.0
 10
33.6700496819
 20
79.3498207487
 30
0.0
 10
33.6663031968
 20
79.2947872195
 30
0.0
  0
SPLINE
  5
35C
100
AcDbEntity
  8
0
100
AcDbSpline
 62
7
  6
BYLAYER
 70
0
 71
3
 72
11
 73
7
 74
0
 42
0.0000001
 43
0.0000001
 44
0.0000000001
 40
0.0
 40
0.0
 40
0.0
 40
0.0
 40
0.2287497937
 40
0.4666980141
 40
0.7220280248
 40
1.0
 40
1.0
 40
1.0
 40
1.0
 10
35.351570579
 20
76.7285923014
 30
0.0
 10
35.3079483983
 20
76.7021509079
 30
0.0
 10
35.2112995512
 20
76.659905416
 30
0.0
 10
35.0507353474
 20
76.6347537873
 30
0.0
 10
34.8779567126
 20
76.6469590581
 30
0.0
 10
34.7624049283
 20
76.6779044244
 30
0.0
 10
34.7039325325
 20
76.6984789477
 30
0.0
  0
SPLINE
  5
35D
100
AcDbEntity
  8
0
100
AcDbSpline
 62
7
  6
BYLAYER
 70
0
 71
3
 72
11
 73
7
 74
0
 42
0.0000001
 43
0.0000001
 44
0.0000000001
 40
0.0
 40
0.0
 40
0.0
 40
0.0
 40
0.2287497937
 40
0.4666980141
 40
0.7220280248
 40
1.0
 40
1.0
 40
1.0
 40
1.0
 10
21.2093760761
 20
84.8934073918
 30
0.0
 10
21.1657538953
 20
84.8669659983
 30
0.0
 10
21.0691050482
 20
84.8247205064
 30
0.0
 10
20.9085408445
 20
84.7995688777
 30
0.0
 10
20.7357622096
 20
84.8117741485
 30
0.0
 10
20.6202104254
 20
84.8427195149
 30
0.0
 10
20.5617380296
 20
84.8632940381
 30
0.0
  0
SPLINE
  5
35E
100
AcDbEntity
  8
0
100
AcDbSpline
 62
7
  6
BYLAYER
 70
0
 71
3
 72
9
 73
5
 74
0
 42
0.0000001
 43
0.0000001
 44
0.0000000001
 40
0.0
 40
0.0
 40
0.0
 40
0.0
 40
0.4893528339
 40
1.0
 40
1.0
 40
1.0
 40
1.0
 10
21.3199683672
 20
84.7001017934
 30
0.0
 10
21.0840595792
 20
84.524112372
 30
0.0
 10
20.639835548
 20
84.1113048245
 30
0.0
 10
20.2876743332
 20
83.6188029675
 30
0.0
 10
20.1314164284
 20
83.3543946154
 30
0.0
  0
SPLINE
  5
35F
100
AcDbEntity
  8
0
100
AcDbSpline
 62
7
  6
BYLAYER
 70
0
 71
3
 72
11
 73
7
 74
0
 42
0.0000001
 43
0.0000001
 44
0.0000000001
 40
0.0
 40
0.0
 40
0.0
 40
0.0
 40
0.2728074472
 40
0.5328548974
 40
0.7737052294
 40
1.0
 40
1.0
 40
1.0
 40
1.0
 10
16.4619825252
 20
68.2446294485
 30
0.0
 10
16.4522900366
 20
68.2614172381
 30
0.0
 10
16.428003217
 20
68.2914631062
 30
0.0
 10
16.3804729002
 20
68.3212268142
 30
0.0
 10
16.3282042876
 20
68.3308019652
 30
0.0
 10
16.2948422101
 20
68.3213363408
 30
0.0
 10
16.2809166374
 20
68.3132964557
 30
0.0
  0
SPLINE
  5
360
100
AcDbEntity
  8
0
100
AcDbSpline
 62
7
  6
BYLAYER
 70
0
 71
3
 72
11
 73
7
 74
0
 42
0.0000001
 43
0.0000001
 44
0.0000000001
 40
0.0
 40
0.0
 40
0.0
 40
0.0
 40
0.2177784505
 40
0.450903793
 40
0.7102924918
 40
1.0
 40
1.0
 40
1.0
 40
1.0
 10
37.2211823504
 20
58.1151867524
 30
0.0
 10
37.2442708313
 20
58.1285168159
 30
0.0
 10
37.2874682027
 20
58.1648343909
 30
0.0
 10
37.3334534391
 20
58.2400326976
 30
0.0
 10
37.3607620669
 20
58.3327044405
 30
0.0
 10
37.3661344615
 20
58.4001529284
 30
0.0
 10
37.3661321545
 20
58.4356186618
 30
0.0
  0
SPLINE
  5
361
100
AcDbEntity
  8
0
100
AcDbSpline
 62
7
  6
BYLAYER
 70
0
 71
3
 72
9
 73
5
 74
0
 42
0.0000001
 43
0.0000001
 44
0.0000000001
 40
0.0
 40
0.0
 40
0.0
 40
0.0
 40
0.2394581259
 40
1.0
 40
1.0
 40
1.0
 40
1.0
 10
35.8812060074
 20
61.0893065034
 30
0.0
 10
35.8812060074
 20
61.1255034177
 30
0.0
 10
35.8768498689
 20
61.2766559124
 30
0.0
 10
35.856065846
 20
61.4271493809
 30
0.0
 10
35.8330176482
 20
61.5397801881
 30
0.0
  0
SPLINE
  5
362
100
AcDbEntity
  8
0
100
AcDbSpline
 62
7
  6
BYLAYER
 70
0
 71
3
 72
11
 73
7
 74
0
 42
0.0000001
 43
0.0000001
 44
0.0000000001
 40
0.0
 40
0.0
 40
0.0
 40
0.0
 40
0.2207831639
 40
0.4623383968
 40
0.7231499805
 40
1.0
 40
1.0
 40
1.0
 40
1.0
 10
34.5252219317
 20
80.2694653558
 30
0.0
 10
34.6042436358
 20
80.2482926591
 30
0.0
 10
34.7654682198
 20
80.1873679641
 30
0.0
 10
34.9990061535
 20
80.0542841941
 30
0.0
 10
35.2292728228
 20
79.8788815122
 30
0.0
 10
35.3731227714
 20
79.7403831265
 30
0.0
 10
35.4432759686
 20
79.665536554
 30
0.0
  0
SPLINE
  5
363
100
AcDbEntity
  8
0
100
AcDbSpline
 62
7
  6
BYLAYER
 70
0
 71
3
 72
11
 73
7
 74
0
 42
0.0000001
 43
0.0000001
 44
0.0000000001
 40
0.0
 40
0.0
 40
0.0
 40
0.0
 40
0.2696126816
 40
0.5291463905
 40
0.7723339562
 40
1.0
 40
1.0
 40
1.0
 40
1.0
 10
16.6388935187
 20
77.2014727772
 30
0.0
 10
16.6099710315
 20
77.2515677163
 30
0.0
 10
16.5665922914
 20
77.3584119545
 30
0.0
 10
16.5506043353
 20
77.5258501342
 30
0.0
 10
16.5867672155
 20
77.6815365574
 30
0.0
 10
16.6469061331
 20
77.7668419754
 30
0.0
 10
16.6830522691
 20
77.7996948148
 30
0.0
  0
LINE
  5
364
100
AcDbEntity
  8
0
100
AcDbLine
 62
7
  6
BYLAYER
 10
16.6830522691
 20
77.7996948148
 11
18.4990927557
 21
79.4500044489
  0
SPLINE
  5
365
100
AcDbEntity
  8
0
100
AcDbSpline
 62
7
  6
BYLAYER
 70
0
 71
3
 72
11
 73
7
 74
0
 42
0.0000001
 43
0.0000001
 44
0.0000000001
 40
0.0
 40
0.0
 40
0.0
 40
0.0
 40
0.230136876
 40
0.4756506851
 40
0.7335199839
 40
1.0
 40
1.0
 40
1.0
 40
1.0
 10
22.2247145566
 20
76.4078413712
 30
0.0
 10
22.4714481981
 20
76.2653928595
 30
0.0
 10
22.9611013065
 20
75.934966475
 30
0.0
 10
23.6507536899
 20
75.3416186895
 30
0.0
 10
24.3056862629
 20
74.6470924993
 30
0.0
 10
24.7042733879
 20
74.1333432895
 30
0.0
 10
24.8944530759
 20
73.8637855319
 30
0.0
  0
SPLINE
  5
366
100
AcDbEntity
  8
0
100
AcDbSpline
 62
7
  6
BYLAYER
 70
0
 71
3
 72
11
 73
7
 74
0
 42
0.0000001
 43
0.0000001
 44
0.0000000001
 40
0.0
 40
0.0
 40
0.0
 40
0.0
 40
0.2197752544
 40
0.4570756981
 40
0.7165870979
 40
1.0
 40
1.0
 40
1.0
 40
1.0
 10
19.5549760374
 20
76.9464642979
 30
0.0
 10
19.7525318767
 20
76.9983642253
 30
0.0
 10
20.1792508726
 20
77.0509462056
 30
0.0
 10
20.845958641
 20
76.9788421082
 30
0.0
 10
21.542366548
 20
76.7640166379
 30
0.0
 10
21.9965984159
 20
76.539541307
 30
0.0
 10
22.2247145566
 20
76.4078413712
 30
0.0
  0
SPLINE
  5
367
100
AcDbEntity
  8
0
100
AcDbSpline
 62
7
  6
BYLAYER
 70
0
 71
3
 72
11
 73
7
 74
0
 42
0.0000001
 43
0.0000001
 44
0.0000000001
 40
0.0
 40
0.0
 40
0.0
 40
0.0
 40
0.2695449502
 40
0.529091817
 40
0.7723489129
 40
1.0
 40
1.0
 40
1.0
 40
1.0
 10
19.598109069
 20
77.5464629228
 30
0.0
 10
19.6270982899
 20
77.4962523981
 30
0.0
 10
19.6706290341
 20
77.3891817792
 30
0.0
 10
19.6869924476
 20
77.2213717331
 30
0.0
 10
19.6512575488
 20
77.0651653784
 30
0.0
 10
19.5911749896
 20
76.9794400514
 30
0.0
 10
19.5549760374
 20
76.9464642979
 30
0.0
  0
SPLINE
  5
368
100
AcDbEntity
  8
0
100
AcDbSpline
 62
7
  6
BYLAYER
 70
0
 71
3
 72
11
 73
7
 74
0
 42
0.0000001
 43
0.0000001
 44
0.0000000001
 40
0.0
 40
0.0
 40
0.0
 40
0.0
 40
0.2428439014
 40
0.4886464695
 40
0.7402546647
 40
1.0
 40
1.0
 40
1.0
 40
1.0
 10
33.4958529001
 20
63.5877097918
 30
0.0
 10
33.3356606485
 20
63.495223301
 30
0.0
 10
33.0001397814
 20
63.3309899204
 30
0.0
 10
32.4633565482
 20
63.1532203988
 30
0.0
 10
31.8954609971
 20
63.044358376
 30
0.0
 10
31.5057556774
 20
63.0184599163
 30
0.0
 10
31.3079183212
 20
63.0164466714
 30
0.0
  0
SPLINE
  5
369
100
AcDbEntity
  8
0
100
AcDbSpline
 62
7
  6
BYLAYER
 70
0
 71
3
 72
11
 73
7
 74
0
 42
0.0000001
 43
0.0000001
 44
0.0000000001
 40
0.0
 40
0.0
 40
0.0
 40
0.0
 40
0.2276552021
 40
0.4709097285
 40
0.7304521138
 40
1.0
 40
1.0
 40
1.0
 40
1.0
 10
25.8944572393
 20
65.9662217164
 30
0.0
 10
25.9411157996
 20
65.9810832058
 30
0.0
 10
26.0453986342
 20
65.9902527722
 30
0.0
 10
26.1985448174
 20
65.9430961556
 30
0.0
 10
26.3356913822
 20
65.8450202801
 30
0.0
 10
26.4066521613
 20
65.7537858253
 30
0.0
 10
26.4356419034
 20
65.703574398
 30
0.0
  0
SPLINE
  5
36A
100
AcDbEntity
  8
0
100
AcDbSpline
 62
7
  6
BYLAYER
 70
0
 71
3
 72
15
 73
11
 74
0
 42
0.0000001
 43
0.0000001
 44
0.0000000001
 40
0.0
 40
0.0
 40
0.0
 40
0.0
 40
0.1522085959
 40
0.2994991701
 40
0.4397327452
 40
0.5711834771
 40
0.6927156434
 40
0.803998526
 40
0.9057569225
 40
1.0
 40
1.0
 40
1.0
 40
1.0
 10
25.8944572393
 20
72.1317371281
 30
0.0
 10
26.0328131247
 20
71.8322576853
 30
0.0
 10
26.27844367
 20
71.2301855777
 30
0.0
 10
26.552459918
 20
70.3157749817
 30
0.0
 10
26.7214995403
 20
69.4216933809
 30
0.0
 10
26.7813121518
 20
68.5693242455
 30
0.0
 10
26.7301204811
 20
67.7786983279
 30
0.0
 10
26.5679725908
 20
67.0680583186
 30
0.0
 10
26.2970705677
 20
66.4546368448
 30
0.0
 10
26.0381794368
 20
66.1113645127
 30
0.0
 10
25.8944572393
 20
65.9662217164
 30
0.0
  0
SPLINE
  5
36B
100
AcDbEntity
  8
0
100
AcDbSpline
 62
7
  6
BYLAYER
 70
0
 71
3
 72
18
 73
14
 74
0
 42
0.0000001
 43
0.0000001
 44
0.0000000001
 40
0.0
 40
0.0
 40
0.0
 40
0.0
 40
0.0428470792
 40
0.0874651151
 40
0.1352871379
 40
0.1872369567
 40
0.2437293633
 40
0.3047356809
 40
0.4383688013
 40
0.5826750454
 40
0.7297918754
 40
0.871341784
 40
1.0
 40
1.0
 40
1.0
 40
1.0
 10
21.4869712783
 20
68.5478120646
 30
0.0
 10
21.4401306163
 20
68.5207692414
 30
0.0
 10
21.3368796826
 20
68.4778462999
 30
0.0
 10
21.1664318201
 20
68.4528651728
 30
0.0
 10
20.9834002146
 20
68.4663515823
 30
0.0
 10
20.7918434734
 20
68.5172293849
 30
0.0
 10
20.5955150975
 20
68.6039932131
 30
0.0
 10
20.3244995817
 20
68.7698835068
 30
0.0
 10
20.0016362766
 20
69.0558164995
 30
0.0
 10
19.6698421079
 20
69.4805962721
 30
0.0
 10
19.4084781174
 20
69.9636523005
 30
0.0
 10
19.2389113007
 20
70.4650201237
 30
0.0
 10
19.1934736069
 20
70.8065013617
 30
0.0
 10
19.1934736069
 20
70.96890887
 30
0.0
  0
SPLINE
  5
36C
100
AcDbEntity
  8
0
100
AcDbSpline
 62
7
  6
BYLAYER
 70
0
 71
3
 72
11
 73
7
 74
0
 42
0.0000001
 43
0.0000001
 44
0.0000000001
 40
0.0
 40
0.0
 40
0.0
 40
0.0
 40
0.2276695912
 40
0.4708560311
 40
0.730386306
 40
1.0
 40
1.0
 40
1.0
 40
1.0
 10
25.1974183871
 20
63.0524619695
 30
0.0
 10
25.1508929644
 20
63.0375848519
 30
0.0
 10
25.046945832
 20
63.0281563631
 30
0.0
 10
24.8940359568
 20
63.0746821838
 30
0.0
 10
24.7570241317
 20
63.1722466501
 30
0.0
 10
24.6861832775
 20
63.263235426
 30
0.0
 10
24.6572605786
 20
63.3133307319
 30
0.0
  0
SPLINE
  5
36D
100
AcDbEntity
  8
0
100
AcDbSpline
 62
7
  6
BYLAYER
 70
0
 71
3
 72
22
 73
18
 74
0
 42
0.0000001
 43
0.0000001
 44
0.0000000001
 40
0.0
 40
0.0
 40
0.0
 40
0.0
 40
0.1604314919
 40
0.2387274745
 40
0.3149685865
 40
0.3886405032
 40
0.4593072531
 40
0.5266237411
 40
0.5903562403
 40
0.6504103074
 40
0.7068605114
 40
0.7599792801
 40
0.8102607926
 40
0.8584278513
 40
0.9054041572
 40
0.9522396813
 40
1.0
 40
1.0
 40
1.0
 40
1.0
 10
28.7046545086
 20
74.3315828486
 30
0.0
 10
29.047194995
 20
73.69722851
 30
0.0
 10
29.4998604411
 20
72.7204359895
 30
0.0
 10
29.9671056963
 20
71.3836294381
 30
0.0
 10
30.2392301637
 20
70.3939679742
 30
0.0
 10
30.4325836851
 20
69.4208639311
 30
0.0
 10
30.5449654453
 20
68.47535688
 30
0.0
 10
30.5750379971
 20
67.5681985552
 30
0.0
 10
30.5223226343
 20
66.7096310148
 30
0.0
 10
30.387168257
 20
65.90932793
 30
0.0
 10
30.1707292514
 20
65.1763189284
 30
0.0
 10
29.8748698604
 20
64.5190262612
 30
0.0
 10
29.5022019416
 20
63.9453847444
 30
0.0
 10
29.0563806395
 20
63.4629395349
 30
0.0
 10
28.5424735957
 20
63.0785732219
 30
0.0
 10
27.9675162899
 20
62.7979796864
 30
0.0
 10
27.5551361278
 20
62.6842934708
 30
0.0
 10
27.3441345514
 20
62.6450490088
 30
0.0
  0
SPLINE
  5
36E
100
AcDbEntity
  8
0
100
AcDbSpline
 62
7
  6
BYLAYER
 70
0
 71
3
 72
9
 73
5
 74
0
 42
0.0000001
 43
0.0000001
 44
0.0000000001
 40
0.0
 40
0.0
 40
0.0
 40
0.0
 40
0.487520126
 40
1.0
 40
1.0
 40
1.0
 40
1.0
 10
27.2347177172
 20
62.6263408458
 30
0.0
 10
27.0275427218
 20
62.5939909754
 30
0.0
 10
26.5966764813
 20
62.5622059125
 30
0.0
 10
26.1662072779
 20
62.5933352645
 30
0.0
 10
25.9478061494
 20
62.6231056975
 30
0.0
  0
LINE
  5
36F
100
AcDbEntity
  8
0
100
AcDbLine
 62
7
  6
BYLAYER
 10
27.5346570654
 20
63.8000348659
 11
25.1974183871
 21
63.0524619695
  0
SPLINE
  5
370
100
AcDbEntity
  8
0
100
AcDbSpline
 62
7
  6
BYLAYER
 70
0
 71
3
 72
9
 73
5
 74
0
 42
0.0000001
 43
0.0000001
 44
0.0000000001
 40
0.0
 40
0.0
 40
0.0
 40
0.0
 40
0.2425466179
 40
1.0
 40
1.0
 40
1.0
 40
1.0
 10
34.8813114641
 20
60.3221286125
 30
0.0
 10
34.8679896579
 20
60.324345854
 30
0.0
 10
34.813267764
 20
60.3346892603
 30
0.0
 10
34.7594517627
 20
60.3496508969
 30
0.0
 10
34.7194758585
 20
60.3630924499
 30
0.0
  0
SPLINE
  5
371
100
AcDbEntity
  8
0
100
AcDbSpline
 62
7
  6
BYLAYER
 70
0
 71
3
 72
11
 73
7
 74
0
 42
0.0000001
 43
0.0000001
 44
0.0000000001
 40
0.0
 40
0.0
 40
0.0
 40
0.0
 40
0.2767743897
 40
0.5317297656
 40
0.770209543
 40
1.0
 40
1.0
 40
1.0
 40
1.0
 10
33.2586430741
 20
62.902796435
 30
0.0
 10
33.2707684129
 20
62.9611040421
 30
0.0
 10
33.3026948876
 20
63.0716625146
 30
0.0
 10
33.378236681
 20
63.2204496515
 30
0.0
 10
33.4782364341
 20
63.3414931308
 30
0.0
 10
33.5606360751
 20
63.4016836297
 30
0.0
 10
33.6039748768
 20
63.4254865717
 30
0.0
  0
SPLINE
  5
372
100
AcDbEntity
  8
0
100
AcDbSpline
 62
7
  6
BYLAYER
 70
0
 71
3
 72
20
 73
16
 74
0
 42
0.0000001
 43
0.0000001
 44
0.0000000001
 40
0.0
 40
0.0
 40
0.0
 40
0.0
 40
0.0428321558
 40
0.0874330035
 40
0.1352367437
 40
0.1871687786
 40
0.2436383427
 40
0.3046205608
 40
0.3697461391
 40
0.4383823112
 40
0.5826349455
 40
0.7296945545
 40
0.8711921535
 40
0.9375940046
 40
1.0
 40
1.0
 40
1.0
 40
1.0
 10
21.3980650326
 20
67.8036579374
 30
0.0
 10
21.3364345617
 20
67.7680674404
 30
0.0
 10
21.2005611658
 20
67.7116224201
 30
0.0
 10
20.9762952185
 20
67.6787291494
 30
0.0
 10
20.7354570993
 20
67.6964611003
 30
0.0
 10
20.4834138863
 20
67.7634397899
 30
0.0
 10
20.2251007995
 20
67.8775944504
 30
0.0
 10
19.9656680871
 20
68.0363042537
 30
0.0
 10
19.7103718924
 20
68.2361757284
 30
0.0
 10
19.377214359
 20
68.5570964312
 30
0.0
 10
19.0069873652
 20
69.0312340771
 30
0.0
 10
18.6632914639
 20
69.6663367811
 30
0.0
 10
18.4731291156
 20
70.228594596
 30
0.0
 10
18.3943708569
 20
70.6714494756
 30
0.0
 10
18.3803006613
 20
70.8856268499
 30
0.0
 10
18.3803006613
 20
70.9893190381
 30
0.0
  0
SPLINE
  5
373
100
AcDbEntity
  8
0
100
AcDbSpline
 62
7
  6
BYLAYER
 70
0
 71
3
 72
9
 73
5
 74
0
 42
0.0000001
 43
0.0000001
 44
0.0000000001
 40
0.0
 40
0.0
 40
0.0
 40
0.0
 40
0.2296892416
 40
1.0
 40
1.0
 40
1.0
 40
1.0
 10
35.7690167888
 20
60.5166496111
 30
0.0
 10
35.7879741185
 20
60.5573355958
 30
0.0
 10
35.8581409666
 20
60.7402607738
 30
0.0
 10
35.8812060074
 20
60.9387728148
 30
0.0
 10
35.8812060074
 20
61.0893065034
 30
0.0
  0
SPLINE
  5
374
100
AcDbEntity
  8
0
100
AcDbSpline
 62
7
  6
BYLAYER
 70
0
 71
3
 72
15
 73
11
 74
0
 42
0.0000001
 43
0.0000001
 44
0.0000000001
 40
0.0
 40
0.0
 40
0.0
 40
0.0
 40
0.0946140541
 40
0.1967484555
 40
0.3082761184
 40
0.4298621385
 40
0.5611790779
 40
0.701139263
 40
0.8480943168
 40
1.0
 40
1.0
 40
1.0
 40
1.0
 10
23.8845210804
 20
65.3264541864
 30
0.0
 10
24.0137414036
 20
65.4621069315
 30
0.0
 10
24.2459850752
 20
65.7804481944
 30
0.0
 10
24.4888827765
 20
66.3447893668
 30
0.0
 10
24.6342991
 20
66.9958650281
 30
0.0
 10
24.6802648122
 20
67.7184663141
 30
0.0
 10
24.6267112197
 20
68.4965014834
 30
0.0
 10
24.4751692099
 20
69.312332072
 30
0.0
 10
24.2293129671
 20
70.1471488139
 30
0.0
 10
24.0087820425
 20
70.6973749069
 30
0.0
 10
23.8845210804
 20
70.9713023739
 30
0.0
  0
SPLINE
  5
375
100
AcDbEntity
  8
0
100
AcDbSpline
 62
7
  6
BYLAYER
 70
0
 71
3
 72
11
 73
7
 74
0
 42
0.0000001
 43
0.0000001
 44
0.0000000001
 40
0.0
 40
0.0
 40
0.0
 40
0.0
 40
0.2695004589
 40
0.5290868
 40
0.7723894636
 40
1.0
 40
1.0
 40
1.0
 40
1.0
 10
23.3423105207
 20
65.5908783984
 30
0.0
 10
23.3713765082
 20
65.5405349107
 30
0.0
 10
23.44239008
 20
65.4489678159
 30
0.0
 10
23.5796486
 20
65.3502348539
 30
0.0
 10
23.7331179759
 20
65.3025229695
 30
0.0
 10
23.8377347603
 20
65.3115727343
 30
0.0
 10
23.8845210804
 20
65.3264541864
 30
0.0
  0
SPLINE
  5
376
100
AcDbEntity
  8
0
100
AcDbSpline
 62
7
  6
BYLAYER
 70
0
 71
3
 72
8
 73
4
 74
0
 42
0.0000001
 43
0.0000001
 44
0.0000000001
 40
0.0
 40
0.0
 40
0.0
 40
0.0
 40
1.0
 40
1.0
 40
1.0
 40
1.0
 10
23.8845210804
 20
65.3264541864
 30
0.0
 10
24.5545442657
 20
65.5395702832
 30
0.0
 10
25.2245198523
 20
65.7528360632
 30
0.0
 10
25.8944572393
 20
65.9662217164
 30
0.0
  0
SPLINE
  5
377
100
AcDbEntity
  8
0
100
AcDbSpline
 62
7
  6
BYLAYER
 70
0
 71
3
 72
11
 73
7
 74
0
 42
0.0000001
 43
0.0000001
 44
0.0000000001
 40
0.0
 40
0.0
 40
0.0
 40
0.0
 40
0.2276165944
 40
0.4709143446
 40
0.7304942357
 40
1.0
 40
1.0
 40
1.0
 40
1.0
 10
17.9959495758
 20
75.525702598
 30
0.0
 10
17.9596675269
 20
75.4926244256
 30
0.0
 10
17.8995216754
 20
75.4065478014
 30
0.0
 10
17.8641080336
 20
75.2497842612
 30
0.0
 10
17.8809846366
 20
75.0815495414
 30
0.0
 10
17.9247785167
 20
74.9742669916
 30
0.0
 10
17.9538451179
 20
74.923922441
 30
0.0
  0
SPLINE
  5
378
100
AcDbEntity
  8
0
100
AcDbSpline
 62
7
  6
BYLAYER
 70
0
 71
3
 72
11
 73
7
 74
0
 42
0.0000001
 43
0.0000001
 44
0.0000000001
 40
0.0
 40
0.0
 40
0.0
 40
0.0
 40
0.2828488168
 40
0.5422984249
 40
0.7798963581
 40
1.0
 40
1.0
 40
1.0
 40
1.0
 10
20.4402332464
 20
75.01424358
 30
0.0
 10
20.2317323659
 20
75.1346188962
 30
0.0
 10
19.8165095257
 20
75.3403999444
 30
0.0
 10
19.1800400086
 20
75.5399413516
 30
0.0
 10
18.5698414403
 20
75.6117572101
 30
0.0
 10
18.1780361129
 20
75.5697882062
 30
0.0
 10
17.9959495758
 20
75.525702598
 30
0.0
  0
SPLINE
  5
379
100
AcDbEntity
  8
0
100
AcDbSpline
 62
7
  6
BYLAYER
 70
0
 71
3
 72
11
 73
7
 74
0
 42
0.0000001
 43
0.0000001
 44
0.0000000001
 40
0.0
 40
0.0
 40
0.0
 40
0.0
 40
0.2664374206
 40
0.5241911495
 40
0.7696757136
 40
1.0
 40
1.0
 40
1.0
 40
1.0
 10
22.884516917
 20
72.7033507777
 30
0.0
 10
22.7094185253
 20
72.9479260949
 30
0.0
 10
22.3431806449
 20
73.4140163269
 30
0.0
 10
21.7431030812
 20
74.0443559653
 30
0.0
 10
21.1124538244
 20
74.5834352557
 30
0.0
 10
20.6654214186
 20
74.8842340694
 30
0.0
 10
20.4402332464
 20
75.01424358
 30
0.0
  0
SPLINE
  5
37A
100
AcDbEntity
  8
0
100
AcDbSpline
 62
7
  6
BYLAYER
 70
0
 71
3
 72
8
 73
4
 74
0
 42
0.0000001
 43
0.0000001
 44
0.0000000001
 40
0.0
 40
0.0
 40
0.0
 40
0.0
 40
1.0
 40
1.0
 40
1.0
 40
1.0
 10
19.5549760374
 20
76.9464642979
 30
0.0
 10
19.0352087981
 20
76.4729777653
 30
0.0
 10
18.5155262721
 20
75.9993982136
 30
0.0
 10
17.9959495758
 20
75.525702598
 30
0.0
  0
SPLINE
  5
37B
100
AcDbEntity
  8
0
100
AcDbSpline
 62
7
  6
BYLAYER
 70
0
 71
3
 72
11
 73
7
 74
0
 42
0.0000001
 43
0.0000001
 44
0.0000000001
 40
0.0
 40
0.0
 40
0.0
 40
0.0
 40
0.2202187743
 40
0.4578791073
 40
0.7174040063
 40
1.0
 40
1.0
 40
1.0
 40
1.0
 10
19.0915040298
 20
72.2028606335
 30
0.0
 10
19.0380268998
 20
72.1460098782
 30
0.0
 10
18.9419767431
 20
72.012951689
 30
0.0
 10
18.8414963328
 20
71.7776079424
 30
0.0
 10
18.781401657
 20
71.5065117848
 30
0.0
 10
18.7692077718
 20
71.314011151
 30
0.0
 10
18.7692077718
 20
71.2138533227
 30
0.0
  0
SPLINE
  5
37C
100
AcDbEntity
  8
0
100
AcDbSpline
 62
7
  6
BYLAYER
 70
0
 71
3
 72
18
 73
14
 74
0
 42
0.0000001
 43
0.0000001
 44
0.0000000001
 40
0.0
 40
0.0
 40
0.0
 40
0.0
 40
0.1256956132
 40
0.2636338807
 40
0.4075976279
 40
0.5503590675
 40
0.6848828603
 40
0.7472917255
 40
0.8057318393
 40
0.8599640019
 40
0.9100561961
 40
0.9564469689
 40
1.0
 40
1.0
 40
1.0
 40
1.0
 10
18.7692077718
 20
71.2138533227
 30
0.0
 10
18.7692077718
 20
71.0135658447
 30
0.0
 10
18.8217780667
 20
70.5929984012
 30
0.0
 10
19.0203450076
 20
69.9716847834
 30
0.0
 10
19.3287872623
 20
69.3660775332
 30
0.0
 10
19.7246917303
 20
68.8207265806
 30
0.0
 10
20.1135482218
 20
68.4392934149
 30
0.0
 10
20.4446818053
 20
68.2015771552
 30
0.0
 10
20.688919751
 20
68.0653106979
 30
0.0
 10
20.9307503958
 20
67.9692670976
 30
0.0
 10
21.1659463685
 20
67.9154470052
 30
0.0
 10
21.3901776461
 20
67.9053170977
 30
0.0
 10
21.5329336751
 20
67.9290638778
 30
0.0
 10
21.5995668876
 20
67.9484600291
 30
0.0
  0
SPLINE
  5
37D
100
AcDbEntity
  8
0
100
AcDbSpline
 62
7
  6
BYLAYER
 70
0
 71
3
 72
9
 73
5
 74
0
 42
0.0000001
 43
0.0000001
 44
0.0000000001
 40
0.0
 40
0.0
 40
0.0
 40
0.0
 40
0.2638117592
 40
1.0
 40
1.0
 40
1.0
 40
1.0
 10
36.3054683097
 20
77.6643013384
 30
0.0
 10
36.3054683097
 20
77.6292694855
 30
0.0
 10
36.3017729866
 20
77.496553021
 30
0.0
 10
36.2825817407
 20
77.3638977417
 30
0.0
 10
36.2572799505
 20
77.2694695192
 30
0.0
  0
SPLINE
  5
37E
100
AcDbEntity
  8
0
100
AcDbSpline
 62
7
  6
BYLAYER
 70
0
 71
3
 72
12
 73
8
 74
0
 42
0.0000001
 43
0.0000001
 44
0.0000000001
 40
0.0
 40
0.0
 40
0.0
 40
0.0
 40
0.2895536602
 40
0.5486500083
 40
0.7816323076
 40
0.8918396266
 40
1.0
 40
1.0
 40
1.0
 40
1.0
 10
19.1934736069
 20
70.96890887
 30
0.0
 10
19.1934736069
 20
71.0652025647
 30
0.0
 10
19.2080810464
 20
71.248309489
 30
0.0
 10
19.2820852944
 20
71.4997585503
 30
0.0
 10
19.3885257997
 20
71.6732148703
 30
0.0
 10
19.4959362758
 20
71.7789192065
 30
0.0
 10
19.5558420201
 20
71.8207062739
 30
0.0
 10
19.586992891
 20
71.8386908082
 30
0.0
  0
SPLINE
  5
37F
100
AcDbEntity
  8
0
100
AcDbSpline
 62
7
  6
BYLAYER
 70
0
 71
3
 72
11
 73
7
 74
0
 42
0.0000001
 43
0.0000001
 44
0.0000000001
 40
0.0
 40
0.0
 40
0.0
 40
0.0
 40
0.2660237076
 40
0.5246559803
 40
0.7707272651
 40
1.0
 40
1.0
 40
1.0
 40
1.0
 10
27.2262941318
 20
74.6327493326
 30
0.0
 10
26.9249109954
 20
75.1201821225
 30
0.0
 10
26.2802814027
 20
76.0515456355
 30
0.0
 10
25.1922974681
 20
77.3101788833
 30
0.0
 10
24.0244105584
 20
78.3814624471
 30
0.0
 10
23.1826510484
 20
78.9718587254
 30
0.0
 10
22.756911575
 20
79.2222460084
 30
0.0
  0
SPLINE
  5
380
100
AcDbEntity
  8
0
100
AcDbSpline
 62
7
  6
BYLAYER
 70
0
 71
3
 72
9
 73
5
 74
0
 42
0.0000001
 43
0.0000001
 44
0.0000000001
 40
0.0
 40
0.0
 40
0.0
 40
0.0
 40
0.5000000434
 40
1.0
 40
1.0
 40
1.0
 40
1.0
 10
27.6159186936
 20
73.7029982481
 30
0.0
 10
27.5263711385
 20
73.8436085635
 30
0.0
 10
27.3540107252
 20
74.1291358598
 30
0.0
 10
27.1929156343
 20
74.4211672292
 30
0.0
 10
27.1159166119
 20
74.56902245
 30
0.0
  0
SPLINE
  5
381
100
AcDbEntity
  8
0
100
AcDbSpline
 62
7
  6
BYLAYER
 70
0
 71
3
 72
9
 73
5
 74
0
 42
0.0000001
 43
0.0000001
 44
0.0000000001
 40
0.0
 40
0.0
 40
0.0
 40
0.0
 40
0.5192687736
 40
1.0
 40
1.0
 40
1.0
 40
1.0
 10
36.1932790912
 20
78.3665002511
 30
0.0
 10
36.2290608695
 20
78.24838954
 30
0.0
 10
36.2840918595
 20
78.0164127002
 30
0.0
 10
36.3054683097
 20
77.7785541407
 30
0.0
 10
36.3054683097
 20
77.6643013384
 30
0.0
  0
SPLINE
  5
382
100
AcDbEntity
  8
0
100
AcDbSpline
 62
7
  6
BYLAYER
 70
0
 71
3
 72
17
 73
13
 74
0
 42
0.0000001
 43
0.0000001
 44
0.0000000001
 40
0.0
 40
0.0
 40
0.0
 40
0.0
 40
0.0428581147
 40
0.087486882
 40
0.1353184916
 40
0.187283822
 40
0.3045442811
 40
0.4382114925
 40
0.5825546651
 40
0.7297151349
 40
0.8713047909
 40
1.0
 40
1.0
 40
1.0
 40
1.0
 10
114.3753055474
 20
127.9500551688
 30
0.0
 10
114.4517362533
 20
127.994165028
 30
0.0
 10
114.620186263
 20
128.0642240376
 30
0.0
 10
114.8982801657
 20
128.1049127863
 30
0.0
 10
115.1969251765
 20
128.0830201162
 30
0.0
 10
115.6308322591
 20
127.9675264458
 30
0.0
 10
116.1855558118
 20
127.6642825978
 30
0.0
 10
116.7984060184
 20
127.1215070312
 30
0.0
 10
117.3401439769
 20
126.4280980323
 30
0.0
 10
117.7664862171
 20
125.6400463123
 30
0.0
 10
118.0432038574
 20
124.8219880413
 30
0.0
 10
118.1173298728
 20
124.2648279097
 30
0.0
 10
118.1173298728
 20
123.9998414547
 30
0.0
  0
SPLINE
  5
383
100
AcDbEntity
  8
0
100
AcDbSpline
 62
7
  6
BYLAYER
 70
0
 71
3
 72
11
 73
7
 74
0
 42
0.0000001
 43
0.0000001
 44
0.0000000001
 40
0.0
 40
0.0
 40
0.0
 40
0.0
 40
0.2897469496
 40
0.5490800878
 40
0.7822222795
 40
1.0
 40
1.0
 40
1.0
 40
1.0
 10
118.1173298728
 20
123.9998414547
 30
0.0
 10
118.1173298728
 20
123.8427459236
 30
0.0
 10
118.0935501517
 20
123.54402904
 30
0.0
 10
117.9725316668
 20
123.1336123959
 30
0.0
 10
117.768854094
 20
122.8006105807
 30
0.0
 10
117.5775400549
 20
122.6397404885
 30
0.0
 10
117.4752739022
 20
122.5807204186
 30
0.0
  0
SPLINE
  5
384
100
AcDbEntity
  8
0
100
AcDbSpline
 62
7
  6
BYLAYER
 70
0
 71
3
 72
17
 73
13
 74
0
 42
0.0000001
 43
0.0000001
 44
0.0000000001
 40
0.0
 40
0.0
 40
0.0
 40
0.0
 40
0.1286940844
 40
0.2702787139
 40
0.4174343419
 40
0.5617778929
 40
0.6954482494
 40
0.8127108609
 40
0.864677049
 40
0.9125096562
 40
0.9571396648
 40
1.0
 40
1.0
 40
1.0
 40
1.0
 10
45.992738477
 20
82.3589377598
 30
0.0
 10
45.992738477
 20
82.6239218678
 30
0.0
 10
45.9186151244
 20
83.1810692807
 30
0.0
 10
45.6419097891
 20
83.9991072665
 30
0.0
 10
45.2155859921
 20
84.7871461941
 30
0.0
 10
44.6738594906
 20
85.4805605951
 30
0.0
 10
44.0610051139
 20
86.02334988
 30
0.0
 10
43.5062741407
 20
86.3266046535
 30
0.0
 10
43.0723625402
 20
86.4421127377
 30
0.0
 10
42.7737107572
 20
86.4640099608
 30
0.0
 10
42.4956085407
 20
86.4233183153
 30
0.0
 10
42.3271493918
 20
86.3532626107
 30
0.0
 10
42.25071444
 20
86.3091509829
 30
0.0
  0
SPLINE
  5
385
100
AcDbEntity
  8
0
100
AcDbSpline
 62
7
  6
BYLAYER
 70
0
 71
3
 72
11
 73
7
 74
0
 42
0.0000001
 43
0.0000001
 44
0.0000000001
 40
0.0
 40
0.0
 40
0.0
 40
0.0
 40
0.2177804275
 40
0.4509245763
 40
0.7102604365
 40
1.0
 40
1.0
 40
1.0
 40
1.0
 10
45.350682218
 20
80.9398172147
 30
0.0
 10
45.452949959
 20
80.9988372889
 30
0.0
 10
45.6442633804
 20
81.1597122863
 30
0.0
 10
45.8479431171
 20
81.4927165278
 30
0.0
 10
45.9689587204
 20
81.9031325019
 30
0.0
 10
45.992738477
 20
82.2018463528
 30
0.0
 10
45.992738477
 20
82.3589377598
 30
0.0
  0
ENDSEC
  0
SECTION
  2
OBJECTS
  0
DICTIONARY
  5
C
100
AcDbDictionary
280
0
281
1
  3
ACAD_GROUP
350
D
  3
ACAD_MLINESTYLE
350
17
  3
ACAD_LAYOUT
350
1A
  3
ACAD_PLOTSETTINGS
350
19
  3
ACAD_PLOTSTYLENAME
350
E
  0
DICTIONARY
  5
D
102
{ACAD_REACTORS
330
C
102
}
100
AcDbDictionary
280
0
281
1
  0
ACDBDICTIONARYWDFLT
  5
E
102
{ACAD_REACTORS
330
C
102
}
100
AcDbDictionary
281
1
  3
Normal
350
F
100
AcDbDictionaryWithDefault
340
F
  0
DICTIONARY
  5
17
102
{ACAD_REACTORS
330
C
102
}
100
AcDbDictionary
280
0
281
1
  3
Standard
350
18
  0
DICTIONARY
  5
19
102
{ACAD_REACTORS
330
C
102
}
100
AcDbDictionary
281
1
  0
DICTIONARY
  5
1A
102
{ACAD_REACTORS
330
C
102
}
100
AcDbDictionary
281
1
  3
Model
350
386
  3
Layout1
350
387
  0
ACDBPLACEHOLDER
  5
F
102
{ACAD_REACTORS
330
E
102
}
  0
MLINESTYLE
  5
18
102
{ACAD_REACTORS
330
17
102
}
100
AcDbMlineStyle
  2
STANDARD
 70
0
  3

 62
256
 51
90.0
 52
90.0
 71
2
 49
0.5
 62
256
  6
BYLAYER
 49
-0.5
 62
256
  6
BYLAYER
  0
LAYOUT
  5
386
102
{ACAD_REACTORS
330
1A
102
}
100
AcDbPlotSettings
  1

  2
none_device
  4

  6

 40
0.0
 41
0.0
 42
0.0
 43
0.0
 44
210.0
 45
297.0
 46
0.0
 47
0.0
 48
0.0
 49
0.0
140
0.0
141
0.0
142
1.0
143
1.0
 70
1024
 72
1
 73
0
 74
0
  7

 75
0
147
1.0
148
0.0
149
0.0
100
AcDbLayout
  1
Model
 70
0
 71
0
 10
0.0
 20
0.0
 11
210.0
 21
297.0
 12
0.0
 22
0.0
 32
0.0
 14
0.0
 24
0.0
 34
0.0
 15
0.0
 25
0.0
 35
0.0
146
0.0
 13
0.0
 23
0.0
 33
0.0
 16
1.0
 26
0.0
 36
0.0
 17
0.0
 27
1.0
 37
0.0
 76
0
330
210
345
0
346
0
  0
LAYOUT
  5
387
102
{ACAD_REACTORS
330
1A
102
}
100
AcDbPlotSettings
  1

  2
none_device
  4

  6

 40
0.0
 41
0.0
 42
0.0
 43
0.0
 44
210.0
 45
297.0
 46
0.0
 47
0.0
 48
0.0
 49
0.0
140
0.0
141
0.0
142
1.0
143
1.0
 70
0
 72
1
 73
0
 74
0
  7

 75
0
147
1.0
148
0.0
149
0.0
100
AcDbLayout
  1
Layout1
 70
0
 71
1
 10
0.0
 20
0.0
 11
210.0
 21
297.0
 12
0.0
 22
0.0
 32
0.0
 14
0.0
 24
0.0
 34
0.0
 15
0.0
 25
0.0
 35
0.0
146
0.0
 13
0.0
 23
0.0
 33
0.0
 16
1.0
 26
0.0
 36
0.0
 17
0.0
 27
1.0
 37
0.0
 76
0
330
211
345
0
346
0
  0
ENDSEC
  0
EOF
