999
DXF file: C:\Users\sesa63760\Dev\_Creo\CAD\MCADID0004768_3D-CAD\drw0001_1.dxf
999
Pro/ENGINEER 2019471 by Parametric Technology Corporation
  0
SECTION
  2
HEADER
  9
$ACADVER
  1
AC1024
  9
$DWGCODEPAGE
  3
ANSI_1252
  9
$EXTMAX
 10
49.1989911502
 20
69.581430341
 30
0.0
  9
$EXTMIN
 10
0.0
 20
0.0
 30
0.0
  9
$LIMMIN
 10
0.0
 20
0.0
  9
$LIMMAX
 10
49.1989911502
 20
69.581430341
  9
$VIEWCTR
 10
24.5994955751
 20
34.7907151705
  9
$VIEWSIZE
 40
69.581430341
  9
$CLAYER
  8
0
  9
$LTSCALE
 40
4.5356784222
  9
$CELTYPE
  6
BYLAYER
  9
$DIMSCALE
 40
1.0
  9
$DIMASZ
 40
0.5857022756
  9
$DIMEXO
 40
1.0
  9
$DIMDLI
 40
3.1337414554
  9
$DIMEXE
 40
1.0
  9
$DIMCEN
 40
0.7422019236
  9
$DIMLFAC
 40
1.0
  9
$DIMBLK
  1
_FILLED
  9
$DIMALT
 70
0
  9
$DIMALTF
 40
0.0393700787
  9
$DIMTXT
 40
0.8199831858
  9
$DIMTOL
 70
1
  9
$DIMLIM
 70
0
  9
$DIMTFAC
 40
1.0
  9
$DIMTP
 40
0.01
  9
$DIMTM
 40
0.01
  9
$DIMGAP
 40
0.625
  9
$DIMDSEP
 70
46
  9
$AUNITS
 70
0
  9
$PDMODE
 70
3
  9
$PDSIZE
 40
0.3125
  9
$HANDSEED
  5
3A3
  9
$TILEMODE
 70
1
  9
$MEASUREMENT
 70
1
  9
$INSUNITS
 70
4
  0
ENDSEC
  0
SECTION
  2
CLASSES
  0
CLASS
  1
ACDBDICTIONARYWDFLT
  2
AcDbDictionaryWithDefault
  3
AutoCAD 2000
 90
0
 91
1
280
0
281
0
  0
CLASS
  1
ACDBPLACEHOLDER
  2
AcDbPlaceHolder
  3
AutoCAD 2000
 90
0
 91
1
280
0
281
0
  0
CLASS
  1
LAYOUT
  2
AcDbLayout
  3
AutoCAD 2000
 90
0
 91
0
280
0
281
0
  0
ENDSEC
  0
SECTION
  2
TABLES
  0
TABLE
  2
VPORT
  5
8
100
AcDbSymbolTable
 70
2
  0
VPORT
  5
1F4
100
AcDbSymbolTableRecord
100
AcDbViewportTableRecord
  2
*ACTIVE
 70
0
 10
0.0
 20
0.0
 11
1.0
 21
1.0
 12
24.5994955751
 22
34.7907151705
 13
0.0
 23
0.0
 14
1.0
 24
1.0
 15
0.0
 25
0.0
 16
0.0
 26
0.0
 36
1.0
 17
0.0
 27
0.0
 37
0.0
 40
69.581430341
 41
0.7070707071
 42
50.0
 43
0.0
 44
0.0
 50
0.0
 51
0.0
 71
0
 72
100
 73
1
 74
1
 75
0
 76
0
 77
0
 78
0
  0
ENDTAB
  0
TABLE
  2
LTYPE
  5
5
100
AcDbSymbolTable
 70
6
  0
LTYPE
  5
14
100
AcDbSymbolTableRecord
100
AcDbLinetypeTableRecord
  2
BYBLOCK
 70
0
  3

 72
65
 73
0
 40
0.0
  0
LTYPE
  5
15
100
AcDbSymbolTableRecord
100
AcDbLinetypeTableRecord
  2
BYLAYER
 70
0
  3

 72
65
 73
0
 40
0.0
  0
LTYPE
  5
16
100
AcDbSymbolTableRecord
100
AcDbLinetypeTableRecord
  2
CONTINUOUS
 70
64
  3
Solid line
 72
65
 73
0
 40
0.0
  0
LTYPE
  5
1F5
100
AcDbSymbolTableRecord
100
AcDbLinetypeTableRecord
  2
CENTER
 70
64
  3
____ _ ____ _ ____ _ ____ _ ____ _ ____ _ ____
 72
65
 73
4
 40
0.6
 49
0.375
 74
0
 49
-0.075
 74
0
 49
0.075
 74
0
 49
-0.075
 74
0
  0
LTYPE
  5
1F6
100
AcDbSymbolTableRecord
100
AcDbLinetypeTableRecord
  2
HIDDEN
 70
64
  3
- - - - - - - - - - - - - - - - - - - -
 72
65
 73
2
 40
0.2
 49
0.1
 74
0
 49
-0.1
 74
0
  0
LTYPE
  5
1F7
100
AcDbSymbolTableRecord
100
AcDbLinetypeTableRecord
  2
PHANTOM
 70
64
  3
_____ _ _ _____ _ _ _____ _ _ _____
 72
65
 73
6
 40
0.8
 49
0.45
 74
0
 49
-0.05
 74
0
 49
0.1
 74
0
 49
-0.05
 74
0
 49
0.1
 74
0
 49
-0.05
 74
0
  0
LTYPE
  5
1F8
100
AcDbSymbolTableRecord
100
AcDbLinetypeTableRecord
  2
DOT
 70
64
  3
. . . . . . . . . . . . . . . . . . . .
 72
65
 73
2
 40
0.2
 49
0.1
 74
0
 49
-0.1
 74
0
  0
LTYPE
  5
1F9
100
AcDbSymbolTableRecord
100
AcDbLinetypeTableRecord
  2
DASHED
 70
64
  3
- - - - - - - - - - - - - - - - - - - -
 72
65
 73
2
 40
0.2
 49
0.1
 74
0
 49
-0.1
 74
0
  0
ENDTAB
  0
TABLE
  2
LAYER
  5
2
100
AcDbSymbolTable
 70
36
  0
LAYER
  5
10
100
AcDbSymbolTableRecord
100
AcDbLayerTableRecord
  2
0
 70
0
 62
7
  6
CONTINUOUS
370
-3
390
F
  0
LAYER
  5
1FA
100
AcDbSymbolTableRecord
100
AcDbLayerTableRecord
  2
DEFAULT_1
 70
0
 62
7
  6
CENTER
370
-3
390
F
  0
LAYER
  5
1FB
100
AcDbSymbolTableRecord
100
AcDbLayerTableRecord
  2
DEFAULT_2
 70
0
 62
7
  6
HIDDEN
370
-3
390
F
  0
LAYER
  5
1FC
100
AcDbSymbolTableRecord
100
AcDbLayerTableRecord
  2
DEFAULT_3
 70
0
 62
7
  6
PHANTOM
370
-3
390
F
  0
LAYER
  5
1FD
100
AcDbSymbolTableRecord
100
AcDbLayerTableRecord
  2
00_COMPONENTS
 70
0
 62
7
  6
CONTINUOUS
370
-3
390
F
  0
LAYER
  5
1FE
100
AcDbSymbolTableRecord
100
AcDbLayerTableRecord
  2
01_1_DEFAULT_DATUMS
 70
0
 62
7
  6
CONTINUOUS
370
-3
390
F
  0
LAYER
  5
1FF
100
AcDbSymbolTableRecord
100
AcDbLayerTableRecord
  2
01_PLANES
 70
0
 62
7
  6
CONTINUOUS
370
-3
390
F
  0
LAYER
  5
200
100
AcDbSymbolTableRecord
100
AcDbLayerTableRecord
  2
02_COORD_SYS
 70
0
 62
7
  6
CONTINUOUS
370
-3
390
F
  0
LAYER
  5
201
100
AcDbSymbolTableRecord
100
AcDbLayerTableRecord
  2
03_AXES
 70
0
 62
7
  6
CONTINUOUS
370
-3
390
F
  0
LAYER
  5
202
100
AcDbSymbolTableRecord
100
AcDbLayerTableRecord
  2
04_POINTS
 70
0
 62
7
  6
CONTINUOUS
370
-3
390
F
  0
LAYER
  5
203
100
AcDbSymbolTableRecord
100
AcDbLayerTableRecord
  2
05_CURVES
 70
0
 62
7
  6
CONTINUOUS
370
-3
390
F
  0
LAYER
  5
204
100
AcDbSymbolTableRecord
100
AcDbLayerTableRecord
  2
06_SURFS
 70
0
 62
7
  6
CONTINUOUS
370
-3
390
F
  0
LAYER
  5
205
100
AcDbSymbolTableRecord
100
AcDbLayerTableRecord
  2
07_COSMETICS
 70
0
 62
7
  6
CONTINUOUS
370
-3
390
F
  0
LAYER
  5
206
100
AcDbSymbolTableRecord
100
AcDbLayerTableRecord
  2
10_NOTES
 70
0
 62
7
  6
CONTINUOUS
370
-3
390
F
  0
LAYER
  5
207
100
AcDbSymbolTableRecord
100
AcDbLayerTableRecord
  2
11_NOTES_PUB
 70
0
 62
7
  6
CONTINUOUS
370
-3
390
F
  0
LAYER
  5
208
100
AcDbSymbolTableRecord
100
AcDbLayerTableRecord
  2
13_REF_GTOL
 70
0
 62
7
  6
CONTINUOUS
370
-3
390
F
  0
LAYER
  5
209
100
AcDbSymbolTableRecord
100
AcDbLayerTableRecord
  2
16_MISC
 70
0
 62
7
  6
CONTINUOUS
370
-3
390
F
  0
LAYER
  5
20A
100
AcDbSymbolTableRecord
100
AcDbLayerTableRecord
  2
17_NO_PRINT
 70
0
 62
7
  6
CONTINUOUS
370
-3
390
F
  0
LAYER
  5
20B
100
AcDbSymbolTableRecord
100
AcDbLayerTableRecord
  2
18_DATUM_CAMS_JOINTS
 70
0
 62
7
  6
CONTINUOUS
370
-3
390
F
  0
LAYER
  5
20C
100
AcDbSymbolTableRecord
100
AcDbLayerTableRecord
  2
19_DATUM_FUNCTIONAL
 70
0
 62
7
  6
CONTINUOUS
370
-3
390
F
  0
LAYER
  5
20D
100
AcDbSymbolTableRecord
100
AcDbLayerTableRecord
  2
20_DATUM_KINEMATIC_SCHEME
 70
0
 62
7
  6
CONTINUOUS
370
-3
390
F
  0
ENDTAB
  0
TABLE
  2
STYLE
  5
3
100
AcDbSymbolTable
 70
1
  0
STYLE
  5
11
100
AcDbSymbolTableRecord
100
AcDbTextStyleTableRecord
  2
STANDARD
 70
0
 40
0.0
 41
1.0
 50
0.0
 71
0
 42
0.2
  3
ARIAL.TTF
  4

  0
STYLE
  5
20E
100
AcDbSymbolTableRecord
100
AcDbTextStyleTableRecord
  2
TEXTSTYLE_1
 70
0
 40
0.0
 41
0.8
 50
0.0
 71
0
 42
0.2
  3
gdt
  4

  0
ENDTAB
  0
TABLE
  2
VIEW
  5
6
100
AcDbSymbolTable
 70
0
  0
ENDTAB
  0
TABLE
  2
UCS
  5
7
100
AcDbSymbolTable
 70
0
  0
ENDTAB
  0
TABLE
  2
APPID
  5
9
100
AcDbSymbolTable
 70
1
  0
APPID
  5
20F
100
AcDbSymbolTableRecord
100
AcDbRegAppTableRecord
  2
ACAD
 70
0
  0
ENDTAB
  0
TABLE
  2
BLOCK_RECORD
  5
1
100
AcDbSymbolTable
 70
0
  0
BLOCK_RECORD
  5
210
100
AcDbSymbolTableRecord
100
AcDbBlockTableRecord
  2
*Model_Space
  0
BLOCK_RECORD
  5
211
100
AcDbSymbolTableRecord
100
AcDbBlockTableRecord
  2
*Paper_Space
  0
BLOCK_RECORD
  5
212
100
AcDbSymbolTableRecord
100
AcDbBlockTableRecord
  2
_FILLED
  0
ENDTAB
  0
TABLE
  2
DIMSTYLE
  5
A
100
AcDbSymbolTable
 70
1
100
AcDbDimStyleTable
 71
0
  0
DIMSTYLE
105
213
100
AcDbSymbolTableRecord
100
AcDbDimStyleTableRecord
  2
STANDARD
 70
0
  3

  4

 40
1.0
 41
0.5857022756
 42
1.0
 43
0.38
 44
1.0
 45
0.0
 46
0.0
 47
0.01
 48
0.01
140
0.8199831858
141
0.09
142
0.0
143
25.4
144
1.0
145
0.0
146
1.0
147
0.625
 71
1
 72
0
 73
0
 74
0
 75
0
 76
0
 77
1
 78
8
 79
2
170
0
171
1
172
0
173
0
174
0
175
0
176
0
177
0
178
0
270
2
179
2
271
2
272
2
273
2
274
2
275
0
280
0
281
0
282
0
283
1
284
8
285
0
286
0
287
3
288
0
340
11
278
46
341
212
342
212
343
212
344
212
  0
ENDTAB
  0
ENDSEC
  0
SECTION
  2
BLOCKS
  0
BLOCK
  5
20
100
AcDbEntity
  8
0
100
AcDbBlockBegin
  2
*Model_Space
 70
0
 10
0.0
 20
0.0
 30
0.0
  3
*Model_Space
  1

  0
ENDBLK
  5
21
100
AcDbEntity
  8
0
100
AcDbBlockEnd
  0
BLOCK
  5
1C
100
AcDbEntity
  8
0
100
AcDbBlockBegin
  2
*Paper_Space
 70
0
 10
0.0
 20
0.0
 30
0.0
  3
*Paper_Space
  1

  0
ENDBLK
  5
1D
100
AcDbEntity
  8
0
100
AcDbBlockEnd
  0
BLOCK
  5
214
100
AcDbEntity
  8
0
100
AcDbBlockBegin
  2
_FILLED
 70
64
 10
0.0
 20
0.0
  3
_FILLED
  1

  0
SOLID
  5
215
100
AcDbEntity
  8
0
  6
BYBLOCK
 62
0
100
AcDbTrace
 10
0.0
 20
0.0
 11
-1.0
 21
0.25
 12
-1.0
 22
-0.25
 13
-1.0
 23
-0.25
  0
ENDBLK
  5
216
100
AcDbEntity
  8
0
  6
BYBLOCK
 62
0
100
AcDbBlockEnd
  0
ENDSEC
  0
SECTION
  2
ENTITIES
  0
LINE
  5
217
100
AcDbEntity
  8
0
100
AcDbLine
 62
7
  6
BYLAYER
 10
17.6370656334
 20
61.8955369952
 11
21.1725848194
 21
63.9367577646
  0
LWPOLYLINE
  5
218
100
AcDbEntity
  8
0
100
AcDbPolyline
 62
7
  6
BYLAYER
 90
5
 70
0
 10
26.4816367443
 20
8.1220894352
 10
28.3426182504
 20
8.3326116135
 10
30.9260695475
 20
9.11263119
 10
33.0186385425
 20
10.2846098014
 10
33.6414419974
 20
10.8865583136
  0
LWPOLYLINE
  5
219
100
AcDbEntity
  8
0
100
AcDbPolyline
 62
7
  6
BYLAYER
 90
5
 70
0
 10
26.4816367443
 20
7.6002469783
 10
28.0174682427
 20
7.770978037
 10
30.3502436453
 20
8.4469882464
 10
32.3051598335
 20
9.4794192073
 10
33.7253780886
 20
10.7997141957
  0
LWPOLYLINE
  5
21A
100
AcDbEntity
  8
0
100
AcDbPolyline
 62
7
  6
BYLAYER
 90
4
 70
0
 10
23.4816367443
 20
8.2813469537
 10
21.5666949574
 20
8.4996180338
 10
20.2025118284
 20
8.8456644009
 10
17.8062484811
 20
9.8608108499
  0
LWPOLYLINE
  5
21B
100
AcDbEntity
  8
0
100
AcDbPolyline
 62
7
  6
BYLAYER
 90
4
 70
0
 10
23.4816367443
 20
7.6500608443
 10
21.7715021743
 20
7.8471082062
 10
20.5032110339
 20
8.1689696766
 10
18.339292457
 20
9.0823327083
  0
LWPOLYLINE
  5
21C
100
AcDbEntity
  8
0
100
AcDbPolyline
 62
7
  6
BYLAYER
 90
4
 70
0
 10
18.3290852394
 20
9.0581500044
 10
20.5632405733
 20
8.1147836523
 10
21.8199173643
 20
7.7961980158
 10
23.4816367443
 20
7.6044601309
  0
LWPOLYLINE
  5
21D
100
AcDbEntity
  8
0
100
AcDbPolyline
 62
7
  6
BYLAYER
 90
4
 70
0
 10
17.8532615304
 20
9.6912984503
 10
20.2323308169
 20
8.6832600164
 10
21.5866801437
 20
8.3395138597
 10
23.4816367443
 20
8.1231419877
  0
LINE
  5
21E
100
AcDbEntity
  8
0
100
AcDbLine
 62
7
  6
BYLAYER
 10
9.920207253
 20
13.9553911741
 11
9.7787864855
 21
14.0370428267
  0
LINE
  5
21F
100
AcDbEntity
  8
0
100
AcDbLine
 62
7
  6
BYLAYER
 10
24.0624017559
 20
5.7905760837
 11
23.9209809885
 21
5.8722277363
  0
LINE
  5
220
100
AcDbEntity
  8
0
100
AcDbLine
 62
7
  6
BYLAYER
 10
32.9999157194
 20
9.540531894
 11
32.370896053
 21
9.5405303786
  0
LINE
  5
221
100
AcDbEntity
  8
0
100
AcDbLine
 62
7
  6
BYLAYER
 10
17.578753441
 20
9.5404948224
 11
16.9632483374
 21
9.5404933462
  0
LINE
  5
222
100
AcDbEntity
  8
0
100
AcDbLine
 62
7
  6
BYLAYER
 10
6.3846017256
 20
18.6911317724
 11
24.4867481661
 21
8.2400890862
  0
LINE
  5
223
100
AcDbEntity
  8
0
100
AcDbLine
 62
7
  6
BYLAYER
 10
19.8870555604
 20
57.9984168626
 11
18.472847886
 21
57.1819285548
  0
LINE
  5
224
100
AcDbEntity
  8
0
100
AcDbLine
 62
7
  6
BYLAYER
 10
16.2377776413
 20
10.7997141957
 11
15.7201435948
 21
11.4679845188
  0
LINE
  5
225
100
AcDbEntity
  8
0
100
AcDbLine
 62
7
  6
BYLAYER
 10
5.9604054512
 20
25.9171306862
 11
5.9604054512
 21
24.2841258519
  0
LINE
  5
226
100
AcDbEntity
  8
0
100
AcDbLine
 62
7
  6
BYLAYER
 10
6.1795851305
 20
18.9768623557
 11
6.1795851305
 21
24.1575852677
  0
LINE
  5
227
100
AcDbEntity
  8
0
100
AcDbLine
 62
7
  6
BYLAYER
 10
6.3846017256
 20
18.6911317724
 11
6.3846006883
 21
23.9983980825
  0
LINE
  5
228
100
AcDbEntity
  8
0
100
AcDbLine
 62
7
  6
BYLAYER
 10
20.1817387017
 20
54.762189733
 11
18.8871855267
 21
54.0147835704
  0
LINE
  5
229
100
AcDbEntity
  8
0
100
AcDbLine
 62
7
  6
BYLAYER
 10
6.3846124006
 20
23.9983921825
 11
24.4867376436
 21
13.5473617308
  0
LINE
  5
22A
100
AcDbEntity
  8
0
100
AcDbLine
 62
7
  6
BYLAYER
 10
5.9604054512
 20
24.2841258519
 11
6.1247911109
 21
24.1892198941
  0
LINE
  5
22B
100
AcDbEntity
  8
0
100
AcDbLine
 62
7
  6
BYLAYER
 10
24.1684808737
 20
13.771926423
 11
24.9816570576
 21
13.3024495553
  0
LINE
  5
22C
100
AcDbEntity
  8
0
100
AcDbLine
 62
7
  6
BYLAYER
 10
8.9304041847
 20
28.4892341949
 11
8.9331046012
 21
28.3826805903
  0
LINE
  5
22D
100
AcDbEntity
  8
0
100
AcDbLine
 62
7
  6
BYLAYER
 10
7.9499735113
 20
27.0003431016
 11
7.8451881975
 21
26.0242898764
  0
LINE
  5
22E
100
AcDbEntity
  8
0
100
AcDbLine
 62
7
  6
BYLAYER
 10
25.3259780721
 20
18.3695520231
 11
24.6373100667
 21
18.3695503678
  0
LINE
  5
22F
100
AcDbEntity
  8
0
100
AcDbLine
 62
7
  6
BYLAYER
 10
24.6421172152
 20
18.4612991708
 11
25.3211685198
 21
18.461300803
  0
LINE
  5
230
100
AcDbEntity
  8
0
100
AcDbLine
 62
7
  6
BYLAYER
 10
5.9604054512
 20
25.9171306862
 11
24.9816570576
 21
14.9354543896
  0
LINE
  5
231
100
AcDbEntity
  8
0
100
AcDbLine
 62
7
  6
BYLAYER
 10
8.9303269128
 20
28.489288604
 11
8.9303280847
 21
28.8158858989
  0
LINE
  5
232
100
AcDbEntity
  8
0
100
AcDbLine
 62
7
  6
BYLAYER
 10
9.3394422413
 20
16.9851923987
 11
9.3394422413
 21
14.6494090575
  0
LINE
  5
233
100
AcDbEntity
  8
0
100
AcDbLine
 62
7
  6
BYLAYER
 10
10.6980011605
 20
44.900764618
 11
10.6980011605
 21
37.2036371768
  0
LINE
  5
234
100
AcDbEntity
  8
0
100
AcDbLine
 62
7
  6
BYLAYER
 10
10.6980011605
 20
33.8945834537
 11
10.6980011605
 21
33.8076355979
  0
LINE
  5
235
100
AcDbEntity
  8
0
100
AcDbLine
 62
7
  6
BYLAYER
 10
7.9759689155
 20
27.1429934704
 11
7.9499741716
 21
27.000343078
  0
LINE
  5
236
100
AcDbEntity
  8
0
100
AcDbLine
 62
7
  6
BYLAYER
 10
8.0246350938
 20
27.580548067
 11
8.030671975
 21
27.6122631735
  0
LINE
  5
237
100
AcDbEntity
  8
0
100
AcDbLine
 62
7
  6
BYLAYER
 10
11.9263933737
 20
41.9214500052
 11
17.2373095336
 21
51.3693384163
  0
LINE
  5
238
100
AcDbEntity
  8
0
100
AcDbLine
 62
7
  6
BYLAYER
 10
14.9960450776
 20
47.3822266181
 11
10.6980011605
 21
44.900764618
  0
LINE
  5
239
100
AcDbEntity
  8
0
100
AcDbLine
 62
7
  6
BYLAYER
 10
22.2688122752
 20
51.2328898873
 11
20.9371763491
 21
50.4640741162
  0
LINE
  5
23A
100
AcDbEntity
  8
0
100
AcDbLine
 62
7
  6
BYLAYER
 10
24.501751532
 20
50.5644494241
 11
25.9159592064
 21
51.3809377319
  0
LINE
  5
23B
100
AcDbEntity
  8
0
100
AcDbLine
 62
7
  6
BYLAYER
 10
27.8451065214
 20
18.9781921459
 11
27.7651224261
 21
18.9781919537
  0
LINE
  5
23C
100
AcDbEntity
  8
0
100
AcDbLine
 62
7
  6
BYLAYER
 10
22.1980333477
 20
18.978178572
 11
22.1181634184
 21
18.97817838
  0
LINE
  5
23D
100
AcDbEntity
  8
0
100
AcDbLine
 62
7
  6
BYLAYER
 10
27.4922559697
 20
19.1271885674
 11
25.381459388
 21
19.1271834937
  0
LINE
  5
23E
100
AcDbEntity
  8
0
100
AcDbLine
 62
7
  6
BYLAYER
 10
24.5818178237
 20
19.1271815716
 11
22.471021242
 21
19.1271764979
  0
LINE
  5
23F
100
AcDbEntity
  8
0
100
AcDbLine
 62
7
  6
BYLAYER
 10
22.4710175188
 20
19.6434757481
 11
24.5818141005
 21
19.6434808218
  0
LINE
  5
240
100
AcDbEntity
  8
0
100
AcDbLine
 62
7
  6
BYLAYER
 10
25.3814556648
 20
19.6434827439
 11
27.4922522465
 21
19.6434878177
  0
LINE
  5
241
100
AcDbEntity
  8
0
100
AcDbLine
 62
7
  6
BYLAYER
 10
24.6518090508
 20
19.9166803111
 11
25.3114535135
 21
19.9166818967
  0
LINE
  5
242
100
AcDbEntity
  8
0
100
AcDbLine
 62
7
  6
BYLAYER
 10
24.6372954164
 20
20.4011122924
 11
25.3259634219
 21
20.4011139477
  0
LINE
  5
243
100
AcDbEntity
  8
0
100
AcDbLine
 62
7
  6
BYLAYER
 10
10.6980690902
 20
25.7540387418
 11
10.8063329591
 21
25.6953640123
  0
LINE
  5
244
100
AcDbEntity
  8
0
100
AcDbLine
 62
7
  6
BYLAYER
 10
10.415219313
 20
25.9174436037
 11
10.5061603463
 21
25.8680581428
  0
LINE
  5
245
100
AcDbEntity
  8
0
100
AcDbLine
 62
7
  6
BYLAYER
 10
10.4152277944
 20
25.9173494805
 11
10.6980690904
 21
25.7540503859
  0
LINE
  5
246
100
AcDbEntity
  8
0
100
AcDbLine
 62
7
  6
BYLAYER
 10
12.3394422413
 20
15.2531807745
 11
12.3394422413
 21
14.6494090575
  0
LINE
  5
247
100
AcDbEntity
  8
0
100
AcDbLine
 62
7
  6
BYLAYER
 10
11.8425808688
 20
40.3922257489
 11
11.9263933737
 21
41.9214500052
  0
LINE
  5
248
100
AcDbEntity
  8
0
100
AcDbLine
 62
7
  6
BYLAYER
 10
11.6005710159
 20
33.3095624693
 11
11.570470176
 21
32.7603492641
  0
LINE
  5
249
100
AcDbEntity
  8
0
100
AcDbLine
 62
7
  6
BYLAYER
 10
22.9371778367
 20
20.3615121621
 11
18.2570706519
 21
23.0635121777
  0
LINE
  5
24A
100
AcDbEntity
  8
0
100
AcDbLine
 62
7
  6
BYLAYER
 10
15.4401938109
 20
24.6897999886
 11
14.8053218186
 21
25.0563352121
  0
LINE
  5
24B
100
AcDbEntity
  8
0
100
AcDbLine
 62
7
  6
BYLAYER
 10
29.719252767
 20
17.6706902205
 11
27.8823025121
 21
18.731229952
  0
LINE
  5
24C
100
AcDbEntity
  8
0
100
AcDbLine
 62
7
  6
BYLAYER
 10
38.2044785002
 20
13.4655577108
 11
38.0630577327
 21
13.5472093635
  0
LINE
  5
24D
100
AcDbEntity
  8
0
100
AcDbLine
 62
7
  6
BYLAYER
 10
15.1806205505
 20
26.1626525895
 11
15.5092426012
 21
25.9496488043
  0
LINE
  5
24E
100
AcDbEntity
  8
0
100
AcDbLine
 62
7
  6
BYLAYER
 10
13.8212619496
 20
24.4881913731
 11
13.9058145382
 21
26.0309190312
  0
LINE
  5
24F
100
AcDbEntity
  8
0
100
AcDbLine
 62
7
  6
BYLAYER
 10
14.3721641518
 20
34.5398299855
 11
14.5323603074
 21
37.4627332826
  0
LINE
  5
250
100
AcDbEntity
  8
0
100
AcDbLine
 62
7
  6
BYLAYER
 10
15.235469624
 20
25.3046796809
 11
15.2789979109
 21
26.0988870871
  0
LINE
  5
251
100
AcDbEntity
  8
0
100
AcDbLine
 62
7
  6
BYLAYER
 10
15.7863718262
 20
35.3563182932
 11
15.8548381459
 21
36.6055394795
  0
LINE
  5
252
100
AcDbEntity
  8
0
100
AcDbLine
 62
7
  6
BYLAYER
 10
20.4857117037
 20
25.7507762923
 11
18.2808357371
 21
27.1799163204
  0
LINE
  5
253
100
AcDbEntity
  8
0
100
AcDbLine
 62
7
  6
BYLAYER
 10
9.3004432811
 20
33.0007599964
 11
10.8390970929
 21
32.0034468663
  0
LINE
  5
254
100
AcDbEntity
  8
0
100
AcDbLine
 62
7
  6
BYLAYER
 10
24.637305122
 20
19.0552302559
 11
24.5818178237
 21
19.1271815716
  0
LINE
  5
255
100
AcDbEntity
  8
0
100
AcDbLine
 62
7
  6
BYLAYER
 10
16.0850828362
 20
36.4563011966
 11
15.9248866806
 21
33.5333978995
  0
LINE
  5
256
100
AcDbEntity
  8
0
100
AcDbLine
 62
7
  6
BYLAYER
 10
15.3739844784
 20
23.4817592872
 11
15.5092426012
 21
25.9496488043
  0
LINE
  5
257
100
AcDbEntity
  8
0
100
AcDbLine
 62
7
  6
BYLAYER
 10
17.4439218555
 20
55.139140724
 11
17.2373095336
 21
51.3693384163
  0
LINE
  5
258
100
AcDbEntity
  8
0
100
AcDbLine
 62
7
  6
BYLAYER
 10
27.137023103
 20
45.4410297685
 11
30.6725422891
 21
47.4822505378
  0
LINE
  5
259
100
AcDbEntity
  8
0
100
AcDbLine
 62
7
  6
BYLAYER
 10
8.0558388448
 20
27.1429936624
 11
7.9759689155
 21
27.1429934704
  0
LINE
  5
25A
100
AcDbEntity
  8
0
100
AcDbLine
 62
7
  6
BYLAYER
 10
9.2517727083
 20
27.2919938068
 11
8.3288267391
 21
27.2919915883
  0
LINE
  5
25B
100
AcDbEntity
  8
0
100
AcDbLine
 62
7
  6
BYLAYER
 10
8.3288230159
 20
27.8082908385
 11
9.0490000425
 21
27.8082925696
  0
LINE
  5
25C
100
AcDbEntity
  8
0
100
AcDbLine
 62
7
  6
BYLAYER
 10
21.8999193782
 20
26.5672646001
 11
19.6950434115
 21
27.9964046282
  0
LINE
  5
25D
100
AcDbEntity
  8
0
100
AcDbLine
 62
7
  6
BYLAYER
 10
10.7146509555
 20
33.8172483041
 11
11.5970490836
 21
33.2453020792
  0
LINE
  5
25E
100
AcDbEntity
  8
0
100
AcDbLine
 62
7
  6
BYLAYER
 10
20.5809634719
 20
27.4887187933
 11
18.3760875053
 21
28.9178588214
  0
LINE
  5
25F
100
AcDbEntity
  8
0
100
AcDbLine
 62
7
  6
BYLAYER
 10
9.3956950493
 20
34.7387024974
 11
11.6005710159
 21
33.3095624693
  0
LINE
  5
260
100
AcDbEntity
  8
0
100
AcDbLine
 62
7
  6
BYLAYER
 10
25.3259683665
 20
19.7154340596
 11
25.3814556648
 21
19.6434827439
  0
LINE
  5
261
100
AcDbEntity
  8
0
100
AcDbLine
 62
7
  6
BYLAYER
 10
18.2808357371
 20
27.1799163204
 11
18.3760875053
 21
28.9178588214
  0
LINE
  5
262
100
AcDbEntity
  8
0
100
AcDbLine
 62
7
  6
BYLAYER
 10
18.9004105453
 20
35.817534449
 11
18.9842230502
 21
37.3467587053
  0
LINE
  5
263
100
AcDbEntity
  8
0
100
AcDbLine
 62
7
  6
BYLAYER
 10
19.6950434115
 20
27.9964046282
 11
19.6985653438
 21
28.0606650183
  0
LINE
  5
264
100
AcDbEntity
  8
0
100
AcDbLine
 62
7
  6
BYLAYER
 10
20.3146182197
 20
36.6340227567
 11
20.366913626
 21
37.5881930683
  0
LINE
  5
265
100
AcDbEntity
  8
0
100
AcDbLine
 62
7
  6
BYLAYER
 10
24.29513921
 20
46.7946471164
 11
18.9842230502
 21
37.3467587053
  0
LINE
  5
266
100
AcDbEntity
  8
0
100
AcDbLine
 62
7
  6
BYLAYER
 10
20.366913626
 20
37.5881930683
 11
25.6778297859
 21
47.0360814794
  0
LINE
  5
267
100
AcDbEntity
  8
0
100
AcDbLine
 62
7
  6
BYLAYER
 10
9.3004432811
 20
33.0007599964
 11
10.7146509555
 21
33.8172483041
  0
LINE
  5
268
100
AcDbEntity
  8
0
100
AcDbLine
 62
7
  6
BYLAYER
 10
15.8808936331
 20
36.1280372729
 11
16.0731759528
 21
36.2390508592
  0
LINE
  5
269
100
AcDbEntity
  8
0
100
AcDbLine
 62
7
  6
BYLAYER
 10
15.7863718262
 20
35.3563182932
 11
14.3721641518
 21
34.5398299855
  0
LINE
  5
26A
100
AcDbEntity
  8
0
100
AcDbLine
 62
7
  6
BYLAYER
 10
10.9086203477
 20
32.3782323685
 11
12.1646061629
 21
33.1033717885
  0
LINE
  5
26B
100
AcDbEntity
  8
0
100
AcDbLine
 62
7
  6
BYLAYER
 10
15.9248866806
 20
33.5333978995
 11
14.3721641518
 21
34.5398299855
  0
LINE
  5
26C
100
AcDbEntity
  8
0
100
AcDbLine
 62
7
  6
BYLAYER
 10
16.0166165165
 20
35.2070800103
 11
15.7863718262
 21
35.3563182932
  0
LINE
  5
26D
100
AcDbEntity
  8
0
100
AcDbLine
 62
7
  6
BYLAYER
 10
8.9303269364
 20
28.4958718358
 11
8.927237923
 21
28.4936638458
  0
LINE
  5
26E
100
AcDbEntity
  8
0
100
AcDbLine
 62
7
  6
BYLAYER
 10
8.9040896833
 20
28.5088699372
 11
8.9008492337
 21
28.5066853521
  0
LINE
  5
26F
100
AcDbEntity
  8
0
100
AcDbLine
 62
7
  6
BYLAYER
 10
20.3146182197
 20
36.6340227567
 11
18.9004105453
 21
35.817534449
  0
LINE
  5
270
100
AcDbEntity
  8
0
100
AcDbLine
 62
7
  6
BYLAYER
 10
13.3581202886
 20
32.5970497456
 11
14.6141061039
 21
33.3221891657
  0
LINE
  5
271
100
AcDbEntity
  8
0
100
AcDbLine
 62
7
  6
BYLAYER
 10
9.4481079937
 20
29.9603539392
 11
11.9399977703
 21
31.3990385848
  0
LINE
  5
272
100
AcDbEntity
  8
0
100
AcDbLine
 62
7
  6
BYLAYER
 10
14.5323603074
 20
37.4627332826
 11
16.0850828362
 21
36.4563011966
  0
LINE
  5
273
100
AcDbEntity
  8
0
100
AcDbLine
 62
7
  6
BYLAYER
 10
24.6755895387
 20
18.4634646708
 11
24.637305122
 21
19.0552302559
  0
LINE
  5
274
100
AcDbEntity
  8
0
100
AcDbLine
 62
7
  6
BYLAYER
 10
24.717168751
 20
18.4612993512
 11
24.6373003611
 21
19.7154324043
  0
LINE
  5
275
100
AcDbEntity
  8
0
100
AcDbLine
 62
7
  6
BYLAYER
 10
24.612369221
 20
19.0875650594
 11
24.5818141005
 21
19.6434808218
  0
LINE
  5
276
100
AcDbEntity
  8
0
100
AcDbLine
 62
7
  6
BYLAYER
 10
24.6518090508
 20
19.9166803111
 11
24.7208777344
 21
18.4612993601
  0
LINE
  5
277
100
AcDbEntity
  8
0
100
AcDbLine
 62
7
  6
BYLAYER
 10
23.4816367443
 20
8.8203773083
 11
23.4816367443
 21
6.4845939671
  0
LINE
  5
278
100
AcDbEntity
  8
0
100
AcDbLine
 62
7
  6
BYLAYER
 10
23.9816136216
 20
5.8372204683
 11
23.9816124651
 21
5.395530101
  0
LINE
  5
279
100
AcDbEntity
  8
0
100
AcDbLine
 62
7
  6
BYLAYER
 10
24.1684808737
 20
10.7508674796
 11
24.1684808737
 21
13.771926423
  0
LINE
  5
27A
100
AcDbEntity
  8
0
100
AcDbLine
 62
7
  6
BYLAYER
 10
24.4512941465
 20
35.73575458
 11
24.4512941465
 21
20.8700229091
  0
LINE
  5
27B
100
AcDbEntity
  8
0
100
AcDbLine
 62
7
  6
BYLAYER
 10
24.481612648
 20
5.369581769
 11
24.4816136148
 21
5.6292642733
  0
LINE
  5
27C
100
AcDbEntity
  8
0
100
AcDbLine
 62
7
  6
BYLAYER
 10
24.4867481663
 20
13.5473547974
 11
24.4867481661
 21
8.2400890862
  0
LINE
  5
27D
100
AcDbEntity
  8
0
100
AcDbLine
 62
7
  6
BYLAYER
 10
24.6372954164
 20
20.4011122924
 11
24.6373003611
 21
19.7154324043
  0
LINE
  5
27E
100
AcDbEntity
  8
0
100
AcDbLine
 62
7
  6
BYLAYER
 10
24.637305122
 20
19.0552302559
 11
24.6373100667
 21
18.3695503678
  0
LINE
  5
27F
100
AcDbEntity
  8
0
100
AcDbLine
 62
7
  6
BYLAYER
 10
24.9816570576
 20
13.3024495553
 11
24.9816570576
 21
14.9354543896
  0
LINE
  5
280
100
AcDbEntity
  8
0
100
AcDbLine
 62
7
  6
BYLAYER
 10
24.501751532
 20
50.5644494241
 11
24.29513921
 21
46.7946471164
  0
LINE
  5
281
100
AcDbEntity
  8
0
100
AcDbLine
 62
7
  6
BYLAYER
 10
25.9159592064
 20
51.3809377319
 11
25.6778297859
 21
47.0360814794
  0
LWPOLYLINE
  5
282
100
AcDbEntity
  8
0
100
AcDbPolyline
 62
7
  6
BYLAYER
 90
5
 70
0
 10
24.1065781555
 20
29.8110038193
 10
24.0391431114
 20
28.908857409
 10
23.5087798581
 20
27.4306625379
 10
22.5050885311
 20
26.5217222059
 10
21.8387746026
 20
26.4049749004
  0
LINE
  5
283
100
AcDbEntity
  8
0
100
AcDbLine
 62
7
  6
BYLAYER
 10
22.0921680142
 20
18.8355280112
 11
21.9873827004
 21
17.859474786
  0
LINE
  5
284
100
AcDbEntity
  8
0
100
AcDbLine
 62
7
  6
BYLAYER
 10
22.1181634184
 20
18.97817838
 11
22.0921686745
 21
18.8355279876
  0
LINE
  5
285
100
AcDbEntity
  8
0
100
AcDbLine
 62
7
  6
BYLAYER
 10
22.1668295967
 20
19.4157329766
 11
22.172866478
 21
19.4474480831
  0
LINE
  5
286
100
AcDbEntity
  8
0
100
AcDbLine
 62
7
  6
BYLAYER
 10
5.9604054512
 20
25.9171306862
 11
7.963305042
 21
27.0734984015
  0
LINE
  5
287
100
AcDbEntity
  8
0
100
AcDbLine
 62
7
  6
BYLAYER
 10
39.2651151202
 20
44.9008332849
 11
34.5275194109
 21
42.1655974539
  0
LINE
  5
288
100
AcDbEntity
  8
0
100
AcDbLine
 62
7
  6
BYLAYER
 10
15.8076202296
 20
29.5498574543
 11
17.0636060449
 21
30.2749968743
  0
LINE
  5
289
100
AcDbEntity
  8
0
100
AcDbLine
 62
7
  6
BYLAYER
 10
11.9263933737
 20
41.9214500052
 11
18.9842230502
 21
37.3467587053
  0
LWPOLYLINE
  5
28A
100
AcDbEntity
  8
0
100
AcDbPolyline
 62
7
  6
BYLAYER
 90
6
 70
0
 10
20.3591656248
 20
37.4468247666
 10
21.1414190141
 20
36.7655499956
 10
22.5052291646
 20
34.9492539542
 10
23.5054786858
 20
32.8905436754
 10
24.0383101044
 20
30.797250611
 10
24.1065781555
 20
29.8110038193
  0
LINE
  5
28B
100
AcDbEntity
  8
0
100
AcDbLine
 62
7
  6
BYLAYER
 10
27.7904237136
 20
19.447468204
 11
27.7964402284
 21
19.4157465085
  0
LINE
  5
28C
100
AcDbEntity
  8
0
100
AcDbLine
 62
7
  6
BYLAYER
 10
27.8711048147
 20
18.8355279876
 11
27.8451065214
 21
18.9781921459
  0
LINE
  5
28D
100
AcDbEntity
  8
0
100
AcDbLine
 62
7
  6
BYLAYER
 10
27.8711054743
 20
18.8355280112
 11
27.9758907881
 21
17.859474786
  0
LINE
  5
28E
100
AcDbEntity
  8
0
100
AcDbLine
 62
7
  6
BYLAYER
 10
25.3259780721
 20
18.3695520231
 11
25.3259731274
 21
19.0552319112
  0
LINE
  5
28F
100
AcDbEntity
  8
0
100
AcDbLine
 62
7
  6
BYLAYER
 10
25.3259683665
 20
19.7154340596
 11
25.3259634219
 21
20.4011139477
  0
LINE
  5
290
100
AcDbEntity
  8
0
100
AcDbLine
 62
7
  6
BYLAYER
 10
25.4765615552
 20
8.2400909679
 11
25.4765602608
 21
13.5473559319
  0
LINE
  5
291
100
AcDbEntity
  8
0
100
AcDbLine
 62
7
  6
BYLAYER
 10
25.4816136141
 20
5.6285330918
 11
25.481612648
 21
5.3695842268
  0
LINE
  5
292
100
AcDbEntity
  8
0
100
AcDbLine
 62
7
  6
BYLAYER
 10
25.9816124651
 20
5.3955403159
 11
25.9816136216
 21
5.8371937674
  0
LINE
  5
293
100
AcDbEntity
  8
0
100
AcDbLine
 62
7
  6
BYLAYER
 10
26.1243248876
 20
35.9945739465
 11
26.1243248876
 21
20.7657459267
  0
LINE
  5
294
100
AcDbEntity
  8
0
100
AcDbLine
 62
7
  6
BYLAYER
 10
26.4816367443
 20
8.820367935
 11
26.4816367443
 21
6.4845939671
  0
LINE
  5
295
100
AcDbEntity
  8
0
100
AcDbLine
 62
7
  6
BYLAYER
 10
25.3114535135
 20
19.9166818967
 11
25.2423903011
 21
18.4613006137
  0
LINE
  5
296
100
AcDbEntity
  8
0
100
AcDbLine
 62
7
  6
BYLAYER
 10
25.3814556648
 20
19.6434827439
 11
25.350900086
 21
19.0875558432
  0
LINE
  5
297
100
AcDbEntity
  8
0
100
AcDbLine
 62
7
  6
BYLAYER
 10
25.246100118
 20
18.4613006226
 11
25.3259683665
 21
19.7154340596
  0
LINE
  5
298
100
AcDbEntity
  8
0
100
AcDbLine
 62
7
  6
BYLAYER
 10
25.2876886851
 20
18.4634667921
 11
25.3259731274
 21
19.0552319112
  0
LINE
  5
299
100
AcDbEntity
  8
0
100
AcDbLine
 62
7
  6
BYLAYER
 10
21.2515940931
 20
31.5048293716
 11
19.8373864187
 21
30.6883410638
  0
LINE
  5
29A
100
AcDbEntity
  8
0
100
AcDbLine
 62
7
  6
BYLAYER
 10
11.9480968015
 20
25.6302204585
 11
14.4147075777
 21
27.0543103535
  0
LINE
  5
29B
100
AcDbEntity
  8
0
100
AcDbLine
 62
7
  6
BYLAYER
 10
24.4512941465
 20
35.73575458
 11
26.1243248876
 21
35.9945739465
  0
LINE
  5
29C
100
AcDbEntity
  8
0
100
AcDbLine
 62
7
  6
BYLAYER
 10
24.4512941465
 20
35.73575458
 11
20.5814990884
 21
37.9699312547
  0
LINE
  5
29D
100
AcDbEntity
  8
0
100
AcDbLine
 62
7
  6
BYLAYER
 10
29.719252767
 20
33.9190883214
 11
26.1243248876
 21
35.9945739465
  0
LINE
  5
29E
100
AcDbEntity
  8
0
100
AcDbLine
 62
7
  6
BYLAYER
 10
10.6980011605
 20
44.900764618
 11
12.8898208739
 21
43.6353455441
  0
LINE
  5
29F
100
AcDbEntity
  8
0
100
AcDbLine
 62
7
  6
BYLAYER
 10
29.719252767
 20
33.9190883214
 11
29.719252767
 21
17.6706902205
  0
LINE
  5
2A0
100
AcDbEntity
  8
0
100
AcDbLine
 62
7
  6
BYLAYER
 10
15.8076202296
 20
26.2838477858
 11
17.0636060449
 21
27.0089872058
  0
LINE
  5
2A1
100
AcDbEntity
  8
0
100
AcDbLine
 62
7
  6
BYLAYER
 10
39.2651545694
 20
39.4303843986
 11
29.719252767
 21
33.9190883214
  0
LINE
  5
2A2
100
AcDbEntity
  8
0
100
AcDbLine
 62
7
  6
BYLAYER
 10
19.6950434115
 20
27.9964046282
 11
18.2808357371
 21
27.1799163204
  0
LINE
  5
2A3
100
AcDbEntity
  8
0
100
AcDbLine
 62
7
  6
BYLAYER
 10
15.235469624
 20
25.3046796809
 11
13.8212619496
 21
24.4881913731
  0
LINE
  5
2A4
100
AcDbEntity
  8
0
100
AcDbLine
 62
7
  6
BYLAYER
 10
21.9181910145
 20
28.932687694
 11
23.9706794773
 21
30.117685387
  0
LINE
  5
2A5
100
AcDbEntity
  8
0
100
AcDbLine
 62
7
  6
BYLAYER
 10
20.5809634719
 20
27.4887187933
 11
21.9951711464
 21
28.3052071011
  0
LINE
  5
2A6
100
AcDbEntity
  8
0
100
AcDbLine
 62
7
  6
BYLAYER
 10
44.0027502787
 20
40.1243641868
 11
39.2651545694
 21
37.3891283558
  0
LINE
  5
2A7
100
AcDbEntity
  8
0
100
AcDbLine
 62
7
  6
BYLAYER
 10
38.7238908448
 20
42.0155059573
 11
38.7793771054
 21
42.0874575398
  0
LINE
  5
2A8
100
AcDbEntity
  8
0
100
AcDbLine
 62
7
  6
BYLAYER
 10
21.8999193782
 20
26.5672646001
 11
20.4857117037
 21
25.7507762923
  0
LINE
  5
2A9
100
AcDbEntity
  8
0
100
AcDbLine
 62
7
  6
BYLAYER
 10
20.3548931434
 20
24.1330141334
 11
18.940685469
 21
23.3165258257
  0
LINE
  5
2AA
100
AcDbEntity
  8
0
100
AcDbLine
 62
7
  6
BYLAYER
 10
39.4680548164
 20
40.7415771586
 11
38.779386811
 21
40.7415755033
  0
LINE
  5
2AB
100
AcDbEntity
  8
0
100
AcDbLine
 62
7
  6
BYLAYER
 10
38.7841939595
 20
40.8333243063
 11
39.4632452641
 21
40.8333259385
  0
LINE
  5
2AC
100
AcDbEntity
  8
0
100
AcDbLine
 62
7
  6
BYLAYER
 10
41.9871832656
 20
41.3502172814
 11
41.9023931252
 21
41.3502170776
  0
LINE
  5
2AD
100
AcDbEntity
  8
0
100
AcDbLine
 62
7
  6
BYLAYER
 10
36.3451567172
 20
41.3502037196
 11
36.2602401627
 21
41.3502035155
  0
LINE
  5
2AE
100
AcDbEntity
  8
0
100
AcDbLine
 62
7
  6
BYLAYER
 10
41.634332714
 20
41.4992137029
 11
39.5235361323
 21
41.4992086292
  0
LINE
  5
2AF
100
AcDbEntity
  8
0
100
AcDbLine
 62
7
  6
BYLAYER
 10
38.723894568
 20
41.4992067071
 11
36.6130979863
 21
41.4992016334
  0
LINE
  5
2B0
100
AcDbEntity
  8
0
100
AcDbLine
 62
7
  6
BYLAYER
 10
36.6130942631
 20
42.0155008836
 11
38.7238908448
 21
42.0155059573
  0
LINE
  5
2B1
100
AcDbEntity
  8
0
100
AcDbLine
 62
7
  6
BYLAYER
 10
39.5235324091
 20
42.0155078794
 11
41.6343289908
 21
42.0155129531
  0
LINE
  5
2B2
100
AcDbEntity
  8
0
100
AcDbLine
 62
7
  6
BYLAYER
 10
39.5235361323
 20
41.4992086292
 11
39.4680498717
 21
41.4272570467
  0
LINE
  5
2B3
100
AcDbEntity
  8
0
100
AcDbLine
 62
7
  6
BYLAYER
 10
24.5818141005
 20
19.6434808218
 11
24.6373003611
 21
19.7154324043
  0
LINE
  5
2B4
100
AcDbEntity
  8
0
100
AcDbLine
 62
7
  6
BYLAYER
 10
38.7938857951
 20
42.2887054466
 11
39.4535302577
 21
42.2887070322
  0
LINE
  5
2B5
100
AcDbEntity
  8
0
100
AcDbLine
 62
7
  6
BYLAYER
 10
38.7793721607
 20
42.7731374279
 11
39.4680401661
 21
42.7731390832
  0
LINE
  5
2B6
100
AcDbEntity
  8
0
100
AcDbLine
 62
7
  6
BYLAYER
 10
17.2373095336
 20
51.3693384163
 11
24.29513921
 21
46.7946471164
  0
LINE
  5
2B7
100
AcDbEntity
  8
0
100
AcDbLine
 62
7
  6
BYLAYER
 10
36.3089100045
 20
41.279739217
 11
36.2934634136
 21
41.1460520708
  0
LINE
  5
2B8
100
AcDbEntity
  8
0
100
AcDbLine
 62
7
  6
BYLAYER
 10
36.2602401627
 20
41.3502035155
 11
36.2342454188
 21
41.2075531231
  0
LINE
  5
2B9
100
AcDbEntity
  8
0
100
AcDbLine
 62
7
  6
BYLAYER
 10
36.3148697943
 20
41.8194882982
 11
36.308906341
 21
41.7877581121
  0
LINE
  5
2BA
100
AcDbEntity
  8
0
100
AcDbLine
 62
7
  6
BYLAYER
 10
25.381459388
 20
19.1271834937
 11
25.3259731274
 21
19.0552319112
  0
LINE
  5
2BB
100
AcDbEntity
  8
0
100
AcDbLine
 62
7
  6
BYLAYER
 10
11.7587007682
 20
13.9554047641
 11
11.900125157
 21
14.0370585075
  0
LINE
  5
2BC
100
AcDbEntity
  8
0
100
AcDbLine
 62
7
  6
BYLAYER
 10
39.2651545694
 20
39.4303843986
 11
34.5275194109
 21
42.1655974539
  0
LINE
  5
2BD
100
AcDbEntity
  8
0
100
AcDbLine
 62
7
  6
BYLAYER
 10
38.817666283
 20
40.8354898063
 11
38.7793818663
 21
41.4272553914
  0
LINE
  5
2BE
100
AcDbEntity
  8
0
100
AcDbLine
 62
7
  6
BYLAYER
 10
38.8589423519
 20
40.8380845936
 11
38.7793771054
 21
42.0874575398
  0
LINE
  5
2BF
100
AcDbEntity
  8
0
100
AcDbLine
 62
7
  6
BYLAYER
 10
38.7544459653
 20
41.4595901949
 11
38.7238908448
 21
42.0155059573
  0
LINE
  5
2C0
100
AcDbEntity
  8
0
100
AcDbLine
 62
7
  6
BYLAYER
 10
38.7938857951
 20
42.2887054466
 11
38.862777501
 21
40.8370536816
  0
LINE
  5
2C1
100
AcDbEntity
  8
0
100
AcDbLine
 62
7
  6
BYLAYER
 10
37.6237134886
 20
15.2532105438
 11
37.6237134886
 21
14.1595755943
  0
LINE
  5
2C2
100
AcDbEntity
  8
0
100
AcDbLine
 62
7
  6
BYLAYER
 10
38.7793721607
 20
42.7731374279
 11
38.7793771054
 21
42.0874575398
  0
LINE
  5
2C3
100
AcDbEntity
  8
0
100
AcDbLine
 62
7
  6
BYLAYER
 10
38.7793818663
 20
41.4272553914
 11
38.779386811
 21
40.7415755033
  0
LINE
  5
2C4
100
AcDbEntity
  8
0
100
AcDbLine
 62
7
  6
BYLAYER
 10
39.2651151202
 20
44.9008332849
 11
39.2651151202
 21
43.2555648931
  0
LINE
  5
2C5
100
AcDbEntity
  8
0
100
AcDbLine
 62
7
  6
BYLAYER
 10
39.2651545694
 20
39.4303843986
 11
39.2651545694
 21
37.3891283558
  0
LINE
  5
2C6
100
AcDbEntity
  8
0
100
AcDbLine
 62
7
  6
BYLAYER
 10
39.4535302577
 20
42.2887070322
 11
39.3846440527
 21
40.837055856
  0
LINE
  5
2C7
100
AcDbEntity
  8
0
100
AcDbLine
 62
7
  6
BYLAYER
 10
39.5235324091
 20
42.0155078794
 11
39.4929768303
 21
41.4595809787
  0
LINE
  5
2C8
100
AcDbEntity
  8
0
100
AcDbLine
 62
7
  6
BYLAYER
 10
39.3884800954
 20
40.8380872844
 11
39.4680451108
 21
42.0874591951
  0
LINE
  5
2C9
100
AcDbEntity
  8
0
100
AcDbLine
 62
7
  6
BYLAYER
 10
39.4297654293
 20
40.8354919276
 11
39.4680498717
 21
41.4272570467
  0
LINE
  5
2CA
100
AcDbEntity
  8
0
100
AcDbLine
 62
7
  6
BYLAYER
 10
41.9998492371
 20
41.2807134822
 11
44.0027502787
 21
40.1243641868
  0
LINE
  5
2CB
100
AcDbEntity
  8
0
100
AcDbLine
 62
7
  6
BYLAYER
 10
39.4680548164
 20
40.7415771586
 11
39.4680498717
 21
41.4272570467
  0
LINE
  5
2CC
100
AcDbEntity
  8
0
100
AcDbLine
 62
7
  6
BYLAYER
 10
39.4680451108
 20
42.0874591951
 11
39.4680401661
 21
42.7731390832
  0
LINE
  5
2CD
100
AcDbEntity
  8
0
100
AcDbLine
 62
7
  6
BYLAYER
 10
40.6237134886
 20
16.9852510125
 11
40.6237134886
 21
14.1595755943
  0
LINE
  5
2CE
100
AcDbEntity
  8
0
100
AcDbLine
 62
7
  6
BYLAYER
 10
39.2651151202
 20
44.9008332849
 11
32.0761536009
 21
49.0512882574
  0
LINE
  5
2CF
100
AcDbEntity
  8
0
100
AcDbLine
 62
7
  6
BYLAYER
 10
38.7793818663
 20
41.4272553914
 11
38.723894568
 21
41.4992067071
  0
LINE
  5
2D0
100
AcDbEntity
  8
0
100
AcDbLine
 62
7
  6
BYLAYER
 10
39.4680451108
 20
42.0874591951
 11
39.5235324091
 21
42.0155078794
  0
LINE
  5
2D1
100
AcDbEntity
  8
0
100
AcDbLine
 62
7
  6
BYLAYER
 10
42.0131822186
 20
41.2075531467
 11
42.1179675324
 21
40.2314999215
  0
LINE
  5
2D2
100
AcDbEntity
  8
0
100
AcDbLine
 62
7
  6
BYLAYER
 10
43.5785580485
 20
23.9984868426
 11
43.5785563233
 21
18.6912201352
  0
LINE
  5
2D3
100
AcDbEntity
  8
0
100
AcDbLine
 62
7
  6
BYLAYER
 10
43.7835701289
 20
18.9769493679
 11
43.7835701289
 21
24.1576743313
  0
LINE
  5
2D4
100
AcDbEntity
  8
0
100
AcDbLine
 62
7
  6
BYLAYER
 10
44.0027502787
 20
24.2842172944
 11
44.0027502787
 21
40.1243641868
  0
LINE
  5
2D5
100
AcDbEntity
  8
0
100
AcDbLine
 62
7
  6
BYLAYER
 10
24.9816570576
 20
14.9354543896
 11
29.719252767
 21
17.6706902205
  0
LINE
  5
2D6
100
AcDbEntity
  8
0
100
AcDbLine
 62
7
  6
BYLAYER
 10
44.0027502787
 20
24.2842172944
 11
24.9816570576
 21
13.3024495553
  0
LINE
  5
2D7
100
AcDbEntity
  8
0
100
AcDbLine
 62
7
  6
BYLAYER
 10
25.4765703987
 20
13.5473626472
 11
43.5785464731
 21
23.9984810177
  0
LINE
  5
2D8
100
AcDbEntity
  8
0
100
AcDbLine
 62
7
  6
BYLAYER
 10
41.9385169726
 20
41.787771644
 11
41.9325133109
 21
41.8194957102
  0
LINE
  5
2D9
100
AcDbEntity
  8
0
100
AcDbLine
 62
7
  6
BYLAYER
 10
42.013181559
 20
41.2075531231
 11
41.9871832656
 21
41.3502172814
  0
LINE
  5
2DA
100
AcDbEntity
  8
0
100
AcDbLine
 62
7
  6
BYLAYER
 10
33.7253780886
 20
10.7997141957
 11
34.2430121351
 21
11.4679845188
  0
LWPOLYLINE
  5
2DB
100
AcDbEntity
  8
0
100
AcDbPolyline
 62
7
  6
BYLAYER
 90
5
 70
0
 10
34.1467824692
 20
11.5617697781
 10
33.0695689093
 20
10.4564798668
 10
30.9619671025
 20
9.2769468474
 10
28.3602920651
 20
8.4922529939
 10
26.4816367443
 20
8.2802285498
  0
LINE
  5
2DC
100
AcDbEntity
  8
0
100
AcDbLine
 62
7
  6
BYLAYER
 10
25.4765615552
 20
8.2400909679
 11
43.5785563233
 21
18.6912201352
  0
LINE
  5
2DD
100
AcDbEntity
  8
0
100
AcDbLine
 62
7
  6
BYLAYER
 10
25.9008952712
 20
5.7905896737
 11
26.0423196599
 21
5.8722434171
  0
LINE
  5
2DE
100
AcDbEntity
  8
0
100
AcDbLine
 62
7
  6
BYLAYER
 10
40.0429720154
 20
13.4655713008
 11
40.1843964042
 21
13.5472250442
  0
ARC
  5
2DF
100
AcDbEntity
  8
0
100
AcDbCircle
 62
7
  6
BYLAYER
 10
24.9949028712
 20
23.8433435321
 40
16.3156688268
100
AcDbArc
 50
273.4934517821
 51
275.2416651776
  0
ARC
  5
2E0
100
AcDbEntity
  8
0
100
AcDbCircle
 62
7
  6
BYLAYER
 10
24.978467104
 20
20.2510359283
 40
14.7452401969
100
AcDbArc
 50
266.1235550426
 51
268.0690059696
  0
ARC
  5
2E1
100
AcDbEntity
  8
0
100
AcDbCircle
 62
7
  6
BYLAYER
 10
24.9859662801
 20
20.2258480731
 40
14.7200235967
100
AcDbArc
 50
271.9296042719
 51
273.8783878607
  0
ARC
  5
2E2
100
AcDbEntity
  8
0
100
AcDbCircle
 62
7
  6
BYLAYER
 10
24.9847288325
 20
19.7544884198
 40
14.3935132519
100
AcDbArc
 50
271.9783219483
 51
273.9714409072
  0
ARC
  5
2E3
100
AcDbEntity
  8
0
100
AcDbCircle
 62
7
  6
BYLAYER
 10
24.977133254
 20
19.7295944171
 40
14.3685894383
100
AcDbArc
 50
266.027106678
 51
268.0236842191
  0
ARC
  5
2E4
100
AcDbEntity
  8
0
100
AcDbCircle
 62
7
  6
BYLAYER
 10
20.7980678182
 20
35.5094358004
 40
12.0228787088
100
AcDbArc
 50
230.1081132847
 51
231.7702892545
  0
ARC
  5
2E5
100
AcDbEntity
  8
0
100
AcDbCircle
 62
7
  6
BYLAYER
 10
22.5973210239
 20
18.2650663267
 40
9.6739798547
100
AcDbArc
 50
240.00080792
 51
240.3135311012
  0
ARC
  5
2E6
100
AcDbEntity
  8
0
100
AcDbCircle
 62
7
  6
BYLAYER
 10
22.6129427718
 20
18.0404889046
 40
9.6105955467
100
AcDbArc
 50
240.0008079199
 51
240.3135311012
  0
ARC
  5
2E7
100
AcDbEntity
  8
0
100
AcDbCircle
 62
7
  6
BYLAYER
 10
22.8022723207
 20
17.1051090745
 40
9.1887285649
100
AcDbArc
 50
240.4623731094
 51
240.88397464
  0
ARC
  5
2E8
100
AcDbEntity
  8
0
100
AcDbCircle
 62
7
  6
BYLAYER
 10
22.7555197432
 20
17.0226161292
 40
9.093908264
100
AcDbArc
 50
240.0010983141
 51
240.4624211985
  0
ARC
  5
2E9
100
AcDbEntity
  8
0
100
AcDbCircle
 62
7
  6
BYLAYER
 10
15.1350724481
 20
30.0004570904
 40
6.3468406633
100
AcDbArc
 50
12.7810104105
 51
13.6642084565
  0
ARC
  5
2EA
100
AcDbEntity
  8
0
100
AcDbCircle
 62
7
  6
BYLAYER
 10
18.4658009141
 20
30.2081258946
 40
5.6406064698
100
AcDbArc
 50
355.879257472
 51
358.0495257238
  0
ARC
  5
2EB
100
AcDbEntity
  8
0
100
AcDbCircle
 62
7
  6
BYLAYER
 10
23.5219134995
 20
12.8042815247
 40
5.5279355969
100
AcDbArc
 50
238.7235921043
 51
240.002443139
  0
ARC
  5
2EC
100
AcDbEntity
  8
0
100
AcDbCircle
 62
7
  6
BYLAYER
 10
10.8394632226
 20
30.6103061487
 40
4.9285976495
100
AcDbArc
 50
268.3380144693
 51
269.6100342493
  0
ARC
  5
2ED
100
AcDbEntity
  8
0
100
AcDbCircle
 62
7
  6
BYLAYER
 10
31.7526676616
 20
14.0583479045
 40
3.4412296966
100
AcDbArc
 50
350.6139566388
 51
356.4173349822
  0
ARC
  5
2EE
100
AcDbEntity
  8
0
100
AcDbCircle
 62
7
  6
BYLAYER
 10
14.9578167495
 20
32.6239091336
 40
3.223329683
100
AcDbArc
 50
70.5130203458
 51
74.8881544538
  0
ARC
  5
2EF
100
AcDbEntity
  8
0
100
AcDbCircle
 62
7
  6
BYLAYER
 10
12.1561783273
 20
27.8353740672
 40
3.1380958954
100
AcDbArc
 50
0.0134324681
 51
3.1625982195
  0
ARC
  5
2F0
100
AcDbEntity
  8
0
100
AcDbCircle
 62
7
  6
BYLAYER
 10
39.78842081
 20
40.8241206716
 40
2.2790498754
100
AcDbArc
 50
57.0576382441
 51
60.0299037317
  0
ARC
  5
2F1
100
AcDbEntity
  8
0
100
AcDbCircle
 62
7
  6
BYLAYER
 10
16.6553890387
 20
34.786068139
 40
1.5494236122
100
AcDbArc
 50
112.7958734592
 51
119.9907088628
  0
ARC
  5
2F2
100
AcDbEntity
  8
0
100
AcDbCircle
 62
7
  6
BYLAYER
 10
23.1961201643
 20
31.4586452798
 40
1.5485786079
100
AcDbArc
 50
300.0113975145
 51
305.5289279655
  0
ARC
  5
2F3
100
AcDbEntity
  8
0
100
AcDbCircle
 62
7
  6
BYLAYER
 10
16.6525578606
 20
34.7917453545
 40
1.5430913959
100
AcDbArc
 50
120.0050304272
 51
122.5345561215
  0
ARC
  5
2F4
100
AcDbEntity
  8
0
100
AcDbCircle
 62
7
  6
BYLAYER
 10
16.5454936304
 20
34.4860527689
 40
1.4542814819
100
AcDbArc
 50
110.719405972
 51
120.7705695092
  0
ARC
  5
2F5
100
AcDbEntity
  8
0
100
AcDbCircle
 62
7
  6
BYLAYER
 10
37.2018182038
 20
41.103632592
 40
0.9731373073
100
AcDbArc
 50
173.8697419357
 51
175.4147617034
  0
ARC
  5
2F6
100
AcDbEntity
  8
0
100
AcDbCircle
 62
7
  6
BYLAYER
 10
13.8677028046
 20
27.6953018291
 40
0.8536143266
100
AcDbArc
 50
287.5576922926
 51
299.9617215458
  0
ARC
  5
2F7
100
AcDbEntity
  8
0
100
AcDbCircle
 62
7
  6
BYLAYER
 10
12.1940093632
 20
30.5936811546
 40
0.8494635567
100
AcDbArc
 50
120.0192814243
 51
130.4959792596
  0
SPLINE
  5
2F8
100
AcDbEntity
  8
0
100
AcDbSpline
 62
7
  6
BYLAYER
 70
0
 71
3
 72
15
 73
11
 74
0
 42
0.0000001
 43
0.0000001
 44
0.0000000001
 40
0.0
 40
0.0
 40
0.0
 40
0.0
 40
0.1485793283
 40
0.2895082688
 40
0.4227234613
 40
0.5486404269
 40
0.6680007321
 40
0.7819381073
 40
0.8919868037
 40
1.0
 40
1.0
 40
1.0
 40
1.0
 10
14.816975072
 20
28.1116722742
 30
0.0
 10
14.816975072
 20
28.0459155672
 30
0.0
 10
14.8116702491
 20
27.9176998294
 30
0.0
 10
14.7864364124
 20
27.7320277419
 30
0.0
 10
14.7442748981
 20
27.5596899198
 30
0.0
 10
14.6855195876
 20
27.4023637093
 30
0.0
 10
14.6106313686
 20
27.2615560514
 30
0.0
 10
14.5201824018
 20
27.1387085224
 30
0.0
 10
14.4150074713
 20
27.0352107123
 30
0.0
 10
14.3354160886
 20
26.9796648171
 30
0.0
 10
14.2940159897
 20
26.9557651587
 30
0.0
  0
SPLINE
  5
2F9
100
AcDbEntity
  8
0
100
AcDbSpline
 62
7
  6
BYLAYER
 70
0
 71
3
 72
11
 73
7
 74
0
 42
0.0000001
 43
0.0000001
 44
0.0000000001
 40
0.0
 40
0.0
 40
0.0
 40
0.0
 40
0.2597338276
 40
0.5139813338
 40
0.7612140051
 40
1.0
 40
1.0
 40
1.0
 40
1.0
 10
10.9086203477
 20
32.3782323685
 30
0.0
 10
10.8768829576
 20
32.2329578907
 30
0.0
 10
10.818618305
 20
31.9444496868
 30
0.0
 10
10.7498225571
 20
31.5139558641
 30
0.0
 10
10.7043418628
 20
31.0923823649
 30
0.0
 10
10.6915504244
 20
30.8141812443
 30
0.0
 10
10.6901440619
 20
30.677480545
 30
0.0
  0
SPLINE
  5
2FA
100
AcDbEntity
  8
0
100
AcDbSpline
 62
7
  6
BYLAYER
 70
0
 71
3
 72
15
 73
11
 74
0
 42
0.0000001
 43
0.0000001
 44
0.0000000001
 40
0.0
 40
0.0
 40
0.0
 40
0.0
 40
0.0857048543
 40
0.1811611634
 40
0.2882015695
 40
0.4079768622
 40
0.5405225798
 40
0.684670495
 40
0.8385191273
 40
1.0
 40
1.0
 40
1.0
 40
1.0
 10
13.3581202886
 20
26.0650304086
 30
0.0
 10
13.4279080011
 20
26.0542361204
 30
0.0
 10
13.5762509163
 20
26.0365055763
 30
0.0
 10
13.8135517437
 20
26.0240344717
 30
0.0
 10
14.0792390611
 20
26.0268722332
 30
0.0
 10
14.3748097563
 20
26.0466444993
 30
0.0
 10
14.6994691961
 20
26.0837352541
 30
0.0
 10
15.05025063
 20
26.1370683767
 30
0.0
 10
15.4228114018
 20
26.2045834386
 30
0.0
 10
15.6774413618
 20
26.2563364959
 30
0.0
 10
15.8076202296
 20
26.2838477858
 30
0.0
  0
SPLINE
  5
2FB
100
AcDbEntity
  8
0
100
AcDbSpline
 62
7
  6
BYLAYER
 70
0
 71
3
 72
11
 73
7
 74
0
 42
0.0000001
 43
0.0000001
 44
0.0000000001
 40
0.0
 40
0.0
 40
0.0
 40
0.0
 40
0.2359207422
 40
0.4801628983
 40
0.7344595959
 40
1.0
 40
1.0
 40
1.0
 40
1.0
 10
17.0636060449
 20
30.2749968743
 30
0.0
 10
17.0972936955
 20
30.1596942057
 30
0.0
 10
17.159012195
 20
29.9229404498
 30
0.0
 10
17.2288552931
 20
29.5552402477
 30
0.0
 10
17.272829828
 20
29.1683186868
 30
0.0
 10
17.2823847335
 20
28.9035076996
 30
0.0
 10
17.2823847335
 20
28.7683032208
 30
0.0
  0
SPLINE
  5
2FC
100
AcDbEntity
  8
0
100
AcDbSpline
 62
7
  6
BYLAYER
 70
0
 71
3
 72
18
 73
14
 74
0
 42
0.0000001
 43
0.0000001
 44
0.0000000001
 40
0.0
 40
0.0
 40
0.0
 40
0.0
 40
0.1282653311
 40
0.2561592092
 40
0.3833918803
 40
0.4466596028
 40
0.509627751
 40
0.5722579285
 40
0.6345183668
 40
0.6963898984
 40
0.7578637462
 40
0.8796394565
 40
1.0
 40
1.0
 40
1.0
 40
1.0
 10
14.6141061039
 20
33.3221891657
 30
0.0
 10
14.7467213586
 20
33.2175994216
 30
0.0
 10
15.0076080198
 20
33.0036078949
 30
0.0
 10
15.3823697897
 20
32.6650280951
 30
0.0
 10
15.6769184457
 20
32.3662542656
 30
0.0
 10
15.8992685522
 20
32.1172707901
 30
0.0
 10
16.0584734457
 20
31.9261484022
 30
0.0
 10
16.2101027491
 20
31.7306394438
 30
0.0
 10
16.3539446399
 20
31.5311106451
 30
0.0
 10
16.4900238241
 20
31.3280413786
 30
0.0
 10
16.660750314
 20
31.054063231
 30
0.0
 10
16.8562120855
 20
30.705037138
 30
0.0
 10
16.9968863508
 20
30.4187558532
 30
0.0
 10
17.0636060449
 20
30.2749968743
 30
0.0
  0
SPLINE
  5
2FD
100
AcDbEntity
  8
0
100
AcDbSpline
 62
7
  6
BYLAYER
 70
0
 71
3
 72
15
 73
11
 74
0
 42
0.0000001
 43
0.0000001
 44
0.0000000001
 40
0.0
 40
0.0
 40
0.0
 40
0.0
 40
0.1614816654
 40
0.3153320724
 40
0.4594790837
 40
0.5920242245
 40
0.7118002195
 40
0.8188376907
 40
0.9142949781
 40
1.0
 40
1.0
 40
1.0
 40
1.0
 10
12.1646061629
 20
33.1033717885
 30
0.0
 10
12.2947856627
 20
33.1308832119
 30
0.0
 10
12.5494177067
 20
33.1826364576
 30
0.0
 10
12.9219793094
 20
33.2501546763
 30
0.0
 10
13.2727615787
 20
33.3034840016
 30
0.0
 10
13.5974202091
 20
33.3405750795
 30
0.0
 10
13.8929886014
 20
33.3603490775
 30
0.0
 10
14.1586748584
 20
33.3631809144
 30
0.0
 10
14.3959743294
 20
33.3507140262
 30
0.0
 10
14.5443182588
 20
33.3329834744
 30
0.0
 10
14.6141061039
 20
33.3221891657
 30
0.0
  0
SPLINE
  5
2FE
100
AcDbEntity
  8
0
100
AcDbSpline
 62
7
  6
BYLAYER
 70
0
 71
3
 72
31
 73
27
 74
0
 42
0.0000001
 43
0.0000001
 44
0.0000000001
 40
0.0
 40
0.0
 40
0.0
 40
0.0
 40
0.021327428
 40
0.042883111
 40
0.064883653
 40
0.087523264
 40
0.1109675811
 40
0.1353488513
 40
0.1607663073
 40
0.1872857105
 40
0.2149434948
 40
0.2437475771
 40
0.2736827051
 40
0.3047109142
 40
0.336776908
 40
0.3698078448
 40
0.4383892547
 40
0.5096592378
 40
0.5826666388
 40
0.6563812173
 40
0.7297415102
 40
0.8017015735
 40
0.8712785697
 40
0.9376029948
 40
0.9693392856
 40
1.0
 40
1.0
 40
1.0
 40
1.0
 10
11.7690300424
 20
31.3291952001
 30
0.0
 10
11.8000525699
 20
31.3471040416
 30
0.0
 10
11.8648102072
 20
31.3791557296
 30
0.0
 10
11.9680618543
 20
31.4148461933
 30
0.0
 10
12.0770597478
 20
31.438095153
 30
0.0
 10
12.1911535637
 20
31.4487965463
 30
0.0
 10
12.3097082545
 20
31.4469272884
 30
0.0
 10
12.4320753064
 20
31.4325404522
 30
0.0
 10
12.55759701
 20
31.4057365175
 30
0.0
 10
12.6856090122
 20
31.3666917731
 30
0.0
 10
12.8154295334
 20
31.3156224294
 30
0.0
 10
12.9463754775
 20
31.252823358
 30
0.0
 10
13.0777453526
 20
31.1786277951
 30
0.0
 10
13.2088453129
 20
31.0934491147
 30
0.0
 10
13.3389706291
 20
30.9977356825
 30
0.0
 10
13.5123973053
 20
30.8549977921
 30
0.0
 10
13.7219098312
 20
30.6532101839
 30
0.0
 10
13.9554293923
 20
30.3818874971
 30
0.0
 10
14.1692427353
 20
30.0841089827
 30
0.0
 10
14.3587751539
 20
29.7662442331
 30
0.0
 10
14.5199885516
 20
29.4350704078
 30
0.0
 10
14.6494464391
 20
29.0976383318
 30
0.0
 10
14.7443797563
 20
28.7611598484
 30
0.0
 10
14.7937797745
 20
28.4833801601
 30
0.0
 10
14.8135706387
 20
28.2679938559
 30
0.0
 10
14.816975072
 20
28.1631688163
 30
0.0
 10
14.816975072
 20
28.1116722742
 30
0.0
  0
SPLINE
  5
2FF
100
AcDbEntity
  8
0
100
AcDbSpline
 62
7
  6
BYLAYER
 70
0
 71
3
 72
11
 73
7
 74
0
 42
0.0000001
 43
0.0000001
 44
0.0000000001
 40
0.0
 40
0.0
 40
0.0
 40
0.0
 40
0.2381707171
 40
0.4852579189
 40
0.7397501331
 40
1.0
 40
1.0
 40
1.0
 40
1.0
 10
17.2823847335
 20
28.7683032208
 30
0.0
 10
17.2823847335
 20
28.6273002023
 30
0.0
 10
17.2715895382
 20
28.3399393718
 30
0.0
 10
17.2267926695
 20
27.9040455638
 30
0.0
 10
17.1566624772
 20
27.4583342691
 30
0.0
 10
17.0964903288
 20
27.1595114662
 30
0.0
 10
17.0636060449
 20
27.0089872058
 30
0.0
  0
SPLINE
  5
300
100
AcDbEntity
  8
0
100
AcDbSpline
 62
7
  6
BYLAYER
 70
0
 71
3
 72
24
 73
20
 74
0
 42
0.0000001
 43
0.0000001
 44
0.0000000001
 40
0.0
 40
0.0
 40
0.0
 40
0.0
 40
0.0709276952
 40
0.1382602516
 40
0.2021669325
 40
0.2629699187
 40
0.3211526601
 40
0.3773566476
 40
0.4323620804
 40
0.4870402061
 40
0.5422885682
 40
0.5989585205
 40
0.6577967136
 40
0.7194049122
 40
0.7514029035
 40
0.7842420191
 40
0.8525388305
 40
0.9244742058
 40
1.0
 40
1.0
 40
1.0
 40
1.0
 10
13.2926767806
 20
26.3963614141
 30
0.0
 10
13.3590860235
 20
26.3669289385
 30
0.0
 10
13.4911228207
 20
26.3151221544
 30
0.0
 10
13.6906921038
 20
26.2586646133
 30
0.0
 10
13.8850821028
 20
26.2260103873
 30
0.0
 10
14.0727005709
 20
26.2175219626
 30
0.0
 10
14.2519982698
 20
26.2333895718
 30
0.0
 10
14.4214108734
 20
26.2736388311
 30
0.0
 10
14.5793845439
 20
26.3380084836
 30
0.0
 10
14.7244162661
 20
26.4259686141
 30
0.0
 10
14.8551286843
 20
26.5366857648
 30
0.0
 10
14.9703836279
 20
26.6690490672
 30
0.0
 10
15.0692393445
 20
26.8217938914
 30
0.0
 10
15.136504393
 20
26.9631557568
 30
0.0
 10
15.1817631856
 20
27.0845439391
 30
0.0
 10
15.2221905196
 20
27.214826612
 30
0.0
 10
15.2609759139
 20
27.3881226767
 30
0.0
 10
15.2884678952
 20
27.6076517534
 30
0.0
 10
15.2942741365
 20
27.7587614776
 30
0.0
 10
15.2942741365
 20
27.8361097649
 30
0.0
  0
SPLINE
  5
301
100
AcDbEntity
  8
0
100
AcDbSpline
 62
7
  6
BYLAYER
 70
0
 71
3
 72
15
 73
11
 74
0
 42
0.0000001
 43
0.0000001
 44
0.0000000001
 40
0.0
 40
0.0
 40
0.0
 40
0.0
 40
0.1614816444
 40
0.3153321098
 40
0.4594790754
 40
0.5920242382
 40
0.7118002262
 40
0.8188376819
 40
0.9142949889
 40
1.0
 40
1.0
 40
1.0
 40
1.0
 10
13.3581202886
 20
32.5970497456
 30
0.0
 10
13.2279408057
 20
32.5695383258
 30
0.0
 10
12.9733087191
 20
32.5177851396
 30
0.0
 10
12.6007471479
 20
32.4502667804
 30
0.0
 10
12.2499648316
 20
32.39693757
 30
0.0
 10
11.9253062348
 20
32.3598464354
 30
0.0
 10
11.62973784
 20
32.3400724389
 30
0.0
 10
11.3640515871
 20
32.3372406594
 30
0.0
 10
11.1267521168
 20
32.3497074693
 30
0.0
 10
10.978408184
 20
32.3674380611
 30
0.0
 10
10.9086203477
 20
32.3782323685
 30
0.0
  0
SPLINE
  5
302
100
AcDbEntity
  8
0
100
AcDbSpline
 62
7
  6
BYLAYER
 70
0
 71
3
 72
18
 73
14
 74
0
 42
0.0000001
 43
0.0000001
 44
0.0000000001
 40
0.0
 40
0.0
 40
0.0
 40
0.0
 40
0.1282653312
 40
0.256159217
 40
0.3833918826
 40
0.4466596065
 40
0.5096277573
 40
0.5722579351
 40
0.6345183692
 40
0.6963898989
 40
0.7578637486
 40
0.8796394577
 40
1.0
 40
1.0
 40
1.0
 40
1.0
 10
15.8076202296
 20
29.5498574543
 30
0.0
 10
15.6750049747
 20
29.6544471984
 30
0.0
 10
15.4141184259
 20
29.8684388711
 30
0.0
 10
15.0393563896
 20
30.2070183837
 30
0.0
 10
14.7448079143
 20
30.5057924059
 30
0.0
 10
14.5224578037
 20
30.754775871
 30
0.0
 10
14.3632528532
 20
30.9458982188
 30
0.0
 10
14.2116235162
 20
31.1414071503
 30
0.0
 10
14.0677816752
 20
31.3409359767
 30
0.0
 10
13.9317025409
 20
31.5440052695
 30
0.0
 10
13.7609760482
 20
31.8179834122
 30
0.0
 10
13.5655141865
 20
32.1670094557
 30
0.0
 10
13.4248399821
 20
32.4532907681
 30
0.0
 10
13.3581202886
 20
32.5970497456
 30
0.0
  0
SPLINE
  5
303
100
AcDbEntity
  8
0
100
AcDbSpline
 62
7
  6
BYLAYER
 70
0
 71
3
 72
11
 73
7
 74
0
 42
0.0000001
 43
0.0000001
 44
0.0000000001
 40
0.0
 40
0.0
 40
0.0
 40
0.0
 40
0.2381706402
 40
0.4852579741
 40
0.7397503899
 40
1.0
 40
1.0
 40
1.0
 40
1.0
 10
15.588841541
 20
27.7905414392
 30
0.0
 10
15.588841541
 20
27.9315444106
 30
0.0
 10
15.5996362531
 20
28.2189052927
 30
0.0
 10
15.6444338962
 20
28.6547991957
 30
0.0
 10
15.7145646585
 20
29.1005104115
 30
0.0
 10
15.7747359785
 20
29.3993333441
 30
0.0
 10
15.8076202296
 20
29.5498574543
 30
0.0
  0
SPLINE
  5
304
100
AcDbEntity
  8
0
100
AcDbSpline
 62
7
  6
BYLAYER
 70
0
 71
3
 72
11
 73
7
 74
0
 42
0.0000001
 43
0.0000001
 44
0.0000000001
 40
0.0
 40
0.0
 40
0.0
 40
0.0
 40
0.2359206095
 40
0.4801627894
 40
0.7344596904
 40
1.0
 40
1.0
 40
1.0
 40
1.0
 10
15.8076202296
 20
26.2838477858
 30
0.0
 10
15.7739325969
 20
26.3991503931
 30
0.0
 10
15.7122130578
 20
26.6359038307
 30
0.0
 10
15.6423707349
 20
27.0036042916
 30
0.0
 10
15.5983969411
 20
27.3905259757
 30
0.0
 10
15.588841541
 20
27.6553370044
 30
0.0
 10
15.588841541
 20
27.7905414392
 30
0.0
  0
SPLINE
  5
305
100
AcDbEntity
  8
0
100
AcDbSpline
 62
7
  6
BYLAYER
 70
0
 71
3
 72
21
 73
17
 74
0
 42
0.0000001
 43
0.0000001
 44
0.0000000001
 40
0.0
 40
0.0
 40
0.0
 40
0.0
 40
0.0568534305
 40
0.1158479736
 40
0.1767662873
 40
0.239349949
 40
0.3032987228
 40
0.3682919057
 40
0.5000036655
 40
0.6317155017
 40
0.6967093997
 40
0.7606586956
 40
0.823242219
 40
0.8841639748
 40
0.9431589452
 40
1.0
 40
1.0
 40
1.0
 40
1.0
 10
15.289494874
 20
28.0085019604
 30
0.0
 10
15.2849937015
 20
28.0909642019
 30
0.0
 10
15.2695645847
 20
28.2587016808
 30
0.0
 10
15.2288168895
 20
28.5123897288
 30
0.0
 10
15.1703615082
 20
28.7711300082
 30
0.0
 10
15.0946812648
 20
29.0328471177
 30
0.0
 10
15.0023625684
 20
29.2954492557
 30
0.0
 10
14.8574768075
 20
29.6454237222
 30
0.0
 10
14.6401209981
 20
30.0711220377
 30
0.0
 10
14.3801446138
 20
30.472215433
 30
0.0
 10
14.1495076846
 20
30.772685188
 30
0.0
 10
13.9682523735
 20
30.9839432958
 30
0.0
 10
13.7794429673
 20
31.180354621
 30
0.0
 10
13.5845938219
 20
31.3603554662
 30
0.0
 10
13.3852824565
 20
31.5224865208
 30
0.0
 10
13.2477539982
 20
31.619718165
 30
0.0
 10
13.1786072426
 20
31.6648406549
 30
0.0
  0
SPLINE
  5
306
100
AcDbEntity
  8
0
100
AcDbSpline
 62
7
  6
BYLAYER
 70
0
 71
3
 72
23
 73
19
 74
0
 42
0.0000001
 43
0.0000001
 44
0.0000000001
 40
0.0
 40
0.0
 40
0.0
 40
0.0
 40
0.0772179612
 40
0.1507766437
 40
0.2205978549
 40
0.2867362888
 40
0.3493966706
 40
0.4089542252
 40
0.4659653654
 40
0.5211581006
 40
0.5754011734
 40
0.6296434772
 40
0.6848338217
 40
0.7418407207
 40
0.8013938152
 40
0.8640491439
 40
0.9301768361
 40
1.0
 40
1.0
 40
1.0
 40
1.0
 10
13.1786072426
 20
31.6648406549
 30
0.0
 10
13.1091086253
 20
31.7101927561
 30
0.0
 10
12.9700125794
 20
31.7937128756
 30
0.0
 10
12.756969686
 20
31.8984022897
 30
0.0
 10
12.5461951443
 20
31.9786515401
 30
0.0
 10
12.3395201119
 20
32.0337090232
 30
0.0
 10
12.1387146872
 20
32.0629995296
 30
0.0
 10
11.9455338479
 20
32.0661328134
 30
0.0
 10
11.7617245614
 20
32.042934811
 30
0.0
 10
11.5890470892
 20
31.9934424568
 30
0.0
 10
11.4292582173
 20
31.9180150303
 30
0.0
 10
11.2840137189
 20
31.8173923008
 30
0.0
 10
11.1547830639
 20
31.692638215
 30
0.0
 10
11.0427544351
 20
31.5450939532
 30
0.0
 10
10.9488445214
 20
31.3762636398
 30
0.0
 10
10.873775332
 20
31.1877486214
 30
0.0
 10
10.8180768374
 20
30.9812757857
 30
0.0
 10
10.7947599133
 20
30.8367626061
 30
0.0
 10
10.7861750737
 20
30.7622154064
 30
0.0
  0
SPLINE
  5
307
100
AcDbEntity
  8
0
100
AcDbSpline
 62
7
  6
BYLAYER
 70
0
 71
3
 72
13
 73
9
 74
0
 42
0.0000001
 43
0.0000001
 44
0.0000000001
 40
0.0
 40
0.0
 40
0.0
 40
0.0
 40
0.2722664244
 40
0.5325017335
 40
0.6560563684
 40
0.7745997137
 40
0.8888358986
 40
1.0
 40
1.0
 40
1.0
 40
1.0
 10
8.3288267391
 20
27.2919915883
 30
0.0
 10
8.2918217308
 20
27.2919914993
 30
0.0
 10
8.2190266492
 20
27.2816232262
 30
0.0
 10
8.1369356042
 20
27.2426832863
 30
0.0
 10
8.0848107794
 20
27.1980429304
 30
0.0
 10
8.0544914083
 20
27.1598462769
 30
0.0
 10
8.0335525203
 20
27.1176554433
 30
0.0
 10
8.026373857
 20
27.0875380468
 30
0.0
 10
8.0246387573
 20
27.0725291719
 30
0.0
  0
LINE
  5
308
100
AcDbEntity
  8
0
100
AcDbLine
 62
7
  6
BYLAYER
 10
8.0246387573
 20
27.0725291719
 11
7.9759724642
 21
26.6508833926
  0
LINE
  5
309
100
AcDbEntity
  8
0
100
AcDbLine
 62
7
  6
BYLAYER
 10
7.9759689155
 20
27.1429934704
 11
8.0246350938
 21
27.580548067
  0
SPLINE
  5
30A
100
AcDbEntity
  8
0
100
AcDbSpline
 62
7
  6
BYLAYER
 70
0
 71
3
 72
16
 73
12
 74
0
 42
0.0000001
 43
0.0000001
 44
0.0000000001
 40
0.0
 40
0.0
 40
0.0
 40
0.0
 40
0.1141419491
 40
0.2373006744
 40
0.3669382461
 40
0.4999508312
 40
0.6329624907
 40
0.7626036032
 40
0.8857680626
 40
0.9441628335
 40
1.0
 40
1.0
 40
1.0
 40
1.0
 10
11.7586989997
 20
13.9554057848
 30
0.0
 10
11.6957714435
 20
13.9190735843
 30
0.0
 10
11.5581684643
 20
13.8549942843
 30
0.0
 10
11.3340881779
 20
13.7868835915
 30
0.0
 10
11.0914824839
 20
13.7449575225
 30
0.0
 10
10.8394707914
 20
13.7308091675
 30
0.0
 10
10.5874399861
 20
13.7449537839
 30
0.0
 10
10.3448755396
 20
13.7868637927
 30
0.0
 10
10.1546948329
 20
13.8446551921
 30
0.0
 10
10.0155779748
 20
13.9039895394
 30
0.0
 10
9.950991198
 20
13.9376184572
 30
0.0
 10
9.920207253
 20
13.9553911741
 30
0.0
  0
SPLINE
  5
30B
100
AcDbEntity
  8
0
100
AcDbSpline
 62
7
  6
BYLAYER
 70
0
 71
3
 72
15
 73
11
 74
0
 42
0.0000001
 43
0.0000001
 44
0.0000000001
 40
0.0
 40
0.0
 40
0.0
 40
0.0
 40
0.1080131281
 40
0.2180612219
 40
0.3320010908
 40
0.4513569006
 40
0.5772797606
 40
0.7104997397
 40
0.8513973507
 40
1.0
 40
1.0
 40
1.0
 40
1.0
 10
12.3394422413
 20
14.6494090575
 30
0.0
 10
12.3394419543
 20
14.621012869
 30
0.0
 10
12.3344989255
 20
14.5635719172
 30
0.0
 10
12.3125057786
 20
14.4787221526
 30
0.0
 10
12.2761599903
 20
14.3957112703
 30
0.0
 10
12.2259810247
 20
14.3153541054
 30
0.0
 10
12.1624819793
 20
14.2384106421
 30
0.0
 10
12.086361397
 20
14.1655293118
 30
0.0
 10
11.9983368332
 20
14.0974055267
 30
0.0
 10
11.9339579283
 20
14.0565924278
 30
0.0
 10
11.900125157
 20
14.0370585075
 30
0.0
  0
SPLINE
  5
30C
100
AcDbEntity
  8
0
100
AcDbSpline
 62
7
  6
BYLAYER
 70
0
 71
3
 72
23
 73
19
 74
0
 42
0.0000001
 43
0.0000001
 44
0.0000000001
 40
0.0
 40
0.0
 40
0.0
 40
0.0
 40
0.0513033213
 40
0.1057937749
 40
0.1633483921
 40
0.2237249123
 40
0.2865829197
 40
0.3515040934
 40
0.4180129701
 40
0.4855909323
 40
0.5536920027
 40
0.6217569426
 40
0.6892257407
 40
0.7555582926
 40
0.8202389251
 40
0.8827944156
 40
0.9428393832
 40
1.0
 40
1.0
 40
1.0
 40
1.0
 10
13.3530335215
 20
24.9716712537
 30
0.0
 10
13.2904316256
 20
24.9162003072
 30
0.0
 10
13.1541649686
 20
24.8097408711
 30
0.0
 10
12.9277682159
 20
24.668721953
 30
0.0
 10
12.675880603
 20
24.5430646193
 30
0.0
 10
12.4015856873
 20
24.4342998832
 30
0.0
 10
12.1082006325
 20
24.3437246941
 30
0.0
 10
11.7993051731
 20
24.2724194639
 30
0.0
 10
11.4786652453
 20
24.2212554718
 30
0.0
 10
11.1501986326
 20
24.1908676736
 30
0.0
 10
10.817926792
 20
24.1816130899
 30
0.0
 10
10.4859199855
 20
24.1936072266
 30
0.0
 10
10.1582422478
 20
24.2267140695
 30
0.0
 10
9.8389029035
 20
24.2805218359
 30
0.0
 10
9.531808845
 20
24.3543635585
 30
0.0
 10
9.2406692761
 20
24.4473648212
 30
0.0
 10
8.9691114746
 20
24.5583983936
 30
0.0
 10
8.7988375311
 20
24.6458149129
 30
0.0
 10
8.7181307297
 20
24.6924099523
 30
0.0
  0
SPLINE
  5
30D
100
AcDbEntity
  8
0
100
AcDbSpline
 62
7
  6
BYLAYER
 70
0
 71
3
 72
13
 73
9
 74
0
 42
0.0000001
 43
0.0000001
 44
0.0000000001
 40
0.0
 40
0.0
 40
0.0
 40
0.0
 40
0.2715166029
 40
0.5264119879
 40
0.6486237824
 40
0.7678599111
 40
0.8847206242
 40
1.0
 40
1.0
 40
1.0
 40
1.0
 10
8.9291564994
 20
28.6303401426
 30
0.0
 10
8.8188307242
 20
28.5692633319
 30
0.0
 10
8.6125405865
 20
28.4361570549
 30
0.0
 10
8.3883693457
 20
28.2322145
 30
0.0
 10
8.2428027284
 20
28.0529764241
 30
0.0
 10
8.152198218
 20
27.912958949
 30
0.0
 10
8.0799859042
 20
27.7661917891
 30
0.0
 10
8.0447372473
 20
27.6639246283
 30
0.0
 10
8.0306883022
 20
27.6122601097
 30
0.0
  0
SPLINE
  5
30E
100
AcDbEntity
  8
0
100
AcDbSpline
 62
7
  6
BYLAYER
 70
0
 71
3
 72
18
 73
14
 74
0
 42
0.0000001
 43
0.0000001
 44
0.0000000001
 40
0.0
 40
0.0
 40
0.0
 40
0.0
 40
0.1497395598
 40
0.2911502499
 40
0.4241908483
 40
0.4877701297
 40
0.549508346
 40
0.6679568274
 40
0.7811076704
 40
0.8363555473
 40
0.8910546298
 40
0.9455017591
 40
1.0
 40
1.0
 40
1.0
 40
1.0
 10
8.7181307297
 20
24.6924099523
 30
0.0
 10
8.6452959498
 20
24.7344601808
 30
0.0
 10
8.5072035687
 20
24.822604611
 30
0.0
 10
8.320116156
 20
24.9708093785
 30
0.0
 10
8.1854494589
 20
25.1053942537
 30
0.0
 10
8.0934057241
 20
25.2177091681
 30
0.0
 10
8.0140972997
 20
25.3294222546
 30
0.0
 10
7.9334789989
 20
25.4738845618
 30
0.0
 10
7.8786360566
 20
25.6262748239
 30
0.0
 10
7.8522167031
 20
25.7489106485
 30
0.0
 10
7.8409676412
 20
25.8406893716
 30
0.0
 10
7.8381587845
 20
25.9326800208
 30
0.0
 10
7.8419221431
 20
25.9938556477
 30
0.0
 10
7.8451910501
 20
26.024289773
 30
0.0
  0
SPLINE
  5
30F
100
AcDbEntity
  8
0
100
AcDbSpline
 62
7
  6
BYLAYER
 70
0
 71
3
 72
15
 73
11
 74
0
 42
0.0000001
 43
0.0000001
 44
0.0000000001
 40
0.0
 40
0.0
 40
0.0
 40
0.0
 40
0.1485263577
 40
0.2895010829
 40
0.4227415638
 40
0.5486452136
 40
0.6679959928
 40
0.7819398889
 40
0.8919882913
 40
1.0
 40
1.0
 40
1.0
 40
1.0
 10
9.7787864855
 20
14.0370428267
 30
0.0
 10
9.7449693113
 20
14.0565667396
 30
0.0
 10
9.6805911531
 20
14.0973865864
 30
0.0
 10
9.5925497339
 20
14.1655043061
 30
0.0
 10
9.5164047529
 20
14.2383970151
 30
0.0
 10
9.4529094332
 20
14.3153476301
 30
0.0
 10
9.4027324321
 20
14.3957036081
 30
0.0
 10
9.3663803429
 20
14.4787154025
 30
0.0
 10
9.3443841753
 20
14.5635690211
 30
0.0
 10
9.3394419544
 20
14.6210121183
 30
0.0
 10
9.3394422414
 20
14.6494090575
 30
0.0
  0
SPLINE
  5
310
100
AcDbEntity
  8
0
100
AcDbSpline
 62
7
  6
BYLAYER
 70
0
 71
3
 72
14
 73
10
 74
0
 42
0.0000001
 43
0.0000001
 44
0.0000000001
 40
0.0
 40
0.0
 40
0.0
 40
0.0
 40
0.1081800209
 40
0.2199447201
 40
0.336095302
 40
0.4573168402
 40
0.7165914721
 40
0.8553567523
 40
1.0
 40
1.0
 40
1.0
 40
1.0
 10
8.0246387573
 20
27.0725291719
 30
0.0
 10
8.0363355561
 20
27.0293255666
 30
0.0
 10
8.0659745439
 20
26.9429778218
 30
0.0
 10
8.1270844896
 20
26.8177235813
 30
0.0
 10
8.2050801057
 20
26.6957723436
 30
0.0
 10
8.3336178659
 20
26.5350606152
 30
0.0
 10
8.4920237949
 20
26.3879220756
 30
0.0
 10
8.6734430461
 20
26.2554520005
 30
0.0
 10
8.7730883328
 20
26.1933874795
 30
0.0
 10
8.8249163278
 20
26.1634652496
 30
0.0
  0
SPLINE
  5
311
100
AcDbEntity
  8
0
100
AcDbSpline
 62
7
  6
BYLAYER
 70
0
 71
3
 72
11
 73
7
 74
0
 42
0.0000001
 43
0.0000001
 44
0.0000000001
 40
0.0
 40
0.0
 40
0.0
 40
0.0
 40
0.2328715543
 40
0.4783917297
 40
0.7347543711
 40
1.0
 40
1.0
 40
1.0
 40
1.0
 10
9.0362402559
 20
26.5090743108
 30
0.0
 10
9.1113088541
 20
26.4657344159
 30
0.0
 10
9.2704037149
 20
26.3849755397
 30
0.0
 10
9.5250522246
 20
26.284288442
 30
0.0
 10
9.7988316542
 20
26.2020770701
 30
0.0
 10
9.9888044001
 20
26.1609394783
 30
0.0
 10
10.0859986347
 20
26.1435830041
 30
0.0
  0
SPLINE
  5
312
100
AcDbEntity
  8
0
100
AcDbSpline
 62
7
  6
BYLAYER
 70
0
 71
3
 72
14
 73
10
 74
0
 42
0.0000001
 43
0.0000001
 44
0.0000000001
 40
0.0
 40
0.0
 40
0.0
 40
0.0
 40
0.1084316043
 40
0.2205270208
 40
0.3369904914
 40
0.4584235591
 40
0.7176032705
 40
0.8559754836
 40
1.0
 40
1.0
 40
1.0
 40
1.0
 10
8.3288267391
 20
27.2919915883
 30
0.0
 10
8.340323501
 20
27.2547232162
 30
0.0
 10
8.3685282397
 20
27.1803396926
 30
0.0
 10
8.4245776076
 20
27.0725922343
 30
0.0
 10
8.4946556834
 20
26.967722792
 30
0.0
 10
8.6085711199
 20
26.8296067957
 30
0.0
 10
8.7471877569
 20
26.7029713076
 30
0.0
 10
8.9050078087
 20
26.5886385413
 30
0.0
 10
8.9913767172
 20
26.534975701
 30
0.0
 10
9.0362402559
 20
26.5090743108
 30
0.0
  0
SPLINE
  5
313
100
AcDbEntity
  8
0
100
AcDbSpline
 62
7
  6
BYLAYER
 70
0
 71
3
 72
13
 73
9
 74
0
 42
0.0000001
 43
0.0000001
 44
0.0000000001
 40
0.0
 40
0.0
 40
0.0
 40
0.0
 40
0.112032561
 40
0.2288566471
 40
0.3499689043
 40
0.4748908065
 40
0.7336850152
 40
1.0
 40
1.0
 40
1.0
 40
1.0
 10
8.8249163278
 20
26.1634652496
 30
0.0
 10
8.8879920006
 20
26.1270493167
 30
0.0
 10
9.019908827
 20
26.0578767381
 30
0.0
 10
9.2286880308
 20
25.9670294892
 30
0.0
 10
9.4509998272
 20
25.8876152626
 30
0.0
 10
9.7665689362
 20
25.7968115731
 30
0.0
 10
10.1824694224
 20
25.7166353909
 30
0.0
 10
10.5234503526
 20
25.6888035887
 30
0.0
 10
10.6965106278
 20
25.6837819582
 30
0.0
  0
SPLINE
  5
314
100
AcDbEntity
  8
0
100
AcDbSpline
 62
7
  6
BYLAYER
 70
0
 71
3
 72
11
 73
7
 74
0
 42
0.0000001
 43
0.0000001
 44
0.0000000001
 40
0.0
 40
0.0
 40
0.0
 40
0.0
 40
0.2782753845
 40
0.5361976328
 40
0.7755922012
 40
1.0
 40
1.0
 40
1.0
 40
1.0
 10
8.9008492337
 20
28.5066853521
 30
0.0
 10
8.8302127128
 20
28.4589706493
 30
0.0
 10
8.6993906207
 20
28.3587316407
 30
0.0
 10
8.5327735541
 20
28.1880488905
 30
0.0
 10
8.4062894859
 20
28.005343139
 30
0.0
 10
8.3490855458
 20
27.8739778498
 30
0.0
 10
8.3288230159
 20
27.8082908385
 30
0.0
  0
SPLINE
  5
315
100
AcDbEntity
  8
0
100
AcDbSpline
 62
7
  6
BYLAYER
 70
0
 71
3
 72
9
 73
5
 74
0
 42
0.0000001
 43
0.0000001
 44
0.0000000001
 40
0.0
 40
0.0
 40
0.0
 40
0.0
 40
0.4977783232
 40
1.0
 40
1.0
 40
1.0
 40
1.0
 10
7.9499743529
 20
27.0003430715
 30
0.0
 10
7.9437404716
 20
26.9422942886
 30
0.0
 10
7.9417645107
 20
26.8242885226
 30
0.0
 10
7.9612677897
 20
26.7079221345
 30
0.0
 10
7.9759724642
 20
26.6508833926
 30
0.0
  0
SPLINE
  5
316
100
AcDbEntity
  8
0
100
AcDbSpline
 62
7
  6
BYLAYER
 70
0
 71
3
 72
13
 73
9
 74
0
 42
0.0000001
 43
0.0000001
 44
0.0000000001
 40
0.0
 40
0.0
 40
0.0
 40
0.0
 40
0.1139871521
 40
0.2308165878
 40
0.3512434399
 40
0.475498341
 40
0.7334638369
 40
1.0
 40
1.0
 40
1.0
 40
1.0
 10
8.0306941999
 20
27.6122589968
 30
0.0
 10
8.0344989412
 20
27.6262507489
 30
0.0
 10
8.0451397765
 20
27.6538638989
 30
0.0
 10
8.0691069195
 20
27.6918672883
 30
0.0
 10
8.1004232972
 20
27.7258749722
 30
0.0
 10
8.15124557
 20
27.7650996978
 30
0.0
 10
8.2278489266
 20
27.7991753277
 30
0.0
 10
8.2949180535
 20
27.808290757
 30
0.0
 10
8.3288230159
 20
27.8082908385
 30
0.0
  0
SPLINE
  5
317
100
AcDbEntity
  8
0
100
AcDbSpline
 62
7
  6
BYLAYER
 70
0
 71
3
 72
9
 73
5
 74
0
 42
0.0000001
 43
0.0000001
 44
0.0000000001
 40
0.0
 40
0.0
 40
0.0
 40
0.0
 40
0.2447068971
 40
1.0
 40
1.0
 40
1.0
 40
1.0
 10
11.900125157
 20
14.0370585075
 30
0.0
 10
11.889382772
 20
14.0308562106
 30
0.0
 10
11.8451502228
 20
14.0060906143
 30
0.0
 10
11.7996525227
 20
13.9836007698
 30
0.0
 10
11.7647718805
 20
13.9678154751
 30
0.0
  0
SPLINE
  5
318
100
AcDbEntity
  8
0
100
AcDbSpline
 62
7
  6
BYLAYER
 70
0
 71
3
 72
15
 73
11
 74
0
 42
0.0000001
 43
0.0000001
 44
0.0000000001
 40
0.0
 40
0.0
 40
0.0
 40
0.0
 40
0.1171275895
 40
0.2408604997
 40
0.3692290544
 40
0.499983645
 40
0.6307383196
 40
0.7591107517
 40
0.8828348797
 40
1.0
 40
1.0
 40
1.0
 40
1.0
 10
11.7647718805
 20
13.9678154751
 30
0.0
 10
11.6971924723
 20
13.9372322976
 30
0.0
 10
11.5539700349
 20
13.8834792754
 30
0.0
 10
11.3268323219
 20
13.826218592
 30
0.0
 10
11.0864946874
 20
13.7912219117
 30
0.0
 10
10.8394879898
 20
13.7794497406
 30
0.0
 10
10.5924778455
 20
13.7912114241
 30
0.0
 10
10.3521435845
 20
13.8262061486
 30
0.0
 10
10.1249795797
 20
13.8834483051
 30
0.0
 10
9.9817422358
 20
13.937215189
 30
0.0
 10
9.9141410963
 20
13.9678079961
 30
0.0
  0
SPLINE
  5
319
100
AcDbEntity
  8
0
100
AcDbSpline
 62
7
  6
BYLAYER
 70
0
 71
3
 72
9
 73
5
 74
0
 42
0.0000001
 43
0.0000001
 44
0.0000000001
 40
0.0
 40
0.0
 40
0.0
 40
0.0
 40
0.2554606677
 40
1.0
 40
1.0
 40
1.0
 40
1.0
 10
9.9141410963
 20
13.9678079961
 30
0.0
 10
9.9023437817
 20
13.9731468553
 30
0.0
 10
9.8564075029
 20
13.9945788247
 30
0.0
 10
9.81147065
 20
14.0181730424
 30
0.0
 10
9.7787864855
 20
14.0370428267
 30
0.0
  0
LINE
  5
31A
100
AcDbEntity
  8
0
100
AcDbLine
 62
7
  6
BYLAYER
 10
27.8451100701
 20
18.4860820681
 11
27.7964438918
 21
18.9077276134
  0
LINE
  5
31B
100
AcDbEntity
  8
0
100
AcDbLine
 62
7
  6
BYLAYER
 10
27.7964402284
 20
19.4157465085
 11
27.8451065214
 21
18.9781921459
  0
SPLINE
  5
31C
100
AcDbEntity
  8
0
100
AcDbSpline
 62
7
  6
BYLAYER
 70
0
 71
3
 72
13
 73
9
 74
0
 42
0.0000001
 43
0.0000001
 44
0.0000000001
 40
0.0
 40
0.0
 40
0.0
 40
0.0
 40
0.1111675623
 40
0.2254080617
 40
0.3439510835
 40
0.4675038977
 40
0.7277343458
 40
1.0
 40
1.0
 40
1.0
 40
1.0
 10
27.7964438918
 20
18.9077276134
 30
0.0
 10
27.7947087441
 20
18.9227369307
 30
0.0
 10
27.7875291355
 20
18.9528551342
 30
0.0
 10
27.7665901568
 20
18.9950469497
 30
0.0
 10
27.7362698695
 20
19.0332432376
 30
0.0
 10
27.6841452504
 20
19.0778821017
 30
0.0
 10
27.602055081
 20
19.1168209884
 30
0.0
 10
27.529260811
 20
19.1271886564
 30
0.0
 10
27.4922559697
 20
19.1271885674
 30
0.0
  0
SPLINE
  5
31D
100
AcDbEntity
  8
0
100
AcDbSpline
 62
7
  6
BYLAYER
 70
0
 71
3
 72
13
 73
9
 74
0
 42
0.0000001
 43
0.0000001
 44
0.0000000001
 40
0.0
 40
0.0
 40
0.0
 40
0.0
 40
0.2722664244
 40
0.5325017335
 40
0.6560563684
 40
0.7745997137
 40
0.8888358986
 40
1.0
 40
1.0
 40
1.0
 40
1.0
 10
22.471021242
 20
19.1271764979
 30
0.0
 10
22.4340162337
 20
19.1271764089
 30
0.0
 10
22.3612211521
 20
19.1168081358
 30
0.0
 10
22.2791301071
 20
19.0778681959
 30
0.0
 10
22.2270052824
 20
19.03322784
 30
0.0
 10
22.1966859112
 20
18.9950311865
 30
0.0
 10
22.1757470233
 20
18.9528403528
 30
0.0
 10
22.1685683599
 20
18.9227229564
 30
0.0
 10
22.1668332602
 20
18.9077140815
 30
0.0
  0
LINE
  5
31E
100
AcDbEntity
  8
0
100
AcDbLine
 62
7
  6
BYLAYER
 10
22.1668332602
 20
18.9077140815
 11
22.1181669672
 21
18.4860683022
  0
LINE
  5
31F
100
AcDbEntity
  8
0
100
AcDbLine
 62
7
  6
BYLAYER
 10
22.1181634184
 20
18.97817838
 11
22.1668295967
 21
19.4157329766
  0
SPLINE
  5
320
100
AcDbEntity
  8
0
100
AcDbSpline
 62
7
  6
BYLAYER
 70
0
 71
3
 72
16
 73
12
 74
0
 42
0.0000001
 43
0.0000001
 44
0.0000000001
 40
0.0
 40
0.0
 40
0.0
 40
0.0
 40
0.1141419491
 40
0.2373006744
 40
0.3669382461
 40
0.4999508312
 40
0.6329624907
 40
0.7626036032
 40
0.8857680626
 40
0.9441628335
 40
1.0
 40
1.0
 40
1.0
 40
1.0
 10
25.9008935027
 20
5.7905906944
 30
0.0
 10
25.8379659464
 20
5.7542584939
 30
0.0
 10
25.7003629673
 20
5.6901791939
 30
0.0
 10
25.4762826809
 20
5.6220685011
 30
0.0
 10
25.2336769868
 20
5.5801424321
 30
0.0
 10
24.9816652944
 20
5.5659940771
 30
0.0
 10
24.729634489
 20
5.5801386935
 30
0.0
 10
24.4870700425
 20
5.6220487023
 30
0.0
 10
24.2968893358
 20
5.6798401017
 30
0.0
 10
24.1577724777
 20
5.739174449
 30
0.0
 10
24.093185701
 20
5.7728033667
 30
0.0
 10
24.0624017559
 20
5.7905760837
 30
0.0
  0
SPLINE
  5
321
100
AcDbEntity
  8
0
100
AcDbSpline
 62
7
  6
BYLAYER
 70
0
 71
3
 72
15
 73
11
 74
0
 42
0.0000001
 43
0.0000001
 44
0.0000000001
 40
0.0
 40
0.0
 40
0.0
 40
0.0
 40
0.1080131281
 40
0.2180612219
 40
0.3320010908
 40
0.4513569006
 40
0.5772797606
 40
0.7104997397
 40
0.8513973507
 40
1.0
 40
1.0
 40
1.0
 40
1.0
 10
26.4816367442
 20
6.4845939671
 30
0.0
 10
26.4816364572
 20
6.4561977786
 30
0.0
 10
26.4766934285
 20
6.3987568268
 30
0.0
 10
26.4547002816
 20
6.3139070622
 30
0.0
 10
26.4183544932
 20
6.2308961799
 30
0.0
 10
26.3681755276
 20
6.1505390149
 30
0.0
 10
26.3046764822
 20
6.0735955517
 30
0.0
 10
26.2285558999
 20
6.0007142214
 30
0.0
 10
26.1405313361
 20
5.9325904363
 30
0.0
 10
26.0761524313
 20
5.8917773374
 30
0.0
 10
26.0423196599
 20
5.8722434171
 30
0.0
  0
SPLINE
  5
322
100
AcDbEntity
  8
0
100
AcDbSpline
 62
7
  6
BYLAYER
 70
0
 71
3
 72
30
 73
26
 74
0
 42
0.0000001
 43
0.0000001
 44
0.0000000001
 40
0.0
 40
0.0
 40
0.0
 40
0.0
 40
0.0214866213
 40
0.0430173414
 40
0.0648331733
 40
0.0871593429
 40
0.1101955438
 40
0.1341072241
 40
0.1590252939
 40
0.1850417336
 40
0.2122165874
 40
0.2405749405
 40
0.2701162661
 40
0.3008123045
 40
0.3654281197
 40
0.433848235
 40
0.5052414177
 40
0.578620791
 40
0.6529037479
 40
0.7269636514
 40
0.7996864719
 40
0.8700192855
 40
0.9370349915
 40
0.9690753292
 40
1.0
 40
1.0
 40
1.0
 40
1.0
 10
27.9758833739
 20
17.8594745409
 30
0.0
 10
27.9805401424
 20
17.8160807496
 30
0.0
 10
27.9842322617
 20
17.7284877438
 30
0.0
 10
27.9724248492
 20
17.5969709027
 30
0.0
 10
27.9433855673
 20
17.4664044027
 30
0.0
 10
27.8973218191
 20
17.3376093397
 30
0.0
 10
27.8345496089
 20
17.2113404293
 30
0.0
 10
27.7555051689
 20
17.0882999989
 30
0.0
 10
27.6606505788
 20
16.9691911191
 30
0.0
 10
27.5505891495
 20
16.8546321682
 30
0.0
 10
27.4259257753
 20
16.7452843869
 30
0.0
 10
27.287408539
 20
16.6417062178
 30
0.0
 10
27.1357941989
 20
16.5445014794
 30
0.0
 10
26.913571337
 20
16.4219973565
 30
0.0
 10
26.6078256721
 20
16.2890685382
 30
0.0
 10
26.2107860058
 20
16.165189677
 30
0.0
 10
25.7861776283
 20
16.0769656697
 30
0.0
 10
25.3435369369
 20
16.0263671821
 30
0.0
 10
24.8927691407
 20
16.0145247924
 30
0.0
 10
24.4440000711
 20
16.0416971542
 30
0.0
 10
24.0072882811
 20
16.1072904959
 30
0.0
 10
23.5924457682
 20
16.2098154674
 30
0.0
 10
23.2677732765
 20
16.3258917266
 30
0.0
 10
23.0276445027
 20
16.4359242711
 30
0.0
 10
22.9147233774
 20
16.4961887889
 30
0.0
 10
22.8603252326
 20
16.5275948619
 30
0.0
  0
SPLINE
  5
323
100
AcDbEntity
  8
0
100
AcDbSpline
 62
7
  6
BYLAYER
 70
0
 71
3
 72
14
 73
10
 74
0
 42
0.0000001
 43
0.0000001
 44
0.0000000001
 40
0.0
 40
0.0
 40
0.0
 40
0.0
 40
0.1156748669
 40
0.2328619258
 40
0.3523253746
 40
0.4746178943
 40
0.7292276506
 40
0.8626012947
 40
1.0
 40
1.0
 40
1.0
 40
1.0
 10
27.7903862904
 20
19.4474611753
 30
0.0
 10
27.7767839273
 20
19.4974807802
 30
0.0
 10
27.7428863531
 20
19.5965134364
 30
0.0
 10
27.673864661
 20
19.7388921722
 30
0.0
 10
27.5875179502
 20
19.874998503
 30
0.0
 10
27.4491173779
 20
20.0495458128
 30
0.0
 10
27.2811992428
 20
20.2069096933
 30
0.0
 10
27.091222825
 20
20.3461732827
 30
0.0
 10
26.9881585435
 20
20.4104784787
 30
0.0
 10
26.9348361847
 20
20.4412634605
 30
0.0
  0
SPLINE
  5
324
100
AcDbEntity
  8
0
100
AcDbSpline
 62
7
  6
BYLAYER
 70
0
 71
3
 72
24
 73
20
 74
0
 42
0.0000001
 43
0.0000001
 44
0.0000000001
 40
0.0
 40
0.0
 40
0.0
 40
0.0
 40
0.0609306188
 40
0.1247951288
 40
0.1911652132
 40
0.2595133873
 40
0.3291453757
 40
0.399302421
 40
0.4691920675
 40
0.5380380318
 40
0.6051265696
 40
0.6698531715
 40
0.731772255
 40
0.7906491568
 40
0.8464989104
 40
0.8996176513
 40
0.9505230217
 40
0.9753879628
 40
1.0
 40
1.0
 40
1.0
 40
1.0
 10
26.9348361847
 20
20.4412634605
 30
0.0
 10
26.8397596456
 20
20.4961546841
 30
0.0
 10
26.6380725714
 20
20.596818475
 30
0.0
 10
26.3150345347
 20
20.7178367652
 30
0.0
 10
25.9691256436
 20
20.8112733371
 30
0.0
 10
25.606216834
 20
20.8759951972
 30
0.0
 10
25.2324231052
 20
20.9110752042
 30
0.0
 10
24.8542538838
 20
20.9160171377
 30
0.0
 10
24.4783113163
 20
20.8907459327
 30
0.0
 10
24.111140863
 20
20.8356350035
 30
0.0
 10
23.7590413972
 20
20.7514606959
 30
0.0
 10
23.4279125357
 20
20.6393147733
 30
0.0
 10
23.1231420491
 20
20.5004716068
 30
0.0
 10
22.8496223439
 20
20.3362223436
 30
0.0
 10
22.6118705029
 20
20.1477202527
 30
0.0
 10
22.4146634434
 20
19.9361060991
 30
0.0
 10
22.2874005847
 20
19.7400408927
 30
0.0
 10
22.2126719225
 20
19.5750417344
 30
0.0
 10
22.1845190478
 20
19.4902369068
 30
0.0
 10
22.1728828052
 20
19.4474450193
 30
0.0
  0
SPLINE
  5
325
100
AcDbEntity
  8
0
100
AcDbSpline
 62
7
  6
BYLAYER
 70
0
 71
3
 72
18
 73
14
 74
0
 42
0.0000001
 43
0.0000001
 44
0.0000000001
 40
0.0
 40
0.0
 40
0.0
 40
0.0
 40
0.1497395598
 40
0.2911502499
 40
0.4241908483
 40
0.4877701297
 40
0.549508346
 40
0.6679568274
 40
0.7811076704
 40
0.8363555473
 40
0.8910546298
 40
0.9455017591
 40
1.0
 40
1.0
 40
1.0
 40
1.0
 10
22.8603252326
 20
16.5275948619
 30
0.0
 10
22.7874904527
 20
16.5696450904
 30
0.0
 10
22.6493980717
 20
16.6577895205
 30
0.0
 10
22.4623106589
 20
16.8059942881
 30
0.0
 10
22.3276439618
 20
16.9405791633
 30
0.0
 10
22.235600227
 20
17.0528940777
 30
0.0
 10
22.1562918026
 20
17.1646071642
 30
0.0
 10
22.0756735018
 20
17.3090694714
 30
0.0
 10
22.0208305595
 20
17.4614597335
 30
0.0
 10
21.9944112061
 20
17.5840955581
 30
0.0
 10
21.9831621441
 20
17.6758742812
 30
0.0
 10
21.9803532875
 20
17.7678649304
 30
0.0
 10
21.984116646
 20
17.8290405573
 30
0.0
 10
21.987385553
 20
17.8594746826
 30
0.0
  0
SPLINE
  5
326
100
AcDbEntity
  8
0
100
AcDbSpline
 62
7
  6
BYLAYER
 70
0
 71
3
 72
15
 73
11
 74
0
 42
0.0000001
 43
0.0000001
 44
0.0000000001
 40
0.0
 40
0.0
 40
0.0
 40
0.0
 40
0.1485263577
 40
0.2895010829
 40
0.4227415638
 40
0.5486452136
 40
0.6679959928
 40
0.7819398889
 40
0.8919882913
 40
1.0
 40
1.0
 40
1.0
 40
1.0
 10
23.9209809885
 20
5.8722277363
 30
0.0
 10
23.8871638143
 20
5.8917516492
 30
0.0
 10
23.822785656
 20
5.932571496
 30
0.0
 10
23.7347442368
 20
6.0006892157
 30
0.0
 10
23.6585992559
 20
6.0735819247
 30
0.0
 10
23.5951039361
 20
6.1505325397
 30
0.0
 10
23.544926935
 20
6.2308885177
 30
0.0
 10
23.5085748458
 20
6.3139003121
 30
0.0
 10
23.4865786782
 20
6.3987539307
 30
0.0
 10
23.4816364573
 20
6.4561970279
 30
0.0
 10
23.4816367443
 20
6.4845939671
 30
0.0
  0
SPLINE
  5
327
100
AcDbEntity
  8
0
100
AcDbSpline
 62
7
  6
BYLAYER
 70
0
 71
3
 72
14
 73
10
 74
0
 42
0.0000001
 43
0.0000001
 44
0.0000000001
 40
0.0
 40
0.0
 40
0.0
 40
0.0
 40
0.1081800209
 40
0.2199447201
 40
0.336095302
 40
0.4573168402
 40
0.7165914721
 40
0.8553567523
 40
1.0
 40
1.0
 40
1.0
 40
1.0
 10
22.1668332602
 20
18.9077140815
 30
0.0
 10
22.178530059
 20
18.8645104761
 30
0.0
 10
22.2081690468
 20
18.7781627314
 30
0.0
 10
22.2692789926
 20
18.6529084909
 30
0.0
 10
22.3472746086
 20
18.5309572532
 30
0.0
 10
22.4758123688
 20
18.3702455248
 30
0.0
 10
22.6342182978
 20
18.2231069852
 30
0.0
 10
22.815637549
 20
18.0906369101
 30
0.0
 10
22.9152828358
 20
18.0285723891
 30
0.0
 10
22.9671108307
 20
17.9986501592
 30
0.0
  0
SPLINE
  5
328
100
AcDbEntity
  8
0
100
AcDbSpline
 62
7
  6
BYLAYER
 70
0
 71
3
 72
13
 73
9
 74
0
 42
0.0000001
 43
0.0000001
 44
0.0000000001
 40
0.0
 40
0.0
 40
0.0
 40
0.0
 40
0.2665363672
 40
0.5245059849
 40
0.6487626846
 40
0.7691907283
 40
0.8860185102
 40
1.0
 40
1.0
 40
1.0
 40
1.0
 10
27.4922522465
 20
19.6434878177
 30
0.0
 10
27.526156939
 20
19.6434878992
 30
0.0
 10
27.5932260911
 20
19.634372872
 30
0.0
 10
27.6698296127
 20
19.6002974432
 30
0.0
 10
27.7206523867
 20
19.5610728078
 30
0.0
 10
27.7519686055
 20
19.5270652235
 30
0.0
 10
27.7759347792
 20
19.4890627088
 30
0.0
 10
27.786576079
 20
19.4614510299
 30
0.0
 10
27.7903806701
 20
19.4474601144
 30
0.0
  0
SPLINE
  5
329
100
AcDbEntity
  8
0
100
AcDbSpline
 62
7
  6
BYLAYER
 70
0
 71
3
 72
23
 73
19
 74
0
 42
0.0000001
 43
0.0000001
 44
0.0000000001
 40
0.0
 40
0.0
 40
0.0
 40
0.0
 40
0.0606971286
 40
0.1250179118
 40
0.1923702261
 40
0.2620665266
 40
0.3332995781
 40
0.4052103061
 40
0.4769116432
 40
0.5475249196
 40
0.6162132759
 40
0.6822164095
 40
0.7448888861
 40
0.803744408
 40
0.8585099818
 40
0.9091800101
 40
0.9561043657
 40
1.0
 40
1.0
 40
1.0
 40
1.0
 10
23.1784347588
 20
18.3442592204
 30
0.0
 10
23.2629917525
 20
18.2954413218
 30
0.0
 10
23.443359036
 20
18.2053989274
 30
0.0
 10
23.7334140583
 20
18.0962780591
 30
0.0
 10
24.0463088275
 20
18.0107908127
 30
0.0
 10
24.376266957
 20
17.9504682561
 30
0.0
 10
24.71731138
 20
17.9164214698
 30
0.0
 10
25.0631910657
 20
17.9092665702
 30
0.0
 10
25.4075784453
 20
17.9291363961
 30
0.0
 10
25.7441706591
 20
17.975664632
 30
0.0
 10
26.0668193917
 20
18.0480023807
 30
0.0
 10
26.3696481333
 20
18.1448418296
 30
0.0
 10
26.6471618554
 20
18.2644535962
 30
0.0
 10
26.894356461
 20
18.4047425554
 30
0.0
 10
27.1067596938
 20
18.5633173808
 30
0.0
 10
27.2805311235
 20
18.7376138361
 30
0.0
 10
27.4121828096
 20
18.9247536566
 30
0.0
 10
27.4714424206
 20
19.0597152636
 30
0.0
 10
27.4922559697
 20
19.1271885674
 30
0.0
  0
SPLINE
  5
32A
100
AcDbEntity
  8
0
100
AcDbSpline
 62
7
  6
BYLAYER
 70
0
 71
3
 72
14
 73
10
 74
0
 42
0.0000001
 43
0.0000001
 44
0.0000000001
 40
0.0
 40
0.0
 40
0.0
 40
0.0
 40
0.1084316043
 40
0.2205270208
 40
0.3369904914
 40
0.4584235591
 40
0.7176032705
 40
0.8559754836
 40
1.0
 40
1.0
 40
1.0
 40
1.0
 10
22.471021242
 20
19.1271764979
 30
0.0
 10
22.482518004
 20
19.0899081258
 30
0.0
 10
22.5107227426
 20
19.0155246022
 30
0.0
 10
22.5667721105
 20
18.9077771439
 30
0.0
 10
22.6368501863
 20
18.8029077016
 30
0.0
 10
22.7507656228
 20
18.6647917053
 30
0.0
 10
22.8893822598
 20
18.5381562172
 30
0.0
 10
23.0472023116
 20
18.4238234509
 30
0.0
 10
23.1335712201
 20
18.3701606106
 30
0.0
 10
23.1784347588
 20
18.3442592204
 30
0.0
  0
SPLINE
  5
32B
100
AcDbEntity
  8
0
100
AcDbSpline
 62
7
  6
BYLAYER
 70
0
 71
3
 72
24
 73
20
 74
0
 42
0.0000001
 43
0.0000001
 44
0.0000000001
 40
0.0
 40
0.0
 40
0.0
 40
0.0
 40
0.0609006468
 40
0.1254599186
 40
0.1930825223
 40
0.2630544371
 40
0.3345498973
 40
0.4066881417
 40
0.478562
 40
0.5492747917
 40
0.6179748296
 40
0.6838926759
 40
0.746381837
 40
0.8049649735
 40
0.8593902894
 40
0.9096921812
 40
0.9562735037
 40
0.9784394962
 40
1.0
 40
1.0
 40
1.0
 40
1.0
 10
22.9671108307
 20
17.9986501592
 30
0.0
 10
23.0625274943
 20
17.943562569
 30
0.0
 10
23.266164589
 20
17.8420511224
 30
0.0
 10
23.5937763091
 20
17.719358105
 30
0.0
 10
23.947264102
 20
17.6236085444
 30
0.0
 10
24.319995105
 20
17.5565691165
 30
0.0
 10
24.7050722507
 20
17.5194875481
 30
0.0
 10
25.0953062087
 20
17.5130473257
 30
0.0
 10
25.483420656
 20
17.5373726116
 30
0.0
 10
25.8621761285
 20
17.5920091535
 30
0.0
 10
26.2245206847
 20
17.6759444399
 30
0.0
 10
26.5637296609
 20
17.7876294235
 30
0.0
 10
26.8735365595
 20
17.9250367576
 30
0.0
 10
27.1482481809
 20
18.0857068199
 30
0.0
 10
27.3828165218
 20
18.2669100111
 30
0.0
 10
27.5728303155
 20
18.4655396576
 30
0.0
 10
27.6928572528
 20
18.6461428539
 30
0.0
 10
27.7611428264
 20
18.7948517436
 30
0.0
 10
27.786251107
 20
18.8700772191
 30
0.0
 10
27.7964438918
 20
18.9077276134
 30
0.0
  0
SPLINE
  5
32C
100
AcDbEntity
  8
0
100
AcDbSpline
 62
7
  6
BYLAYER
 70
0
 71
3
 72
23
 73
19
 74
0
 42
0.0000001
 43
0.0000001
 44
0.0000000001
 40
0.0
 40
0.0
 40
0.0
 40
0.0
 40
0.0606971286
 40
0.1250179118
 40
0.1923702261
 40
0.2620665266
 40
0.3332995781
 40
0.4052103061
 40
0.4769116432
 40
0.5475249196
 40
0.6162132759
 40
0.6822164095
 40
0.7448888861
 40
0.803744408
 40
0.8585099818
 40
0.9091800101
 40
0.9561043657
 40
1.0
 40
1.0
 40
1.0
 40
1.0
 10
26.7848387297
 20
20.4264050951
 30
0.0
 10
26.7002817361
 20
20.4752229937
 30
0.0
 10
26.5199144526
 20
20.5652653882
 30
0.0
 10
26.2298594302
 20
20.6743862564
 30
0.0
 10
25.9169646611
 20
20.7598735029
 30
0.0
 10
25.5870065316
 20
20.8201960595
 30
0.0
 10
25.2459621086
 20
20.8542428457
 30
0.0
 10
24.9000824228
 20
20.8613977453
 30
0.0
 10
24.5556950432
 20
20.8415279194
 30
0.0
 10
24.2191028295
 20
20.7949996836
 30
0.0
 10
23.8964540968
 20
20.7226619349
 30
0.0
 10
23.5936253553
 20
20.625822486
 30
0.0
 10
23.3161116332
 20
20.5062107194
 30
0.0
 10
23.0689170275
 20
20.3659217601
 30
0.0
 10
22.8565137947
 20
20.2073469347
 30
0.0
 10
22.682742365
 20
20.0330504795
 30
0.0
 10
22.5510906789
 20
19.845910659
 30
0.0
 10
22.491831068
 20
19.7109490519
 30
0.0
 10
22.4710175188
 20
19.6434757481
 30
0.0
  0
SPLINE
  5
32D
100
AcDbEntity
  8
0
100
AcDbSpline
 62
7
  6
BYLAYER
 70
0
 71
3
 72
14
 73
10
 74
0
 42
0.0000001
 43
0.0000001
 44
0.0000000001
 40
0.0
 40
0.0
 40
0.0
 40
0.0
 40
0.1084316043
 40
0.2205270208
 40
0.3369904914
 40
0.4584235591
 40
0.7176032705
 40
0.8559754836
 40
1.0
 40
1.0
 40
1.0
 40
1.0
 10
27.4922522465
 20
19.6434878177
 30
0.0
 10
27.4807554846
 20
19.6807561898
 30
0.0
 10
27.4525507459
 20
19.7551397133
 30
0.0
 10
27.396501378
 20
19.8628871717
 30
0.0
 10
27.3264233022
 20
19.9677566139
 30
0.0
 10
27.2125078657
 20
20.1058726102
 30
0.0
 10
27.0738912287
 20
20.2325080983
 30
0.0
 10
26.916071177
 20
20.3468408646
 30
0.0
 10
26.8297022684
 20
20.4005037049
 30
0.0
 10
26.7848387297
 20
20.4264050951
 30
0.0
  0
SPLINE
  5
32E
100
AcDbEntity
  8
0
100
AcDbSpline
 62
7
  6
BYLAYER
 70
0
 71
3
 72
9
 73
5
 74
0
 42
0.0000001
 43
0.0000001
 44
0.0000000001
 40
0.0
 40
0.0
 40
0.0
 40
0.0
 40
0.4977783232
 40
1.0
 40
1.0
 40
1.0
 40
1.0
 10
22.0921688558
 20
18.8355279811
 30
0.0
 10
22.0859349745
 20
18.7774791982
 30
0.0
 10
22.0839590137
 20
18.6594734322
 30
0.0
 10
22.1034622926
 20
18.5431070441
 30
0.0
 10
22.1181669672
 20
18.4860683022
 30
0.0
  0
SPLINE
  5
32F
100
AcDbEntity
  8
0
100
AcDbSpline
 62
7
  6
BYLAYER
 70
0
 71
3
 72
13
 73
9
 74
0
 42
0.0000001
 43
0.0000001
 44
0.0000000001
 40
0.0
 40
0.0
 40
0.0
 40
0.0
 40
0.1139871521
 40
0.2308165878
 40
0.3512434399
 40
0.475498341
 40
0.7334638369
 40
1.0
 40
1.0
 40
1.0
 40
1.0
 10
22.1728887028
 20
19.4474439064
 30
0.0
 10
22.1766934441
 20
19.4614356585
 30
0.0
 10
22.1873342794
 20
19.4890488085
 30
0.0
 10
22.2113014224
 20
19.5270521978
 30
0.0
 10
22.2426178001
 20
19.5610598818
 30
0.0
 10
22.293440073
 20
19.6002846074
 30
0.0
 10
22.3700434295
 20
19.6343602373
 30
0.0
 10
22.4371125565
 20
19.6434756666
 30
0.0
 10
22.4710175188
 20
19.6434757481
 30
0.0
  0
SPLINE
  5
330
100
AcDbEntity
  8
0
100
AcDbSpline
 62
7
  6
BYLAYER
 70
0
 71
3
 72
9
 73
5
 74
0
 42
0.0000001
 43
0.0000001
 44
0.0000000001
 40
0.0
 40
0.0
 40
0.0
 40
0.0
 40
0.5022213777
 40
1.0
 40
1.0
 40
1.0
 40
1.0
 10
27.8451100701
 20
18.4860820681
 30
0.0
 10
27.8598133557
 20
18.5431186838
 30
0.0
 10
27.8793145737
 20
18.6594805492
 30
0.0
 10
27.8773382674
 20
18.7774814995
 30
0.0
 10
27.8711046332
 20
18.8355279811
 30
0.0
  0
SPLINE
  5
331
100
AcDbEntity
  8
0
100
AcDbSpline
 62
7
  6
BYLAYER
 70
0
 71
3
 72
9
 73
5
 74
0
 42
0.0000001
 43
0.0000001
 44
0.0000000001
 40
0.0
 40
0.0
 40
0.0
 40
0.0
 40
0.2447068971
 40
1.0
 40
1.0
 40
1.0
 40
1.0
 10
26.0423196599
 20
5.8722434171
 30
0.0
 10
26.031577275
 20
5.8660411202
 30
0.0
 10
25.9873447258
 20
5.8412755239
 30
0.0
 10
25.9418470256
 20
5.8187856794
 30
0.0
 10
25.9069663834
 20
5.8030003847
 30
0.0
  0
SPLINE
  5
332
100
AcDbEntity
  8
0
100
AcDbSpline
 62
7
  6
BYLAYER
 70
0
 71
3
 72
15
 73
11
 74
0
 42
0.0000001
 43
0.0000001
 44
0.0000000001
 40
0.0
 40
0.0
 40
0.0
 40
0.0
 40
0.1171275895
 40
0.2408604997
 40
0.3692290544
 40
0.499983645
 40
0.6307383196
 40
0.7591107517
 40
0.8828348797
 40
1.0
 40
1.0
 40
1.0
 40
1.0
 10
25.9069663834
 20
5.8030003847
 30
0.0
 10
25.8393869752
 20
5.7724172072
 30
0.0
 10
25.6961645379
 20
5.718664185
 30
0.0
 10
25.4690268248
 20
5.6614035016
 30
0.0
 10
25.2286891903
 20
5.6264068213
 30
0.0
 10
24.9816824927
 20
5.6146346502
 30
0.0
 10
24.7346723485
 20
5.6263963337
 30
0.0
 10
24.4943380875
 20
5.6613910581
 30
0.0
 10
24.2671740827
 20
5.7186332147
 30
0.0
 10
24.1239367387
 20
5.7724000986
 30
0.0
 10
24.0563355992
 20
5.8029929056
 30
0.0
  0
SPLINE
  5
333
100
AcDbEntity
  8
0
100
AcDbSpline
 62
7
  6
BYLAYER
 70
0
 71
3
 72
9
 73
5
 74
0
 42
0.0000001
 43
0.0000001
 44
0.0000000001
 40
0.0
 40
0.0
 40
0.0
 40
0.0
 40
0.2554606677
 40
1.0
 40
1.0
 40
1.0
 40
1.0
 10
24.0563355992
 20
5.8029929056
 30
0.0
 10
24.0445382846
 20
5.8083317649
 30
0.0
 10
23.9986020059
 20
5.8297637343
 30
0.0
 10
23.953665153
 20
5.853357952
 30
0.0
 10
23.9209809885
 20
5.8722277363
 30
0.0
  0
SPLINE
  5
334
100
AcDbEntity
  8
0
100
AcDbSpline
 62
7
  6
BYLAYER
 70
0
 71
3
 72
26
 73
22
 74
0
 42
0.0000001
 43
0.0000001
 44
0.0000000001
 40
0.0
 40
0.0
 40
0.0
 40
0.0
 40
0.0623762197
 40
0.1287187767
 40
0.1983048881
 40
0.2702784412
 40
0.3436508624
 40
0.4173797051
 40
0.4904014029
 40
0.5616849136
 40
0.6302788399
 40
0.6953630916
 40
0.7563076832
 40
0.8127424296
 40
0.8392662223
 40
0.8646884681
 40
0.9124611301
 40
0.9351047071
 40
0.9571091161
 40
0.9786687817
 40
1.0
 40
1.0
 40
1.0
 40
1.0
 10
18.4626060014
 20
53.07632239
 30
0.0
 10
18.4626060014
 20
52.9912812903
 30
0.0
 10
18.4741330813
 20
52.8156749928
 30
0.0
 10
18.5215346861
 20
52.5490443817
 30
0.0
 10
18.5986272825
 20
52.2758323849
 30
0.0
 10
18.703721114
 20
52.0018889803
 30
0.0
 10
18.8346089182
 20
51.7330130967
 30
0.0
 10
18.9884851837
 20
51.4749416739
 30
0.0
 10
19.1620757612
 20
51.2331813668
 30
0.0
 10
19.3516796569
 20
51.0128860944
 30
0.0
 10
19.5532687123
 20
50.8187403546
 30
0.0
 10
19.7626136902
 20
50.6548507225
 30
0.0
 10
19.9753226974
 20
50.5247148888
 30
0.0
 10
20.1554644808
 20
50.445089344
 30
0.0
 10
20.296966068
 20
50.4019378963
 30
0.0
 10
20.4300174363
 20
50.3735034278
 30
0.0
 10
20.5614018137
 20
50.3638685872
 30
0.0
 10
20.6870862729
 20
50.375663508
 30
0.0
 10
20.7755844567
 20
50.3945427126
 30
0.0
 10
20.8594138402
 20
50.423510768
 30
0.0
 10
20.9119870357
 20
50.4495391156
 30
0.0
 10
20.9371729183
 20
50.464080049
 30
0.0
  0
SPLINE
  5
335
100
AcDbEntity
  8
0
100
AcDbSpline
 62
7
  6
BYLAYER
 70
0
 71
3
 72
14
 73
10
 74
0
 42
0.0000001
 43
0.0000001
 44
0.0000000001
 40
0.0
 40
0.0
 40
0.0
 40
0.0
 40
0.1485922921
 40
0.2896300159
 40
0.5484426189
 40
0.6678480113
 40
0.7818436021
 40
0.8919405416
 40
1.0
 40
1.0
 40
1.0
 40
1.0
 10
20.8314235806
 20
51.7087158624
 30
0.0
 10
20.8314235806
 20
51.6748732642
 30
0.0
 10
20.8286785281
 20
51.6088430204
 30
0.0
 10
20.8118728954
 20
51.4849885181
 30
0.0
 10
20.77798991
 20
51.3702945133
 30
0.0
 10
20.7251793273
 20
51.2710421757
 30
0.0
 10
20.6786213279
 20
51.2077805499
 30
0.0
 10
20.6244652736
 20
51.1545018521
 30
0.0
 10
20.5834914426
 20
51.1259003294
 30
0.0
 10
20.5621773448
 20
51.1135953231
 30
0.0
  0
SPLINE
  5
336
100
AcDbEntity
  8
0
100
AcDbSpline
 62
7
  6
BYLAYER
 70
0
 71
3
 72
25
 73
21
 74
0
 42
0.0000001
 43
0.0000001
 44
0.0000000001
 40
0.0
 40
0.0
 40
0.0
 40
0.0
 40
0.0213321201
 40
0.0428929012
 40
0.0648983651
 40
0.087543905
 40
0.1353190794
 40
0.18721976
 40
0.2436575725
 40
0.3046047868
 40
0.3696910419
 40
0.4382871759
 40
0.5095732786
 40
0.5825972302
 40
0.6563273896
 40
0.7297038753
 40
0.8016825185
 40
0.8712694833
 40
0.9376259537
 40
1.0
 40
1.0
 40
1.0
 40
1.0
 10
19.2621845311
 20
53.3652623635
 30
0.0
 10
19.2781561453
 20
53.3744830593
 30
0.0
 10
19.3115005355
 20
53.390977477
 30
0.0
 10
19.3646567462
 20
53.4093571425
 30
0.0
 10
19.4207776146
 20
53.4213301625
 30
0.0
 10
19.5004882543
 20
53.4288011642
 30
0.0
 10
19.6067654883
 20
53.4210058619
 30
0.0
 10
19.7378020743
 20
53.3861790357
 30
0.0
 10
19.8721315968
 20
53.3268130281
 30
0.0
 10
20.0070331342
 20
53.244276969
 30
0.0
 10
20.1397832356
 20
53.1403527831
 30
0.0
 10
20.267620948
 20
53.0172384456
 30
0.0
 10
20.387852997
 20
52.8775393288
 30
0.0
 10
20.4979306746
 20
52.7242298236
 30
0.0
 10
20.5955137272
 20
52.5605799123
 30
0.0
 10
20.6785185021
 20
52.3900745834
 30
0.0
 10
20.7451612613
 20
52.2163541962
 30
0.0
 10
20.7940555187
 20
52.0430906586
 30
0.0
 10
20.8241075823
 20
51.8740040748
 30
0.0
 10
20.8314235806
 20
51.7626398444
 30
0.0
 10
20.8314235806
 20
51.7087158624
 30
0.0
  0
SPLINE
  5
337
100
AcDbEntity
  8
0
100
AcDbSpline
 62
7
  6
BYLAYER
 70
0
 71
3
 72
15
 73
11
 74
0
 42
0.0000001
 43
0.0000001
 44
0.0000000001
 40
0.0
 40
0.0
 40
0.0
 40
0.0
 40
0.1080115518
 40
0.2180586955
 40
0.3319965783
 40
0.4513573605
 40
0.5772651976
 40
0.7104895828
 40
0.8514454119
 40
1.0
 40
1.0
 40
1.0
 40
1.0
 10
18.8871889576
 20
54.0147776375
 30
0.0
 10
18.8535784211
 20
53.9953727757
 30
0.0
 10
18.7889523872
 20
53.9502885283
 30
0.0
 10
18.7035732021
 20
53.8662504601
 30
0.0
 10
18.6301350011
 20
53.7665177379
 30
0.0
 10
18.5693361054
 20
53.6522007925
 30
0.0
 10
18.5216321254
 20
53.5244716734
 30
0.0
 10
18.4873952278
 20
53.3845451793
 30
0.0
 10
18.4669208462
 20
53.233796001
 30
0.0
 10
18.4626060014
 20
53.1297000599
 30
0.0
 10
18.4626060014
 20
53.07632239
 30
0.0
  0
SPLINE
  5
338
100
AcDbEntity
  8
0
100
AcDbSpline
 62
7
  6
BYLAYER
 70
0
 71
3
 72
25
 73
21
 74
0
 42
0.0000001
 43
0.0000001
 44
0.0000000001
 40
0.0
 40
0.0
 40
0.0
 40
0.0
 40
0.0213321201
 40
0.0428929012
 40
0.0648983651
 40
0.087543905
 40
0.1353190794
 40
0.18721976
 40
0.2436575725
 40
0.3046047868
 40
0.3696910419
 40
0.4382871759
 40
0.5095732786
 40
0.5825972302
 40
0.6563273896
 40
0.7297038753
 40
0.8016825185
 40
0.8712694833
 40
0.9376259537
 40
1.0
 40
1.0
 40
1.0
 40
1.0
 10
20.5621773448
 20
51.1135953231
 30
0.0
 10
20.5462057306
 20
51.1043746272
 30
0.0
 10
20.5128613404
 20
51.0878802095
 30
0.0
 10
20.4597051297
 20
51.0695005441
 30
0.0
 10
20.4035842613
 20
51.0575275241
 30
0.0
 10
20.3238736216
 20
51.0500565223
 30
0.0
 10
20.2175963876
 20
51.0578518247
 30
0.0
 10
20.0865598016
 20
51.0926786508
 30
0.0
 10
19.9522302791
 20
51.1520446585
 30
0.0
 10
19.8173287417
 20
51.2345807176
 30
0.0
 10
19.6845786402
 20
51.3385049035
 30
0.0
 10
19.5567409279
 20
51.461619241
 30
0.0
 10
19.4365088788
 20
51.6013183577
 30
0.0
 10
19.3264312012
 20
51.754627863
 30
0.0
 10
19.2288481487
 20
51.9182777743
 30
0.0
 10
19.1458433738
 20
52.0887831032
 30
0.0
 10
19.0792006146
 20
52.2625034904
 30
0.0
 10
19.0303063572
 20
52.4357670279
 30
0.0
 10
19.0002542936
 20
52.6048536118
 30
0.0
 10
18.9929382952
 20
52.7162178421
 30
0.0
 10
18.9929382952
 20
52.7701418242
 30
0.0
  0
SPLINE
  5
339
100
AcDbEntity
  8
0
100
AcDbSpline
 62
7
  6
BYLAYER
 70
0
 71
3
 72
14
 73
10
 74
0
 42
0.0000001
 43
0.0000001
 44
0.0000000001
 40
0.0
 40
0.0
 40
0.0
 40
0.0
 40
0.1485922921
 40
0.2896300159
 40
0.5484426189
 40
0.6678480113
 40
0.7818436021
 40
0.8919405416
 40
1.0
 40
1.0
 40
1.0
 40
1.0
 10
18.9929382952
 20
52.7701418242
 30
0.0
 10
18.9929382952
 20
52.8039844223
 30
0.0
 10
18.9956833478
 20
52.8700146662
 30
0.0
 10
19.0124889805
 20
52.9938691685
 30
0.0
 10
19.0463719659
 20
53.1085631733
 30
0.0
 10
19.0991825486
 20
53.2078155109
 30
0.0
 10
19.145740548
 20
53.2710771367
 30
0.0
 10
19.1998966022
 20
53.3243558345
 30
0.0
 10
19.2408704333
 20
53.3529573571
 30
0.0
 10
19.2621845311
 20
53.3652623635
 30
0.0
  0
SPLINE
  5
33A
100
AcDbEntity
  8
0
100
AcDbSpline
 62
7
  6
BYLAYER
 70
0
 71
3
 72
15
 73
11
 74
0
 42
0.0000001
 43
0.0000001
 44
0.0000000001
 40
0.0
 40
0.0
 40
0.0
 40
0.0
 40
0.1080115518
 40
0.2180586955
 40
0.3319965783
 40
0.4513573605
 40
0.5772651976
 40
0.7104895828
 40
0.8514454119
 40
1.0
 40
1.0
 40
1.0
 40
1.0
 10
20.9371729183
 20
50.464080049
 30
0.0
 10
20.9707834548
 20
50.4834849108
 30
0.0
 10
21.0354094887
 20
50.5285691582
 30
0.0
 10
21.1207886737
 20
50.6126072264
 30
0.0
 10
21.1942268748
 20
50.7123399487
 30
0.0
 10
21.2550257705
 20
50.8266568941
 30
0.0
 10
21.3027297504
 20
50.9543860132
 30
0.0
 10
21.3369666481
 20
51.0943125072
 30
0.0
 10
21.3574410296
 20
51.2450616855
 30
0.0
 10
21.3617558745
 20
51.3491576267
 30
0.0
 10
21.3617558745
 20
51.4025352965
 30
0.0
  0
SPLINE
  5
33B
100
AcDbEntity
  8
0
100
AcDbSpline
 62
7
  6
BYLAYER
 70
0
 71
3
 72
26
 73
22
 74
0
 42
0.0000001
 43
0.0000001
 44
0.0000000001
 40
0.0
 40
0.0
 40
0.0
 40
0.0
 40
0.0623762197
 40
0.1287187767
 40
0.1983048881
 40
0.2702784412
 40
0.3436508624
 40
0.4173797051
 40
0.4904014029
 40
0.5616849136
 40
0.6302788399
 40
0.6953630916
 40
0.7563076832
 40
0.8127424296
 40
0.8392662223
 40
0.8646884681
 40
0.9124611301
 40
0.9351047071
 40
0.9571091161
 40
0.9786687817
 40
1.0
 40
1.0
 40
1.0
 40
1.0
 10
21.3617558745
 20
51.4025352965
 30
0.0
 10
21.3617558745
 20
51.4875763963
 30
0.0
 10
21.3502287946
 20
51.6631826937
 30
0.0
 10
21.3028271898
 20
51.9298133049
 30
0.0
 10
21.2257345934
 20
52.2030253017
 30
0.0
 10
21.1206407619
 20
52.4769687062
 30
0.0
 10
20.9897529577
 20
52.7458445899
 30
0.0
 10
20.8358766921
 20
53.0039160127
 30
0.0
 10
20.6622861147
 20
53.2456763198
 30
0.0
 10
20.472682219
 20
53.4659715921
 30
0.0
 10
20.2710931636
 20
53.6601173319
 30
0.0
 10
20.0617481857
 20
53.824006964
 30
0.0
 10
19.8490391785
 20
53.9541427978
 30
0.0
 10
19.668897395
 20
54.0337683426
 30
0.0
 10
19.5273958079
 20
54.0769197902
 30
0.0
 10
19.3943444395
 20
54.1053542588
 30
0.0
 10
19.2629600622
 20
54.1149890994
 30
0.0
 10
19.137275603
 20
54.1031941785
 30
0.0
 10
19.0487774191
 20
54.084314974
 30
0.0
 10
18.9649480357
 20
54.0553469185
 30
0.0
 10
18.9123748402
 20
54.0293185709
 30
0.0
 10
18.8871889576
 20
54.0147776375
 30
0.0
  0
LINE
  5
33C
100
AcDbEntity
  8
0
100
AcDbLine
 62
7
  6
BYLAYER
 10
41.9871868144
 20
40.8581072036
 11
41.9385206361
 21
41.2797527489
  0
LINE
  5
33D
100
AcDbEntity
  8
0
100
AcDbLine
 62
7
  6
BYLAYER
 10
41.9385169726
 20
41.787771644
 11
41.9871832656
 21
41.3502172814
  0
LINE
  5
33E
100
AcDbEntity
  8
0
100
AcDbLine
 62
7
  6
BYLAYER
 10
36.2602401627
 20
41.3502035155
 11
36.308906341
 21
41.7877581121
  0
SPLINE
  5
33F
100
AcDbEntity
  8
0
100
AcDbSpline
 62
7
  6
BYLAYER
 70
0
 71
3
 72
15
 73
11
 74
0
 42
0.0000001
 43
0.0000001
 44
0.0000000001
 40
0.0
 40
0.0
 40
0.0
 40
0.0
 40
0.1141484586
 40
0.2373150954
 40
0.3669627464
 40
0.4999840993
 40
0.6330141278
 40
0.7626540745
 40
0.8858626253
 40
1.0
 40
1.0
 40
1.0
 40
1.0
 10
40.0429598867
 20
13.4655783037
 30
0.0
 10
39.9800347334
 20
13.4292469582
 30
0.0
 10
39.8424366876
 20
13.3651685597
 30
0.0
 10
39.6183632939
 20
13.297054214
 30
0.0
 10
39.3757643024
 20
13.2551270863
 30
0.0
 10
39.123747846
 20
13.2409766582
 30
0.0
 10
38.8717385653
 20
13.2551343283
 30
0.0
 10
38.6291059544
 20
13.297031178
 30
0.0
 10
38.4050224425
 20
13.3651637014
 30
0.0
 10
38.2673985449
 20
13.4292316278
 30
0.0
 10
38.2044785002
 20
13.4655577108
 30
0.0
  0
SPLINE
  5
340
100
AcDbEntity
  8
0
100
AcDbSpline
 62
7
  6
BYLAYER
 70
0
 71
3
 72
13
 73
9
 74
0
 42
0.0000001
 43
0.0000001
 44
0.0000000001
 40
0.0
 40
0.0
 40
0.0
 40
0.0
 40
0.2722735715
 40
0.5324945326
 40
0.6560496969
 40
0.7746081987
 40
0.8888882043
 40
1.0
 40
1.0
 40
1.0
 40
1.0
 10
41.634332714
 20
41.4992137029
 30
0.0
 10
41.6713381753
 20
41.4992137919
 30
0.0
 10
41.7441374392
 20
41.4888595996
 30
0.0
 10
41.8262063521
 20
41.4498831612
 30
0.0
 10
41.878344679
 20
41.4052637824
 30
0.0
 10
41.9086808368
 20
41.36706774
 30
0.0
 10
41.9296006653
 20
41.3248672622
 30
0.0
 10
41.9367863802
 20
41.2947543519
 30
0.0
 10
41.9385206361
 20
41.2797527489
 30
0.0
  0
SPLINE
  5
341
100
AcDbEntity
  8
0
100
AcDbSpline
 62
7
  6
BYLAYER
 70
0
 71
3
 72
14
 73
10
 74
0
 42
0.0000001
 43
0.0000001
 44
0.0000000001
 40
0.0
 40
0.0
 40
0.0
 40
0.0
 40
0.1080464754
 40
0.2181321687
 40
0.3321060951
 40
0.4515026279
 40
0.5774652048
 40
0.7107274643
 40
1.0
 40
1.0
 40
1.0
 40
1.0
 10
40.6237049697
 20
14.1595755943
 30
0.0
 10
40.6237047646
 20
14.1311798234
 30
0.0
 10
40.6187890508
 20
14.0737350569
 30
0.0
 10
40.5967573565
 20
13.9888955567
 30
0.0
 10
40.5604403359
 20
13.9058727326
 30
0.0
 10
40.5102444282
 20
13.8255275407
 30
0.0
 10
40.4467498573
 20
13.748569762
 30
0.0
 10
40.3424397639
 20
13.6487202139
 30
0.0
 10
40.2502345777
 20
13.5852378238
 30
0.0
 10
40.1843964042
 20
13.5472250442
 30
0.0
  0
SPLINE
  5
342
100
AcDbEntity
  8
0
100
AcDbSpline
 62
7
  6
BYLAYER
 70
0
 71
3
 72
14
 73
10
 74
0
 42
0.0000001
 43
0.0000001
 44
0.0000000001
 40
0.0
 40
0.0
 40
0.0
 40
0.0
 40
0.111019638
 40
0.2252088474
 40
0.3436625831
 40
0.4671078068
 40
0.5954360871
 40
0.7279647599
 40
1.0
 40
1.0
 40
1.0
 40
1.0
 10
36.3089100045
 20
41.279739217
 30
0.0
 10
36.3106443264
 20
41.294741364
 30
0.0
 10
36.3178351471
 20
41.324854698
 30
0.0
 10
36.3387543008
 20
41.3670570987
 30
0.0
 10
36.3690825252
 20
41.4052554906
 30
0.0
 10
36.4075603596
 20
41.4381740379
 30
0.0
 10
36.4528070921
 20
41.4648743163
 30
0.0
 10
36.5205631194
 20
41.4912482118
 30
0.0
 10
36.5760928831
 20
41.4992015444
 30
0.0
 10
36.6130979863
 20
41.4992016334
 30
0.0
  0
SPLINE
  5
343
100
AcDbEntity
  8
0
100
AcDbSpline
 62
7
  6
BYLAYER
 70
0
 71
3
 72
20
 73
16
 74
0
 42
0.0000001
 43
0.0000001
 44
0.0000000001
 40
0.0
 40
0.0
 40
0.0
 40
0.0
 40
0.0457977707
 40
0.0919323402
 40
0.1392608207
 40
0.1885371473
 40
0.240356457
 40
0.2951431643
 40
0.3531459695
 40
0.4144630384
 40
0.4790537509
 40
0.5467682613
 40
0.6904156279
 40
0.842696644
 40
1.0
 40
1.0
 40
1.0
 40
1.0
 10
42.1179580421
 20
40.2314995816
 30
0.0
 10
42.1240658647
 20
40.1746440708
 30
0.0
 10
42.12656759
 20
40.0592139375
 30
0.0
 10
42.1002915766
 20
39.8865202026
 30
0.0
 10
42.0444247654
 20
39.7164536069
 30
0.0
 10
41.959706292
 20
39.5508684189
 30
0.0
 10
41.8472156205
 20
39.3913235704
 30
0.0
 10
41.7081669521
 20
39.239307682
 30
0.0
 10
41.5440076705
 20
39.0961714711
 30
0.0
 10
41.3563445127
 20
38.9632399271
 30
0.0
 10
41.1470048839
 20
38.8417119873
 30
0.0
 10
40.8355838548
 20
38.693554459
 30
0.0
 10
40.4045208447
 20
38.545778937
 30
0.0
 10
39.8488402076
 20
38.4321688222
 30
0.0
 10
39.462630588
 20
38.3996909144
 30
0.0
 10
39.2662974517
 20
38.3942899269
 30
0.0
  0
SPLINE
  5
344
100
AcDbEntity
  8
0
100
AcDbSpline
 62
7
  6
BYLAYER
 70
0
 71
3
 72
12
 73
8
 74
0
 42
0.0000001
 43
0.0000001
 44
0.0000000001
 40
0.0
 40
0.0
 40
0.0
 40
0.0
 40
0.115735647
 40
0.2329842806
 40
0.4745327178
 40
0.7292762561
 40
1.0
 40
1.0
 40
1.0
 40
1.0
 10
41.9324630347
 20
41.8194863108
 30
0.0
 10
41.9188606716
 20
41.8695059156
 30
0.0
 10
41.8849582625
 20
41.9685440849
 30
0.0
 10
41.7920743725
 20
42.1601735262
 30
0.0
 10
41.630211381
 20
42.3850901255
 30
0.0
 10
41.3782849606
 20
42.6210683564
 30
0.0
 10
41.1819215426
 20
42.7526632162
 30
0.0
 10
41.076912929
 20
42.813288596
 30
0.0
  0
SPLINE
  5
345
100
AcDbEntity
  8
0
100
AcDbSpline
 62
7
  6
BYLAYER
 70
0
 71
3
 72
23
 73
19
 74
0
 42
0.0000001
 43
0.0000001
 44
0.0000000001
 40
0.0
 40
0.0
 40
0.0
 40
0.0
 40
0.0609190361
 40
0.1248084206
 40
0.1911787315
 40
0.2595295123
 40
0.329168499
 40
0.3993295912
 40
0.4692243153
 40
0.538074637
 40
0.605167918
 40
0.669898176
 40
0.7318209834
 40
0.7907017173
 40
0.846553722
 40
0.8996839528
 40
0.9505792856
 40
1.0
 40
1.0
 40
1.0
 40
1.0
 10
41.076912929
 20
42.813288596
 30
0.0
 10
40.9818609688
 20
42.8681656293
 30
0.0
 10
40.7801594909
 20
42.9688182675
 30
0.0
 10
40.4571319615
 20
43.089865311
 30
0.0
 10
40.1111966527
 20
43.1833067629
 30
0.0
 10
39.7482924909
 20
43.2480095217
 30
0.0
 10
39.3745009881
 20
43.283097334
 30
0.0
 10
38.9963283609
 20
43.2880440241
 30
0.0
 10
38.6203872699
 20
43.262770256
 30
0.0
 10
38.2532174483
 20
43.2076555036
 30
0.0
 10
37.9011181564
 20
43.1234886524
 30
0.0
 10
37.5699918701
 20
43.01133867
 30
0.0
 10
37.2652276823
 20
42.8724937839
 30
0.0
 10
36.9916991379
 20
42.7082557957
 30
0.0
 10
36.7539529816
 20
42.519761893
 30
0.0
 10
36.5567284864
 20
42.3080738079
 30
0.0
 10
36.4053202872
 20
42.0749633776
 30
0.0
 10
36.3383239312
 20
41.9053911882
 30
0.0
 10
36.3149599026
 20
41.8194714512
 30
0.0
  0
SPLINE
  5
346
100
AcDbEntity
  8
0
100
AcDbSpline
 62
7
  6
BYLAYER
 70
0
 71
3
 72
14
 73
10
 74
0
 42
0.0000001
 43
0.0000001
 44
0.0000000001
 40
0.0
 40
0.0
 40
0.0
 40
0.0
 40
0.2892447884
 40
0.4225660761
 40
0.548513717
 40
0.6678893093
 40
0.781862689
 40
0.8919529104
 40
1.0
 40
1.0
 40
1.0
 40
1.0
 10
38.0630577327
 20
13.5472093635
 30
0.0
 10
37.9972223997
 20
13.5852185508
 30
0.0
 10
37.9050150532
 20
13.6487168878
 30
0.0
 10
37.8006770886
 20
13.7485519727
 30
0.0
 10
37.7371794413
 20
13.8255215548
 30
0.0
 10
37.686995316
 20
13.9058667575
 30
0.0
 10
37.6506761504
 20
13.9888871243
 30
0.0
 10
37.6286371744
 20
14.0737298352
 30
0.0
 10
37.6237218022
 20
14.1311785277
 30
0.0
 10
37.6237220074
 20
14.1595755942
 30
0.0
  0
SPLINE
  5
347
100
AcDbEntity
  8
0
100
AcDbSpline
 62
7
  6
BYLAYER
 70
0
 71
3
 72
23
 73
19
 74
0
 42
0.0000001
 43
0.0000001
 44
0.0000000001
 40
0.0
 40
0.0
 40
0.0
 40
0.0
 40
0.0606881795
 40
0.1250219554
 40
0.1923711933
 40
0.2620667133
 40
0.3333010043
 40
0.4052107043
 40
0.4769118989
 40
0.5475246038
 40
0.6162128209
 40
0.6822159253
 40
0.7448872334
 40
0.8037440436
 40
0.8585097908
 40
0.9091774504
 40
0.9561109175
 40
1.0
 40
1.0
 40
1.0
 40
1.0
 10
37.3205115031
 20
40.7162843559
 30
0.0
 10
37.4050559301
 20
40.6674737125
 30
0.0
 10
37.5854351702
 20
40.5774420437
 30
0.0
 10
37.8754831439
 20
40.4683007996
 30
0.0
 10
38.1883926474
 20
40.3828095888
 30
0.0
 10
38.5183481852
 20
40.322499357
 30
0.0
 10
38.8593910199
 20
40.2884529032
 30
0.0
 10
39.2052702925
 20
40.2812928487
 30
0.0
 10
39.5496547493
 20
40.3011619314
 30
0.0
 10
39.8862443294
 20
40.3476952675
 30
0.0
 10
40.2088925768
 20
40.4200272849
 30
0.0
 10
40.5117192045
 20
40.5168659825
 30
0.0
 10
40.7892305293
 20
40.6364829336
 30
0.0
 10
41.0364245771
 20
40.7767721178
 30
0.0
 10
41.2488349067
 20
40.9353336358
 30
0.0
 10
41.42261639
 20
41.1096387062
 30
0.0
 10
41.5542427128
 20
41.2967944668
 30
0.0
 10
41.613522296
 20
41.4317505496
 30
0.0
 10
41.634332714
 20
41.4992137029
 30
0.0
  0
SPLINE
  5
348
100
AcDbEntity
  8
0
100
AcDbSpline
 62
7
  6
BYLAYER
 70
0
 71
3
 72
11
 73
7
 74
0
 42
0.0000001
 43
0.0000001
 44
0.0000000001
 40
0.0
 40
0.0
 40
0.0
 40
0.0
 40
0.2203056624
 40
0.4581337891
 40
0.7175945159
 40
1.0
 40
1.0
 40
1.0
 40
1.0
 10
36.6130979863
 20
41.4992016334
 30
0.0
 10
36.6364363317
 20
41.423547102
 30
0.0
 10
36.7055112857
 20
41.2721028357
 30
0.0
 10
36.8619148969
 20
41.0650241442
 30
0.0
 10
37.069805799
 20
40.8752125873
 30
0.0
 10
37.2326183645
 20
40.7670283351
 30
0.0
 10
37.3205115031
 20
40.7162843559
 30
0.0
  0
SPLINE
  5
349
100
AcDbEntity
  8
0
100
AcDbSpline
 62
7
  6
BYLAYER
 70
0
 71
3
 72
11
 73
7
 74
0
 42
0.0000001
 43
0.0000001
 44
0.0000000001
 40
0.0
 40
0.0
 40
0.0
 40
0.0
 40
0.2547691144
 40
0.5121506344
 40
0.7632881808
 40
1.0
 40
1.0
 40
1.0
 40
1.0
 10
38.2942366602
 20
39.9601820722
 30
0.0
 10
38.5050580171
 20
39.9231326729
 30
0.0
 10
38.934572102
 20
39.878473779
 30
0.0
 10
39.5773954866
 20
39.8957127825
 30
0.0
 10
40.1974310645
 20
39.9950544151
 30
0.0
 10
40.5906123847
 20
40.1177041229
 30
0.0
 10
40.7745973333
 20
40.1932228343
 30
0.0
  0
SPLINE
  5
34A
100
AcDbEntity
  8
0
100
AcDbSpline
 62
7
  6
BYLAYER
 70
0
 71
3
 72
14
 73
10
 74
0
 42
0.0000001
 43
0.0000001
 44
0.0000000001
 40
0.0
 40
0.0
 40
0.0
 40
0.0
 40
0.2907403883
 40
0.4257528674
 40
0.5535062582
 40
0.6741301091
 40
0.7881307061
 40
0.8963792668
 40
1.0
 40
1.0
 40
1.0
 40
1.0
 10
40.7745973333
 20
40.1932228343
 30
0.0
 10
40.9221420026
 20
40.2537842193
 30
0.0
 10
41.1327297325
 20
40.3579493349
 30
0.0
 10
41.3844682592
 20
40.5283642357
 30
0.0
 10
41.5464409527
 20
40.6631411298
 30
0.0
 10
41.6845591158
 20
40.806732499
 30
0.0
 10
41.7974499576
 20
40.9578706133
 30
0.0
 10
41.8837584339
 20
41.1151009615
 30
0.0
 10
41.9236667563
 20
41.2248850713
 30
0.0
 10
41.9385206361
 20
41.2797527489
 30
0.0
  0
SPLINE
  5
34B
100
AcDbEntity
  8
0
100
AcDbSpline
 62
7
  6
BYLAYER
 70
0
 71
3
 72
12
 73
8
 74
0
 42
0.0000001
 43
0.0000001
 44
0.0000000001
 40
0.0
 40
0.0
 40
0.0
 40
0.0
 40
0.2667484757
 40
0.5249315847
 40
0.7689368858
 40
0.8858946648
 40
1.0
 40
1.0
 40
1.0
 40
1.0
 10
36.6130942631
 20
42.0155008836
 30
0.0
 10
36.5791925366
 20
42.0155008021
 30
0.0
 10
36.5120851531
 20
42.0063496649
 30
0.0
 10
36.4215549198
 20
41.9661735158
 30
0.0
 10
36.361787691
 20
41.9124174942
 30
0.0
 10
36.3294094278
 20
41.8610891303
 30
0.0
 10
36.3187761561
 20
41.8334629388
 30
0.0
 10
36.314969294
 20
41.8194695907
 30
0.0
  0
SPLINE
  5
34C
100
AcDbEntity
  8
0
100
AcDbSpline
 62
7
  6
BYLAYER
 70
0
 71
3
 72
23
 73
19
 74
0
 42
0.0000001
 43
0.0000001
 44
0.0000000001
 40
0.0
 40
0.0
 40
0.0
 40
0.0
 40
0.0606881795
 40
0.1250219554
 40
0.1923711933
 40
0.2620667133
 40
0.3333010043
 40
0.4052107043
 40
0.4769118989
 40
0.5475246038
 40
0.6162128209
 40
0.6822159253
 40
0.7448872334
 40
0.8037440436
 40
0.8585097908
 40
0.9091774504
 40
0.9561109175
 40
1.0
 40
1.0
 40
1.0
 40
1.0
 10
40.926915474
 20
42.7984302306
 30
0.0
 10
40.842371047
 20
42.847240874
 30
0.0
 10
40.6619918069
 20
42.9372725428
 30
0.0
 10
40.3719438332
 20
43.0464137869
 30
0.0
 10
40.0590343297
 20
43.1319049977
 30
0.0
 10
39.7290787919
 20
43.1922152295
 30
0.0
 10
39.3880359572
 20
43.2262616833
 30
0.0
 10
39.0421566846
 20
43.2334217378
 30
0.0
 10
38.6977722278
 20
43.2135526551
 30
0.0
 10
38.3611826477
 20
43.167019319
 30
0.0
 10
38.0385344003
 20
43.0946873016
 30
0.0
 10
37.7357077726
 20
42.997848604
 30
0.0
 10
37.4581964478
 20
42.8782316529
 30
0.0
 10
37.2110024001
 20
42.7379424687
 30
0.0
 10
36.9985920704
 20
42.5793809507
 30
0.0
 10
36.8248105871
 20
42.4050758803
 30
0.0
 10
36.6931842643
 20
42.2179201197
 30
0.0
 10
36.6339046811
 20
42.0829640369
 30
0.0
 10
36.6130942631
 20
42.0155008836
 30
0.0
  0
SPLINE
  5
34D
100
AcDbEntity
  8
0
100
AcDbSpline
 62
7
  6
BYLAYER
 70
0
 71
3
 72
11
 73
7
 74
0
 42
0.0000001
 43
0.0000001
 44
0.0000000001
 40
0.0
 40
0.0
 40
0.0
 40
0.0
 40
0.2232636766
 40
0.4622219822
 40
0.7205127727
 40
1.0
 40
1.0
 40
1.0
 40
1.0
 10
41.6343289908
 20
42.0155129531
 30
0.0
 10
41.6132630801
 20
42.0838010677
 30
0.0
 10
41.5530133688
 20
42.220403953
 30
0.0
 10
41.4189838154
 20
42.4096195458
 30
0.0
 10
41.2418576349
 20
42.585565666
 30
0.0
 10
41.1028246095
 20
42.6880791867
 30
0.0
 10
41.0277569106
 20
42.7367404363
 30
0.0
  0
SPLINE
  5
34E
100
AcDbEntity
  8
0
100
AcDbSpline
 62
7
  6
BYLAYER
 70
0
 71
3
 72
12
 73
8
 74
0
 42
0.0000001
 43
0.0000001
 44
0.0000000001
 40
0.0
 40
0.0
 40
0.0
 40
0.0
 40
0.114114429
 40
0.2310750661
 40
0.4750739534
 40
0.7332522234
 40
1.0
 40
1.0
 40
1.0
 40
1.0
 10
41.9324516692
 20
41.8194841159
 30
0.0
 10
41.9286431658
 20
41.8334781056
 30
0.0
 10
41.9180077411
 20
41.8611043641
 30
0.0
 10
41.8856365237
 20
41.9124377124
 30
0.0
 10
41.8258631736
 20
41.9661862185
 30
0.0
 10
41.7353371781
 20
42.0063628829
 30
0.0
 10
41.6682303814
 20
42.0155130346
 30
0.0
 10
41.6343289908
 20
42.0155129531
 30
0.0
  0
SPLINE
  5
34F
100
AcDbEntity
  8
0
100
AcDbSpline
 62
7
  6
BYLAYER
 70
0
 71
3
 72
9
 73
5
 74
0
 42
0.0000001
 43
0.0000001
 44
0.0000000001
 40
0.0
 40
0.0
 40
0.0
 40
0.0
 40
0.2452864518
 40
1.0
 40
1.0
 40
1.0
 40
1.0
 10
36.3089100045
 20
41.279739217
 30
0.0
 10
36.3138822672
 20
41.2613735359
 30
0.0
 10
36.3362542083
 20
41.1870764394
 30
0.0
 10
36.3668674349
 20
41.1153206217
 30
0.0
 10
36.3937480639
 20
41.0633136177
 30
0.0
  0
SPLINE
  5
350
100
AcDbEntity
  8
0
100
AcDbSpline
 62
7
  6
BYLAYER
 70
0
 71
3
 72
9
 73
5
 74
0
 42
0.0000001
 43
0.0000001
 44
0.0000000001
 40
0.0
 40
0.0
 40
0.0
 40
0.0
 40
0.5022213777
 40
1.0
 40
1.0
 40
1.0
 40
1.0
 10
41.9871868144
 20
40.8581072036
 30
0.0
 10
42.0018901
 20
40.9151438193
 30
0.0
 10
42.0213913179
 20
41.0315056847
 30
0.0
 10
42.0194150117
 20
41.1495066349
 30
0.0
 10
42.0131813775
 20
41.2075531166
 30
0.0
  0
SPLINE
  5
351
100
AcDbEntity
  8
0
100
AcDbSpline
 62
7
  6
BYLAYER
 70
0
 71
3
 72
9
 73
5
 74
0
 42
0.0000001
 43
0.0000001
 44
0.0000000001
 40
0.0
 40
0.0
 40
0.0
 40
0.0
 40
0.2444744811
 40
1.0
 40
1.0
 40
1.0
 40
1.0
 10
40.1843964042
 20
13.5472250442
 30
0.0
 10
40.1731451449
 20
13.54072894
 30
0.0
 10
40.1267562989
 20
13.5147950023
 30
0.0
 10
40.0789818357
 20
13.4913589841
 30
0.0
 10
40.0423307284
 20
13.4749655062
 30
0.0
  0
SPLINE
  5
352
100
AcDbEntity
  8
0
100
AcDbSpline
 62
7
  6
BYLAYER
 70
0
 71
3
 72
15
 73
11
 74
0
 42
0.0000001
 43
0.0000001
 44
0.0000000001
 40
0.0
 40
0.0
 40
0.0
 40
0.0
 40
0.1173381789
 40
0.2412067942
 40
0.3696374627
 40
0.5003837021
 40
0.6310784754
 40
0.7593459624
 40
0.882943671
 40
1.0
 40
1.0
 40
1.0
 40
1.0
 10
40.0423307284
 20
13.4749655062
 30
0.0
 10
39.9746658973
 20
13.4447000656
 30
0.0
 10
39.8313969933
 20
13.3915564505
 30
0.0
 10
39.6044016453
 20
13.3350908005
 30
0.0
 10
39.3644557709
 20
13.3008159305
 30
0.0
 10
39.1180463629
 20
13.2896489427
 30
0.0
 10
38.8717903015
 20
13.30188743
 30
0.0
 10
38.632305005
 20
13.3372041273
 30
0.0
 10
38.4060166882
 20
13.3946420446
 30
0.0
 10
38.2633697713
 20
13.4484646619
 30
0.0
 10
38.196046545
 20
13.479054613
 30
0.0
  0
SPLINE
  5
353
100
AcDbEntity
  8
0
100
AcDbSpline
 62
7
  6
BYLAYER
 70
0
 71
3
 72
9
 73
5
 74
0
 42
0.0000001
 43
0.0000001
 44
0.0000000001
 40
0.0
 40
0.0
 40
0.0
 40
0.0
 40
0.2554254625
 40
1.0
 40
1.0
 40
1.0
 40
1.0
 10
38.196046545
 20
13.479054613
 30
0.0
 10
38.1844604676
 20
13.4843190301
 30
0.0
 10
38.1393375794
 20
13.5054446526
 30
0.0
 10
38.0951846658
 20
13.5286612896
 30
0.0
 10
38.0630577327
 20
13.5472093635
 30
0.0
  0
SPLINE
  5
354
100
AcDbEntity
  8
0
100
AcDbSpline
 62
7
  6
BYLAYER
 70
0
 71
3
 72
18
 73
14
 74
0
 42
0.0000001
 43
0.0000001
 44
0.0000000001
 40
0.0
 40
0.0
 40
0.0
 40
0.0
 40
0.1485489903
 40
0.2894277995
 40
0.4226067831
 40
0.5484936898
 40
0.6678195929
 40
0.7254032594
 40
0.7818084143
 40
0.8372394667
 40
0.8919196626
 40
0.9460889222
 40
1.0
 40
1.0
 40
1.0
 40
1.0
 10
32.6401059432
 20
51.8312169832
 30
0.0
 10
32.6401059432
 20
51.5837989924
 30
0.0
 10
32.6201588728
 20
51.1014047386
 30
0.0
 10
32.5252062179
 20
50.402845886
 30
0.0
 10
32.3665605229
 20
49.7544483173
 30
0.0
 10
32.14557657
 20
49.1625631937
 30
0.0
 10
31.9078554851
 20
48.7157377763
 30
0.0
 10
31.6884530319
 20
48.3946150116
 30
0.0
 10
31.5118155313
 20
48.1741844754
 30
0.0
 10
31.3216288829
 20
47.9719161459
 30
0.0
 10
31.1183392449
 20
47.7883004722
 30
0.0
 10
30.9024384289
 20
47.6238581331
 30
0.0
 10
30.7502997843
 20
47.5271553962
 30
0.0
 10
30.6725386648
 20
47.4822568036
 30
0.0
  0
SPLINE
  5
355
100
AcDbEntity
  8
0
100
AcDbSpline
 62
7
  6
BYLAYER
 70
0
 71
3
 72
33
 73
29
 74
0
 42
0.0000001
 43
0.0000001
 44
0.0000000001
 40
0.0
 40
0.0
 40
0.0
 40
0.0
 40
0.0213264317
 40
0.0428812274
 40
0.0648808007
 40
0.0875194517
 40
0.110962867
 40
0.1353431419
 40
0.1607597142
 40
0.1872780622
 40
0.214934813
 40
0.2437377557
 40
0.2736716388
 40
0.3046986622
 40
0.3367632071
 40
0.3697929483
 40
0.4383715226
 40
0.5096383929
 40
0.5826425493
 40
0.6563538324
 40
0.7297109961
 40
0.8016677027
 40
0.8368201281
 40
0.8712619349
 40
0.9048865275
 40
0.9376046865
 40
0.9693381061
 40
1.0
 40
1.0
 40
1.0
 40
1.0
 10
21.1725884437
 20
63.9367514988
 30
0.0
 10
21.2893010485
 20
64.0041403395
 30
0.0
 10
21.5329519979
 20
64.1247150386
 30
0.0
 10
21.9214179972
 20
64.259007859
 30
0.0
 10
22.3315116937
 20
64.3464692613
 30
0.0
 10
22.7607748852
 20
64.3867440136
 30
0.0
 10
23.2068231915
 20
64.3796982684
 30
0.0
 10
23.6672177229
 20
64.3255826076
 30
0.0
 10
24.1394773651
 20
64.2247234143
 30
0.0
 10
24.6211117689
 20
64.0778305979
 30
0.0
 10
25.109545104
 20
63.8856811097
 30
0.0
 10
25.6022150374
 20
63.649408103
 30
0.0
 10
26.0964803822
 20
63.3702567002
 30
0.0
 10
26.5897242129
 20
63.0497760458
 30
0.0
 10
27.0793117113
 20
62.6896725789
 30
0.0
 10
27.731799896
 20
62.1526260737
 30
0.0
 10
28.5200685474
 20
61.393427784
 30
0.0
 10
29.398654207
 20
60.3726061507
 30
0.0
 10
30.2030962583
 20
59.252255281
 30
0.0
 10
30.9161942254
 20
58.0563180466
 30
0.0
 10
31.5227124882
 20
56.810361569
 30
0.0
 10
31.9318348866
 20
55.7440477333
 30
0.0
 10
32.1938079645
 20
54.8884590914
 30
0.0
 10
32.3549223805
 20
54.2561119737
 30
0.0
 10
32.4813019792
 20
53.6315995875
 30
0.0
 10
32.5722852009
 20
53.0182196914
 30
0.0
 10
32.6273022339
 20
52.419372063
 30
0.0
 10
32.6401059432
 20
52.024982113
 30
0.0
 10
32.6401059432
 20
51.8312169832
 30
0.0
  0
SPLINE
  5
356
100
AcDbEntity
  8
0
100
AcDbSpline
 62
7
  6
BYLAYER
 70
0
 71
3
 72
18
 73
14
 74
0
 42
0.0000001
 43
0.0000001
 44
0.0000000001
 40
0.0
 40
0.0
 40
0.0
 40
0.0
 40
0.0539108668
 40
0.1080799303
 40
0.1627599609
 40
0.2181908553
 40
0.2745959085
 40
0.3321795196
 40
0.451505458
 40
0.5773924406
 40
0.7105716433
 40
0.8514509537
 40
1.0
 40
1.0
 40
1.0
 40
1.0
 10
17.6370693775
 20
61.8955305192
 30
0.0
 10
17.5593085475
 20
61.8506321332
 30
0.0
 10
17.4071703053
 20
61.7539300426
 30
0.0
 10
17.1912702764
 20
61.5894882238
 30
0.0
 10
16.9879814296
 20
61.4058730192
 30
0.0
 10
16.7977945754
 20
61.203605862
 30
0.0
 10
16.6211576001
 20
60.9831755736
 30
0.0
 10
16.4017547739
 20
60.662053341
 30
0.0
 10
16.1640334862
 20
60.2152279374
 30
0.0
 10
15.943048232
 20
59.623342745
 30
0.0
 10
15.7844021056
 20
58.9749438898
 30
0.0
 10
15.689449331
 20
58.2763837842
 30
0.0
 10
15.6695019793
 20
57.793988626
 30
0.0
 10
15.6695019793
 20
57.5465705498
 30
0.0
  0
SPLINE
  5
357
100
AcDbEntity
  8
0
100
AcDbSpline
 62
7
  6
BYLAYER
 70
0
 71
3
 72
15
 73
11
 74
0
 42
0.0000001
 43
0.0000001
 44
0.0000000001
 40
0.0
 40
0.0
 40
0.0
 40
0.0
 40
0.1123248959
 40
0.229217921
 40
0.3502490158
 40
0.4749979372
 40
0.6029454185
 40
0.7335116492
 40
0.8660800559
 40
1.0
 40
1.0
 40
1.0
 40
1.0
 10
15.6695019793
 20
57.5465705498
 30
0.0
 10
15.6695019793
 20
57.3160649477
 30
0.0
 10
15.6876493338
 20
56.8455382685
 30
0.0
 10
15.765051139
 20
56.1304593302
 30
0.0
 10
15.8926947229
 20
55.3967354486
 30
0.0
 10
16.0695581687
 20
54.6500207734
 30
0.0
 10
16.2942756511
 20
53.8958770076
 30
0.0
 10
16.5651855859
 20
53.1400193012
 30
0.0
 10
16.8802174691
 20
52.388197154
 30
0.0
 10
17.117268217
 20
51.8950656331
 30
0.0
 10
17.2425474802
 20
51.6504598935
 30
0.0
  0
SPLINE
  5
358
100
AcDbEntity
  8
0
100
AcDbSpline
 62
7
  6
BYLAYER
 70
0
 71
3
 72
14
 73
10
 74
0
 42
0.0000001
 43
0.0000001
 44
0.0000000001
 40
0.0
 40
0.0
 40
0.0
 40
0.0
 40
0.2681095288
 40
0.3963993654
 40
0.5213704603
 40
0.6435688161
 40
0.7636112013
 40
0.8821802507
 40
1.0
 40
1.0
 40
1.0
 40
1.0
 10
24.5811018639
 20
45.0702073327
 30
0.0
 10
24.8130131054
 20
45.0288521778
 30
0.0
 10
25.1610449676
 20
44.9911592452
 30
0.0
 10
25.6194968945
 20
44.9976517836
 30
0.0
 10
25.9482073492
 20
45.0303107376
 30
0.0
 10
26.2655920913
 20
45.090725058
 30
0.0
 10
26.5706281276
 20
45.178806536
 30
0.0
 10
26.8622651213
 20
45.2942001948
 30
0.0
 10
27.0473697817
 20
45.3892734056
 30
0.0
 10
27.1370193589
 20
45.4410362445
 30
0.0
  0
SPLINE
  5
359
100
AcDbEntity
  8
0
100
AcDbSpline
 62
7
  6
BYLAYER
 70
0
 71
3
 72
33
 73
29
 74
0
 42
0.0000001
 43
0.0000001
 44
0.0000000001
 40
0.0
 40
0.0
 40
0.0
 40
0.0
 40
0.0306618612
 40
0.0623951524
 40
0.0951131637
 40
0.1287376649
 40
0.1631793823
 40
0.1983317293
 40
0.2702884026
 40
0.3436457108
 40
0.4173572147
 40
0.490361588
 40
0.5616286942
 40
0.6302075171
 40
0.6632373643
 40
0.6953019775
 40
0.7263290334
 40
0.7562628963
 40
0.7850657872
 40
0.8127224534
 40
0.8392407108
 40
0.8646571903
 40
0.8890373867
 40
0.9124807339
 40
0.9351193339
 40
0.9571188595
 40
0.9786736126
 40
1.0
 40
1.0
 40
1.0
 40
1.0
 10
29.1045867571
 20
49.7899962139
 30
0.0
 10
29.1045867571
 20
49.9837611365
 30
0.0
 10
29.0917832932
 20
50.3781500768
 30
0.0
 10
29.0367663143
 20
50.9769957477
 30
0.0
 10
28.945783842
 20
51.590373405
 30
0.0
 10
28.8194046938
 20
52.2148837568
 30
0.0
 10
28.6582916452
 20
52.8472295308
 30
0.0
 10
28.3963189451
 20
53.7028169672
 30
0.0
 10
27.9871975257
 20
54.7691313723
 30
0.0
 10
27.3806790187
 20
56.0150900931
 30
0.0
 10
26.6675796774
 20
57.2110308015
 30
0.0
 10
25.8631352908
 20
58.3313852513
 30
0.0
 10
24.9845466109
 20
59.3522101708
 30
0.0
 10
24.1962747601
 20
60.1114105252
 30
0.0
 10
23.5437842559
 20
60.6484584369
 30
0.0
 10
23.054195126
 20
61.0085618849
 30
0.0
 10
22.5609506924
 20
61.3290425582
 30
0.0
 10
22.0666849683
 20
61.6081927787
 30
0.0
 10
21.5740157538
 20
61.8444649963
 30
0.0
 10
21.0855833406
 20
62.0366129057
 30
0.0
 10
20.6039504297
 20
62.1835047984
 30
0.0
 10
20.1316922259
 20
62.2843627695
 30
0.0
 10
19.6712991582
 20
62.3384779334
 30
0.0
 10
19.2252521044
 20
62.3455228949
 30
0.0
 10
18.7959899526
 20
62.3052482443
 30
0.0
 10
18.3858973132
 20
62.2177862752
 30
0.0
 10
17.9974319592
 20
62.0834941733
 30
0.0
 10
17.7537817651
 20
61.9629191752
 30
0.0
 10
17.6370693775
 20
61.8955305192
 30
0.0
  0
SPLINE
  5
35A
100
AcDbEntity
  8
0
100
AcDbSpline
 62
7
  6
BYLAYER
 70
0
 71
3
 72
18
 73
14
 74
0
 42
0.0000001
 43
0.0000001
 44
0.0000000001
 40
0.0
 40
0.0
 40
0.0
 40
0.0
 40
0.0539108668
 40
0.1080799303
 40
0.1627599609
 40
0.2181908553
 40
0.2745959085
 40
0.3321795196
 40
0.451505458
 40
0.5773924406
 40
0.7105716433
 40
0.8514509537
 40
1.0
 40
1.0
 40
1.0
 40
1.0
 10
27.1370193589
 20
45.4410362445
 30
0.0
 10
27.2147801888
 20
45.4859346304
 30
0.0
 10
27.3669184311
 20
45.582636721
 30
0.0
 10
27.5828184599
 20
45.7470785399
 30
0.0
 10
27.7861073067
 20
45.9306937445
 30
0.0
 10
27.976294161
 20
46.1329609016
 30
0.0
 10
28.1529311363
 20
46.35339119
 30
0.0
 10
28.3723339624
 20
46.6745134226
 30
0.0
 10
28.6100552502
 20
47.1213388262
 30
0.0
 10
28.8310405044
 20
47.7132240187
 30
0.0
 10
28.9896866307
 20
48.3616228739
 30
0.0
 10
29.0846394054
 20
49.0601829795
 30
0.0
 10
29.1045867571
 20
49.5425781376
 30
0.0
 10
29.1045867571
 20
49.7899962139
 30
0.0
  0
SPLINE
  5
35B
100
AcDbEntity
  8
0
100
AcDbSpline
 62
7
  6
BYLAYER
 70
0
 71
3
 72
14
 73
10
 74
0
 42
0.0000001
 43
0.0000001
 44
0.0000000001
 40
0.0
 40
0.0
 40
0.0
 40
0.0
 40
0.1080384808
 40
0.2181155941
 40
0.3320834023
 40
0.4514750365
 40
0.577409997
 40
0.7106520706
 40
1.0
 40
1.0
 40
1.0
 40
1.0
 10
9.4481012286
 20
29.9603423681
 30
0.0
 10
9.4071139866
 20
29.9366828604
 30
0.0
 10
9.3283120517
 20
29.8816971017
 30
0.0
 10
9.2241934285
 20
29.7792242867
 30
0.0
 10
9.1346351466
 20
29.6576076541
 30
0.0
 10
9.0605013408
 20
29.5182097926
 30
0.0
 10
9.0023114392
 20
29.3624538035
 30
0.0
 10
8.9451139812
 20
29.1286576167
 30
0.0
 10
8.9303419284
 20
28.9426330248
 30
0.0
 10
8.9303287209
 20
28.8158855302
 30
0.0
  0
SPLINE
  5
35C
100
AcDbEntity
  8
0
100
AcDbSpline
 62
7
  6
BYLAYER
 70
0
 71
3
 72
11
 73
7
 74
0
 42
0.0000001
 43
0.0000001
 44
0.0000000001
 40
0.0
 40
0.0
 40
0.0
 40
0.0
 40
0.2736185161
 40
0.5305902484
 40
0.7719970298
 40
1.0
 40
1.0
 40
1.0
 40
1.0
 10
22.0880339929
 20
29.0010970598
 30
0.0
 10
22.2373307154
 20
28.9324702595
 30
0.0
 10
22.5339222004
 20
28.8139536409
 30
0.0
 10
22.9829617027
 20
28.6938523259
 30
0.0
 10
23.4170729685
 20
28.6386056653
 30
0.0
 10
23.7003299133
 20
28.6459893918
 30
0.0
 10
23.8363775782
 20
28.6614293686
 30
0.0
  0
SPLINE
  5
35D
100
AcDbEntity
  8
0
100
AcDbSpline
 62
7
  6
BYLAYER
 70
0
 71
3
 72
15
 73
11
 74
0
 42
0.0000001
 43
0.0000001
 44
0.0000000001
 40
0.0
 40
0.0
 40
0.0
 40
0.0
 40
0.1464935486
 40
0.2859039345
 40
0.4181942134
 40
0.5438158289
 40
0.6635746915
 40
0.778569766
 40
0.8901690608
 40
1.0
 40
1.0
 40
1.0
 40
1.0
 10
10.8063329591
 20
25.6953640123
 30
0.0
 10
10.8582401801
 20
25.6690729068
 30
0.0
 10
10.961707567
 20
25.6218691818
 30
0.0
 10
11.1187255258
 20
25.5669321094
 30
0.0
 10
11.2725198594
 20
25.530207116
 30
0.0
 10
11.4217790336
 20
25.5120279669
 30
0.0
 10
11.5653251947
 20
25.5126473841
 30
0.0
 10
11.7019869958
 20
25.5321160579
 30
0.0
 10
11.83052754
 20
25.570382861
 30
0.0
 10
11.9103023439
 20
25.6084116201
 30
0.0
 10
11.9480833983
 20
25.6302203856
 30
0.0
  0
SPLINE
  5
35E
100
AcDbEntity
  8
0
100
AcDbSpline
 62
7
  6
BYLAYER
 70
0
 71
3
 72
15
 73
11
 74
0
 42
0.0000001
 43
0.0000001
 44
0.0000000001
 40
0.0
 40
0.0
 40
0.0
 40
0.0
 40
0.1164696476
 40
0.2409802166
 40
0.3710262773
 40
0.5036856294
 40
0.6358336285
 40
0.7643905006
 40
0.886525762
 40
1.0
 40
1.0
 40
1.0
 40
1.0
 10
8.9331046012
 20
28.3826805903
 30
0.0
 10
8.9390568624
 20
28.2672040384
 30
0.0
 10
8.9703759496
 20
28.0290521598
 30
0.0
 10
9.0656098951
 20
27.6723516282
 30
0.0
 10
9.2076338537
 20
27.3142283283
 30
0.0
 10
9.3915127686
 20
26.9671614253
 30
0.0
 10
9.6108768157
 20
26.6431334849
 30
0.0
 10
9.8581729096
 20
26.353373279
 30
0.0
 10
10.1247859869
 20
26.1078666121
 30
0.0
 10
10.3176621763
 20
25.973693315
 30
0.0
 10
10.4152193029
 20
25.9173551287
 30
0.0
  0
SPLINE
  5
35F
100
AcDbEntity
  8
0
100
AcDbSpline
 62
7
  6
BYLAYER
 70
0
 71
3
 72
9
 73
5
 74
0
 42
0.0000001
 43
0.0000001
 44
0.0000000001
 40
0.0
 40
0.0
 40
0.0
 40
0.0
 40
0.2455717901
 40
1.0
 40
1.0
 40
1.0
 40
1.0
 10
21.3022777093
 20
31.4997788277
 30
0.0
 10
21.2866805986
 20
31.5639468479
 30
0.0
 10
21.2191461104
 20
31.8242593749
 30
0.0
 10
21.1359499226
 20
32.0804607183
 30
0.0
 10
21.0654336471
 20
32.2706832891
 30
0.0
  0
SPLINE
  5
360
100
AcDbEntity
  8
0
100
AcDbSpline
 62
7
  6
BYLAYER
 70
0
 71
3
 72
15
 73
11
 74
0
 42
0.0000001
 43
0.0000001
 44
0.0000000001
 40
0.0
 40
0.0
 40
0.0
 40
0.0
 40
0.1062308369
 40
0.2147826783
 40
0.3277352792
 40
0.4467471958
 40
0.5729834022
 40
0.7071764079
 40
0.8496307844
 40
1.0
 40
1.0
 40
1.0
 40
1.0
 10
11.9480833983
 20
25.6302203856
 30
0.0
 10
11.9922854416
 20
25.6557356077
 30
0.0
 10
12.0770627557
 20
25.7157567631
 30
0.0
 10
12.1876471749
 20
25.8289262348
 30
0.0
 10
12.2810443445
 20
25.9641247027
 30
0.0
 10
12.3563098401
 20
26.1195554056
 30
0.0
 10
12.4127833978
 20
26.2934146682
 30
0.0
 10
12.4500072865
 20
26.4837924258
 30
0.0
 10
12.4675928309
 20
26.6885306053
 30
0.0
 10
12.4662686065
 20
26.8294325303
 30
0.0
 10
12.4625497326
 20
26.9015803616
 30
0.0
  0
SPLINE
  5
361
100
AcDbEntity
  8
0
100
AcDbSpline
 62
7
  6
BYLAYER
 70
0
 71
3
 72
18
 73
14
 74
0
 42
0.0000001
 43
0.0000001
 44
0.0000000001
 40
0.0
 40
0.0
 40
0.0
 40
0.0
 40
0.0574741761
 40
0.1173665548
 40
0.2429657275
 40
0.374125145
 40
0.5076239674
 40
0.6400562962
 40
0.7680997609
 40
0.8295541561
 40
0.8888638983
 40
0.9457681673
 40
1.0
 40
1.0
 40
1.0
 40
1.0
 10
12.4625497326
 20
26.9015803616
 30
0.0
 10
12.4589309624
 20
26.9717861358
 30
0.0
 10
12.4456599124
 20
27.1148993611
 30
0.0
 10
12.3966844539
 20
27.4082230814
 30
0.0
 10
12.2935622106
 20
27.7827835527
 30
0.0
 10
12.1121191137
 20
28.2253969633
 30
0.0
 10
11.8776671603
 20
28.6519593252
 30
0.0
 10
11.5990654328
 20
29.0463697182
 30
0.0
 10
11.3351288994
 20
29.3400724456
 30
0.0
 10
11.1103914411
 20
29.5455666969
 30
0.0
 10
10.9401112893
 20
29.6809009295
 30
0.0
 10
10.7674857024
 20
29.7981411078
 30
0.0
 10
10.6490271297
 20
29.8652262582
 30
0.0
 10
10.5898516678
 20
29.8951987414
 30
0.0
  0
SPLINE
  5
362
100
AcDbEntity
  8
0
100
AcDbSpline
 62
7
  6
BYLAYER
 70
0
 71
3
 72
19
 73
15
 74
0
 42
0.0000001
 43
0.0000001
 44
0.0000000001
 40
0.0
 40
0.0
 40
0.0
 40
0.0
 40
0.1461675637
 40
0.2793694569
 40
0.3416318068
 40
0.4014421007
 40
0.4593042895
 40
0.5158194989
 40
0.5716800886
 40
0.6276173824
 40
0.6843604457
 40
0.7425837346
 40
0.8655162569
 40
1.0
 40
1.0
 40
1.0
 40
1.0
 10
10.3243172903
 20
29.3958954773
 30
0.0
 10
10.2474560163
 20
29.4348258578
 30
0.0
 10
10.0949230035
 20
29.4989457417
 30
0.0
 10
9.8969590806
 20
29.5430503636
 30
0.0
 10
9.7464000133
 20
29.551114395
 30
0.0
 10
9.6402918768
 20
29.5442210141
 30
0.0
 10
9.5392132119
 20
29.5245771515
 30
0.0
 10
9.4438960505
 20
29.4921976933
 30
0.0
 10
9.355040222
 20
29.4473281287
 30
0.0
 10
9.2733025547
 20
29.3902827107
 30
0.0
 10
9.199292022
 20
29.3214701724
 30
0.0
 10
9.1099697163
 20
29.2128923237
 30
0.0
 10
9.0205187002
 20
29.047661922
 30
0.0
 10
8.9777899838
 20
28.9009944673
 30
0.0
 10
8.9620054679
 20
28.8233107073
 30
0.0
  0
SPLINE
  5
363
100
AcDbEntity
  8
0
100
AcDbSpline
 62
7
  6
BYLAYER
 70
0
 71
3
 72
9
 73
5
 74
0
 42
0.0000001
 43
0.0000001
 44
0.0000000001
 40
0.0
 40
0.0
 40
0.0
 40
0.0
 40
0.2395286471
 40
1.0
 40
1.0
 40
1.0
 40
1.0
 10
8.9620054679
 20
28.8233107073
 30
0.0
 10
8.9566659296
 20
28.7970320802
 30
0.0
 10
8.9374965814
 20
28.6866934796
 30
0.0
 10
8.9303365998
 20
28.5744144116
 30
0.0
 10
8.9303275568
 20
28.4892784458
 30
0.0
  0
SPLINE
  5
364
100
AcDbEntity
  8
0
100
AcDbSpline
 62
7
  6
BYLAYER
 70
0
 71
3
 72
16
 73
12
 74
0
 42
0.0000001
 43
0.0000001
 44
0.0000000001
 40
0.0
 40
0.0
 40
0.0
 40
0.0
 40
0.1173059998
 40
0.2429245646
 40
0.3741035255
 40
0.507621982
 40
0.6400737995
 40
0.7681363759
 40
0.8888463675
 40
0.9457597329
 40
1.0
 40
1.0
 40
1.0
 40
1.0
 10
11.8973730354
 20
26.8812730298
 30
0.0
 10
11.8911697936
 20
27.0016187202
 30
0.0
 10
11.857681546
 20
27.2499993259
 30
0.0
 10
11.7554417932
 20
27.6214288922
 30
0.0
 10
11.6030038628
 20
27.993288627
 30
0.0
 10
11.4060811427
 20
28.3515671339
 30
0.0
 10
11.1720262239
 20
28.6829160808
 30
0.0
 10
10.9096358964
 20
28.9748671248
 30
0.0
 10
10.6707315781
 20
29.180416443
 30
0.0
 10
10.4735335364
 20
29.3143675199
 30
0.0
 10
10.3740245055
 20
29.3707186789
 30
0.0
 10
10.3243172903
 20
29.3958954773
 30
0.0
  0
SPLINE
  5
365
100
AcDbEntity
  8
0
100
AcDbSpline
 62
7
  6
BYLAYER
 70
0
 71
3
 72
9
 73
5
 74
0
 42
0.0000001
 43
0.0000001
 44
0.0000000001
 40
0.0
 40
0.0
 40
0.0
 40
0.0
 40
0.2620178643
 40
1.0
 40
1.0
 40
1.0
 40
1.0
 10
10.5061603463
 20
25.8680581428
 30
0.0
 10
10.5337391587
 20
25.8540894223
 30
0.0
 10
10.6403288791
 20
25.8035263817
 30
0.0
 10
10.7525633197
 20
25.7642920986
 30
0.0
 10
10.8373265974
 20
25.7443735107
 30
0.0
  0
SPLINE
  5
366
100
AcDbEntity
  8
0
100
AcDbSpline
 62
7
  6
BYLAYER
 70
0
 71
3
 72
19
 73
15
 74
0
 42
0.0000001
 43
0.0000001
 44
0.0000000001
 40
0.0
 40
0.0
 40
0.0
 40
0.0
 40
0.1259899129
 40
0.1850527706
 40
0.2420760624
 40
0.29767798
 40
0.3525770169
 40
0.4075371442
 40
0.463320632
 40
0.5206309595
 40
0.580082429
 40
0.7070254503
 40
0.8468343666
 40
1.0
 40
1.0
 40
1.0
 40
1.0
 10
10.8373265974
 20
25.7443735107
 30
0.0
 10
10.913232935
 20
25.7265362221
 30
0.0
 10
11.0279450601
 20
25.7108324152
 30
0.0
 10
11.1779096874
 20
25.7181133224
 30
0.0
 10
11.2828071872
 20
25.7370372537
 30
0.0
 10
11.3816270181
 20
25.7695357799
 30
0.0
 10
11.4736100546
 20
25.8153607536
 30
0.0
 10
11.5580250006
 20
25.8741656366
 30
0.0
 10
11.6341970573
 20
25.9454885162
 30
0.0
 10
11.7016138218
 20
26.0287192857
 30
0.0
 10
11.7808399432
 20
26.1574834581
 30
0.0
 10
11.8545243146
 20
26.3473604652
 30
0.0
 10
11.8997725588
 20
26.6045260423
 30
0.0
 10
11.9022526692
 20
26.7866059324
 30
0.0
 10
11.8973730354
 20
26.8812730298
 30
0.0
  0
SPLINE
  5
367
100
AcDbEntity
  8
0
100
AcDbSpline
 62
7
  6
BYLAYER
 70
0
 71
3
 72
15
 73
11
 74
0
 42
0.0000001
 43
0.0000001
 44
0.0000000001
 40
0.0
 40
0.0
 40
0.0
 40
0.0
 40
0.1464935486
 40
0.2859039345
 40
0.4181942134
 40
0.5438158289
 40
0.6635746915
 40
0.778569766
 40
0.8901690608
 40
1.0
 40
1.0
 40
1.0
 40
1.0
 10
10.5898516678
 20
29.8951987414
 30
0.0
 10
10.5379444468
 20
29.9214898469
 30
0.0
 10
10.4344770598
 20
29.9686935719
 30
0.0
 10
10.277459101
 20
30.0236306442
 30
0.0
 10
10.1236647675
 20
30.0603556376
 30
0.0
 10
9.9744055934
 20
30.0785347868
 30
0.0
 10
9.8308594322
 20
30.0779153696
 30
0.0
 10
9.6941976311
 20
30.0584466958
 30
0.0
 10
9.5656570869
 20
30.0201798927
 30
0.0
 10
9.4858822831
 20
29.9821511336
 30
0.0
 10
9.4481012286
 20
29.9603423681
 30
0.0
  0
SPLINE
  5
368
100
AcDbEntity
  8
0
100
AcDbSpline
 62
7
  6
BYLAYER
 70
0
 71
3
 72
11
 73
7
 74
0
 42
0.0000001
 43
0.0000001
 44
0.0000000001
 40
0.0
 40
0.0
 40
0.0
 40
0.0
 40
0.2625256741
 40
0.5179114211
 40
0.7642677829
 40
1.0
 40
1.0
 40
1.0
 40
1.0
 10
21.2515940922
 20
31.5048293741
 30
0.0
 10
21.3560821412
 20
31.2359222925
 30
0.0
 10
21.5445624224
 20
30.6983384893
 30
0.0
 10
21.7660975758
 20
29.8874633718
 30
0.0
 10
21.9203762973
 20
29.0910693924
 30
0.0
 10
21.9786086394
 20
28.5637272731
 30
0.0
 10
21.9951711464
 20
28.3052071011
 30
0.0
  0
SPLINE
  5
369
100
AcDbEntity
  8
0
100
AcDbSpline
 62
7
  6
BYLAYER
 70
0
 71
3
 72
13
 73
9
 74
0
 42
0.0000001
 43
0.0000001
 44
0.0000000001
 40
0.0
 40
0.0
 40
0.0
 40
0.0
 40
0.1123729889
 40
0.2289446549
 40
0.3494370577
 40
0.4735864415
 40
0.7315759605
 40
1.0
 40
1.0
 40
1.0
 40
1.0
 10
20.3146182197
 20
36.6340227567
 30
0.0
 10
20.3038545301
 20
36.4376308792
 30
0.0
 10
20.2956986408
 20
36.0366550342
 30
0.0
 10
20.3214127348
 20
35.4252301736
 30
0.0
 10
20.3848512962
 20
34.7958356727
 30
0.0
 10
20.5208828301
 20
33.9262849757
 30
0.0
 10
20.7848128253
 20
32.8165860383
 30
0.0
 10
21.0814314688
 20
31.9427544275
 30
0.0
 10
21.2515940922
 20
31.5048293741
 30
0.0
  0
SPLINE
  5
36A
100
AcDbEntity
  8
0
100
AcDbSpline
 62
7
  6
BYLAYER
 70
0
 71
3
 72
24
 73
20
 74
0
 42
0.0000001
 43
0.0000001
 44
0.0000000001
 40
0.0
 40
0.0
 40
0.0
 40
0.0
 40
0.0213629708
 40
0.0429659835
 40
0.0877028214
 40
0.1357886411
 40
0.188163476
 40
0.2452159925
 40
0.3068677546
 40
0.3726870058
 40
0.4419717968
 40
0.5138241503
 40
0.5872199496
 40
0.6610585037
 40
0.7342248001
 40
0.8056280818
 40
0.8742568506
 40
0.9392934961
 40
1.0
 40
1.0
 40
1.0
 40
1.0
 10
19.9103454548
 20
54.6920948676
 30
0.0
 10
19.9371345667
 20
54.7075565748
 30
0.0
 10
19.9931327071
 20
54.735140536
 30
0.0
 10
20.1136141831
 20
54.7761790086
 30
0.0
 10
20.2794914005
 20
54.7989556156
 30
0.0
 10
20.4903344681
 20
54.7805244868
 30
0.0
 10
20.710898117
 20
54.7182141045
 30
0.0
 10
20.9364980978
 20
54.6138770552
 30
0.0
 10
21.1624815556
 20
54.470091123
 30
0.0
 10
21.3839964366
 20
54.2900713101
 30
0.0
 10
21.5961838935
 20
54.0778109179
 30
0.0
 10
21.794367018
 20
53.8380703881
 30
0.0
 10
21.9741139856
 20
53.5762072581
 30
0.0
 10
22.1313761276
 20
53.2980754996
 30
0.0
 10
22.2626395987
 20
53.0099251673
 30
0.0
 10
22.364976236
 20
52.7182344085
 30
0.0
 10
22.436088431
 20
52.4294348935
 30
0.0
 10
22.4742943131
 20
52.150074991
 30
0.0
 10
22.4774355828
 20
51.9674368703
 30
0.0
 10
22.4726255
 20
51.8796731729
 30
0.0
  0
SPLINE
  5
36B
100
AcDbEntity
  8
0
100
AcDbSpline
 62
7
  6
BYLAYER
 70
0
 71
3
 72
15
 73
11
 74
0
 42
0.0000001
 43
0.0000001
 44
0.0000000001
 40
0.0
 40
0.0
 40
0.0
 40
0.0
 40
0.1098276901
 40
0.2214214869
 40
0.3364162084
 40
0.4561855185
 40
0.5818077423
 40
0.7140769702
 40
0.8534750849
 40
1.0
 40
1.0
 40
1.0
 40
1.0
 10
18.4728512863
 20
57.181922598
 30
0.0
 10
18.3972892753
 20
57.1383048498
 30
0.0
 10
18.2516702125
 20
57.0381274288
 30
0.0
 10
18.0568205054
 20
56.8537890314
 30
0.0
 10
17.8864441713
 20
56.6365287075
 30
0.0
 10
17.7418245878
 20
56.3885010435
 30
0.0
 10
17.6240518069
 20
56.1117967269
 30
0.0
 10
17.5338614098
 20
55.8087116476
 30
0.0
 10
17.471985318
 20
55.481804344
 30
0.0
 10
17.4502918484
 20
55.2553661917
 30
0.0
 10
17.4439218555
 20
55.139140724
 30
0.0
  0
SPLINE
  5
36C
100
AcDbEntity
  8
0
100
AcDbSpline
 62
7
  6
BYLAYER
 70
0
 71
3
 72
15
 73
11
 74
0
 42
0.0000001
 43
0.0000001
 44
0.0000000001
 40
0.0
 40
0.0
 40
0.0
 40
0.0
 40
0.1414494905
 40
0.2771269764
 40
0.4072753353
 40
0.5324382356
 40
0.6533445301
 40
0.7708710908
 40
0.886040084
 40
1.0
 40
1.0
 40
1.0
 40
1.0
 10
21.8999193782
 20
26.5672646001
 30
0.0
 10
21.8731597318
 20
26.42965741
 30
0.0
 10
21.8102948328
 20
26.1619303974
 30
0.0
 10
21.6847123736
 20
25.7777877637
 30
0.0
 10
21.5302965746
 20
25.4217230815
 30
0.0
 10
21.3478956414
 20
25.095746244
 30
0.0
 10
21.1383410694
 20
24.8016675343
 30
0.0
 10
20.9027386808
 20
24.5411058964
 30
0.0
 10
20.6423219207
 20
24.3157306168
 30
0.0
 10
20.4527024417
 20
24.1894857021
 30
0.0
 10
20.3548906942
 20
24.1330183769
 30
0.0
  0
SPLINE
  5
36D
100
AcDbEntity
  8
0
100
AcDbSpline
 62
7
  6
BYLAYER
 70
0
 71
3
 72
25
 73
21
 74
0
 42
0.0000001
 43
0.0000001
 44
0.0000000001
 40
0.0
 40
0.0
 40
0.0
 40
0.0
 40
0.0213620566
 40
0.042964639
 40
0.0650356319
 40
0.0877773245
 40
0.1358606702
 40
0.1882321312
 40
0.2452791675
 40
0.3069269344
 40
0.3727414448
 40
0.4420202486
 40
0.5138675883
 40
0.587257895
 40
0.6610925393
 40
0.7342505739
 40
0.8056471288
 40
0.8742745724
 40
0.9392830378
 40
1.0
 40
1.0
 40
1.0
 40
1.0
 10
19.8870589873
 20
57.9984108287
 30
0.0
 10
19.9500925528
 20
58.0347963877
 30
0.0
 10
20.0818428018
 20
58.099713633
 30
0.0
 10
20.2921521274
 20
58.1712839997
 30
0.0
 10
20.5143982835
 20
58.216829427
 30
0.0
 10
20.830439766
 20
58.2432139524
 30
0.0
 10
21.2519175207
 20
58.2065151763
 30
0.0
 10
21.7707008054
 20
58.0598259575
 30
0.0
 10
22.3015984259
 20
57.8143727644
 30
0.0
 10
22.8333014139
 20
57.4760285009
 30
0.0
 10
23.3545052066
 20
57.0524336996
 30
0.0
 10
23.8537926054
 20
56.5530159811
 30
0.0
 10
24.3201015572
 20
55.9889098983
 30
0.0
 10
24.7430165783
 20
55.3727343509
 30
0.0
 10
25.1130513335
 20
54.7183100567
 30
0.0
 10
25.4219224153
 20
54.04031893
 30
0.0
 10
25.6626691866
 20
53.3539661174
 30
0.0
 10
25.829966474
 20
52.6745046346
 30
0.0
 10
25.9199522897
 20
52.0172073411
 30
0.0
 10
25.9272799255
 20
51.5874930463
 30
0.0
 10
25.9159592064
 20
51.3809377319
 30
0.0
  0
SPLINE
  5
36E
100
AcDbEntity
  8
0
100
AcDbSpline
 62
7
  6
BYLAYER
 70
0
 71
3
 72
16
 73
12
 74
0
 42
0.0000001
 43
0.0000001
 44
0.0000000001
 40
0.0
 40
0.0
 40
0.0
 40
0.0
 40
0.146011888
 40
0.2849716986
 40
0.4169766587
 40
0.4805457981
 40
0.5425895909
 40
0.6624720068
 40
0.7777301907
 40
0.8897146626
 40
1.0
 40
1.0
 40
1.0
 40
1.0
 10
15.3739844784
 20
23.4817592872
 30
0.0
 10
15.5364953474
 20
23.4023510161
 30
0.0
 10
15.860162346
 20
23.2601222889
 30
0.0
 10
16.3507035326
 20
23.0959998777
 30
0.0
 10
16.7558317441
 20
23.0047152289
 30
0.0
 10
17.0721562061
 20
22.9612689975
 30
0.0
 10
17.3754958987
 20
22.9377008575
 30
0.0
 10
17.7446941508
 20
22.9428840311
 30
0.0
 10
18.1713104118
 20
23.0070751086
 30
0.0
 10
18.5728584237
 20
23.1288018855
 30
0.0
 10
18.8223666135
 20
23.2482252755
 30
0.0
 10
18.94068302
 20
23.3165300686
 30
0.0
  0
SPLINE
  5
36F
100
AcDbEntity
  8
0
100
AcDbSpline
 62
7
  6
BYLAYER
 70
0
 71
3
 72
11
 73
7
 74
0
 42
0.0000001
 43
0.0000001
 44
0.0000000001
 40
0.0
 40
0.0
 40
0.0
 40
0.0
 40
0.2370325024
 40
0.4835556324
 40
0.7382951784
 40
1.0
 40
1.0
 40
1.0
 40
1.0
 10
9.3004432811
 20
33.0007599964
 30
0.0
 10
9.3147428679
 20
32.7775611986
 30
0.0
 10
9.3620411116
 20
32.3232437606
 30
0.0
 10
9.4835244761
 20
31.6367583001
 30
0.0
 10
9.6559725498
 20
30.9373020559
 30
0.0
 10
9.8021458485
 20
30.4720695676
 30
0.0
 10
9.8830874131
 20
30.2387756424
 30
0.0
  0
SPLINE
  5
370
100
AcDbEntity
  8
0
100
AcDbSpline
 62
7
  6
BYLAYER
 70
0
 71
3
 72
9
 73
5
 74
0
 42
0.0000001
 43
0.0000001
 44
0.0000000001
 40
0.0
 40
0.0
 40
0.0
 40
0.0
 40
0.5100505009
 40
1.0
 40
1.0
 40
1.0
 40
1.0
 10
12.3955671746
 20
25.8805951534
 30
0.0
 10
12.6171129251
 20
25.6238093492
 30
0.0
 10
13.0720852855
 20
25.1377070234
 30
0.0
 10
13.5681641913
 20
24.6933149581
 30
0.0
 10
13.8212619496
 20
24.4881913731
 30
0.0
  0
SPLINE
  5
371
100
AcDbEntity
  8
0
100
AcDbSpline
 62
7
  6
BYLAYER
 70
0
 71
3
 72
11
 73
7
 74
0
 42
0.0000001
 43
0.0000001
 44
0.0000000001
 40
0.0
 40
0.0
 40
0.0
 40
0.0
 40
0.2300156641
 40
0.4712754393
 40
0.7272134061
 40
1.0
 40
1.0
 40
1.0
 40
1.0
 10
10.4269468514
 20
36.7879294645
 30
0.0
 10
10.2975797222
 20
36.6648697118
 30
0.0
 10
10.0562093485
 20
36.3868224076
 30
0.0
 10
9.7640248081
 20
35.901019608
 30
0.0
 10
9.5380007175
 20
35.3454616381
 30
0.0
 10
9.4361154633
 20
34.9465579944
 30
0.0
 10
9.3956950493
 20
34.7387024974
 30
0.0
  0
SPLINE
  5
372
100
AcDbEntity
  8
0
100
AcDbSpline
 62
7
  6
BYLAYER
 70
0
 71
3
 72
14
 73
10
 74
0
 42
0.0000001
 43
0.0000001
 44
0.0000000001
 40
0.0
 40
0.0
 40
0.0
 40
0.0
 40
0.1432535702
 40
0.2808823114
 40
0.5390694486
 40
0.6604503813
 40
0.7772688425
 40
0.8901988819
 40
1.0
 40
1.0
 40
1.0
 40
1.0
 10
11.8425808688
 20
40.3922257489
 30
0.0
 10
11.8322257761
 20
40.2032890391
 30
0.0
 10
11.7996238175
 20
39.8332989526
 30
0.0
 10
11.6856722384
 20
39.1300949124
 30
0.0
 10
11.4977931029
 20
38.4689970806
 30
0.0
 10
11.2299217538
 20
37.8695513386
 30
0.0
 10
10.9982168467
 20
37.4667337308
 30
0.0
 10
10.7327922349
 20
37.1040870266
 30
0.0
 10
10.5320308898
 20
36.8878900639
 30
0.0
 10
10.4269468514
 20
36.7879294645
 30
0.0
  0
SPLINE
  5
373
100
AcDbEntity
  8
0
100
AcDbSpline
 62
7
  6
BYLAYER
 70
0
 71
3
 72
14
 73
10
 74
0
 42
0.0000001
 43
0.0000001
 44
0.0000000001
 40
0.0
 40
0.0
 40
0.0
 40
0.0
 40
0.1465077155
 40
0.2859866935
 40
0.5436453622
 40
0.6634464943
 40
0.7784754552
 40
0.8901239666
 40
1.0
 40
1.0
 40
1.0
 40
1.0
 10
22.4726255
 20
51.8796731729
 30
0.0
 10
22.4699197123
 20
51.8303039737
 30
0.0
 10
22.460678967
 20
51.7340617374
 30
0.0
 10
22.4265619855
 20
51.5536693835
 30
0.0
 10
22.368483622
 20
51.3872413031
 30
0.0
 10
22.284569084
 20
51.2432771866
 30
0.0
 10
22.2121200123
 20
51.150973342
 30
0.0
 10
22.1293383481
 20
51.0726067554
 30
0.0
 10
22.0674434956
 20
51.0300312227
 30
0.0
 10
22.0353279327
 20
51.0114952805
 30
0.0
  0
SPLINE
  5
374
100
AcDbEntity
  8
0
100
AcDbSpline
 62
7
  6
BYLAYER
 70
0
 71
3
 72
11
 73
7
 74
0
 42
0.0000001
 43
0.0000001
 44
0.0000000001
 40
0.0
 40
0.0
 40
0.0
 40
0.0
 40
0.2357322171
 40
0.4820885789
 40
0.7374743259
 40
1.0
 40
1.0
 40
1.0
 40
1.0
 10
20.5809634719
 20
27.4887187933
 30
0.0
 10
20.564400965
 20
27.7472389653
 30
0.0
 10
20.5061686228
 20
28.2745810846
 30
0.0
 10
20.3518899014
 20
29.0709750639
 30
0.0
 10
20.130354748
 20
29.8818501813
 30
0.0
 10
19.9418744669
 20
30.4194339844
 30
0.0
 10
19.8373864179
 20
30.688341066
 30
0.0
  0
SPLINE
  5
375
100
AcDbEntity
  8
0
100
AcDbSpline
 62
7
  6
BYLAYER
 70
0
 71
3
 72
9
 73
5
 74
0
 42
0.0000001
 43
0.0000001
 44
0.0000000001
 40
0.0
 40
0.0
 40
0.0
 40
0.0
 40
0.4939627104
 40
1.0
 40
1.0
 40
1.0
 40
1.0
 10
22.0353279327
 20
51.0114952805
 30
0.0
 10
21.9954920134
 20
50.9885034277
 30
0.0
 10
21.9100807074
 20
50.949783721
 30
0.0
 10
21.818930954
 20
50.9280507573
 30
0.0
 10
21.7723203261
 20
50.92114682
 30
0.0
  0
SPLINE
  5
376
100
AcDbEntity
  8
0
100
AcDbSpline
 62
7
  6
BYLAYER
 70
0
 71
3
 72
9
 73
5
 74
0
 42
0.0000001
 43
0.0000001
 44
0.0000000001
 40
0.0
 40
0.0
 40
0.0
 40
0.0
 40
0.5078998643
 40
1.0
 40
1.0
 40
1.0
 40
1.0
 10
19.6740697868
 20
54.4741876105
 30
0.0
 10
19.7057823774
 20
54.5187995001
 30
0.0
 10
19.7769669259
 20
54.600865824
 30
0.0
 10
19.864414509
 20
54.6655851857
 30
0.0
 10
19.9103454548
 20
54.6920948676
 30
0.0
  0
SPLINE
  5
377
100
AcDbEntity
  8
0
100
AcDbSpline
 62
7
  6
BYLAYER
 70
0
 71
3
 72
25
 73
21
 74
0
 42
0.0000001
 43
0.0000001
 44
0.0000000001
 40
0.0
 40
0.0
 40
0.0
 40
0.0
 40
0.0607163011
 40
0.1257238133
 40
0.1943511107
 40
0.2657477737
 40
0.3389064292
 40
0.4127420927
 40
0.486133611
 40
0.5579820356
 40
0.6272615378
 40
0.6930762892
 40
0.7547238966
 40
0.8117704489
 40
0.8641411986
 40
0.9122237701
 40
0.9349651201
 40
0.9570358028
 40
0.9786381404
 40
1.0
 40
1.0
 40
1.0
 40
1.0
 10
24.501751532
 20
50.5644494241
 30
0.0
 10
24.5130721281
 20
50.7710024941
 30
0.0
 10
24.505745854
 20
51.2007112927
 30
0.0
 10
24.4157611076
 20
51.8580026754
 30
0.0
 10
24.24846713
 20
52.5374614765
 30
0.0
 10
24.0077205646
 20
53.2238165327
 30
0.0
 10
23.698848001
 20
53.901813547
 30
0.0
 10
23.3288088396
 20
54.5562465724
 30
0.0
 10
22.9058870903
 20
55.1724312835
 30
0.0
 10
22.4395701584
 20
55.7365441055
 30
0.0
 10
21.9402758254
 20
56.235964718
 30
0.0
 10
21.4190678483
 20
56.6595586402
 30
0.0
 10
20.8873640375
 20
56.9978991284
 30
0.0
 10
20.3564690048
 20
57.2433468958
 30
0.0
 10
19.8376910933
 20
57.3900306932
 30
0.0
 10
19.4162194006
 20
57.4267253686
 30
0.0
 10
19.1001828478
 20
57.4003403367
 30
0.0
 10
18.8779399662
 20
57.3547941235
 30
0.0
 10
18.6676332751
 20
57.2832242057
 30
0.0
 10
18.5358841792
 20
57.2183079828
 30
0.0
 10
18.4728512863
 20
57.181922598
 30
0.0
  0
SPLINE
  5
378
100
AcDbEntity
  8
0
100
AcDbSpline
 62
7
  6
BYLAYER
 70
0
 71
3
 72
15
 73
11
 74
0
 42
0.0000001
 43
0.0000001
 44
0.0000000001
 40
0.0
 40
0.0
 40
0.0
 40
0.0
 40
0.1139599145
 40
0.2291289066
 40
0.3466554668
 40
0.4675617602
 40
0.5927246604
 40
0.7228730216
 40
0.8585505104
 40
1.0
 40
1.0
 40
1.0
 40
1.0
 10
18.94068302
 20
23.3165300686
 30
0.0
 10
19.0384947656
 20
23.3729973942
 30
0.0
 10
19.228114242
 20
23.4992423077
 30
0.0
 10
19.4885310015
 20
23.7246175834
 30
0.0
 10
19.7241333865
 20
23.9851792207
 30
0.0
 10
19.9336879615
 20
24.279257926
 30
0.0
 10
20.116088895
 20
24.6052347646
 30
0.0
 10
20.270504697
 20
24.9612994509
 30
0.0
 10
20.3960871562
 20
25.3454420891
 30
0.0
 10
20.4589520576
 20
25.6131691031
 30
0.0
 10
20.4857117037
 20
25.7507762923
 30
0.0
  0
SPLINE
  5
379
100
AcDbEntity
  8
0
100
AcDbSpline
 62
7
  6
BYLAYER
 70
0
 71
3
 72
13
 73
9
 74
0
 42
0.0000001
 43
0.0000001
 44
0.0000000001
 40
0.0
 40
0.0
 40
0.0
 40
0.0
 40
0.2684240395
 40
0.5264135585
 40
0.6505629423
 40
0.7710553451
 40
0.8876270111
 40
1.0
 40
1.0
 40
1.0
 40
1.0
 10
19.8373864179
 20
30.688341066
 30
0.0
 10
19.6672237945
 20
31.1262661194
 30
0.0
 10
19.3706051509
 20
32.0000977304
 30
0.0
 10
19.1066751557
 20
33.1097966678
 30
0.0
 10
18.9706436218
 20
33.9793473649
 30
0.0
 10
18.9072050604
 20
34.6087418658
 30
0.0
 10
18.8814909663
 20
35.2201667264
 30
0.0
 10
18.8896468557
 20
35.6211425715
 30
0.0
 10
18.9004105453
 20
35.817534449
 30
0.0
  0
SPLINE
  5
37A
100
AcDbEntity
  8
0
100
AcDbSpline
 62
7
  6
BYLAYER
 70
0
 71
3
 72
11
 73
7
 74
0
 42
0.0000001
 43
0.0000001
 44
0.0000000001
 40
0.0
 40
0.0
 40
0.0
 40
0.0
 40
0.2897094328
 40
0.5490986131
 40
0.7822231695
 40
1.0
 40
1.0
 40
1.0
 40
1.0
 10
6.3846144772
 20
18.6911252722
 30
0.0
 10
6.3538994593
 20
18.708855617
 30
0.0
 10
6.2981741426
 20
18.7472310984
 30
0.0
 10
6.2315728175
 20
18.8172145987
 30
0.0
 10
6.1894419946
 20
18.8946357024
 30
0.0
 10
6.179588618
 20
18.9502029208
 30
0.0
 10
6.179588624
 20
18.9768623557
 30
0.0
  0
SPLINE
  5
37B
100
AcDbEntity
  8
0
100
AcDbSpline
 62
7
  6
BYLAYER
 70
0
 71
3
 72
15
 73
11
 74
0
 42
0.0000001
 43
0.0000001
 44
0.0000000001
 40
0.0
 40
0.0
 40
0.0
 40
0.0
 40
0.114121131
 40
0.2373441301
 40
0.3669700935
 40
0.4999994019
 40
0.6330287965
 40
0.7626549828
 40
0.8858784243
 40
1.0
 40
1.0
 40
1.0
 40
1.0
 10
25.4765729899
 20
8.2400984319
 30
0.0
 10
25.4427029897
 20
8.2205408167
 30
0.0
 10
25.3686062737
 20
8.1860481719
 30
0.0
 10
25.2479692372
 20
8.1493526868
 30
0.0
 10
25.1173360249
 20
8.1267925948
 30
0.0
 10
24.9816562296
 20
8.1191627177
 30
0.0
 10
24.8459763187
 20
8.1267919132
 30
0.0
 10
24.7153427402
 20
8.1493514041
 30
0.0
 10
24.5947051368
 20
8.1860462809
 30
0.0
 10
24.5206078666
 20
8.2205384829
 30
0.0
 10
24.4867376445
 20
8.2400960189
 30
0.0
  0
SPLINE
  5
37C
100
AcDbEntity
  8
0
100
AcDbSpline
 62
7
  6
BYLAYER
 70
0
 71
3
 72
11
 73
7
 74
0
 42
0.0000001
 43
0.0000001
 44
0.0000000001
 40
0.0
 40
0.0
 40
0.0
 40
0.0
 40
0.268484328
 40
0.5262537064
 40
0.7705993914
 40
1.0
 40
1.0
 40
1.0
 40
1.0
 10
26.4956828219
 20
6.9787081113
 30
0.0
 10
26.7945653105
 20
7.0255771856
 30
0.0
 10
27.3764433808
 20
7.1458505111
 30
0.0
 10
28.2052582991
 20
7.4106173368
 30
0.0
 10
28.9576476484
 20
7.7521141635
 30
0.0
 10
29.4117524297
 20
8.0370895949
 30
0.0
 10
29.6187773891
 20
8.1918800153
 30
0.0
  0
SPLINE
  5
37D
100
AcDbEntity
  8
0
100
AcDbSpline
 62
7
  6
BYLAYER
 70
0
 71
3
 72
11
 73
7
 74
0
 42
0.0000001
 43
0.0000001
 44
0.0000000001
 40
0.0
 40
0.0
 40
0.0
 40
0.0
 40
0.2304537144
 40
0.4751289245
 40
0.7324916998
 40
1.0
 40
1.0
 40
1.0
 40
1.0
 10
20.4382407158
 20
8.1234630994
 30
0.0
 10
20.6426666076
 20
7.9781821835
 30
0.0
 10
21.0874352703
 20
7.7106687089
 30
0.0
 10
21.8186590801
 20
7.3889695072
 30
0.0
 10
22.619426705
 20
7.1385886506
 30
0.0
 10
23.1800342955
 20
7.0237772084
 30
0.0
 10
23.4676368617
 20
6.9786822639
 30
0.0
  0
SPLINE
  5
37E
100
AcDbEntity
  8
0
100
AcDbSpline
 62
7
  6
BYLAYER
 70
0
 71
3
 72
13
 73
9
 74
0
 42
0.0000001
 43
0.0000001
 44
0.0000000001
 40
0.0
 40
0.0
 40
0.0
 40
0.0
 40
0.2611259612
 40
0.5131274706
 40
0.6365204394
 40
0.7585346706
 40
0.8795503836
 40
1.0
 40
1.0
 40
1.0
 40
1.0
 10
34.2430121351
 20
11.4679845188
 30
0.0
 10
34.3809796151
 20
11.6461018066
 30
0.0
 10
34.6309020309
 20
12.0133126269
 30
0.0
 10
34.8745911574
 20
12.5078094746
 30
0.0
 10
35.0191983724
 20
12.9122811451
 30
0.0
 10
35.1020902114
 20
13.2177349246
 30
0.0
 10
35.1595782727
 20
13.5263677122
 30
0.0
 10
35.180823558
 20
13.7339027645
 30
0.0
 10
35.1870956346
 20
13.8376382152
 30
0.0
  0
SPLINE
  5
37F
100
AcDbEntity
  8
0
100
AcDbSpline
 62
7
  6
BYLAYER
 70
0
 71
3
 72
11
 73
7
 74
0
 42
0.0000001
 43
0.0000001
 44
0.0000000001
 40
0.0
 40
0.0
 40
0.0
 40
0.0
 40
0.2340059049
 40
0.604360584
 40
0.7990614356
 40
1.0
 40
1.0
 40
1.0
 40
1.0
 10
16.2377776413
 20
10.7997141957
 30
0.0
 10
16.3685460491
 20
10.6308909763
 30
0.0
 10
16.7333799299
 20
10.2155175875
 30
0.0
 10
17.287391453
 20
9.736592423
 30
0.0
 10
17.8606035188
 20
9.3359841235
 30
0.0
 10
18.1695487678
 20
9.1485515467
 30
0.0
 10
18.3290852394
 20
9.0581500044
 30
0.0
  0
SPLINE
  5
380
100
AcDbEntity
  8
0
100
AcDbSpline
 62
7
  6
BYLAYER
 70
0
 71
3
 72
13
 73
9
 74
0
 42
0.0000001
 43
0.0000001
 44
0.0000000001
 40
0.0
 40
0.0
 40
0.0
 40
0.0
 40
0.1204495475
 40
0.2414650681
 40
0.3634792452
 40
0.4868722937
 40
0.7388739216
 40
1.0
 40
1.0
 40
1.0
 40
1.0
 10
14.7760602705
 20
13.8376349361
 30
0.0
 10
14.7823323989
 20
13.7338996799
 30
0.0
 10
14.8035777216
 20
13.5263651237
 30
0.0
 10
14.8610659137
 20
13.2177330376
 30
0.0
 10
14.9439579112
 20
12.9122798703
 30
0.0
 10
15.0885650159
 20
12.5078086135
 30
0.0
 10
15.3322539377
 20
12.0133121325
 30
0.0
 10
15.5821762276
 20
11.6461016609
 30
0.0
 10
15.7201435948
 20
11.4679845188
 30
0.0
  0
SPLINE
  5
381
100
AcDbEntity
  8
0
100
AcDbSpline
 62
7
  6
BYLAYER
 70
0
 71
3
 72
11
 73
7
 74
0
 42
0.0000001
 43
0.0000001
 44
0.0000000001
 40
0.0
 40
0.0
 40
0.0
 40
0.0
 40
0.2177771655
 40
0.4509018567
 40
0.7102909653
 40
1.0
 40
1.0
 40
1.0
 40
1.0
 10
43.7835666354
 20
18.9769493679
 30
0.0
 10
43.7835666282
 20
18.9502901354
 30
0.0
 10
43.7737134509
 20
18.8947233711
 30
0.0
 10
43.7315833174
 20
18.8173027626
 30
0.0
 10
43.6649830002
 20
18.7473195871
 30
0.0
 10
43.6092584715
 20
18.7089441569
 30
0.0
 10
43.5785438839
 20
18.6912138116
 30
0.0
  0
SPLINE
  5
382
100
AcDbEntity
  8
0
100
AcDbSpline
 62
7
  6
BYLAYER
 70
0
 71
3
 72
13
 73
9
 74
0
 42
0.0000001
 43
0.0000001
 44
0.0000000001
 40
0.0
 40
0.0
 40
0.0
 40
0.0
 40
0.1125766634
 40
0.2283597354
 40
0.3480077663
 40
0.4719859997
 40
0.7309622422
 40
1.0
 40
1.0
 40
1.0
 40
1.0
 10
33.4959126978
 20
9.8778922166
 30
0.0
 10
33.4907698129
 20
9.8542400562
 30
0.0
 10
33.4750849201
 20
9.8072660429
 30
0.0
 10
33.4373096925
 20
9.7421450753
 30
0.0
 10
33.3862189454
 20
9.6835640744
 30
0.0
 10
33.3015797141
 20
9.6156159429
 30
0.0
 10
33.1719173741
 20
9.5563439377
 30
0.0
 10
33.0577608411
 20
9.5405320333
 30
0.0
 10
32.9999156902
 20
9.5405318942
 30
0.0
  0
LINE
  5
383
100
AcDbEntity
  8
0
100
AcDbLine
 62
7
  6
BYLAYER
 10
33.6889603783
 20
10.765856527
 11
33.4959126978
 21
9.8778922166
  0
SPLINE
  5
384
100
AcDbEntity
  8
0
100
AcDbSpline
 62
7
  6
BYLAYER
 70
0
 71
3
 72
13
 73
9
 74
0
 42
0.0000001
 43
0.0000001
 44
0.0000000001
 40
0.0
 40
0.0
 40
0.0
 40
0.0
 40
0.2690364362
 40
0.5280161318
 40
0.6519959241
 40
0.7716437391
 40
0.8874245972
 40
1.0
 40
1.0
 40
1.0
 40
1.0
 10
16.9632483374
 20
9.5404933468
 30
0.0
 10
16.9054035683
 20
9.5404932078
 30
0.0
 10
16.7912466869
 20
9.556304553
 30
0.0
 10
16.6615836246
 20
9.6155764207
 30
0.0
 10
16.576943575
 20
9.6835249837
 30
0.0
 10
16.5258534966
 20
9.7421060951
 30
0.0
 10
16.4880782573
 20
9.8072260059
 30
0.0
 10
16.4723941826
 20
9.8541994303
 30
0.0
 10
16.4672513589
 20
9.8778512847
 30
0.0
  0
LINE
  5
385
100
AcDbEntity
  8
0
100
AcDbLine
 62
7
  6
BYLAYER
 10
16.4672513589
 20
9.8778512847
 11
16.2760033495
 21
10.7575354979
  0
SPLINE
  5
386
100
AcDbEntity
  8
0
100
AcDbSpline
 62
7
  6
BYLAYER
 70
0
 71
3
 72
11
 73
7
 74
0
 42
0.0000001
 43
0.0000001
 44
0.0000000001
 40
0.0
 40
0.0
 40
0.0
 40
0.0
 40
0.2371085551
 40
0.4811092451
 40
0.7346944994
 40
1.0
 40
1.0
 40
1.0
 40
1.0
 10
35.1478258887
 20
13.4971327606
 30
0.0
 10
35.1196739273
 20
13.3265246213
 30
0.0
 10
35.0366378008
 20
12.9841451847
 30
0.0
 10
34.837757338
 20
12.4849280722
 30
0.0
 10
34.5651905706
 20
11.9982606559
 30
0.0
 10
34.3412755649
 20
11.692006869
 30
0.0
 10
34.2189082807
 20
11.5421399466
 30
0.0
  0
SPLINE
  5
387
100
AcDbEntity
  8
0
100
AcDbSpline
 62
7
  6
BYLAYER
 70
0
 71
3
 72
10
 73
6
 74
0
 42
0.0000001
 43
0.0000001
 44
0.0000000001
 40
0.0
 40
0.0
 40
0.0
 40
0.0
 40
0.2680020867
 40
0.5241440847
 40
1.0
 40
1.0
 40
1.0
 40
1.0
 10
17.7604492328
 20
9.8870858119
 30
0.0
 10
17.5602407966
 20
10.0026735915
 30
0.0
 10
17.1765492366
 20
10.2430267076
 30
0.0
 10
16.4841731061
 20
10.758114101
 30
0.0
 10
16.0264003484
 20
11.2006020134
 30
0.0
 10
15.7649026869
 20
11.517001442
 30
0.0
  0
SPLINE
  5
388
100
AcDbEntity
  8
0
100
AcDbSpline
 62
7
  6
BYLAYER
 70
0
 71
3
 72
13
 73
9
 74
0
 42
0.0000001
 43
0.0000001
 44
0.0000000001
 40
0.0
 40
0.0
 40
0.0
 40
0.0
 40
0.2669706356
 40
0.5203006313
 40
0.642903298
 40
0.7633604848
 40
0.882203795
 40
1.0
 40
1.0
 40
1.0
 40
1.0
 10
15.7649026869
 20
11.517001442
 30
0.0
 10
15.619865442
 20
11.6924894411
 30
0.0
 10
15.3581043408
 20
12.0526500692
 30
0.0
 10
15.1018039784
 20
12.5398561311
 30
0.0
 10
14.9508881202
 20
12.9357921807
 30
0.0
 10
14.864985632
 20
13.232608545
 30
0.0
 10
14.8053737209
 20
13.5316017431
 30
0.0
 10
14.7832386201
 20
13.7324931557
 30
0.0
 10
14.7766579755
 20
13.8327311192
 30
0.0
  0
SPLINE
  5
389
100
AcDbEntity
  8
0
100
AcDbSpline
 62
7
  6
BYLAYER
 70
0
 71
3
 72
10
 73
6
 74
0
 42
0.0000001
 43
0.0000001
 44
0.0000000001
 40
0.0
 40
0.0
 40
0.0
 40
0.0
 40
0.2694160873
 40
0.5260165206
 40
1.0
 40
1.0
 40
1.0
 40
1.0
 10
18.2087165801
 20
9.1469733929
 30
0.0
 10
18.0076374554
 20
9.2630638534
 30
0.0
 10
17.6234593388
 20
9.5050932956
 30
0.0
 10
16.9362759838
 20
10.025826127
 30
0.0
 10
16.487928039
 20
10.4767769283
 30
0.0
 10
16.2377945897
 20
10.7997185713
 30
0.0
  0
SPLINE
  5
38A
100
AcDbEntity
  8
0
100
AcDbSpline
 62
7
  6
BYLAYER
 70
0
 71
3
 72
9
 73
5
 74
0
 42
0.0000001
 43
0.0000001
 44
0.0000000001
 40
0.0
 40
0.0
 40
0.0
 40
0.0
 40
0.2360164384
 40
1.0
 40
1.0
 40
1.0
 40
1.0
 10
6.2673346104
 20
24.0882372888
 30
0.0
 10
6.2754005435
 20
24.0798379821
 30
0.0
 10
6.3110831217
 20
24.0457019856
 30
0.0
 10
6.3519661963
 20
24.0172373108
 30
0.0
 10
6.3846124006
 20
23.9983921825
 30
0.0
  0
SPLINE
  5
38B
100
AcDbEntity
  8
0
100
AcDbSpline
 62
7
  6
BYLAYER
 70
0
 71
3
 72
9
 73
5
 74
0
 42
0.0000001
 43
0.0000001
 44
0.0000000001
 40
0.0
 40
0.0
 40
0.0
 40
0.0
 40
0.2643643325
 40
1.0
 40
1.0
 40
1.0
 40
1.0
 10
43.5785464731
 20
23.9984810177
 30
0.0
 10
43.5898420996
 20
24.0050015467
 30
0.0
 10
43.6318001971
 20
24.0309308891
 30
0.0
 10
43.670691604
 20
24.0621548927
 30
0.0
 10
43.6958290859
 20
24.0883329182
 30
0.0
  0
SPLINE
  5
38C
100
AcDbEntity
  8
0
100
AcDbSpline
 62
7
  6
BYLAYER
 70
0
 71
3
 72
9
 73
5
 74
0
 42
0.0000001
 43
0.0000001
 44
0.0000000001
 40
0.0
 40
0.0
 40
0.0
 40
0.0
 40
0.2384918393
 40
1.0
 40
1.0
 40
1.0
 40
1.0
 10
24.4867376436
 20
13.5473617308
 30
0.0
 10
24.4984349972
 20
13.5406073784
 30
0.0
 10
24.54835894
 20
13.5138133939
 30
0.0
 10
24.60129367
 20
13.49279574
 30
0.0
 10
24.6423701378
 20
13.4796481713
 30
0.0
  0
SPLINE
  5
38D
100
AcDbEntity
  8
0
100
AcDbSpline
 62
7
  6
BYLAYER
 70
0
 71
3
 72
9
 73
5
 74
0
 42
0.0000001
 43
0.0000001
 44
0.0000000001
 40
0.0
 40
0.0
 40
0.0
 40
0.0
 40
0.2611401378
 40
1.0
 40
1.0
 40
1.0
 40
1.0
 10
25.320951881
 20
13.4796531627
 30
0.0
 10
25.33503589
 20
13.4841613766
 30
0.0
 10
25.3885369093
 20
13.5027081829
 30
0.0
 10
25.4403367929
 20
13.526440211
 30
0.0
 10
25.4765703987
 20
13.5473626472
 30
0.0
  0
SPLINE
  5
38E
100
AcDbEntity
  8
0
100
AcDbSpline
 62
7
  6
BYLAYER
 70
0
 71
3
 72
9
 73
5
 74
0
 42
0.0000001
 43
0.0000001
 44
0.0000000001
 40
0.0
 40
0.0
 40
0.0
 40
0.0
 40
0.2563585431
 40
1.0
 40
1.0
 40
1.0
 40
1.0
 10
33.7019992332
 20
10.8657700601
 30
0.0
 10
33.7516523068
 20
10.9139826547
 30
0.0
 10
33.9422437167
 20
11.1051930675
 30
0.0
 10
34.1200606032
 20
11.3092735904
 30
0.0
 10
34.2430031601
 20
11.4679868361
 30
0.0
  0
SPLINE
  5
38F
100
AcDbEntity
  8
0
100
AcDbSpline
 62
7
  6
BYLAYER
 70
0
 71
3
 72
9
 73
5
 74
0
 42
0.0000001
 43
0.0000001
 44
0.0000000001
 40
0.0
 40
0.0
 40
0.0
 40
0.0
 40
0.2451974522
 40
1.0
 40
1.0
 40
1.0
 40
1.0
 10
33.725374838
 20
10.7997150349
 30
0.0
 10
33.6954946974
 20
10.7611367101
 30
0.0
 10
33.5712932694
 20
10.6056213136
 30
0.0
 10
33.4380108217
 20
10.4574073784
 30
0.0
 10
33.3332788563
 20
10.3497267389
 30
0.0
  0
SPLINE
  5
390
100
AcDbEntity
  8
0
100
AcDbSpline
 62
7
  6
BYLAYER
 70
0
 71
3
 72
15
 73
11
 74
0
 42
0.0000001
 43
0.0000001
 44
0.0000000001
 40
0.0
 40
0.0
 40
0.0
 40
0.0
 40
0.1040269738
 40
0.2148602318
 40
0.3324126492
 40
0.4562959526
 40
0.585885259
 40
0.7203607742
 40
0.8587420962
 40
1.0
 40
1.0
 40
1.0
 40
1.0
 10
33.3332788563
 20
10.3497267389
 30
0.0
 10
33.1514075966
 20
10.1627349885
 30
0.0
 10
32.7492399557
 20
9.8017524946
 30
0.0
 10
32.067682498
 20
9.3192882637
 30
0.0
 10
31.2972913493
 20
8.8842826717
 30
0.0
 10
30.447806441
 20
8.5020676672
 30
0.0
 10
29.5297586059
 20
8.1772674365
 30
0.0
 10
28.5546247311
 20
7.9139266322
 30
0.0
 10
27.5345856875
 20
7.7152591986
 30
0.0
 10
26.8381759342
 20
7.6282693219
 30
0.0
 10
26.4854494775
 20
7.5959031158
 30
0.0
  0
SPLINE
  5
391
100
AcDbEntity
  8
0
100
AcDbSpline
 62
7
  6
BYLAYER
 70
0
 71
3
 72
9
 73
5
 74
0
 42
0.0000001
 43
0.0000001
 44
0.0000000001
 40
0.0
 40
0.0
 40
0.0
 40
0.0
 40
0.2439315899
 40
1.0
 40
1.0
 40
1.0
 40
1.0
 10
15.7201584918
 20
11.4679883651
 30
0.0
 10
15.7603467535
 20
11.4161059842
 30
0.0
 10
15.9291061283
 20
11.2065326985
 30
0.0
 10
16.1132715346
 20
11.009492171
 30
0.0
 10
16.2591405145
 20
10.8677238593
 30
0.0
  0
SPLINE
  5
392
100
AcDbEntity
  8
0
100
AcDbSpline
 62
7
  6
BYLAYER
 70
0
 71
3
 72
9
 73
5
 74
0
 42
0.0000001
 43
0.0000001
 44
0.0000000001
 40
0.0
 40
0.0
 40
0.0
 40
0.0
 40
0.4828414929
 40
1.0
 40
1.0
 40
1.0
 40
1.0
 10
16.2591405145
 20
10.8677238593
 30
0.0
 10
16.4822173338
 20
10.6509181747
 30
0.0
 10
16.9774650441
 20
10.2354442296
 30
0.0
 10
17.5192144082
 20
9.883990727
 30
0.0
 10
17.8077623607
 20
9.7174012577
 30
0.0
  0
SPLINE
  5
393
100
AcDbEntity
  8
0
100
AcDbSpline
 62
7
  6
BYLAYER
 70
0
 71
3
 72
11
 73
7
 74
0
 42
0.0000001
 43
0.0000001
 44
0.0000000001
 40
0.0
 40
0.0
 40
0.0
 40
0.0
 40
0.2658326592
 40
0.522645941
 40
0.7680688968
 40
1.0
 40
1.0
 40
1.0
 40
1.0
 10
23.466925525
 20
7.1195661458
 30
0.0
 10
23.2155908421
 20
7.1576050723
 30
0.0
 10
22.724124821
 20
7.2518246947
 30
0.0
 10
22.0160781693
 20
7.4503907224
 30
0.0
 10
21.3591791443
 20
7.7008454638
 30
0.0
 10
20.9502174169
 20
7.9059432548
 30
0.0
 10
20.7581498393
 20
8.0168310138
 30
0.0
  0
SPLINE
  5
394
100
AcDbEntity
  8
0
100
AcDbSpline
 62
7
  6
BYLAYER
 70
0
 71
3
 72
11
 73
7
 74
0
 42
0.0000001
 43
0.0000001
 44
0.0000000001
 40
0.0
 40
0.0
 40
0.0
 40
0.0
 40
0.2290760664
 40
0.4737482183
 40
0.7316967531
 40
1.0
 40
1.0
 40
1.0
 40
1.0
 10
29.4328172862
 20
8.1558720083
 30
0.0
 10
29.2316714183
 20
8.0260734326
 30
0.0
 10
28.796840218
 20
7.7862001061
 30
0.0
 10
28.0880421863
 20
7.4957010711
 30
0.0
 10
27.3141203687
 20
7.267420932
 30
0.0
 10
26.773575238
 20
7.161546106
 30
0.0
 10
26.4963501423
 20
7.1195849794
 30
0.0
  0
SPLINE
  5
395
100
AcDbEntity
  8
0
100
AcDbSpline
 62
7
  6
BYLAYER
 70
0
 71
3
 72
14
 73
10
 74
0
 42
0.0000001
 43
0.0000001
 44
0.0000000001
 40
0.0
 40
0.0
 40
0.0
 40
0.0
 40
0.284610946
 40
0.4165950844
 40
0.5421808345
 40
0.6621251235
 40
0.7774774999
 40
0.8895813519
 40
1.0
 40
1.0
 40
1.0
 40
1.0
 10
24.0918254781
 20
29.8028001572
 30
0.0
 10
24.0712373531
 20
29.5182381527
 30
0.0
 10
24.0083076906
 20
29.1021855992
 30
0.0
 10
23.8449813097
 20
28.5829143828
 30
0.0
 10
23.6914737156
 20
28.2360249283
 30
0.0
 10
23.5050253707
 20
27.9248522179
 30
0.0
 10
23.2867833547
 20
27.6519928637
 30
0.0
 10
23.0385167443
 20
27.4198665044
 30
0.0
 10
22.8536101876
 20
27.2932718794
 30
0.0
 10
22.7577547737
 20
27.237921867
 30
0.0
  0
SPLINE
  5
396
100
AcDbEntity
  8
0
100
AcDbSpline
 62
7
  6
BYLAYER
 70
0
 71
3
 72
11
 73
7
 74
0
 42
0.0000001
 43
0.0000001
 44
0.0000000001
 40
0.0
 40
0.0
 40
0.0
 40
0.0
 40
0.2282447474
 40
0.4690952149
 40
0.7257249654
 40
1.0
 40
1.0
 40
1.0
 40
1.0
 10
23.7573048946
 20
28.4855040644
 30
0.0
 10
23.6205259096
 20
28.4531330003
 30
0.0
 10
23.3324182349
 20
28.4138265589
 30
0.0
 10
22.8839547716
 20
28.4307959659
 30
0.0
 10
22.4157405215
 20
28.5211811195
 30
0.0
 10
22.1049260186
 20
28.6257327367
 30
0.0
 10
21.9481456887
 20
28.6885689057
 30
0.0
  0
SPLINE
  5
397
100
AcDbEntity
  8
0
100
AcDbSpline
 62
7
  6
BYLAYER
 70
0
 71
3
 72
11
 73
7
 74
0
 42
0.0000001
 43
0.0000001
 44
0.0000000001
 40
0.0
 40
0.0
 40
0.0
 40
0.0
 40
0.2397877337
 40
0.4838729908
 40
0.7361863103
 40
1.0
 40
1.0
 40
1.0
 40
1.0
 10
22.7577547737
 20
27.237921867
 30
0.0
 10
22.6537152073
 20
27.1778460605
 30
0.0
 10
22.4332011739
 20
27.0740068469
 30
0.0
 10
22.0768860791
 20
26.9729941866
 30
0.0
 10
21.6974074829
 20
26.9268785418
 30
0.0
 10
21.437949996
 20
26.9326079598
 30
0.0
 10
21.3062539969
 20
26.9438661308
 30
0.0
  0
SPLINE
  5
398
100
AcDbEntity
  8
0
100
AcDbSpline
 62
7
  6
BYLAYER
 70
0
 71
3
 72
11
 73
7
 74
0
 42
0.0000001
 43
0.0000001
 44
0.0000000001
 40
0.0
 40
0.0
 40
0.0
 40
0.0
 40
0.2698246935
 40
0.525706087
 40
0.7685816958
 40
1.0
 40
1.0
 40
1.0
 40
1.0
 10
22.002858982
 20
28.2598473051
 30
0.0
 10
22.1389506221
 20
28.20538429
 30
0.0
 10
22.4091542333
 20
28.1112477495
 30
0.0
 10
22.8163955797
 20
28.0154265183
 30
0.0
 10
23.2113421742
 20
27.9695592637
 30
0.0
 10
23.4699128198
 20
27.9729011802
 30
0.0
 10
23.5951847892
 20
27.9835092826
 30
0.0
  0
ELLIPSE
  5
399
100
AcDbEntity
  8
0
100
AcDbEllipse
 62
7
  6
BYLAYER
 10
24.6635139563
 20
17.9612992222
 30
0.0
 11
-0.0214162884
 21
0.4999995303
 31
0.0
 40
0.0301984672
 41
-0.0012934265
 42
0.6141761941
  0
ELLIPSE
  5
39A
100
AcDbEntity
  8
0
100
AcDbEllipse
 62
7
  6
BYLAYER
 10
24.6634993061
 20
19.9928611468
 30
0.0
 11
-0.0214162884
 21
0.4999995303
 31
0.0
 40
0.0301984672
 41
0.6141761941
 42
1.7224602691
  0
ELLIPSE
  5
39B
100
AcDbEntity
  8
0
100
AcDbEllipse
 62
7
  6
BYLAYER
 10
25.2997595322
 20
19.9928626762
 30
0.0
 11
0.0214138935
 21
0.4999996331
 31
0.0
 40
0.0302052536
 41
-1.7224599779
 42
-0.6141759029
  0
ELLIPSE
  5
39C
100
AcDbEntity
  8
0
100
AcDbEllipse
 62
7
  6
BYLAYER
 10
25.2997741825
 20
17.9613007516
 30
0.0
 11
0.0214138935
 21
0.4999996331
 31
0.0
 40
0.0302052536
 41
-0.6141759029
 42
0.0012937178
  0
ELLIPSE
  5
39D
100
AcDbEntity
  8
0
100
AcDbEllipse
 62
7
  6
BYLAYER
 10
38.8055907006
 20
40.3333243577
 30
0.0
 11
-0.0214162884
 21
0.4999995303
 31
0.0
 40
0.0301984672
 41
-0.001293305
 42
0.6141761941
  0
ELLIPSE
  5
39E
100
AcDbEntity
  8
0
100
AcDbEllipse
 62
7
  6
BYLAYER
 10
38.8055760504
 20
42.3648862823
 30
0.0
 11
-0.0214162884
 21
0.4999995303
 31
0.0
 40
0.0301984672
 41
0.6141761941
 42
1.7224602691
  0
ELLIPSE
  5
39F
100
AcDbEntity
  8
0
100
AcDbEllipse
 62
7
  6
BYLAYER
 10
39.4418362765
 20
42.3648878117
 30
0.0
 11
0.0214138935
 21
0.4999996331
 31
0.0
 40
0.0302052536
 41
-1.7224599779
 42
-0.6141759029
  0
ELLIPSE
  5
3A0
100
AcDbEntity
  8
0
100
AcDbEllipse
 62
7
  6
BYLAYER
 10
39.4418509267
 20
40.3333258871
 30
0.0
 11
0.0214138935
 21
0.4999996331
 31
0.0
 40
0.0302052536
 41
-0.6141759029
 42
0.0012935973
  0
ENDSEC
  0
SECTION
  2
OBJECTS
  0
DICTIONARY
  5
C
100
AcDbDictionary
280
0
281
1
  3
ACAD_GROUP
350
D
  3
ACAD_MLINESTYLE
350
17
  3
ACAD_LAYOUT
350
1A
  3
ACAD_PLOTSETTINGS
350
19
  3
ACAD_PLOTSTYLENAME
350
E
  0
DICTIONARY
  5
D
102
{ACAD_REACTORS
330
C
102
}
100
AcDbDictionary
280
0
281
1
  0
ACDBDICTIONARYWDFLT
  5
E
102
{ACAD_REACTORS
330
C
102
}
100
AcDbDictionary
281
1
  3
Normal
350
F
100
AcDbDictionaryWithDefault
340
F
  0
DICTIONARY
  5
17
102
{ACAD_REACTORS
330
C
102
}
100
AcDbDictionary
280
0
281
1
  3
Standard
350
18
  0
DICTIONARY
  5
19
102
{ACAD_REACTORS
330
C
102
}
100
AcDbDictionary
281
1
  0
DICTIONARY
  5
1A
102
{ACAD_REACTORS
330
C
102
}
100
AcDbDictionary
281
1
  3
Model
350
3A1
  3
Layout1
350
3A2
  0
ACDBPLACEHOLDER
  5
F
102
{ACAD_REACTORS
330
E
102
}
  0
MLINESTYLE
  5
18
102
{ACAD_REACTORS
330
17
102
}
100
AcDbMlineStyle
  2
STANDARD
 70
0
  3

 62
256
 51
90.0
 52
90.0
 71
2
 49
0.5
 62
256
  6
BYLAYER
 49
-0.5
 62
256
  6
BYLAYER
  0
LAYOUT
  5
3A1
102
{ACAD_REACTORS
330
1A
102
}
100
AcDbPlotSettings
  1

  2
none_device
  4

  6

 40
0.0
 41
0.0
 42
0.0
 43
0.0
 44
210.0
 45
297.0
 46
0.0
 47
0.0
 48
0.0
 49
0.0
140
0.0
141
0.0
142
1.0
143
1.0
 70
1024
 72
1
 73
0
 74
0
  7

 75
0
147
1.0
148
0.0
149
0.0
100
AcDbLayout
  1
Model
 70
0
 71
0
 10
0.0
 20
0.0
 11
210.0
 21
297.0
 12
0.0
 22
0.0
 32
0.0
 14
0.0
 24
0.0
 34
0.0
 15
0.0
 25
0.0
 35
0.0
146
0.0
 13
0.0
 23
0.0
 33
0.0
 16
1.0
 26
0.0
 36
0.0
 17
0.0
 27
1.0
 37
0.0
 76
0
330
210
345
0
346
0
  0
LAYOUT
  5
3A2
102
{ACAD_REACTORS
330
1A
102
}
100
AcDbPlotSettings
  1

  2
none_device
  4

  6

 40
0.0
 41
0.0
 42
0.0
 43
0.0
 44
210.0
 45
297.0
 46
0.0
 47
0.0
 48
0.0
 49
0.0
140
0.0
141
0.0
142
1.0
143
1.0
 70
0
 72
1
 73
0
 74
0
  7

 75
0
147
1.0
148
0.0
149
0.0
100
AcDbLayout
  1
Layout1
 70
0
 71
1
 10
0.0
 20
0.0
 11
210.0
 21
297.0
 12
0.0
 22
0.0
 32
0.0
 14
0.0
 24
0.0
 34
0.0
 15
0.0
 25
0.0
 35
0.0
146
0.0
 13
0.0
 23
0.0
 33
0.0
 16
1.0
 26
0.0
 36
0.0
 17
0.0
 27
1.0
 37
0.0
 76
0
330
211
345
0
346
0
  0
ENDSEC
  0
EOF
