999
DXF file: C:\Users\sesa63760\Dev\_Creo\CAD\MCADID0004761_3D-CAD\drw0001_1.dxf
999
Pro/ENGINEER 2019471 by Parametric Technology Corporation
  0
SECTION
  2
HEADER
  9
$ACADVER
  1
AC1024
  9
$DWGCODEPAGE
  3
ANSI_1252
  9
$EXTMAX
 10
57.1988154185
 20
80.8954675204
 30
0.0
  9
$EXTMIN
 10
0.0
 20
0.0
 30
0.0
  9
$LIMMIN
 10
0.0
 20
0.0
  9
$LIMMAX
 10
57.1988154185
 20
80.8954675204
  9
$VIEWCTR
 10
28.5994077092
 20
40.4477337602
  9
$VIEWSIZE
 40
80.8954675204
  9
$CLAYER
  8
0
  9
$LTSCALE
 40
5.273186031
  9
$CELTYPE
  6
BYLAYER
  9
$DIMSCALE
 40
1.0
  9
$DIMASZ
 40
0.6809382788
  9
$DIMEXO
 40
1.0
  9
$DIMDLI
 40
3.6432921668
  9
$DIMEXE
 40
1.0
  9
$DIMCEN
 40
0.8628849869
  9
$DIMLFAC
 40
1.0
  9
$DIMBLK
  1
_FILLED
  9
$DIMALT
 70
0
  9
$DIMALTF
 40
0.0393700787
  9
$DIMTXT
 40
0.9533135903
  9
$DIMTOL
 70
1
  9
$DIMLIM
 70
0
  9
$DIMTFAC
 40
1.0
  9
$DIMTP
 40
0.01
  9
$DIMTM
 40
0.01
  9
$DIMGAP
 40
0.625
  9
$DIMDSEP
 70
46
  9
$AUNITS
 70
0
  9
$PDMODE
 70
3
  9
$PDSIZE
 40
0.3125
  9
$HANDSEED
  5
34E
  9
$TILEMODE
 70
1
  9
$MEASUREMENT
 70
1
  9
$INSUNITS
 70
4
  0
ENDSEC
  0
SECTION
  2
CLASSES
  0
CLASS
  1
ACDBDICTIONARYWDFLT
  2
AcDbDictionaryWithDefault
  3
AutoCAD 2000
 90
0
 91
1
280
0
281
0
  0
CLASS
  1
ACDBPLACEHOLDER
  2
AcDbPlaceHolder
  3
AutoCAD 2000
 90
0
 91
1
280
0
281
0
  0
CLASS
  1
LAYOUT
  2
AcDbLayout
  3
AutoCAD 2000
 90
0
 91
0
280
0
281
0
  0
ENDSEC
  0
SECTION
  2
TABLES
  0
TABLE
  2
VPORT
  5
8
100
AcDbSymbolTable
 70
2
  0
VPORT
  5
1F4
100
AcDbSymbolTableRecord
100
AcDbViewportTableRecord
  2
*ACTIVE
 70
0
 10
0.0
 20
0.0
 11
1.0
 21
1.0
 12
28.5994077092
 22
40.4477337602
 13
0.0
 23
0.0
 14
1.0
 24
1.0
 15
0.0
 25
0.0
 16
0.0
 26
0.0
 36
1.0
 17
0.0
 27
0.0
 37
0.0
 40
80.8954675204
 41
0.7070707071
 42
50.0
 43
0.0
 44
0.0
 50
0.0
 51
0.0
 71
0
 72
100
 73
1
 74
1
 75
0
 76
0
 77
0
 78
0
  0
ENDTAB
  0
TABLE
  2
LTYPE
  5
5
100
AcDbSymbolTable
 70
6
  0
LTYPE
  5
14
100
AcDbSymbolTableRecord
100
AcDbLinetypeTableRecord
  2
BYBLOCK
 70
0
  3

 72
65
 73
0
 40
0.0
  0
LTYPE
  5
15
100
AcDbSymbolTableRecord
100
AcDbLinetypeTableRecord
  2
BYLAYER
 70
0
  3

 72
65
 73
0
 40
0.0
  0
LTYPE
  5
16
100
AcDbSymbolTableRecord
100
AcDbLinetypeTableRecord
  2
CONTINUOUS
 70
64
  3
Solid line
 72
65
 73
0
 40
0.0
  0
LTYPE
  5
1F5
100
AcDbSymbolTableRecord
100
AcDbLinetypeTableRecord
  2
CENTER
 70
64
  3
____ _ ____ _ ____ _ ____ _ ____ _ ____ _ ____
 72
65
 73
4
 40
0.6
 49
0.375
 74
0
 49
-0.075
 74
0
 49
0.075
 74
0
 49
-0.075
 74
0
  0
LTYPE
  5
1F6
100
AcDbSymbolTableRecord
100
AcDbLinetypeTableRecord
  2
HIDDEN
 70
64
  3
- - - - - - - - - - - - - - - - - - - -
 72
65
 73
2
 40
0.2
 49
0.1
 74
0
 49
-0.1
 74
0
  0
LTYPE
  5
1F7
100
AcDbSymbolTableRecord
100
AcDbLinetypeTableRecord
  2
PHANTOM
 70
64
  3
_____ _ _ _____ _ _ _____ _ _ _____
 72
65
 73
6
 40
0.8
 49
0.45
 74
0
 49
-0.05
 74
0
 49
0.1
 74
0
 49
-0.05
 74
0
 49
0.1
 74
0
 49
-0.05
 74
0
  0
LTYPE
  5
1F8
100
AcDbSymbolTableRecord
100
AcDbLinetypeTableRecord
  2
DOT
 70
64
  3
. . . . . . . . . . . . . . . . . . . .
 72
65
 73
2
 40
0.2
 49
0.1
 74
0
 49
-0.1
 74
0
  0
LTYPE
  5
1F9
100
AcDbSymbolTableRecord
100
AcDbLinetypeTableRecord
  2
DASHED
 70
64
  3
- - - - - - - - - - - - - - - - - - - -
 72
65
 73
2
 40
0.2
 49
0.1
 74
0
 49
-0.1
 74
0
  0
ENDTAB
  0
TABLE
  2
LAYER
  5
2
100
AcDbSymbolTable
 70
36
  0
LAYER
  5
10
100
AcDbSymbolTableRecord
100
AcDbLayerTableRecord
  2
0
 70
0
 62
7
  6
CONTINUOUS
370
-3
390
F
  0
LAYER
  5
1FA
100
AcDbSymbolTableRecord
100
AcDbLayerTableRecord
  2
DEFAULT_1
 70
0
 62
7
  6
CENTER
370
-3
390
F
  0
LAYER
  5
1FB
100
AcDbSymbolTableRecord
100
AcDbLayerTableRecord
  2
DEFAULT_2
 70
0
 62
7
  6
HIDDEN
370
-3
390
F
  0
LAYER
  5
1FC
100
AcDbSymbolTableRecord
100
AcDbLayerTableRecord
  2
DEFAULT_3
 70
0
 62
7
  6
PHANTOM
370
-3
390
F
  0
LAYER
  5
1FD
100
AcDbSymbolTableRecord
100
AcDbLayerTableRecord
  2
00_COMPONENTS
 70
0
 62
7
  6
CONTINUOUS
370
-3
390
F
  0
LAYER
  5
1FE
100
AcDbSymbolTableRecord
100
AcDbLayerTableRecord
  2
01_1_DEFAULT_DATUMS
 70
0
 62
7
  6
CONTINUOUS
370
-3
390
F
  0
LAYER
  5
1FF
100
AcDbSymbolTableRecord
100
AcDbLayerTableRecord
  2
01_PLANES
 70
0
 62
7
  6
CONTINUOUS
370
-3
390
F
  0
LAYER
  5
200
100
AcDbSymbolTableRecord
100
AcDbLayerTableRecord
  2
02_COORD_SYS
 70
0
 62
7
  6
CONTINUOUS
370
-3
390
F
  0
LAYER
  5
201
100
AcDbSymbolTableRecord
100
AcDbLayerTableRecord
  2
03_AXES
 70
0
 62
7
  6
CONTINUOUS
370
-3
390
F
  0
LAYER
  5
202
100
AcDbSymbolTableRecord
100
AcDbLayerTableRecord
  2
04_POINTS
 70
0
 62
7
  6
CONTINUOUS
370
-3
390
F
  0
LAYER
  5
203
100
AcDbSymbolTableRecord
100
AcDbLayerTableRecord
  2
05_CURVES
 70
0
 62
7
  6
CONTINUOUS
370
-3
390
F
  0
LAYER
  5
204
100
AcDbSymbolTableRecord
100
AcDbLayerTableRecord
  2
06_SURFS
 70
0
 62
7
  6
CONTINUOUS
370
-3
390
F
  0
LAYER
  5
205
100
AcDbSymbolTableRecord
100
AcDbLayerTableRecord
  2
07_COSMETICS
 70
0
 62
7
  6
CONTINUOUS
370
-3
390
F
  0
LAYER
  5
206
100
AcDbSymbolTableRecord
100
AcDbLayerTableRecord
  2
10_NOTES
 70
0
 62
7
  6
CONTINUOUS
370
-3
390
F
  0
LAYER
  5
207
100
AcDbSymbolTableRecord
100
AcDbLayerTableRecord
  2
11_NOTES_PUB
 70
0
 62
7
  6
CONTINUOUS
370
-3
390
F
  0
LAYER
  5
208
100
AcDbSymbolTableRecord
100
AcDbLayerTableRecord
  2
13_REF_GTOL
 70
0
 62
7
  6
CONTINUOUS
370
-3
390
F
  0
LAYER
  5
209
100
AcDbSymbolTableRecord
100
AcDbLayerTableRecord
  2
16_MISC
 70
0
 62
7
  6
CONTINUOUS
370
-3
390
F
  0
LAYER
  5
20A
100
AcDbSymbolTableRecord
100
AcDbLayerTableRecord
  2
17_NO_PRINT
 70
0
 62
7
  6
CONTINUOUS
370
-3
390
F
  0
LAYER
  5
20B
100
AcDbSymbolTableRecord
100
AcDbLayerTableRecord
  2
18_DATUM_CAMS_JOINTS
 70
0
 62
7
  6
CONTINUOUS
370
-3
390
F
  0
LAYER
  5
20C
100
AcDbSymbolTableRecord
100
AcDbLayerTableRecord
  2
19_DATUM_FUNCTIONAL
 70
0
 62
7
  6
CONTINUOUS
370
-3
390
F
  0
LAYER
  5
20D
100
AcDbSymbolTableRecord
100
AcDbLayerTableRecord
  2
20_DATUM_KINEMATIC_SCHEME
 70
0
 62
7
  6
CONTINUOUS
370
-3
390
F
  0
ENDTAB
  0
TABLE
  2
STYLE
  5
3
100
AcDbSymbolTable
 70
1
  0
STYLE
  5
11
100
AcDbSymbolTableRecord
100
AcDbTextStyleTableRecord
  2
STANDARD
 70
0
 40
0.0
 41
1.0
 50
0.0
 71
0
 42
0.2
  3
ARIAL.TTF
  4

  0
STYLE
  5
20E
100
AcDbSymbolTableRecord
100
AcDbTextStyleTableRecord
  2
TEXTSTYLE_1
 70
0
 40
0.0
 41
0.8
 50
0.0
 71
0
 42
0.2
  3
gdt
  4

  0
ENDTAB
  0
TABLE
  2
VIEW
  5
6
100
AcDbSymbolTable
 70
0
  0
ENDTAB
  0
TABLE
  2
UCS
  5
7
100
AcDbSymbolTable
 70
0
  0
ENDTAB
  0
TABLE
  2
APPID
  5
9
100
AcDbSymbolTable
 70
1
  0
APPID
  5
20F
100
AcDbSymbolTableRecord
100
AcDbRegAppTableRecord
  2
ACAD
 70
0
  0
ENDTAB
  0
TABLE
  2
BLOCK_RECORD
  5
1
100
AcDbSymbolTable
 70
0
  0
BLOCK_RECORD
  5
210
100
AcDbSymbolTableRecord
100
AcDbBlockTableRecord
  2
*Model_Space
  0
BLOCK_RECORD
  5
211
100
AcDbSymbolTableRecord
100
AcDbBlockTableRecord
  2
*Paper_Space
  0
BLOCK_RECORD
  5
212
100
AcDbSymbolTableRecord
100
AcDbBlockTableRecord
  2
_FILLED
  0
ENDTAB
  0
TABLE
  2
DIMSTYLE
  5
A
100
AcDbSymbolTable
 70
1
100
AcDbDimStyleTable
 71
0
  0
DIMSTYLE
105
213
100
AcDbSymbolTableRecord
100
AcDbDimStyleTableRecord
  2
STANDARD
 70
0
  3

  4

 40
1.0
 41
0.6809382788
 42
1.0
 43
0.38
 44
1.0
 45
0.0
 46
0.0
 47
0.01
 48
0.01
140
0.9533135903
141
0.09
142
0.0
143
25.4
144
1.0
145
0.0
146
1.0
147
0.625
 71
1
 72
0
 73
0
 74
0
 75
0
 76
0
 77
1
 78
8
 79
2
170
0
171
1
172
0
173
0
174
0
175
0
176
0
177
0
178
0
270
2
179
2
271
2
272
2
273
2
274
2
275
0
280
0
281
0
282
0
283
1
284
8
285
0
286
0
287
3
288
0
340
11
278
46
341
212
342
212
343
212
344
212
  0
ENDTAB
  0
ENDSEC
  0
SECTION
  2
BLOCKS
  0
BLOCK
  5
20
100
AcDbEntity
  8
0
100
AcDbBlockBegin
  2
*Model_Space
 70
0
 10
0.0
 20
0.0
 30
0.0
  3
*Model_Space
  1

  0
ENDBLK
  5
21
100
AcDbEntity
  8
0
100
AcDbBlockEnd
  0
BLOCK
  5
1C
100
AcDbEntity
  8
0
100
AcDbBlockBegin
  2
*Paper_Space
 70
0
 10
0.0
 20
0.0
 30
0.0
  3
*Paper_Space
  1

  0
ENDBLK
  5
1D
100
AcDbEntity
  8
0
100
AcDbBlockEnd
  0
BLOCK
  5
214
100
AcDbEntity
  8
0
100
AcDbBlockBegin
  2
_FILLED
 70
64
 10
0.0
 20
0.0
  3
_FILLED
  1

  0
SOLID
  5
215
100
AcDbEntity
  8
0
  6
BYBLOCK
 62
0
100
AcDbTrace
 10
0.0
 20
0.0
 11
-1.0
 21
0.25
 12
-1.0
 22
-0.25
 13
-1.0
 23
-0.25
  0
ENDBLK
  5
216
100
AcDbEntity
  8
0
  6
BYBLOCK
 62
0
100
AcDbBlockEnd
  0
ENDSEC
  0
SECTION
  2
ENTITIES
  0
LINE
  5
217
100
AcDbEntity
  8
0
100
AcDbLine
 62
7
  6
BYLAYER
 10
8.1741922827
 20
47.8711790046
 11
8.1741911051
 21
48.0344746264
  0
LWPOLYLINE
  5
218
100
AcDbEntity
  8
0
100
AcDbPolyline
 62
7
  6
BYLAYER
 90
4
 70
0
 10
7.1485042669
 20
38.4502216215
 10
7.0730694941
 20
38.1043931084
 10
7.072557996
 20
36.9538300375
 10
7.3117265308
 20
35.6021364058
  0
LINE
  5
219
100
AcDbEntity
  8
0
100
AcDbLine
 62
7
  6
BYLAYER
 10
7.54979049
 20
40.1691316868
 11
7.9818901211
 21
41.225921007
  0
LINE
  5
21A
100
AcDbEntity
  8
0
100
AcDbLine
 62
7
  6
BYLAYER
 10
14.07849637
 20
55.9340517866
 11
10.8965291025
 21
54.0969530941
  0
LINE
  5
21B
100
AcDbEntity
  8
0
100
AcDbLine
 62
7
  6
BYLAYER
 10
22.2783912879
 20
60.4290891106
 11
21.5712874507
 21
60.0208449568
  0
LINE
  5
21C
100
AcDbEntity
  8
0
100
AcDbLine
 62
7
  6
BYLAYER
 10
21.8212863314
 20
59.9960828173
 11
22.5283901686
 21
60.4043269711
  0
LINE
  5
21D
100
AcDbEntity
  8
0
100
AcDbLine
 62
7
  6
BYLAYER
 10
21.6480653296
 20
59.8878645031
 11
14.4391611595
 21
55.7258265839
  0
LINE
  5
21E
100
AcDbEntity
  8
0
100
AcDbLine
 62
7
  6
BYLAYER
 10
14.6441847611
 20
55.6074588302
 11
21.9980637627
 21
59.8531975078
  0
LINE
  5
21F
100
AcDbEntity
  8
0
100
AcDbLine
 62
7
  6
BYLAYER
 10
11.6465322251
 20
53.6639483853
 11
9.4823214281
 21
52.4144331924
  0
LINE
  5
220
100
AcDbEntity
  8
0
100
AcDbLine
 62
7
  6
BYLAYER
 10
6.6357206765
 20
39.3383839229
 11
7.9488935458
 21
37.0639144204
  0
LINE
  5
221
100
AcDbEntity
  8
0
100
AcDbLine
 62
7
  6
BYLAYER
 10
13.7635544584
 20
26.9926821986
 11
15.0767273277
 21
24.7182126961
  0
LINE
  5
222
100
AcDbEntity
  8
0
100
AcDbLine
 62
7
  6
BYLAYER
 10
9.4823214281
 20
52.4144331924
 11
9.4823214281
 21
49.2970454721
  0
LINE
  5
223
100
AcDbEntity
  8
0
100
AcDbLine
 62
7
  6
BYLAYER
 10
9.4823214281
 20
46.0951133479
 11
9.4823214281
 21
43.1074102755
  0
LINE
  5
224
100
AcDbEntity
  8
0
100
AcDbLine
 62
7
  6
BYLAYER
 10
10.8965291025
 20
54.0969530941
 11
10.8965291025
 21
53.2309215001
  0
LINE
  5
225
100
AcDbEntity
  8
0
100
AcDbLine
 62
7
  6
BYLAYER
 10
24.5366554595
 20
59.5399836627
 11
24.2473092099
 21
59.4119310509
  0
LINE
  5
226
100
AcDbEntity
  8
0
100
AcDbLine
 62
7
  6
BYLAYER
 10
13.7250239385
 20
25.9817377541
 11
14.5359856921
 21
25.6547994834
  0
LINE
  5
227
100
AcDbEntity
  8
0
100
AcDbLine
 62
7
  6
BYLAYER
 10
23.2356294283
 20
21.7841582872
 11
23.3770501958
 21
21.7025066345
  0
LINE
  5
228
100
AcDbEntity
  8
0
100
AcDbLine
 62
7
  6
BYLAYER
 10
19.7505498812
 20
25.3066691769
 11
22.3665635165
 21
23.7963471684
  0
LINE
  5
229
100
AcDbEntity
  8
0
100
AcDbLine
 62
7
  6
BYLAYER
 10
25.1244923693
 20
22.2040922244
 11
27.8242808845
 21
20.6454038607
  0
LINE
  5
22A
100
AcDbEntity
  8
0
100
AcDbLine
 62
7
  6
BYLAYER
 10
16.076731491
 20
25.2955818763
 11
14.7635586218
 21
27.5700513789
  0
LINE
  5
22B
100
AcDbEntity
  8
0
100
AcDbLine
 62
7
  6
BYLAYER
 10
8.9488977092
 20
37.6412836006
 11
7.6357248399
 21
39.9157531032
  0
LINE
  5
22C
100
AcDbEntity
  8
0
100
AcDbLine
 62
7
  6
BYLAYER
 10
11.4051783569
 20
50.8160289722
 11
10.9809160546
 21
50.5710824798
  0
LINE
  5
22D
100
AcDbEntity
  8
0
100
AcDbLine
 62
7
  6
BYLAYER
 10
10.230912932
 20
50.1380555946
 11
10.6551752344
 21
50.383002087
  0
LINE
  5
22E
100
AcDbEntity
  8
0
100
AcDbLine
 62
7
  6
BYLAYER
 10
11.1579449735
 20
50.2644614024
 11
8.4848590505
 21
48.7211637374
  0
LINE
  5
22F
100
AcDbEntity
  8
0
100
AcDbLine
 62
7
  6
BYLAYER
 10
11.8989700915
 20
50.1149577726
 11
12.3232323938
 21
50.359904265
  0
LINE
  5
230
100
AcDbEntity
  8
0
100
AcDbLine
 62
7
  6
BYLAYER
 10
16.2531276886
 20
25.0944137583
 11
17.3843866905
 21
24.940222019
  0
LWPOLYLINE
  5
231
100
AcDbEntity
  8
0
100
AcDbPolyline
 62
7
  6
BYLAYER
 90
4
 70
0
 10
21.3645994039
 20
26.2018876414
 10
22.9628891928
 20
25.8205581127
 10
25.0262137628
 20
26.1586375968
 10
25.0833459664
 20
26.1870417872
  0
LINE
  5
232
100
AcDbEntity
  8
0
100
AcDbLine
 62
7
  6
BYLAYER
 10
29.2384885589
 20
21.4618921684
 11
29.9884916815
 21
21.0288874596
  0
LINE
  5
233
100
AcDbEntity
  8
0
100
AcDbLine
 62
7
  6
BYLAYER
 10
9.7072438653
 20
41.7982701967
 11
10.8062582961
 21
39.8947319312
  0
LINE
  5
234
100
AcDbEntity
  8
0
100
AcDbLine
 62
7
  6
BYLAYER
 10
17.6437933551
 20
28.0518395531
 11
18.742808175
 21
26.1483006137
  0
LINE
  5
235
100
AcDbEntity
  8
0
100
AcDbLine
 62
7
  6
BYLAYER
 10
10.6952206378
 20
46.5332125316
 11
10.9153052357
 21
45.4577138709
  0
LINE
  5
236
100
AcDbEntity
  8
0
100
AcDbLine
 62
7
  6
BYLAYER
 10
12.6009309902
 20
47.6334683489
 11
9.9848523352
 21
46.123083649
  0
LWPOLYLINE
  5
237
100
AcDbEntity
  8
0
100
AcDbPolyline
 62
7
  6
BYLAYER
 90
3
 70
0
 10
22.9403317331
 20
25.6096589115
 10
21.87421237
 20
25.6997093362
 10
21.0071941608
 20
25.9955408598
  0
LINE
  5
238
100
AcDbEntity
  8
0
100
AcDbLine
 62
7
  6
BYLAYER
 10
22.5160694308
 20
25.3647124192
 11
23.3373930551
 21
24.6364125589
  0
LINE
  5
239
100
AcDbEntity
  8
0
100
AcDbLine
 62
7
  6
BYLAYER
 10
15.116273702
 20
47.8832050267
 11
14.6920113997
 21
47.6382585344
  0
LINE
  5
23A
100
AcDbEntity
  8
0
100
AcDbLine
 62
7
  6
BYLAYER
 10
10.9153052357
 20
45.4577138709
 11
11.339567538
 21
45.7026603632
  0
LINE
  5
23B
100
AcDbEntity
  8
0
100
AcDbLine
 62
7
  6
BYLAYER
 10
14.2318776921
 20
45.8706290163
 11
9.6357027502
 21
43.2170420162
  0
LINE
  5
23C
100
AcDbEntity
  8
0
100
AcDbLine
 62
7
  6
BYLAYER
 10
26.2271647759
 20
22.4318884737
 11
26.0501359879
 21
22.7385096268
  0
LINE
  5
23D
100
AcDbEntity
  8
0
100
AcDbLine
 62
7
  6
BYLAYER
 10
10.4079352398
 20
49.8314456655
 11
10.230912932
 21
50.1380555947
  0
LINE
  5
23E
100
AcDbEntity
  8
0
100
AcDbLine
 62
7
  6
BYLAYER
 10
27.8242808845
 20
20.6454038607
 11
26.6514270782
 21
22.6768349661
  0
LINE
  5
23F
100
AcDbEntity
  8
0
100
AcDbLine
 62
7
  6
BYLAYER
 10
10.6551752344
 20
50.383002087
 11
9.4823214281
 21
52.4144331924
  0
LINE
  5
240
100
AcDbEntity
  8
0
100
AcDbLine
 62
7
  6
BYLAYER
 10
10.9809160546
 20
50.5710824798
 11
11.1730947428
 21
50.2382210756
  0
LINE
  5
241
100
AcDbEntity
  8
0
100
AcDbLine
 62
7
  6
BYLAYER
 10
26.7849892103
 20
23.1977767632
 11
26.9771678984
 21
22.8649153589
  0
LINE
  5
242
100
AcDbEntity
  8
0
100
AcDbLine
 62
7
  6
BYLAYER
 10
10.2323245506
 20
52.8474600776
 11
11.4051783569
 21
50.8160289722
  0
LINE
  5
243
100
AcDbEntity
  8
0
100
AcDbLine
 62
7
  6
BYLAYER
 10
27.4014302008
 20
23.1098618513
 11
28.5742840071
 21
21.0784307459
  0
LINE
  5
244
100
AcDbEntity
  8
0
100
AcDbLine
 62
7
  6
BYLAYER
 10
21.4677314689
 20
59.7837493215
 11
21.4677314689
 21
59.7919519859
  0
LINE
  5
245
100
AcDbEntity
  8
0
100
AcDbLine
 62
7
  6
BYLAYER
 10
22.3163867857
 20
23.3763155716
 11
22.3163856081
 21
23.5396111934
  0
LINE
  5
246
100
AcDbEntity
  8
0
100
AcDbLine
 62
7
  6
BYLAYER
 10
22.3163867857
 20
39.7063639142
 11
22.3163856081
 21
39.869659536
  0
LINE
  5
247
100
AcDbEntity
  8
0
100
AcDbLine
 62
7
  6
BYLAYER
 10
40.5790238296
 20
55.8410371286
 11
40.4022460406
 21
55.7389714721
  0
LINE
  5
248
100
AcDbEntity
  8
0
100
AcDbLine
 62
7
  6
BYLAYER
 10
37.2666863487
 20
52.8073121382
 11
44.4318951136
 21
56.9441226541
  0
LINE
  5
249
100
AcDbEntity
  8
0
100
AcDbLine
 62
7
  6
BYLAYER
 10
38.6788499625
 20
51.3751685723
 11
38.3895037128
 21
51.2471159605
  0
LINE
  5
24A
100
AcDbEntity
  8
0
100
AcDbLine
 62
7
  6
BYLAYER
 10
40.2061391853
 20
27.3362579372
 11
40.1990292583
 21
27.3403627626
  0
LINE
  5
24B
100
AcDbEntity
  8
0
100
AcDbLine
 62
7
  6
BYLAYER
 10
22.5160694308
 20
43.1211387149
 11
22.9403317331
 21
43.3660852073
  0
LINE
  5
24C
100
AcDbEntity
  8
0
100
AcDbLine
 62
7
  6
BYLAYER
 10
9.0934349254
 20
46.2790217202
 11
9.2348556928
 21
46.1973700675
  0
LINE
  5
24D
100
AcDbEntity
  8
0
100
AcDbLine
 62
7
  6
BYLAYER
 10
23.2356294283
 20
38.1142066298
 11
23.3770501958
 21
38.0325549771
  0
LINE
  5
24E
100
AcDbEntity
  8
0
100
AcDbLine
 62
7
  6
BYLAYER
 10
14.6920113997
 20
47.6382585344
 11
11.8989700915
 21
50.1149577726
  0
LINE
  5
24F
100
AcDbEntity
  8
0
100
AcDbLine
 62
7
  6
BYLAYER
 10
12.3232323938
 20
50.359904265
 11
15.116273702
 21
47.8832050267
  0
LINE
  5
250
100
AcDbEntity
  8
0
100
AcDbLine
 62
7
  6
BYLAYER
 10
27.0411687578
 20
23.8880459359
 11
26.2927755948
 21
27.5452570827
  0
LINE
  5
251
100
AcDbEntity
  8
0
100
AcDbLine
 62
7
  6
BYLAYER
 10
26.7170378971
 20
27.7902035751
 11
27.4654310601
 21
24.1329924282
  0
LINE
  5
252
100
AcDbEntity
  8
0
100
AcDbLine
 62
7
  6
BYLAYER
 10
25.7333730413
 20
42.6177311036
 11
25.309110739
 21
42.3727846113
  0
LINE
  5
253
100
AcDbEntity
  8
0
100
AcDbLine
 62
7
  6
BYLAYER
 10
25.2109216428
 20
42.0481366792
 11
22.6270535534
 21
40.556348647
  0
LINE
  5
254
100
AcDbEntity
  8
0
100
AcDbLine
 62
7
  6
BYLAYER
 10
7.9488935458
 20
31.5044110878
 11
6.6357206765
 21
30.7462287014
  0
LINE
  5
255
100
AcDbEntity
  8
0
100
AcDbLine
 62
7
  6
BYLAYER
 10
17.7428040116
 20
37.1590423365
 11
13.7635544584
 21
34.8616031152
  0
LINE
  5
256
100
AcDbEntity
  8
0
100
AcDbLine
 62
7
  6
BYLAYER
 10
26.0349860877
 20
41.6578982198
 11
29.2384885589
 21
43.5074574309
  0
LINE
  5
257
100
AcDbEntity
  8
0
100
AcDbLine
 62
7
  6
BYLAYER
 10
40.029361754
 20
49.4430582675
 11
32.6754827523
 21
45.1973195899
  0
LINE
  5
258
100
AcDbEntity
  8
0
100
AcDbLine
 62
7
  6
BYLAYER
 10
40.9132430225
 20
49.7900673536
 11
40.2061391853
 21
49.3818231997
  0
LINE
  5
259
100
AcDbEntity
  8
0
100
AcDbLine
 62
7
  6
BYLAYER
 10
28.5742840071
 20
21.0784307459
 11
28.5742840071
 21
41.3919328203
  0
LINE
  5
25A
100
AcDbEntity
  8
0
100
AcDbLine
 62
7
  6
BYLAYER
 10
26.2927755948
 20
36.5797280664
 11
27.0411687578
 21
39.3727887748
  0
LINE
  5
25B
100
AcDbEntity
  8
0
100
AcDbLine
 62
7
  6
BYLAYER
 10
27.4654310601
 20
39.6177352671
 11
26.7170378971
 21
36.8246745587
  0
LINE
  5
25C
100
AcDbEntity
  8
0
100
AcDbLine
 62
7
  6
BYLAYER
 10
33.1704589489
 20
44.9115514145
 11
29.9884916815
 21
43.0744527221
  0
LINE
  5
25D
100
AcDbEntity
  8
0
100
AcDbLine
 62
7
  6
BYLAYER
 10
40.5596940478
 20
48.7694516139
 11
41.266797885
 21
49.1776957678
  0
LINE
  5
25E
100
AcDbEntity
  8
0
100
AcDbLine
 62
7
  6
BYLAYER
 10
33.1704589489
 20
44.3399990171
 11
40.5243385616
 21
48.5857380473
  0
LINE
  5
25F
100
AcDbEntity
  8
0
100
AcDbLine
 62
7
  6
BYLAYER
 10
29.9884916815
 20
42.2084211281
 11
26.7849892103
 21
40.3588619169
  0
LINE
  5
260
100
AcDbEntity
  8
0
100
AcDbLine
 62
7
  6
BYLAYER
 10
7.6357248399
 20
29.0141802976
 11
8.9488977092
 21
29.7723626841
  0
LINE
  5
261
100
AcDbEntity
  8
0
100
AcDbLine
 62
7
  6
BYLAYER
 10
14.7635586218
 20
33.1295547114
 11
18.742808175
 21
35.4269939327
  0
LINE
  5
262
100
AcDbEntity
  8
0
100
AcDbLine
 62
7
  6
BYLAYER
 10
26.7431254931
 20
39.4686532585
 11
24.1270468381
 21
37.9582685586
  0
LINE
  5
263
100
AcDbEntity
  8
0
100
AcDbLine
 62
7
  6
BYLAYER
 10
43.055980635
 20
48.8793404999
 11
49.8535783437
 21
52.8039119403
  0
LINE
  5
264
100
AcDbEntity
  8
0
100
AcDbLine
 62
7
  6
BYLAYER
 10
27.0411687578
 20
39.3727887748
 11
27.4654310601
 21
39.6177352671
  0
LINE
  5
265
100
AcDbEntity
  8
0
100
AcDbLine
 62
7
  6
BYLAYER
 10
29.9884916815
 20
21.0288874596
 11
29.9884916815
 21
21.8949190536
  0
LINE
  5
266
100
AcDbEntity
  8
0
100
AcDbLine
 62
7
  6
BYLAYER
 10
29.9884916815
 20
42.2084211281
 11
29.9884916815
 21
43.0744527221
  0
LINE
  5
267
100
AcDbEntity
  8
0
100
AcDbLine
 62
7
  6
BYLAYER
 10
26.7170378971
 20
36.8246745587
 11
26.2927755948
 21
36.5797280664
  0
LINE
  5
268
100
AcDbEntity
  8
0
100
AcDbLine
 62
7
  6
BYLAYER
 10
25.309110739
 20
42.3727846113
 11
22.5160694308
 21
43.1211387149
  0
LINE
  5
269
100
AcDbEntity
  8
0
100
AcDbLine
 62
7
  6
BYLAYER
 10
22.9403317331
 20
43.3660852073
 11
25.7333730413
 21
42.6177311036
  0
LINE
  5
26A
100
AcDbEntity
  8
0
100
AcDbLine
 62
7
  6
BYLAYER
 10
27.8242808845
 20
42.6909691232
 11
10.2323245506
 21
52.8474600776
  0
LINE
  5
26B
100
AcDbEntity
  8
0
100
AcDbLine
 62
7
  6
BYLAYER
 10
33.1704589489
 20
22.865986152
 11
33.1704589489
 21
44.9115514145
  0
LINE
  5
26C
100
AcDbEntity
  8
0
100
AcDbLine
 62
7
  6
BYLAYER
 10
41.5223618349
 20
46.4500321384
 11
41.266797885
 21
46.263483639
  0
LINE
  5
26D
100
AcDbEntity
  8
0
100
AcDbLine
 62
7
  6
BYLAYER
 10
45.1506912785
 20
46.5777546411
 11
43.055980635
 21
45.3683801062
  0
LINE
  5
26E
100
AcDbEntity
  8
0
100
AcDbLine
 62
7
  6
BYLAYER
 10
42.1130820536
 20
44.543348651
 11
45.7104479601
 21
46.6202764279
  0
LINE
  5
26F
100
AcDbEntity
  8
0
100
AcDbLine
 62
7
  6
BYLAYER
 10
29.9884916815
 20
43.0744527221
 11
29.2384885589
 21
43.5074574309
  0
LINE
  5
270
100
AcDbEntity
  8
0
100
AcDbLine
 62
7
  6
BYLAYER
 10
11.6465322251
 20
53.6639483853
 11
10.8965291025
 21
54.0969530941
  0
LINE
  5
271
100
AcDbEntity
  8
0
100
AcDbLine
 62
7
  6
BYLAYER
 10
33.1704589489
 20
44.9115514145
 11
14.07849637
 21
55.9340517866
  0
LINE
  5
272
100
AcDbEntity
  8
0
100
AcDbLine
 62
7
  6
BYLAYER
 10
24.5318315802
 20
28.0304790758
 11
19.9356566384
 21
25.3768920756
  0
LINE
  5
273
100
AcDbEntity
  8
0
100
AcDbLine
 62
7
  6
BYLAYER
 10
26.2927755948
 20
27.5452570827
 11
26.7170378971
 21
27.790203575
  0
LINE
  5
274
100
AcDbEntity
  8
0
100
AcDbLine
 62
7
  6
BYLAYER
 10
22.9403317331
 20
25.6096589115
 11
22.5160694308
 21
25.3647124192
  0
LINE
  5
275
100
AcDbEntity
  8
0
100
AcDbLine
 62
7
  6
BYLAYER
 10
40.5243385616
 20
48.5857380473
 11
40.5243385616
 21
27.7649264105
  0
LINE
  5
276
100
AcDbEntity
  8
0
100
AcDbLine
 62
7
  6
BYLAYER
 10
40.5596940478
 20
48.7694516139
 11
40.5596940478
 21
27.5403887685
  0
LINE
  5
277
100
AcDbEntity
  8
0
100
AcDbLine
 62
7
  6
BYLAYER
 10
41.266797885
 20
49.1776957678
 11
41.266797885
 21
27.9486329224
  0
LINE
  5
278
100
AcDbEntity
  8
0
100
AcDbLine
 62
7
  6
BYLAYER
 10
25.2173892287
 20
25.7218223768
 11
22.6270535534
 21
24.2263003044
  0
LINE
  5
279
100
AcDbEntity
  8
0
100
AcDbLine
 62
7
  6
BYLAYER
 10
27.4654310601
 20
24.1329924282
 11
27.0411687578
 21
23.8880459359
  0
LINE
  5
27A
100
AcDbEntity
  8
0
100
AcDbLine
 62
7
  6
BYLAYER
 10
26.8001454597
 20
23.1715252124
 11
24.1270468381
 21
21.628220216
  0
LINE
  5
27B
100
AcDbEntity
  8
0
100
AcDbLine
 62
7
  6
BYLAYER
 10
21.9980637627
 20
59.8531975078
 11
40.029361754
 21
49.4430582675
  0
LINE
  5
27C
100
AcDbEntity
  8
0
100
AcDbLine
 62
7
  6
BYLAYER
 10
21.8212863314
 20
59.9960828173
 11
40.2061391853
 21
49.3818231997
  0
LINE
  5
27D
100
AcDbEntity
  8
0
100
AcDbLine
 62
7
  6
BYLAYER
 10
22.5283901686
 20
60.4043269711
 11
40.9132430225
 21
49.7900673536
  0
LINE
  5
27E
100
AcDbEntity
  8
0
100
AcDbLine
 62
7
  6
BYLAYER
 10
41.5223618349
 20
30.1199837958
 11
41.266797885
 21
29.9334352964
  0
LINE
  5
27F
100
AcDbEntity
  8
0
100
AcDbLine
 62
7
  6
BYLAYER
 10
26.9771678984
 20
22.8649153589
 11
27.4014302008
 21
23.1098618513
  0
LINE
  5
280
100
AcDbEntity
  8
0
100
AcDbLine
 62
7
  6
BYLAYER
 10
26.6514270782
 20
22.6768349661
 11
26.2271647759
 21
22.4318884738
  0
LINE
  5
281
100
AcDbEntity
  8
0
100
AcDbLine
 62
7
  6
BYLAYER
 10
29.9884916815
 20
21.8949190536
 11
27.8242808845
 21
20.6454038607
  0
LINE
  5
282
100
AcDbEntity
  8
0
100
AcDbLine
 62
7
  6
BYLAYER
 10
40.5243385616
 20
27.7649264105
 11
33.1704589489
 21
23.5191873802
  0
LINE
  5
283
100
AcDbEntity
  8
0
100
AcDbLine
 62
7
  6
BYLAYER
 10
40.3793601871
 20
27.4444762514
 11
33.1704589489
 21
23.282440025
  0
LINE
  5
284
100
AcDbEntity
  8
0
100
AcDbLine
 62
7
  6
BYLAYER
 10
41.266797885
 20
27.9486329224
 11
40.5596940478
 21
27.5403887685
  0
LINE
  5
285
100
AcDbEntity
  8
0
100
AcDbLine
 62
7
  6
BYLAYER
 10
41.1632419032
 20
27.7197399516
 11
40.456138066
 21
27.3114957977
  0
LINE
  5
286
100
AcDbEntity
  8
0
100
AcDbLine
 62
7
  6
BYLAYER
 10
33.1704589489
 20
22.865986152
 11
29.9884916815
 21
21.0288874596
  0
LINE
  5
287
100
AcDbEntity
  8
0
100
AcDbLine
 62
7
  6
BYLAYER
 10
46.0792168638
 20
57.0420803145
 11
46.4658379828
 21
56.8930633843
  0
LINE
  5
288
100
AcDbEntity
  8
0
100
AcDbLine
 62
7
  6
BYLAYER
 10
51.4515135433
 20
53.0966330769
 11
51.4515135433
 21
50.3613517555
  0
LINE
  5
289
100
AcDbEntity
  8
0
100
AcDbLine
 62
7
  6
BYLAYER
 10
49.378966619
 20
55.8410582813
 11
49.555742936
 21
55.7389934747
  0
LINE
  5
28A
100
AcDbEntity
  8
0
100
AcDbLine
 62
7
  6
BYLAYER
 10
49.6632304439
 20
53.9539307658
 11
49.8535783437
 21
52.8039119403
  0
ARC
  5
28B
100
AcDbEntity
  8
0
100
AcDbCircle
 62
7
  6
BYLAYER
 10
4.6685379754
 20
28.455867277
 40
15.7061035429
100
AcDbArc
 50
26.3496739958
 51
33.6506014537
  0
ARC
  5
28C
100
AcDbEntity
  8
0
100
AcDbCircle
 62
7
  6
BYLAYER
 10
19.8196572406
 20
37.2033181393
 40
14.6802652337
100
AcDbArc
 50
206.0942013152
 51
213.9060741342
  0
ARC
  5
28D
100
AcDbEntity
  8
0
100
AcDbCircle
 62
7
  6
BYLAYER
 10
2.892794927
 20
27.4306476599
 40
14.6802652338
100
AcDbArc
 50
26.0942013152
 51
33.9060741342
  0
ARC
  5
28E
100
AcDbEntity
  8
0
100
AcDbCircle
 62
7
  6
BYLAYER
 10
46.4401557403
 20
53.1163830535
 40
6.2320721326
100
AcDbArc
 50
298.2316339696
 51
299.9956415273
  0
ARC
  5
28F
100
AcDbEntity
  8
0
100
AcDbCircle
 62
7
  6
BYLAYER
 10
44.2719097061
 20
51.3207482623
 40
6.0
100
AcDbArc
 50
26.0314079855
 51
72.4692346237
  0
ARC
  5
290
100
AcDbEntity
  8
0
100
AcDbCircle
 62
7
  6
BYLAYER
 10
43.4308786752
 20
50.9003721413
 40
5.7046690282
100
AcDbArc
 50
119.9944372321
 51
122.1444540182
  0
ARC
  5
291
100
AcDbEntity
  8
0
100
AcDbCircle
 62
7
  6
BYLAYER
 10
46.5571953792
 20
50.9502421527
 40
5.6464570711
100
AcDbArc
 50
57.844904188
 51
60.0170736485
  0
ARC
  5
292
100
AcDbEntity
  8
0
100
AcDbCircle
 62
7
  6
BYLAYER
 10
10.0122363782
 20
31.2319435967
 40
3.1153513701
100
AcDbArc
 50
9.4862653818
 51
9.7972738412
  0
ARC
  5
293
100
AcDbEntity
  8
0
100
AcDbCircle
 62
7
  6
BYLAYER
 10
10.7040211627
 20
38.9171617953
 40
3.0486637402
100
AcDbArc
 50
109.084088942
 51
130.917329743
  0
ARC
  5
294
100
AcDbEntity
  8
0
100
AcDbCircle
 62
7
  6
BYLAYER
 10
16.7460267142
 20
28.4520398349
 40
3.0486637402
100
AcDbArc
 50
289.084088942
 51
310.917329743
  0
ARC
  5
295
100
AcDbEntity
  8
0
100
AcDbCircle
 62
7
  6
BYLAYER
 10
8.5327769791
 20
37.2073688043
 40
2.8530456734
100
AcDbArc
 50
108.3255427858
 51
131.6758758992
  0
ARC
  5
296
100
AcDbEntity
  8
0
100
AcDbCircle
 62
7
  6
BYLAYER
 10
14.1796751953
 20
27.4265969832
 40
2.8530456734
100
AcDbArc
 50
288.3255427306
 51
311.6758759544
  0
ARC
  5
297
100
AcDbEntity
  8
0
100
AcDbCircle
 62
7
  6
BYLAYER
 10
24.4974093057
 20
56.9752932167
 40
2.7453633819
100
AcDbArc
 50
58.0552857949
 51
59.9953411765
  0
ARC
  5
298
100
AcDbEntity
  8
0
100
AcDbCircle
 62
7
  6
BYLAYER
 10
38.6396038087
 20
48.8104781263
 40
2.7453633819
100
AcDbArc
 50
58.0552857949
 51
59.9953411765
  0
ARC
  5
299
100
AcDbEntity
  8
0
100
AcDbCircle
 62
7
  6
BYLAYER
 10
25.697312442
 20
40.0122232432
 40
1.8163070099
100
AcDbArc
 50
357.011028991
 51
0.0108465987
  0
ARC
  5
29A
100
AcDbEntity
  8
0
100
AcDbCircle
 62
7
  6
BYLAYER
 10
25.6993834646
 20
23.6821788117
 40
1.8142359866
100
AcDbArc
 50
356.9791402582
 51
0.0107354608
  0
ARC
  5
29B
100
AcDbEntity
  8
0
100
AcDbCircle
 62
7
  6
BYLAYER
 10
25.2260954773
 20
40.9552329509
 40
1.7415584641
100
AcDbArc
 50
62.0782015291
 51
63.0172604303
  0
ARC
  5
29C
100
AcDbEntity
  8
0
100
AcDbCircle
 62
7
  6
BYLAYER
 10
25.8236000427
 20
40.0065509835
 40
1.68989569
100
AcDbArc
 50
355.4791190403
 51
356.9798173708
  0
ARC
  5
29D
100
AcDbEntity
  8
0
100
AcDbCircle
 62
7
  6
BYLAYER
 10
9.572716397
 20
47.0582272374
 40
0.9130173541
100
AcDbArc
 50
248.757728189
 51
251.6265464535
  0
ARC
  5
29E
100
AcDbEntity
  8
0
100
AcDbCircle
 62
7
  6
BYLAYER
 10
23.7149108999
 20
22.5633638044
 40
0.9130173541
100
AcDbArc
 50
248.7577281889
 51
251.6265464535
  0
ARC
  5
29F
100
AcDbEntity
  8
0
100
AcDbCircle
 62
7
  6
BYLAYER
 10
23.7149108999
 20
38.8934121469
 40
0.9130173541
100
AcDbArc
 50
248.7577281889
 51
251.6265464535
  0
ARC
  5
2A0
100
AcDbEntity
  8
0
100
AcDbCircle
 62
7
  6
BYLAYER
 10
46.2625490583
 20
54.8633574789
 40
0.7174030763
100
AcDbArc
 50
15.464087354
 51
15.9690491237
  0
ARC
  5
2A1
100
AcDbEntity
  8
0
100
AcDbCircle
 62
7
  6
BYLAYER
 10
43.6954084705
 20
54.8633862187
 40
0.7173289712
100
AcDbArc
 50
164.0300884345
 51
164.5723819021
  0
ARC
  5
2A2
100
AcDbEntity
  8
0
100
AcDbCircle
 62
7
  6
BYLAYER
 10
43.6853490871
 20
54.8661128099
 40
0.7069067263
100
AcDbArc
 50
164.5685189434
 51
168.0831818156
  0
ARC
  5
2A3
100
AcDbEntity
  8
0
100
AcDbCircle
 62
7
  6
BYLAYER
 10
46.287870749
 20
54.8696528097
 40
0.6913198747
100
AcDbArc
 50
7.2901042024
 51
15.5207935646
  0
SPLINE
  5
2A4
100
AcDbEntity
  8
0
100
AcDbSpline
 62
7
  6
BYLAYER
 70
0
 71
3
 72
14
 73
10
 74
0
 42
0.0000001
 43
0.0000001
 44
0.0000000001
 40
0.0
 40
0.0
 40
0.0
 40
0.0
 40
0.1443900592
 40
0.2829965916
 40
0.542238351
 40
0.6635558097
 40
0.7798256817
 40
0.8916893376
 40
1.0
 40
1.0
 40
1.0
 40
1.0
 10
43.564794093
 20
55.6890082312
 30
0.0
 10
43.5289021898
 20
55.6682861549
 30
0.0
 10
43.4598585334
 20
55.6253240298
 30
0.0
 10
43.3339650822
 20
55.5336941738
 30
0.0
 10
43.2237692608
 20
55.4320350549
 30
0.0
 10
43.1338888329
 20
55.321057554
 30
0.0
 10
43.0790366406
 20
55.2368385337
 30
0.0
 10
43.0356741255
 20
55.1503212429
 30
0.0
 10
43.0143171832
 20
55.0906354188
 30
0.0
 10
43.0057638697
 20
55.0607467453
 30
0.0
  0
SPLINE
  5
2A5
100
AcDbEntity
  8
0
100
AcDbSpline
 62
7
  6
BYLAYER
 70
0
 71
3
 72
25
 73
21
 74
0
 42
0.0000001
 43
0.0000001
 44
0.0000000001
 40
0.0
 40
0.0
 40
0.0
 40
0.0
 40
0.0623764153
 40
0.1287259333
 40
0.1983136251
 40
0.2702911852
 40
0.343667171
 40
0.4173993967
 40
0.4904247859
 40
0.5617121723
 40
0.630310407
 40
0.6953987216
 40
0.7563462585
 40
0.8127831718
 40
0.8646835396
 40
0.9124584255
 40
0.9351026861
 40
0.9571080973
 40
0.9786681476
 40
1.0
 40
1.0
 40
1.0
 40
1.0
 10
45.6154122959
 20
54.5051100431
 30
0.0
 10
45.5830805642
 20
54.4864434205
 30
0.0
 10
45.5137824014
 20
54.4522797642
 30
0.0
 10
45.4020037896
 20
54.4117717234
 30
0.0
 10
45.2812022337
 20
54.3811108137
 30
0.0
 10
45.1539789689
 20
54.3609328809
 30
0.0
 10
45.0230189943
 20
54.3516750551
 30
0.0
 10
44.891121004
 20
54.3535315827
 30
0.0
 10
44.7610967589
 20
54.3664624104
 30
0.0
 10
44.6357178744
 20
54.3901918765
 30
0.0
 10
44.517648147
 20
54.4242179168
 30
0.0
 10
44.4093838583
 20
54.4678331754
 30
0.0
 10
44.3132020151
 20
54.5201457885
 30
0.0
 10
44.2311116214
 20
54.5801356439
 30
0.0
 10
44.1648726343
 20
54.6466415497
 30
0.0
 10
44.1234019936
 20
54.7076567748
 30
0.0
 10
44.1003002485
 20
54.7580376903
 30
0.0
 10
44.088044494
 20
54.7958256782
 30
0.0
 10
44.0806658227
 20
54.8340583765
 30
0.0
 10
44.0790172407
 20
54.8597592314
 30
0.0
 10
44.0790160518
 20
54.8725267307
 30
0.0
  0
SPLINE
  5
2A6
100
AcDbEntity
  8
0
100
AcDbSpline
 62
7
  6
BYLAYER
 70
0
 71
3
 72
15
 73
11
 74
0
 42
0.0000001
 43
0.0000001
 44
0.0000000001
 40
0.0
 40
0.0
 40
0.0
 40
0.0
 40
0.1080096153
 40
0.2180558248
 40
0.3319965421
 40
0.4513534649
 40
0.5772591306
 40
0.7104909091
 40
0.8514573947
 40
1.0
 40
1.0
 40
1.0
 40
1.0
 10
45.8790110349
 20
54.8725267136
 30
0.0
 10
45.8790126214
 20
54.8554891053
 30
0.0
 10
45.8760512422
 20
54.8210236676
 30
0.0
 10
45.8628488306
 20
54.7701147809
 30
0.0
 10
45.8410440728
 20
54.7203056132
 30
0.0
 10
45.8109332251
 20
54.6720945781
 30
0.0
 10
45.7728396357
 20
54.6259227495
 30
0.0
 10
45.7271549035
 20
54.5821892164
 30
0.0
 10
45.674332739
 20
54.5413167675
 30
0.0
 10
45.6357044677
 20
54.516825664
 30
0.0
 10
45.6154122959
 20
54.5051100431
 30
0.0
  0
SPLINE
  5
2A7
100
AcDbEntity
  8
0
100
AcDbSpline
 62
7
  6
BYLAYER
 70
0
 71
3
 72
24
 73
20
 74
0
 42
0.0000001
 43
0.0000001
 44
0.0000000001
 40
0.0
 40
0.0
 40
0.0
 40
0.0
 40
0.0216068345
 40
0.0438198238
 40
0.090535162
 40
0.1409883123
 40
0.1955515846
 40
0.2542457263
 40
0.3168089892
 40
0.3827606108
 40
0.4514546232
 40
0.5221253565
 40
0.5939271076
 40
0.6659709968
 40
0.7373566943
 40
0.8072130134
 40
0.87472397
 40
0.9391830064
 40
1.0
 40
1.0
 40
1.0
 40
1.0
 10
46.9522678753
 20
55.0607280123
 30
0.0
 10
46.9447387011
 20
55.0870393778
 30
0.0
 10
46.9264011594
 20
55.1395697855
 30
0.0
 10
46.8771510764
 20
55.2433250499
 30
0.0
 10
46.7915295147
 20
55.3691806827
 30
0.0
 10
46.6569546004
 20
55.5074779657
 30
0.0
 10
46.4914796236
 20
55.6335256367
 30
0.0
 10
46.2982025266
 20
55.7451824569
 30
0.0
 10
46.0806391072
 20
55.8405557793
 30
0.0
 10
45.8427606289
 20
55.917952416
 30
0.0
 10
45.5889274271
 20
55.9759760629
 30
0.0
 10
45.3238145527
 20
56.0135641076
 30
0.0
 10
45.0523194034
 20
56.0300252637
 30
0.0
 10
44.7794685292
 20
56.0250534969
 30
0.0
 10
44.510310423
 20
55.9987456286
 30
0.0
 10
44.249830896
 20
55.9515804265
 30
0.0
 10
44.0028096462
 20
55.8844311146
 30
0.0
 10
43.7738468952
 20
55.7985241701
 30
0.0
 10
43.6315053546
 20
55.7275237661
 30
0.0
 10
43.564794093
 20
55.6890082312
 30
0.0
  0
SPLINE
  5
2A8
100
AcDbEntity
  8
0
100
AcDbSpline
 62
7
  6
BYLAYER
 70
0
 71
3
 72
25
 73
21
 74
0
 42
0.0000001
 43
0.0000001
 44
0.0000000001
 40
0.0
 40
0.0
 40
0.0
 40
0.0
 40
0.0623764153
 40
0.1287259333
 40
0.1983136251
 40
0.2702911852
 40
0.343667171
 40
0.4173993967
 40
0.4904247859
 40
0.5617121723
 40
0.630310407
 40
0.6953987216
 40
0.7563462585
 40
0.8127831718
 40
0.8646835396
 40
0.9124584255
 40
0.9351026861
 40
0.9571080973
 40
0.9786681476
 40
1.0
 40
1.0
 40
1.0
 40
1.0
 10
44.3426147907
 20
55.2399434012
 30
0.0
 10
44.3749465224
 20
55.2586100238
 30
0.0
 10
44.4442446853
 20
55.2927736801
 30
0.0
 10
44.556023297
 20
55.3332817209
 30
0.0
 10
44.6768248529
 20
55.3639426306
 30
0.0
 10
44.8040481177
 20
55.3841205634
 30
0.0
 10
44.9350080923
 20
55.3933783892
 30
0.0
 10
45.0669060826
 20
55.3915218616
 30
0.0
 10
45.1969303278
 20
55.3785910339
 30
0.0
 10
45.3223092123
 20
55.3548615678
 30
0.0
 10
45.4403789396
 20
55.3208355275
 30
0.0
 10
45.5486432283
 20
55.2772202689
 30
0.0
 10
45.6448250715
 20
55.2249076558
 30
0.0
 10
45.7269154653
 20
55.1649178004
 30
0.0
 10
45.7931544523
 20
55.0984118946
 30
0.0
 10
45.834625093
 20
55.0373966695
 30
0.0
 10
45.8577268382
 20
54.987015754
 30
0.0
 10
45.8699825927
 20
54.9492277661
 30
0.0
 10
45.877361264
 20
54.9109950678
 30
0.0
 10
45.879009846
 20
54.8852942129
 30
0.0
 10
45.8790110349
 20
54.8725267136
 30
0.0
  0
SPLINE
  5
2A9
100
AcDbEntity
  8
0
100
AcDbSpline
 62
7
  6
BYLAYER
 70
0
 71
3
 72
15
 73
11
 74
0
 42
0.0000001
 43
0.0000001
 44
0.0000000001
 40
0.0
 40
0.0
 40
0.0
 40
0.0
 40
0.1080096153
 40
0.2180558248
 40
0.3319965421
 40
0.4513534649
 40
0.5772591306
 40
0.7104909091
 40
0.8514573947
 40
1.0
 40
1.0
 40
1.0
 40
1.0
 10
44.0790160518
 20
54.8725267307
 30
0.0
 10
44.0790144652
 20
54.889564339
 30
0.0
 10
44.0819758444
 20
54.9240297767
 30
0.0
 10
44.0951782561
 20
54.9749386634
 30
0.0
 10
44.1169830138
 20
55.0247478311
 30
0.0
 10
44.1470938615
 20
55.0729588662
 30
0.0
 10
44.1851874509
 20
55.1191306948
 30
0.0
 10
44.2308721832
 20
55.1628642279
 30
0.0
 10
44.2836943476
 20
55.2037366768
 30
0.0
 10
44.3223226189
 20
55.2282277803
 30
0.0
 10
44.3426147907
 20
55.2399434012
 30
0.0
  0
SPLINE
  5
2AA
100
AcDbEntity
  8
0
100
AcDbSpline
 62
7
  6
BYLAYER
 70
0
 71
3
 72
15
 73
11
 74
0
 42
0.0000001
 43
0.0000001
 44
0.0000000001
 40
0.0
 40
0.0
 40
0.0
 40
0.0
 40
0.1108402001
 40
0.2280305915
 40
0.3506405188
 40
0.47751401
 40
0.6073320942
 40
0.7386705668
 40
0.8700526173
 40
1.0
 40
1.0
 40
1.0
 40
1.0
 10
49.3790032566
 20
47.6169474866
 30
0.0
 10
49.181984611
 20
47.5031993975
 30
0.0
 10
48.7628758439
 20
47.2925335424
 30
0.0
 10
48.0900640835
 20
47.0343018826
 30
0.0
 10
47.3651917013
 20
46.8284276563
 30
0.0
 10
46.6004327011
 20
46.6783658174
 30
0.0
 10
45.8085257997
 20
46.5865917991
 30
0.0
 10
45.0027128266
 20
46.5546459336
 30
0.0
 10
44.1965542616
 20
46.5830511258
 30
0.0
 10
43.6628499727
 20
46.6424740652
 30
0.0
 10
43.3991466126
 20
46.6824371775
 30
0.0
  0
SPLINE
  5
2AB
100
AcDbEntity
  8
0
100
AcDbSpline
 62
7
  6
BYLAYER
 70
0
 71
3
 72
15
 73
11
 74
0
 42
0.0000001
 43
0.0000001
 44
0.0000000001
 40
0.0
 40
0.0
 40
0.0
 40
0.0
 40
0.1080123198
 40
0.2180611152
 40
0.3319981254
 40
0.4513561294
 40
0.5772779511
 40
0.7104937887
 40
0.851406393
 40
1.0
 40
1.0
 40
1.0
 40
1.0
 10
51.4515135433
 20
50.3613515318
 30
0.0
 10
51.4515135421
 20
50.2388192732
 30
0.0
 10
51.4302295452
 20
49.9909473322
 30
0.0
 10
51.335249614
 20
49.624833508
 30
0.0
 10
51.1784786035
 20
49.2666039696
 30
0.0
 10
50.9618927867
 20
48.9198878102
 30
0.0
 10
50.6879275449
 20
48.5878398631
 30
0.0
 10
50.3594103166
 20
48.2733785059
 30
0.0
 10
49.9795937981
 20
47.9793876642
 30
0.0
 10
49.7017663455
 20
47.8032972854
 30
0.0
 10
49.5557812393
 20
47.7190132482
 30
0.0
  0
SPLINE
  5
2AC
100
AcDbEntity
  8
0
100
AcDbSpline
 62
7
  6
BYLAYER
 70
0
 71
3
 72
15
 73
11
 74
0
 42
0.0000001
 43
0.0000001
 44
0.0000000001
 40
0.0
 40
0.0
 40
0.0
 40
0.0
 40
0.108012075
 40
0.2180606631
 40
0.3319975343
 40
0.4513554864
 40
0.5772773503
 40
0.7104933192
 40
0.8514061298
 40
1.0
 40
1.0
 40
1.0
 40
1.0
 10
51.4515135433
 20
53.0966333006
 30
0.0
 10
51.4515135446
 20
53.2191668635
 30
0.0
 10
51.4302290809
 20
53.4670415008
 30
0.0
 10
51.3352471129
 20
53.8331591779
 30
0.0
 10
51.1784727752
 20
54.1913923046
 30
0.0
 10
50.9618824311
 20
54.5381116802
 30
0.0
 10
50.6879115626
 20
54.8701623845
 30
0.0
 10
50.3593877222
 20
55.1846259601
 30
0.0
 10
49.9795637338
 20
55.4786184049
 30
0.0
 10
49.701730987
 20
55.6547093646
 30
0.0
 10
49.5557431297
 20
55.7389935865
 30
0.0
  0
SPLINE
  5
2AD
100
AcDbEntity
  8
0
100
AcDbSpline
 62
7
  6
BYLAYER
 70
0
 71
3
 72
15
 73
11
 74
0
 42
0.0000001
 43
0.0000001
 44
0.0000000001
 40
0.0
 40
0.0
 40
0.0
 40
0.0
 40
0.1452624161
 40
0.2843551463
 40
0.4171693273
 40
0.5438876681
 40
0.6648622879
 40
0.7806441879
 40
0.8920213161
 40
1.0
 40
1.0
 40
1.0
 40
1.0
 10
40.4022458468
 20
55.7389715839
 30
0.0
 10
40.2804412576
 20
55.6686480913
 30
0.0
 10
40.046655528
 20
55.5226833445
 30
0.0
 10
39.7210687046
 20
55.2829391708
 30
0.0
 10
39.4301807665
 20
55.0285038851
 30
0.0
 10
39.175982914
 20
54.7610390439
 30
0.0
 10
38.9601528029
 20
54.4822331719
 30
0.0
 10
38.7842469814
 20
54.1937980904
 30
0.0
 10
38.6495838096
 20
53.8976861504
 30
0.0
 10
38.5872361978
 20
53.6938709158
 30
0.0
 10
38.5636405394
 20
53.5920200438
 30
0.0
  0
SPLINE
  5
2AE
100
AcDbEntity
  8
0
100
AcDbSpline
 62
7
  6
BYLAYER
 70
0
 71
3
 72
11
 73
7
 74
0
 42
0.0000001
 43
0.0000001
 44
0.0000000001
 40
0.0
 40
0.0
 40
0.0
 40
0.0
 40
0.2331958809
 40
0.478702536
 40
0.7349406869
 40
1.0
 40
1.0
 40
1.0
 40
1.0
 10
49.378966619
 20
55.8410584983
 30
0.0
 10
49.200714254
 20
55.943970221
 30
0.0
 10
48.823540909
 20
56.1361353738
 30
0.0
 10
48.2204457663
 20
56.3770860157
 30
0.0
 10
47.5726307587
 20
56.5754723483
 30
0.0
 10
47.1231520995
 20
56.6761370436
 30
0.0
 10
46.8931734053
 20
56.719064245
 30
0.0
  0
SPLINE
  5
2AF
100
AcDbEntity
  8
0
100
AcDbSpline
 62
7
  6
BYLAYER
 70
0
 71
3
 72
14
 73
10
 74
0
 42
0.0000001
 43
0.0000001
 44
0.0000000001
 40
0.0
 40
0.0
 40
0.0
 40
0.0
 40
0.2664598934
 40
0.3968989934
 40
0.5246992901
 40
0.6493400405
 40
0.7703565087
 40
0.8873726659
 40
1.0
 40
1.0
 40
1.0
 40
1.0
 10
44.241328523
 20
56.8679336461
 30
0.0
 10
43.9015608367
 20
56.8445157164
 30
0.0
 10
43.3966206059
 20
56.7853459722
 30
0.0
 10
42.7382208208
 20
56.6566910184
 30
0.0
 10
42.2632807986
 20
56.5376651353
 30
0.0
 10
41.8071034604
 20
56.3962997739
 30
0.0
 10
41.3727719437
 20
56.2335228981
 30
0.0
 10
40.9633548826
 20
56.0504613341
 30
0.0
 10
40.703691662
 20
55.9130139226
 30
0.0
 10
40.57902383
 20
55.8410373458
 30
0.0
  0
SPLINE
  5
2B0
100
AcDbEntity
  8
0
100
AcDbSpline
 62
7
  6
BYLAYER
 70
0
 71
3
 72
24
 73
20
 74
0
 42
0.0000001
 43
0.0000001
 44
0.0000000001
 40
0.0
 40
0.0
 40
0.0
 40
0.0
 40
0.0747731608
 40
0.1457919225
 40
0.2130384677
 40
0.2453124055
 40
0.2767234294
 40
0.3371198737
 40
0.3947764357
 40
0.4503965784
 40
0.5048386739
 40
0.5590612603
 40
0.6140421941
 40
0.6706933798
 40
0.7297924927
 40
0.7919434073
 40
0.8575581205
 40
0.9268809065
 40
1.0
 40
1.0
 40
1.0
 40
1.0
 10
49.3790032566
 20
50.7604817925
 30
0.0
 10
49.5156403965
 20
50.8393688111
 30
0.0
 10
49.7760356435
 20
51.0040181858
 30
0.0
 10
50.133079463
 20
51.2781730125
 30
0.0
 10
50.3954059324
 20
51.5256193145
 30
0.0
 10
50.5794190305
 20
51.7318899641
 30
0.0
 10
50.7417966071
 20
51.9374325121
 30
0.0
 10
50.9138432079
 20
52.2029319366
 30
0.0
 10
51.0688133627
 20
52.5364337242
 30
0.0
 10
51.1678580614
 20
52.8777208651
 30
0.0
 10
51.2096540929
 20
53.2234260416
 30
0.0
 10
51.1936180494
 20
53.5699505928
 30
0.0
 10
51.119989363
 20
53.9136381648
 30
0.0
 10
50.989767604
 20
54.2510148367
 30
0.0
 10
50.804536752
 20
54.5789038062
 30
0.0
 10
50.5663283628
 20
54.8944032445
 30
0.0
 10
50.2775253167
 20
55.1948546664
 30
0.0
 10
49.9408394257
 20
55.4776973949
 30
0.0
 10
49.6929236426
 20
55.6484669817
 30
0.0
 10
49.5623128353
 20
55.7305921954
 30
0.0
  0
SPLINE
  5
2B1
100
AcDbEntity
  8
0
100
AcDbSpline
 62
7
  6
BYLAYER
 70
0
 71
3
 72
15
 73
11
 74
0
 42
0.0000001
 43
0.0000001
 44
0.0000000001
 40
0.0
 40
0.0
 40
0.0
 40
0.0
 40
0.1327878889
 40
0.2652247998
 40
0.3963092647
 40
0.5250709521
 40
0.6505976943
 40
0.7720493974
 40
0.8887207808
 40
1.0
 40
1.0
 40
1.0
 40
1.0
 10
44.5454635264
 20
49.7169839346
 30
0.0
 10
44.7668691212
 20
49.7080563841
 30
0.0
 10
45.2097667708
 20
49.7039047404
 30
0.0
 10
45.8705948337
 20
49.7384359105
 30
0.0
 10
46.5213499978
 20
49.8133240007
 30
0.0
 10
47.154637599
 20
49.9277215842
 30
0.0
 10
47.7632901753
 20
50.0803422594
 30
0.0
 10
48.3404834765
 20
50.2694622325
 30
0.0
 10
48.879617845
 20
50.4929673749
 30
0.0
 10
49.218187632
 20
50.6676354026
 30
0.0
 10
49.3790032566
 20
50.7604817925
 30
0.0
  0
SPLINE
  5
2B2
100
AcDbEntity
  8
0
100
AcDbSpline
 62
7
  6
BYLAYER
 70
0
 71
3
 72
15
 73
11
 74
0
 42
0.0000001
 43
0.0000001
 44
0.0000000001
 40
0.0
 40
0.0
 40
0.0
 40
0.0
 40
0.1444043019
 40
0.2827203222
 40
0.4149926917
 40
0.5414592518
 40
0.6625074663
 40
0.7787221034
 40
0.8908926696
 40
1.0
 40
1.0
 40
1.0
 40
1.0
 10
40.395677144
 20
55.7305688647
 30
0.0
 10
40.2885031056
 20
55.6631789853
 30
0.0
 10
40.0831193891
 20
55.5239569898
 30
0.0
 10
39.7981733615
 20
55.2971364488
 30
0.0
 10
39.5445428501
 20
55.0580615534
 30
0.0
 10
39.3237937641
 20
54.8081174432
 30
0.0
 10
39.1372928797
 20
54.5487467235
 30
0.0
 10
38.9862598849
 20
54.2814438287
 30
0.0
 10
38.8717674556
 20
54.0078586304
 30
0.0
 10
38.8197603767
 20
53.8202999488
 30
0.0
 10
38.8003922428
 20
53.726625992
 30
0.0
  0
SPLINE
  5
2B3
100
AcDbEntity
  8
0
100
AcDbSpline
 62
7
  6
BYLAYER
 70
0
 71
3
 72
15
 73
11
 74
0
 42
0.0000001
 43
0.0000001
 44
0.0000000001
 40
0.0
 40
0.0
 40
0.0
 40
0.0
 40
0.1120429252
 40
0.2299247243
 40
0.3527757398
 40
0.4795108856
 40
0.6089183431
 40
0.7396979187
 40
0.8705064735
 40
1.0
 40
1.0
 40
1.0
 40
1.0
 10
49.3881581618
 20
47.6256631746
 30
0.0
 10
49.1859189143
 20
47.5170238306
 30
0.0
 10
48.7588204405
 20
47.3160687822
 30
0.0
 10
48.0782992359
 20
47.0698491795
 30
0.0
 10
47.3504034701
 20
46.8740347224
 30
0.0
 10
46.586261095
 20
46.7316494206
 30
0.0
 10
45.7975265851
 20
46.6448347587
 30
0.0
 10
44.9962513629
 20
46.6149271193
 30
0.0
 10
44.1947585215
 20
46.6423710157
 30
0.0
 10
43.6638654432
 20
46.6991243685
 30
0.0
 10
43.4012877106
 20
46.7372241612
 30
0.0
  0
SPLINE
  5
2B4
100
AcDbEntity
  8
0
100
AcDbSpline
 62
7
  6
BYLAYER
 70
0
 71
3
 72
15
 73
11
 74
0
 42
0.0000001
 43
0.0000001
 44
0.0000000001
 40
0.0
 40
0.0
 40
0.0
 40
0.0
 40
0.148593607
 40
0.2895062113
 40
0.4227220489
 40
0.5486438706
 40
0.6680018746
 40
0.7819388848
 40
0.8919876802
 40
1.0
 40
1.0
 40
1.0
 40
1.0
 10
49.5557812393
 20
50.454295017
 30
0.0
 10
49.7017663455
 20
50.5385790542
 30
0.0
 10
49.9795937981
 20
50.714669433
 30
0.0
 10
50.3594103166
 20
51.0086602747
 30
0.0
 10
50.6879275449
 20
51.3231216319
 30
0.0
 10
50.9618927867
 20
51.6551695789
 30
0.0
 10
51.1784786035
 20
52.0018857384
 30
0.0
 10
51.335249614
 20
52.3601152768
 30
0.0
 10
51.4302295452
 20
52.726229101
 30
0.0
 10
51.4515135421
 20
52.974101042
 30
0.0
 10
51.4515135433
 20
53.0966333006
 30
0.0
  0
SPLINE
  5
2B5
100
AcDbEntity
  8
0
100
AcDbSpline
 62
7
  6
BYLAYER
 70
0
 71
3
 72
15
 73
11
 74
0
 42
0.0000001
 43
0.0000001
 44
0.0000000001
 40
0.0
 40
0.0
 40
0.0
 40
0.0
 40
0.1317523667
 40
0.2638518367
 40
0.3950959075
 40
0.5243050571
 40
0.650359311
 40
0.7722260097
 40
0.8890181694
 40
1.0
 40
1.0
 40
1.0
 40
1.0
 10
44.0069231798
 20
49.4021731386
 30
0.0
 10
44.2575728508
 20
49.3801874306
 30
0.0
 10
44.7612072111
 20
49.3534138168
 30
0.0
 10
45.5162003568
 20
49.3641664574
 30
0.0
 10
46.2639491105
 20
49.4255090185
 30
0.0
 10
46.9942824345
 20
49.5366091267
 30
0.0
 10
47.6973165343
 20
49.6959717373
 30
0.0
 10
48.363596889
 20
49.9014539261
 30
0.0
 10
48.9840432915
 20
50.1502886664
 30
0.0
 10
49.3722304771
 20
50.3483225675
 30
0.0
 10
49.5557812393
 20
50.454295017
 30
0.0
  0
SPLINE
  5
2B6
100
AcDbEntity
  8
0
100
AcDbSpline
 62
7
  6
BYLAYER
 70
0
 71
3
 72
14
 73
10
 74
0
 42
0.0000001
 43
0.0000001
 44
0.0000000001
 40
0.0
 40
0.0
 40
0.0
 40
0.0
 40
0.1080459323
 40
0.2181313488
 40
0.3321039321
 40
0.4515028882
 40
0.5774599497
 40
0.7107294907
 40
1.0
 40
1.0
 40
1.0
 40
1.0
 10
8.4848608579
 20
48.7211606066
 30
0.0
 10
8.4602659546
 20
48.7069644561
 30
0.0
 10
8.412982904
 20
48.6739661927
 30
0.0
 10
8.3505088229
 20
48.612476417
 30
0.0
 10
8.2967672785
 20
48.539502379
 30
0.0
 10
8.2522879838
 20
48.4558510182
 30
0.0
 10
8.2173712585
 20
48.362380286
 30
0.0
 10
8.1830776316
 20
48.2221021366
 30
0.0
 10
8.1741959184
 20
48.1105009656
 30
0.0
 10
8.1741964657
 20
48.0344715316
 30
0.0
  0
SPLINE
  5
2B7
100
AcDbEntity
  8
0
100
AcDbSpline
 62
7
  6
BYLAYER
 70
0
 71
3
 72
15
 73
11
 74
0
 42
0.0000001
 43
0.0000001
 44
0.0000000001
 40
0.0
 40
0.0
 40
0.0
 40
0.0
 40
0.1141541119
 40
0.2373245329
 40
0.3669731274
 40
0.4999944533
 40
0.633017665
 40
0.7626666201
 40
0.8858475624
 40
1.0
 40
1.0
 40
1.0
 40
1.0
 10
8.1741991819
 20
47.8711750232
 30
0.0
 10
8.1741995373
 20
47.7985116408
 30
0.0
 10
8.1875095584
 20
47.6473046817
 30
0.0
 10
8.240566086
 20
47.4191917432
 30
0.0
 10
8.3255609238
 20
47.1881324587
 30
0.0
 10
8.4393139332
 20
46.9628118394
 30
0.0
 10
8.5775710672
 20
46.7516388469
 30
0.0
 10
8.7351770395
 20
46.5624907638
 30
0.0
 10
8.9062090827
 20
46.4024864571
 30
0.0
 10
9.0305071573
 20
46.3153522621
 30
0.0
 10
9.0934349254
 20
46.2790217202
 30
0.0
  0
SPLINE
  5
2B8
100
AcDbEntity
  8
0
100
AcDbSpline
 62
7
  6
BYLAYER
 70
0
 71
3
 72
15
 73
11
 74
0
 42
0.0000001
 43
0.0000001
 44
0.0000000001
 40
0.0
 40
0.0
 40
0.0
 40
0.0
 40
0.1485042935
 40
0.2894872188
 40
0.4227426792
 40
0.5486466522
 40
0.6679907669
 40
0.7819345207
 40
0.8919862593
 40
1.0
 40
1.0
 40
1.0
 40
1.0
 10
9.2348556928
 20
46.1973700675
 30
0.0
 10
9.2686676639
 20
46.1778491585
 30
0.0
 10
9.33620642
 20
46.1425121734
 30
0.0
 10
9.4392181353
 20
46.1003247061
 30
0.0
 10
9.5404227528
 20
46.0708245785
 30
0.0
 10
9.6388136548
 20
46.0543135649
 30
0.0
 10
9.7334908881
 20
46.0510391906
 30
0.0
 10
9.823553793
 20
46.061072271
 30
0.0
 10
9.9080428772
 20
46.0844361676
 30
0.0
 10
9.9602561126
 20
46.1088909112
 30
0.0
 10
9.9848505277
 20
46.1230867799
 30
0.0
  0
SPLINE
  5
2B9
100
AcDbEntity
  8
0
100
AcDbSpline
 62
7
  6
BYLAYER
 70
0
 71
3
 72
14
 73
10
 74
0
 42
0.0000001
 43
0.0000001
 44
0.0000000001
 40
0.0
 40
0.0
 40
0.0
 40
0.0
 40
0.1157841229
 40
0.2326371803
 40
0.3515721966
 40
0.4732404405
 40
0.598388851
 40
0.7276656496
 40
1.0
 40
1.0
 40
1.0
 40
1.0
 10
24.5366554595
 20
59.5399836627
 30
0.0
 10
24.5907015794
 20
59.5639022268
 30
0.0
 10
24.7031566725
 20
59.6036899944
 30
0.0
 10
24.8799028063
 20
59.6380107918
 30
0.0
 10
25.0626697512
 20
59.6476668583
 30
0.0
 10
25.2492910189
 20
59.6333949091
 30
0.0
 10
25.4380794101
 20
59.5963206702
 30
0.0
 10
25.6952752902
 20
59.5166238159
 30
0.0
 10
25.8814032109
 20
59.4273579459
 30
0.0
 10
26.0017933223
 20
59.3578522551
 30
0.0
  0
SPLINE
  5
2BA
100
AcDbEntity
  8
0
100
AcDbSpline
 62
7
  6
BYLAYER
 70
0
 71
3
 72
14
 73
10
 74
0
 42
0.0000001
 43
0.0000001
 44
0.0000000001
 40
0.0
 40
0.0
 40
0.0
 40
0.0
 40
0.1133174294
 40
0.2314541775
 40
0.3537748088
 40
0.4796739531
 40
0.6082848013
 40
0.7386114934
 40
1.0
 40
1.0
 40
1.0
 40
1.0
 10
26.0017933223
 20
59.3578522551
 30
0.0
 10
26.0830054458
 20
59.3109654744
 30
0.0
 10
26.2439854931
 20
59.2065220222
 30
0.0
 10
26.4743478598
 20
59.0252903347
 30
0.0
 10
26.6964074783
 20
58.8183896729
 30
0.0
 10
26.9076437494
 20
58.5886004183
 30
0.0
 10
27.1056623036
 20
58.3388004264
 30
0.0
 10
27.348870561
 20
57.9831937971
 30
0.0
 10
27.5040383767
 20
57.6970228337
 30
0.0
 10
27.5935961426
 20
57.5001227869
 30
0.0
  0
SPLINE
  5
2BB
100
AcDbEntity
  8
0
100
AcDbSpline
 62
7
  6
BYLAYER
 70
0
 71
3
 72
9
 73
5
 74
0
 42
0.0000001
 43
0.0000001
 44
0.0000000001
 40
0.0
 40
0.0
 40
0.0
 40
0.0
 40
0.2579356184
 40
1.0
 40
1.0
 40
1.0
 40
1.0
 10
9.0934349254
 20
46.2790217202
 30
0.0
 10
9.1057216811
 20
46.2719281189
 30
0.0
 10
9.1538307824
 20
46.2452643473
 30
0.0
 10
9.2038731307
 20
46.2220247031
 30
0.0
 10
9.241918958
 20
46.2072432521
 30
0.0
  0
SPLINE
  5
2BC
100
AcDbEntity
  8
0
100
AcDbSpline
 62
7
  6
BYLAYER
 70
0
 71
3
 72
26
 73
22
 74
0
 42
0.0000001
 43
0.0000001
 44
0.0000000001
 40
0.0
 40
0.0
 40
0.0
 40
0.0
 40
0.0536350389
 40
0.1022095731
 40
0.1252208118
 40
0.1477607895
 40
0.1701948577
 40
0.1928972774
 40
0.2162183051
 40
0.2404644715
 40
0.2925417291
 40
0.3503843049
 40
0.4141680672
 40
0.483333723
 40
0.556799648
 40
0.6331345188
 40
0.7106966483
 40
0.7877664117
 40
0.8626465454
 40
0.9338167326
 40
1.0
 40
1.0
 40
1.0
 40
1.0
 10
9.2849247748
 20
46.1917535384
 30
0.0
 10
9.3369411134
 20
46.1745088311
 30
0.0
 10
9.4395923601
 20
46.150768629
 30
0.0
 10
9.5692201499
 20
46.1532678277
 30
0.0
 10
9.6628883908
 20
46.1765471864
 30
0.0
 10
9.727165331
 20
46.2036440371
 30
0.0
 10
9.7860614133
 20
46.2404306618
 30
0.0
 10
9.8389941924
 20
46.286582196
 30
0.0
 10
9.8855333866
 20
46.3415966296
 30
0.0
 10
9.9397602829
 20
46.4281118764
 30
0.0
 10
9.9886988134
 20
46.5576824281
 30
0.0
 10
10.0155457285
 20
46.7341052954
 30
0.0
 10
10.0119451811
 20
46.9297963601
 30
0.0
 10
9.9781930832
 20
47.1385878294
 30
0.0
 10
9.9154830707
 20
47.353873751
 30
0.0
 10
9.8258611306
 20
47.5686844574
 30
0.0
 10
9.7122625723
 20
47.7760245832
 30
0.0
 10
9.5783971485
 20
47.9690928146
 30
0.0
 10
9.428633811
 20
48.1416210672
 30
0.0
 10
9.2678754623
 20
48.2879072581
 30
0.0
 10
9.1519969523
 20
48.3681179676
 30
0.0
 10
9.0934349254
 20
48.4019280047
 30
0.0
  0
SPLINE
  5
2BD
100
AcDbEntity
  8
0
100
AcDbSpline
 62
7
  6
BYLAYER
 70
0
 71
3
 72
18
 73
14
 74
0
 42
0.0000001
 43
0.0000001
 44
0.0000000001
 40
0.0
 40
0.0
 40
0.0
 40
0.0
 40
0.1483859398
 40
0.28276579
 40
0.4045216119
 40
0.4619058007
 40
0.5177307865
 40
0.5727867107
 40
0.6279170034
 40
0.6839612072
 40
0.7416862523
 40
0.8644425563
 40
1.0
 40
1.0
 40
1.0
 40
1.0
 10
9.0934349254
 20
48.4019280047
 30
0.0
 10
9.0419252309
 20
48.4316664679
 30
0.0
 10
8.9393940023
 20
48.4813869848
 30
0.0
 10
8.7821303613
 20
48.52485464
 30
0.0
 10
8.6551198886
 20
48.5304237679
 30
0.0
 10
8.5619074177
 20
48.5150608573
 30
0.0
 10
8.4974083242
 20
48.4944918079
 30
0.0
 10
8.4375538131
 20
48.4648282395
 30
0.0
 10
8.3828742793
 20
48.4262998735
 30
0.0
 10
8.3338416727
 20
48.3792588395
 30
0.0
 10
8.2753277723
 20
48.304298179
 30
0.0
 10
8.2186958568
 20
48.1894264401
 30
0.0
 10
8.1942798895
 20
48.0880399609
 30
0.0
 10
8.1860626611
 20
48.0343290468
 30
0.0
  0
SPLINE
  5
2BE
100
AcDbEntity
  8
0
100
AcDbSpline
 62
7
  6
BYLAYER
 70
0
 71
3
 72
9
 73
5
 74
0
 42
0.0000001
 43
0.0000001
 44
0.0000000001
 40
0.0
 40
0.0
 40
0.0
 40
0.0
 40
0.2419772693
 40
1.0
 40
1.0
 40
1.0
 40
1.0
 10
8.1860626611
 20
48.0343290468
 30
0.0
 10
8.1840661376
 20
48.0212790141
 30
0.0
 10
8.1769427668
 20
47.967177941
 30
0.0
 10
8.1741989797
 20
47.9125314699
 30
0.0
 10
8.1741991819
 20
47.8711750232
 30
0.0
  0
SPLINE
  5
2BF
100
AcDbEntity
  8
0
100
AcDbSpline
 62
7
  6
BYLAYER
 70
0
 71
3
 72
15
 73
11
 74
0
 42
0.0000001
 43
0.0000001
 44
0.0000000001
 40
0.0
 40
0.0
 40
0.0
 40
0.0
 40
0.1485042935
 40
0.2894872188
 40
0.4227426792
 40
0.5486466522
 40
0.6679907669
 40
0.7819345207
 40
0.8919862593
 40
1.0
 40
1.0
 40
1.0
 40
1.0
 10
9.2348556928
 20
48.6468773189
 30
0.0
 10
9.2010437217
 20
48.6663982279
 30
0.0
 10
9.1335049657
 20
48.7017352131
 30
0.0
 10
9.0304932503
 20
48.7439226803
 30
0.0
 10
8.9292886329
 20
48.7734228079
 30
0.0
 10
8.8308977309
 20
48.7899338215
 30
0.0
 10
8.7362204976
 20
48.7932081959
 30
0.0
 10
8.6461575926
 20
48.7831751154
 30
0.0
 10
8.5616685084
 20
48.7598112189
 30
0.0
 10
8.509455273
 20
48.7353564752
 30
0.0
 10
8.4848608579
 20
48.7211606066
 30
0.0
  0
SPLINE
  5
2C0
100
AcDbEntity
  8
0
100
AcDbSpline
 62
7
  6
BYLAYER
 70
0
 71
3
 72
25
 73
21
 74
0
 42
0.0000001
 43
0.0000001
 44
0.0000000001
 40
0.0
 40
0.0
 40
0.0
 40
0.0
 40
0.0213318983
 40
0.0428928102
 40
0.0648981603
 40
0.087542819
 40
0.135318404
 40
0.1872201929
 40
0.2436573173
 40
0.304604889
 40
0.3696935311
 40
0.4382905898
 40
0.5095767823
 40
0.5826015838
 40
0.6563322964
 40
0.7297102087
 40
0.8016872329
 40
0.8712712011
 40
0.9376317001
 40
1.0
 40
1.0
 40
1.0
 40
1.0
 10
9.9848505277
 20
46.1230867799
 30
0.0
 10
10.0032802134
 20
46.1337243737
 30
0.0
 10
10.0390067816
 20
46.1575189381
 30
0.0
 10
10.0880282757
 20
46.2000465222
 30
0.0
 10
10.1323742911
 20
46.2492126063
 30
0.0
 10
10.1858347281
 20
46.3245491475
 30
0.0
 10
10.2393564982
 20
46.4352492083
 30
0.0
 10
10.2801434792
 20
46.5862853623
 30
0.0
 10
10.2983283672
 20
46.7547655276
 30
0.0
 10
10.2936881674
 20
46.9371885429
 30
0.0
 10
10.2664172481
 20
47.1298007515
 30
0.0
 10
10.2171416957
 20
47.3285747937
 30
0.0
 10
10.1469172127
 20
47.5293195617
 30
0.0
 10
10.0572241737
 20
47.7277659321
 30
0.0
 10
9.9499857555
 20
47.919691173
 30
0.0
 10
9.8274908168
 20
48.1010030914
 30
0.0
 10
9.6923513339
 20
48.2678216184
 30
0.0
 10
9.5474206599
 20
48.4166379313
 30
0.0
 10
9.3957940254
 20
48.5442089366
 30
0.0
 10
9.2887355353
 20
48.6157704811
 30
0.0
 10
9.2348556928
 20
48.6468773189
 30
0.0
  0
SPLINE
  5
2C1
100
AcDbEntity
  8
0
100
AcDbSpline
 62
7
  6
BYLAYER
 70
0
 71
3
 72
13
 73
9
 74
0
 42
0.0000001
 43
0.0000001
 44
0.0000000001
 40
0.0
 40
0.0
 40
0.0
 40
0.0
 40
0.1124534024
 40
0.2300036052
 40
0.351994767
 40
0.4777269244
 40
0.7368247996
 40
1.0
 40
1.0
 40
1.0
 40
1.0
 10
25.9499830472
 20
59.3048961065
 30
0.0
 10
26.0227550932
 20
59.259547415
 30
0.0
 10
26.16748831
 20
59.1600698832
 30
0.0
 10
26.3760277269
 20
58.9907251896
 30
0.0
 10
26.5789267871
 20
58.7995655525
 30
0.0
 10
26.8414753516
 20
58.5156485831
 30
0.0
 10
27.1405557409
 20
58.1206218171
 30
0.0
 10
27.3411745969
 20
57.7753183252
 30
0.0
 10
27.4311823855
 20
57.5959661874
 30
0.0
  0
SPLINE
  5
2C2
100
AcDbEntity
  8
0
100
AcDbSpline
 62
7
  6
BYLAYER
 70
0
 71
3
 72
14
 73
10
 74
0
 42
0.0000001
 43
0.0000001
 44
0.0000000001
 40
0.0
 40
0.0
 40
0.0
 40
0.0
 40
0.1077452573
 40
0.2183077056
 40
0.3331200641
 40
0.4533171871
 40
0.7125723149
 40
0.8528386241
 40
1.0
 40
1.0
 40
1.0
 40
1.0
 10
24.5366563709
 20
59.5399819452
 30
0.0
 10
24.5824976159
 20
59.5602733059
 30
0.0
 10
24.6787742355
 20
59.5941055619
 30
0.0
 10
24.8315594678
 20
59.6230991758
 30
0.0
 10
24.9926793661
 20
59.6306030672
 30
0.0
 10
25.2223839123
 20
59.6116229259
 30
0.0
 10
25.4580822427
 20
59.5485222849
 30
0.0
 10
25.6925098082
 20
59.4494483172
 30
0.0
 10
25.8109864919
 20
59.3869708649
 30
0.0
 10
25.8702843154
 20
59.352736025
 30
0.0
  0
SPLINE
  5
2C3
100
AcDbEntity
  8
0
100
AcDbSpline
 62
7
  6
BYLAYER
 70
0
 71
3
 72
14
 73
10
 74
0
 42
0.0000001
 43
0.0000001
 44
0.0000000001
 40
0.0
 40
0.0
 40
0.0
 40
0.0
 40
0.1080459323
 40
0.2181313488
 40
0.3321039321
 40
0.4515028882
 40
0.5774599497
 40
0.7107294907
 40
1.0
 40
1.0
 40
1.0
 40
1.0
 10
22.6270553609
 20
24.2262971736
 30
0.0
 10
22.6024604576
 20
24.2121010231
 30
0.0
 10
22.5551774069
 20
24.1791027597
 30
0.0
 10
22.4927033258
 20
24.117612984
 30
0.0
 10
22.4389617815
 20
24.044638946
 30
0.0
 10
22.3944824868
 20
23.9609875852
 30
0.0
 10
22.3595657614
 20
23.867516853
 30
0.0
 10
22.3252721345
 20
23.7272387036
 30
0.0
 10
22.3163904214
 20
23.6156375326
 30
0.0
 10
22.3163909686
 20
23.5396080987
 30
0.0
  0
SPLINE
  5
2C4
100
AcDbEntity
  8
0
100
AcDbSpline
 62
7
  6
BYLAYER
 70
0
 71
3
 72
15
 73
11
 74
0
 42
0.0000001
 43
0.0000001
 44
0.0000000001
 40
0.0
 40
0.0
 40
0.0
 40
0.0
 40
0.1141541119
 40
0.2373245329
 40
0.3669731274
 40
0.4999944533
 40
0.633017665
 40
0.7626666201
 40
0.8858475624
 40
1.0
 40
1.0
 40
1.0
 40
1.0
 10
22.3163936849
 20
23.3763115902
 30
0.0
 10
22.3163940403
 20
23.3036482078
 30
0.0
 10
22.3297040613
 20
23.1524412487
 30
0.0
 10
22.3827605889
 20
22.9243283102
 30
0.0
 10
22.4677554267
 20
22.6932690257
 30
0.0
 10
22.5815084362
 20
22.4679484064
 30
0.0
 10
22.7197655702
 20
22.2567754139
 30
0.0
 10
22.8773715425
 20
22.0676273308
 30
0.0
 10
23.0484035856
 20
21.9076230241
 30
0.0
 10
23.1727016603
 20
21.8204888291
 30
0.0
 10
23.2356294283
 20
21.7841582872
 30
0.0
  0
SPLINE
  5
2C5
100
AcDbEntity
  8
0
100
AcDbSpline
 62
7
  6
BYLAYER
 70
0
 71
3
 72
15
 73
11
 74
0
 42
0.0000001
 43
0.0000001
 44
0.0000000001
 40
0.0
 40
0.0
 40
0.0
 40
0.0
 40
0.1485042935
 40
0.2894872188
 40
0.4227426792
 40
0.5486466522
 40
0.6679907669
 40
0.7819345207
 40
0.8919862593
 40
1.0
 40
1.0
 40
1.0
 40
1.0
 10
23.3770501958
 20
21.7025066345
 30
0.0
 10
23.4108621668
 20
21.6829857255
 30
0.0
 10
23.4784009229
 20
21.6476487404
 30
0.0
 10
23.5814126382
 20
21.6054612731
 30
0.0
 10
23.6826172557
 20
21.5759611455
 30
0.0
 10
23.7810081577
 20
21.5594501319
 30
0.0
 10
23.875685391
 20
21.5561757576
 30
0.0
 10
23.965748296
 20
21.566208838
 30
0.0
 10
24.0502373801
 20
21.5895727346
 30
0.0
 10
24.1024506156
 20
21.6140274782
 30
0.0
 10
24.1270450307
 20
21.6282233469
 30
0.0
  0
SPLINE
  5
2C6
100
AcDbEntity
  8
0
100
AcDbSpline
 62
7
  6
BYLAYER
 70
0
 71
3
 72
20
 73
16
 74
0
 42
0.0000001
 43
0.0000001
 44
0.0000000001
 40
0.0
 40
0.0
 40
0.0
 40
0.0
 40
0.1442866648
 40
0.2877556653
 40
0.4267434873
 40
0.4936174089
 40
0.5583268676
 40
0.6206845391
 40
0.6806201277
 40
0.7381777273
 40
0.793535254
 40
0.8469925331
 40
0.898945596
 40
0.9497576244
 40
1.0
 40
1.0
 40
1.0
 40
1.0
 10
41.2825132472
 20
33.7897742836
 30
0.0
 10
41.3949131578
 20
33.6326476866
 30
0.0
 10
41.5996428707
 20
33.3048804394
 30
0.0
 10
41.8416706943
 20
32.7858344662
 30
0.0
 10
41.984519872
 20
32.3387993635
 30
0.0
 10
42.0573292693
 20
31.9836246641
 30
0.0
 10
42.090039674
 20
31.725737999
 30
0.0
 10
42.1009311037
 20
31.4752800189
 30
0.0
 10
42.0894787503
 20
31.2343751545
 30
0.0
 10
42.0551338187
 20
31.0050588816
 30
0.0
 10
41.9973748816
 20
30.7893645646
 30
0.0
 10
41.9155635702
 20
30.5895654621
 30
0.0
 10
41.8094028385
 20
30.4084313905
 30
0.0
 10
41.6792098202
 20
30.2491587462
 30
0.0
 10
41.5766972682
 20
30.1596458591
 30
0.0
 10
41.5223618349
 20
30.1199837958
 30
0.0
  0
SPLINE
  5
2C7
100
AcDbEntity
  8
0
100
AcDbSpline
 62
7
  6
BYLAYER
 70
0
 71
3
 72
9
 73
5
 74
0
 42
0.0000001
 43
0.0000001
 44
0.0000000001
 40
0.0
 40
0.0
 40
0.0
 40
0.0
 40
0.2579356184
 40
1.0
 40
1.0
 40
1.0
 40
1.0
 10
23.2356294283
 20
21.7841582872
 30
0.0
 10
23.2479161841
 20
21.7770646859
 30
0.0
 10
23.2960252854
 20
21.7504009143
 30
0.0
 10
23.3460676337
 20
21.7271612701
 30
0.0
 10
23.3841134609
 20
21.7123798191
 30
0.0
  0
SPLINE
  5
2C8
100
AcDbEntity
  8
0
100
AcDbSpline
 62
7
  6
BYLAYER
 70
0
 71
3
 72
26
 73
22
 74
0
 42
0.0000001
 43
0.0000001
 44
0.0000000001
 40
0.0
 40
0.0
 40
0.0
 40
0.0
 40
0.0536350389
 40
0.1022095731
 40
0.1252208118
 40
0.1477607895
 40
0.1701948577
 40
0.1928972774
 40
0.2162183051
 40
0.2404644715
 40
0.2925417291
 40
0.3503843049
 40
0.4141680672
 40
0.483333723
 40
0.556799648
 40
0.6331345188
 40
0.7106966483
 40
0.7877664117
 40
0.8626465454
 40
0.9338167326
 40
1.0
 40
1.0
 40
1.0
 40
1.0
 10
23.4271192777
 20
21.6968901054
 30
0.0
 10
23.4791356163
 20
21.6796453981
 30
0.0
 10
23.581786863
 20
21.655905196
 30
0.0
 10
23.7114146528
 20
21.6584043947
 30
0.0
 10
23.8050828938
 20
21.6816837534
 30
0.0
 10
23.869359834
 20
21.7087806041
 30
0.0
 10
23.9282559162
 20
21.7455672288
 30
0.0
 10
23.9811886953
 20
21.791718763
 30
0.0
 10
24.0277278895
 20
21.8467331966
 30
0.0
 10
24.0819547858
 20
21.9332484434
 30
0.0
 10
24.1308933163
 20
22.0628189951
 30
0.0
 10
24.1577402314
 20
22.2392418624
 30
0.0
 10
24.154139684
 20
22.4349329271
 30
0.0
 10
24.1203875862
 20
22.6437243964
 30
0.0
 10
24.0576775737
 20
22.859010318
 30
0.0
 10
23.9680556336
 20
23.0738210244
 30
0.0
 10
23.8544570752
 20
23.2811611502
 30
0.0
 10
23.7205916514
 20
23.4742293816
 30
0.0
 10
23.5708283139
 20
23.6467576342
 30
0.0
 10
23.4100699652
 20
23.7930438251
 30
0.0
 10
23.2941914553
 20
23.8732545346
 30
0.0
 10
23.2356294283
 20
23.9070645717
 30
0.0
  0
SPLINE
  5
2C9
100
AcDbEntity
  8
0
100
AcDbSpline
 62
7
  6
BYLAYER
 70
0
 71
3
 72
18
 73
14
 74
0
 42
0.0000001
 43
0.0000001
 44
0.0000000001
 40
0.0
 40
0.0
 40
0.0
 40
0.0
 40
0.1483859398
 40
0.28276579
 40
0.4045216119
 40
0.4619058007
 40
0.5177307865
 40
0.5727867107
 40
0.6279170034
 40
0.6839612072
 40
0.7416862523
 40
0.8644425563
 40
1.0
 40
1.0
 40
1.0
 40
1.0
 10
23.2356294283
 20
23.9070645717
 30
0.0
 10
23.1841197338
 20
23.9368030349
 30
0.0
 10
23.0815885053
 20
23.9865235518
 30
0.0
 10
22.9243248642
 20
24.029991207
 30
0.0
 10
22.7973143915
 20
24.0355603349
 30
0.0
 10
22.7041019206
 20
24.0201974243
 30
0.0
 10
22.6396028272
 20
23.9996283749
 30
0.0
 10
22.5797483161
 20
23.9699648065
 30
0.0
 10
22.5250687822
 20
23.9314364405
 30
0.0
 10
22.4760361757
 20
23.8843954065
 30
0.0
 10
22.4175222752
 20
23.809434746
 30
0.0
 10
22.3608903598
 20
23.6945630071
 30
0.0
 10
22.3364743924
 20
23.5931765279
 30
0.0
 10
22.328257164
 20
23.5394656138
 30
0.0
  0
SPLINE
  5
2CA
100
AcDbEntity
  8
0
100
AcDbSpline
 62
7
  6
BYLAYER
 70
0
 71
3
 72
9
 73
5
 74
0
 42
0.0000001
 43
0.0000001
 44
0.0000000001
 40
0.0
 40
0.0
 40
0.0
 40
0.0
 40
0.2419772693
 40
1.0
 40
1.0
 40
1.0
 40
1.0
 10
22.328257164
 20
23.5394656138
 30
0.0
 10
22.3262606405
 20
23.5264155811
 30
0.0
 10
22.3191372697
 20
23.472314508
 30
0.0
 10
22.3163934826
 20
23.4176680369
 30
0.0
 10
22.3163936849
 20
23.3763115902
 30
0.0
  0
SPLINE
  5
2CB
100
AcDbEntity
  8
0
100
AcDbSpline
 62
7
  6
BYLAYER
 70
0
 71
3
 72
15
 73
11
 74
0
 42
0.0000001
 43
0.0000001
 44
0.0000000001
 40
0.0
 40
0.0
 40
0.0
 40
0.0
 40
0.1485042935
 40
0.2894872188
 40
0.4227426792
 40
0.5486466522
 40
0.6679907669
 40
0.7819345207
 40
0.8919862593
 40
1.0
 40
1.0
 40
1.0
 40
1.0
 10
23.3770501958
 20
24.1520138859
 30
0.0
 10
23.3432382247
 20
24.1715347949
 30
0.0
 10
23.2756994686
 20
24.2068717801
 30
0.0
 10
23.1726877533
 20
24.2490592473
 30
0.0
 10
23.0714831358
 20
24.2785593749
 30
0.0
 10
22.9730922338
 20
24.2950703885
 30
0.0
 10
22.8784150005
 20
24.2983447629
 30
0.0
 10
22.7883520955
 20
24.2883116824
 30
0.0
 10
22.7038630114
 20
24.2649477859
 30
0.0
 10
22.651649776
 20
24.2404930422
 30
0.0
 10
22.6270553609
 20
24.2262971736
 30
0.0
  0
SPLINE
  5
2CC
100
AcDbEntity
  8
0
100
AcDbSpline
 62
7
  6
BYLAYER
 70
0
 71
3
 72
25
 73
21
 74
0
 42
0.0000001
 43
0.0000001
 44
0.0000000001
 40
0.0
 40
0.0
 40
0.0
 40
0.0
 40
0.0213318983
 40
0.0428928102
 40
0.0648981603
 40
0.087542819
 40
0.135318404
 40
0.1872201929
 40
0.2436573173
 40
0.304604889
 40
0.3696935311
 40
0.4382905898
 40
0.5095767823
 40
0.5826015838
 40
0.6563322964
 40
0.7297102087
 40
0.8016872329
 40
0.8712712011
 40
0.9376317001
 40
1.0
 40
1.0
 40
1.0
 40
1.0
 10
24.1270450307
 20
21.6282233469
 30
0.0
 10
24.1454747164
 20
21.6388609407
 30
0.0
 10
24.1812012846
 20
21.6626555051
 30
0.0
 10
24.2302227787
 20
21.7051830892
 30
0.0
 10
24.2745687941
 20
21.7543491733
 30
0.0
 10
24.328029231
 20
21.8296857145
 30
0.0
 10
24.3815510011
 20
21.9403857753
 30
0.0
 10
24.4223379821
 20
22.0914219293
 30
0.0
 10
24.4405228702
 20
22.2599020946
 30
0.0
 10
24.4358826703
 20
22.4423251099
 30
0.0
 10
24.408611751
 20
22.6349373186
 30
0.0
 10
24.3593361986
 20
22.8337113607
 30
0.0
 10
24.2891117156
 20
23.0344561287
 30
0.0
 10
24.1994186766
 20
23.2329024991
 30
0.0
 10
24.0921802585
 20
23.42482774
 30
0.0
 10
23.9696853198
 20
23.6061396584
 30
0.0
 10
23.8345458368
 20
23.7729581854
 30
0.0
 10
23.6896151628
 20
23.9217744983
 30
0.0
 10
23.5379885283
 20
24.0493455036
 30
0.0
 10
23.4309300382
 20
24.1209070481
 30
0.0
 10
23.3770501958
 20
24.1520138859
 30
0.0
  0
SPLINE
  5
2CD
100
AcDbEntity
  8
0
100
AcDbSpline
 62
7
  6
BYLAYER
 70
0
 71
3
 72
20
 73
16
 74
0
 42
0.0000001
 43
0.0000001
 44
0.0000000001
 40
0.0
 40
0.0
 40
0.0
 40
0.0
 40
0.1513733159
 40
0.3008769624
 40
0.4445616327
 40
0.5131618047
 40
0.5790846216
 40
0.6420519089
 40
0.7018692018
 40
0.7584532592
 40
0.8118479033
 40
0.8622466613
 40
0.9100158285
 40
0.9556964394
 40
1.0
 40
1.0
 40
1.0
 40
1.0
 10
41.2715536112
 20
33.6206631682
 30
0.0
 10
41.3779002117
 20
33.4609558628
 30
0.0
 10
41.5708190703
 20
33.1307707767
 30
0.0
 10
41.7972508022
 20
32.613451924
 30
0.0
 10
41.9289640863
 20
32.1726821815
 30
0.0
 10
41.994405926
 20
31.8258957625
 30
0.0
 10
42.0225597102
 20
31.5768981864
 30
0.0
 10
42.030295601
 20
31.3375439366
 30
0.0
 10
42.0174641809
 20
31.1102143261
 30
0.0
 10
41.9841804645
 20
30.8971826629
 30
0.0
 10
41.9306892123
 20
30.7005738565
 30
0.0
 10
41.8574013947
 20
30.5223895758
 30
0.0
 10
41.7649270951
 20
30.3644653894
 30
0.0
 10
41.6540625358
 20
30.2286371946
 30
0.0
 10
41.5677219967
 20
30.1530917214
 30
0.0
 10
41.5223608684
 20
30.1199853397
 30
0.0
  0
SPLINE
  5
2CE
100
AcDbEntity
  8
0
100
AcDbSpline
 62
7
  6
BYLAYER
 70
0
 71
3
 72
14
 73
10
 74
0
 42
0.0000001
 43
0.0000001
 44
0.0000000001
 40
0.0
 40
0.0
 40
0.0
 40
0.0
 40
0.1080459323
 40
0.2181313488
 40
0.3321039321
 40
0.4515028882
 40
0.5774599497
 40
0.7107294907
 40
1.0
 40
1.0
 40
1.0
 40
1.0
 10
22.6270553609
 20
40.5563455161
 30
0.0
 10
22.6024604576
 20
40.5421493657
 30
0.0
 10
22.5551774069
 20
40.5091511023
 30
0.0
 10
22.4927033258
 20
40.4476613266
 30
0.0
 10
22.4389617815
 20
40.3746872886
 30
0.0
 10
22.3944824868
 20
40.2910359278
 30
0.0
 10
22.3595657614
 20
40.1975651956
 30
0.0
 10
22.3252721345
 20
40.0572870462
 30
0.0
 10
22.3163904214
 20
39.9456858752
 30
0.0
 10
22.3163909686
 20
39.8696564412
 30
0.0
  0
SPLINE
  5
2CF
100
AcDbEntity
  8
0
100
AcDbSpline
 62
7
  6
BYLAYER
 70
0
 71
3
 72
15
 73
11
 74
0
 42
0.0000001
 43
0.0000001
 44
0.0000000001
 40
0.0
 40
0.0
 40
0.0
 40
0.0
 40
0.1141541119
 40
0.2373245329
 40
0.3669731274
 40
0.4999944533
 40
0.633017665
 40
0.7626666201
 40
0.8858475624
 40
1.0
 40
1.0
 40
1.0
 40
1.0
 10
22.3163936849
 20
39.7063599328
 30
0.0
 10
22.3163940403
 20
39.6336965503
 30
0.0
 10
22.3297040613
 20
39.4824895913
 30
0.0
 10
22.3827605889
 20
39.2543766528
 30
0.0
 10
22.4677554267
 20
39.0233173683
 30
0.0
 10
22.5815084362
 20
38.797996749
 30
0.0
 10
22.7197655702
 20
38.5868237565
 30
0.0
 10
22.8773715425
 20
38.3976756734
 30
0.0
 10
23.0484035856
 20
38.2376713667
 30
0.0
 10
23.1727016603
 20
38.1505371717
 30
0.0
 10
23.2356294283
 20
38.1142066298
 30
0.0
  0
SPLINE
  5
2D0
100
AcDbEntity
  8
0
100
AcDbSpline
 62
7
  6
BYLAYER
 70
0
 71
3
 72
15
 73
11
 74
0
 42
0.0000001
 43
0.0000001
 44
0.0000000001
 40
0.0
 40
0.0
 40
0.0
 40
0.0
 40
0.1485042935
 40
0.2894872188
 40
0.4227426792
 40
0.5486466522
 40
0.6679907669
 40
0.7819345207
 40
0.8919862593
 40
1.0
 40
1.0
 40
1.0
 40
1.0
 10
23.3770501958
 20
38.0325549771
 30
0.0
 10
23.4108621668
 20
38.0130340681
 30
0.0
 10
23.4784009229
 20
37.9776970829
 30
0.0
 10
23.5814126382
 20
37.9355096157
 30
0.0
 10
23.6826172557
 20
37.9060094881
 30
0.0
 10
23.7810081577
 20
37.8894984745
 30
0.0
 10
23.875685391
 20
37.8862241001
 30
0.0
 10
23.965748296
 20
37.8962571806
 30
0.0
 10
24.0502373801
 20
37.9196210772
 30
0.0
 10
24.1024506156
 20
37.9440758208
 30
0.0
 10
24.1270450307
 20
37.9582716895
 30
0.0
  0
SPLINE
  5
2D1
100
AcDbEntity
  8
0
100
AcDbSpline
 62
7
  6
BYLAYER
 70
0
 71
3
 72
14
 73
10
 74
0
 42
0.0000001
 43
0.0000001
 44
0.0000000001
 40
0.0
 40
0.0
 40
0.0
 40
0.0
 40
0.1157841229
 40
0.2326371803
 40
0.3515721966
 40
0.4732404405
 40
0.598388851
 40
0.7276656496
 40
1.0
 40
1.0
 40
1.0
 40
1.0
 10
38.6788499625
 20
51.3751685723
 30
0.0
 10
38.7328960824
 20
51.3990871364
 30
0.0
 10
38.8453511755
 20
51.438874904
 30
0.0
 10
39.0220973092
 20
51.4731957014
 30
0.0
 10
39.2048642542
 20
51.4828517679
 30
0.0
 10
39.3914855219
 20
51.4685798187
 30
0.0
 10
39.580273913
 20
51.4315055798
 30
0.0
 10
39.8374697931
 20
51.3518087255
 30
0.0
 10
40.0235977138
 20
51.2625428554
 30
0.0
 10
40.1439878252
 20
51.1930371647
 30
0.0
  0
SPLINE
  5
2D2
100
AcDbEntity
  8
0
100
AcDbSpline
 62
7
  6
BYLAYER
 70
0
 71
3
 72
24
 73
20
 74
0
 42
0.0000001
 43
0.0000001
 44
0.0000000001
 40
0.0
 40
0.0
 40
0.0
 40
0.0
 40
0.0615746227
 40
0.1262300102
 40
0.1934790508
 40
0.2627240436
 40
0.333184149
 40
0.404013293
 40
0.4743388881
 40
0.5433210822
 40
0.610208872
 40
0.6743966938
 40
0.7354847674
 40
0.7933405508
 40
0.8481323345
 40
0.9003456347
 40
0.9506631444
 40
0.9753891493
 40
1.0
 40
1.0
 40
1.0
 40
1.0
 10
40.1439878252
 20
51.1930371647
 30
0.0
 10
40.2433907837
 20
51.1356481382
 30
0.0
 10
40.4398348257
 20
51.0049742908
 30
0.0
 10
40.7171734312
 20
50.7734939121
 30
0.0
 10
40.980540267
 20
50.5058102617
 30
0.0
 10
41.2254863058
 20
50.2071347619
 30
0.0
 10
41.4476446326
 20
49.8830455959
 30
0.0
 10
41.642889362
 20
49.5397577792
 30
0.0
 10
41.8075013525
 20
49.183793265
 30
0.0
 10
41.9382773377
 20
48.8218248864
 30
0.0
 10
42.0325814517
 20
48.4604424451
 30
0.0
 10
42.088316726
 20
48.1059387153
 30
0.0
 10
42.1038212426
 20
47.7641297078
 30
0.0
 10
42.0776148884
 20
47.4403512102
 30
0.0
 10
42.0081874891
 20
47.1396557612
 30
0.0
 10
41.8938656955
 20
46.86785823
 30
0.0
 10
41.7594459071
 20
46.6700141565
 30
0.0
 10
41.6305418081
 20
46.535789154
 30
0.0
 10
41.5594166666
 20
46.477080254
 30
0.0
 10
41.5223618349
 20
46.4500321384
 30
0.0
  0
SPLINE
  5
2D3
100
AcDbEntity
  8
0
100
AcDbSpline
 62
7
  6
BYLAYER
 70
0
 71
3
 72
9
 73
5
 74
0
 42
0.0000001
 43
0.0000001
 44
0.0000000001
 40
0.0
 40
0.0
 40
0.0
 40
0.0
 40
0.2579356184
 40
1.0
 40
1.0
 40
1.0
 40
1.0
 10
23.2356294283
 20
38.1142066298
 30
0.0
 10
23.2479161841
 20
38.1071130285
 30
0.0
 10
23.2960252854
 20
38.0804492569
 30
0.0
 10
23.3460676337
 20
38.0572096126
 30
0.0
 10
23.3841134609
 20
38.0424281617
 30
0.0
  0
SPLINE
  5
2D4
100
AcDbEntity
  8
0
100
AcDbSpline
 62
7
  6
BYLAYER
 70
0
 71
3
 72
26
 73
22
 74
0
 42
0.0000001
 43
0.0000001
 44
0.0000000001
 40
0.0
 40
0.0
 40
0.0
 40
0.0
 40
0.0536350389
 40
0.1022095731
 40
0.1252208118
 40
0.1477607895
 40
0.1701948577
 40
0.1928972774
 40
0.2162183051
 40
0.2404644715
 40
0.2925417291
 40
0.3503843049
 40
0.4141680672
 40
0.483333723
 40
0.556799648
 40
0.6331345188
 40
0.7106966483
 40
0.7877664117
 40
0.8626465454
 40
0.9338167326
 40
1.0
 40
1.0
 40
1.0
 40
1.0
 10
23.4271192777
 20
38.026938448
 30
0.0
 10
23.4791356163
 20
38.0096937407
 30
0.0
 10
23.581786863
 20
37.9859535386
 30
0.0
 10
23.7114146528
 20
37.9884527372
 30
0.0
 10
23.8050828938
 20
38.011732096
 30
0.0
 10
23.869359834
 20
38.0388289467
 30
0.0
 10
23.9282559162
 20
38.0756155714
 30
0.0
 10
23.9811886953
 20
38.1217671056
 30
0.0
 10
24.0277278895
 20
38.1767815392
 30
0.0
 10
24.0819547858
 20
38.263296786
 30
0.0
 10
24.1308933163
 20
38.3928673377
 30
0.0
 10
24.1577402314
 20
38.569290205
 30
0.0
 10
24.154139684
 20
38.7649812697
 30
0.0
 10
24.1203875862
 20
38.973772739
 30
0.0
 10
24.0576775737
 20
39.1890586606
 30
0.0
 10
23.9680556336
 20
39.403869367
 30
0.0
 10
23.8544570752
 20
39.6112094928
 30
0.0
 10
23.7205916514
 20
39.8042777242
 30
0.0
 10
23.5708283139
 20
39.9768059768
 30
0.0
 10
23.4100699652
 20
40.1230921677
 30
0.0
 10
23.2941914553
 20
40.2033028772
 30
0.0
 10
23.2356294283
 20
40.2371129143
 30
0.0
  0
SPLINE
  5
2D5
100
AcDbEntity
  8
0
100
AcDbSpline
 62
7
  6
BYLAYER
 70
0
 71
3
 72
18
 73
14
 74
0
 42
0.0000001
 43
0.0000001
 44
0.0000000001
 40
0.0
 40
0.0
 40
0.0
 40
0.0
 40
0.1483859398
 40
0.28276579
 40
0.4045216119
 40
0.4619058007
 40
0.5177307865
 40
0.5727867107
 40
0.6279170034
 40
0.6839612072
 40
0.7416862523
 40
0.8644425563
 40
1.0
 40
1.0
 40
1.0
 40
1.0
 10
23.2356294283
 20
40.2371129143
 30
0.0
 10
23.1841197338
 20
40.2668513775
 30
0.0
 10
23.0815885053
 20
40.3165718944
 30
0.0
 10
22.9243248642
 20
40.3600395496
 30
0.0
 10
22.7973143915
 20
40.3656086775
 30
0.0
 10
22.7041019206
 20
40.3502457669
 30
0.0
 10
22.6396028272
 20
40.3296767175
 30
0.0
 10
22.5797483161
 20
40.3000131491
 30
0.0
 10
22.5250687822
 20
40.261484783
 30
0.0
 10
22.4760361757
 20
40.2144437491
 30
0.0
 10
22.4175222752
 20
40.1394830886
 30
0.0
 10
22.3608903598
 20
40.0246113497
 30
0.0
 10
22.3364743924
 20
39.9232248705
 30
0.0
 10
22.328257164
 20
39.8695139564
 30
0.0
  0
SPLINE
  5
2D6
100
AcDbEntity
  8
0
100
AcDbSpline
 62
7
  6
BYLAYER
 70
0
 71
3
 72
9
 73
5
 74
0
 42
0.0000001
 43
0.0000001
 44
0.0000000001
 40
0.0
 40
0.0
 40
0.0
 40
0.0
 40
0.2419772693
 40
1.0
 40
1.0
 40
1.0
 40
1.0
 10
22.328257164
 20
39.8695139564
 30
0.0
 10
22.3262606405
 20
39.8564639237
 30
0.0
 10
22.3191372697
 20
39.8023628506
 30
0.0
 10
22.3163934826
 20
39.7477163795
 30
0.0
 10
22.3163936849
 20
39.7063599328
 30
0.0
  0
SPLINE
  5
2D7
100
AcDbEntity
  8
0
100
AcDbSpline
 62
7
  6
BYLAYER
 70
0
 71
3
 72
15
 73
11
 74
0
 42
0.0000001
 43
0.0000001
 44
0.0000000001
 40
0.0
 40
0.0
 40
0.0
 40
0.0
 40
0.1485042935
 40
0.2894872188
 40
0.4227426792
 40
0.5486466522
 40
0.6679907669
 40
0.7819345207
 40
0.8919862593
 40
1.0
 40
1.0
 40
1.0
 40
1.0
 10
23.3770501958
 20
40.4820622285
 30
0.0
 10
23.3432382247
 20
40.5015831375
 30
0.0
 10
23.2756994686
 20
40.5369201227
 30
0.0
 10
23.1726877533
 20
40.5791075899
 30
0.0
 10
23.0714831358
 20
40.6086077175
 30
0.0
 10
22.9730922338
 20
40.6251187311
 30
0.0
 10
22.8784150005
 20
40.6283931055
 30
0.0
 10
22.7883520955
 20
40.618360025
 30
0.0
 10
22.7038630114
 20
40.5949961285
 30
0.0
 10
22.651649776
 20
40.5705413848
 30
0.0
 10
22.6270553609
 20
40.5563455161
 30
0.0
  0
SPLINE
  5
2D8
100
AcDbEntity
  8
0
100
AcDbSpline
 62
7
  6
BYLAYER
 70
0
 71
3
 72
25
 73
21
 74
0
 42
0.0000001
 43
0.0000001
 44
0.0000000001
 40
0.0
 40
0.0
 40
0.0
 40
0.0
 40
0.0213318983
 40
0.0428928102
 40
0.0648981603
 40
0.087542819
 40
0.135318404
 40
0.1872201929
 40
0.2436573173
 40
0.304604889
 40
0.3696935311
 40
0.4382905898
 40
0.5095767823
 40
0.5826015838
 40
0.6563322964
 40
0.7297102087
 40
0.8016872329
 40
0.8712712011
 40
0.9376317001
 40
1.0
 40
1.0
 40
1.0
 40
1.0
 10
24.1270450307
 20
37.9582716895
 30
0.0
 10
24.1454747164
 20
37.9689092833
 30
0.0
 10
24.1812012846
 20
37.9927038477
 30
0.0
 10
24.2302227787
 20
38.0352314318
 30
0.0
 10
24.2745687941
 20
38.0843975159
 30
0.0
 10
24.328029231
 20
38.1597340571
 30
0.0
 10
24.3815510011
 20
38.2704341179
 30
0.0
 10
24.4223379821
 20
38.4214702719
 30
0.0
 10
24.4405228702
 20
38.5899504372
 30
0.0
 10
24.4358826703
 20
38.7723734525
 30
0.0
 10
24.408611751
 20
38.9649856611
 30
0.0
 10
24.3593361986
 20
39.1637597033
 30
0.0
 10
24.2891117156
 20
39.3645044713
 30
0.0
 10
24.1994186766
 20
39.5629508417
 30
0.0
 10
24.0921802585
 20
39.7548760826
 30
0.0
 10
23.9696853198
 20
39.936188001
 30
0.0
 10
23.8345458368
 20
40.103006528
 30
0.0
 10
23.6896151628
 20
40.2518228409
 30
0.0
 10
23.5379885283
 20
40.3793938462
 30
0.0
 10
23.4309300382
 20
40.4509553907
 30
0.0
 10
23.3770501958
 20
40.4820622285
 30
0.0
  0
SPLINE
  5
2D9
100
AcDbEntity
  8
0
100
AcDbSpline
 62
7
  6
BYLAYER
 70
0
 71
3
 72
25
 73
21
 74
0
 42
0.0000001
 43
0.0000001
 44
0.0000000001
 40
0.0
 40
0.0
 40
0.0
 40
0.0
 40
0.0628514343
 40
0.1293071004
 40
0.1987058586
 40
0.270243274
 40
0.3430136335
 40
0.4160668911
 40
0.4884390491
 40
0.5591939306
 40
0.6274630572
 40
0.6924882258
 40
0.7536693941
 40
0.8106209962
 40
0.8632402013
 40
0.9117844544
 40
0.9347565495
 40
0.9570069967
 40
0.9786944435
 40
1.0
 40
1.0
 40
1.0
 40
1.0
 10
40.0921775502
 20
51.1400810161
 30
0.0
 10
40.1897849056
 20
51.0792559315
 30
0.0
 10
40.3831919833
 20
50.9419634349
 30
0.0
 10
40.656857995
 20
50.7017510098
 30
0.0
 10
40.9178818623
 20
50.4255680359
 30
0.0
 10
41.1611675141
 20
50.1188228189
 30
0.0
 10
41.3819766368
 20
49.7874771414
 30
0.0
 10
41.5759934424
 20
49.4380234241
 30
0.0
 10
41.7394162992
 20
49.0772896821
 30
0.0
 10
41.8690517859
 20
48.712327837
 30
0.0
 10
41.9623717191
 20
48.3502496955
 30
0.0
 10
42.0175453521
 20
47.9980691549
 30
0.0
 10
42.0334621223
 20
47.6625625376
 30
0.0
 10
42.0096671989
 20
47.3500868491
 30
0.0
 10
41.9464043159
 20
47.0666249698
 30
0.0
 10
41.8596475438
 20
46.8551342729
 30
0.0
 10
41.7711449619
 20
46.7078197454
 30
0.0
 10
41.69710885
 20
46.6099850825
 30
0.0
 10
41.6146162782
 20
46.5233367801
 30
0.0
 10
41.55385159
 20
46.4730168815
 30
0.0
 10
41.5223608684
 20
46.4500336823
 30
0.0
  0
SPLINE
  5
2DA
100
AcDbEntity
  8
0
100
AcDbSpline
 62
7
  6
BYLAYER
 70
0
 71
3
 72
15
 73
11
 74
0
 42
0.0000001
 43
0.0000001
 44
0.0000000001
 40
0.0
 40
0.0
 40
0.0
 40
0.0
 40
0.1180219016
 40
0.2418551905
 40
0.3697469171
 40
0.4997358492
 40
0.629760687
 40
0.7577554649
 40
0.8817356283
 40
1.0
 40
1.0
 40
1.0
 40
1.0
 10
27.8196391922
 20
40.9469914181
 30
0.0
 10
27.8117090594
 20
41.0072594314
 30
0.0
 10
27.7881472758
 20
41.1298789337
 30
0.0
 10
27.7331334327
 20
41.3124966487
 30
0.0
 10
27.6587625178
 20
41.4947973837
 30
0.0
 10
27.5667917321
 20
41.6724596675
 30
0.0
 10
27.4593861193
 20
41.8413024878
 30
0.0
 10
27.3390641305
 20
41.997331533
 30
0.0
 10
27.2086952285
 20
42.1368866346
 30
0.0
 10
27.1144288023
 20
42.2190727272
 30
0.0
 10
27.0662344369
 20
42.2563235267
 30
0.0
  0
SPLINE
  5
2DB
100
AcDbEntity
  8
0
100
AcDbSpline
 62
7
  6
BYLAYER
 70
0
 71
3
 72
14
 73
10
 74
0
 42
0.0000001
 43
0.0000001
 44
0.0000000001
 40
0.0
 40
0.0
 40
0.0
 40
0.0
 40
0.1077452573
 40
0.2183077056
 40
0.3331200641
 40
0.4533171871
 40
0.7125723149
 40
0.8528386241
 40
1.0
 40
1.0
 40
1.0
 40
1.0
 10
38.6788508738
 20
51.3751668548
 30
0.0
 10
38.7246921188
 20
51.3954582155
 30
0.0
 10
38.8209687384
 20
51.4292904715
 30
0.0
 10
38.9737539708
 20
51.4582840854
 30
0.0
 10
39.134873869
 20
51.4657879768
 30
0.0
 10
39.3645784153
 20
51.4468078355
 30
0.0
 10
39.6002767456
 20
51.3837071945
 30
0.0
 10
39.8347043111
 20
51.2846332268
 30
0.0
 10
39.9531809948
 20
51.2221557744
 30
0.0
 10
40.0124788183
 20
51.1879209346
 30
0.0
  0
SPLINE
  5
2DC
100
AcDbEntity
  8
0
100
AcDbSpline
 62
7
  6
BYLAYER
 70
0
 71
3
 72
13
 73
9
 74
0
 42
0.0000001
 43
0.0000001
 44
0.0000000001
 40
0.0
 40
0.0
 40
0.0
 40
0.0
 40
0.2442074407
 40
0.5000719481
 40
0.6287971175
 40
0.7559784942
 40
0.8801593903
 40
1.0
 40
1.0
 40
1.0
 40
1.0
 10
27.0403754776
 20
42.246089532
 30
0.0
 10
27.1348505577
 20
42.1629154564
 30
0.0
 10
27.3123784686
 20
41.9740457049
 30
0.0
 10
27.4953090175
 20
41.7049601764
 30
0.0
 10
27.6180479602
 20
41.471227538
 30
0.0
 10
27.6955359546
 20
41.2910644838
 30
0.0
 10
27.7568629967
 20
41.1096206882
 30
0.0
 10
27.7869278549
 20
40.9872880409
 30
0.0
 10
27.7988148538
 20
40.9266736633
 30
0.0
  0
SPLINE
  5
2DD
100
AcDbEntity
  8
0
100
AcDbSpline
 62
7
  6
BYLAYER
 70
0
 71
3
 72
13
 73
9
 74
0
 42
0.0000001
 43
0.0000001
 44
0.0000000001
 40
0.0
 40
0.0
 40
0.0
 40
0.0
 40
0.116698545
 40
0.2351492863
 40
0.3557011955
 40
0.4786990728
 40
0.7330802995
 40
1.0
 40
1.0
 40
1.0
 40
1.0
 10
41.3177636202
 20
40.3218332959
 30
0.0
 10
41.3913299449
 20
40.4283435877
 30
0.0
 10
41.529233873
 20
40.6502837588
 30
0.0
 10
41.7062057519
 20
41.0034706916
 30
0.0
 10
41.8547789846
 20
41.377032721
 30
0.0
 10
42.017330631
 20
41.9054204766
 30
0.0
 10
42.1493208861
 20
42.6103731463
 30
0.0
 10
42.1814050946
 20
43.1892960523
 30
0.0
 10
42.1814050946
 20
43.4853740592
 30
0.0
  0
SPLINE
  5
2DE
100
AcDbEntity
  8
0
100
AcDbSpline
 62
7
  6
BYLAYER
 70
0
 71
3
 72
11
 73
7
 74
0
 42
0.0000001
 43
0.0000001
 44
0.0000000001
 40
0.0
 40
0.0
 40
0.0
 40
0.0
 40
0.2375540771
 40
0.4840273154
 40
0.7384823004
 40
1.0
 40
1.0
 40
1.0
 40
1.0
 10
42.1814050946
 20
43.4853740592
 30
0.0
 10
42.1814050946
 20
43.7352215425
 30
0.0
 10
42.1575103702
 20
44.244515326
 30
0.0
 10
42.0565304388
 20
45.0154065211
 30
0.0
 10
41.891489044
 20
45.8008749685
 30
0.0
 10
41.7420952426
 20
46.3231097761
 30
0.0
 10
41.6576569334
 20
46.5848794199
 30
0.0
  0
SPLINE
  5
2DF
100
AcDbEntity
  8
0
100
AcDbSpline
 62
7
  6
BYLAYER
 70
0
 71
3
 72
15
 73
11
 74
0
 42
0.0000001
 43
0.0000001
 44
0.0000000001
 40
0.0
 40
0.0
 40
0.0
 40
0.0
 40
0.1423263911
 40
0.2802451745
 40
0.4130693991
 40
0.5404147243
 40
0.6622519583
 40
0.7789285527
 40
0.891168802
 40
1.0
 40
1.0
 40
1.0
 40
1.0
 10
38.8654421096
 20
51.4224454838
 30
0.0
 10
38.657996524
 20
51.6519755659
 30
0.0
 10
38.2323353011
 20
52.0887981658
 30
0.0
 10
37.554824741
 20
52.679613186
 30
0.0
 10
36.8541103978
 20
53.1894851142
 30
0.0
 10
36.1371294735
 20
53.6112787148
 30
0.0
 10
35.4102531722
 20
53.9382978963
 30
0.0
 10
34.6795518803
 20
54.1637515588
 30
0.0
 10
33.9520967254
 20
54.2803840057
 30
0.0
 10
33.4688235416
 20
54.2800420618
 30
0.0
 10
33.233207686
 20
54.2587890035
 30
0.0
  0
SPLINE
  5
2E0
100
AcDbEntity
  8
0
100
AcDbSpline
 62
7
  6
BYLAYER
 70
0
 71
3
 72
11
 73
7
 74
0
 42
0.0000001
 43
0.0000001
 44
0.0000000001
 40
0.0
 40
0.0
 40
0.0
 40
0.0
 40
0.2755696821
 40
0.5336633079
 40
0.7746022575
 40
1.0
 40
1.0
 40
1.0
 40
1.0
 10
41.9786905281
 20
43.1399661248
 30
0.0
 10
41.9786905281
 20
42.8754731378
 30
0.0
 10
41.953113074
 20
42.3627188887
 30
0.0
 10
41.8296025761
 20
41.6276494439
 30
0.0
 10
41.6234102736
 20
40.9612930953
 30
0.0
 10
41.4260973064
 20
40.5568474242
 30
0.0
 10
41.3141424547
 20
40.3717308965
 30
0.0
  0
SPLINE
  5
2E1
100
AcDbEntity
  8
0
100
AcDbSpline
 62
7
  6
BYLAYER
 70
0
 71
3
 72
15
 73
11
 74
0
 42
0.0000001
 43
0.0000001
 44
0.0000000001
 40
0.0
 40
0.0
 40
0.0
 40
0.0
 40
0.100503451
 40
0.2076440458
 40
0.3221286088
 40
0.4441851727
 40
0.5736361007
 40
0.7099727151
 40
0.8524213917
 40
1.0
 40
1.0
 40
1.0
 40
1.0
 10
33.2781994898
 20
54.2329967098
 30
0.0
 10
33.4858841308
 20
54.2391124644
 30
0.0
 10
33.9166321945
 20
54.2141821957
 30
0.0
 10
34.5702060896
 20
54.0762291891
 30
0.0
 10
35.2419600245
 20
53.839254208
 30
0.0
 10
35.9232106627
 20
53.5067103056
 30
0.0
 10
36.6054357361
 20
53.0831182639
 30
0.0
 10
37.2799112941
 20
52.5740563249
 30
0.0
 10
37.9379037438
 20
51.9862295321
 30
0.0
 10
38.3537186741
 20
51.5533661819
 30
0.0
 10
38.5571532729
 20
51.3259957828
 30
0.0
  0
SPLINE
  5
2E2
100
AcDbEntity
  8
0
100
AcDbSpline
 62
7
  6
BYLAYER
 70
0
 71
3
 72
11
 73
7
 74
0
 42
0.0000001
 43
0.0000001
 44
0.0000000001
 40
0.0
 40
0.0
 40
0.0
 40
0.0
 40
0.2644186399
 40
0.5202105486
 40
0.7658601751
 40
1.0
 40
1.0
 40
1.0
 40
1.0
 10
41.4287400607
 20
46.3393881527
 30
0.0
 10
41.5176901618
 20
46.0662879949
 30
0.0
 10
41.6747701949
 20
45.522933535
 30
0.0
 10
41.8480730779
 20
44.7085121245
 30
0.0
 10
41.953634593
 20
43.9156817482
 30
0.0
 10
41.9786905281
 20
43.3942970583
 30
0.0
 10
41.9786905281
 20
43.1399661248
 30
0.0
  0
SPLINE
  5
2E3
100
AcDbEntity
  8
0
100
AcDbSpline
 62
7
  6
BYLAYER
 70
0
 71
3
 72
15
 73
11
 74
0
 42
0.0000001
 43
0.0000001
 44
0.0000000001
 40
0.0
 40
0.0
 40
0.0
 40
0.0
 40
0.1140738571
 40
0.2373573965
 40
0.3669860904
 40
0.4999990849
 40
0.6330122274
 40
0.7626412732
 40
0.8859253446
 40
1.0
 40
1.0
 40
1.0
 40
1.0
 10
40.9132430225
 20
49.7900673536
 30
0.0
 10
40.9374293165
 20
49.7761037061
 30
0.0
 10
40.9852227821
 20
49.7425628779
 30
0.0
 10
41.051034353
 20
49.6810562234
 30
0.0
 10
41.1116599516
 20
49.6082867717
 30
0.0
 10
41.1648058467
 20
49.5270599561
 30
0.0
 10
41.2085778138
 20
49.4404209724
 30
0.0
 10
41.2412857262
 20
49.351532864
 30
0.0
 10
41.261646931
 20
49.2637847792
 30
0.0
 10
41.266797885
 20
49.205623732
 30
0.0
 10
41.266797885
 20
49.1776957678
 30
0.0
  0
SPLINE
  5
2E4
100
AcDbEntity
  8
0
100
AcDbSpline
 62
7
  6
BYLAYER
 70
0
 71
3
 72
11
 73
7
 74
0
 42
0.0000001
 43
0.0000001
 44
0.0000000001
 40
0.0
 40
0.0
 40
0.0
 40
0.0
 40
0.2895401978
 40
0.5491171512
 40
0.782255066
 40
1.0
 40
1.0
 40
1.0
 40
1.0
 10
41.266797885
 20
27.9486329224
 30
0.0
 10
41.266797885
 20
27.9233136108
 30
0.0
 10
41.2629318601
 20
27.8751353516
 30
0.0
 10
41.2434553255
 20
27.8089299305
 30
0.0
 10
41.2106020928
 20
27.7551893369
 30
0.0
 10
41.1797179818
 20
27.7292846638
 30
0.0
 10
41.1632279152
 20
27.7197641801
 30
0.0
  0
SPLINE
  5
2E5
100
AcDbEntity
  8
0
100
AcDbSpline
 62
7
  6
BYLAYER
 70
0
 71
3
 72
11
 73
7
 74
0
 42
0.0000001
 43
0.0000001
 44
0.0000000001
 40
0.0
 40
0.0
 40
0.0
 40
0.0
 40
0.2895391946
 40
0.5491157945
 40
0.7822541179
 40
1.0
 40
1.0
 40
1.0
 40
1.0
 10
40.2061391853
 20
27.3362579372
 30
0.0
 10
40.2280658142
 20
27.3235988785
 30
0.0
 10
40.2717213432
 20
27.302858849
 30
0.0
 10
40.338793436
 20
27.2866243154
 30
0.0
 10
40.4017591416
 20
27.2882060428
 30
0.0
 10
40.4396343852
 20
27.3019997465
 30
0.0
 10
40.4561240777
 20
27.311520026
 30
0.0
  0
SPLINE
  5
2E6
100
AcDbEntity
  8
0
100
AcDbSpline
 62
7
  6
BYLAYER
 70
0
 71
3
 72
11
 73
7
 74
0
 42
0.0000001
 43
0.0000001
 44
0.0000000001
 40
0.0
 40
0.0
 40
0.0
 40
0.0
 40
0.2177460211
 40
0.4508843679
 40
0.7104607696
 40
1.0
 40
1.0
 40
1.0
 40
1.0
 10
22.2784052759
 20
60.4290648822
 30
0.0
 10
22.2948949843
 20
60.4385851591
 30
0.0
 10
22.3327702365
 20
60.4523788824
 30
0.0
 10
22.3957359416
 20
60.4539605784
 30
0.0
 10
22.46280803
 20
60.437726083
 30
0.0
 10
22.5064635367
 20
60.4169860316
 30
0.0
 10
22.5283901686
 20
60.4043269711
 30
0.0
  0
SPLINE
  5
2E7
100
AcDbEntity
  8
0
100
AcDbSpline
 62
7
  6
BYLAYER
 70
0
 71
3
 72
11
 73
7
 74
0
 42
0.0000001
 43
0.0000001
 44
0.0000000001
 40
0.0
 40
0.0
 40
0.0
 40
0.0
 40
0.217745073
 40
0.4508830113
 40
0.7104597664
 40
1.0
 40
1.0
 40
1.0
 40
1.0
 10
21.571301439
 20
60.0208207285
 30
0.0
 10
21.5548113667
 20
60.0113002298
 30
0.0
 10
21.5239272344
 20
59.9853955589
 30
0.0
 10
21.4910740291
 20
59.93165495
 30
0.0
 10
21.4715974636
 20
59.8654495519
 30
0.0
 10
21.4677314689
 20
59.8172713011
 30
0.0
 10
21.4677314689
 20
59.7919519859
 30
0.0
  0
SPLINE
  5
2E8
100
AcDbEntity
  8
0
100
AcDbSpline
 62
7
  6
BYLAYER
 70
0
 71
3
 72
11
 73
7
 74
0
 42
0.0000001
 43
0.0000001
 44
0.0000000001
 40
0.0
 40
0.0
 40
0.0
 40
0.0
 40
0.2895391946
 40
0.5491157945
 40
0.7822541179
 40
1.0
 40
1.0
 40
1.0
 40
1.0
 10
21.8212863314
 20
59.9960828173
 30
0.0
 10
21.7993597025
 20
60.008741876
 30
0.0
 10
21.7557041734
 20
60.0294819054
 30
0.0
 10
21.6886320807
 20
60.0457164391
 30
0.0
 10
21.6256663751
 20
60.0441347117
 30
0.0
 10
21.5877911315
 20
60.0303410079
 30
0.0
 10
21.571301439
 20
60.0208207285
 30
0.0
  0
SPLINE
  5
2E9
100
AcDbEntity
  8
0
100
AcDbSpline
 62
7
  6
BYLAYER
 70
0
 71
3
 72
15
 73
11
 74
0
 42
0.0000001
 43
0.0000001
 44
0.0000000001
 40
0.0
 40
0.0
 40
0.0
 40
0.0
 40
0.1140747376
 40
0.2373589707
 40
0.366988104
 40
0.5000012485
 40
0.6330142409
 40
0.7626428473
 40
0.8859262251
 40
1.0
 40
1.0
 40
1.0
 40
1.0
 10
40.5596940478
 20
48.7694516139
 30
0.0
 10
40.5596940478
 20
48.7973795983
 30
0.0
 10
40.5545430606
 20
48.8555407025
 30
0.0
 10
40.5341818526
 20
48.9432888694
 30
0.0
 10
40.5014738837
 20
49.0321770246
 30
0.0
 10
40.4577018863
 20
49.1188160156
 30
0.0
 10
40.4045559824
 20
49.2000428013
 30
0.0
 10
40.3439303961
 20
49.2728121807
 30
0.0
 10
40.2781188946
 20
49.3343187914
 30
0.0
 10
40.2303254618
 20
49.3678595623
 30
0.0
 10
40.2061391853
 20
49.3818231997
 30
0.0
  0
SPLINE
  5
2EA
100
AcDbEntity
  8
0
100
AcDbSpline
 62
7
  6
BYLAYER
 70
0
 71
3
 72
11
 73
7
 74
0
 42
0.0000001
 43
0.0000001
 44
0.0000000001
 40
0.0
 40
0.0
 40
0.0
 40
0.0
 40
0.217745073
 40
0.4508830113
 40
0.7104597664
 40
1.0
 40
1.0
 40
1.0
 40
1.0
 10
40.4561240777
 20
27.311520026
 30
0.0
 10
40.47261415
 20
27.3210405247
 30
0.0
 10
40.5034982822
 20
27.3469451956
 30
0.0
 10
40.5363514876
 20
27.4006858045
 30
0.0
 10
40.5558280531
 20
27.4668912026
 30
0.0
 10
40.5596940478
 20
27.5150694534
 30
0.0
 10
40.5596940478
 20
27.5403887685
 30
0.0
  0
SPLINE
  5
2EB
100
AcDbEntity
  8
0
100
AcDbSpline
 62
7
  6
BYLAYER
 70
0
 71
3
 72
17
 73
13
 74
0
 42
0.0000001
 43
0.0000001
 44
0.0000000001
 40
0.0
 40
0.0
 40
0.0
 40
0.0
 40
0.1123638904
 40
0.2297328238
 40
0.3527024817
 40
0.4812133457
 40
0.6142360461
 40
0.7491147053
 40
0.8157292768
 40
0.8805353499
 40
0.9423618914
 40
1.0
 40
1.0
 40
1.0
 40
1.0
 10
46.5135942564
 20
54.3296643243
 30
0.0
 10
46.3975766
 20
54.2626832865
 30
0.0
 10
46.1463410109
 20
54.1489735236
 30
0.0
 10
45.7371566938
 20
54.0447109607
 30
0.0
 10
45.2981025067
 20
54.0013008807
 30
0.0
 10
44.838828918
 20
54.01461948
 30
0.0
 10
44.369911049
 20
54.0797721563
 30
0.0
 10
43.9814874259
 20
54.1732517219
 30
0.0
 10
43.6790299661
 20
54.2701609447
 30
0.0
 10
43.4634631712
 20
54.3518258995
 30
0.0
 10
43.2626514169
 20
54.441228968
 30
0.0
 10
43.1364165028
 20
54.5075035658
 30
0.0
 10
43.0769042212
 20
54.5418622203
 30
0.0
  0
SPLINE
  5
2EC
100
AcDbEntity
  8
0
100
AcDbSpline
 62
7
  6
BYLAYER
 70
0
 71
3
 72
14
 73
10
 74
0
 42
0.0000001
 43
0.0000001
 44
0.0000000001
 40
0.0
 40
0.0
 40
0.0
 40
0.0
 40
0.1107179554
 40
0.2230814687
 40
0.338618149
 40
0.4586355849
 40
0.5841957757
 40
0.7160424818
 40
1.0
 40
1.0
 40
1.0
 40
1.0
 10
46.9790021849
 20
55.0766523265
 30
0.0
 10
46.9790019427
 20
55.0431386661
 30
0.0
 10
46.9738877589
 20
54.9755043825
 30
0.0
 10
46.9509241334
 20
54.8752536423
 30
0.0
 10
46.9129471433
 20
54.776663881
 30
0.0
 10
46.8603352036
 20
54.6805152172
 30
0.0
 10
46.7934849495
 20
54.5875410069
 30
0.0
 10
46.6835471724
 20
54.4656869076
 30
0.0
 10
46.5851637853
 20
54.3856768341
 30
0.0
 10
46.5144780908
 20
54.3367757147
 30
0.0
  0
SPLINE
  5
2ED
100
AcDbEntity
  8
0
100
AcDbSpline
 62
7
  6
BYLAYER
 70
0
 71
3
 72
12
 73
8
 74
0
 42
0.0000001
 43
0.0000001
 44
0.0000000001
 40
0.0
 40
0.0
 40
0.0
 40
0.0
 40
0.1395814993
 40
0.2750440627
 40
0.4701957078
 40
0.6558033837
 40
1.0
 40
1.0
 40
1.0
 40
1.0
 10
43.4163422663
 20
46.915810125
 30
0.0
 10
43.4163422663
 20
46.8411114209
 30
0.0
 10
43.4126763206
 20
46.6938803623
 30
0.0
 10
43.3930199753
 20
46.4429280082
 30
0.0
 10
43.3520307515
 20
46.1692555101
 30
0.0
 10
43.2587976113
 20
45.792400039
 30
0.0
 10
43.1485022674
 20
45.5276588808
 30
0.0
 10
43.055980635
 20
45.3683801062
 30
0.0
  0
SPLINE
  5
2EE
100
AcDbEntity
  8
0
100
AcDbSpline
 62
7
  6
BYLAYER
 70
0
 71
3
 72
11
 73
7
 74
0
 42
0.0000001
 43
0.0000001
 44
0.0000000001
 40
0.0
 40
0.0
 40
0.0
 40
0.0
 40
0.2649191645
 40
0.5211103182
 40
0.7666474885
 40
1.0
 40
1.0
 40
1.0
 40
1.0
 10
43.055980635
 20
48.8793404999
 30
0.0
 10
43.1141216922
 20
48.712114929
 30
0.0
 10
43.2168796039
 20
48.3789800732
 30
0.0
 10
43.3304999753
 20
47.8788567666
 30
0.0
 10
43.3997993127
 20
47.3919490561
 30
0.0
 10
43.4163422663
 20
47.0717587948
 30
0.0
 10
43.4163422663
 20
46.915810125
 30
0.0
  0
SPLINE
  5
2EF
100
AcDbEntity
  8
0
100
AcDbSpline
 62
7
  6
BYLAYER
 70
0
 71
3
 72
13
 73
9
 74
0
 42
0.0000001
 43
0.0000001
 44
0.0000000001
 40
0.0
 40
0.0
 40
0.0
 40
0.0
 40
0.1147281787
 40
0.2305790468
 40
0.3486163606
 40
0.4698087346
 40
0.7245468959
 40
1.0
 40
1.0
 40
1.0
 40
1.0
 10
44.4318952957
 20
56.9441223387
 30
0.0
 10
44.4881255341
 20
56.976583163
 30
0.0
 10
44.6052572113
 20
57.0349569138
 30
0.0
 10
44.7915833739
 20
57.1011524782
 30
0.0
 10
44.9879770325
 20
57.1458068494
 30
0.0
 10
45.2662972103
 20
57.1769532697
 30
0.0
 10
45.6370756029
 20
57.1584711949
 30
0.0
 10
45.9305781106
 20
57.089054214
 30
0.0
 10
46.0792170062
 20
57.0420795067
 30
0.0
  0
SPLINE
  5
2F0
100
AcDbEntity
  8
0
100
AcDbSpline
 62
7
  6
BYLAYER
 70
0
 71
3
 72
9
 73
5
 74
0
 42
0.0000001
 43
0.0000001
 44
0.0000000001
 40
0.0
 40
0.0
 40
0.0
 40
0.0
 40
0.265724818
 40
1.0
 40
1.0
 40
1.0
 40
1.0
 10
43.4250151949
 20
54.3498036831
 30
0.0
 10
43.3961428624
 20
54.3703820176
 30
0.0
 10
43.2901242831
 20
54.4513244508
 30
0.0
 10
43.1950776413
 20
54.5476204636
 30
0.0
 10
43.1371546903
 20
54.626637645
 30
0.0
  0
SPLINE
  5
2F1
100
AcDbEntity
  8
0
100
AcDbSpline
 62
7
  6
BYLAYER
 70
0
 71
3
 72
11
 73
7
 74
0
 42
0.0000001
 43
0.0000001
 44
0.0000000001
 40
0.0
 40
0.0
 40
0.0
 40
0.0
 40
0.2648887215
 40
0.5174228725
 40
0.7610573846
 40
1.0
 40
1.0
 40
1.0
 40
1.0
 10
43.1371546903
 20
54.626637645
 30
0.0
 10
43.1118538172
 20
54.6611525245
 30
0.0
 10
43.0667204161
 20
54.7318951515
 30
0.0
 10
43.0164016894
 20
54.8446070303
 30
0.0
 10
42.9858422102
 20
54.959919713
 30
0.0
 10
42.9790246228
 20
55.0380491479
 30
0.0
 10
42.9790249017
 20
55.0766523264
 30
0.0
  0
SPLINE
  5
2F2
100
AcDbEntity
  8
0
100
AcDbSpline
 62
7
  6
BYLAYER
 70
0
 71
3
 72
23
 73
19
 74
0
 42
0.0000001
 43
0.0000001
 44
0.0000000001
 40
0.0
 40
0.0
 40
0.0
 40
0.0
 40
0.0428130926
 40
0.0873948407
 40
0.1351777508
 40
0.1870855038
 40
0.2435327907
 40
0.304490713
 40
0.369587875
 40
0.4381971974
 40
0.5094953399
 40
0.5825312115
 40
0.6562748874
 40
0.7296656068
 40
0.8016525309
 40
0.8712484152
 40
0.9376275429
 40
1.0
 40
1.0
 40
1.0
 40
1.0
 10
42.9790249017
 20
55.0766523264
 30
0.0
 10
42.9790253131
 20
55.1335860809
 30
0.0
 10
42.9942362711
 20
55.2503015514
 30
0.0
 10
43.0611767439
 20
55.4188283879
 30
0.0
 10
43.1698031341
 20
55.5785791036
 30
0.0
 10
43.317004899
 20
55.7264259836
 30
0.0
 10
43.4994299079
 20
55.8597171362
 30
0.0
 10
43.7131726665
 20
55.9759606985
 30
0.0
 10
43.9537505172
 20
56.0728980178
 30
0.0
 10
44.2161260361
 20
56.1485061342
 30
0.0
 10
44.4947425915
 20
56.2012318763
 30
0.0
 10
44.7836797712
 20
56.2299797763
 30
0.0
 10
45.0767877604
 20
56.2340985424
 30
0.0
 10
45.3678076512
 20
56.2135149489
 30
0.0
 10
45.6505256731
 20
56.16870206
 30
0.0
 10
45.9189913746
 20
56.1005599803
 30
0.0
 10
46.1673785534
 20
56.0105139327
 30
0.0
 10
46.3213890183
 20
55.9346120356
 30
0.0
 10
46.3932212177
 20
55.8931406342
 30
0.0
  0
SPLINE
  5
2F3
100
AcDbEntity
  8
0
100
AcDbSpline
 62
7
  6
BYLAYER
 70
0
 71
3
 72
14
 73
10
 74
0
 42
0.0000001
 43
0.0000001
 44
0.0000000001
 40
0.0
 40
0.0
 40
0.0
 40
0.0
 40
0.2892447884
 40
0.4225660761
 40
0.548513717
 40
0.6678893093
 40
0.781862689
 40
0.8919529104
 40
1.0
 40
1.0
 40
1.0
 40
1.0
 10
46.3932212177
 20
55.8931406342
 30
0.0
 10
46.4810016617
 20
55.8424617177
 30
0.0
 10
46.6039447904
 20
55.7577972684
 30
0.0
 10
46.7430620766
 20
55.6246838219
 30
0.0
 10
46.8277256064
 20
55.5220577124
 30
0.0
 10
46.8946377734
 20
55.4149307755
 30
0.0
 10
46.9430633276
 20
55.304236953
 30
0.0
 10
46.9724486288
 20
55.1911133386
 30
0.0
 10
46.9790024585
 20
55.1145150818
 30
0.0
 10
46.9790021849
 20
55.0766523265
 30
0.0
  0
SPLINE
  5
2F4
100
AcDbEntity
  8
0
100
AcDbSpline
 62
7
  6
BYLAYER
 70
0
 71
3
 72
33
 73
29
 74
0
 42
0.0000001
 43
0.0000001
 44
0.0000000001
 40
0.0
 40
0.0
 40
0.0
 40
0.0
 40
0.032558441
 40
0.0617348868
 40
0.0874535225
 40
0.0990823006
 40
0.109955407
 40
0.1297241765
 40
0.1475393652
 40
0.1643260344
 40
0.1810310424
 40
0.1984728726
 40
0.2172598262
 40
0.2377938716
 40
0.260316014
 40
0.2849528905
 40
0.3117483011
 40
0.3406824339
 40
0.3716839958
 40
0.4393804845
 40
0.5135180611
 40
0.5924453634
 40
0.674448638
 40
0.7578845171
 40
0.8411367963
 40
0.8821826834
 40
0.9225213259
 40
1.0
 40
1.0
 40
1.0
 40
1.0
 10
43.0769042212
 20
54.5418622203
 30
0.0
 10
43.0262408642
 20
54.5711120614
 30
0.0
 10
42.9320089379
 20
54.6298916503
 30
0.0
 10
42.8062093625
 20
54.7244096046
 30
0.0
 10
42.7186464408
 20
54.8062632662
 30
0.0
 10
42.6618638439
 20
54.8718109447
 30
0.0
 10
42.6166412063
 20
54.9328966336
 30
0.0
 10
42.5735881246
 20
55.009194824
 30
0.0
 10
42.5438072256
 20
55.1030690935
 30
0.0
 10
42.5368666656
 20
55.1958556965
 30
0.0
 10
42.5513926494
 20
55.2869718973
 30
0.0
 10
42.5855010979
 20
55.3763507526
 30
0.0
 10
42.6375039852
 20
55.4645219597
 30
0.0
 10
42.7061743934
 20
55.552191856
 30
0.0
 10
42.7905997866
 20
55.639968885
 30
0.0
 10
42.890014008
 20
55.7282971612
 30
0.0
 10
43.0036991481
 20
55.817448294
 30
0.0
 10
43.130921424
 20
55.9075349252
 30
0.0
 10
43.3232787403
 20
56.0324821856
 30
0.0
 10
43.5922145605
 20
56.1881832892
 30
0.0
 10
43.9456774321
 20
56.3685442033
 30
0.0
 10
44.3314795078
 20
56.5409508385
 30
0.0
 10
44.7422996431
 20
56.6967602738
 30
0.0
 10
45.1706952413
 20
56.8253651178
 30
0.0
 10
45.5372648171
 20
56.8997436747
 30
0.0
 10
45.8316441196
 20
56.931445698
 30
0.0
 10
46.1169868241
 20
56.9413511255
 30
0.0
 10
46.329675143
 20
56.9220445883
 30
0.0
 10
46.4658379828
 20
56.8930633843
 30
0.0
  0
SPLINE
  5
2F5
100
AcDbEntity
  8
0
100
AcDbSpline
 62
7
  6
BYLAYER
 70
0
 71
3
 72
17
 73
13
 74
0
 42
0.0000001
 43
0.0000001
 44
0.0000000001
 40
0.0
 40
0.0
 40
0.0
 40
0.0
 40
0.0615554657
 40
0.1222094499
 40
0.182439358
 40
0.2426102672
 40
0.3634803361
 40
0.4860932412
 40
0.6107548402
 40
0.7376478704
 40
0.8671614594
 40
1.0
 40
1.0
 40
1.0
 40
1.0
 10
47.1879308002
 20
56.4761723331
 30
0.0
 10
47.220206064
 20
56.4354677516
 30
0.0
 10
47.2781464189
 20
56.3495618823
 30
0.0
 10
47.3441993854
 20
56.2099014597
 30
0.0
 10
47.389273765
 20
56.0633754891
 30
0.0
 10
47.4228107721
 20
55.862040447
 30
0.0
 10
47.4175490953
 20
55.6033284635
 30
0.0
 10
47.3449565129
 20
55.2991736325
 30
0.0
 10
47.2133807229
 20
55.0100871684
 30
0.0
 10
47.0280508493
 20
54.7451161338
 30
0.0
 10
46.7937031271
 20
54.5125677496
 30
0.0
 10
46.6106802745
 20
54.3857154674
 30
0.0
 10
46.5135942564
 20
54.3296643243
 30
0.0
  0
SPLINE
  5
2F6
100
AcDbEntity
  8
0
100
AcDbSpline
 62
7
  6
BYLAYER
 70
0
 71
3
 72
15
 73
11
 74
0
 42
0.0000001
 43
0.0000001
 44
0.0000000001
 40
0.0
 40
0.0
 40
0.0
 40
0.0
 40
0.1143392357
 40
0.2340214458
 40
0.3580449758
 40
0.4852534648
 40
0.6143856689
 40
0.7441037041
 40
0.8731028745
 40
1.0
 40
1.0
 40
1.0
 40
1.0
 10
47.1879308002
 20
56.4761723331
 30
0.0
 10
47.3316698036
 20
56.3753927688
 30
0.0
 10
47.6156971729
 20
56.1543322447
 30
0.0
 10
48.0186559229
 20
55.7795268275
 30
0.0
 10
48.4032899004
 20
55.3587654989
 30
0.0
 10
48.7636556172
 20
54.8985411749
 30
0.0
 10
49.0941998447
 20
54.4059140659
 30
0.0
 10
49.3898910734
 20
53.8884391719
 30
0.0
 10
49.6460643749
 20
53.35413877
 30
0.0
 10
49.7895967575
 20
52.987936067
 30
0.0
 10
49.8535783437
 20
52.8039119403
 30
0.0
  0
SPLINE
  5
2F7
100
AcDbEntity
  8
0
100
AcDbSpline
 62
7
  6
BYLAYER
 70
0
 71
3
 72
9
 73
5
 74
0
 42
0.0000001
 43
0.0000001
 44
0.0000000001
 40
0.0
 40
0.0
 40
0.0
 40
0.0
 40
0.2600658954
 40
1.0
 40
1.0
 40
1.0
 40
1.0
 10
46.8576749359
 20
56.6976025375
 30
0.0
 10
46.887539888
 20
56.6803606102
 30
0.0
 10
47.0013142905
 20
56.6122612258
 30
0.0
 10
47.1107402356
 20
56.5367367597
 30
0.0
 10
47.1879313995
 20
56.4761715274
 30
0.0
  0
SPLINE
  5
2F8
100
AcDbEntity
  8
0
100
AcDbSpline
 62
7
  6
BYLAYER
 70
0
 71
3
 72
9
 73
5
 74
0
 42
0.0000001
 43
0.0000001
 44
0.0000000001
 40
0.0
 40
0.0
 40
0.0
 40
0.0
 40
0.2578948938
 40
1.0
 40
1.0
 40
1.0
 40
1.0
 10
46.4658391765
 20
56.8930631631
 30
0.0
 10
46.5004203507
 20
56.8781641689
 30
0.0
 10
46.6337284426
 20
56.8186097533
 30
0.0
 10
46.763838999
 20
56.7517774254
 30
0.0
 10
46.8576751974
 20
56.6976029903
 30
0.0
  0
SPLINE
  5
2F9
100
AcDbEntity
  8
0
100
AcDbSpline
 62
7
  6
BYLAYER
 70
0
 71
3
 72
11
 73
7
 74
0
 42
0.0000001
 43
0.0000001
 44
0.0000000001
 40
0.0
 40
0.0
 40
0.0
 40
0.0
 40
0.2897033281
 40
0.5490895198
 40
0.7822165953
 40
1.0
 40
1.0
 40
1.0
 40
1.0
 10
40.5243385616
 20
27.7649264105
 30
0.0
 10
40.5243385616
 20
27.7294587095
 30
0.0
 10
40.5189611363
 20
27.6620066591
 30
0.0
 10
40.4916438651
 20
27.5693310765
 30
0.0
 10
40.4456506529
 20
27.4941300823
 30
0.0
 10
40.4024490663
 20
27.4578105655
 30
0.0
 10
40.3793584406
 20
27.4444792764
 30
0.0
  0
SPLINE
  5
2FA
100
AcDbEntity
  8
0
100
AcDbSpline
 62
7
  6
BYLAYER
 70
0
 71
3
 72
15
 73
11
 74
0
 42
0.0000001
 43
0.0000001
 44
0.0000000001
 40
0.0
 40
0.0
 40
0.0
 40
0.0
 40
0.1141232787
 40
0.2373467935
 40
0.3669716251
 40
0.4999988493
 40
0.6330262331
 40
0.7626515288
 40
0.885875802
 40
1.0
 40
1.0
 40
1.0
 40
1.0
 10
40.029361754
 20
49.4430582675
 30
0.0
 10
40.0632374186
 20
49.4235005858
 30
0.0
 10
40.1301629424
 20
49.3765685353
 30
0.0
 10
40.2222680517
 20
49.2904289393
 30
0.0
 10
40.3071288997
 20
49.1885655931
 30
0.0
 10
40.381582855
 20
49.0748673265
 30
0.0
 10
40.4428221255
 20
48.953539333
 30
0.0
 10
40.4886087778
 20
48.8291158136
 30
0.0
 10
40.5171562448
 20
48.7062801219
 30
0.0
 10
40.5243385616
 20
48.6248543895
 30
0.0
 10
40.5243385616
 20
48.5857380473
 30
0.0
  0
SPLINE
  5
2FB
100
AcDbEntity
  8
0
100
AcDbSpline
 62
7
  6
BYLAYER
 70
0
 71
3
 72
11
 73
7
 74
0
 42
0.0000001
 43
0.0000001
 44
0.0000000001
 40
0.0
 40
0.0
 40
0.0
 40
0.0
 40
0.2177843137
 40
0.4509117637
 40
0.7102976701
 40
1.0
 40
1.0
 40
1.0
 40
1.0
 10
21.6480670761
 20
59.8878614781
 30
0.0
 10
21.6711571808
 20
59.9011924665
 30
0.0
 10
21.7242102862
 20
59.920445873
 30
0.0
 10
21.8123305902
 20
59.9226770621
 30
0.0
 10
21.9062461822
 20
59.8999981208
 30
0.0
 10
21.9673485859
 20
59.8709305222
 30
0.0
 10
21.9980637627
 20
59.8531975078
 30
0.0
  0
SPLINE
  5
2FC
100
AcDbEntity
  8
0
100
AcDbSpline
 62
7
  6
BYLAYER
 70
0
 71
3
 72
11
 73
7
 74
0
 42
0.0000001
 43
0.0000001
 44
0.0000000001
 40
0.0
 40
0.0
 40
0.0
 40
0.0
 40
0.2752028934
 40
0.5331791028
 40
0.7742880234
 40
1.0
 40
1.0
 40
1.0
 40
1.0
 10
27.6550413644
 20
31.765894764
 30
0.0
 10
27.6550413644
 20
31.3870509583
 30
0.0
 10
27.6189202141
 20
30.6523242041
 30
0.0
 10
27.444564129
 20
29.5981247506
 30
0.0
 10
27.1535998745
 20
28.6405385623
 30
0.0
 10
26.8751200239
 20
28.057698744
 30
0.0
 10
26.7170378971
 20
27.7902035751
 30
0.0
  0
SPLINE
  5
2FD
100
AcDbEntity
  8
0
100
AcDbSpline
 62
7
  6
BYLAYER
 70
0
 71
3
 72
11
 73
7
 74
0
 42
0.0000001
 43
0.0000001
 44
0.0000000001
 40
0.0
 40
0.0
 40
0.0
 40
0.0
 40
0.265026672
 40
0.5212464235
 40
0.7667498978
 40
1.0
 40
1.0
 40
1.0
 40
1.0
 10
26.7170378971
 20
36.8246745587
 30
0.0
 10
26.8683333808
 20
36.3939662334
 30
0.0
 10
27.1357845824
 20
35.5358681174
 30
0.0
 10
27.4314433428
 20
34.2472629075
 30
0.0
 10
27.6119810503
 20
32.9927187059
 30
0.0
 10
27.6550413644
 20
32.1676680908
 30
0.0
 10
27.6550413644
 20
31.765894764
 30
0.0
  0
SPLINE
  5
2FE
100
AcDbEntity
  8
0
100
AcDbSpline
 62
7
  6
BYLAYER
 70
0
 71
3
 72
14
 73
10
 74
0
 42
0.0000001
 43
0.0000001
 44
0.0000000001
 40
0.0
 40
0.0
 40
0.0
 40
0.0
 40
0.289246997
 40
0.422569861
 40
0.5485175531
 40
0.667893181
 40
0.7818667659
 40
0.8919560491
 40
1.0
 40
1.0
 40
1.0
 40
1.0
 10
26.8418687132
 20
39.9105048579
 30
0.0
 10
26.8418687132
 20
39.8268807948
 30
0.0
 10
26.8320897397
 20
39.7041138862
 30
0.0
 10
26.7943672097
 20
39.5498053279
 30
0.0
 10
26.7559640896
 20
39.4469806487
 30
0.0
 10
26.7070229959
 20
39.3549830874
 30
0.0
 10
26.6479075717
 20
39.2747233821
 30
0.0
 10
26.5792039594
 20
39.2070652992
 30
0.0
 10
26.5271801674
 20
39.170785743
 30
0.0
 10
26.5001283724
 20
39.1551677547
 30
0.0
  0
SPLINE
  5
2FF
100
AcDbEntity
  8
0
100
AcDbSpline
 62
7
  6
BYLAYER
 70
0
 71
3
 72
9
 73
5
 74
0
 42
0.0000001
 43
0.0000001
 44
0.0000000001
 40
0.0
 40
0.0
 40
0.0
 40
0.0
 40
0.516127064
 40
1.0
 40
1.0
 40
1.0
 40
1.0
 10
26.7849892103
 20
40.3588619169
 30
0.0
 10
26.8032826452
 20
40.2831509172
 30
0.0
 10
26.8313115614
 20
40.1345336854
 30
0.0
 10
26.8418687132
 20
39.9835270265
 30
0.0
 10
26.8418687132
 20
39.9105048579
 30
0.0
  0
SPLINE
  5
300
100
AcDbEntity
  8
0
100
AcDbSpline
 62
7
  6
BYLAYER
 70
0
 71
3
 72
9
 73
5
 74
0
 42
0.0000001
 43
0.0000001
 44
0.0000000001
 40
0.0
 40
0.0
 40
0.0
 40
0.0
 40
0.2471776277
 40
1.0
 40
1.0
 40
1.0
 40
1.0
 10
22.5160694308
 20
43.1211387149
 30
0.0
 10
22.6388249302
 20
42.9781468881
 30
0.0
 10
23.1268674118
 20
42.3923212595
 30
0.0
 10
23.5809069133
 20
41.7782592076
 30
0.0
 10
23.9028299082
 20
41.3030617827
 30
0.0
  0
SPLINE
  5
301
100
AcDbEntity
  8
0
100
AcDbSpline
 62
7
  6
BYLAYER
 70
0
 71
3
 72
9
 73
5
 74
0
 42
0.0000001
 43
0.0000001
 44
0.0000000001
 40
0.0
 40
0.0
 40
0.0
 40
0.0
 40
0.252481465
 40
1.0
 40
1.0
 40
1.0
 40
1.0
 10
25.4116258129
 20
38.689770436
 30
0.0
 10
25.4956648632
 20
38.5165808923
 30
0.0
 10
25.818977498
 20
37.8260546406
 30
0.0
 10
26.1038869851
 20
37.1174565881
 30
0.0
 10
26.2927755948
 20
36.5797280664
 30
0.0
  0
SPLINE
  5
302
100
AcDbEntity
  8
0
100
AcDbSpline
 62
7
  6
BYLAYER
 70
0
 71
3
 72
22
 73
18
 74
0
 42
0.0000001
 43
0.0000001
 44
0.0000000001
 40
0.0
 40
0.0
 40
0.0
 40
0.0
 40
0.0428178271
 40
0.0874054196
 40
0.1351951475
 40
0.1871101866
 40
0.2435650033
 40
0.3045308798
 40
0.3696360936
 40
0.4382535752
 40
0.5095601781
 40
0.5826039787
 40
0.729621822
 40
0.8016199754
 40
0.871227357
 40
0.9376180749
 40
1.0
 40
1.0
 40
1.0
 40
1.0
 10
24.850146961
 20
25.6829881085
 30
0.0
 10
24.8908238586
 20
25.7064723657
 30
0.0
 10
24.9804879883
 20
25.743746909
 30
0.0
 10
25.1285069553
 20
25.7654421289
 30
0.0
 10
25.287454037
 20
25.7537304646
 30
0.0
 10
25.4538088157
 20
25.7095487083
 30
0.0
 10
25.624294147
 20
25.6341976304
 30
0.0
 10
25.7955162516
 20
25.5294375766
 30
0.0
 10
25.9640148942
 20
25.3975406646
 30
0.0
 10
26.126261399
 20
25.2412773368
 30
0.0
 10
26.278875731
 20
25.0639526756
 30
0.0
 10
26.465458761
 20
24.804091116
 30
0.0
 10
26.6188199482
 20
24.5206715862
 30
0.0
 10
26.7323838165
 20
24.2247954664
 30
0.0
 10
26.7944456636
 20
24.0048498359
 30
0.0
 10
26.8325686683
 20
23.7902379012
 30
0.0
 10
26.8418687132
 20
23.6488868633
 30
0.0
 10
26.8418687132
 20
23.5804565153
 30
0.0
  0
SPLINE
  5
303
100
AcDbEntity
  8
0
100
AcDbSpline
 62
7
  6
BYLAYER
 70
0
 71
3
 72
9
 73
5
 74
0
 42
0.0000001
 43
0.0000001
 44
0.0000000001
 40
0.0
 40
0.0
 40
0.0
 40
0.0
 40
0.2327694986
 40
1.0
 40
1.0
 40
1.0
 40
1.0
 10
10.230912932
 20
50.1380555947
 30
0.0
 10
10.2151108104
 20
50.104141278
 30
0.0
 10
10.1556986321
 20
49.9544870315
 30
0.0
 10
10.1289321657
 20
49.7931904216
 30
0.0
 10
10.1217328143
 20
49.6700770769
 30
0.0
  0
SPLINE
  5
304
100
AcDbEntity
  8
0
100
AcDbSpline
 62
7
  6
BYLAYER
 70
0
 71
3
 72
14
 73
10
 74
0
 42
0.0000001
 43
0.0000001
 44
0.0000000001
 40
0.0
 40
0.0
 40
0.0
 40
0.0
 40
0.289246997
 40
0.422569861
 40
0.5485175531
 40
0.667893181
 40
0.7818667659
 40
0.8919560491
 40
1.0
 40
1.0
 40
1.0
 40
1.0
 10
12.6996742103
 20
48.0753199483
 30
0.0
 10
12.6996742103
 20
47.9916958852
 30
0.0
 10
12.6898952368
 20
47.8689289766
 30
0.0
 10
12.6521727067
 20
47.7146204183
 30
0.0
 10
12.6137695867
 20
47.6117957391
 30
0.0
 10
12.5648284929
 20
47.5197981778
 30
0.0
 10
12.5057130688
 20
47.4395384725
 30
0.0
 10
12.4370094564
 20
47.3718803896
 30
0.0
 10
12.3849856644
 20
47.3356008334
 30
0.0
 10
12.3579338695
 20
47.3199828451
 30
0.0
  0
SPLINE
  5
305
100
AcDbEntity
  8
0
100
AcDbSpline
 62
7
  6
BYLAYER
 70
0
 71
3
 72
19
 73
15
 74
0
 42
0.0000001
 43
0.0000001
 44
0.0000000001
 40
0.0
 40
0.0
 40
0.0
 40
0.0
 40
0.049002241
 40
0.1014721946
 40
0.1573290016
 40
0.2164043653
 40
0.2784220161
 40
0.3429565923
 40
0.4774145983
 40
0.6152230958
 40
0.7513382625
 40
0.8809089062
 40
0.9420188807
 40
1.0
 40
1.0
 40
1.0
 40
1.0
 10
11.1730947428
 20
50.2382210756
 30
0.0
 10
11.2181117304
 20
50.2290850477
 30
0.0
 10
11.3099903611
 20
50.2031649459
 30
0.0
 10
11.4461333461
 20
50.1456583009
 30
0.0
 10
11.5833302922
 20
50.068896127
 30
0.0
 10
11.7197167308
 20
49.9740842434
 30
0.0
 10
11.853469995
 20
49.8624518457
 30
0.0
 10
12.0282984031
 20
49.690976034
 30
0.0
 10
12.2279726926
 20
49.444894632
 30
0.0
 10
12.4272524808
 20
49.1167232398
 30
0.0
 10
12.578906613
 20
48.7689809332
 30
0.0
 10
12.6605902565
 20
48.4723246621
 30
0.0
 10
12.6938090603
 20
48.2413636099
 30
0.0
 10
12.6996742103
 20
48.1296714426
 30
0.0
 10
12.6996742103
 20
48.0753199483
 30
0.0
  0
SPLINE
  5
306
100
AcDbEntity
  8
0
100
AcDbSpline
 62
7
  6
BYLAYER
 70
0
 71
3
 72
14
 73
10
 74
0
 42
0.0000001
 43
0.0000001
 44
0.0000000001
 40
0.0
 40
0.0
 40
0.0
 40
0.0
 40
0.1085372199
 40
0.2190403144
 40
0.3332967774
 40
0.4528000083
 40
0.5786811919
 40
0.7116785178
 40
1.0
 40
1.0
 40
1.0
 40
1.0
 10
10.7951440006
 20
34.186956556
 30
0.0
 10
10.8256271086
 20
34.2045555665
 30
0.0
 10
10.8902453087
 20
34.234981984
 30
0.0
 10
10.9947021901
 20
34.2644410764
 30
0.0
 10
11.1059707703
 20
34.2778036278
 30
0.0
 10
11.2229283319
 20
34.2749676746
 30
0.0
 10
11.344498093
 20
34.2560786073
 30
0.0
 10
11.515795336
 20
34.2086016949
 30
0.0
 10
11.6409870062
 20
34.1511926954
 30
0.0
 10
11.7226401726
 20
34.1056347926
 30
0.0
  0
SPLINE
  5
307
100
AcDbEntity
  8
0
100
AcDbSpline
 62
7
  6
BYLAYER
 70
0
 71
3
 72
22
 73
18
 74
0
 42
0.0000001
 43
0.0000001
 44
0.0000000001
 40
0.0
 40
0.0
 40
0.0
 40
0.0
 40
0.0428404386
 40
0.0871503597
 40
0.1341657428
 40
0.1847488916
 40
0.2393711735
 40
0.2981522452
 40
0.3609172008
 40
0.427269402
 40
0.4966340653
 40
0.5683059012
 40
0.6414912113
 40
0.715334556
 40
0.8613995594
 40
0.9320276352
 40
1.0
 40
1.0
 40
1.0
 40
1.0
 10
10.1062360254
 20
34.482042114
 30
0.0
 10
10.1621198849
 20
34.5143140455
 30
0.0
 10
10.2839929922
 20
34.5667158033
 30
0.0
 10
10.4843052328
 20
34.6031396462
 30
0.0
 10
10.6993223985
 20
34.5978951823
 30
0.0
 10
10.9249748854
 20
34.5517965417
 30
0.0
 10
11.1575232469
 20
34.4661168425
 30
0.0
 10
11.3930918298
 20
34.3425366311
 30
0.0
 10
11.6277640599
 20
34.1833482085
 30
0.0
 10
11.857517711
 20
33.9913235469
 30
0.0
 10
12.0783721674
 20
33.7698182535
 30
0.0
 10
12.2864955874
 20
33.5227516406
 30
0.0
 10
12.4782289291
 20
33.2544059609
 30
0.0
 10
12.7065312608
 20
32.8761677618
 30
0.0
 10
12.8895637381
 20
32.4762176148
 30
0.0
 10
13.0191496232
 20
32.0670723682
 30
0.0
 10
13.064730862
 20
31.8629570886
 30
0.0
 10
13.0821534515
 20
31.7620599257
 30
0.0
  0
SPLINE
  5
308
100
AcDbEntity
  8
0
100
AcDbSpline
 62
7
  6
BYLAYER
 70
0
 71
3
 72
9
 73
5
 74
0
 42
0.0000001
 43
0.0000001
 44
0.0000000001
 40
0.0
 40
0.0
 40
0.0
 40
0.0
 40
0.2588367446
 40
1.0
 40
1.0
 40
1.0
 40
1.0
 10
13.0849857466
 20
31.7453883146
 30
0.0
 10
13.0913983985
 20
31.7070103212
 30
0.0
 10
13.1133735443
 20
31.5582999516
 30
0.0
 10
13.1240003967
 20
31.4077975899
 30
0.0
 10
13.1240003967
 20
31.2963810133
 30
0.0
  0
SPLINE
  5
309
100
AcDbEntity
  8
0
100
AcDbSpline
 62
7
  6
BYLAYER
 70
0
 71
3
 72
11
 73
7
 74
0
 42
0.0000001
 43
0.0000001
 44
0.0000000001
 40
0.0
 40
0.0
 40
0.0
 40
0.0
 40
0.2379330426
 40
0.4809944675
 40
0.7337837033
 40
1.0
 40
1.0
 40
1.0
 40
1.0
 10
9.6357064399
 20
43.2170356256
 30
0.0
 10
9.4548121137
 20
43.1125859808
 30
0.0
 10
9.1077489352
 20
42.8672476245
 30
0.0
 10
8.6545447735
 20
42.4050207286
 30
0.0
 10
8.2711171021
 20
41.8533235224
 30
0.0
 10
8.0703392915
 20
41.4422515094
 30
0.0
 10
7.981890591
 20
41.2259205284
 30
0.0
  0
SPLINE
  5
30A
100
AcDbEntity
  8
0
100
AcDbSpline
 62
7
  6
BYLAYER
 70
0
 71
3
 72
9
 73
5
 74
0
 42
0.0000001
 43
0.0000001
 44
0.0000000001
 40
0.0
 40
0.0
 40
0.0
 40
0.0
 40
0.5133885164
 40
1.0
 40
1.0
 40
1.0
 40
1.0
 10
12.0904519613
 20
27.1602591153
 30
0.0
 10
12.3510244194
 20
26.9337776212
 30
0.0
 10
12.877468573
 20
26.5137632373
 30
0.0
 10
13.4416286577
 20
26.1453523943
 30
0.0
 10
13.7250239385
 20
25.9817377541
 30
0.0
  0
SPLINE
  5
30B
100
AcDbEntity
  8
0
100
AcDbSpline
 62
7
  6
BYLAYER
 70
0
 71
3
 72
13
 73
9
 74
0
 42
0.0000001
 43
0.0000001
 44
0.0000000001
 40
0.0
 40
0.0
 40
0.0
 40
0.0
 40
0.2660968121
 40
0.5187650867
 40
0.6412937638
 40
0.7619367541
 40
0.881294677
 40
1.0
 40
1.0
 40
1.0
 40
1.0
 10
17.3843818359
 20
24.9402394978
 30
0.0
 10
17.6159611159
 20
24.9086773693
 30
0.0
 10
18.0722886792
 20
24.8769520112
 30
0.0
 10
18.6361741739
 20
24.9243607533
 30
0.0
 10
19.0624825408
 20
25.0157050476
 30
0.0
 10
19.367277699
 20
25.1093200697
 30
0.0
 10
19.6593962365
 20
25.2284186869
 30
0.0
 10
19.845361476
 20
25.3247635406
 30
0.0
 10
19.9356529486
 20
25.3768984662
 30
0.0
  0
SPLINE
  5
30C
100
AcDbEntity
  8
0
100
AcDbSpline
 62
7
  6
BYLAYER
 70
0
 71
3
 72
13
 73
9
 74
0
 42
0.0000001
 43
0.0000001
 44
0.0000000001
 40
0.0
 40
0.0
 40
0.0
 40
0.0
 40
0.2186093217
 40
0.3354518597
 40
0.4576331251
 40
0.5852770383
 40
0.7183552227
 40
1.0
 40
1.0
 40
1.0
 40
1.0
 10
15.116273702
 20
47.8832050267
 30
0.0
 10
15.5304093351
 20
47.8874193798
 30
0.0
 10
16.1682483855
 20
47.8189303918
 30
0.0
 10
17.0094791778
 20
47.6069696919
 30
0.0
 10
17.6666961701
 20
47.3791279647
 30
0.0
 10
18.3316497716
 20
47.0874609564
 30
0.0
 10
19.2405648913
 20
46.6067693171
 30
0.0
 10
19.8961285277
 20
46.1686806225
 30
0.0
 10
20.3224727218
 20
45.8478436427
 30
0.0
  0
SPLINE
  5
30D
100
AcDbEntity
  8
0
100
AcDbSpline
 62
7
  6
BYLAYER
 70
0
 71
3
 72
10
 73
6
 74
0
 42
0.0000001
 43
0.0000001
 44
0.0000000001
 40
0.0
 40
0.0
 40
0.0
 40
0.0
 40
0.4873136073
 40
0.7410153439
 40
1.0
 40
1.0
 40
1.0
 40
1.0
 10
20.3224727218
 20
45.8478436427
 30
0.0
 10
20.7914240276
 20
45.4949435148
 30
0.0
 10
21.471988652
 20
44.9137259033
 30
0.0
 10
22.3233913767
 20
44.0615359723
 30
0.0
 10
22.737160351
 20
43.6027495296
 30
0.0
 10
22.9403317331
 20
43.3660852073
 30
0.0
  0
SPLINE
  5
30E
100
AcDbEntity
  8
0
100
AcDbSpline
 62
7
  6
BYLAYER
 70
0
 71
3
 72
11
 73
7
 74
0
 42
0.0000001
 43
0.0000001
 44
0.0000000001
 40
0.0
 40
0.0
 40
0.0
 40
0.0
 40
0.2453640711
 40
0.4999993276
 40
0.7546349301
 40
1.0
 40
1.0
 40
1.0
 40
1.0
 10
27.8734560645
 20
42.7193330198
 30
0.0
 10
27.9634016786
 20
42.6337292436
 30
0.0
 10
28.1328217104
 20
42.4443147478
 30
0.0
 10
28.3461026027
 20
42.1261915308
 30
0.0
 10
28.5149667861
 20
41.7824235953
 30
0.0
 10
28.5942960579
 20
41.5409940965
 30
0.0
 10
28.623459187
 20
41.420296717
 30
0.0
  0
SPLINE
  5
30F
100
AcDbEntity
  8
0
100
AcDbSpline
 62
7
  6
BYLAYER
 70
0
 71
3
 72
15
 73
11
 74
0
 42
0.0000001
 43
0.0000001
 44
0.0000000001
 40
0.0
 40
0.0
 40
0.0
 40
0.0
 40
0.0995386663
 40
0.2026762359
 40
0.3124069779
 40
0.4307972174
 40
0.5588706214
 40
0.6968677772
 40
0.84437154
 40
1.0
 40
1.0
 40
1.0
 40
1.0
 10
24.850148554
 20
42.0130336238
 30
0.0
 10
24.8880747103
 20
42.0349228956
 30
0.0
 10
24.971000436
 20
42.0702939179
 30
0.0
 10
25.1075064438
 20
42.093740338
 30
0.0
 10
25.2540577704
 20
42.0882116268
 30
0.0
 10
25.4077462505
 20
42.0541719314
 30
0.0
 10
25.5659178438
 20
41.9927136253
 30
0.0
 10
25.7258459039
 20
41.9050142204
 30
0.0
 10
25.8845813887
 20
41.7927594316
 30
0.0
 10
25.985391811
 20
41.7050984908
 30
0.0
 10
26.0349860877
 20
41.6578982198
 30
0.0
  0
SPLINE
  5
310
100
AcDbEntity
  8
0
100
AcDbSpline
 62
7
  6
BYLAYER
 70
0
 71
3
 72
11
 73
7
 74
0
 42
0.0000001
 43
0.0000001
 44
0.0000000001
 40
0.0
 40
0.0
 40
0.0
 40
0.0
 40
0.2428439014
 40
0.4886464695
 40
0.7402546647
 40
1.0
 40
1.0
 40
1.0
 40
1.0
 10
12.5040768207
 20
47.066995414
 30
0.0
 10
12.6642690724
 20
47.1594819048
 30
0.0
 10
12.9997899395
 20
47.3237152854
 30
0.0
 10
13.5365731727
 20
47.501484807
 30
0.0
 10
14.1044687237
 20
47.6103468298
 30
0.0
 10
14.4941740435
 20
47.6362452895
 30
0.0
 10
14.6920113997
 20
47.6382585344
 30
0.0
  0
SPLINE
  5
311
100
AcDbEntity
  8
0
100
AcDbSpline
 62
7
  6
BYLAYER
 70
0
 71
3
 72
13
 73
9
 74
0
 42
0.0000001
 43
0.0000001
 44
0.0000000001
 40
0.0
 40
0.0
 40
0.0
 40
0.0
 40
0.2825497302
 40
0.5418061168
 40
0.6632032548
 40
0.7796006674
 40
0.891622666
 40
1.0
 40
1.0
 40
1.0
 40
1.0
 10
11.3562260838
 20
27.4996186385
 30
0.0
 10
11.5615137787
 20
27.3810984139
 30
0.0
 10
11.9702535561
 20
27.1784131813
 30
0.0
 10
12.5038799388
 20
27.010632935
 30
0.0
 10
12.9160367522
 20
26.9433325942
 30
0.0
 10
13.2095604776
 20
26.9257384405
 30
0.0
 10
13.4923301821
 20
26.9402067395
 30
0.0
 10
13.6751116938
 20
26.9715905979
 30
0.0
 10
13.7635544584
 20
26.9926821986
 30
0.0
  0
SPLINE
  5
312
100
AcDbEntity
  8
0
100
AcDbSpline
 62
7
  6
BYLAYER
 70
0
 71
3
 72
11
 73
7
 74
0
 42
0.0000001
 43
0.0000001
 44
0.0000000001
 40
0.0
 40
0.0
 40
0.0
 40
0.0
 40
0.2664285877
 40
0.5241614711
 40
0.7696414114
 40
1.0
 40
1.0
 40
1.0
 40
1.0
 10
8.9488977092
 20
29.7723626841
 30
0.0
 10
9.1215186541
 20
29.5318755008
 30
0.0
 10
9.4824478481
 20
29.073583465
 30
0.0
 10
10.0735318573
 20
28.4537453219
 30
0.0
 10
10.6945132678
 20
27.9235433212
 30
0.0
 10
11.1345656269
 20
27.6275914679
 30
0.0
 10
11.3562260838
 20
27.4996186385
 30
0.0
  0
SPLINE
  5
313
100
AcDbEntity
  8
0
100
AcDbSpline
 62
7
  6
BYLAYER
 70
0
 71
3
 72
18
 73
14
 74
0
 42
0.0000001
 43
0.0000001
 44
0.0000000001
 40
0.0
 40
0.0
 40
0.0
 40
0.0
 40
0.0466227
 40
0.0948129768
 40
0.1448845233
 40
0.197109378
 40
0.3086383642
 40
0.3682035806
 40
0.4302666895
 40
0.5615097008
 40
0.7013676843
 40
0.8482067342
 40
1.0
 40
1.0
 40
1.0
 40
1.0
 10
7.9488935458
 20
37.0639144204
 30
0.0
 10
7.8864070782
 20
36.9978643001
 30
0.0
 10
7.7678402035
 20
36.8552576786
 30
0.0
 10
7.6139298227
 20
36.6176052013
 30
0.0
 10
7.4824009872
 20
36.3546008574
 30
0.0
 10
7.334627812
 20
35.9640364126
 30
0.0
 10
7.2394640262
 20
35.5364067339
 30
0.0
 10
7.1920216445
 20
35.0839518652
 30
0.0
 10
7.175949067
 20
34.590651766
 30
0.0
 10
7.2205700614
 20
33.9406200313
 30
0.0
 10
7.3692392092
 20
33.1376731895
 30
0.0
 10
7.6105025741
 20
32.3158746474
 30
0.0
 10
7.8269340544
 20
31.77414953
 30
0.0
 10
7.9488935458
 20
31.5044110878
 30
0.0
  0
SPLINE
  5
314
100
AcDbEntity
  8
0
100
AcDbSpline
 62
7
  6
BYLAYER
 70
0
 71
3
 72
15
 73
11
 74
0
 42
0.0000001
 43
0.0000001
 44
0.0000000001
 40
0.0
 40
0.0
 40
0.0
 40
0.0
 40
0.1485053304
 40
0.2894892304
 40
0.4227457687
 40
0.5486507249
 40
0.6679954841
 40
0.7819391115
 40
0.8919890889
 40
1.0
 40
1.0
 40
1.0
 40
1.0
 10
13.1240003967
 20
31.2963810133
 30
0.0
 10
13.1240003967
 20
31.23130809
 30
0.0
 10
13.118723643
 20
31.1043726138
 30
0.0
 10
13.0937734856
 20
30.9205255301
 30
0.0
 10
13.0520156599
 20
30.7498598863
 30
0.0
 10
12.9938534464
 20
30.594080348
 30
0.0
 10
12.9196792577
 20
30.4546928828
 30
0.0
 10
12.8301423508
 20
30.3330572943
 30
0.0
 10
12.7260110122
 20
30.2305762914
 30
0.0
 10
12.6472017834
 20
30.1755921615
 30
0.0
 10
12.6062161422
 20
30.1519236852
 30
0.0
  0
LINE
  5
315
100
AcDbEntity
  8
0
100
AcDbLine
 62
7
  6
BYLAYER
 10
8.7072397019
 20
41.2209010164
 11
6.6357206765
 21
39.3383839229
  0
LINE
  5
316
100
AcDbEntity
  8
0
100
AcDbLine
 62
7
  6
BYLAYER
 10
15.0767273277
 20
24.7182126961
 11
17.7428040116
 21
25.5709314335
  0
SPLINE
  5
317
100
AcDbEntity
  8
0
100
AcDbSpline
 62
7
  6
BYLAYER
 70
0
 71
3
 72
11
 73
7
 74
0
 42
0.0000001
 43
0.0000001
 44
0.0000000001
 40
0.0
 40
0.0
 40
0.0
 40
0.0
 40
0.2597463093
 40
0.5113546722
 40
0.7571568223
 40
1.0
 40
1.0
 40
1.0
 40
1.0
 10
26.2927755948
 20
27.5452570827
 30
0.0
 10
26.1921105733
 20
27.3749189965
 30
0.0
 10
25.9748218677
 20
27.0503499877
 30
0.0
 10
25.5965798568
 20
26.6129383997
 30
0.0
 10
25.1742134759
 20
26.2369312899
 30
0.0
 10
24.8642050815
 20
26.0284671226
 30
0.0
 10
24.7040040097
 20
25.9359755396
 30
0.0
  0
SPLINE
  5
318
100
AcDbEntity
  8
0
100
AcDbSpline
 62
7
  6
BYLAYER
 70
0
 71
3
 72
14
 73
10
 74
0
 42
0.0000001
 43
0.0000001
 44
0.0000000001
 40
0.0
 40
0.0
 40
0.0
 40
0.0
 40
0.2885068325
 40
0.4215957926
 40
0.5474679751
 40
0.6669264676
 40
0.7811272908
 40
0.8915550102
 40
1.0
 40
1.0
 40
1.0
 40
1.0
 10
13.088514497
 20
31.7446679378
 30
0.0
 10
13.0873827342
 20
31.6506608243
 30
0.0
 10
13.074784645
 20
31.5127528569
 30
0.0
 10
13.0304583973
 20
31.33963692
 30
0.0
 10
12.9860556752
 20
31.2242491577
 30
0.0
 10
12.9299628388
 20
31.1209782143
 30
0.0
 10
12.8626023944
 20
31.0308076215
 30
0.0
 10
12.7846133677
 20
30.9546794975
 30
0.0
 10
12.7257264309
 20
30.9137466431
 30
0.0
 10
12.6951223879
 20
30.8960778124
 30
0.0
  0
SPLINE
  5
319
100
AcDbEntity
  8
0
100
AcDbSpline
 62
7
  6
BYLAYER
 70
0
 71
3
 72
9
 73
5
 74
0
 42
0.0000001
 43
0.0000001
 44
0.0000000001
 40
0.0
 40
0.0
 40
0.0
 40
0.0
 40
0.2684837086
 40
1.0
 40
1.0
 40
1.0
 40
1.0
 10
25.7735443832
 20
22.5681868099
 30
0.0
 10
25.8116246559
 20
22.5492687728
 30
0.0
 10
25.9559090749
 20
22.4842065501
 30
0.0
 10
26.1117560369
 20
22.4420182004
 30
0.0
 10
26.2271647759
 20
22.4318884737
 30
0.0
  0
SPLINE
  5
31A
100
AcDbEntity
  8
0
100
AcDbSpline
 62
7
  6
BYLAYER
 70
0
 71
3
 72
9
 73
5
 74
0
 42
0.0000001
 43
0.0000001
 44
0.0000000001
 40
0.0
 40
0.0
 40
0.0
 40
0.0
 40
0.2668557807
 40
1.0
 40
1.0
 40
1.0
 40
1.0
 10
26.8418687132
 20
23.5804565153
 30
0.0
 10
26.8418687132
 20
23.5459625471
 30
0.0
 10
26.8375837056
 20
23.4168256254
 30
0.0
 10
26.8151013742
 20
23.2876321655
 30
0.0
 10
26.7849892103
 20
23.1977767632
 30
0.0
  0
SPLINE
  5
31B
100
AcDbEntity
  8
0
100
AcDbSpline
 62
7
  6
BYLAYER
 70
0
 71
3
 72
9
 73
5
 74
0
 42
0.0000001
 43
0.0000001
 44
0.0000000001
 40
0.0
 40
0.0
 40
0.0
 40
0.0
 40
0.2392163951
 40
1.0
 40
1.0
 40
1.0
 40
1.0
 10
25.7333730413
 20
42.6177311036
 30
0.0
 10
25.756791277
 20
42.6114565338
 30
0.0
 10
25.8538947135
 20
42.5822937501
 30
0.0
 10
25.9475667041
 20
42.5421925857
 30
0.0
 10
26.0162789751
 20
42.5072110189
 30
0.0
  0
SPLINE
  5
31C
100
AcDbEntity
  8
0
100
AcDbSpline
 62
7
  6
BYLAYER
 70
0
 71
3
 72
9
 73
5
 74
0
 42
0.0000001
 43
0.0000001
 44
0.0000000001
 40
0.0
 40
0.0
 40
0.0
 40
0.0
 40
0.4780833083
 40
1.0
 40
1.0
 40
1.0
 40
1.0
 10
26.0416081166
 20
42.4940523096
 30
0.0
 10
26.1512740273
 20
42.4359386234
 30
0.0
 10
26.3682131975
 20
42.2904117436
 30
0.0
 10
26.5587698114
 20
42.1126585068
 30
0.0
 10
26.6514270782
 20
42.0138023018
 30
0.0
  0
SPLINE
  5
31D
100
AcDbEntity
  8
0
100
AcDbSpline
 62
7
  6
BYLAYER
 70
0
 71
3
 72
11
 73
7
 74
0
 42
0.0000001
 43
0.0000001
 44
0.0000000001
 40
0.0
 40
0.0
 40
0.0
 40
0.0
 40
0.2768500195
 40
0.5376616032
 40
0.7792168361
 40
1.0
 40
1.0
 40
1.0
 40
1.0
 10
26.2271647759
 20
41.7688558094
 30
0.0
 10
26.1570115787
 20
41.843702382
 30
0.0
 10
26.0131616301
 20
41.9822007677
 30
0.0
 10
25.7828949608
 20
42.1576034495
 30
0.0
 10
25.5493570271
 20
42.2906872195
 30
0.0
 10
25.3881324431
 20
42.3516119146
 30
0.0
 10
25.309110739
 20
42.3727846113
 30
0.0
  0
SPLINE
  5
31E
100
AcDbEntity
  8
0
100
AcDbSpline
 62
7
  6
BYLAYER
 70
0
 71
3
 72
11
 73
7
 74
0
 42
0.0000001
 43
0.0000001
 44
0.0000000001
 40
0.0
 40
0.0
 40
0.0
 40
0.0
 40
0.2814383853
 40
0.5428974724
 40
0.7823263991
 40
1.0
 40
1.0
 40
1.0
 40
1.0
 10
11.8989700915
 20
50.1149577726
 30
0.0
 10
11.8259137769
 20
50.1797396712
 30
0.0
 10
11.6778829611
 20
50.2970525023
 30
0.0
 10
11.4444546247
 20
50.4372716455
 30
0.0
 10
11.2127294439
 20
50.5320332559
 30
0.0
 10
11.0561461604
 20
50.5644793368
 30
0.0
 10
10.9809160546
 20
50.5710824798
 30
0.0
  0
SPLINE
  5
31F
100
AcDbEntity
  8
0
100
AcDbSpline
 62
7
  6
BYLAYER
 70
0
 71
3
 72
11
 73
7
 74
0
 42
0.0000001
 43
0.0000001
 44
0.0000000001
 40
0.0
 40
0.0
 40
0.0
 40
0.0
 40
0.2597463093
 40
0.5113546722
 40
0.7571568223
 40
1.0
 40
1.0
 40
1.0
 40
1.0
 10
10.9153052357
 20
45.4577138709
 30
0.0
 10
11.0159702572
 20
45.6280519571
 30
0.0
 10
11.2332589628
 20
45.9526209659
 30
0.0
 10
11.6115009736
 20
46.3900325539
 30
0.0
 10
12.0338673546
 20
46.7660396637
 30
0.0
 10
12.3438757489
 20
46.974503831
 30
0.0
 10
12.5040768207
 20
47.066995414
 30
0.0
  0
SPLINE
  5
320
100
AcDbEntity
  8
0
100
AcDbSpline
 62
7
  6
BYLAYER
 70
0
 71
3
 72
11
 73
7
 74
0
 42
0.0000001
 43
0.0000001
 44
0.0000000001
 40
0.0
 40
0.0
 40
0.0
 40
0.0
 40
0.2644464713
 40
0.5168838926
 40
0.7607132405
 40
1.0
 40
1.0
 40
1.0
 40
1.0
 10
24.596921948
 20
41.7213241391
 30
0.0
 10
24.6111481173
 20
41.7528456682
 30
0.0
 10
24.6429547883
 20
41.8127777414
 30
0.0
 10
24.702137115
 20
41.8932103475
 30
0.0
 10
24.7709351132
 20
41.9610308598
 30
0.0
 10
24.8230458803
 20
41.9973911794
 30
0.0
 10
24.850148554
 20
42.0130336238
 30
0.0
  0
SPLINE
  5
321
100
AcDbEntity
  8
0
100
AcDbSpline
 62
7
  6
BYLAYER
 70
0
 71
3
 72
11
 73
7
 74
0
 42
0.0000001
 43
0.0000001
 44
0.0000000001
 40
0.0
 40
0.0
 40
0.0
 40
0.0
 40
0.2428439014
 40
0.4886464695
 40
0.7402546647
 40
1.0
 40
1.0
 40
1.0
 40
1.0
 10
24.7040040097
 20
25.9359755396
 30
0.0
 10
24.5438117581
 20
25.8434890488
 30
0.0
 10
24.208290891
 20
25.6792556682
 30
0.0
 10
23.6715076578
 20
25.5014861466
 30
0.0
 10
23.1036121067
 20
25.3926241238
 30
0.0
 10
22.713906787
 20
25.3667256641
 30
0.0
 10
22.5160694308
 20
25.3647124192
 30
0.0
  0
SPLINE
  5
322
100
AcDbEntity
  8
0
100
AcDbSpline
 62
7
  6
BYLAYER
 70
0
 71
3
 72
9
 73
5
 74
0
 42
0.0000001
 43
0.0000001
 44
0.0000000001
 40
0.0
 40
0.0
 40
0.0
 40
0.0
 40
0.2690896921
 40
1.0
 40
1.0
 40
1.0
 40
1.0
 10
27.5110984153
 20
23.586569437
 30
0.0
 10
27.508752803
 20
23.5426138073
 30
0.0
 10
27.4938435385
 20
23.3798251747
 30
0.0
 10
27.4519274563
 20
23.2182384321
 30
0.0
 10
27.4014302008
 20
23.1098618513
 30
0.0
  0
SPLINE
  5
323
100
AcDbEntity
  8
0
100
AcDbSpline
 62
7
  6
BYLAYER
 70
0
 71
3
 72
10
 73
6
 74
0
 42
0.0000001
 43
0.0000001
 44
0.0000000001
 40
0.0
 40
0.0
 40
0.0
 40
0.0
 40
0.2406087352
 40
0.4852961708
 40
1.0
 40
1.0
 40
1.0
 40
1.0
 10
26.5001283724
 20
39.1551677547
 30
0.0
 10
26.4745381585
 20
39.1403935905
 30
0.0
 10
26.4203984567
 20
39.1147250846
 30
0.0
 10
26.3021226374
 20
39.0802750319
 30
0.0
 10
26.2073513297
 20
39.0753026717
 30
0.0
 10
26.1442969397
 20
39.0797371719
 30
0.0
  0
SPLINE
  5
324
100
AcDbEntity
  8
0
100
AcDbSpline
 62
7
  6
BYLAYER
 70
0
 71
3
 72
23
 73
19
 74
0
 42
0.0000001
 43
0.0000001
 44
0.0000000001
 40
0.0
 40
0.0
 40
0.0
 40
0.0
 40
0.0428126486
 40
0.0873948309
 40
0.1351784254
 40
0.1870864989
 40
0.24353351
 40
0.3044908048
 40
0.3695869531
 40
0.4381951121
 40
0.5094924014
 40
0.5825269156
 40
0.6562686604
 40
0.7296592492
 40
0.8016476242
 40
0.8712455972
 40
0.9376268453
 40
1.0
 40
1.0
 40
1.0
 40
1.0
 10
12.6951223879
 20
30.8960778124
 30
0.0
 10
12.6482817259
 20
30.8690349892
 30
0.0
 10
12.5450308305
 20
30.8261120609
 30
0.0
 10
12.3745827854
 20
30.8011308712
 30
0.0
 10
12.1915519237
 20
30.8146175356
 30
0.0
 10
11.9999920454
 20
30.8654942629
 30
0.0
 10
11.8036769245
 20
30.9522626346
 30
0.0
 10
11.6065129747
 20
31.0728950138
 30
0.0
 10
11.4124865365
 20
31.2247748614
 30
0.0
 10
11.2256530014
 20
31.4047183911
 30
0.0
 10
11.0499327266
 20
31.6088945354
 30
0.0
 10
10.8890366981
 20
31.8329495173
 30
0.0
 10
10.7464203931
 20
32.072135014
 30
0.0
 10
10.6251215697
 20
32.3213415546
 30
0.0
 10
10.5276943246
 20
32.5752299185
 30
0.0
 10
10.4562332801
 20
32.8284781969
 30
0.0
 10
10.4123330055
 20
33.0756110997
 30
0.0
 10
10.4016247165
 20
33.2383765779
 30
0.0
 10
10.4016247165
 20
33.3171746178
 30
0.0
  0
SPLINE
  5
325
100
AcDbEntity
  8
0
100
AcDbSpline
 62
7
  6
BYLAYER
 70
0
 71
3
 72
25
 73
21
 74
0
 42
0.0000001
 43
0.0000001
 44
0.0000000001
 40
0.0
 40
0.0
 40
0.0
 40
0.0
 40
0.0213315375
 40
0.0428923892
 40
0.0648978231
 40
0.0875426257
 40
0.1353183409
 40
0.1872199306
 40
0.2436563893
 40
0.3046028565
 40
0.3696902548
 40
0.4382861889
 40
0.5095715849
 40
0.5825959563
 40
0.6563254973
 40
0.7297029772
 40
0.8016815617
 40
0.8712676672
 40
0.9376305901
 40
1.0
 40
1.0
 40
1.0
 40
1.0
 10
12.6062161422
 20
30.1519236852
 30
0.0
 10
12.5755045458
 20
30.1341882864
 30
0.0
 10
12.5113883848
 20
30.1024522448
 30
0.0
 10
12.4091551558
 20
30.0671364858
 30
0.0
 10
12.3012356755
 20
30.0441001716
 30
0.0
 10
12.1479469652
 20
30.0297182729
 30
0.0
 10
11.9435653993
 20
30.0447164329
 30
0.0
 10
11.6915778071
 20
30.1117087524
 30
0.0
 10
11.4332488116
 20
30.2258590018
 30
0.0
 10
11.1738169312
 20
30.3845713056
 30
0.0
 10
10.9185367097
 20
30.5844372102
 30
0.0
 10
10.6726991154
 20
30.8211988931
 30
0.0
 10
10.4414726289
 20
31.0898401392
 30
0.0
 10
10.2297860352
 20
31.3846654574
 30
0.0
 10
10.0421312258
 20
31.699381055
 30
0.0
 10
9.8825097849
 20
32.0272772751
 30
0.0
 10
9.7543375434
 20
32.3613497239
 30
0.0
 10
9.6603104694
 20
32.6945590414
 30
0.0
 10
9.6025295517
 20
33.0197284757
 30
0.0
 10
9.5884517709
 20
33.2338925977
 30
0.0
 10
9.5884517709
 20
33.3375847859
 30
0.0
  0
SPLINE
  5
326
100
AcDbEntity
  8
0
100
AcDbSpline
 62
7
  6
BYLAYER
 70
0
 71
3
 72
10
 73
6
 74
0
 42
0.0000001
 43
0.0000001
 44
0.0000000001
 40
0.0
 40
0.0
 40
0.0
 40
0.0
 40
0.2406087352
 40
0.4852961708
 40
1.0
 40
1.0
 40
1.0
 40
1.0
 10
12.3579338695
 20
47.3199828451
 30
0.0
 10
12.3323436555
 20
47.3052086809
 30
0.0
 10
12.2782039538
 20
47.279540175
 30
0.0
 10
12.1599281345
 20
47.2450901223
 30
0.0
 10
12.0651568267
 20
47.2401177621
 30
0.0
 10
12.0021024367
 20
47.2445522623
 30
0.0
  0
SPLINE
  5
327
100
AcDbEntity
  8
0
100
AcDbSpline
 62
7
  6
BYLAYER
 70
0
 71
3
 72
13
 73
9
 74
0
 42
0.0000001
 43
0.0000001
 44
0.0000000001
 40
0.0
 40
0.0
 40
0.0
 40
0.0
 40
0.114622314
 40
0.2308207497
 40
0.3494175062
 40
0.4711523391
 40
0.7262191042
 40
1.0
 40
1.0
 40
1.0
 40
1.0
 10
12.9947884995
 20
47.3339261572
 30
0.0
 10
12.8718156741
 20
47.248527175
 30
0.0
 10
12.6334608666
 20
47.062758834
 30
0.0
 10
12.3050452925
 20
46.7446724131
 30
0.0
 10
12.0053410659
 20
46.3871581965
 30
0.0
 10
11.6401231442
 20
45.8518913955
 30
0.0
 10
11.2634005833
 20
45.0849183659
 30
0.0
 10
11.0627383032
 20
44.4208854216
 30
0.0
 10
10.9826279592
 20
44.072366773
 30
0.0
  0
SPLINE
  5
328
100
AcDbEntity
  8
0
100
AcDbSpline
 62
7
  6
BYLAYER
 70
0
 71
3
 72
9
 73
5
 74
0
 42
0.0000001
 43
0.0000001
 44
0.0000000001
 40
0.0
 40
0.0
 40
0.0
 40
0.0
 40
0.2604032204
 40
1.0
 40
1.0
 40
1.0
 40
1.0
 10
27.4654310601
 20
24.1329924282
 30
0.0
 10
27.4733221526
 20
24.094430623
 30
0.0
 10
27.5002957654
 20
23.9457101613
 30
0.0
 10
27.5136194193
 20
23.794311566
 30
0.0
 10
27.5136194193
 20
23.6825187436
 30
0.0
  0
SPLINE
  5
329
100
AcDbEntity
  8
0
100
AcDbSpline
 62
7
  6
BYLAYER
 70
0
 71
3
 72
9
 73
5
 74
0
 42
0.0000001
 43
0.0000001
 44
0.0000000001
 40
0.0
 40
0.0
 40
0.0
 40
0.0
 40
0.4807312264
 40
1.0
 40
1.0
 40
1.0
 40
1.0
 10
27.089357117
 20
39.7676205938
 30
0.0
 10
27.089357117
 20
39.8818733962
 30
0.0
 10
27.0679806668
 20
40.1197319557
 30
0.0
 10
27.0129496768
 20
40.3517087954
 30
0.0
 10
26.9771678984
 20
40.4698195066
 30
0.0
  0
SPLINE
  5
32A
100
AcDbEntity
  8
0
100
AcDbSpline
 62
7
  6
BYLAYER
 70
0
 71
3
 72
11
 73
7
 74
0
 42
0.0000001
 43
0.0000001
 44
0.0000000001
 40
0.0
 40
0.0
 40
0.0
 40
0.0
 40
0.2202187743
 40
0.4578791073
 40
0.7174040063
 40
1.0
 40
1.0
 40
1.0
 40
1.0
 10
10.2996551395
 20
34.5511263814
 30
0.0
 10
10.2461780094
 20
34.4942756261
 30
0.0
 10
10.1501278528
 20
34.3612174369
 30
0.0
 10
10.0496474424
 20
34.1258736903
 30
0.0
 10
9.9895527666
 20
33.8547775326
 30
0.0
 10
9.9773588814
 20
33.6622768988
 30
0.0
 10
9.9773588814
 20
33.5621190705
 30
0.0
  0
SPLINE
  5
32B
100
AcDbEntity
  8
0
100
AcDbSpline
 62
7
  6
BYLAYER
 70
0
 71
3
 72
9
 73
5
 74
0
 42
0.0000001
 43
0.0000001
 44
0.0000000001
 40
0.0
 40
0.0
 40
0.0
 40
0.0
 40
0.2366982813
 40
1.0
 40
1.0
 40
1.0
 40
1.0
 10
27.0411687578
 20
39.3727887748
 30
0.0
 10
27.0493046971
 20
39.4031527244
 30
0.0
 10
27.0787325857
 20
39.5327520558
 30
0.0
 10
27.089357117
 20
39.6662492001
 30
0.0
 10
27.089357117
 20
39.7676205938
 30
0.0
  0
SPLINE
  5
32C
100
AcDbEntity
  8
0
100
AcDbSpline
 62
7
  6
BYLAYER
 70
0
 71
3
 72
15
 73
11
 74
0
 42
0.0000001
 43
0.0000001
 44
0.0000000001
 40
0.0
 40
0.0
 40
0.0
 40
0.0
 40
0.1080131702
 40
0.2180619037
 40
0.3319994129
 40
0.4513599115
 40
0.5772767987
 40
0.7104920869
 40
0.8514212699
 40
1.0
 40
1.0
 40
1.0
 40
1.0
 10
14.2318832768
 20
45.8706193574
 30
0.0
 10
14.400749286
 20
45.9681240305
 30
0.0
 10
14.7593021389
 20
46.1359984571
 30
0.0
 10
15.3394280377
 20
46.2964517326
 30
0.0
 10
15.9578749023
 20
46.3654223276
 30
0.0
 10
16.6080311604
 20
46.3427917423
 30
0.0
 10
17.2836379372
 20
46.2294830075
 30
0.0
 10
17.9784317894
 20
46.0269373752
 30
0.0
 10
18.6858052364
 20
45.7373974845
 30
0.0
 10
19.1495619261
 20
45.4946401672
 30
0.0
 10
19.3818546362
 20
45.3605289425
 30
0.0
  0
SPLINE
  5
32D
100
AcDbEntity
  8
0
100
AcDbSpline
 62
7
  6
BYLAYER
 70
0
 71
3
 72
14
 73
10
 74
0
 42
0.0000001
 43
0.0000001
 44
0.0000000001
 40
0.0
 40
0.0
 40
0.0
 40
0.0
 40
0.1128936454
 40
0.2300429697
 40
0.3510635028
 40
0.4756038476
 40
0.6032659394
 40
0.7335742869
 40
1.0
 40
1.0
 40
1.0
 40
1.0
 10
19.3818546362
 20
45.3605289425
 30
0.0
 10
19.5793323948
 20
45.2465176847
 30
0.0
 10
19.973645192
 20
44.9999520472
 30
0.0
 10
20.5500545441
 20
44.5862424219
 30
0.0
 10
21.1190123202
 20
44.1240492053
 30
0.0
 10
21.676867009
 20
43.6164717129
 30
0.0
 10
22.2201616408
 20
43.0666274277
 30
0.0
 10
22.9256390397
 20
42.2761505574
 30
0.0
 10
23.4146669921
 20
41.6392891603
 30
0.0
 10
23.7224280057
 20
41.1978448192
 30
0.0
  0
SPLINE
  5
32E
100
AcDbEntity
  8
0
100
AcDbSpline
 62
7
  6
BYLAYER
 70
0
 71
3
 72
22
 73
18
 74
0
 42
0.0000001
 43
0.0000001
 44
0.0000000001
 40
0.0
 40
0.0
 40
0.0
 40
0.0
 40
0.1566041377
 40
0.232903504
 40
0.307357247
 40
0.3796372364
 40
0.4494556048
 40
0.5165750297
 40
0.5808209749
 40
0.6420886258
 40
0.7003620491
 40
0.7557223286
 40
0.8083643627
 40
0.8586081239
 40
0.9068999887
 40
0.9538092166
 40
1.0
 40
1.0
 40
1.0
 40
1.0
 10
25.2298879298
 20
38.5870425753
 30
0.0
 10
25.4842095154
 20
38.0445907025
 30
0.0
 10
25.8215618519
 20
37.2174851725
 30
0.0
 10
26.1740884656
 20
36.0952692603
 30
0.0
 10
26.3827366303
 20
35.2673862236
 30
0.0
 10
26.5362796568
 20
34.4527495982
 30
0.0
 10
26.6334788623
 20
33.657676513
 30
0.0
 10
26.6735380059
 20
32.8883909823
 30
0.0
 10
26.6561542639
 20
32.1508837022
 30
0.0
 10
26.5813081258
 20
31.4508858589
 30
0.0
 10
26.4495517512
 20
30.7938272085
 30
0.0
 10
26.2616829216
 20
30.1848304691
 30
0.0
 10
26.0189284506
 20
29.628705952
 30
0.0
 10
25.7229564878
 20
29.1299409231
 30
0.0
 10
25.3756919077
 20
28.6928013153
 30
0.0
 10
24.9799731274
 20
28.3212159536
 30
0.0
 10
24.684856768
 20
28.1188500071
 30
0.0
 10
24.5318259955
 20
28.0304887347
 30
0.0
  0
SPLINE
  5
32F
100
AcDbEntity
  8
0
100
AcDbSpline
 62
7
  6
BYLAYER
 70
0
 71
3
 72
9
 73
5
 74
0
 42
0.0000001
 43
0.0000001
 44
0.0000000001
 40
0.0
 40
0.0
 40
0.0
 40
0.0
 40
0.5174672666
 40
1.0
 40
1.0
 40
1.0
 40
1.0
 10
10.6135103488
 20
43.799106136
 30
0.0
 10
10.6894112986
 20
44.1433542713
 30
0.0
 10
10.8801193851
 20
44.8000815176
 30
0.0
 10
11.1723260374
 20
45.4196663628
 30
0.0
 10
11.339567538
 20
45.7026603632
 30
0.0
  0
SPLINE
  5
330
100
AcDbEntity
  8
0
100
AcDbSpline
 62
7
  6
BYLAYER
 70
0
 71
3
 72
23
 73
19
 74
0
 42
0.0000001
 43
0.0000001
 44
0.0000000001
 40
0.0
 40
0.0
 40
0.0
 40
0.0
 40
0.0772686189
 40
0.1516411135
 40
0.2230303879
 40
0.2914837035
 40
0.3571294364
 40
0.4201631707
 40
0.4808546862
 40
0.5395680965
 40
0.5967467541
 40
0.6529053937
 40
0.7086065905
 40
0.7644380136
 40
0.8209801777
 40
0.8787774459
 40
0.9383146439
 40
1.0
 40
1.0
 40
1.0
 40
1.0
 10
13.7250239385
 20
41.387463876
 30
0.0
 10
13.5660694033
 20
41.4792342436
 30
0.0
 10
13.2484224955
 20
41.6497231295
 30
0.0
 10
12.7653567066
 20
41.8682840641
 30
0.0
 10
12.2871033221
 20
42.0435260276
 30
0.0
 10
11.8163057935
 20
42.1745174133
 30
0.0
 10
11.3553388224
 20
42.2604571003
 30
0.0
 10
10.9066020667
 20
42.3009247195
 30
0.0
 10
10.4724562113
 20
42.2954560665
 30
0.0
 10
10.0552501152
 20
42.2440557909
 30
0.0
 10
9.6572990852
 20
42.1467688931
 30
0.0
 10
9.2808447588
 20
42.004127602
 30
0.0
 10
8.928112061
 20
41.816779138
 30
0.0
 10
8.6011169907
 20
41.5858758422
 30
0.0
 10
8.3017700464
 20
41.3127281034
 30
0.0
 10
8.0316555251
 20
40.9990081662
 30
0.0
 10
7.7922417835
 20
40.6465564539
 30
0.0
 10
7.656461631
 20
40.3919544116
 30
0.0
 10
7.5938516472
 20
40.2594770142
 30
0.0
  0
SPLINE
  5
331
100
AcDbEntity
  8
0
100
AcDbSpline
 62
7
  6
BYLAYER
 70
0
 71
3
 72
21
 73
17
 74
0
 42
0.0000001
 43
0.0000001
 44
0.0000000001
 40
0.0
 40
0.0
 40
0.0
 40
0.0
 40
0.0462561912
 40
0.0940264604
 40
0.1436732006
 40
0.1955109348
 40
0.2497754031
 40
0.3065995559
 40
0.3660413706
 40
0.4280858087
 40
0.4926628253
 40
0.5596448954
 40
0.6288633787
 40
0.7001012451
 40
0.8476111396
 40
1.0
 40
1.0
 40
1.0
 40
1.0
 10
10.8062582961
 20
39.8947319312
 30
0.0
 10
10.9120189827
 20
39.9246310808
 30
0.0
 10
11.1313507431
 20
39.9708880884
 30
0.0
 10
11.4723759103
 20
39.9988443923
 30
0.0
 10
11.8275458405
 20
39.9860715259
 30
0.0
 10
12.1944292084
 20
39.9328990482
 30
0.0
 10
12.570754226
 20
39.8397186812
 30
0.0
 10
12.9542166237
 20
39.7073044461
 30
0.0
 10
13.3423754497
 20
39.5364325177
 30
0.0
 10
13.7328511235
 20
39.3283223526
 30
0.0
 10
14.1231523911
 20
39.0842262386
 30
0.0
 10
14.5108786336
 20
38.80577563
 30
0.0
 10
14.893526518
 20
38.4946680842
 30
0.0
 10
15.3996053926
 20
38.0337447104
 30
0.0
 10
16.0027771418
 20
37.3882380243
 30
0.0
 10
16.4370069578
 20
36.8217326046
 30
0.0
 10
16.6437893108
 20
36.5245077614
 30
0.0
  0
SPLINE
  5
332
100
AcDbEntity
  8
0
100
AcDbSpline
 62
7
  6
BYLAYER
 70
0
 71
3
 72
21
 73
17
 74
0
 42
0.0000001
 43
0.0000001
 44
0.0000000001
 40
0.0
 40
0.0
 40
0.0
 40
0.0
 40
0.1523882365
 40
0.2998977956
 40
0.3711355941
 40
0.4403540723
 40
0.5073361933
 40
0.5719133091
 40
0.6339578853
 40
0.6933998634
 40
0.7502241907
 40
0.8044888349
 40
0.8563267271
 40
0.9059735681
 40
0.9537438592
 40
1.0
 40
1.0
 40
1.0
 40
1.0
 10
17.6437934013
 20
34.7924593155
 30
0.0
 10
17.7978085167
 20
34.4647680223
 30
0.0
 10
18.0713060965
 20
33.8054603721
 30
0.0
 10
18.3287512285
 20
32.9603431142
 30
0.0
 10
18.4748883331
 20
32.2916016887
 30
0.0
 10
18.5529955105
 20
31.8046624824
 30
0.0
 10
18.6002819151
 20
31.3296532585
 30
0.0
 10
18.6165290658
 20
30.8695907691
 30
0.0
 10
18.6015243746
 20
30.4273697641
 30
0.0
 10
18.5554289177
 20
30.0057739081
 30
0.0
 10
18.4783763585
 20
29.6074737275
 30
0.0
 10
18.3709150127
 20
29.2349712461
 30
0.0
 10
18.2335267703
 20
28.8906490365
 30
0.0
 10
18.0670080193
 20
28.5766705391
 30
0.0
 10
17.8722887036
 20
28.2953063737
 30
0.0
 10
17.7225657598
 20
28.1284837079
 30
0.0
 10
17.6437933551
 20
28.0518395531
 30
0.0
  0
SPLINE
  5
333
100
AcDbEntity
  8
0
100
AcDbSpline
 62
7
  6
BYLAYER
 70
0
 71
3
 72
15
 73
11
 74
0
 42
0.0000001
 43
0.0000001
 44
0.0000000001
 40
0.0
 40
0.0
 40
0.0
 40
0.0
 40
0.1485786923
 40
0.2895069098
 40
0.4227215948
 40
0.5486383811
 40
0.6679990993
 40
0.7819373907
 40
0.8919865509
 40
1.0
 40
1.0
 40
1.0
 40
1.0
 10
14.7856796943
 20
42.7069419423
 30
0.0
 10
14.5533869545
 20
42.8410531842
 30
0.0
 10
14.0896319882
 20
43.0838103106
 30
0.0
 10
13.3822608709
 20
43.3733490944
 30
0.0
 10
12.6874699855
 20
43.5758945913
 30
0.0
 10
12.0118643046
 20
43.6892066818
 30
0.0
 10
11.3617061347
 20
43.7118365769
 30
0.0
 10
10.7432562616
 20
43.6428685624
 30
0.0
 10
10.1631269426
 20
43.4824159818
 30
0.0
 10
9.8045730634
 20
43.314540391
 30
0.0
 10
9.6357064399
 20
43.2170356256
 30
0.0
  0
SPLINE
  5
334
100
AcDbEntity
  8
0
100
AcDbSpline
 62
7
  6
BYLAYER
 70
0
 71
3
 72
8
 73
4
 74
0
 42
0.0000001
 43
0.0000001
 44
0.0000000001
 40
0.0
 40
0.0
 40
0.0
 40
0.0
 40
1.0
 40
1.0
 40
1.0
 40
1.0
 10
10.763127147
 20
39.2947300457
 30
0.0
 10
10.1582581659
 20
38.7437193338
 30
0.0
 10
9.5535036407
 20
38.1925829353
 30
0.0
 10
8.9488977092
 20
37.6412836006
 30
0.0
  0
SPLINE
  5
335
100
AcDbEntity
  8
0
100
AcDbSpline
 62
7
  6
BYLAYER
 70
0
 71
3
 72
9
 73
5
 74
0
 42
0.0000001
 43
0.0000001
 44
0.0000000001
 40
0.0
 40
0.0
 40
0.0
 40
0.0
 40
0.2594066594
 40
1.0
 40
1.0
 40
1.0
 40
1.0
 10
27.5082379159
 20
39.873349335
 30
0.0
 10
27.5064667051
 20
39.8509918675
 30
0.0
 10
27.4978789083
 20
39.7649638101
 30
0.0
 10
27.4820029982
 20
39.6795830116
 30
0.0
 10
27.4654310601
 20
39.6177352671
 30
0.0
  0
SPLINE
  5
336
100
AcDbEntity
  8
0
100
AcDbSpline
 62
7
  6
BYLAYER
 70
0
 71
3
 72
13
 73
9
 74
0
 42
0.0000001
 43
0.0000001
 44
0.0000000001
 40
0.0
 40
0.0
 40
0.0
 40
0.0
 40
0.2825497302
 40
0.5418061168
 40
0.6632032548
 40
0.7796006674
 40
0.891622666
 40
1.0
 40
1.0
 40
1.0
 40
1.0
 10
11.3562260838
 20
37.1343471607
 30
0.0
 10
11.1509383888
 20
37.2528673853
 30
0.0
 10
10.7421986115
 20
37.4555526179
 30
0.0
 10
10.2085722288
 20
37.6233328642
 30
0.0
 10
9.7964154153
 20
37.690633205
 30
0.0
 10
9.50289169
 20
37.7082273587
 30
0.0
 10
9.2201219855
 20
37.6937590597
 30
0.0
 10
9.0373404738
 20
37.6623752014
 30
0.0
 10
8.9488977092
 20
37.6412836006
 30
0.0
  0
SPLINE
  5
337
100
AcDbEntity
  8
0
100
AcDbSpline
 62
7
  6
BYLAYER
 70
0
 71
3
 72
11
 73
7
 74
0
 42
0.0000001
 43
0.0000001
 44
0.0000000001
 40
0.0
 40
0.0
 40
0.0
 40
0.0
 40
0.2664285877
 40
0.5241614711
 40
0.7696414114
 40
1.0
 40
1.0
 40
1.0
 40
1.0
 10
13.7635544584
 20
34.8616031152
 30
0.0
 10
13.5909335135
 20
35.1020902984
 30
0.0
 10
13.2300043195
 20
35.5603823342
 30
0.0
 10
12.6389203103
 20
36.1802204773
 30
0.0
 10
12.0179388998
 20
36.710422478
 30
0.0
 10
11.5778865407
 20
37.0063743313
 30
0.0
 10
11.3562260838
 20
37.1343471607
 30
0.0
  0
SPLINE
  5
338
100
AcDbEntity
  8
0
100
AcDbSpline
 62
7
  6
BYLAYER
 70
0
 71
3
 72
35
 73
31
 74
0
 42
0.0000001
 43
0.0000001
 44
0.0000000001
 40
0.0
 40
0.0
 40
0.0
 40
0.0
 40
0.0245187734
 40
0.0480596121
 40
0.0708580061
 40
0.0931953854
 40
0.1153836111
 40
0.1377455167
 40
0.1605918803
 40
0.1842003244
 40
0.2088021069
 40
0.2345746956
 40
0.2616401269
 40
0.290069954
 40
0.3198872505
 40
0.3510757985
 40
0.3835825809
 40
0.417325195
 40
0.4521956315
 40
0.4880640804
 40
0.5247841228
 40
0.5621941773
 40
0.6383656124
 40
0.7151495914
 40
0.7910543489
 40
0.8646424857
 40
0.9001670702
 40
0.9346466327
 40
0.9679655184
 40
1.0
 40
1.0
 40
1.0
 40
1.0
 10
16.3452552506
 20
25.0880795097
 30
0.0
 10
16.5162589599
 20
25.0736832725
 30
0.0
 10
16.8534717711
 20
25.064476068
 30
0.0
 10
17.3483375521
 20
25.1138852567
 30
0.0
 10
17.8172104558
 20
25.2267941484
 30
0.0
 10
18.256263213
 20
25.4024883895
 30
0.0
 10
18.6618246549
 20
25.6397937807
 30
0.0
 10
19.0306006824
 20
25.9366369164
 30
0.0
 10
19.3596366776
 20
26.2905466458
 30
0.0
 10
19.6465788842
 20
26.698492573
 30
0.0
 10
19.8894930935
 20
27.1572101428
 30
0.0
 10
20.0868019387
 20
27.6631924113
 30
0.0
 10
20.2373589014
 20
28.2126737235
 30
0.0
 10
20.3401508857
 20
28.8016857842
 30
0.0
 10
20.3946501733
 20
29.425974606
 30
0.0
 10
20.400465716
 20
30.0810601135
 30
0.0
 10
20.3576496852
 20
30.7622282905
 30
0.0
 10
20.2665341836
 20
31.4645690006
 30
0.0
 10
20.1277673428
 20
32.1830004567
 30
0.0
 10
19.9424210936
 20
32.9123275372
 30
0.0
 10
19.7117742046
 20
33.647260881
 30
0.0
 10
19.3440043615
 20
34.6332800705
 30
0.0
 10
18.7826004495
 20
35.8443063881
 30
0.0
 10
17.9682622138
 20
37.2265941959
 30
0.0
 10
17.032381915
 20
38.5074102295
 30
0.0
 10
16.1632223822
 20
39.4710516064
 30
0.0
 10
15.428912608
 20
40.1579359183
 30
0.0
 10
14.8720461562
 20
40.620055961
 30
0.0
 10
14.306795847
 20
41.0316078959
 30
0.0
 10
13.9191979763
 20
41.2753599792
 30
0.0
 10
13.7250239385
 20
41.387463876
 30
0.0
  0
SPLINE
  5
339
100
AcDbEntity
  8
0
100
AcDbSpline
 62
7
  6
BYLAYER
 70
0
 71
3
 72
9
 73
5
 74
0
 42
0.0000001
 43
0.0000001
 44
0.0000000001
 40
0.0
 40
0.0
 40
0.0
 40
0.0
 40
0.5192687736
 40
1.0
 40
1.0
 40
1.0
 40
1.0
 10
27.4014302008
 20
40.7147659989
 30
0.0
 10
27.4372119791
 20
40.5966552878
 30
0.0
 10
27.4922429691
 20
40.364678448
 30
0.0
 10
27.5136194193
 20
40.1268198885
 30
0.0
 10
27.5136194193
 20
40.0125670862
 30
0.0
  0
SPLINE
  5
33A
100
AcDbEntity
  8
0
100
AcDbSpline
 62
7
  6
BYLAYER
 70
0
 71
3
 72
18
 73
14
 74
0
 42
0.0000001
 43
0.0000001
 44
0.0000000001
 40
0.0
 40
0.0
 40
0.0
 40
0.0
 40
0.0466227
 40
0.0948129768
 40
0.1448845233
 40
0.197109378
 40
0.3086383642
 40
0.3682035806
 40
0.4302666895
 40
0.5615097008
 40
0.7013676843
 40
0.8482067342
 40
1.0
 40
1.0
 40
1.0
 40
1.0
 10
14.7635586218
 20
27.5700513789
 30
0.0
 10
14.8260450894
 20
27.6361014992
 30
0.0
 10
14.9446119641
 20
27.7787081206
 30
0.0
 10
15.0985223449
 20
28.0163605979
 30
0.0
 10
15.2300511804
 20
28.2793649418
 30
0.0
 10
15.3778243556
 20
28.6699293866
 30
0.0
 10
15.4729881413
 20
29.0975590653
 30
0.0
 10
15.5204305231
 20
29.550013934
 30
0.0
 10
15.5365031006
 20
30.0433140332
 30
0.0
 10
15.4918821062
 20
30.693345768
 30
0.0
 10
15.3432129584
 20
31.4962926097
 30
0.0
 10
15.1019495935
 20
32.3180911518
 30
0.0
 10
14.8855181132
 20
32.8598162692
 30
0.0
 10
14.7635586218
 20
33.1295547114
 30
0.0
  0
SPLINE
  5
33B
100
AcDbEntity
  8
0
100
AcDbSpline
 62
7
  6
BYLAYER
 70
0
 71
3
 72
15
 73
11
 74
0
 42
0.0000001
 43
0.0000001
 44
0.0000000001
 40
0.0
 40
0.0
 40
0.0
 40
0.0
 40
0.1485053304
 40
0.2894892304
 40
0.4227457687
 40
0.5486507249
 40
0.6679954841
 40
0.7819391115
 40
0.8919890889
 40
1.0
 40
1.0
 40
1.0
 40
1.0
 10
9.5884517709
 20
33.3375847859
 30
0.0
 10
9.5884517709
 20
33.4026577092
 30
0.0
 10
9.5937285246
 20
33.5295931854
 30
0.0
 10
9.618678682
 20
33.7134402691
 30
0.0
 10
9.6604365077
 20
33.8841059129
 30
0.0
 10
9.7185987212
 20
34.0398854513
 30
0.0
 10
9.7927729099
 20
34.1792729165
 30
0.0
 10
9.8823098168
 20
34.300908505
 30
0.0
 10
9.9864411554
 20
34.4033895078
 30
0.0
 10
10.0652503842
 20
34.4583736377
 30
0.0
 10
10.1062360254
 20
34.482042114
 30
0.0
  0
SPLINE
  5
33C
100
AcDbEntity
  8
0
100
AcDbSpline
 62
7
  6
BYLAYER
 70
0
 71
3
 72
31
 73
27
 74
0
 42
0.0000001
 43
0.0000001
 44
0.0000000001
 40
0.0
 40
0.0
 40
0.0
 40
0.0
 40
0.021327401
 40
0.0428830846
 40
0.0648836595
 40
0.0875233395
 40
0.1109677564
 40
0.1353491387
 40
0.1607667185
 40
0.1872862395
 40
0.2149441509
 40
0.2437483561
 40
0.273683624
 40
0.3047119733
 40
0.3367781267
 40
0.3698092248
 40
0.4383909909
 40
0.5096613291
 40
0.5826690183
 40
0.6563837312
 40
0.7297439925
 40
0.8017040055
 40
0.8712803174
 40
0.9376037577
 40
0.969339597
 40
1.0
 40
1.0
 40
1.0
 40
1.0
 10
19.9356529486
 20
25.3768984662
 30
0.0
 10
20.0621943893
 20
25.449964376
 30
0.0
 10
20.3075059668
 20
25.6133603584
 30
0.0
 10
20.6441859332
 20
25.9053234833
 30
0.0
 10
20.9486342217
 20
26.2429631436
 30
0.0
 10
21.2191490789
 20
26.624198752
 30
0.0
 10
21.4543536047
 20
27.0468335919
 30
0.0
 10
21.6531128352
 20
27.5084680451
 30
0.0
 10
21.8144390532
 20
28.0065737371
 30
0.0
 10
21.9376016144
 20
28.5384435514
 30
0.0
 10
22.0219719221
 20
29.1012282172
 30
0.0
 10
22.0672004927
 20
29.6919129205
 30
0.0
 10
22.0730317205
 20
30.3073398932
 30
0.0
 10
22.0395128708
 20
30.944214944
 30
0.0
 10
21.9667884076
 20
31.5991337462
 30
0.0
 10
21.8162581048
 20
32.502937765
 30
0.0
 10
21.5307207863
 20
33.6546629845
 30
0.0
 10
21.0484991575
 20
35.0330237958
 30
0.0
 10
20.4326223492
 20
36.3957255611
 30
0.0
 10
19.6962629077
 20
37.7136146463
 30
0.0
 10
18.8551260429
 20
38.9586025735
 30
0.0
 10
17.9271146974
 20
40.1041663909
 30
0.0
 10
16.9320583865
 20
41.1258125989
 30
0.0
 10
16.0515027048
 20
41.8668786043
 30
0.0
 10
15.3309739161
 20
42.3760877085
 30
0.0
 10
14.9676019441
 20
42.6019114585
 30
0.0
 10
14.7856796943
 20
42.7069419423
 30
0.0
  0
LINE
  5
33D
100
AcDbEntity
  8
0
100
AcDbLine
 62
7
  6
BYLAYER
 10
7.6357248399
 20
39.9157531032
 11
9.7072438653
 21
41.7982701967
  0
SPLINE
  5
33E
100
AcDbEntity
  8
0
100
AcDbSpline
 62
7
  6
BYLAYER
 70
0
 71
3
 72
11
 73
7
 74
0
 42
0.0000001
 43
0.0000001
 44
0.0000000001
 40
0.0
 40
0.0
 40
0.0
 40
0.0
 40
0.230136876
 40
0.4756506851
 40
0.7335199839
 40
1.0
 40
1.0
 40
1.0
 40
1.0
 10
13.4328656662
 20
38.756107119
 30
0.0
 10
13.6795993077
 20
38.6136586073
 30
0.0
 10
14.169252416
 20
38.2832322228
 30
0.0
 10
14.8589047995
 20
37.6898844373
 30
0.0
 10
15.5138373725
 20
36.9953582471
 30
0.0
 10
15.9124244975
 20
36.4816090373
 30
0.0
 10
16.1026041855
 20
36.2120512797
 30
0.0
  0
SPLINE
  5
33F
100
AcDbEntity
  8
0
100
AcDbSpline
 62
7
  6
BYLAYER
 70
0
 71
3
 72
14
 73
10
 74
0
 42
0.0000001
 43
0.0000001
 44
0.0000000001
 40
0.0
 40
0.0
 40
0.0
 40
0.0
 40
0.1081963402
 40
0.219983066
 40
0.3361547283
 40
0.4573906579
 40
0.7166592965
 40
0.855398274
 40
1.0
 40
1.0
 40
1.0
 40
1.0
 10
10.763127147
 20
39.2947300457
 30
0.0
 10
10.8604758351
 20
39.3203045357
 30
0.0
 10
11.0620442958
 20
39.3592488777
 30
0.0
 10
11.3747249172
 20
39.380542799
 30
0.0
 10
11.6998992854
 20
39.365340259
 30
0.0
 10
12.1572924627
 20
39.295276717
 30
0.0
 10
12.621771909
 20
39.1520112938
 30
0.0
 10
13.0835586853
 20
38.947601689
 30
0.0
 10
13.3163682407
 20
38.8233654174
 30
0.0
 10
13.4328656662
 20
38.756107119
 30
0.0
  0
SPLINE
  5
340
100
AcDbEntity
  8
0
100
AcDbSpline
 62
7
  6
BYLAYER
 70
0
 71
3
 72
13
 73
9
 74
0
 42
0.0000001
 43
0.0000001
 44
0.0000000001
 40
0.0
 40
0.0
 40
0.0
 40
0.0
 40
0.2689685336
 40
0.5279596006
 40
0.6519666412
 40
0.7716463698
 40
0.887440786
 40
1.0
 40
1.0
 40
1.0
 40
1.0
 10
10.8062720781
 20
39.8947080603
 30
0.0
 10
10.8352603208
 20
39.8444992299
 30
0.0
 10
10.8787872043
 20
39.7375055477
 30
0.0
 10
10.8926098822
 20
39.5952768945
 30
0.0
 10
10.8763569959
 20
39.4876699866
 30
0.0
 10
10.8513346325
 20
39.413853668
 30
0.0
 10
10.8139151932
 20
39.3482992024
 30
0.0
 10
10.7810630148
 20
39.311068882
 30
0.0
 10
10.763127147
 20
39.2947300457
 30
0.0
  0
LINE
  5
341
100
AcDbEntity
  8
0
100
AcDbLine
 62
7
  6
BYLAYER
 10
18.742808175
 20
26.1483006137
 11
16.076731491
 21
25.2955818763
  0
SPLINE
  5
342
100
AcDbEntity
  8
0
100
AcDbSpline
 62
7
  6
BYLAYER
 70
0
 71
3
 72
9
 73
5
 74
0
 42
0.0000001
 43
0.0000001
 44
0.0000000001
 40
0.0
 40
0.0
 40
0.0
 40
0.0
 40
0.2394581259
 40
1.0
 40
1.0
 40
1.0
 40
1.0
 10
27.089357117
 20
23.4375722513
 30
0.0
 10
27.089357117
 20
23.4737691655
 30
0.0
 10
27.0850009785
 20
23.6249216602
 30
0.0
 10
27.0642169556
 20
23.7754151287
 30
0.0
 10
27.0411687578
 20
23.8880459359
 30
0.0
  0
SPLINE
  5
343
100
AcDbEntity
  8
0
100
AcDbSpline
 62
7
  6
BYLAYER
 70
0
 71
3
 72
8
 73
4
 74
0
 42
0.0000001
 43
0.0000001
 44
0.0000000001
 40
0.0
 40
0.0
 40
0.0
 40
0.0
 40
1.0
 40
1.0
 40
1.0
 40
1.0
 10
14.7635586218
 20
27.5700513789
 30
0.0
 10
15.5433036097
 20
27.8180026498
 30
0.0
 10
16.3229817888
 20
28.0661640746
 30
0.0
 10
17.1026083489
 20
28.3144874643
 30
0.0
  0
SPLINE
  5
344
100
AcDbEntity
  8
0
100
AcDbSpline
 62
7
  6
BYLAYER
 70
0
 71
3
 72
13
 73
9
 74
0
 42
0.0000001
 43
0.0000001
 44
0.0000000001
 40
0.0
 40
0.0
 40
0.0
 40
0.0
 40
0.1125600584
 40
0.2283554498
 40
0.3480337576
 40
0.4720387861
 40
0.7310269833
 40
1.0
 40
1.0
 40
1.0
 40
1.0
 10
17.1026083489
 20
28.3144874643
 30
0.0
 10
17.1257271941
 20
28.3218511821
 30
0.0
 10
17.1743980715
 20
28.3316863169
 30
0.0
 10
17.2498824923
 20
28.3313150137
 30
0.0
 10
17.3263225346
 20
28.3160746934
 30
0.0
 10
17.4276409069
 20
28.2763438916
 30
0.0
 10
17.5439074266
 20
28.1932549009
 30
0.0
 10
17.6148010754
 20
28.1020553759
 30
0.0
 10
17.6437908746
 20
28.0518438495
 30
0.0
  0
SPLINE
  5
345
100
AcDbEntity
  8
0
100
AcDbSpline
 62
7
  6
BYLAYER
 70
0
 71
3
 72
19
 73
15
 74
0
 42
0.0000001
 43
0.0000001
 44
0.0000000001
 40
0.0
 40
0.0
 40
0.0
 40
0.0
 40
0.1521375216
 40
0.2993593182
 40
0.4395274108
 40
0.5064373799
 40
0.5709822519
 40
0.6330393563
 40
0.6925405402
 40
0.8037714589
 40
0.8557851852
 40
0.9056235999
 40
0.9535817807
 40
1.0
 40
1.0
 40
1.0
 40
1.0
 10
17.1026083489
 20
34.4800028759
 30
0.0
 10
17.2409642343
 20
34.1805234331
 30
0.0
 10
17.4866001325
 20
33.5784351726
 30
0.0
 10
17.7605933106
 20
32.6640941925
 30
0.0
 10
17.9036723
 20
31.9074739195
 30
0.0
 10
17.9610990777
 20
31.3209666124
 30
0.0
 10
17.9756520247
 20
30.9013167216
 30
0.0
 10
17.9621879049
 20
30.4976092668
 30
0.0
 10
17.9082906407
 20
29.9954603282
 30
0.0
 10
17.8001435635
 20
29.5216207175
 30
0.0
 10
17.632136942
 20
29.0904626875
 30
0.0
 10
17.482713049
 20
28.8012507683
 30
0.0
 10
17.3079370541
 20
28.5411056029
 30
0.0
 10
17.1734299446
 20
28.3860090845
 30
0.0
 10
17.1026083489
 20
28.3144874643
 30
0.0
  0
SPLINE
  5
346
100
AcDbEntity
  8
0
100
AcDbSpline
 62
7
  6
BYLAYER
 70
0
 71
3
 72
23
 73
19
 74
0
 42
0.0000001
 43
0.0000001
 44
0.0000000001
 40
0.0
 40
0.0
 40
0.0
 40
0.0
 40
0.0610304344
 40
0.1257842713
 40
0.1935935871
 40
0.2637604292
 40
0.3354432963
 40
0.4077419166
 40
0.4797391612
 40
0.5505248194
 40
0.6192374195
 40
0.6850993038
 40
0.7474653025
 40
0.8058652757
 40
0.860060188
 40
0.9101179755
 40
0.956476884
 40
1.0
 40
1.0
 40
1.0
 40
1.0
 10
9.9773588814
 20
33.5621190705
 30
0.0
 10
9.9773588814
 20
33.4648043491
 30
0.0
 10
9.9897533127
 20
33.2641171825
 30
0.0
 10
10.0408808395
 20
32.959218616
 30
0.0
 10
10.1242829419
 20
32.6464366026
 30
0.0
 10
10.23830982
 20
32.3317582487
 30
0.0
 10
10.3807989513
 20
32.0210320158
 30
0.0
 10
10.549082001
 20
31.7201463833
 30
0.0
 10
10.7399901289
 20
31.434797356
 30
0.0
 10
10.9498909792
 20
31.1703539813
 30
0.0
 10
11.1748351359
 20
30.9318114013
 30
0.0
 10
11.4106241663
 20
30.7236820956
 30
0.0
 10
11.6528446562
 20
30.5498440233
 30
0.0
 10
11.8970680386
 20
30.4135761764
 30
0.0
 10
12.1389021776
 20
30.3175329096
 30
0.0
 10
12.3740973173
 20
30.2637127376
 30
0.0
 10
12.5983287974
 20
30.2535828494
 30
0.0
 10
12.7410847847
 20
30.2773296256
 30
0.0
 10
12.8077179973
 20
30.2967257769
 30
0.0
  0
SPLINE
  5
347
100
AcDbEntity
  8
0
100
AcDbSpline
 62
7
  6
BYLAYER
 70
0
 71
3
 72
14
 73
10
 74
0
 42
0.0000001
 43
0.0000001
 44
0.0000000001
 40
0.0
 40
0.0
 40
0.0
 40
0.0
 40
0.2892449374
 40
0.4225667296
 40
0.5485148526
 40
0.6678911197
 40
0.7818651317
 40
0.8919549474
 40
1.0
 40
1.0
 40
1.0
 40
1.0
 10
10.4016247165
 20
33.3171746178
 30
0.0
 10
10.4016247165
 20
33.4134683125
 30
0.0
 10
10.4128844302
 20
33.5548353494
 30
0.0
 10
10.4563229763
 20
33.7325229475
 30
0.0
 10
10.5005440855
 20
33.8509273566
 30
0.0
 10
10.5569004726
 20
33.9568645301
 30
0.0
 10
10.6249725821
 20
34.0492856201
 30
0.0
 10
10.7040864189
 20
34.1271953722
 30
0.0
 10
10.7639931297
 20
34.1689720217
 30
0.0
 10
10.7951440006
 20
34.186956556
 30
0.0
  0
SPLINE
  5
348
100
AcDbEntity
  8
0
100
AcDbSpline
 62
7
  6
BYLAYER
 70
0
 71
3
 72
9
 73
5
 74
0
 42
0.0000001
 43
0.0000001
 44
0.0000000001
 40
0.0
 40
0.0
 40
0.0
 40
0.0
 40
0.4715677316
 40
1.0
 40
1.0
 40
1.0
 40
1.0
 10
26.9771678984
 20
22.8649153589
 30
0.0
 10
27.0161353351
 20
22.9485467862
 30
0.0
 10
27.0735383577
 20
23.1379512659
 30
0.0
 10
27.089357117
 20
23.3341823023
 30
0.0
 10
27.089357117
 20
23.4375722513
 30
0.0
  0
SPLINE
  5
349
100
AcDbEntity
  8
0
100
AcDbSpline
 62
7
  6
BYLAYER
 70
0
 71
3
 72
9
 73
5
 74
0
 42
0.0000001
 43
0.0000001
 44
0.0000000001
 40
0.0
 40
0.0
 40
0.0
 40
0.0
 40
0.2324555854
 40
1.0
 40
1.0
 40
1.0
 40
1.0
 10
11.4051783569
 20
50.8160289722
 30
0.0
 10
11.4428293661
 20
50.8127242447
 30
0.0
 10
11.60396165
 20
50.7889300289
 30
0.0
 10
11.7587050047
 20
50.7304349427
 30
0.0
 10
11.8700568011
 20
50.6740856019
 30
0.0
  0
SPLINE
  5
34A
100
AcDbEntity
  8
0
100
AcDbSpline
 62
7
  6
BYLAYER
 70
0
 71
3
 72
9
 73
5
 74
0
 42
0.0000001
 43
0.0000001
 44
0.0000000001
 40
0.0
 40
0.0
 40
0.0
 40
0.0
 40
0.4821480399
 40
1.0
 40
1.0
 40
1.0
 40
1.0
 10
11.8700568011
 20
50.6740856019
 30
0.0
 10
11.9492931516
 20
50.6339882144
 30
0.0
 10
12.1073075852
 20
50.5380477228
 30
0.0
 10
12.251868075
 20
50.4231858045
 30
0.0
 10
12.3232323938
 20
50.359904265
 30
0.0
  0
SPLINE
  5
34B
100
AcDbEntity
  8
0
100
AcDbSpline
 62
7
  6
BYLAYER
 70
0
 71
3
 72
11
 73
7
 74
0
 42
0.0000001
 43
0.0000001
 44
0.0000000001
 40
0.0
 40
0.0
 40
0.0
 40
0.0
 40
0.2649336639
 40
0.5174787387
 40
0.7610952059
 40
1.0
 40
1.0
 40
1.0
 40
1.0
 10
24.5935499238
 20
25.3837065976
 30
0.0
 10
24.6077736125
 20
25.4160980844
 30
0.0
 10
24.6397116693
 20
25.4776723417
 30
0.0
 10
24.6995459975
 20
25.5603117766
 30
0.0
 10
24.7694237968
 20
25.6298656313
 30
0.0
 10
24.822519553
 20
25.6670377978
 30
0.0
 10
24.850146961
 20
25.6829881085
 30
0.0
  0
ENDSEC
  0
SECTION
  2
OBJECTS
  0
DICTIONARY
  5
C
100
AcDbDictionary
280
0
281
1
  3
ACAD_GROUP
350
D
  3
ACAD_MLINESTYLE
350
17
  3
ACAD_LAYOUT
350
1A
  3
ACAD_PLOTSETTINGS
350
19
  3
ACAD_PLOTSTYLENAME
350
E
  0
DICTIONARY
  5
D
102
{ACAD_REACTORS
330
C
102
}
100
AcDbDictionary
280
0
281
1
  0
ACDBDICTIONARYWDFLT
  5
E
102
{ACAD_REACTORS
330
C
102
}
100
AcDbDictionary
281
1
  3
Normal
350
F
100
AcDbDictionaryWithDefault
340
F
  0
DICTIONARY
  5
17
102
{ACAD_REACTORS
330
C
102
}
100
AcDbDictionary
280
0
281
1
  3
Standard
350
18
  0
DICTIONARY
  5
19
102
{ACAD_REACTORS
330
C
102
}
100
AcDbDictionary
281
1
  0
DICTIONARY
  5
1A
102
{ACAD_REACTORS
330
C
102
}
100
AcDbDictionary
281
1
  3
Model
350
34C
  3
Layout1
350
34D
  0
ACDBPLACEHOLDER
  5
F
102
{ACAD_REACTORS
330
E
102
}
  0
MLINESTYLE
  5
18
102
{ACAD_REACTORS
330
17
102
}
100
AcDbMlineStyle
  2
STANDARD
 70
0
  3

 62
256
 51
90.0
 52
90.0
 71
2
 49
0.5
 62
256
  6
BYLAYER
 49
-0.5
 62
256
  6
BYLAYER
  0
LAYOUT
  5
34C
102
{ACAD_REACTORS
330
1A
102
}
100
AcDbPlotSettings
  1

  2
none_device
  4

  6

 40
0.0
 41
0.0
 42
0.0
 43
0.0
 44
210.0
 45
297.0
 46
0.0
 47
0.0
 48
0.0
 49
0.0
140
0.0
141
0.0
142
1.0
143
1.0
 70
1024
 72
1
 73
0
 74
0
  7

 75
0
147
1.0
148
0.0
149
0.0
100
AcDbLayout
  1
Model
 70
0
 71
0
 10
0.0
 20
0.0
 11
210.0
 21
297.0
 12
0.0
 22
0.0
 32
0.0
 14
0.0
 24
0.0
 34
0.0
 15
0.0
 25
0.0
 35
0.0
146
0.0
 13
0.0
 23
0.0
 33
0.0
 16
1.0
 26
0.0
 36
0.0
 17
0.0
 27
1.0
 37
0.0
 76
0
330
210
345
0
346
0
  0
LAYOUT
  5
34D
102
{ACAD_REACTORS
330
1A
102
}
100
AcDbPlotSettings
  1

  2
none_device
  4

  6

 40
0.0
 41
0.0
 42
0.0
 43
0.0
 44
210.0
 45
297.0
 46
0.0
 47
0.0
 48
0.0
 49
0.0
140
0.0
141
0.0
142
1.0
143
1.0
 70
0
 72
1
 73
0
 74
0
  7

 75
0
147
1.0
148
0.0
149
0.0
100
AcDbLayout
  1
Layout1
 70
0
 71
1
 10
0.0
 20
0.0
 11
210.0
 21
297.0
 12
0.0
 22
0.0
 32
0.0
 14
0.0
 24
0.0
 34
0.0
 15
0.0
 25
0.0
 35
0.0
146
0.0
 13
0.0
 23
0.0
 33
0.0
 16
1.0
 26
0.0
 36
0.0
 17
0.0
 27
1.0
 37
0.0
 76
0
330
211
345
0
346
0
  0
ENDSEC
  0
EOF
