999
DXF file: C:\Users\sesa63760\Dev\_Creo\CAD\MCADID0004765_3D-CAD\drw0001_1.dxf
999
Pro/ENGINEER 2019471 by Parametric Technology Corporation
  0
SECTION
  2
HEADER
  9
$ACADVER
  1
AC1024
  9
$DWGCODEPAGE
  3
ANSI_1252
  9
$EXTMAX
 10
47.9943176128
 20
67.8776777667
 30
0.0
  9
$EXTMIN
 10
0.0
 20
0.0
 30
0.0
  9
$LIMMIN
 10
0.0
 20
0.0
  9
$LIMMAX
 10
47.9943176128
 20
67.8776777667
  9
$VIEWCTR
 10
23.9971588064
 20
33.9388388833
  9
$VIEWSIZE
 40
67.8776777667
  9
$CLAYER
  8
0
  9
$LTSCALE
 40
4.4246189952
  9
$CELTYPE
  6
BYLAYER
  9
$DIMSCALE
 40
1.0
  9
$DIMASZ
 40
0.571360924
  9
$DIMEXO
 40
1.0
  9
$DIMDLI
 40
3.0570094876
  9
$DIMEXE
 40
1.0
  9
$DIMCEN
 40
0.7240285628
  9
$DIMLFAC
 40
1.0
  9
$DIMBLK
  1
_FILLED
  9
$DIMALT
 70
0
  9
$DIMALTF
 40
0.0393700787
  9
$DIMTXT
 40
0.7999052935
  9
$DIMTOL
 70
1
  9
$DIMLIM
 70
0
  9
$DIMTFAC
 40
1.0
  9
$DIMTP
 40
0.01
  9
$DIMTM
 40
0.01
  9
$DIMGAP
 40
0.625
  9
$DIMDSEP
 70
46
  9
$AUNITS
 70
0
  9
$PDMODE
 70
3
  9
$PDSIZE
 40
0.3125
  9
$HANDSEED
  5
377
  9
$TILEMODE
 70
1
  9
$MEASUREMENT
 70
1
  9
$INSUNITS
 70
4
  0
ENDSEC
  0
SECTION
  2
CLASSES
  0
CLASS
  1
ACDBDICTIONARYWDFLT
  2
AcDbDictionaryWithDefault
  3
AutoCAD 2000
 90
0
 91
1
280
0
281
0
  0
CLASS
  1
ACDBPLACEHOLDER
  2
AcDbPlaceHolder
  3
AutoCAD 2000
 90
0
 91
1
280
0
281
0
  0
CLASS
  1
LAYOUT
  2
AcDbLayout
  3
AutoCAD 2000
 90
0
 91
0
280
0
281
0
  0
ENDSEC
  0
SECTION
  2
TABLES
  0
TABLE
  2
VPORT
  5
8
100
AcDbSymbolTable
 70
2
  0
VPORT
  5
1F4
100
AcDbSymbolTableRecord
100
AcDbViewportTableRecord
  2
*ACTIVE
 70
0
 10
0.0
 20
0.0
 11
1.0
 21
1.0
 12
23.9971588064
 22
33.9388388833
 13
0.0
 23
0.0
 14
1.0
 24
1.0
 15
0.0
 25
0.0
 16
0.0
 26
0.0
 36
1.0
 17
0.0
 27
0.0
 37
0.0
 40
67.8776777667
 41
0.7070707071
 42
50.0
 43
0.0
 44
0.0
 50
0.0
 51
0.0
 71
0
 72
100
 73
1
 74
1
 75
0
 76
0
 77
0
 78
0
  0
ENDTAB
  0
TABLE
  2
LTYPE
  5
5
100
AcDbSymbolTable
 70
6
  0
LTYPE
  5
14
100
AcDbSymbolTableRecord
100
AcDbLinetypeTableRecord
  2
BYBLOCK
 70
0
  3

 72
65
 73
0
 40
0.0
  0
LTYPE
  5
15
100
AcDbSymbolTableRecord
100
AcDbLinetypeTableRecord
  2
BYLAYER
 70
0
  3

 72
65
 73
0
 40
0.0
  0
LTYPE
  5
16
100
AcDbSymbolTableRecord
100
AcDbLinetypeTableRecord
  2
CONTINUOUS
 70
64
  3
Solid line
 72
65
 73
0
 40
0.0
  0
LTYPE
  5
1F5
100
AcDbSymbolTableRecord
100
AcDbLinetypeTableRecord
  2
CENTER
 70
64
  3
____ _ ____ _ ____ _ ____ _ ____ _ ____ _ ____
 72
65
 73
4
 40
0.6
 49
0.375
 74
0
 49
-0.075
 74
0
 49
0.075
 74
0
 49
-0.075
 74
0
  0
LTYPE
  5
1F6
100
AcDbSymbolTableRecord
100
AcDbLinetypeTableRecord
  2
HIDDEN
 70
64
  3
- - - - - - - - - - - - - - - - - - - -
 72
65
 73
2
 40
0.2
 49
0.1
 74
0
 49
-0.1
 74
0
  0
LTYPE
  5
1F7
100
AcDbSymbolTableRecord
100
AcDbLinetypeTableRecord
  2
PHANTOM
 70
64
  3
_____ _ _ _____ _ _ _____ _ _ _____
 72
65
 73
6
 40
0.8
 49
0.45
 74
0
 49
-0.05
 74
0
 49
0.1
 74
0
 49
-0.05
 74
0
 49
0.1
 74
0
 49
-0.05
 74
0
  0
LTYPE
  5
1F8
100
AcDbSymbolTableRecord
100
AcDbLinetypeTableRecord
  2
DOT
 70
64
  3
. . . . . . . . . . . . . . . . . . . .
 72
65
 73
2
 40
0.2
 49
0.1
 74
0
 49
-0.1
 74
0
  0
LTYPE
  5
1F9
100
AcDbSymbolTableRecord
100
AcDbLinetypeTableRecord
  2
DASHED
 70
64
  3
- - - - - - - - - - - - - - - - - - - -
 72
65
 73
2
 40
0.2
 49
0.1
 74
0
 49
-0.1
 74
0
  0
ENDTAB
  0
TABLE
  2
LAYER
  5
2
100
AcDbSymbolTable
 70
36
  0
LAYER
  5
10
100
AcDbSymbolTableRecord
100
AcDbLayerTableRecord
  2
0
 70
0
 62
7
  6
CONTINUOUS
370
-3
390
F
  0
LAYER
  5
1FA
100
AcDbSymbolTableRecord
100
AcDbLayerTableRecord
  2
DEFAULT_1
 70
0
 62
7
  6
CENTER
370
-3
390
F
  0
LAYER
  5
1FB
100
AcDbSymbolTableRecord
100
AcDbLayerTableRecord
  2
DEFAULT_2
 70
0
 62
7
  6
HIDDEN
370
-3
390
F
  0
LAYER
  5
1FC
100
AcDbSymbolTableRecord
100
AcDbLayerTableRecord
  2
DEFAULT_3
 70
0
 62
7
  6
PHANTOM
370
-3
390
F
  0
LAYER
  5
1FD
100
AcDbSymbolTableRecord
100
AcDbLayerTableRecord
  2
00_COMPONENTS
 70
0
 62
7
  6
CONTINUOUS
370
-3
390
F
  0
LAYER
  5
1FE
100
AcDbSymbolTableRecord
100
AcDbLayerTableRecord
  2
01_1_DEFAULT_DATUMS
 70
0
 62
7
  6
CONTINUOUS
370
-3
390
F
  0
LAYER
  5
1FF
100
AcDbSymbolTableRecord
100
AcDbLayerTableRecord
  2
01_PLANES
 70
0
 62
7
  6
CONTINUOUS
370
-3
390
F
  0
LAYER
  5
200
100
AcDbSymbolTableRecord
100
AcDbLayerTableRecord
  2
02_COORD_SYS
 70
0
 62
7
  6
CONTINUOUS
370
-3
390
F
  0
LAYER
  5
201
100
AcDbSymbolTableRecord
100
AcDbLayerTableRecord
  2
03_AXES
 70
0
 62
7
  6
CONTINUOUS
370
-3
390
F
  0
LAYER
  5
202
100
AcDbSymbolTableRecord
100
AcDbLayerTableRecord
  2
04_POINTS
 70
0
 62
7
  6
CONTINUOUS
370
-3
390
F
  0
LAYER
  5
203
100
AcDbSymbolTableRecord
100
AcDbLayerTableRecord
  2
05_CURVES
 70
0
 62
7
  6
CONTINUOUS
370
-3
390
F
  0
LAYER
  5
204
100
AcDbSymbolTableRecord
100
AcDbLayerTableRecord
  2
06_SURFS
 70
0
 62
7
  6
CONTINUOUS
370
-3
390
F
  0
LAYER
  5
205
100
AcDbSymbolTableRecord
100
AcDbLayerTableRecord
  2
07_COSMETICS
 70
0
 62
7
  6
CONTINUOUS
370
-3
390
F
  0
LAYER
  5
206
100
AcDbSymbolTableRecord
100
AcDbLayerTableRecord
  2
10_NOTES
 70
0
 62
7
  6
CONTINUOUS
370
-3
390
F
  0
LAYER
  5
207
100
AcDbSymbolTableRecord
100
AcDbLayerTableRecord
  2
11_NOTES_PUB
 70
0
 62
7
  6
CONTINUOUS
370
-3
390
F
  0
LAYER
  5
208
100
AcDbSymbolTableRecord
100
AcDbLayerTableRecord
  2
13_REF_GTOL
 70
0
 62
7
  6
CONTINUOUS
370
-3
390
F
  0
LAYER
  5
209
100
AcDbSymbolTableRecord
100
AcDbLayerTableRecord
  2
16_MISC
 70
0
 62
7
  6
CONTINUOUS
370
-3
390
F
  0
LAYER
  5
20A
100
AcDbSymbolTableRecord
100
AcDbLayerTableRecord
  2
17_NO_PRINT
 70
0
 62
7
  6
CONTINUOUS
370
-3
390
F
  0
LAYER
  5
20B
100
AcDbSymbolTableRecord
100
AcDbLayerTableRecord
  2
18_DATUM_CAMS_JOINTS
 70
0
 62
7
  6
CONTINUOUS
370
-3
390
F
  0
LAYER
  5
20C
100
AcDbSymbolTableRecord
100
AcDbLayerTableRecord
  2
19_DATUM_FUNCTIONAL
 70
0
 62
7
  6
CONTINUOUS
370
-3
390
F
  0
LAYER
  5
20D
100
AcDbSymbolTableRecord
100
AcDbLayerTableRecord
  2
20_DATUM_KINEMATIC_SCHEME
 70
0
 62
7
  6
CONTINUOUS
370
-3
390
F
  0
ENDTAB
  0
TABLE
  2
STYLE
  5
3
100
AcDbSymbolTable
 70
1
  0
STYLE
  5
11
100
AcDbSymbolTableRecord
100
AcDbTextStyleTableRecord
  2
STANDARD
 70
0
 40
0.0
 41
1.0
 50
0.0
 71
0
 42
0.2
  3
ARIAL.TTF
  4

  0
STYLE
  5
20E
100
AcDbSymbolTableRecord
100
AcDbTextStyleTableRecord
  2
TEXTSTYLE_1
 70
0
 40
0.0
 41
0.8
 50
0.0
 71
0
 42
0.2
  3
gdt
  4

  0
ENDTAB
  0
TABLE
  2
VIEW
  5
6
100
AcDbSymbolTable
 70
0
  0
ENDTAB
  0
TABLE
  2
UCS
  5
7
100
AcDbSymbolTable
 70
0
  0
ENDTAB
  0
TABLE
  2
APPID
  5
9
100
AcDbSymbolTable
 70
1
  0
APPID
  5
20F
100
AcDbSymbolTableRecord
100
AcDbRegAppTableRecord
  2
ACAD
 70
0
  0
ENDTAB
  0
TABLE
  2
BLOCK_RECORD
  5
1
100
AcDbSymbolTable
 70
0
  0
BLOCK_RECORD
  5
210
100
AcDbSymbolTableRecord
100
AcDbBlockTableRecord
  2
*Model_Space
  0
BLOCK_RECORD
  5
211
100
AcDbSymbolTableRecord
100
AcDbBlockTableRecord
  2
*Paper_Space
  0
BLOCK_RECORD
  5
212
100
AcDbSymbolTableRecord
100
AcDbBlockTableRecord
  2
_FILLED
  0
ENDTAB
  0
TABLE
  2
DIMSTYLE
  5
A
100
AcDbSymbolTable
 70
1
100
AcDbDimStyleTable
 71
0
  0
DIMSTYLE
105
213
100
AcDbSymbolTableRecord
100
AcDbDimStyleTableRecord
  2
STANDARD
 70
0
  3

  4

 40
1.0
 41
0.571360924
 42
1.0
 43
0.38
 44
1.0
 45
0.0
 46
0.0
 47
0.01
 48
0.01
140
0.7999052935
141
0.09
142
0.0
143
25.4
144
1.0
145
0.0
146
1.0
147
0.625
 71
1
 72
0
 73
0
 74
0
 75
0
 76
0
 77
1
 78
8
 79
2
170
0
171
1
172
0
173
0
174
0
175
0
176
0
177
0
178
0
270
2
179
2
271
2
272
2
273
2
274
2
275
0
280
0
281
0
282
0
283
1
284
8
285
0
286
0
287
3
288
0
340
11
278
46
341
212
342
212
343
212
344
212
  0
ENDTAB
  0
ENDSEC
  0
SECTION
  2
BLOCKS
  0
BLOCK
  5
20
100
AcDbEntity
  8
0
100
AcDbBlockBegin
  2
*Model_Space
 70
0
 10
0.0
 20
0.0
 30
0.0
  3
*Model_Space
  1

  0
ENDBLK
  5
21
100
AcDbEntity
  8
0
100
AcDbBlockEnd
  0
BLOCK
  5
1C
100
AcDbEntity
  8
0
100
AcDbBlockBegin
  2
*Paper_Space
 70
0
 10
0.0
 20
0.0
 30
0.0
  3
*Paper_Space
  1

  0
ENDBLK
  5
1D
100
AcDbEntity
  8
0
100
AcDbBlockEnd
  0
BLOCK
  5
214
100
AcDbEntity
  8
0
100
AcDbBlockBegin
  2
_FILLED
 70
64
 10
0.0
 20
0.0
  3
_FILLED
  1

  0
SOLID
  5
215
100
AcDbEntity
  8
0
  6
BYBLOCK
 62
0
100
AcDbTrace
 10
0.0
 20
0.0
 11
-1.0
 21
0.25
 12
-1.0
 22
-0.25
 13
-1.0
 23
-0.25
  0
ENDBLK
  5
216
100
AcDbEntity
  8
0
  6
BYBLOCK
 62
0
100
AcDbBlockEnd
  0
ENDSEC
  0
SECTION
  2
ENTITIES
  0
LINE
  5
217
100
AcDbEntity
  8
0
100
AcDbLine
 62
7
  6
BYLAYER
 10
5.5678930308
 20
36.5141092422
 11
5.5678930308
 21
31.2068435308
  0
LINE
  5
218
100
AcDbEntity
  8
0
100
AcDbLine
 62
7
  6
BYLAYER
 10
5.6386623747
 20
36.5141094066
 11
5.6386623747
 21
37.5755625488
  0
LINE
  5
219
100
AcDbEntity
  8
0
100
AcDbLine
 62
7
  6
BYLAYER
 10
5.77291139
 20
30.9211116573
 11
5.7729088012
 21
36.2283788633
  0
LINE
  5
21A
100
AcDbEntity
  8
0
100
AcDbLine
 62
7
  6
BYLAYER
 10
5.8436896886
 20
36.2283384988
 11
5.843689689
 21
37.2897916409
  0
LINE
  5
21B
100
AcDbEntity
  8
0
100
AcDbLine
 62
7
  6
BYLAYER
 10
7.3382809411
 20
39.0670237933
 11
7.2334956273
 21
38.0909705681
  0
LINE
  5
21C
100
AcDbEntity
  8
0
100
AcDbLine
 62
7
  6
BYLAYER
 10
7.3642763453
 20
39.2096741621
 11
7.3382816014
 21
39.0670237697
  0
LINE
  5
21D
100
AcDbEntity
  8
0
100
AcDbLine
 62
7
  6
BYLAYER
 10
7.4129425236
 20
39.6472287587
 11
7.4189794048
 21
39.6789438652
  0
LINE
  5
21E
100
AcDbEntity
  8
0
100
AcDbLine
 62
7
  6
BYLAYER
 10
8.7277496712
 20
29.2151735738
 11
8.7277496712
 21
26.7160897492
  0
LINE
  5
21F
100
AcDbEntity
  8
0
100
AcDbLine
 62
7
  6
BYLAYER
 10
9.8279270274
 20
39.8749766039
 11
9.883413288
 21
39.9469281864
  0
LINE
  5
220
100
AcDbEntity
  8
0
100
AcDbLine
 62
7
  6
BYLAYER
 10
18.5028817762
 20
48.0247815388
 11
19.7154725531
 21
48.5219866482
  0
LINE
  5
221
100
AcDbEntity
  8
0
100
AcDbLine
 62
7
  6
BYLAYER
 10
9.9217024656
 20
38.6949604529
 11
9.8834180489
 21
39.286726038
  0
LINE
  5
222
100
AcDbEntity
  8
0
100
AcDbLine
 62
7
  6
BYLAYER
 10
9.9632816778
 20
38.6927951333
 11
9.883413288
 21
39.9469281864
  0
LINE
  5
223
100
AcDbEntity
  8
0
100
AcDbLine
 62
7
  6
BYLAYER
 10
9.8584821479
 20
39.3190608415
 11
9.8279270274
 21
39.8749766039
  0
LINE
  5
224
100
AcDbEntity
  8
0
100
AcDbLine
 62
7
  6
BYLAYER
 10
9.8979219777
 20
40.1481760932
 11
9.9669906613
 21
38.6927951422
  0
LINE
  5
225
100
AcDbEntity
  8
0
100
AcDbLine
 62
7
  6
BYLAYER
 10
9.8834083433
 20
40.6326080745
 11
9.883413288
 21
39.9469281864
  0
LINE
  5
226
100
AcDbEntity
  8
0
100
AcDbLine
 62
7
  6
BYLAYER
 10
9.8834180489
 20
39.286726038
 11
9.8834229936
 21
38.6010461499
  0
LINE
  5
227
100
AcDbEntity
  8
0
100
AcDbLine
 62
7
  6
BYLAYER
 10
10.572090999
 20
38.6010478052
 11
10.5720860543
 21
39.2867276933
  0
LINE
  5
228
100
AcDbEntity
  8
0
100
AcDbLine
 62
7
  6
BYLAYER
 10
10.5720812934
 20
39.9469298418
 11
10.5720763487
 21
40.6326097298
  0
LINE
  5
229
100
AcDbEntity
  8
0
100
AcDbLine
 62
7
  6
BYLAYER
 10
10.5575664403
 20
40.1481776788
 11
10.488503228
 21
38.6927963958
  0
LINE
  5
22A
100
AcDbEntity
  8
0
100
AcDbLine
 62
7
  6
BYLAYER
 10
10.6275685917
 20
39.874978526
 11
10.5970130129
 21
39.3190516253
  0
LINE
  5
22B
100
AcDbEntity
  8
0
100
AcDbLine
 62
7
  6
BYLAYER
 10
10.4922130449
 20
38.6927964047
 11
10.5720812934
 21
39.9469298418
  0
LINE
  5
22C
100
AcDbEntity
  8
0
100
AcDbLine
 62
7
  6
BYLAYER
 10
10.5338016119
 20
38.6949625742
 11
10.5720860543
 21
39.2867276933
  0
LINE
  5
22D
100
AcDbEntity
  8
0
100
AcDbLine
 62
7
  6
BYLAYER
 10
10.6275723149
 20
39.3586792758
 11
10.5720860543
 21
39.2867276933
  0
LWPOLYLINE
  5
22E
100
AcDbEntity
  8
0
100
AcDbPolyline
 62
7
  6
BYLAYER
 90
5
 70
0
 10
25.8699441741
 20
20.3520706103
 10
27.7309256802
 20
20.5625927886
 10
30.3143769773
 20
21.3426123651
 10
32.4069459724
 20
22.5145909765
 10
33.0297494273
 20
23.1165394887
  0
LWPOLYLINE
  5
22F
100
AcDbEntity
  8
0
100
AcDbPolyline
 62
7
  6
BYLAYER
 90
4
 70
0
 10
22.8699441741
 20
20.5113189262
 10
20.9548675974
 20
20.7296268212
 10
19.5907349946
 20
21.0756713376
 10
17.1945559109
 20
22.090792025
  0
LWPOLYLINE
  5
230
100
AcDbEntity
  8
0
100
AcDbPolyline
 62
7
  6
BYLAYER
 90
4
 70
0
 10
22.8699441741
 20
19.8800420104
 10
21.1598096852
 20
20.0770893646
 10
19.8915185145
 20
20.3989508362
 10
17.7275998869
 20
21.3123138836
  0
LWPOLYLINE
  5
231
100
AcDbEntity
  8
0
100
AcDbPolyline
 62
7
  6
BYLAYER
 90
4
 70
0
 10
17.2415689602
 20
21.9212796254
 10
19.6206382467
 20
20.9132411915
 10
20.9749875735
 20
20.5694950348
 10
22.8699441741
 20
20.3531231628
  0
LINE
  5
232
100
AcDbEntity
  8
0
100
AcDbLine
 62
7
  6
BYLAYER
 10
9.3085146828
 20
26.0220718658
 11
9.1670939153
 21
26.1037235184
  0
LINE
  5
233
100
AcDbEntity
  8
0
100
AcDbLine
 62
7
  6
BYLAYER
 10
23.4507091857
 20
17.8572567754
 11
23.3092884183
 21
17.938908428
  0
LINE
  5
234
100
AcDbEntity
  8
0
100
AcDbLine
 62
7
  6
BYLAYER
 10
15.6260850711
 20
23.0296953708
 11
15.1084510246
 21
23.6979656939
  0
LINE
  5
235
100
AcDbEntity
  8
0
100
AcDbLine
 62
7
  6
BYLAYER
 10
11.7277496712
 20
27.4831619496
 11
11.7277496712
 21
26.7160897492
  0
LINE
  5
236
100
AcDbEntity
  8
0
100
AcDbLine
 62
7
  6
BYLAYER
 10
15.754629478
 20
44.9761348217
 11
14.6001042034
 21
41.5217539584
  0
LINE
  5
237
100
AcDbEntity
  8
0
100
AcDbLine
 62
7
  6
BYLAYER
 10
5.9472415665
 20
38.090224058
 11
7.3184024066
 21
38.8818594127
  0
LINE
  5
238
100
AcDbEntity
  8
0
100
AcDbLine
 62
7
  6
BYLAYER
 10
11.0656058362
 20
41.0452954075
 11
15.2478782718
 21
43.4599171107
  0
LINE
  5
239
100
AcDbEntity
  8
0
100
AcDbLine
 62
7
  6
BYLAYER
 10
6.1972421225
 20
38.0654628857
 11
7.2990491256
 21
38.7015876583
  0
LINE
  5
23A
100
AcDbEntity
  8
0
100
AcDbLine
 62
7
  6
BYLAYER
 10
11.2956755526
 20
41.0090272283
 11
15.1778492924
 21
43.2503879029
  0
LINE
  5
23B
100
AcDbEntity
  8
0
100
AcDbLine
 62
7
  6
BYLAYER
 10
32.3882231492
 20
21.7705130691
 11
31.7275002455
 21
21.7705114714
  0
LINE
  5
23C
100
AcDbEntity
  8
0
100
AcDbLine
 62
7
  6
BYLAYER
 10
16.9670608792
 20
21.7704759921
 11
16.3515557672
 21
21.7704745213
  0
LINE
  5
23D
100
AcDbEntity
  8
0
100
AcDbLine
 62
7
  6
BYLAYER
 10
23.8750571383
 20
20.4700693709
 11
5.7729113901
 21
30.9211116573
  0
LINE
  5
23E
100
AcDbEntity
  8
0
100
AcDbLine
 62
7
  6
BYLAYER
 10
13.1172184012
 20
39.0670237933
 11
13.222003715
 21
38.0909705681
  0
LINE
  5
23F
100
AcDbEntity
  8
0
100
AcDbLine
 62
7
  6
BYLAYER
 10
14.4198852948
 20
37.9838570991
 11
14.4198852948
 21
40.4333643505
  0
LINE
  5
240
100
AcDbEntity
  8
0
100
AcDbLine
 62
7
  6
BYLAYER
 10
14.6001042034
 20
41.5217539584
 11
14.4198852948
 21
40.4333643505
  0
LINE
  5
241
100
AcDbEntity
  8
0
100
AcDbLine
 62
7
  6
BYLAYER
 10
13.0365366405
 20
39.6789639861
 11
13.0425531552
 21
39.6472422906
  0
LINE
  5
242
100
AcDbEntity
  8
0
100
AcDbLine
 62
7
  6
BYLAYER
 10
13.1172177416
 20
39.0670237697
 11
13.0912194483
 21
39.209687928
  0
LINE
  5
243
100
AcDbEntity
  8
0
100
AcDbLine
 62
7
  6
BYLAYER
 10
9.8834180489
 20
39.286726038
 11
9.8279307506
 21
39.3586773537
  0
LINE
  5
244
100
AcDbEntity
  8
0
100
AcDbLine
 62
7
  6
BYLAYER
 10
17.869892126
 20
44.9241270964
 11
17.8698943282
 21
44.9210366781
  0
LINE
  5
245
100
AcDbEntity
  8
0
100
AcDbLine
 62
7
  6
BYLAYER
 10
23.8750592126
 20
25.7773338846
 11
5.7729088012
 21
36.2283788633
  0
LINE
  5
246
100
AcDbEntity
  8
0
100
AcDbLine
 62
7
  6
BYLAYER
 10
23.8749876799
 20
25.8181992586
 11
5.8436896886
 21
36.2283384988
  0
LINE
  5
247
100
AcDbEntity
  8
0
100
AcDbLine
 62
7
  6
BYLAYER
 10
10.5720812934
 20
39.9469298417
 11
10.6275685917
 21
39.874978526
  0
LINE
  5
248
100
AcDbEntity
  8
0
100
AcDbLine
 62
7
  6
BYLAYER
 10
17.8698852948
 20
44.9241270964
 11
17.8700764777
 21
44.9210367647
  0
LINE
  5
249
100
AcDbEntity
  8
0
100
AcDbLine
 62
7
  6
BYLAYER
 10
19.3698852948
 20
44.9241284188
 11
19.3698852948
 21
47.5657203866
  0
LINE
  5
24A
100
AcDbEntity
  8
0
100
AcDbLine
 62
7
  6
BYLAYER
 10
5.843689689
 20
37.2897916409
 11
23.8749876797
 21
26.8796524009
  0
LINE
  5
24B
100
AcDbEntity
  8
0
100
AcDbLine
 62
7
  6
BYLAYER
 10
24.2285379056
 20
27.4920266637
 11
22.6508656977
 21
28.4028755315
  0
LINE
  5
24C
100
AcDbEntity
  8
0
100
AcDbLine
 62
7
  6
BYLAYER
 10
21.9163330683
 20
28.8269485489
 11
8.5104860034
 21
36.5666428654
  0
LINE
  5
24D
100
AcDbEntity
  8
0
100
AcDbLine
 62
7
  6
BYLAYER
 10
7.7741385654
 20
36.9917636394
 11
6.1972433001
 21
37.9021639492
  0
LINE
  5
24E
100
AcDbEntity
  8
0
100
AcDbLine
 62
7
  6
BYLAYER
 10
24.7142855019
 20
30.4362327148
 11
24.0256174965
 21
30.4362310595
  0
LINE
  5
24F
100
AcDbEntity
  8
0
100
AcDbLine
 62
7
  6
BYLAYER
 10
24.0304246451
 20
30.5279798625
 11
24.7094759497
 21
30.5279814947
  0
LINE
  5
250
100
AcDbEntity
  8
0
100
AcDbLine
 62
7
  6
BYLAYER
 10
22.8699441741
 20
21.0503584834
 11
22.8699441741
 21
18.5512746588
  0
LINE
  5
251
100
AcDbEntity
  8
0
100
AcDbLine
 62
7
  6
BYLAYER
 10
21.4804754441
 20
30.9022087029
 11
21.3756901302
 21
29.9261554777
  0
LINE
  5
252
100
AcDbEntity
  8
0
100
AcDbLine
 62
7
  6
BYLAYER
 10
21.5064708482
 20
31.0448590717
 11
21.4804761044
 21
30.9022086793
  0
LINE
  5
253
100
AcDbEntity
  8
0
100
AcDbLine
 62
7
  6
BYLAYER
 10
21.5551370265
 20
31.4824136683
 11
21.5611739078
 21
31.5141287748
  0
LINE
  5
254
100
AcDbEntity
  8
0
100
AcDbLine
 62
7
  6
BYLAYER
 10
27.2334139512
 20
31.0448728376
 11
27.1534298559
 21
31.0448726454
  0
LINE
  5
255
100
AcDbEntity
  8
0
100
AcDbLine
 62
7
  6
BYLAYER
 10
21.5863407775
 20
31.0448592637
 11
21.5064708482
 21
31.0448590717
  0
LINE
  5
256
100
AcDbEntity
  8
0
100
AcDbLine
 62
7
  6
BYLAYER
 10
26.8805633996
 20
31.1938692591
 11
24.7697668179
 21
31.1938641854
  0
LINE
  5
257
100
AcDbEntity
  8
0
100
AcDbLine
 62
7
  6
BYLAYER
 10
23.9701252535
 20
31.1938622633
 11
21.8593286718
 21
31.1938571896
  0
LINE
  5
258
100
AcDbEntity
  8
0
100
AcDbLine
 62
7
  6
BYLAYER
 10
21.8593249486
 20
31.7101564398
 11
23.9701215303
 21
31.7101615135
  0
LINE
  5
259
100
AcDbEntity
  8
0
100
AcDbLine
 62
7
  6
BYLAYER
 10
24.7697630947
 20
31.7101634356
 11
26.8805596764
 21
31.7101685093
  0
LINE
  5
25A
100
AcDbEntity
  8
0
100
AcDbLine
 62
7
  6
BYLAYER
 10
24.0401164806
 20
31.9833610028
 11
24.6997609433
 21
31.9833625884
  0
LINE
  5
25B
100
AcDbEntity
  8
0
100
AcDbLine
 62
7
  6
BYLAYER
 10
24.0256028463
 20
32.4677929841
 11
24.7142708517
 21
32.4677946394
  0
LWPOLYLINE
  5
25C
100
AcDbEntity
  8
0
100
AcDbPolyline
 62
7
  6
BYLAYER
 90
7
 70
0
 10
22.315966772
 20
32.4206803021
 10
20.3916031172
 20
32.7184582413
 10
17.8825179194
 20
33.6282168504
 10
16.8312785406
 20
34.2346095927
 10
15.2531999766
 20
35.6825549675
 10
14.4836986356
 20
37.3343230192
 10
14.419942143
 20
37.9838571067
  0
LINE
  5
25D
100
AcDbEntity
  8
0
100
AcDbLine
 62
7
  6
BYLAYER
 10
24.0256125519
 20
31.1219109476
 11
23.9701252535
 21
31.1938622633
  0
LINE
  5
25E
100
AcDbEntity
  8
0
100
AcDbLine
 62
7
  6
BYLAYER
 10
24.0638969685
 20
30.5301453625
 11
24.0256125519
 21
31.1219109476
  0
LINE
  5
25F
100
AcDbEntity
  8
0
100
AcDbLine
 62
7
  6
BYLAYER
 10
24.1054761808
 20
30.5279800429
 11
24.0256077909
 21
31.782113096
  0
LINE
  5
260
100
AcDbEntity
  8
0
100
AcDbLine
 62
7
  6
BYLAYER
 10
24.0006766508
 20
31.1542457511
 11
23.9701215303
 21
31.7101615135
  0
LINE
  5
261
100
AcDbEntity
  8
0
100
AcDbLine
 62
7
  6
BYLAYER
 10
24.0401164806
 20
31.9833610028
 11
24.1091851642
 21
30.5279800518
  0
LINE
  5
262
100
AcDbEntity
  8
0
100
AcDbLine
 62
7
  6
BYLAYER
 10
23.369919895
 20
17.6254772844
 11
23.3699208824
 21
17.9039012576
  0
LINE
  5
263
100
AcDbEntity
  8
0
100
AcDbLine
 62
7
  6
BYLAYER
 10
23.8749876797
 20
26.8796524009
 11
23.8749876799
 21
25.8181992586
  0
LINE
  5
264
100
AcDbEntity
  8
0
100
AcDbLine
 62
7
  6
BYLAYER
 10
23.8750571383
 20
20.4700693709
 11
23.8750592126
 21
25.7773338846
  0
LINE
  5
265
100
AcDbEntity
  8
0
100
AcDbLine
 62
7
  6
BYLAYER
 10
24.0256028463
 20
32.4677929841
 11
24.0256077909
 21
31.782113096
  0
LINE
  5
266
100
AcDbEntity
  8
0
100
AcDbLine
 62
7
  6
BYLAYER
 10
24.0256125519
 20
31.1219109476
 11
24.0256174965
 21
30.4362310595
  0
LINE
  5
267
100
AcDbEntity
  8
0
100
AcDbLine
 62
7
  6
BYLAYER
 10
37.59278593
 20
26.0221398528
 11
37.4513651626
 21
26.1037915054
  0
LINE
  5
268
100
AcDbEntity
  8
0
100
AcDbLine
 62
7
  6
BYLAYER
 10
24.7142757963
 20
31.7821147513
 11
24.7697630947
 21
31.7101634356
  0
LINE
  5
269
100
AcDbEntity
  8
0
100
AcDbLine
 62
7
  6
BYLAYER
 10
24.7142855019
 20
30.4362327148
 11
24.7142805573
 21
31.1219126029
  0
LINE
  5
26A
100
AcDbEntity
  8
0
100
AcDbLine
 62
7
  6
BYLAYER
 10
24.7142757963
 20
31.7821147513
 11
24.7142708517
 21
32.4677946394
  0
LINE
  5
26B
100
AcDbEntity
  8
0
100
AcDbLine
 62
7
  6
BYLAYER
 10
24.864868305
 20
20.4700717504
 11
24.8648662305
 21
25.777336264
  0
LINE
  5
26C
100
AcDbEntity
  8
0
100
AcDbLine
 62
7
  6
BYLAYER
 10
24.8649371735
 20
25.8182016381
 11
24.8649371739
 21
26.8796547806
  0
LINE
  5
26D
100
AcDbEntity
  8
0
100
AcDbLine
 62
7
  6
BYLAYER
 10
25.3699208824
 20
17.9038743615
 11
25.369919895
 21
17.6254791203
  0
LINE
  5
26E
100
AcDbEntity
  8
0
100
AcDbLine
 62
7
  6
BYLAYER
 10
25.8699441741
 20
21.0503491102
 11
25.8699441741
 21
18.5512746588
  0
LINE
  5
26F
100
AcDbEntity
  8
0
100
AcDbLine
 62
7
  6
BYLAYER
 10
24.6997609433
 20
31.9833625884
 11
24.6306977309
 21
30.5279813054
  0
LINE
  5
270
100
AcDbEntity
  8
0
100
AcDbLine
 62
7
  6
BYLAYER
 10
24.7697630947
 20
31.7101634356
 11
24.7392075158
 21
31.1542365349
  0
LINE
  5
271
100
AcDbEntity
  8
0
100
AcDbLine
 62
7
  6
BYLAYER
 10
24.6344075478
 20
30.5279813143
 11
24.7142757963
 21
31.7821147513
  0
LINE
  5
272
100
AcDbEntity
  8
0
100
AcDbLine
 62
7
  6
BYLAYER
 10
24.6759961149
 20
30.5301474838
 11
24.7142805573
 21
31.1219126029
  0
LINE
  5
273
100
AcDbEntity
  8
0
100
AcDbLine
 62
7
  6
BYLAYER
 10
23.9701215303
 20
31.7101615135
 11
24.0256077909
 21
31.782113096
  0
LINE
  5
274
100
AcDbEntity
  8
0
100
AcDbLine
 62
7
  6
BYLAYER
 10
11.147008198
 20
26.0220854558
 11
11.2884325868
 21
26.1037391992
  0
LINE
  5
275
100
AcDbEntity
  8
0
100
AcDbLine
 62
7
  6
BYLAYER
 10
27.2594129041
 20
30.9022087029
 11
27.3641982179
 21
29.9261554777
  0
LINE
  5
276
100
AcDbEntity
  8
0
100
AcDbLine
 62
7
  6
BYLAYER
 10
24.7697668179
 20
31.1938641854
 11
24.7142805573
 21
31.1219126029
  0
LINE
  5
277
100
AcDbEntity
  8
0
100
AcDbLine
 62
7
  6
BYLAYER
 10
27.1787311434
 20
31.5141488957
 11
27.1847476582
 21
31.4824272002
  0
LINE
  5
278
100
AcDbEntity
  8
0
100
AcDbLine
 62
7
  6
BYLAYER
 10
27.2594122445
 20
30.9022086793
 11
27.2334139512
 21
31.0448728376
  0
LINE
  5
279
100
AcDbEntity
  8
0
100
AcDbLine
 62
7
  6
BYLAYER
 10
29.3698852948
 20
44.9241284188
 11
29.3698852948
 21
47.5657203866
  0
LINE
  5
27A
100
AcDbEntity
  8
0
100
AcDbLine
 62
7
  6
BYLAYER
 10
38.8563622462
 20
38.6011157923
 11
38.1676942408
 21
38.6011141369
  0
LINE
  5
27B
100
AcDbEntity
  8
0
100
AcDbLine
 62
7
  6
BYLAYER
 10
10.572090999
 20
38.6010478052
 11
9.8834229936
 21
38.6010461499
  0
LINE
  5
27C
100
AcDbEntity
  8
0
100
AcDbLine
 62
7
  6
BYLAYER
 10
9.8882301421
 20
38.6927949529
 11
10.5672814467
 21
38.6927965851
  0
LINE
  5
27D
100
AcDbEntity
  8
0
100
AcDbLine
 62
7
  6
BYLAYER
 10
38.1725013893
 20
38.6928629399
 11
38.8515526939
 21
38.6928645721
  0
LINE
  5
27E
100
AcDbEntity
  8
0
100
AcDbLine
 62
7
  6
BYLAYER
 10
41.3754906955
 20
39.209755915
 11
41.2955066002
 21
39.2097557228
  0
LINE
  5
27F
100
AcDbEntity
  8
0
100
AcDbLine
 62
7
  6
BYLAYER
 10
35.7284175218
 20
39.2097423412
 11
35.6485475925
 21
39.2097421492
  0
LINE
  5
280
100
AcDbEntity
  8
0
100
AcDbLine
 62
7
  6
BYLAYER
 10
13.0912194483
 20
39.209687928
 11
13.011235353
 21
39.2096877358
  0
LINE
  5
281
100
AcDbEntity
  8
0
100
AcDbLine
 62
7
  6
BYLAYER
 10
7.4441462746
 20
39.2096743541
 11
7.3642763453
 21
39.2096741621
  0
LINE
  5
282
100
AcDbEntity
  8
0
100
AcDbLine
 62
7
  6
BYLAYER
 10
30.8698762621
 20
44.9210371576
 11
30.8698784636
 21
44.9241270964
  0
LINE
  5
283
100
AcDbEntity
  8
0
100
AcDbLine
 62
7
  6
BYLAYER
 10
30.8696941638
 20
44.9210372441
 11
30.8698852948
 21
44.9241270964
  0
LINE
  5
284
100
AcDbEntity
  8
0
100
AcDbLine
 62
7
  6
BYLAYER
 10
42.542528467
 20
37.9022513126
 11
40.8820834241
 21
36.9435986425
  0
LINE
  5
285
100
AcDbEntity
  8
0
100
AcDbLine
 62
7
  6
BYLAYER
 10
40.3098578001
 20
36.6132259965
 11
26.7400066798
 21
28.778715565
  0
LINE
  5
286
100
AcDbEntity
  8
0
100
AcDbLine
 62
7
  6
BYLAYER
 10
26.0890237916
 20
28.4028726628
 11
24.5113840038
 21
27.4920273436
  0
LINE
  5
287
100
AcDbEntity
  8
0
100
AcDbLine
 62
7
  6
BYLAYER
 10
24.8649371739
 20
26.8796547806
 11
42.8960850223
 21
37.289880704
  0
LINE
  5
288
100
AcDbEntity
  8
0
100
AcDbLine
 62
7
  6
BYLAYER
 10
41.0226401438
 20
39.3587523366
 11
38.9118435621
 21
39.3587472628
  0
LINE
  5
289
100
AcDbEntity
  8
0
100
AcDbLine
 62
7
  6
BYLAYER
 10
38.1122019978
 20
39.3587453407
 11
36.0014054161
 21
39.358740267
  0
LINE
  5
28A
100
AcDbEntity
  8
0
100
AcDbLine
 62
7
  6
BYLAYER
 10
12.7383688966
 20
39.3586843495
 11
10.6275723149
 21
39.3586792758
  0
LINE
  5
28B
100
AcDbEntity
  8
0
100
AcDbLine
 62
7
  6
BYLAYER
 10
9.8279307506
 20
39.3586773537
 11
7.7171341689
 21
39.35867228
  0
LINE
  5
28C
100
AcDbEntity
  8
0
100
AcDbLine
 62
7
  6
BYLAYER
 10
7.7171304457
 20
39.8749715302
 11
9.8279270274
 21
39.8749766039
  0
LINE
  5
28D
100
AcDbEntity
  8
0
100
AcDbLine
 62
7
  6
BYLAYER
 10
10.6275685917
 20
39.874978526
 11
12.7383651734
 21
39.8749835998
  0
LINE
  5
28E
100
AcDbEntity
  8
0
100
AcDbLine
 62
7
  6
BYLAYER
 10
36.0014016929
 20
39.8750395172
 11
38.1121982746
 21
39.8750445909
  0
LINE
  5
28F
100
AcDbEntity
  8
0
100
AcDbLine
 62
7
  6
BYLAYER
 10
38.9118398389
 20
39.875046513
 11
41.0226364206
 21
39.8750515868
  0
LINE
  5
290
100
AcDbEntity
  8
0
100
AcDbLine
 62
7
  6
BYLAYER
 10
9.8979219777
 20
40.1481760932
 11
10.5575664403
 21
40.1481776788
  0
LINE
  5
291
100
AcDbEntity
  8
0
100
AcDbLine
 62
7
  6
BYLAYER
 10
38.1821932249
 20
40.1482440803
 11
38.8418376876
 21
40.1482456659
  0
LINE
  5
292
100
AcDbEntity
  8
0
100
AcDbLine
 62
7
  6
BYLAYER
 10
9.8834083433
 20
40.6326080745
 11
10.5720763487
 21
40.6326097298
  0
LINE
  5
293
100
AcDbEntity
  8
0
100
AcDbLine
 62
7
  6
BYLAYER
 10
38.1676795905
 20
40.6326760615
 11
38.856347596
 21
40.6326777169
  0
LINE
  5
294
100
AcDbEntity
  8
0
100
AcDbLine
 62
7
  6
BYLAYER
 10
38.1121982746
 20
39.8750445909
 11
38.1676845352
 21
39.9469961734
  0
LINE
  5
295
100
AcDbEntity
  8
0
100
AcDbLine
 62
7
  6
BYLAYER
 10
38.9118435621
 20
39.3587472628
 11
38.8563573015
 21
39.2867956804
  0
LINE
  5
296
100
AcDbEntity
  8
0
100
AcDbLine
 62
7
  6
BYLAYER
 10
42.8960850225
 20
36.2284275618
 11
24.8649371735
 21
25.8182016381
  0
LINE
  5
297
100
AcDbEntity
  8
0
100
AcDbLine
 62
7
  6
BYLAYER
 10
42.966864864
 20
36.2284676631
 11
24.8648662305
 21
25.777336264
  0
LINE
  5
298
100
AcDbEntity
  8
0
100
AcDbLine
 62
7
  6
BYLAYER
 10
34.3198852948
 20
37.9838570991
 11
34.3198852948
 21
40.4333643505
  0
LINE
  5
299
100
AcDbEntity
  8
0
100
AcDbLine
 62
7
  6
BYLAYER
 10
35.6485475925
 20
39.2097421492
 11
35.6225528486
 21
39.0670917567
  0
LINE
  5
29A
100
AcDbEntity
  8
0
100
AcDbLine
 62
7
  6
BYLAYER
 10
35.6972137708
 20
39.6472967457
 11
35.7032506521
 21
39.6790118522
  0
LINE
  5
29B
100
AcDbEntity
  8
0
100
AcDbLine
 62
7
  6
BYLAYER
 10
35.6225521883
 20
39.0670917803
 11
35.5177668745
 21
38.0910385551
  0
LINE
  5
29C
100
AcDbEntity
  8
0
100
AcDbLine
 62
7
  6
BYLAYER
 10
32.9851411115
 20
44.9761348217
 11
34.1396663861
 21
41.5217539584
  0
LINE
  5
29D
100
AcDbEntity
  8
0
100
AcDbLine
 62
7
  6
BYLAYER
 10
37.0120209184
 20
27.4831917189
 11
37.0120209184
 21
26.7161577362
  0
LINE
  5
29E
100
AcDbEntity
  8
0
100
AcDbLine
 62
7
  6
BYLAYER
 10
42.966864864
 20
30.9212019518
 11
24.864868305
 21
20.4700717504
  0
LINE
  5
29F
100
AcDbEntity
  8
0
100
AcDbLine
 62
7
  6
BYLAYER
 10
33.5619211577
 20
43.2503883199
 11
37.4354847748
 21
41.0140359159
  0
LINE
  5
2A0
100
AcDbEntity
  8
0
100
AcDbLine
 62
7
  6
BYLAYER
 10
41.4407205366
 20
38.7016642835
 11
42.5425272894
 21
38.065550249
  0
LINE
  5
2A1
100
AcDbEntity
  8
0
100
AcDbLine
 62
7
  6
BYLAYER
 10
33.4918934526
 20
43.459913715
 11
37.6523304507
 21
41.0579386341
  0
LINE
  5
2A2
100
AcDbEntity
  8
0
100
AcDbLine
 62
7
  6
BYLAYER
 10
41.421367552
 20
38.881933277
 11
42.7925247405
 21
38.0903132139
  0
LINE
  5
2A3
100
AcDbEntity
  8
0
100
AcDbLine
 62
7
  6
BYLAYER
 10
38.2059737128
 20
38.6950284399
 11
38.1676892961
 21
39.286794025
  0
LINE
  5
2A4
100
AcDbEntity
  8
0
100
AcDbLine
 62
7
  6
BYLAYER
 10
38.2475529251
 20
38.6928631203
 11
38.1676845352
 21
39.9469961734
  0
LINE
  5
2A5
100
AcDbEntity
  8
0
100
AcDbLine
 62
7
  6
BYLAYER
 10
38.1427533951
 20
39.3191288285
 11
38.1121982746
 21
39.8750445909
  0
LINE
  5
2A6
100
AcDbEntity
  8
0
100
AcDbLine
 62
7
  6
BYLAYER
 10
38.1821932249
 20
40.1482440803
 11
38.2512619085
 21
38.6928631292
  0
LINE
  5
2A7
100
AcDbEntity
  8
0
100
AcDbLine
 62
7
  6
BYLAYER
 10
38.1676795905
 20
40.6326760615
 11
38.1676845352
 21
39.9469961734
  0
LINE
  5
2A8
100
AcDbEntity
  8
0
100
AcDbLine
 62
7
  6
BYLAYER
 10
38.1676892961
 20
39.286794025
 11
38.1676942408
 21
38.6011141369
  0
LINE
  5
2A9
100
AcDbEntity
  8
0
100
AcDbLine
 62
7
  6
BYLAYER
 10
38.8563622462
 20
38.6011157923
 11
38.8563573015
 21
39.2867956804
  0
LINE
  5
2AA
100
AcDbEntity
  8
0
100
AcDbLine
 62
7
  6
BYLAYER
 10
38.8563525406
 20
39.9469978288
 11
38.856347596
 21
40.6326777169
  0
LINE
  5
2AB
100
AcDbEntity
  8
0
100
AcDbLine
 62
7
  6
BYLAYER
 10
38.8418376876
 20
40.1482456659
 11
38.7727744752
 21
38.6928643828
  0
LINE
  5
2AC
100
AcDbEntity
  8
0
100
AcDbLine
 62
7
  6
BYLAYER
 10
38.9118398389
 20
39.875046513
 11
38.8812842601
 21
39.3191196124
  0
LINE
  5
2AD
100
AcDbEntity
  8
0
100
AcDbLine
 62
7
  6
BYLAYER
 10
38.7764842921
 20
38.6928643917
 11
38.8563525406
 21
39.9469978288
  0
LINE
  5
2AE
100
AcDbEntity
  8
0
100
AcDbLine
 62
7
  6
BYLAYER
 10
38.8180728591
 20
38.6950305613
 11
38.8563573015
 21
39.2867956804
  0
LINE
  5
2AF
100
AcDbEntity
  8
0
100
AcDbLine
 62
7
  6
BYLAYER
 10
33.1136855184
 20
23.0296953708
 11
33.6313195649
 21
23.6979656939
  0
LINE
  5
2B0
100
AcDbEntity
  8
0
100
AcDbLine
 62
7
  6
BYLAYER
 10
33.1136855184
 20
23.0296953708
 11
33.0220342632
 21
22.9149109655
  0
LWPOLYLINE
  5
2B1
100
AcDbEntity
  8
0
100
AcDbPolyline
 62
7
  6
BYLAYER
 90
5
 70
0
 10
33.535089899
 20
23.7917509532
 10
32.4578763391
 20
22.6864610419
 10
30.3502745324
 20
21.5069280225
 10
27.7485994949
 20
20.722234169
 10
25.8699441741
 20
20.5101965826
  0
LWPOLYLINE
  5
2B2
100
AcDbEntity
  8
0
100
AcDbPolyline
 62
7
  6
BYLAYER
 90
5
 70
0
 10
33.0220342632
 20
22.9149109655
 10
31.3744591431
 20
21.515472656
 10
29.0710489949
 20
20.4691836109
 10
26.3274710515
 20
19.8740073922
 10
25.8699441741
 20
19.8397342656
  0
LINE
  5
2B3
100
AcDbEntity
  8
0
100
AcDbLine
 62
7
  6
BYLAYER
 10
25.289202701
 20
17.8572703654
 11
25.4306270897
 21
17.9389241088
  0
LINE
  5
2B4
100
AcDbEntity
  8
0
100
AcDbLine
 62
7
  6
BYLAYER
 10
39.4312794453
 20
26.0221534428
 11
39.572703834
 21
26.1038071862
  0
LWPOLYLINE
  5
2B5
100
AcDbEntity
  8
0
100
AcDbPolyline
 62
7
  6
BYLAYER
 90
4
 70
0
 10
29.0181626057
 20
48.5328862627
 10
30.4628471033
 20
47.8921848427
 10
32.0812261951
 20
46.5430416524
 10
32.9851410964
 20
44.9761348671
  0
LINE
  5
2B6
100
AcDbEntity
  8
0
100
AcDbLine
 62
7
  6
BYLAYER
 10
38.1676892961
 20
39.286794025
 11
38.1122019978
 21
39.3587453407
  0
LINE
  5
2B7
100
AcDbEntity
  8
0
100
AcDbLine
 62
7
  6
BYLAYER
 10
38.8563525406
 20
39.9469978288
 11
38.9118398389
 21
39.875046513
  0
LINE
  5
2B8
100
AcDbEntity
  8
0
100
AcDbLine
 62
7
  6
BYLAYER
 10
40.0120209184
 20
29.2152321876
 11
40.0120209184
 21
26.7161577362
  0
LINE
  5
2B9
100
AcDbEntity
  8
0
100
AcDbLine
 62
7
  6
BYLAYER
 10
41.4014896484
 20
39.0670917803
 11
41.5062749622
 21
38.0910385551
  0
LINE
  5
2BA
100
AcDbEntity
  8
0
100
AcDbLine
 62
7
  6
BYLAYER
 10
42.8960850223
 20
37.289880704
 11
42.8960850225
 21
36.2284275618
  0
LINE
  5
2BB
100
AcDbEntity
  8
0
100
AcDbLine
 62
7
  6
BYLAYER
 10
41.3208078877
 20
39.6790319732
 11
41.3268244025
 21
39.6473102776
  0
LINE
  5
2BC
100
AcDbEntity
  8
0
100
AcDbLine
 62
7
  6
BYLAYER
 10
41.4014889888
 20
39.0670917567
 11
41.3754906955
 21
39.209755915
  0
LINE
  5
2BD
100
AcDbEntity
  8
0
100
AcDbLine
 62
7
  6
BYLAYER
 10
42.966864864
 20
36.2284676631
 11
42.966864864
 21
30.9212019518
  0
LINE
  5
2BE
100
AcDbEntity
  8
0
100
AcDbLine
 62
7
  6
BYLAYER
 10
43.1011082149
 20
36.51419609
 11
43.1011082149
 21
37.5756492323
  0
LINE
  5
2BF
100
AcDbEntity
  8
0
100
AcDbLine
 62
7
  6
BYLAYER
 10
43.1718780292
 20
36.5141962544
 11
43.1718780292
 21
31.206930543
  0
ARC
  5
2C0
100
AcDbEntity
  8
0
100
AcDbCircle
 62
7
  6
BYLAYER
 10
24.3832102152
 20
36.0733261043
 40
16.3156702247
100
AcDbArc
 50
273.4934517829
 51
275.2416650281
  0
ARC
  5
2C1
100
AcDbEntity
  8
0
100
AcDbCircle
 62
7
  6
BYLAYER
 10
24.3544988963
 20
35.7577390692
 40
16.0458811201
100
AcDbArc
 50
264.6761813937
 51
266.4480952374
  0
ARC
  5
2C2
100
AcDbEntity
  8
0
100
AcDbCircle
 62
7
  6
BYLAYER
 10
24.3654508008
 20
32.4580408906
 40
14.7222270608
100
AcDbArc
 50
266.1226497928
 51
267.4842520757
  0
ARC
  5
2C3
100
AcDbEntity
  8
0
100
AcDbCircle
 62
7
  6
BYLAYER
 10
24.3756451215
 20
32.4343396888
 40
14.6984904907
100
AcDbArc
 50
272.5203722925
 51
273.8787202121
  0
ARC
  5
2C4
100
AcDbEntity
  8
0
100
AcDbCircle
 62
7
  6
BYLAYER
 10
24.3698852151
 20
32.0531684238
 40
14.4622653981
100
AcDbArc
 50
266.0352309817
 51
273.9650444623
  0
ARC
  5
2C5
100
AcDbEntity
  8
0
100
AcDbCircle
 62
7
  6
BYLAYER
 10
21.9856284543
 20
30.4950475028
 40
9.6739798559
100
AcDbArc
 50
240.0008079199
 51
240.3135311011
  0
ARC
  5
2C6
100
AcDbEntity
  8
0
100
AcDbCircle
 62
7
  6
BYLAYER
 10
22.0012502015
 20
30.2704700796
 40
9.6105955465
100
AcDbArc
 50
240.0008079199
 51
240.3135311012
  0
ARC
  5
2C7
100
AcDbEntity
  8
0
100
AcDbCircle
 62
7
  6
BYLAYER
 10
22.1905797472
 20
29.3350902438
 40
9.1887285582
100
AcDbArc
 50
240.4623731094
 51
240.8839746393
  0
ARC
  5
2C8
100
AcDbEntity
  8
0
100
AcDbCircle
 62
7
  6
BYLAYER
 10
22.1438271731
 20
29.2525973045
 40
9.0939082641
100
AcDbArc
 50
240.0010983141
 51
240.4624211985
  0
ARC
  5
2C9
100
AcDbEntity
  8
0
100
AcDbCircle
 62
7
  6
BYLAYER
 10
22.6689015994
 20
40.6642151509
 40
8.4577573102
100
AcDbArc
 50
119.5095029002
 51
119.9993535227
  0
ARC
  5
2CA
100
AcDbEntity
  8
0
100
AcDbCircle
 62
7
  6
BYLAYER
 10
26.4022047193
 20
47.6607876073
 40
8.3442402673
100
AcDbArc
 50
299.5096979567
 51
299.9989440577
  0
ARC
  5
2CB
100
AcDbEntity
  8
0
100
AcDbCircle
 62
7
  6
BYLAYER
 10
22.7837410709
 20
41.6836856437
 40
7.1929762032
100
AcDbArc
 50
117.9501376765
 51
119.5000472281
  0
ARC
  5
2CC
100
AcDbEntity
  8
0
100
AcDbCircle
 62
7
  6
BYLAYER
 10
25.9021924077
 20
47.5774590196
 40
6.1278605182
100
AcDbArc
 50
299.7968434477
 51
299.9997391694
  0
ARC
  5
2CD
100
AcDbEntity
  8
0
100
AcDbCircle
 62
7
  6
BYLAYER
 10
22.9108972593
 20
25.0354223714
 40
5.5292780667
100
AcDbArc
 50
238.7445454142
 51
240.0023815827
  0
ARC
  5
2CE
100
AcDbEntity
  8
0
100
AcDbCircle
 62
7
  6
BYLAYER
 10
22.9312635836
 20
46.5444014706
 40
4.2191050069
100
AcDbArc
 50
234.6039704383
 51
237.4538320292
  0
ARC
  5
2CF
100
AcDbEntity
  8
0
100
AcDbCircle
 62
7
  6
BYLAYER
 10
25.8419890509
 20
46.4947081619
 40
4.1592032469
100
AcDbArc
 50
302.5258220197
 51
305.4170679793
  0
ARC
  5
2D0
100
AcDbEntity
  8
0
100
AcDbCircle
 62
7
  6
BYLAYER
 10
31.1409750915
 20
26.2883290796
 40
3.4412296965
100
AcDbArc
 50
350.6139566387
 51
356.4173349822
  0
LINE
  5
2D1
100
AcDbEntity
  8
0
100
AcDbLine
 62
7
  6
BYLAYER
 10
41.3754942442
 20
38.7176458372
 11
41.3268280659
 21
39.1392913826
  0
LINE
  5
2D2
100
AcDbEntity
  8
0
100
AcDbLine
 62
7
  6
BYLAYER
 10
41.3268244025
 20
39.6473102776
 11
41.3754906955
 21
39.209755915
  0
SPLINE
  5
2D3
100
AcDbEntity
  8
0
100
AcDbSpline
 62
7
  6
BYLAYER
 70
0
 71
3
 72
13
 73
9
 74
0
 42
0.0000001
 43
0.0000001
 44
0.0000000001
 40
0.0
 40
0.0
 40
0.0
 40
0.0
 40
0.1111675623
 40
0.2254080617
 40
0.3439510835
 40
0.4675038977
 40
0.7277343458
 40
1.0
 40
1.0
 40
1.0
 40
1.0
 10
41.3268280659
 20
39.1392913826
 30
0.0
 10
41.3250929182
 20
39.1543006998
 30
0.0
 10
41.3179133096
 20
39.1844189033
 30
0.0
 10
41.2969743309
 20
39.2266107188
 30
0.0
 10
41.2666540436
 20
39.2648070067
 30
0.0
 10
41.2145294245
 20
39.3094458708
 30
0.0
 10
41.1324392551
 20
39.3483847575
 30
0.0
 10
41.0596449851
 20
39.3587524255
 30
0.0
 10
41.0226401438
 20
39.3587523366
 30
0.0
  0
SPLINE
  5
2D4
100
AcDbEntity
  8
0
100
AcDbSpline
 62
7
  6
BYLAYER
 70
0
 71
3
 72
13
 73
9
 74
0
 42
0.0000001
 43
0.0000001
 44
0.0000000001
 40
0.0
 40
0.0
 40
0.0
 40
0.0
 40
0.2722664244
 40
0.5325017335
 40
0.6560563684
 40
0.7745997137
 40
0.8888358986
 40
1.0
 40
1.0
 40
1.0
 40
1.0
 10
36.0014054161
 20
39.358740267
 30
0.0
 10
35.9644004078
 20
39.3587401781
 30
0.0
 10
35.8916053262
 20
39.3483719049
 30
0.0
 10
35.8095142812
 20
39.309431965
 30
0.0
 10
35.7573894565
 20
39.2647916092
 30
0.0
 10
35.7270700853
 20
39.2265949556
 30
0.0
 10
35.7061311974
 20
39.184404122
 30
0.0
 10
35.698952534
 20
39.1542867255
 30
0.0
 10
35.6972174343
 20
39.1392778506
 30
0.0
  0
LINE
  5
2D5
100
AcDbEntity
  8
0
100
AcDbLine
 62
7
  6
BYLAYER
 10
35.6972174343
 20
39.1392778506
 11
35.6485511413
 21
38.7176320713
  0
LINE
  5
2D6
100
AcDbEntity
  8
0
100
AcDbLine
 62
7
  6
BYLAYER
 10
35.6485475925
 20
39.2097421492
 11
35.6972137708
 21
39.6472967457
  0
SPLINE
  5
2D7
100
AcDbEntity
  8
0
100
AcDbSpline
 62
7
  6
BYLAYER
 70
0
 71
3
 72
16
 73
12
 74
0
 42
0.0000001
 43
0.0000001
 44
0.0000000001
 40
0.0
 40
0.0
 40
0.0
 40
0.0
 40
0.1141419491
 40
0.2373006744
 40
0.3669382461
 40
0.4999508312
 40
0.6329624907
 40
0.7626036032
 40
0.8857680626
 40
0.9441628335
 40
1.0
 40
1.0
 40
1.0
 40
1.0
 10
39.4312776768
 20
26.0221544635
 30
0.0
 10
39.3683501205
 20
25.9858222631
 30
0.0
 10
39.2307471414
 20
25.9217429631
 30
0.0
 10
39.006666855
 20
25.8536322702
 30
0.0
 10
38.7640611609
 20
25.8117062012
 30
0.0
 10
38.5120494685
 20
25.7975578463
 30
0.0
 10
38.2600186631
 20
25.8117024626
 30
0.0
 10
38.0174542166
 20
25.8536124714
 30
0.0
 10
37.8272735099
 20
25.9114038709
 30
0.0
 10
37.6881566518
 20
25.9707382181
 30
0.0
 10
37.6235698751
 20
26.0043671359
 30
0.0
 10
37.59278593
 20
26.0221398528
 30
0.0
  0
SPLINE
  5
2D8
100
AcDbEntity
  8
0
100
AcDbSpline
 62
7
  6
BYLAYER
 70
0
 71
3
 72
15
 73
11
 74
0
 42
0.0000001
 43
0.0000001
 44
0.0000000001
 40
0.0
 40
0.0
 40
0.0
 40
0.0
 40
0.1080131281
 40
0.2180612219
 40
0.3320010908
 40
0.4513569006
 40
0.5772797606
 40
0.7104997397
 40
0.8513973507
 40
1.0
 40
1.0
 40
1.0
 40
1.0
 10
40.0120209183
 20
26.7161577362
 30
0.0
 10
40.0120206313
 20
26.6877615478
 30
0.0
 10
40.0070776026
 20
26.630320596
 30
0.0
 10
39.9850844557
 20
26.5454708313
 30
0.0
 10
39.9487386673
 20
26.462459949
 30
0.0
 10
39.8985597017
 20
26.3821027841
 30
0.0
 10
39.8350606563
 20
26.3051593208
 30
0.0
 10
39.758940074
 20
26.2322779906
 30
0.0
 10
39.6709155102
 20
26.1641542054
 30
0.0
 10
39.6065366054
 20
26.1233411065
 30
0.0
 10
39.572703834
 20
26.1038071862
 30
0.0
  0
SPLINE
  5
2D9
100
AcDbEntity
  8
0
100
AcDbSpline
 62
7
  6
BYLAYER
 70
0
 71
3
 72
30
 73
26
 74
0
 42
0.0000001
 43
0.0000001
 44
0.0000000001
 40
0.0
 40
0.0
 40
0.0
 40
0.0
 40
0.0214866213
 40
0.0430173414
 40
0.0648331733
 40
0.0871593429
 40
0.1101955438
 40
0.1341072241
 40
0.1590252939
 40
0.1850417336
 40
0.2122165874
 40
0.2405749405
 40
0.2701162661
 40
0.3008123045
 40
0.3654281197
 40
0.433848235
 40
0.5052414177
 40
0.578620791
 40
0.6529037479
 40
0.7269636514
 40
0.7996864719
 40
0.8700192855
 40
0.9370349915
 40
0.9690753292
 40
1.0
 40
1.0
 40
1.0
 40
1.0
 10
41.5062675479
 20
38.09103831
 30
0.0
 10
41.5109243165
 20
38.0476445187
 30
0.0
 10
41.5146164358
 20
37.960051513
 30
0.0
 10
41.5028090233
 20
37.8285346718
 30
0.0
 10
41.4737697414
 20
37.6979681718
 30
0.0
 10
41.4277059932
 20
37.5691731088
 30
0.0
 10
41.364933783
 20
37.4429041984
 30
0.0
 10
41.285889343
 20
37.3198637681
 30
0.0
 10
41.1910347529
 20
37.2007548882
 30
0.0
 10
41.0809733236
 20
37.0861959373
 30
0.0
 10
40.9563099494
 20
36.976848156
 30
0.0
 10
40.8177927131
 20
36.8732699869
 30
0.0
 10
40.666178373
 20
36.7760652485
 30
0.0
 10
40.4439555111
 20
36.6535611256
 30
0.0
 10
40.1382098462
 20
36.5206323073
 30
0.0
 10
39.7411701799
 20
36.3967534461
 30
0.0
 10
39.3165618024
 20
36.3085294388
 30
0.0
 10
38.873921111
 20
36.2579309512
 30
0.0
 10
38.4231533148
 20
36.2460885615
 30
0.0
 10
37.9743842452
 20
36.2732609233
 30
0.0
 10
37.5376724552
 20
36.338854265
 30
0.0
 10
37.1228299423
 20
36.4413792365
 30
0.0
 10
36.7981574506
 20
36.5574554957
 30
0.0
 10
36.5580286768
 20
36.6674880402
 30
0.0
 10
36.4451075515
 20
36.727752558
 30
0.0
 10
36.3907094067
 20
36.759158631
 30
0.0
  0
SPLINE
  5
2DA
100
AcDbEntity
  8
0
100
AcDbSpline
 62
7
  6
BYLAYER
 70
0
 71
3
 72
14
 73
10
 74
0
 42
0.0000001
 43
0.0000001
 44
0.0000000001
 40
0.0
 40
0.0
 40
0.0
 40
0.0
 40
0.1156748669
 40
0.2328619258
 40
0.3523253746
 40
0.4746178943
 40
0.7292276506
 40
0.8626012947
 40
1.0
 40
1.0
 40
1.0
 40
1.0
 10
41.3207704645
 20
39.6790249445
 30
0.0
 10
41.3071681014
 20
39.7290445493
 30
0.0
 10
41.2732705272
 20
39.8280772055
 30
0.0
 10
41.2042488351
 20
39.9704559413
 30
0.0
 10
41.1179021243
 20
40.1065622722
 30
0.0
 10
40.979501552
 20
40.2811095819
 30
0.0
 10
40.8115834169
 20
40.4384734624
 30
0.0
 10
40.6216069991
 20
40.5777370518
 30
0.0
 10
40.5185427176
 20
40.6420422478
 30
0.0
 10
40.4652203588
 20
40.6728272296
 30
0.0
  0
SPLINE
  5
2DB
100
AcDbEntity
  8
0
100
AcDbSpline
 62
7
  6
BYLAYER
 70
0
 71
3
 72
24
 73
20
 74
0
 42
0.0000001
 43
0.0000001
 44
0.0000000001
 40
0.0
 40
0.0
 40
0.0
 40
0.0
 40
0.0609306188
 40
0.1247951288
 40
0.1911652132
 40
0.2595133873
 40
0.3291453757
 40
0.399302421
 40
0.4691920675
 40
0.5380380318
 40
0.6051265696
 40
0.6698531715
 40
0.731772255
 40
0.7906491568
 40
0.8464989104
 40
0.8996176513
 40
0.9505230217
 40
0.9753879628
 40
1.0
 40
1.0
 40
1.0
 40
1.0
 10
40.4652203588
 20
40.6728272296
 30
0.0
 10
40.3701438197
 20
40.7277184533
 30
0.0
 10
40.1684567455
 20
40.8283822441
 30
0.0
 10
39.8454187088
 20
40.9494005343
 30
0.0
 10
39.4995098177
 20
41.0428371063
 30
0.0
 10
39.1366010081
 20
41.1075589663
 30
0.0
 10
38.7628072793
 20
41.1426389733
 30
0.0
 10
38.3846380579
 20
41.1475809068
 30
0.0
 10
38.0086954904
 20
41.1223097018
 30
0.0
 10
37.6415250371
 20
41.0671987726
 30
0.0
 10
37.2894255713
 20
40.983024465
 30
0.0
 10
36.9582967098
 20
40.8708785424
 30
0.0
 10
36.6535262232
 20
40.732035376
 30
0.0
 10
36.380006518
 20
40.5677861127
 30
0.0
 10
36.142254677
 20
40.3792840218
 30
0.0
 10
35.9450476175
 20
40.1676698683
 30
0.0
 10
35.8177847588
 20
39.9716046618
 30
0.0
 10
35.7430560966
 20
39.8066055035
 30
0.0
 10
35.7149032219
 20
39.7218006759
 30
0.0
 10
35.7032669793
 20
39.6790087884
 30
0.0
  0
SPLINE
  5
2DC
100
AcDbEntity
  8
0
100
AcDbSpline
 62
7
  6
BYLAYER
 70
0
 71
3
 72
18
 73
14
 74
0
 42
0.0000001
 43
0.0000001
 44
0.0000000001
 40
0.0
 40
0.0
 40
0.0
 40
0.0
 40
0.1497395598
 40
0.2911502499
 40
0.4241908483
 40
0.4877701297
 40
0.549508346
 40
0.6679568274
 40
0.7811076704
 40
0.8363555473
 40
0.8910546298
 40
0.9455017591
 40
1.0
 40
1.0
 40
1.0
 40
1.0
 10
36.3907094067
 20
36.759158631
 30
0.0
 10
36.3178746268
 20
36.8012088595
 30
0.0
 10
36.1797822457
 20
36.8893532897
 30
0.0
 10
35.992694833
 20
37.0375580572
 30
0.0
 10
35.8580281359
 20
37.1721429324
 30
0.0
 10
35.7659844011
 20
37.2844578468
 30
0.0
 10
35.6866759767
 20
37.3961709333
 30
0.0
 10
35.6060576759
 20
37.5406332405
 30
0.0
 10
35.5512147336
 20
37.6930235026
 30
0.0
 10
35.5247953802
 20
37.8156593272
 30
0.0
 10
35.5135463182
 20
37.9074380503
 30
0.0
 10
35.5107374616
 20
37.9994286995
 30
0.0
 10
35.5145008201
 20
38.0606043264
 30
0.0
 10
35.5177697271
 20
38.0910384517
 30
0.0
  0
SPLINE
  5
2DD
100
AcDbEntity
  8
0
100
AcDbSpline
 62
7
  6
BYLAYER
 70
0
 71
3
 72
15
 73
11
 74
0
 42
0.0000001
 43
0.0000001
 44
0.0000000001
 40
0.0
 40
0.0
 40
0.0
 40
0.0
 40
0.1485263577
 40
0.2895010829
 40
0.4227415638
 40
0.5486452136
 40
0.6679959928
 40
0.7819398889
 40
0.8919882913
 40
1.0
 40
1.0
 40
1.0
 40
1.0
 10
37.4513651626
 20
26.1037915054
 30
0.0
 10
37.4175479884
 20
26.1233154184
 30
0.0
 10
37.3531698301
 20
26.1641352651
 30
0.0
 10
37.2651284109
 20
26.2322529848
 30
0.0
 10
37.18898343
 20
26.3051456938
 30
0.0
 10
37.1254881102
 20
26.3820963089
 30
0.0
 10
37.0753111091
 20
26.4624522869
 30
0.0
 10
37.0389590199
 20
26.5454640813
 30
0.0
 10
37.0169628523
 20
26.6303176998
 30
0.0
 10
37.0120206314
 20
26.687760797
 30
0.0
 10
37.0120209184
 20
26.7161577362
 30
0.0
  0
SPLINE
  5
2DE
100
AcDbEntity
  8
0
100
AcDbSpline
 62
7
  6
BYLAYER
 70
0
 71
3
 72
14
 73
10
 74
0
 42
0.0000001
 43
0.0000001
 44
0.0000000001
 40
0.0
 40
0.0
 40
0.0
 40
0.0
 40
0.1081800209
 40
0.2199447201
 40
0.336095302
 40
0.4573168402
 40
0.7165914721
 40
0.8553567523
 40
1.0
 40
1.0
 40
1.0
 40
1.0
 10
35.6972174343
 20
39.1392778506
 30
0.0
 10
35.7089142331
 20
39.0960742453
 30
0.0
 10
35.7385532209
 20
39.0097265005
 30
0.0
 10
35.7996631667
 20
38.88447226
 30
0.0
 10
35.8776587827
 20
38.7625210223
 30
0.0
 10
36.0061965429
 20
38.6018092939
 30
0.0
 10
36.1646024719
 20
38.4546707544
 30
0.0
 10
36.3460217231
 20
38.3222006792
 30
0.0
 10
36.4456670099
 20
38.2601361582
 30
0.0
 10
36.4974950048
 20
38.2302139283
 30
0.0
  0
SPLINE
  5
2DF
100
AcDbEntity
  8
0
100
AcDbSpline
 62
7
  6
BYLAYER
 70
0
 71
3
 72
13
 73
9
 74
0
 42
0.0000001
 43
0.0000001
 44
0.0000000001
 40
0.0
 40
0.0
 40
0.0
 40
0.0
 40
0.2665363672
 40
0.5245059849
 40
0.6487626846
 40
0.7691907283
 40
0.8860185102
 40
1.0
 40
1.0
 40
1.0
 40
1.0
 10
41.0226364206
 20
39.8750515868
 30
0.0
 10
41.0565411131
 20
39.8750516683
 30
0.0
 10
41.1236102652
 20
39.8659366411
 30
0.0
 10
41.2002137868
 20
39.8318612123
 30
0.0
 10
41.2510365608
 20
39.792636577
 30
0.0
 10
41.2823527796
 20
39.7586289926
 30
0.0
 10
41.3063189533
 20
39.7206264779
 30
0.0
 10
41.3169602531
 20
39.693014799
 30
0.0
 10
41.3207648442
 20
39.6790238836
 30
0.0
  0
SPLINE
  5
2E0
100
AcDbEntity
  8
0
100
AcDbSpline
 62
7
  6
BYLAYER
 70
0
 71
3
 72
23
 73
19
 74
0
 42
0.0000001
 43
0.0000001
 44
0.0000000001
 40
0.0
 40
0.0
 40
0.0
 40
0.0
 40
0.0606971286
 40
0.1250179118
 40
0.1923702261
 40
0.2620665266
 40
0.3332995781
 40
0.4052103061
 40
0.4769116432
 40
0.5475249196
 40
0.6162132759
 40
0.6822164095
 40
0.7448888861
 40
0.803744408
 40
0.8585099818
 40
0.9091800101
 40
0.9561043657
 40
1.0
 40
1.0
 40
1.0
 40
1.0
 10
36.7088189329
 20
38.5758229895
 30
0.0
 10
36.7933759266
 20
38.5270050909
 30
0.0
 10
36.9737432101
 20
38.4369626965
 30
0.0
 10
37.2637982324
 20
38.3278418282
 30
0.0
 10
37.5766930016
 20
38.2423545818
 30
0.0
 10
37.9066511311
 20
38.1820320252
 30
0.0
 10
38.2476955541
 20
38.1479852389
 30
0.0
 10
38.5935752398
 20
38.1408303394
 30
0.0
 10
38.9379626194
 20
38.1607001652
 30
0.0
 10
39.2745548332
 20
38.2072284011
 30
0.0
 10
39.5972035658
 20
38.2795661498
 30
0.0
 10
39.9000323074
 20
38.3764055987
 30
0.0
 10
40.1775460295
 20
38.4960173653
 30
0.0
 10
40.4247406351
 20
38.6363063245
 30
0.0
 10
40.6371438679
 20
38.79488115
 30
0.0
 10
40.8109152976
 20
38.9691776052
 30
0.0
 10
40.9425669837
 20
39.1563174257
 30
0.0
 10
41.0018265947
 20
39.2912790328
 30
0.0
 10
41.0226401438
 20
39.3587523366
 30
0.0
  0
SPLINE
  5
2E1
100
AcDbEntity
  8
0
100
AcDbSpline
 62
7
  6
BYLAYER
 70
0
 71
3
 72
14
 73
10
 74
0
 42
0.0000001
 43
0.0000001
 44
0.0000000001
 40
0.0
 40
0.0
 40
0.0
 40
0.0
 40
0.1084316043
 40
0.2205270208
 40
0.3369904914
 40
0.4584235591
 40
0.7176032705
 40
0.8559754836
 40
1.0
 40
1.0
 40
1.0
 40
1.0
 10
36.0014054161
 20
39.358740267
 30
0.0
 10
36.0129021781
 20
39.3214718949
 30
0.0
 10
36.0411069167
 20
39.2470883713
 30
0.0
 10
36.0971562846
 20
39.139340913
 30
0.0
 10
36.1672343604
 20
39.0344714707
 30
0.0
 10
36.2811497969
 20
38.8963554745
 30
0.0
 10
36.4197664339
 20
38.7697199864
 30
0.0
 10
36.5775864857
 20
38.65538722
 30
0.0
 10
36.6639553942
 20
38.6017243797
 30
0.0
 10
36.7088189329
 20
38.5758229895
 30
0.0
  0
SPLINE
  5
2E2
100
AcDbEntity
  8
0
100
AcDbSpline
 62
7
  6
BYLAYER
 70
0
 71
3
 72
24
 73
20
 74
0
 42
0.0000001
 43
0.0000001
 44
0.0000000001
 40
0.0
 40
0.0
 40
0.0
 40
0.0
 40
0.0609006468
 40
0.1254599186
 40
0.1930825223
 40
0.2630544371
 40
0.3345498973
 40
0.4066881417
 40
0.478562
 40
0.5492747917
 40
0.6179748296
 40
0.6838926759
 40
0.746381837
 40
0.8049649735
 40
0.8593902894
 40
0.9096921812
 40
0.9562735037
 40
0.9784394962
 40
1.0
 40
1.0
 40
1.0
 40
1.0
 10
36.4974950048
 20
38.2302139283
 30
0.0
 10
36.5929116684
 20
38.1751263381
 30
0.0
 10
36.7965487631
 20
38.0736148915
 30
0.0
 10
37.1241604832
 20
37.9509218741
 30
0.0
 10
37.4776482761
 20
37.8551723135
 30
0.0
 10
37.8503792791
 20
37.7881328856
 30
0.0
 10
38.2354564248
 20
37.7510513172
 30
0.0
 10
38.6256903828
 20
37.7446110948
 30
0.0
 10
39.0138048301
 20
37.7689363808
 30
0.0
 10
39.3925603026
 20
37.8235729226
 30
0.0
 10
39.7549048588
 20
37.907508209
 30
0.0
 10
40.094113835
 20
38.0191931926
 30
0.0
 10
40.4039207336
 20
38.1566005267
 30
0.0
 10
40.678632355
 20
38.317270589
 30
0.0
 10
40.9132006959
 20
38.4984737803
 30
0.0
 10
41.1032144896
 20
38.6971034267
 30
0.0
 10
41.2232414269
 20
38.877706623
 30
0.0
 10
41.2915270005
 20
39.0264155127
 30
0.0
 10
41.3166352811
 20
39.1016409882
 30
0.0
 10
41.3268280659
 20
39.1392913826
 30
0.0
  0
SPLINE
  5
2E3
100
AcDbEntity
  8
0
100
AcDbSpline
 62
7
  6
BYLAYER
 70
0
 71
3
 72
23
 73
19
 74
0
 42
0.0000001
 43
0.0000001
 44
0.0000000001
 40
0.0
 40
0.0
 40
0.0
 40
0.0
 40
0.0606971286
 40
0.1250179118
 40
0.1923702261
 40
0.2620665266
 40
0.3332995781
 40
0.4052103061
 40
0.4769116432
 40
0.5475249196
 40
0.6162132759
 40
0.6822164095
 40
0.7448888861
 40
0.803744408
 40
0.8585099818
 40
0.9091800101
 40
0.9561043657
 40
1.0
 40
1.0
 40
1.0
 40
1.0
 10
40.3152229038
 20
40.6579688642
 30
0.0
 10
40.2306659102
 20
40.7067867629
 30
0.0
 10
40.0502986267
 20
40.7968291573
 30
0.0
 10
39.7602436043
 20
40.9059500255
 30
0.0
 10
39.4473488352
 20
40.991437272
 30
0.0
 10
39.1173907057
 20
41.0517598286
 30
0.0
 10
38.7763462827
 20
41.0858066149
 30
0.0
 10
38.4304665969
 20
41.0929615144
 30
0.0
 10
38.0860792173
 20
41.0730916885
 30
0.0
 10
37.7494870036
 20
41.0265634527
 30
0.0
 10
37.4268382709
 20
40.954225704
 30
0.0
 10
37.1240095294
 20
40.8573862551
 30
0.0
 10
36.8464958073
 20
40.7377744885
 30
0.0
 10
36.5993012016
 20
40.5974855293
 30
0.0
 10
36.3868979688
 20
40.4389107038
 30
0.0
 10
36.2131265391
 20
40.2646142486
 30
0.0
 10
36.081474853
 20
40.0774744281
 30
0.0
 10
36.0222152421
 20
39.942512821
 30
0.0
 10
36.0014016929
 20
39.8750395172
 30
0.0
  0
SPLINE
  5
2E4
100
AcDbEntity
  8
0
100
AcDbSpline
 62
7
  6
BYLAYER
 70
0
 71
3
 72
14
 73
10
 74
0
 42
0.0000001
 43
0.0000001
 44
0.0000000001
 40
0.0
 40
0.0
 40
0.0
 40
0.0
 40
0.1084316043
 40
0.2205270208
 40
0.3369904914
 40
0.4584235591
 40
0.7176032705
 40
0.8559754836
 40
1.0
 40
1.0
 40
1.0
 40
1.0
 10
41.0226364206
 20
39.8750515868
 30
0.0
 10
41.0111396587
 20
39.9123199589
 30
0.0
 10
40.98293492
 20
39.9867034825
 30
0.0
 10
40.9268855521
 20
40.0944509408
 30
0.0
 10
40.8568074763
 20
40.199320383
 30
0.0
 10
40.7428920398
 20
40.3374363793
 30
0.0
 10
40.6042754028
 20
40.4640718674
 30
0.0
 10
40.4464553511
 20
40.5784046338
 30
0.0
 10
40.3600864425
 20
40.6320674741
 30
0.0
 10
40.3152229038
 20
40.6579688642
 30
0.0
  0
SPLINE
  5
2E5
100
AcDbEntity
  8
0
100
AcDbSpline
 62
7
  6
BYLAYER
 70
0
 71
3
 72
9
 73
5
 74
0
 42
0.0000001
 43
0.0000001
 44
0.0000000001
 40
0.0
 40
0.0
 40
0.0
 40
0.0
 40
0.4977783232
 40
1.0
 40
1.0
 40
1.0
 40
1.0
 10
35.6225530299
 20
39.0670917502
 30
0.0
 10
35.6163191486
 20
39.0090429673
 30
0.0
 10
35.6143431878
 20
38.8910372014
 30
0.0
 10
35.6338464667
 20
38.7746708132
 30
0.0
 10
35.6485511413
 20
38.7176320713
 30
0.0
  0
SPLINE
  5
2E6
100
AcDbEntity
  8
0
100
AcDbSpline
 62
7
  6
BYLAYER
 70
0
 71
3
 72
13
 73
9
 74
0
 42
0.0000001
 43
0.0000001
 44
0.0000000001
 40
0.0
 40
0.0
 40
0.0
 40
0.0
 40
0.1139871521
 40
0.2308165878
 40
0.3512434399
 40
0.475498341
 40
0.7334638369
 40
1.0
 40
1.0
 40
1.0
 40
1.0
 10
35.7032728769
 20
39.6790076755
 30
0.0
 10
35.7070776182
 20
39.6929994276
 30
0.0
 10
35.7177184535
 20
39.7206125776
 30
0.0
 10
35.7416855965
 20
39.758615967
 30
0.0
 10
35.7730019742
 20
39.7926236509
 30
0.0
 10
35.8238242471
 20
39.8318483765
 30
0.0
 10
35.9004276036
 20
39.8659240064
 30
0.0
 10
35.9674967306
 20
39.8750394357
 30
0.0
 10
36.0014016929
 20
39.8750395172
 30
0.0
  0
SPLINE
  5
2E7
100
AcDbEntity
  8
0
100
AcDbSpline
 62
7
  6
BYLAYER
 70
0
 71
3
 72
9
 73
5
 74
0
 42
0.0000001
 43
0.0000001
 44
0.0000000001
 40
0.0
 40
0.0
 40
0.0
 40
0.0
 40
0.5022213777
 40
1.0
 40
1.0
 40
1.0
 40
1.0
 10
41.3754942442
 20
38.7176458372
 30
0.0
 10
41.3901975298
 20
38.7746824529
 30
0.0
 10
41.4096987478
 20
38.8910443183
 30
0.0
 10
41.4077224415
 20
39.0090452686
 30
0.0
 10
41.4014888073
 20
39.0670917502
 30
0.0
  0
SPLINE
  5
2E8
100
AcDbEntity
  8
0
100
AcDbSpline
 62
7
  6
BYLAYER
 70
0
 71
3
 72
9
 73
5
 74
0
 42
0.0000001
 43
0.0000001
 44
0.0000000001
 40
0.0
 40
0.0
 40
0.0
 40
0.0
 40
0.2447068971
 40
1.0
 40
1.0
 40
1.0
 40
1.0
 10
39.572703834
 20
26.1038071862
 30
0.0
 10
39.5619614491
 20
26.0976048894
 30
0.0
 10
39.5177288999
 20
26.072839293
 30
0.0
 10
39.4722311997
 20
26.0503494485
 30
0.0
 10
39.4373505575
 20
26.0345641539
 30
0.0
  0
SPLINE
  5
2E9
100
AcDbEntity
  8
0
100
AcDbSpline
 62
7
  6
BYLAYER
 70
0
 71
3
 72
15
 73
11
 74
0
 42
0.0000001
 43
0.0000001
 44
0.0000000001
 40
0.0
 40
0.0
 40
0.0
 40
0.0
 40
0.1171275895
 40
0.2408604997
 40
0.3692290544
 40
0.499983645
 40
0.6307383196
 40
0.7591107517
 40
0.8828348797
 40
1.0
 40
1.0
 40
1.0
 40
1.0
 10
39.4373505575
 20
26.0345641539
 30
0.0
 10
39.3697711493
 20
26.0039809763
 30
0.0
 10
39.226548712
 20
25.9502279541
 30
0.0
 10
38.9994109989
 20
25.8929672707
 30
0.0
 10
38.7590733644
 20
25.8579705904
 30
0.0
 10
38.5120666668
 20
25.8461984193
 30
0.0
 10
38.2650565226
 20
25.8579601028
 30
0.0
 10
38.0247222616
 20
25.8929548273
 30
0.0
 10
37.7975582568
 20
25.9501969838
 30
0.0
 10
37.6543209128
 20
26.0039638677
 30
0.0
 10
37.5867197733
 20
26.0345566748
 30
0.0
  0
SPLINE
  5
2EA
100
AcDbEntity
  8
0
100
AcDbSpline
 62
7
  6
BYLAYER
 70
0
 71
3
 72
9
 73
5
 74
0
 42
0.0000001
 43
0.0000001
 44
0.0000000001
 40
0.0
 40
0.0
 40
0.0
 40
0.0
 40
0.2554606677
 40
1.0
 40
1.0
 40
1.0
 40
1.0
 10
37.5867197733
 20
26.0345566748
 30
0.0
 10
37.5749224587
 20
26.039895534
 30
0.0
 10
37.52898618
 20
26.0613275034
 30
0.0
 10
37.4840493271
 20
26.0849217212
 30
0.0
 10
37.4513651626
 20
26.1037915054
 30
0.0
  0
LINE
  5
2EB
100
AcDbEntity
  8
0
100
AcDbLine
 62
7
  6
BYLAYER
 10
13.091222997
 20
38.7175778502
 11
13.0425568187
 21
39.1392233955
  0
LINE
  5
2EC
100
AcDbEntity
  8
0
100
AcDbLine
 62
7
  6
BYLAYER
 10
13.0425531552
 20
39.6472422906
 11
13.0912194483
 21
39.209687928
  0
SPLINE
  5
2ED
100
AcDbEntity
  8
0
100
AcDbSpline
 62
7
  6
BYLAYER
 70
0
 71
3
 72
13
 73
9
 74
0
 42
0.0000001
 43
0.0000001
 44
0.0000000001
 40
0.0
 40
0.0
 40
0.0
 40
0.0
 40
0.1111675623
 40
0.2254080617
 40
0.3439510835
 40
0.4675038977
 40
0.7277343458
 40
1.0
 40
1.0
 40
1.0
 40
1.0
 10
13.0425568187
 20
39.1392233955
 30
0.0
 10
13.040821671
 20
39.1542327128
 30
0.0
 10
13.0336420624
 20
39.1843509163
 30
0.0
 10
13.0127030837
 20
39.2265427318
 30
0.0
 10
12.9823827964
 20
39.2647390197
 30
0.0
 10
12.9302581773
 20
39.3093778838
 30
0.0
 10
12.8481680079
 20
39.3483167705
 30
0.0
 10
12.7753737379
 20
39.3586844385
 30
0.0
 10
12.7383688966
 20
39.3586843495
 30
0.0
  0
SPLINE
  5
2EE
100
AcDbEntity
  8
0
100
AcDbSpline
 62
7
  6
BYLAYER
 70
0
 71
3
 72
13
 73
9
 74
0
 42
0.0000001
 43
0.0000001
 44
0.0000000001
 40
0.0
 40
0.0
 40
0.0
 40
0.0
 40
0.2722664244
 40
0.5325017335
 40
0.6560563684
 40
0.7745997137
 40
0.8888358986
 40
1.0
 40
1.0
 40
1.0
 40
1.0
 10
7.7171341689
 20
39.35867228
 30
0.0
 10
7.6801291606
 20
39.358672191
 30
0.0
 10
7.607334079
 20
39.3483039179
 30
0.0
 10
7.525243034
 20
39.309363978
 30
0.0
 10
7.4731182092
 20
39.2647236221
 30
0.0
 10
7.4427988381
 20
39.2265269686
 30
0.0
 10
7.4218599502
 20
39.1843361349
 30
0.0
 10
7.4146812868
 20
39.1542187385
 30
0.0
 10
7.4129461871
 20
39.1392098636
 30
0.0
  0
LINE
  5
2EF
100
AcDbEntity
  8
0
100
AcDbLine
 62
7
  6
BYLAYER
 10
7.4129461871
 20
39.1392098636
 11
7.3642798941
 21
38.7175640843
  0
LINE
  5
2F0
100
AcDbEntity
  8
0
100
AcDbLine
 62
7
  6
BYLAYER
 10
7.3642763453
 20
39.2096741621
 11
7.4129425236
 21
39.6472287587
  0
SPLINE
  5
2F1
100
AcDbEntity
  8
0
100
AcDbSpline
 62
7
  6
BYLAYER
 70
0
 71
3
 72
16
 73
12
 74
0
 42
0.0000001
 43
0.0000001
 44
0.0000000001
 40
0.0
 40
0.0
 40
0.0
 40
0.0
 40
0.1141419491
 40
0.2373006744
 40
0.3669382461
 40
0.4999508312
 40
0.6329624907
 40
0.7626036032
 40
0.8857680626
 40
0.9441628335
 40
1.0
 40
1.0
 40
1.0
 40
1.0
 10
11.1470064296
 20
26.0220864765
 30
0.0
 10
11.0840788733
 20
25.985754276
 30
0.0
 10
10.9464758942
 20
25.921674976
 30
0.0
 10
10.7223956077
 20
25.8535642832
 30
0.0
 10
10.4797899137
 20
25.8116382142
 30
0.0
 10
10.2277782212
 20
25.7974898592
 30
0.0
 10
9.9757474159
 20
25.8116344756
 30
0.0
 10
9.7331829694
 20
25.8535444844
 30
0.0
 10
9.5430022627
 20
25.9113358838
 30
0.0
 10
9.4038854046
 20
25.9706702311
 30
0.0
 10
9.3392986279
 20
26.0042991488
 30
0.0
 10
9.3085146828
 20
26.0220718658
 30
0.0
  0
SPLINE
  5
2F2
100
AcDbEntity
  8
0
100
AcDbSpline
 62
7
  6
BYLAYER
 70
0
 71
3
 72
15
 73
11
 74
0
 42
0.0000001
 43
0.0000001
 44
0.0000000001
 40
0.0
 40
0.0
 40
0.0
 40
0.0
 40
0.1080131281
 40
0.2180612219
 40
0.3320010908
 40
0.4513569006
 40
0.5772797606
 40
0.7104997397
 40
0.8513973507
 40
1.0
 40
1.0
 40
1.0
 40
1.0
 10
11.7277496711
 20
26.7160897492
 30
0.0
 10
11.7277493841
 20
26.6876935607
 30
0.0
 10
11.7228063554
 20
26.6302526089
 30
0.0
 10
11.7008132084
 20
26.5454028443
 30
0.0
 10
11.6644674201
 20
26.462391962
 30
0.0
 10
11.6142884545
 20
26.382034797
 30
0.0
 10
11.5507894091
 20
26.3050913338
 30
0.0
 10
11.4746688268
 20
26.2322100035
 30
0.0
 10
11.386644263
 20
26.1640862184
 30
0.0
 10
11.3222653582
 20
26.1232731195
 30
0.0
 10
11.2884325868
 20
26.1037391992
 30
0.0
  0
SPLINE
  5
2F3
100
AcDbEntity
  8
0
100
AcDbSpline
 62
7
  6
BYLAYER
 70
0
 71
3
 72
30
 73
26
 74
0
 42
0.0000001
 43
0.0000001
 44
0.0000000001
 40
0.0
 40
0.0
 40
0.0
 40
0.0
 40
0.0214866213
 40
0.0430173414
 40
0.0648331733
 40
0.0871593429
 40
0.1101955438
 40
0.1341072241
 40
0.1590252939
 40
0.1850417336
 40
0.2122165874
 40
0.2405749405
 40
0.2701162661
 40
0.3008123045
 40
0.3654281197
 40
0.433848235
 40
0.5052414177
 40
0.578620791
 40
0.6529037479
 40
0.7269636514
 40
0.7996864719
 40
0.8700192855
 40
0.9370349915
 40
0.9690753292
 40
1.0
 40
1.0
 40
1.0
 40
1.0
 10
13.2219963007
 20
38.090970323
 30
0.0
 10
13.2266530693
 20
38.0475765317
 30
0.0
 10
13.2303451886
 20
37.9599835259
 30
0.0
 10
13.218537776
 20
37.8284666848
 30
0.0
 10
13.1894984942
 20
37.6979001848
 30
0.0
 10
13.143434746
 20
37.5691051218
 30
0.0
 10
13.0806625358
 20
37.4428362114
 30
0.0
 10
13.0016180958
 20
37.319795781
 30
0.0
 10
12.9067635056
 20
37.2006869012
 30
0.0
 10
12.7967020764
 20
37.0861279503
 30
0.0
 10
12.6720387022
 20
36.976780169
 30
0.0
 10
12.5335214659
 20
36.8732019999
 30
0.0
 10
12.3819071257
 20
36.7759972615
 30
0.0
 10
12.1596842639
 20
36.6534931386
 30
0.0
 10
11.853938599
 20
36.5205643203
 30
0.0
 10
11.4568989327
 20
36.3966854591
 30
0.0
 10
11.0322905551
 20
36.3084614518
 30
0.0
 10
10.5896498638
 20
36.2578629642
 30
0.0
 10
10.1388820675
 20
36.2460205745
 30
0.0
 10
9.690112998
 20
36.2731929363
 30
0.0
 10
9.253401208
 20
36.338786278
 30
0.0
 10
8.8385586951
 20
36.4413112495
 30
0.0
 10
8.5138862034
 20
36.5573875087
 30
0.0
 10
8.2737574296
 20
36.6674200532
 30
0.0
 10
8.1608363043
 20
36.727684571
 30
0.0
 10
8.1064381595
 20
36.759090644
 30
0.0
  0
SPLINE
  5
2F4
100
AcDbEntity
  8
0
100
AcDbSpline
 62
7
  6
BYLAYER
 70
0
 71
3
 72
14
 73
10
 74
0
 42
0.0000001
 43
0.0000001
 44
0.0000000001
 40
0.0
 40
0.0
 40
0.0
 40
0.0
 40
0.1156748669
 40
0.2328619258
 40
0.3523253746
 40
0.4746178943
 40
0.7292276506
 40
0.8626012947
 40
1.0
 40
1.0
 40
1.0
 40
1.0
 10
13.0364992173
 20
39.6789569574
 30
0.0
 10
13.0228968542
 20
39.7289765623
 30
0.0
 10
12.9889992799
 20
39.8280092185
 30
0.0
 10
12.9199775879
 20
39.9703879543
 30
0.0
 10
12.8336308771
 20
40.1064942851
 30
0.0
 10
12.6952303048
 20
40.2810415949
 30
0.0
 10
12.5273121697
 20
40.4384054754
 30
0.0
 10
12.3373357519
 20
40.5776690648
 30
0.0
 10
12.2342714704
 20
40.6419742608
 30
0.0
 10
12.1809491116
 20
40.6727592426
 30
0.0
  0
SPLINE
  5
2F5
100
AcDbEntity
  8
0
100
AcDbSpline
 62
7
  6
BYLAYER
 70
0
 71
3
 72
24
 73
20
 74
0
 42
0.0000001
 43
0.0000001
 44
0.0000000001
 40
0.0
 40
0.0
 40
0.0
 40
0.0
 40
0.0609306188
 40
0.1247951288
 40
0.1911652132
 40
0.2595133873
 40
0.3291453757
 40
0.399302421
 40
0.4691920675
 40
0.5380380318
 40
0.6051265696
 40
0.6698531715
 40
0.731772255
 40
0.7906491568
 40
0.8464989104
 40
0.8996176513
 40
0.9505230217
 40
0.9753879628
 40
1.0
 40
1.0
 40
1.0
 40
1.0
 10
12.1809491116
 20
40.6727592426
 30
0.0
 10
12.0858725724
 20
40.7276504662
 30
0.0
 10
11.8841854982
 20
40.8283142571
 30
0.0
 10
11.5611474615
 20
40.9493325473
 30
0.0
 10
11.2152385705
 20
41.0427691192
 30
0.0
 10
10.8523297609
 20
41.1074909793
 30
0.0
 10
10.478536032
 20
41.1425709863
 30
0.0
 10
10.1003668107
 20
41.1475129198
 30
0.0
 10
9.7244242432
 20
41.1222417148
 30
0.0
 10
9.3572537899
 20
41.0671307856
 30
0.0
 10
9.0051543241
 20
40.982956478
 30
0.0
 10
8.6740254625
 20
40.8708105554
 30
0.0
 10
8.369254976
 20
40.7319673889
 30
0.0
 10
8.0957352708
 20
40.5677181257
 30
0.0
 10
7.8579834297
 20
40.3792160348
 30
0.0
 10
7.6607763703
 20
40.1676018812
 30
0.0
 10
7.5335135116
 20
39.9715366748
 30
0.0
 10
7.4587848494
 20
39.8065375165
 30
0.0
 10
7.4306319747
 20
39.7217326889
 30
0.0
 10
7.418995732
 20
39.6789408014
 30
0.0
  0
SPLINE
  5
2F6
100
AcDbEntity
  8
0
100
AcDbSpline
 62
7
  6
BYLAYER
 70
0
 71
3
 72
18
 73
14
 74
0
 42
0.0000001
 43
0.0000001
 44
0.0000000001
 40
0.0
 40
0.0
 40
0.0
 40
0.0
 40
0.1497395598
 40
0.2911502499
 40
0.4241908483
 40
0.4877701297
 40
0.549508346
 40
0.6679568274
 40
0.7811076704
 40
0.8363555473
 40
0.8910546298
 40
0.9455017591
 40
1.0
 40
1.0
 40
1.0
 40
1.0
 10
8.1064381595
 20
36.759090644
 30
0.0
 10
8.0336033796
 20
36.8011408725
 30
0.0
 10
7.8955109985
 20
36.8892853026
 30
0.0
 10
7.7084235858
 20
37.0374900702
 30
0.0
 10
7.5737568887
 20
37.1720749454
 30
0.0
 10
7.4817131539
 20
37.2843898598
 30
0.0
 10
7.4024047295
 20
37.3961029463
 30
0.0
 10
7.3217864287
 20
37.5405652535
 30
0.0
 10
7.2669434864
 20
37.6929555156
 30
0.0
 10
7.2405241329
 20
37.8155913402
 30
0.0
 10
7.229275071
 20
37.9073700633
 30
0.0
 10
7.2264662143
 20
37.9993607125
 30
0.0
 10
7.2302295729
 20
38.0605363394
 30
0.0
 10
7.2334984799
 20
38.0909704647
 30
0.0
  0
SPLINE
  5
2F7
100
AcDbEntity
  8
0
100
AcDbSpline
 62
7
  6
BYLAYER
 70
0
 71
3
 72
15
 73
11
 74
0
 42
0.0000001
 43
0.0000001
 44
0.0000000001
 40
0.0
 40
0.0
 40
0.0
 40
0.0
 40
0.1485263577
 40
0.2895010829
 40
0.4227415638
 40
0.5486452136
 40
0.6679959928
 40
0.7819398889
 40
0.8919882913
 40
1.0
 40
1.0
 40
1.0
 40
1.0
 10
9.1670939153
 20
26.1037235184
 30
0.0
 10
9.1332767412
 20
26.1232474313
 30
0.0
 10
9.0688985829
 20
26.1640672781
 30
0.0
 10
8.9808571637
 20
26.2321849978
 30
0.0
 10
8.9047121827
 20
26.3050777068
 30
0.0
 10
8.841216863
 20
26.3820283218
 30
0.0
 10
8.7910398619
 20
26.4623842998
 30
0.0
 10
8.7546877727
 20
26.5453960942
 30
0.0
 10
8.7326916051
 20
26.6302497128
 30
0.0
 10
8.7277493842
 20
26.68769281
 30
0.0
 10
8.7277496712
 20
26.7160897492
 30
0.0
  0
SPLINE
  5
2F8
100
AcDbEntity
  8
0
100
AcDbSpline
 62
7
  6
BYLAYER
 70
0
 71
3
 72
14
 73
10
 74
0
 42
0.0000001
 43
0.0000001
 44
0.0000000001
 40
0.0
 40
0.0
 40
0.0
 40
0.0
 40
0.1081800209
 40
0.2199447201
 40
0.336095302
 40
0.4573168402
 40
0.7165914721
 40
0.8553567523
 40
1.0
 40
1.0
 40
1.0
 40
1.0
 10
7.4129461871
 20
39.1392098636
 30
0.0
 10
7.4246429859
 20
39.0960062582
 30
0.0
 10
7.4542819737
 20
39.0096585135
 30
0.0
 10
7.5153919194
 20
38.884404273
 30
0.0
 10
7.5933875355
 20
38.7624530353
 30
0.0
 10
7.7219252957
 20
38.6017413069
 30
0.0
 10
7.8803312247
 20
38.4546027673
 30
0.0
 10
8.0617504759
 20
38.3221326922
 30
0.0
 10
8.1613957626
 20
38.2600681712
 30
0.0
 10
8.2132237576
 20
38.2301459413
 30
0.0
  0
SPLINE
  5
2F9
100
AcDbEntity
  8
0
100
AcDbSpline
 62
7
  6
BYLAYER
 70
0
 71
3
 72
13
 73
9
 74
0
 42
0.0000001
 43
0.0000001
 44
0.0000000001
 40
0.0
 40
0.0
 40
0.0
 40
0.0
 40
0.2665363672
 40
0.5245059849
 40
0.6487626846
 40
0.7691907283
 40
0.8860185102
 40
1.0
 40
1.0
 40
1.0
 40
1.0
 10
12.7383651734
 20
39.8749835998
 30
0.0
 10
12.7722698659
 20
39.8749836813
 30
0.0
 10
12.839339018
 20
39.8658686541
 30
0.0
 10
12.9159425395
 20
39.8317932253
 30
0.0
 10
12.9667653135
 20
39.7925685899
 30
0.0
 10
12.9980815324
 20
39.7585610056
 30
0.0
 10
13.0220477061
 20
39.7205584909
 30
0.0
 10
13.0326890059
 20
39.692946812
 30
0.0
 10
13.036493597
 20
39.6789558965
 30
0.0
  0
SPLINE
  5
2FA
100
AcDbEntity
  8
0
100
AcDbSpline
 62
7
  6
BYLAYER
 70
0
 71
3
 72
23
 73
19
 74
0
 42
0.0000001
 43
0.0000001
 44
0.0000000001
 40
0.0
 40
0.0
 40
0.0
 40
0.0
 40
0.0606971286
 40
0.1250179118
 40
0.1923702261
 40
0.2620665266
 40
0.3332995781
 40
0.4052103061
 40
0.4769116432
 40
0.5475249196
 40
0.6162132759
 40
0.6822164095
 40
0.7448888861
 40
0.803744408
 40
0.8585099818
 40
0.9091800101
 40
0.9561043657
 40
1.0
 40
1.0
 40
1.0
 40
1.0
 10
8.4245476857
 20
38.5757550025
 30
0.0
 10
8.5091046793
 20
38.5269371039
 30
0.0
 10
8.6894719628
 20
38.4368947095
 30
0.0
 10
8.9795269852
 20
38.3277738412
 30
0.0
 10
9.2924217544
 20
38.2422865948
 30
0.0
 10
9.6223798839
 20
38.1819640382
 30
0.0
 10
9.9634243069
 20
38.1479172519
 30
0.0
 10
10.3093039926
 20
38.1407623523
 30
0.0
 10
10.6536913722
 20
38.1606321782
 30
0.0
 10
10.9902835859
 20
38.2071604141
 30
0.0
 10
11.3129323186
 20
38.2794981628
 30
0.0
 10
11.6157610602
 20
38.3763376117
 30
0.0
 10
11.8932747822
 20
38.4959493783
 30
0.0
 10
12.1404693879
 20
38.6362383375
 30
0.0
 10
12.3528726207
 20
38.7948131629
 30
0.0
 10
12.5266440504
 20
38.9691096182
 30
0.0
 10
12.6582957365
 20
39.1562494387
 30
0.0
 10
12.7175553474
 20
39.2912110457
 30
0.0
 10
12.7383688966
 20
39.3586843495
 30
0.0
  0
SPLINE
  5
2FB
100
AcDbEntity
  8
0
100
AcDbSpline
 62
7
  6
BYLAYER
 70
0
 71
3
 72
14
 73
10
 74
0
 42
0.0000001
 43
0.0000001
 44
0.0000000001
 40
0.0
 40
0.0
 40
0.0
 40
0.0
 40
0.1084316043
 40
0.2205270208
 40
0.3369904914
 40
0.4584235591
 40
0.7176032705
 40
0.8559754836
 40
1.0
 40
1.0
 40
1.0
 40
1.0
 10
7.7171341689
 20
39.35867228
 30
0.0
 10
7.7286309309
 20
39.3214039079
 30
0.0
 10
7.7568356695
 20
39.2470203843
 30
0.0
 10
7.8128850374
 20
39.139272926
 30
0.0
 10
7.8829631132
 20
39.0344034837
 30
0.0
 10
7.9968785497
 20
38.8962874874
 30
0.0
 10
8.1354951867
 20
38.7696519993
 30
0.0
 10
8.2933152385
 20
38.655319233
 30
0.0
 10
8.379684147
 20
38.6016563927
 30
0.0
 10
8.4245476857
 20
38.5757550025
 30
0.0
  0
SPLINE
  5
2FC
100
AcDbEntity
  8
0
100
AcDbSpline
 62
7
  6
BYLAYER
 70
0
 71
3
 72
24
 73
20
 74
0
 42
0.0000001
 43
0.0000001
 44
0.0000000001
 40
0.0
 40
0.0
 40
0.0
 40
0.0
 40
0.0609006468
 40
0.1254599186
 40
0.1930825223
 40
0.2630544371
 40
0.3345498973
 40
0.4066881417
 40
0.478562
 40
0.5492747917
 40
0.6179748296
 40
0.6838926759
 40
0.746381837
 40
0.8049649735
 40
0.8593902894
 40
0.9096921812
 40
0.9562735037
 40
0.9784394962
 40
1.0
 40
1.0
 40
1.0
 40
1.0
 10
8.2132237576
 20
38.2301459413
 30
0.0
 10
8.3086404212
 20
38.1750583511
 30
0.0
 10
8.5122775159
 20
38.0735469045
 30
0.0
 10
8.839889236
 20
37.9508538871
 30
0.0
 10
9.1933770289
 20
37.8551043265
 30
0.0
 10
9.5661080319
 20
37.7880648986
 30
0.0
 10
9.9511851776
 20
37.7509833302
 30
0.0
 10
10.3414191356
 20
37.7445431078
 30
0.0
 10
10.7295335828
 20
37.7688683937
 30
0.0
 10
11.1082890554
 20
37.8235049356
 30
0.0
 10
11.4706336116
 20
37.907440222
 30
0.0
 10
11.8098425878
 20
38.0191252056
 30
0.0
 10
12.1196494864
 20
38.1565325397
 30
0.0
 10
12.3943611078
 20
38.317202602
 30
0.0
 10
12.6289294487
 20
38.4984057932
 30
0.0
 10
12.8189432424
 20
38.6970354397
 30
0.0
 10
12.9389701796
 20
38.877638636
 30
0.0
 10
13.0072557533
 20
39.0263475257
 30
0.0
 10
13.0323640338
 20
39.1015730012
 30
0.0
 10
13.0425568187
 20
39.1392233955
 30
0.0
  0
SPLINE
  5
2FD
100
AcDbEntity
  8
0
100
AcDbSpline
 62
7
  6
BYLAYER
 70
0
 71
3
 72
23
 73
19
 74
0
 42
0.0000001
 43
0.0000001
 44
0.0000000001
 40
0.0
 40
0.0
 40
0.0
 40
0.0
 40
0.0606971286
 40
0.1250179118
 40
0.1923702261
 40
0.2620665266
 40
0.3332995781
 40
0.4052103061
 40
0.4769116432
 40
0.5475249196
 40
0.6162132759
 40
0.6822164095
 40
0.7448888861
 40
0.803744408
 40
0.8585099818
 40
0.9091800101
 40
0.9561043657
 40
1.0
 40
1.0
 40
1.0
 40
1.0
 10
12.0309516566
 20
40.6579008772
 30
0.0
 10
11.946394663
 20
40.7067187758
 30
0.0
 10
11.7660273795
 20
40.7967611703
 30
0.0
 10
11.4759723571
 20
40.9058820385
 30
0.0
 10
11.1630775879
 20
40.991369285
 30
0.0
 10
10.8331194584
 20
41.0516918416
 30
0.0
 10
10.4920750355
 20
41.0857386278
 30
0.0
 10
10.1461953497
 20
41.0928935274
 30
0.0
 10
9.8018079701
 20
41.0730237015
 30
0.0
 10
9.4652157564
 20
41.0264954657
 30
0.0
 10
9.1425670237
 20
40.954157717
 30
0.0
 10
8.8397382822
 20
40.8573182681
 30
0.0
 10
8.5622245601
 20
40.7377065015
 30
0.0
 10
8.3150299544
 20
40.5974175422
 30
0.0
 10
8.1026267216
 20
40.4388427168
 30
0.0
 10
7.9288552919
 20
40.2645462616
 30
0.0
 10
7.7972036058
 20
40.0774064411
 30
0.0
 10
7.7379439949
 20
39.942444834
 30
0.0
 10
7.7171304457
 20
39.8749715302
 30
0.0
  0
SPLINE
  5
2FE
100
AcDbEntity
  8
0
100
AcDbSpline
 62
7
  6
BYLAYER
 70
0
 71
3
 72
14
 73
10
 74
0
 42
0.0000001
 43
0.0000001
 44
0.0000000001
 40
0.0
 40
0.0
 40
0.0
 40
0.0
 40
0.1084316043
 40
0.2205270208
 40
0.3369904914
 40
0.4584235591
 40
0.7176032705
 40
0.8559754836
 40
1.0
 40
1.0
 40
1.0
 40
1.0
 10
12.7383651734
 20
39.8749835998
 30
0.0
 10
12.7268684114
 20
39.9122519719
 30
0.0
 10
12.6986636728
 20
39.9866354954
 30
0.0
 10
12.6426143049
 20
40.0943829538
 30
0.0
 10
12.5725362291
 20
40.199252396
 30
0.0
 10
12.4586207926
 20
40.3373683923
 30
0.0
 10
12.3200041556
 20
40.4640038804
 30
0.0
 10
12.1621841038
 20
40.5783366467
 30
0.0
 10
12.0758151953
 20
40.631999487
 30
0.0
 10
12.0309516566
 20
40.6579008772
 30
0.0
  0
SPLINE
  5
2FF
100
AcDbEntity
  8
0
100
AcDbSpline
 62
7
  6
BYLAYER
 70
0
 71
3
 72
9
 73
5
 74
0
 42
0.0000001
 43
0.0000001
 44
0.0000000001
 40
0.0
 40
0.0
 40
0.0
 40
0.0
 40
0.4977783232
 40
1.0
 40
1.0
 40
1.0
 40
1.0
 10
7.3382817827
 20
39.0670237632
 30
0.0
 10
7.3320479014
 20
39.0089749803
 30
0.0
 10
7.3300719405
 20
38.8909692143
 30
0.0
 10
7.3495752195
 20
38.7746028262
 30
0.0
 10
7.3642798941
 20
38.7175640843
 30
0.0
  0
SPLINE
  5
300
100
AcDbEntity
  8
0
100
AcDbSpline
 62
7
  6
BYLAYER
 70
0
 71
3
 72
13
 73
9
 74
0
 42
0.0000001
 43
0.0000001
 44
0.0000000001
 40
0.0
 40
0.0
 40
0.0
 40
0.0
 40
0.1139871521
 40
0.2308165878
 40
0.3512434399
 40
0.475498341
 40
0.7334638369
 40
1.0
 40
1.0
 40
1.0
 40
1.0
 10
7.4190016297
 20
39.6789396885
 30
0.0
 10
7.422806371
 20
39.6929314406
 30
0.0
 10
7.4334472063
 20
39.7205445906
 30
0.0
 10
7.4574143493
 20
39.7585479799
 30
0.0
 10
7.488730727
 20
39.7925556639
 30
0.0
 10
7.5395529998
 20
39.8317803895
 30
0.0
 10
7.6161563564
 20
39.8658560194
 30
0.0
 10
7.6832254834
 20
39.8749714487
 30
0.0
 10
7.7171304457
 20
39.8749715302
 30
0.0
  0
SPLINE
  5
301
100
AcDbEntity
  8
0
100
AcDbSpline
 62
7
  6
BYLAYER
 70
0
 71
3
 72
9
 73
5
 74
0
 42
0.0000001
 43
0.0000001
 44
0.0000000001
 40
0.0
 40
0.0
 40
0.0
 40
0.0
 40
0.5022213777
 40
1.0
 40
1.0
 40
1.0
 40
1.0
 10
13.091222997
 20
38.7175778502
 30
0.0
 10
13.1059262826
 20
38.7746144659
 30
0.0
 10
13.1254275005
 20
38.8909763313
 30
0.0
 10
13.1234511943
 20
39.0089772816
 30
0.0
 10
13.1172175601
 20
39.0670237632
 30
0.0
  0
SPLINE
  5
302
100
AcDbEntity
  8
0
100
AcDbSpline
 62
7
  6
BYLAYER
 70
0
 71
3
 72
9
 73
5
 74
0
 42
0.0000001
 43
0.0000001
 44
0.0000000001
 40
0.0
 40
0.0
 40
0.0
 40
0.0
 40
0.2447068971
 40
1.0
 40
1.0
 40
1.0
 40
1.0
 10
11.2884325868
 20
26.1037391992
 30
0.0
 10
11.2776902019
 20
26.0975369023
 30
0.0
 10
11.2334576527
 20
26.072771306
 30
0.0
 10
11.1879599525
 20
26.0502814615
 30
0.0
 10
11.1530793103
 20
26.0344961668
 30
0.0
  0
SPLINE
  5
303
100
AcDbEntity
  8
0
100
AcDbSpline
 62
7
  6
BYLAYER
 70
0
 71
3
 72
15
 73
11
 74
0
 42
0.0000001
 43
0.0000001
 44
0.0000000001
 40
0.0
 40
0.0
 40
0.0
 40
0.0
 40
0.1171275895
 40
0.2408604997
 40
0.3692290544
 40
0.499983645
 40
0.6307383196
 40
0.7591107517
 40
0.8828348797
 40
1.0
 40
1.0
 40
1.0
 40
1.0
 10
11.1530793103
 20
26.0344961668
 30
0.0
 10
11.0854999021
 20
26.0039129893
 30
0.0
 10
10.9422774648
 20
25.9501599671
 30
0.0
 10
10.7151397517
 20
25.8928992837
 30
0.0
 10
10.4748021172
 20
25.8579026034
 30
0.0
 10
10.2277954196
 20
25.8461304323
 30
0.0
 10
9.9807852754
 20
25.8578921158
 30
0.0
 10
9.7404510144
 20
25.8928868402
 30
0.0
 10
9.5132870096
 20
25.9501289968
 30
0.0
 10
9.3700496656
 20
26.0038958807
 30
0.0
 10
9.3024485261
 20
26.0344886877
 30
0.0
  0
SPLINE
  5
304
100
AcDbEntity
  8
0
100
AcDbSpline
 62
7
  6
BYLAYER
 70
0
 71
3
 72
9
 73
5
 74
0
 42
0.0000001
 43
0.0000001
 44
0.0000000001
 40
0.0
 40
0.0
 40
0.0
 40
0.0
 40
0.2554606677
 40
1.0
 40
1.0
 40
1.0
 40
1.0
 10
9.3024485261
 20
26.0344886877
 30
0.0
 10
9.2906512115
 20
26.039827547
 30
0.0
 10
9.2447149327
 20
26.0612595164
 30
0.0
 10
9.1997780798
 20
26.0848537341
 30
0.0
 10
9.1670939153
 20
26.1037235184
 30
0.0
  0
LINE
  5
305
100
AcDbEntity
  8
0
100
AcDbLine
 62
7
  6
BYLAYER
 10
27.2334175
 20
30.5527627598
 11
27.1847513217
 21
30.9744083051
  0
LINE
  5
306
100
AcDbEntity
  8
0
100
AcDbLine
 62
7
  6
BYLAYER
 10
27.1847476582
 20
31.4824272002
 11
27.2334139512
 21
31.0448728376
  0
SPLINE
  5
307
100
AcDbEntity
  8
0
100
AcDbSpline
 62
7
  6
BYLAYER
 70
0
 71
3
 72
13
 73
9
 74
0
 42
0.0000001
 43
0.0000001
 44
0.0000000001
 40
0.0
 40
0.0
 40
0.0
 40
0.0
 40
0.1111675623
 40
0.2254080617
 40
0.3439510835
 40
0.4675038977
 40
0.7277343458
 40
1.0
 40
1.0
 40
1.0
 40
1.0
 10
27.1847513217
 20
30.9744083051
 30
0.0
 10
27.1830161739
 20
30.9894176224
 30
0.0
 10
27.1758365653
 20
31.0195358259
 30
0.0
 10
27.1548975866
 20
31.0617276414
 30
0.0
 10
27.1245772993
 20
31.0999239293
 30
0.0
 10
27.0724526802
 20
31.1445627934
 30
0.0
 10
26.9903625108
 20
31.1835016801
 30
0.0
 10
26.9175682409
 20
31.1938693481
 30
0.0
 10
26.8805633996
 20
31.1938692591
 30
0.0
  0
SPLINE
  5
308
100
AcDbEntity
  8
0
100
AcDbSpline
 62
7
  6
BYLAYER
 70
0
 71
3
 72
13
 73
9
 74
0
 42
0.0000001
 43
0.0000001
 44
0.0000000001
 40
0.0
 40
0.0
 40
0.0
 40
0.0
 40
0.2722664244
 40
0.5325017335
 40
0.6560563684
 40
0.7745997137
 40
0.8888358986
 40
1.0
 40
1.0
 40
1.0
 40
1.0
 10
21.8593286718
 20
31.1938571896
 30
0.0
 10
21.8223236635
 20
31.1938571006
 30
0.0
 10
21.749528582
 20
31.1834888275
 30
0.0
 10
21.6674375369
 20
31.1445488876
 30
0.0
 10
21.6153127122
 20
31.0999085317
 30
0.0
 10
21.584993341
 20
31.0617118782
 30
0.0
 10
21.5640544531
 20
31.0195210445
 30
0.0
 10
21.5568757898
 20
30.9894036481
 30
0.0
 10
21.55514069
 20
30.9743947732
 30
0.0
  0
LINE
  5
309
100
AcDbEntity
  8
0
100
AcDbLine
 62
7
  6
BYLAYER
 10
21.55514069
 20
30.9743947732
 11
21.506474397
 21
30.5527489939
  0
LINE
  5
30A
100
AcDbEntity
  8
0
100
AcDbLine
 62
7
  6
BYLAYER
 10
21.5064708482
 20
31.0448590717
 11
21.5551370265
 21
31.4824136683
  0
SPLINE
  5
30B
100
AcDbEntity
  8
0
100
AcDbSpline
 62
7
  6
BYLAYER
 70
0
 71
3
 72
16
 73
12
 74
0
 42
0.0000001
 43
0.0000001
 44
0.0000000001
 40
0.0
 40
0.0
 40
0.0
 40
0.0
 40
0.1141419491
 40
0.2373006744
 40
0.3669382461
 40
0.4999508312
 40
0.6329624907
 40
0.7626036032
 40
0.8857680626
 40
0.9441628335
 40
1.0
 40
1.0
 40
1.0
 40
1.0
 10
25.2892009325
 20
17.8572713861
 30
0.0
 10
25.2262733762
 20
17.8209391856
 30
0.0
 10
25.0886703971
 20
17.7568598856
 30
0.0
 10
24.8645901107
 20
17.6887491928
 30
0.0
 10
24.6219844166
 20
17.6468231238
 30
0.0
 10
24.3699727242
 20
17.6326747688
 30
0.0
 10
24.1179419188
 20
17.6468193852
 30
0.0
 10
23.8753774724
 20
17.688729394
 30
0.0
 10
23.6851967657
 20
17.7465207934
 30
0.0
 10
23.5460799075
 20
17.8058551407
 30
0.0
 10
23.4814931308
 20
17.8394840584
 30
0.0
 10
23.4507091857
 20
17.8572567754
 30
0.0
  0
SPLINE
  5
30C
100
AcDbEntity
  8
0
100
AcDbSpline
 62
7
  6
BYLAYER
 70
0
 71
3
 72
15
 73
11
 74
0
 42
0.0000001
 43
0.0000001
 44
0.0000000001
 40
0.0
 40
0.0
 40
0.0
 40
0.0
 40
0.1080131281
 40
0.2180612219
 40
0.3320010908
 40
0.4513569006
 40
0.5772797606
 40
0.7104997397
 40
0.8513973507
 40
1.0
 40
1.0
 40
1.0
 40
1.0
 10
25.8699441741
 20
18.5512746588
 30
0.0
 10
25.8699438871
 20
18.5228784703
 30
0.0
 10
25.8650008583
 20
18.4654375185
 30
0.0
 10
25.8430077114
 20
18.3805877538
 30
0.0
 10
25.806661923
 20
18.2975768716
 30
0.0
 10
25.7564829575
 20
18.2172197066
 30
0.0
 10
25.692983912
 20
18.1402762434
 30
0.0
 10
25.6168633298
 20
18.0673949131
 30
0.0
 10
25.5288387659
 20
17.999271128
 30
0.0
 10
25.4644598611
 20
17.9584580291
 30
0.0
 10
25.4306270897
 20
17.9389241088
 30
0.0
  0
SPLINE
  5
30D
100
AcDbEntity
  8
0
100
AcDbSpline
 62
7
  6
BYLAYER
 70
0
 71
3
 72
30
 73
26
 74
0
 42
0.0000001
 43
0.0000001
 44
0.0000000001
 40
0.0
 40
0.0
 40
0.0
 40
0.0
 40
0.0214866213
 40
0.0430173414
 40
0.0648331733
 40
0.0871593429
 40
0.1101955438
 40
0.1341072241
 40
0.1590252939
 40
0.1850417336
 40
0.2122165874
 40
0.2405749405
 40
0.2701162661
 40
0.3008123045
 40
0.3654281197
 40
0.433848235
 40
0.5052414177
 40
0.578620791
 40
0.6529037479
 40
0.7269636514
 40
0.7996864719
 40
0.8700192855
 40
0.9370349915
 40
0.9690753292
 40
1.0
 40
1.0
 40
1.0
 40
1.0
 10
27.3641908037
 20
29.9261552326
 30
0.0
 10
27.3688475723
 20
29.8827614413
 30
0.0
 10
27.3725396915
 20
29.7951684355
 30
0.0
 10
27.360732279
 20
29.6636515944
 30
0.0
 10
27.3316929971
 20
29.5330850944
 30
0.0
 10
27.2856292489
 20
29.4042900314
 30
0.0
 10
27.2228570387
 20
29.278021121
 30
0.0
 10
27.1438125987
 20
29.1549806906
 30
0.0
 10
27.0489580086
 20
29.0358718108
 30
0.0
 10
26.9388965793
 20
28.9213128599
 30
0.0
 10
26.8142332051
 20
28.8119650786
 30
0.0
 10
26.6757159688
 20
28.7083869095
 30
0.0
 10
26.5241016287
 20
28.6111821711
 30
0.0
 10
26.3018787668
 20
28.4886780482
 30
0.0
 10
25.996133102
 20
28.3557492299
 30
0.0
 10
25.5990934356
 20
28.2318703687
 30
0.0
 10
25.1744850581
 20
28.1436463614
 30
0.0
 10
24.7318443667
 20
28.0930478738
 30
0.0
 10
24.2810765705
 20
28.0812054841
 30
0.0
 10
23.8323075009
 20
28.1083778459
 30
0.0
 10
23.3955957109
 20
28.1739711876
 30
0.0
 10
22.980753198
 20
28.2764961591
 30
0.0
 10
22.6560807063
 20
28.3925724183
 30
0.0
 10
22.4159519325
 20
28.5026049628
 30
0.0
 10
22.3030308072
 20
28.5628694806
 30
0.0
 10
22.2486326625
 20
28.5942755536
 30
0.0
  0
SPLINE
  5
30E
100
AcDbEntity
  8
0
100
AcDbSpline
 62
7
  6
BYLAYER
 70
0
 71
3
 72
14
 73
10
 74
0
 42
0.0000001
 43
0.0000001
 44
0.0000000001
 40
0.0
 40
0.0
 40
0.0
 40
0.0
 40
0.1156748669
 40
0.2328619258
 40
0.3523253746
 40
0.4746178943
 40
0.7292276506
 40
0.8626012947
 40
1.0
 40
1.0
 40
1.0
 40
1.0
 10
27.1786937202
 20
31.514141867
 30
0.0
 10
27.1650913571
 20
31.5641614719
 30
0.0
 10
27.1311937829
 20
31.6631941281
 30
0.0
 10
27.0621720908
 20
31.8055728639
 30
0.0
 10
26.97582538
 20
31.9416791947
 30
0.0
 10
26.8374248077
 20
32.1162265045
 30
0.0
 10
26.6695066727
 20
32.273590385
 30
0.0
 10
26.4795302549
 20
32.4128539744
 30
0.0
 10
26.3764659733
 20
32.4771591704
 30
0.0
 10
26.3231436145
 20
32.5079441522
 30
0.0
  0
SPLINE
  5
30F
100
AcDbEntity
  8
0
100
AcDbSpline
 62
7
  6
BYLAYER
 70
0
 71
3
 72
24
 73
20
 74
0
 42
0.0000001
 43
0.0000001
 44
0.0000000001
 40
0.0
 40
0.0
 40
0.0
 40
0.0
 40
0.0609306188
 40
0.1247951288
 40
0.1911652132
 40
0.2595133873
 40
0.3291453757
 40
0.399302421
 40
0.4691920675
 40
0.5380380318
 40
0.6051265696
 40
0.6698531715
 40
0.731772255
 40
0.7906491568
 40
0.8464989104
 40
0.8996176513
 40
0.9505230217
 40
0.9753879628
 40
1.0
 40
1.0
 40
1.0
 40
1.0
 10
26.3231436145
 20
32.5079441522
 30
0.0
 10
26.2280670754
 20
32.5628353758
 30
0.0
 10
26.0263800012
 20
32.6634991667
 30
0.0
 10
25.7033419645
 20
32.7845174569
 30
0.0
 10
25.3574330734
 20
32.8779540288
 30
0.0
 10
24.9945242638
 20
32.9426758888
 30
0.0
 10
24.620730535
 20
32.9777558959
 30
0.0
 10
24.2425613136
 20
32.9826978294
 30
0.0
 10
23.8666187461
 20
32.9574266244
 30
0.0
 10
23.4994482928
 20
32.9023156952
 30
0.0
 10
23.1473488271
 20
32.8181413876
 30
0.0
 10
22.8162199655
 20
32.7059954649
 30
0.0
 10
22.5114494789
 20
32.5671522985
 30
0.0
 10
22.2379297737
 20
32.4029030353
 30
0.0
 10
22.0001779327
 20
32.2144009444
 30
0.0
 10
21.8029708732
 20
32.0027867908
 30
0.0
 10
21.6757080145
 20
31.8067215844
 30
0.0
 10
21.6009793523
 20
31.6417224261
 30
0.0
 10
21.5728264777
 20
31.5569175984
 30
0.0
 10
21.561190235
 20
31.514125711
 30
0.0
  0
SPLINE
  5
310
100
AcDbEntity
  8
0
100
AcDbSpline
 62
7
  6
BYLAYER
 70
0
 71
3
 72
18
 73
14
 74
0
 42
0.0000001
 43
0.0000001
 44
0.0000000001
 40
0.0
 40
0.0
 40
0.0
 40
0.0
 40
0.1497395598
 40
0.2911502499
 40
0.4241908483
 40
0.4877701297
 40
0.549508346
 40
0.6679568274
 40
0.7811076704
 40
0.8363555473
 40
0.8910546298
 40
0.9455017591
 40
1.0
 40
1.0
 40
1.0
 40
1.0
 10
22.2486326625
 20
28.5942755536
 30
0.0
 10
22.1757978826
 20
28.6363257821
 30
0.0
 10
22.0377055015
 20
28.7244702122
 30
0.0
 10
21.8506180887
 20
28.8726749798
 30
0.0
 10
21.7159513916
 20
29.007259855
 30
0.0
 10
21.6239076568
 20
29.1195747694
 30
0.0
 10
21.5445992324
 20
29.2312878559
 30
0.0
 10
21.4639809317
 20
29.3757501631
 30
0.0
 10
21.4091379893
 20
29.5281404252
 30
0.0
 10
21.3827186359
 20
29.6507762498
 30
0.0
 10
21.371469574
 20
29.7425549729
 30
0.0
 10
21.3686607173
 20
29.8345456221
 30
0.0
 10
21.3724240758
 20
29.895721249
 30
0.0
 10
21.3756929828
 20
29.9261553743
 30
0.0
  0
SPLINE
  5
311
100
AcDbEntity
  8
0
100
AcDbSpline
 62
7
  6
BYLAYER
 70
0
 71
3
 72
15
 73
11
 74
0
 42
0.0000001
 43
0.0000001
 44
0.0000000001
 40
0.0
 40
0.0
 40
0.0
 40
0.0
 40
0.1485263577
 40
0.2895010829
 40
0.4227415638
 40
0.5486452136
 40
0.6679959928
 40
0.7819398889
 40
0.8919882913
 40
1.0
 40
1.0
 40
1.0
 40
1.0
 10
23.3092884183
 20
17.938908428
 30
0.0
 10
23.2754712441
 20
17.9584323409
 30
0.0
 10
23.2110930858
 20
17.9992521877
 30
0.0
 10
23.1230516667
 20
18.0673699074
 30
0.0
 10
23.0469066857
 20
18.1402626164
 30
0.0
 10
22.9834113659
 20
18.2172132314
 30
0.0
 10
22.9332343648
 20
18.2975692094
 30
0.0
 10
22.8968822756
 20
18.3805810038
 30
0.0
 10
22.874886108
 20
18.4654346224
 30
0.0
 10
22.8699438871
 20
18.5228777196
 30
0.0
 10
22.8699441741
 20
18.5512746588
 30
0.0
  0
SPLINE
  5
312
100
AcDbEntity
  8
0
100
AcDbSpline
 62
7
  6
BYLAYER
 70
0
 71
3
 72
14
 73
10
 74
0
 42
0.0000001
 43
0.0000001
 44
0.0000000001
 40
0.0
 40
0.0
 40
0.0
 40
0.0
 40
0.1081800209
 40
0.2199447201
 40
0.336095302
 40
0.4573168402
 40
0.7165914721
 40
0.8553567523
 40
1.0
 40
1.0
 40
1.0
 40
1.0
 10
21.55514069
 20
30.9743947732
 30
0.0
 10
21.5668374888
 20
30.9311911678
 30
0.0
 10
21.5964764767
 20
30.8448434231
 30
0.0
 10
21.6575864224
 20
30.7195891825
 30
0.0
 10
21.7355820384
 20
30.5976379449
 30
0.0
 10
21.8641197987
 20
30.4369262165
 30
0.0
 10
22.0225257276
 20
30.2897876769
 30
0.0
 10
22.2039449788
 20
30.1573176018
 30
0.0
 10
22.3035902656
 20
30.0952530808
 30
0.0
 10
22.3554182605
 20
30.0653308509
 30
0.0
  0
SPLINE
  5
313
100
AcDbEntity
  8
0
100
AcDbSpline
 62
7
  6
BYLAYER
 70
0
 71
3
 72
13
 73
9
 74
0
 42
0.0000001
 43
0.0000001
 44
0.0000000001
 40
0.0
 40
0.0
 40
0.0
 40
0.0
 40
0.2665363672
 40
0.5245059849
 40
0.6487626846
 40
0.7691907283
 40
0.8860185102
 40
1.0
 40
1.0
 40
1.0
 40
1.0
 10
26.8805596764
 20
31.7101685094
 30
0.0
 10
26.9144643689
 20
31.7101685908
 30
0.0
 10
26.9815335209
 20
31.7010535637
 30
0.0
 10
27.0581370425
 20
31.6669781349
 30
0.0
 10
27.1089598165
 20
31.6277534995
 30
0.0
 10
27.1402760353
 20
31.5937459152
 30
0.0
 10
27.164242209
 20
31.5557434005
 30
0.0
 10
27.1748835088
 20
31.5281317216
 30
0.0
 10
27.1786880999
 20
31.5141408061
 30
0.0
  0
SPLINE
  5
314
100
AcDbEntity
  8
0
100
AcDbSpline
 62
7
  6
BYLAYER
 70
0
 71
3
 72
23
 73
19
 74
0
 42
0.0000001
 43
0.0000001
 44
0.0000000001
 40
0.0
 40
0.0
 40
0.0
 40
0.0
 40
0.0606971286
 40
0.1250179118
 40
0.1923702261
 40
0.2620665266
 40
0.3332995781
 40
0.4052103061
 40
0.4769116432
 40
0.5475249196
 40
0.6162132759
 40
0.6822164095
 40
0.7448888861
 40
0.803744408
 40
0.8585099818
 40
0.9091800101
 40
0.9561043657
 40
1.0
 40
1.0
 40
1.0
 40
1.0
 10
22.5667421886
 20
30.4109399121
 30
0.0
 10
22.6512991823
 20
30.3621220135
 30
0.0
 10
22.8316664658
 20
30.2720796191
 30
0.0
 10
23.1217214881
 20
30.1629587508
 30
0.0
 10
23.4346162573
 20
30.0774715044
 30
0.0
 10
23.7645743868
 20
30.0171489478
 30
0.0
 10
24.1056188098
 20
29.9831021615
 30
0.0
 10
24.4514984955
 20
29.9759472619
 30
0.0
 10
24.7958858752
 20
29.9958170878
 30
0.0
 10
25.1324780889
 20
30.0423453237
 30
0.0
 10
25.4551268215
 20
30.1146830724
 30
0.0
 10
25.7579555631
 20
30.2115225212
 30
0.0
 10
26.0354692852
 20
30.3311342879
 30
0.0
 10
26.2826638909
 20
30.4714232471
 30
0.0
 10
26.4950671236
 20
30.6299980725
 30
0.0
 10
26.6688385533
 20
30.8042945278
 30
0.0
 10
26.8004902394
 20
30.9914343483
 30
0.0
 10
26.8597498504
 20
31.1263959553
 30
0.0
 10
26.8805633996
 20
31.1938692591
 30
0.0
  0
SPLINE
  5
315
100
AcDbEntity
  8
0
100
AcDbSpline
 62
7
  6
BYLAYER
 70
0
 71
3
 72
14
 73
10
 74
0
 42
0.0000001
 43
0.0000001
 44
0.0000000001
 40
0.0
 40
0.0
 40
0.0
 40
0.0
 40
0.1084316043
 40
0.2205270208
 40
0.3369904914
 40
0.4584235591
 40
0.7176032705
 40
0.8559754836
 40
1.0
 40
1.0
 40
1.0
 40
1.0
 10
21.8593286718
 20
31.1938571896
 30
0.0
 10
21.8708254338
 20
31.1565888174
 30
0.0
 10
21.8990301724
 20
31.0822052939
 30
0.0
 10
21.9550795403
 20
30.9744578356
 30
0.0
 10
22.0251576162
 20
30.8695883933
 30
0.0
 10
22.1390730527
 20
30.731472397
 30
0.0
 10
22.2776896897
 20
30.6048369089
 30
0.0
 10
22.4355097414
 20
30.4905041426
 30
0.0
 10
22.5218786499
 20
30.4368413023
 30
0.0
 10
22.5667421886
 20
30.4109399121
 30
0.0
  0
SPLINE
  5
316
100
AcDbEntity
  8
0
100
AcDbSpline
 62
7
  6
BYLAYER
 70
0
 71
3
 72
24
 73
20
 74
0
 42
0.0000001
 43
0.0000001
 44
0.0000000001
 40
0.0
 40
0.0
 40
0.0
 40
0.0
 40
0.0609006468
 40
0.1254599186
 40
0.1930825223
 40
0.2630544371
 40
0.3345498973
 40
0.4066881417
 40
0.478562
 40
0.5492747917
 40
0.6179748296
 40
0.6838926759
 40
0.746381837
 40
0.8049649735
 40
0.8593902894
 40
0.9096921812
 40
0.9562735037
 40
0.9784394962
 40
1.0
 40
1.0
 40
1.0
 40
1.0
 10
22.3554182605
 20
30.0653308509
 30
0.0
 10
22.4508349241
 20
30.0102432607
 30
0.0
 10
22.6544720188
 20
29.9087318141
 30
0.0
 10
22.9820837389
 20
29.7860387967
 30
0.0
 10
23.3355715319
 20
29.6902892361
 30
0.0
 10
23.7083025348
 20
29.6232498082
 30
0.0
 10
24.0933796805
 20
29.5861682398
 30
0.0
 10
24.4836136385
 20
29.5797280174
 30
0.0
 10
24.8717280858
 20
29.6040533033
 30
0.0
 10
25.2504835583
 20
29.6586898452
 30
0.0
 10
25.6128281145
 20
29.7426251316
 30
0.0
 10
25.9520370907
 20
29.8543101152
 30
0.0
 10
26.2618439894
 20
29.9917174493
 30
0.0
 10
26.5365556107
 20
30.1523875115
 30
0.0
 10
26.7711239516
 20
30.3335907028
 30
0.0
 10
26.9611377453
 20
30.5322203493
 30
0.0
 10
27.0811646826
 20
30.7128235456
 30
0.0
 10
27.1494502563
 20
30.8615324353
 30
0.0
 10
27.1745585368
 20
30.9367579107
 30
0.0
 10
27.1847513217
 20
30.9744083051
 30
0.0
  0
SPLINE
  5
317
100
AcDbEntity
  8
0
100
AcDbSpline
 62
7
  6
BYLAYER
 70
0
 71
3
 72
23
 73
19
 74
0
 42
0.0000001
 43
0.0000001
 44
0.0000000001
 40
0.0
 40
0.0
 40
0.0
 40
0.0
 40
0.0606971286
 40
0.1250179118
 40
0.1923702261
 40
0.2620665266
 40
0.3332995781
 40
0.4052103061
 40
0.4769116432
 40
0.5475249196
 40
0.6162132759
 40
0.6822164095
 40
0.7448888861
 40
0.803744408
 40
0.8585099818
 40
0.9091800101
 40
0.9561043657
 40
1.0
 40
1.0
 40
1.0
 40
1.0
 10
26.1731461596
 20
32.4930857868
 30
0.0
 10
26.0885891659
 20
32.5419036854
 30
0.0
 10
25.9082218824
 20
32.6319460799
 30
0.0
 10
25.6181668601
 20
32.7410669481
 30
0.0
 10
25.3052720909
 20
32.8265541946
 30
0.0
 10
24.9753139614
 20
32.8868767512
 30
0.0
 10
24.6342695384
 20
32.9209235374
 30
0.0
 10
24.2883898527
 20
32.928078437
 30
0.0
 10
23.944002473
 20
32.9082086111
 30
0.0
 10
23.6074102593
 20
32.8616803752
 30
0.0
 10
23.2847615266
 20
32.7893426266
 30
0.0
 10
22.9819327851
 20
32.6925031777
 30
0.0
 10
22.704419063
 20
32.5728914111
 30
0.0
 10
22.4572244573
 20
32.4326024518
 30
0.0
 10
22.2448212245
 20
32.2740276264
 30
0.0
 10
22.0710497949
 20
32.0997311712
 30
0.0
 10
21.9393981088
 20
31.9125913507
 30
0.0
 10
21.8801384978
 20
31.7776297436
 30
0.0
 10
21.8593249486
 20
31.7101564398
 30
0.0
  0
SPLINE
  5
318
100
AcDbEntity
  8
0
100
AcDbSpline
 62
7
  6
BYLAYER
 70
0
 71
3
 72
14
 73
10
 74
0
 42
0.0000001
 43
0.0000001
 44
0.0000000001
 40
0.0
 40
0.0
 40
0.0
 40
0.0
 40
0.1084316043
 40
0.2205270208
 40
0.3369904914
 40
0.4584235591
 40
0.7176032705
 40
0.8559754836
 40
1.0
 40
1.0
 40
1.0
 40
1.0
 10
26.8805596764
 20
31.7101685093
 30
0.0
 10
26.8690629144
 20
31.7474368815
 30
0.0
 10
26.8408581757
 20
31.821820405
 30
0.0
 10
26.7848088078
 20
31.9295678634
 30
0.0
 10
26.714730732
 20
32.0344373056
 30
0.0
 10
26.6008152955
 20
32.1725533019
 30
0.0
 10
26.4621986585
 20
32.29918879
 30
0.0
 10
26.3043786068
 20
32.4135215563
 30
0.0
 10
26.2180096983
 20
32.4671843966
 30
0.0
 10
26.1731461596
 20
32.4930857868
 30
0.0
  0
SPLINE
  5
319
100
AcDbEntity
  8
0
100
AcDbSpline
 62
7
  6
BYLAYER
 70
0
 71
3
 72
9
 73
5
 74
0
 42
0.0000001
 43
0.0000001
 44
0.0000000001
 40
0.0
 40
0.0
 40
0.0
 40
0.0
 40
0.4977783232
 40
1.0
 40
1.0
 40
1.0
 40
1.0
 10
21.4804762856
 20
30.9022086728
 30
0.0
 10
21.4742424044
 20
30.8441598899
 30
0.0
 10
21.4722664435
 20
30.7261541239
 30
0.0
 10
21.4917697224
 20
30.6097877358
 30
0.0
 10
21.506474397
 20
30.5527489939
 30
0.0
  0
SPLINE
  5
31A
100
AcDbEntity
  8
0
100
AcDbSpline
 62
7
  6
BYLAYER
 70
0
 71
3
 72
13
 73
9
 74
0
 42
0.0000001
 43
0.0000001
 44
0.0000000001
 40
0.0
 40
0.0
 40
0.0
 40
0.0
 40
0.1139871521
 40
0.2308165878
 40
0.3512434399
 40
0.475498341
 40
0.7334638369
 40
1.0
 40
1.0
 40
1.0
 40
1.0
 10
21.5611961326
 20
31.5141245981
 30
0.0
 10
21.565000874
 20
31.5281163502
 30
0.0
 10
21.5756417092
 20
31.5557295002
 30
0.0
 10
21.5996088522
 20
31.5937328895
 30
0.0
 10
21.6309252299
 20
31.6277405735
 30
0.0
 10
21.6817475028
 20
31.6669652991
 30
0.0
 10
21.7583508594
 20
31.701040929
 30
0.0
 10
21.8254199863
 20
31.7101563583
 30
0.0
 10
21.8593249486
 20
31.7101564398
 30
0.0
  0
SPLINE
  5
31B
100
AcDbEntity
  8
0
100
AcDbSpline
 62
7
  6
BYLAYER
 70
0
 71
3
 72
9
 73
5
 74
0
 42
0.0000001
 43
0.0000001
 44
0.0000000001
 40
0.0
 40
0.0
 40
0.0
 40
0.0
 40
0.5022213777
 40
1.0
 40
1.0
 40
1.0
 40
1.0
 10
27.2334175
 20
30.5527627598
 30
0.0
 10
27.2481207856
 20
30.6097993755
 30
0.0
 10
27.2676220035
 20
30.7261612409
 30
0.0
 10
27.2656456972
 20
30.8441621911
 30
0.0
 10
27.259412063
 20
30.9022086728
 30
0.0
  0
SPLINE
  5
31C
100
AcDbEntity
  8
0
100
AcDbSpline
 62
7
  6
BYLAYER
 70
0
 71
3
 72
9
 73
5
 74
0
 42
0.0000001
 43
0.0000001
 44
0.0000000001
 40
0.0
 40
0.0
 40
0.0
 40
0.0
 40
0.2447068971
 40
1.0
 40
1.0
 40
1.0
 40
1.0
 10
25.4306270897
 20
17.9389241088
 30
0.0
 10
25.4198847048
 20
17.9327218119
 30
0.0
 10
25.3756521556
 20
17.9079562156
 30
0.0
 10
25.3301544554
 20
17.8854663711
 30
0.0
 10
25.2952738132
 20
17.8696810764
 30
0.0
  0
SPLINE
  5
31D
100
AcDbEntity
  8
0
100
AcDbSpline
 62
7
  6
BYLAYER
 70
0
 71
3
 72
15
 73
11
 74
0
 42
0.0000001
 43
0.0000001
 44
0.0000000001
 40
0.0
 40
0.0
 40
0.0
 40
0.0
 40
0.1171275895
 40
0.2408604997
 40
0.3692290544
 40
0.499983645
 40
0.6307383196
 40
0.7591107517
 40
0.8828348797
 40
1.0
 40
1.0
 40
1.0
 40
1.0
 10
25.2952738132
 20
17.8696810764
 30
0.0
 10
25.227694405
 20
17.8390978989
 30
0.0
 10
25.0844719677
 20
17.7853448767
 30
0.0
 10
24.8573342546
 20
17.7280841933
 30
0.0
 10
24.6169966202
 20
17.693087513
 30
0.0
 10
24.3699899225
 20
17.6813153419
 30
0.0
 10
24.1229797783
 20
17.6930770253
 30
0.0
 10
23.8826455173
 20
17.7280717498
 30
0.0
 10
23.6554815125
 20
17.7853139064
 30
0.0
 10
23.5122441685
 20
17.8390807903
 30
0.0
 10
23.444643029
 20
17.8696735973
 30
0.0
  0
SPLINE
  5
31E
100
AcDbEntity
  8
0
100
AcDbSpline
 62
7
  6
BYLAYER
 70
0
 71
3
 72
9
 73
5
 74
0
 42
0.0000001
 43
0.0000001
 44
0.0000000001
 40
0.0
 40
0.0
 40
0.0
 40
0.0
 40
0.2554606677
 40
1.0
 40
1.0
 40
1.0
 40
1.0
 10
23.444643029
 20
17.8696735973
 30
0.0
 10
23.4328457144
 20
17.8750124566
 30
0.0
 10
23.3869094357
 20
17.896444426
 30
0.0
 10
23.3419725828
 20
17.9200386437
 30
0.0
 10
23.3092884183
 20
17.938908428
 30
0.0
  0
SPLINE
  5
31F
100
AcDbEntity
  8
0
100
AcDbSpline
 62
7
  6
BYLAYER
 70
0
 71
3
 72
18
 73
14
 74
0
 42
0.0000001
 43
0.0000001
 44
0.0000000001
 40
0.0
 40
0.0
 40
0.0
 40
0.0
 40
0.0553428086
 40
0.1108907227
 40
0.1668456912
 40
0.2234010931
 40
0.3389672014
 40
0.4589653396
 40
0.5209913448
 40
0.5844918707
 40
0.7161878688
 40
0.8545993827
 40
1.0
 40
1.0
 40
1.0
 40
1.0
 10
30.8698784636
 20
44.9241270964
 30
0.0
 10
30.8698784632
 20
44.9781248444
 30
0.0
 10
30.8658307373
 20
45.0863640777
 30
0.0
 10
30.8476229817
 20
45.2482755234
 30
0.0
 10
30.8172987282
 20
45.4095763596
 30
0.0
 10
30.7604554905
 20
45.6248975848
 30
0.0
 10
30.6583625213
 20
45.8920483836
 30
0.0
 10
30.5193881551
 20
46.1479083622
 30
0.0
 10
30.3864735114
 20
46.3473471723
 30
0.0
 10
30.2353313556
 20
46.5478606989
 30
0.0
 10
30.0178622804
 20
46.7909557161
 30
0.0
 10
29.7182805122
 20
47.0649402604
 30
0.0
 10
29.4975343375
 20
47.2328051898
 30
0.0
 10
29.3812517761
 20
47.3140735621
 30
0.0
  0
SPLINE
  5
320
100
AcDbEntity
  8
0
100
AcDbSpline
 62
7
  6
BYLAYER
 70
0
 71
3
 72
16
 73
12
 74
0
 42
0.0000001
 43
0.0000001
 44
0.0000000001
 40
0.0
 40
0.0
 40
0.0
 40
0.0
 40
0.1110921768
 40
0.2237714413
 40
0.33951308
 40
0.4595981922
 40
0.5216297996
 40
0.5851107407
 40
0.7166927669
 40
0.8548935388
 40
1.0
 40
1.0
 40
1.0
 40
1.0
 10
29.36988004
 20
44.9241284188
 30
0.0
 10
29.3698800405
 20
44.842009838
 30
0.0
 10
29.3575731216
 20
44.6763463227
 30
0.0
 10
29.3024702137
 20
44.430659737
 30
0.0
 10
29.2112794558
 20
44.1888802847
 30
0.0
 10
29.1070014953
 20
43.9942611045
 30
0.0
 10
29.007247101
 20
43.8424806445
 30
0.0
 10
28.8938359379
 20
43.6898700087
 30
0.0
 10
28.7306181971
 20
43.5046833234
 30
0.0
 10
28.5056342609
 20
43.2956431457
 30
0.0
 10
28.3397490426
 20
43.1673207075
 30
0.0
 10
28.2523470163
 20
43.1051438643
 30
0.0
  0
SPLINE
  5
321
100
AcDbEntity
  8
0
100
AcDbSpline
 62
7
  6
BYLAYER
 70
0
 71
3
 72
16
 73
12
 74
0
 42
0.0000001
 43
0.0000001
 44
0.0000000001
 40
0.0
 40
0.0
 40
0.0
 40
0.0
 40
0.1451068081
 40
0.2833078352
 40
0.4148900105
 40
0.478370984
 40
0.5404025951
 40
0.6604876312
 40
0.7762290953
 40
0.8889081114
 40
1.0
 40
1.0
 40
1.0
 40
1.0
 10
20.4874538156
 20
43.1051223488
 30
0.0
 10
20.4000495431
 20
43.1672995704
 30
0.0
 10
20.2341600251
 20
43.2956229125
 30
0.0
 10
20.0091700909
 20
43.5046650001
 30
0.0
 10
19.8459478894
 20
43.6898536945
 30
0.0
 10
19.7325335943
 20
43.8424661358
 30
0.0
 10
19.632776475
 20
43.9942484042
 30
0.0
 10
19.5284956263
 20
44.1888700305
 30
0.0
 10
19.437302298
 20
44.4306527547
 30
0.0
 10
19.3821978188
 20
44.6763427837
 30
0.0
 10
19.36989055
 20
44.8420086783
 30
0.0
 10
19.3698905495
 20
44.9241284188
 30
0.0
  0
SPLINE
  5
322
100
AcDbEntity
  8
0
100
AcDbSpline
 62
7
  6
BYLAYER
 70
0
 71
3
 72
23
 73
19
 74
0
 42
0.0000001
 43
0.0000001
 44
0.0000000001
 40
0.0
 40
0.0
 40
0.0
 40
0.0
 40
0.0558312491
 40
0.1141821765
 40
0.1747823243
 40
0.2373525517
 40
0.3015484272
 40
0.3669918705
 40
0.4332820696
 40
0.4999994837
 40
0.5667169158
 40
0.6330071687
 40
0.6984507004
 40
0.7626466972
 40
0.8252170765
 40
0.885817403
 40
0.9441685313
 40
1.0
 40
1.0
 40
1.0
 40
1.0
 10
28.2589897187
 20
43.0870541632
 30
0.0
 10
28.1287070853
 20
43.0118358987
 30
0.0
 10
27.8554795339
 20
42.8695289864
 30
0.0
 10
27.4219051293
 20
42.6846376597
 30
0.0
 10
26.9591250328
 20
42.5251222113
 30
0.0
 10
26.4716406472
 20
42.3924954648
 30
0.0
 10
25.9640531139
 20
42.288002175
 30
0.0
 10
25.4412203805
 20
42.2126397643
 30
0.0
 10
24.9081395885
 20
42.1671345227
 30
0.0
 10
24.3699081261
 20
42.1519200349
 30
0.0
 10
23.8316764461
 20
42.1671319458
 30
0.0
 10
23.2985950038
 20
42.2126346376
 30
0.0
 10
22.7757611934
 20
42.2879945445
 30
0.0
 10
22.2681721663
 20
42.3924854017
 30
0.0
 10
21.7806858859
 20
42.5251098133
 30
0.0
 10
21.3179035126
 20
42.6846230401
 30
0.0
 10
20.8843264673
 20
42.8695122804
 30
0.0
 10
20.6110969427
 20
43.011817846
 30
0.0
 10
20.4808132544
 20
43.0870354668
 30
0.0
  0
SPLINE
  5
323
100
AcDbEntity
  8
0
100
AcDbSpline
 62
7
  6
BYLAYER
 70
0
 71
3
 72
18
 73
14
 74
0
 42
0.0000001
 43
0.0000001
 44
0.0000000001
 40
0.0
 40
0.0
 40
0.0
 40
0.0
 40
0.1454006119
 40
0.2838121207
 40
0.4155081135
 40
0.479008638
 40
0.5410346432
 40
0.6610327828
 40
0.7765988949
 40
0.8331542993
 40
0.8891092707
 40
0.9446571881
 40
1.0
 40
1.0
 40
1.0
 40
1.0
 10
19.3585178576
 20
47.3140728926
 30
0.0
 10
19.2422353658
 20
47.2328045287
 30
0.0
 10
19.021489321
 20
47.0649396281
 30
0.0
 10
18.7219077435
 20
46.7909551378
 30
0.0
 10
18.5044388087
 20
46.547860185
 30
0.0
 10
18.3532967572
 20
46.3473467133
 30
0.0
 10
18.2203821961
 20
46.1479079629
 30
0.0
 10
18.0814079272
 20
45.8920480582
 30
0.0
 10
17.9793150221
 20
45.6248973494
 30
0.0
 10
17.9224718265
 20
45.4095761955
 30
0.0
 10
17.8921475947
 20
45.2482754134
 30
0.0
 10
17.8739398471
 20
45.0863640228
 30
0.0
 10
17.8698921256
 20
44.9781248261
 30
0.0
 10
17.869892126
 20
44.9241270964
 30
0.0
  0
SPLINE
  5
324
100
AcDbEntity
  8
0
100
AcDbSpline
 62
7
  6
BYLAYER
 70
0
 71
3
 72
16
 73
12
 74
0
 42
0.0000001
 43
0.0000001
 44
0.0000000001
 40
0.0
 40
0.0
 40
0.0
 40
0.0
 40
0.0539141295
 40
0.1080903844
 40
0.2181327377
 40
0.3320695386
 40
0.4514283135
 40
0.5773427628
 40
0.7105452293
 40
0.8514463069
 40
1.0
 40
1.0
 40
1.0
 40
1.0
 10
17.8698943282
 20
44.9210366781
 30
0.0
 10
17.8699817967
 20
44.8596638384
 30
0.0
 10
17.875394579
 20
44.7365569172
 30
0.0
 10
17.9072730019
 20
44.4900624442
 30
0.0
 10
17.987452701
 20
44.1821363315
 30
0.0
 10
18.1450890045
 20
43.8228964457
 30
0.0
 10
18.3626451965
 20
43.4751166762
 30
0.0
 10
18.637680465
 20
43.1420643421
 30
0.0
 10
18.967398982
 20
42.8266412928
 30
0.0
 10
19.3485188007
 20
42.5317498683
 30
0.0
 10
19.6272599392
 20
42.3550913692
 30
0.0
 10
19.7737103529
 20
42.2705400963
 30
0.0
  0
SPLINE
  5
325
100
AcDbEntity
  8
0
100
AcDbSpline
 62
7
  6
BYLAYER
 70
0
 71
3
 72
24
 73
20
 74
0
 42
0.0000001
 43
0.0000001
 44
0.0000000001
 40
0.0
 40
0.0
 40
0.0
 40
0.0
 40
0.0679048341
 40
0.1006419838
 40
0.1326012289
 40
0.194317026
 40
0.2534817147
 40
0.3106378882
 40
0.3664472522
 40
0.4216579657
 40
0.4770606487
 40
0.5334324568
 40
0.5914843375
 40
0.6518225809
 40
0.7149271953
 40
0.7811356553
 40
0.8506701539
 40
0.9236462933
 40
1.0
 40
1.0
 40
1.0
 40
1.0
 10
19.3325492247
 20
47.2143045694
 30
0.0
 10
19.2424763561
 20
47.1339400497
 30
0.0
 10
19.1142048144
 20
47.0086845048
 30
0.0
 10
18.9587490165
 20
46.8313704595
 30
0.0
 10
18.8197923648
 20
46.6546489397
 30
0.0
 10
18.6698375383
 20
46.4272773484
 30
0.0
 10
18.5289657477
 20
46.1429107589
 30
0.0
 10
18.4304673063
 20
45.8521818049
 30
0.0
 10
18.3752355893
 20
45.5573044152
 30
0.0
 10
18.3638868919
 20
45.2605950495
 30
0.0
 10
18.3964954277
 20
44.9644725825
 30
0.0
 10
18.4727410235
 20
44.6713180568
 30
0.0
 10
18.5918810336
 20
44.3834045427
 30
0.0
 10
18.7528103695
 20
44.1028249535
 30
0.0
 10
18.9542313818
 20
43.8315838783
 30
0.0
 10
19.194522011
 20
43.5714968457
 30
0.0
 10
19.4719616865
 20
43.3243322346
 30
0.0
 10
19.7844817879
 20
43.0918491738
 30
0.0
 10
20.0097142141
 20
42.9507789075
 30
0.0
 10
20.1272623668
 20
42.8829139851
 30
0.0
  0
SPLINE
  5
326
100
AcDbEntity
  8
0
100
AcDbSpline
 62
7
  6
BYLAYER
 70
0
 71
3
 72
24
 73
20
 74
0
 42
0.0000001
 43
0.0000001
 44
0.0000000001
 40
0.0
 40
0.0
 40
0.0
 40
0.0
 40
0.0763535117
 40
0.1493294714
 40
0.2188638112
 40
0.2850721407
 40
0.3481766609
 40
0.4085148508
 40
0.4665667205
 40
0.5229385587
 40
0.5783413088
 40
0.6335521179
 40
0.6893615959
 40
0.7465178912
 40
0.8056826991
 40
0.8673986045
 40
0.8993578984
 40
0.9320950926
 40
1.0
 40
1.0
 40
1.0
 40
1.0
 10
28.6125435503
 20
42.8829343812
 30
0.0
 10
28.730089901
 20
42.9507993933
 30
0.0
 10
28.9553187974
 20
43.0918697277
 30
0.0
 10
29.2678337336
 20
43.3243525216
 30
0.0
 10
29.5452685479
 20
43.5715165242
 30
0.0
 10
29.7855546833
 20
43.8316026264
 30
0.0
 10
29.9869716225
 20
44.102842483
 30
0.0
 10
30.147897358
 20
44.3834205953
 30
0.0
 10
30.2670342909
 20
44.6713324055
 30
0.0
 10
30.3432773563
 20
44.9644850419
 30
0.0
 10
30.3758839711
 20
45.2606054712
 30
0.0
 10
30.3645339619
 20
45.5573127057
 30
0.0
 10
30.3093015716
 20
45.8521879241
 30
0.0
 10
30.2108030892
 20
46.1429147248
 30
0.0
 10
30.0699318596
 20
46.427279221
 30
0.0
 10
29.9199779804
 20
46.6546492049
 30
0.0
 10
29.781022335
 20
46.8313695072
 30
0.0
 10
29.6255677798
 20
47.0086823327
 30
0.0
 10
29.4972973293
 20
47.1339370785
 30
0.0
 10
29.4072252432
 20
47.214301109
 30
0.0
  0
SPLINE
  5
327
100
AcDbEntity
  8
0
100
AcDbSpline
 62
7
  6
BYLAYER
 70
0
 71
3
 72
23
 73
19
 74
0
 42
0.0000001
 43
0.0000001
 44
0.0000000001
 40
0.0
 40
0.0
 40
0.0
 40
0.0
 40
0.0558314696
 40
0.1141826001
 40
0.1747829279
 40
0.2373533082
 40
0.301549306
 40
0.3669928384
 40
0.4332830917
 40
0.5000005239
 40
0.5667179379
 40
0.6330081366
 40
0.6984515791
 40
0.7626474537
 40
0.8252176801
 40
0.8858178266
 40
0.9441687519
 40
1.0
 40
1.0
 40
1.0
 40
1.0
 10
20.1272623668
 20
42.8829139851
 30
0.0
 10
20.2693899918
 20
42.8008584189
 30
0.0
 10
20.5674584945
 20
42.645616022
 30
0.0
 10
21.0404515221
 20
42.4439187166
 30
0.0
 10
21.5453049005
 20
42.2699043309
 30
0.0
 10
22.0771079862
 20
42.1252231948
 30
0.0
 10
22.6308413326
 20
42.0112331987
 30
0.0
 10
23.2012053459
 20
41.9290224147
 30
0.0
 10
23.7827485886
 20
41.8793831328
 30
0.0
 10
24.3699102681
 20
41.8627883278
 30
0.0
 10
24.9570717078
 20
41.879385949
 30
0.0
 10
25.5386142328
 20
41.9290280228
 30
0.0
 10
26.1089770581
 20
42.011241542
 30
0.0
 10
26.662708759
 20
42.1252341918
 30
0.0
 10
27.1945097565
 20
42.2699178793
 30
0.0
 10
27.699360625
 20
42.4439346841
 30
0.0
 10
28.1723507485
 20
42.6456342548
 30
0.0
 10
28.4704170809
 20
42.8008781157
 30
0.0
 10
28.6125435503
 20
42.8829343812
 30
0.0
  0
SPLINE
  5
328
100
AcDbEntity
  8
0
100
AcDbSpline
 62
7
  6
BYLAYER
 70
0
 71
3
 72
23
 73
19
 74
0
 42
0.0000001
 43
0.0000001
 44
0.0000000001
 40
0.0
 40
0.0
 40
0.0
 40
0.0
 40
0.0771978525
 40
0.1514051438
 40
0.2225412657
 40
0.290667765
 40
0.3559259876
 40
0.4185299519
 40
0.4787837088
 40
0.5370897223
 40
0.5939361321
 40
0.6498823437
 40
0.7055359416
 40
0.761520305
 40
0.8184408215
 40
0.8768532912
 40
0.9372406625
 40
1.0
 40
1.0
 40
1.0
 40
1.0
 10
20.4808132544
 20
43.0870354668
 30
0.0
 10
20.3854469937
 20
43.1420939575
 30
0.0
 10
20.2017829141
 20
43.2560844617
 30
0.0
 10
19.9441946641
 20
43.442070053
 30
0.0
 10
19.7113534476
 20
43.6388039409
 30
0.0
 10
19.5045978553
 20
43.8451426415
 30
0.0
 10
19.3250981909
 20
44.0600150136
 30
0.0
 10
19.1738697494
 20
44.2822496845
 30
0.0
 10
19.0518730605
 20
44.5106628438
 30
0.0
 10
18.9598590959
 20
44.7439684132
 30
0.0
 10
18.898470696
 20
44.9808422125
 30
0.0
 10
18.8681400274
 20
45.2198735428
 30
0.0
 10
18.8691004497
 20
45.4596016052
 30
0.0
 10
18.90135149
 20
45.6985418708
 30
0.0
 10
18.9646315225
 20
45.9352362732
 30
0.0
 10
19.0585130278
 20
46.1682818147
 30
0.0
 10
19.1823145628
 20
46.3963365554
 30
0.0
 10
19.2822561833
 20
46.5412327984
 30
0.0
 10
19.3365595863
 20
46.6124052246
 30
0.0
  0
SPLINE
  5
329
100
AcDbEntity
  8
0
100
AcDbSpline
 62
7
  6
BYLAYER
 70
0
 71
3
 72
23
 73
19
 74
0
 42
0.0000001
 43
0.0000001
 44
0.0000000001
 40
0.0
 40
0.0
 40
0.0
 40
0.0
 40
0.0627594708
 40
0.1231469829
 40
0.1815595947
 40
0.2384802477
 40
0.2944647338
 40
0.3501184324
 40
0.4060647157
 40
0.4629111626
 40
0.5212171756
 40
0.5814708938
 40
0.6440747825
 40
0.7093328963
 40
0.7774592583
 40
0.8485952193
 40
0.9228023329
 40
1.0
 40
1.0
 40
1.0
 40
1.0
 10
29.4032102585
 20
46.6124061998
 30
0.0
 10
29.4575133498
 20
46.5412342475
 30
0.0
 10
29.5574544567
 20
46.3963389861
 30
0.0
 10
29.6812555844
 20
46.1682858495
 30
0.0
 10
29.7751370928
 20
45.9352419599
 30
0.0
 10
29.8384175507
 20
45.698549229
 30
0.0
 10
29.8706694445
 20
45.4596106234
 30
0.0
 10
29.8716311444
 20
45.2198841774
 30
0.0
 10
29.8413021716
 20
44.9808543882
 30
0.0
 10
29.7799158649
 20
44.7439820266
 30
0.0
 10
29.6879043757
 20
44.5106777643
 30
0.0
 10
29.5659105149
 20
44.2822657615
 30
0.0
 10
29.4146852333
 20
44.0600320721
 30
0.0
 10
29.2351890257
 20
43.845160491
 30
0.0
 10
29.0284371604
 20
43.6388223691
 30
0.0
 10
28.7955999046
 20
43.4420888331
 30
0.0
 10
28.5380158094
 20
43.2561033465
 30
0.0
 10
28.3543545481
 20
43.1421127445
 30
0.0
 10
28.2589897187
 20
43.0870541632
 30
0.0
  0
SPLINE
  5
32A
100
AcDbEntity
  8
0
100
AcDbSpline
 62
7
  6
BYLAYER
 70
0
 71
3
 72
23
 73
19
 74
0
 42
0.0000001
 43
0.0000001
 44
0.0000000001
 40
0.0
 40
0.0
 40
0.0
 40
0.0
 40
0.0558094563
 40
0.1141318311
 40
0.1746982349
 40
0.2372314338
 40
0.3013892979
 40
0.3667961395
 40
0.4330536589
 40
0.4997448245
 40
0.5664448789
 40
0.6327288691
 40
0.6981792517
 40
0.7623968403
 40
0.8250048784
 40
0.8856591963
 40
0.9440801763
 40
1.0
 40
1.0
 40
1.0
 40
1.0
 10
19.7737103529
 20
42.2705400963
 30
0.0
 10
19.9272718997
 20
42.1818833016
 30
0.0
 10
20.2492818727
 20
42.0141243942
 30
0.0
 10
20.7602134994
 20
41.7960695599
 30
0.0
 10
21.3055092905
 20
41.6078387861
 30
0.0
 10
21.8798924567
 20
41.4512088332
 30
0.0
 10
22.4779695005
 20
41.3276412241
 30
0.0
 10
23.0940461743
 20
41.2383099532
 30
0.0
 10
23.7222644012
 20
41.1840722913
 30
0.0
 10
24.3566479162
 20
41.1654409286
 30
0.0
 10
24.9911574833
 20
41.1825820183
 30
0.0
 10
25.6197523938
 20
41.235345624
 30
0.0
 10
26.2364528265
 20
41.3232293474
 30
0.0
 10
26.8353952485
 20
41.4453903855
 30
0.0
 10
27.4108751748
 20
41.6006718332
 30
0.0
 10
27.9574878003
 20
41.7876188984
 30
0.0
 10
28.4699537149
 20
42.004469625
 30
0.0
 10
28.7931083652
 20
42.1714577812
 30
0.0
 10
28.947286562
 20
42.2597455897
 30
0.0
  0
SPLINE
  5
32B
100
AcDbEntity
  8
0
100
AcDbSpline
 62
7
  6
BYLAYER
 70
0
 71
3
 72
16
 73
12
 74
0
 42
0.0000001
 43
0.0000001
 44
0.0000000001
 40
0.0
 40
0.0
 40
0.0
 40
0.0
 40
0.148553433
 40
0.289454306
 40
0.4226566418
 40
0.5485710477
 40
0.667929873
 40
0.7818668115
 40
0.8919093712
 40
0.9460857456
 40
1.0
 40
1.0
 40
1.0
 40
1.0
 10
28.966098508
 20
42.2705621919
 30
0.0
 10
29.1125461833
 20
42.355113292
 30
0.0
 10
29.3912820491
 20
42.5317712355
 30
0.0
 10
29.77239442
 20
42.8266611024
 30
0.0
 10
30.1021063322
 20
43.1420819824
 30
0.0
 10
30.3771359637
 20
43.4751316127
 30
0.0
 10
30.5946876038
 20
43.822908218
 30
0.0
 10
30.7523205384
 20
44.1821445717
 30
0.0
 10
30.8324984618
 20
44.4900674598
 30
0.0
 10
30.8643761673
 20
44.7365593345
 30
0.0
 10
30.8697888088
 20
44.8596649603
 30
0.0
 10
30.8698762621
 20
44.9210371576
 30
0.0
  0
SPLINE
  5
32C
100
AcDbEntity
  8
0
100
AcDbSpline
 62
7
  6
BYLAYER
 70
0
 71
3
 72
15
 73
11
 74
0
 42
0.0000001
 43
0.0000001
 44
0.0000000001
 40
0.0
 40
0.0
 40
0.0
 40
0.0
 40
0.1485734141
 40
0.2895100049
 40
0.4227264932
 40
0.5486403483
 40
0.6680020592
 40
0.7819394612
 40
0.8919873695
 40
1.0
 40
1.0
 40
1.0
 40
1.0
 10
20.834336669
 20
49.6069241592
 30
0.0
 10
20.7215787349
 20
49.5418237242
 30
0.0
 10
20.5069622042
 20
49.4057811096
 30
0.0
 10
20.2135396866
 20
49.1786879138
 30
0.0
 10
19.9597445792
 20
48.9357599236
 30
0.0
 10
19.7481321242
 20
48.6792380535
 30
0.0
 10
19.5808010271
 20
48.4114172122
 30
0.0
 10
19.4596973417
 20
48.134679708
 30
0.0
 10
19.3863365455
 20
47.8518558342
 30
0.0
 10
19.3698854602
 20
47.6603766313
 30
0.0
 10
19.3698852948
 20
47.5657203866
 30
0.0
  0
SPLINE
  5
32D
100
AcDbEntity
  8
0
100
AcDbSpline
 62
7
  6
BYLAYER
 70
0
 71
3
 72
28
 73
24
 74
0
 42
0.0000001
 43
0.0000001
 44
0.0000000001
 40
0.0
 40
0.0
 40
0.0
 40
0.0
 40
0.0213291505
 40
0.0428865755
 40
0.0648890666
 40
0.0875306294
 40
0.1109771535
 40
0.1353607542
 40
0.1872549839
 40
0.2149153307
 40
0.2437226791
 40
0.3046629139
 40
0.3697425911
 40
0.4383314584
 40
0.5096092477
 40
0.5826246179
 40
0.6563471845
 40
0.7297151698
 40
0.8016831932
 40
0.8712661909
 40
0.9375981933
 40
0.9693380392
 40
1.0
 40
1.0
 40
1.0
 40
1.0
 10
29.3698852947
 20
47.5657203866
 30
0.0
 10
29.3698854187
 20
47.6366510007
 30
0.0
 10
29.3607156595
 20
47.779433948
 30
0.0
 10
29.3197139639
 20
47.9918370279
 30
0.0
 10
29.2516472275
 20
48.2017682842
 30
0.0
 10
29.1570485306
 20
48.4080227979
 30
0.0
 10
29.0364461913
 20
48.6094836431
 30
0.0
 10
28.8379505128
 20
48.8757292432
 30
0.0
 10
28.5926426712
 20
49.1221360151
 30
0.0
 10
28.3105777314
 20
49.346712884
 30
0.0
 10
27.9880495219
 20
49.5673432204
 30
0.0
 10
27.5344472783
 20
49.8140398833
 30
0.0
 10
26.9330354991
 20
50.056322304
 30
0.0
 10
26.2770833335
 20
50.2453682477
 30
0.0
 10
25.5805439954
 20
50.3771948537
 30
0.0
 10
24.8581907351
 20
50.4490292874
 30
0.0
 10
24.1254214515
 20
50.4593383427
 30
0.0
 10
23.3978698761
 20
50.4079086823
 30
0.0
 10
22.6910321004
 20
50.2958221492
 30
0.0
 10
22.0200088451
 20
50.1254813448
 30
0.0
 10
21.4947332037
 20
49.9351663782
 30
0.0
 10
21.1057751197
 20
49.7558512665
 30
0.0
 10
20.9226429032
 20
49.657907483
 30
0.0
 10
20.834336669
 20
49.6069241592
 30
0.0
  0
SPLINE
  5
32E
100
AcDbEntity
  8
0
100
AcDbSpline
 62
7
  6
BYLAYER
 70
0
 71
3
 72
15
 73
11
 74
0
 42
0.0000001
 43
0.0000001
 44
0.0000000001
 40
0.0
 40
0.0
 40
0.0
 40
0.0
 40
0.1485734141
 40
0.2895100049
 40
0.4227264932
 40
0.5486403483
 40
0.6680020592
 40
0.7819394612
 40
0.8919873695
 40
1.0
 40
1.0
 40
1.0
 40
1.0
 10
27.9054339205
 20
45.524516614
 30
0.0
 10
28.0181918546
 20
45.5896170491
 30
0.0
 10
28.2328083853
 20
45.7256596637
 30
0.0
 10
28.5262309029
 20
45.9527528595
 30
0.0
 10
28.7800260103
 20
46.1956808497
 30
0.0
 10
28.9916384653
 20
46.4522027198
 30
0.0
 10
29.1589695625
 20
46.7200235611
 30
0.0
 10
29.2800732478
 20
46.9967610653
 30
0.0
 10
29.353434044
 20
47.2795849391
 30
0.0
 10
29.3698851293
 20
47.471064142
 30
0.0
 10
29.3698852947
 20
47.5657203866
 30
0.0
  0
SPLINE
  5
32F
100
AcDbEntity
  8
0
100
AcDbSpline
 62
7
  6
BYLAYER
 70
0
 71
3
 72
28
 73
24
 74
0
 42
0.0000001
 43
0.0000001
 44
0.0000000001
 40
0.0
 40
0.0
 40
0.0
 40
0.0
 40
0.0213291505
 40
0.0428865755
 40
0.0648890666
 40
0.0875306294
 40
0.1109771535
 40
0.1353607542
 40
0.1872549839
 40
0.2149153307
 40
0.2437226791
 40
0.3046629139
 40
0.3697425911
 40
0.4383314584
 40
0.5096092477
 40
0.5826246179
 40
0.6563471845
 40
0.7297151698
 40
0.8016831932
 40
0.8712661909
 40
0.9375981933
 40
0.9693380392
 40
1.0
 40
1.0
 40
1.0
 40
1.0
 10
19.3698852948
 20
47.5657203866
 30
0.0
 10
19.3698851708
 20
47.4947897726
 30
0.0
 10
19.3790549301
 20
47.3520068253
 30
0.0
 10
19.4200566256
 20
47.1396037454
 30
0.0
 10
19.488123362
 20
46.9296724891
 30
0.0
 10
19.5827220589
 20
46.7234179754
 30
0.0
 10
19.7033243982
 20
46.5219571302
 30
0.0
 10
19.9018200767
 20
46.2557115301
 30
0.0
 10
20.1471279183
 20
46.0093047582
 30
0.0
 10
20.4291928581
 20
45.7847278893
 30
0.0
 10
20.7517210677
 20
45.5640975529
 30
0.0
 10
21.2053233112
 20
45.31740089
 30
0.0
 10
21.8067350904
 20
45.0751184693
 30
0.0
 10
22.462687256
 20
44.8860725256
 30
0.0
 10
23.1592265942
 20
44.7542459196
 30
0.0
 10
23.8815798544
 20
44.6824114859
 30
0.0
 10
24.614349138
 20
44.6721024306
 30
0.0
 10
25.3419007134
 20
44.723532091
 30
0.0
 10
26.0487384891
 20
44.8356186241
 30
0.0
 10
26.7197617445
 20
45.0059594285
 30
0.0
 10
27.2450373858
 20
45.1962743951
 30
0.0
 10
27.6339954698
 20
45.3755895068
 30
0.0
 10
27.8171276864
 20
45.4735332903
 30
0.0
 10
27.9054339205
 20
45.524516614
 30
0.0
  0
SPLINE
  5
330
100
AcDbEntity
  8
0
100
AcDbSpline
 62
7
  6
BYLAYER
 70
0
 71
3
 72
9
 73
5
 74
0
 42
0.0000001
 43
0.0000001
 44
0.0000000001
 40
0.0
 40
0.0
 40
0.0
 40
0.0
 40
0.4955908912
 40
1.0
 40
1.0
 40
1.0
 40
1.0
 10
34.3198781651
 20
40.4333643504
 30
0.0
 10
34.3198699171
 20
40.6162102101
 30
0.0
 10
34.2891287287
 20
40.9857800477
 30
0.0
 10
34.1986432785
 20
41.3452499443
 30
0.0
 10
34.1396535673
 20
41.5217525304
 30
0.0
  0
SPLINE
  5
331
100
AcDbEntity
  8
0
100
AcDbSpline
 62
7
  6
BYLAYER
 70
0
 71
3
 72
13
 73
9
 74
0
 42
0.0000001
 43
0.0000001
 44
0.0000000001
 40
0.0
 40
0.0
 40
0.0
 40
0.0
 40
0.1254519348
 40
0.2508766562
 40
0.3762283518
 40
0.501441927
 40
0.7507549351
 40
1.0
 40
1.0
 40
1.0
 40
1.0
 10
5.6386779502
 20
37.5753676363
 30
0.0
 10
5.6386631379
 20
37.6016273024
 30
0.0
 10
5.6422896401
 20
37.6542191946
 30
0.0
 10
5.6586511969
 20
37.7314945018
 30
0.0
 10
5.6853801952
 20
37.8057944079
 30
0.0
 10
5.7340732005
 20
37.898720032
 30
0.0
 10
5.817236808
 20
38.0013911081
 30
0.0
 10
5.9020591248
 20
38.0641381213
 30
0.0
 10
5.9472415735
 20
38.090224062
 30
0.0
  0
SPLINE
  5
332
100
AcDbEntity
  8
0
100
AcDbSpline
 62
7
  6
BYLAYER
 70
0
 71
3
 72
11
 73
7
 74
0
 42
0.0000001
 43
0.0000001
 44
0.0000000001
 40
0.0
 40
0.0
 40
0.0
 40
0.0
 40
0.2494780642
 40
0.4990785106
 40
0.7493448905
 40
1.0
 40
1.0
 40
1.0
 40
1.0
 10
42.7925247405
 20
38.0903132139
 30
0.0
 10
42.8376688685
 20
38.0642498291
 30
0.0
 10
42.922426709
 20
38.0015145553
 30
0.0
 10
43.022211587
 20
37.8786211528
 30
0.0
 10
43.0863384253
 20
37.7334544462
 30
0.0
 10
43.101063097
 20
37.6282177304
 30
0.0
 10
43.1010926393
 20
37.5758441448
 30
0.0
  0
SPLINE
  5
333
100
AcDbEntity
  8
0
100
AcDbSpline
 62
7
  6
BYLAYER
 70
0
 71
3
 72
12
 73
8
 74
0
 42
0.0000001
 43
0.0000001
 44
0.0000000001
 40
0.0
 40
0.0
 40
0.0
 40
0.0
 40
0.108170029
 40
0.2183724121
 40
0.4513229256
 40
0.7105138024
 40
1.0
 40
1.0
 40
1.0
 40
1.0
 10
43.101104722
 20
36.51419609
 30
0.0
 10
43.1011047182
 20
36.500943562
 30
0.0
 10
43.0987859285
 20
36.47413525
 30
0.0
 10
43.0848721137
 20
36.4203942221
 30
0.0
 10
43.0491254051
 20
36.3544770052
 30
0.0
 10
42.9825243069
 20
36.2845617291
 30
0.0
 10
42.9268000511
 20
36.2461607861
 30
0.0
 10
42.8960850225
 20
36.2284275618
 30
0.0
  0
SPLINE
  5
334
100
AcDbEntity
  8
0
100
AcDbSpline
 62
7
  6
BYLAYER
 70
0
 71
3
 72
15
 73
11
 74
0
 42
0.0000001
 43
0.0000001
 44
0.0000000001
 40
0.0
 40
0.0
 40
0.0
 40
0.0
 40
0.1189060823
 40
0.2385938081
 40
0.3597271674
 40
0.4827014923
 40
0.6078415956
 40
0.7356123931
 40
0.8663197865
 40
1.0
 40
1.0
 40
1.0
 40
1.0
 10
15.7546294932
 20
44.9761348671
 30
0.0
 10
15.8064456652
 20
45.131170699
 30
0.0
 10
15.9286624112
 20
45.4364630821
 30
0.0
 10
16.1625404734
 20
45.87321895
 30
0.0
 10
16.4436447751
 20
46.2879016574
 30
0.0
 10
16.7682133775
 20
46.6791569661
 30
0.0
 10
17.1330676864
 20
47.0460079803
 30
0.0
 10
17.5352909314
 20
47.3879783073
 30
0.0
 10
17.9720293292
 20
47.7048642077
 30
0.0
 10
18.2809503665
 20
47.8970077928
 30
0.0
 10
18.4401055895
 20
47.9888955552
 30
0.0
  0
SPLINE
  5
335
100
AcDbEntity
  8
0
100
AcDbSpline
 62
7
  6
BYLAYER
 70
0
 71
3
 72
12
 73
8
 74
0
 42
0.0000001
 43
0.0000001
 44
0.0000000001
 40
0.0
 40
0.0
 40
0.0
 40
0.0
 40
0.2894866728
 40
0.548677646
 40
0.7816279888
 40
0.8918301927
 40
1.0
 40
1.0
 40
1.0
 40
1.0
 10
5.8436896886
 20
36.2283384988
 30
0.0
 10
5.8129740854
 20
36.2460717595
 30
0.0
 10
5.7572487725
 20
36.2844728356
 30
0.0
 10
5.6906463297
 20
36.3543886301
 30
0.0
 10
5.654898843
 20
36.4203065078
 30
0.0
 10
5.6409847046
 20
36.4740481237
 30
0.0
 10
5.6386658639
 20
36.5008567348
 30
0.0
 10
5.6386658676
 20
36.5141094066
 30
0.0
  0
SPLINE
  5
336
100
AcDbEntity
  8
0
100
AcDbSpline
 62
7
  6
BYLAYER
 70
0
 71
3
 72
15
 73
11
 74
0
 42
0.0000001
 43
0.0000001
 44
0.0000000001
 40
0.0
 40
0.0
 40
0.0
 40
0.0
 40
0.1141231812
 40
0.2373468278
 40
0.366971913
 40
0.4999994099
 40
0.6330269884
 40
0.76265231
 40
0.885876356
 40
1.0
 40
1.0
 40
1.0
 40
1.0
 10
24.8649371735
 20
25.8182016381
 30
0.0
 10
24.8310617411
 20
25.7986437649
 30
0.0
 10
24.7569543946
 20
25.7641514602
 30
0.0
 10
24.6363026245
 20
25.72745686
 30
0.0
 10
24.505655888
 20
25.7048974729
 30
0.0
 10
24.3699633296
 20
25.6972677853
 30
0.0
 10
24.2342706536
 20
25.7048968133
 30
0.0
 10
24.1036235597
 20
25.7274555707
 30
0.0
 10
23.9829712287
 20
25.7641496118
 30
0.0
 10
23.9088633907
 20
25.7986415503
 30
0.0
 10
23.8749876799
 20
25.8181992586
 30
0.0
  0
SPLINE
  5
337
100
AcDbEntity
  8
0
100
AcDbSpline
 62
7
  6
BYLAYER
 70
0
 71
3
 72
34
 73
30
 74
0
 42
0.0000001
 43
0.0000001
 44
0.0000000001
 40
0.0
 40
0.0
 40
0.0
 40
0.0
 40
0.0213256228
 40
0.0428795256
 40
0.0648783145
 40
0.0875161998
 40
0.1109588093
 40
0.1353383679
 40
0.1607541034
 40
0.1872717562
 40
0.2149277726
 40
0.2437300541
 40
0.2736633686
 40
0.3046897347
 40
0.3367538757
 40
0.369782934
 40
0.4036915697
 40
0.438381248
 40
0.5096473617
 40
0.5826507853
 40
0.6563612285
 40
0.7297172544
 40
0.8016731025
 40
0.8368249254
 40
0.8712651588
 40
0.9048883236
 40
0.9376075625
 40
0.9693414818
 40
1.0
 40
1.0
 40
1.0
 40
1.0
 10
14.4198924244
 20
40.4333643506
 30
0.0
 10
14.4198987916
 20
40.2922124408
 30
0.0
 10
14.4381082428
 20
40.0080712875
 30
0.0
 10
14.5197449757
 20
39.5853963881
 30
0.0
 10
14.6551625844
 20
39.1676242385
 30
0.0
 10
14.8434424234
 20
38.7571834033
 30
0.0
 10
15.0834117488
 20
38.3562867404
 30
0.0
 10
15.3736112617
 20
37.9670427253
 30
0.0
 10
15.7124027941
 20
37.5914988215
 30
0.0
 10
16.0978745238
 20
37.2315737731
 30
0.0
 10
16.5279463349
 20
36.889169653
 30
0.0
 10
17.0002650484
 20
36.5660347839
 30
0.0
 10
17.5123116562
 20
36.2639089032
 30
0.0
 10
18.0613101906
 20
35.9843406423
 30
0.0
 10
18.644332047
 20
35.7288648234
 30
0.0
 10
19.2582198499
 20
35.4987916883
 30
0.0
 10
19.8997001928
 20
35.2954001694
 30
0.0
 10
20.7950975664
 20
35.0591019649
 30
0.0
 10
21.9607231071
 20
34.8385183787
 30
0.0
 10
23.3981394004
 20
34.6955740393
 30
0.0
 10
24.8563845613
 20
34.6750565812
 30
0.0
 10
26.3041545341
 20
34.7774087791
 30
0.0
 10
27.485613271
 20
34.9647229854
 30
0.0
 10
28.3988583411
 20
35.1751780343
 30
0.0
 10
29.0567964608
 20
35.3601674092
 30
0.0
 10
29.6894403201
 20
35.5725908826
 30
0.0
 10
30.2934661581
 20
35.8112844189
 30
0.0
 10
30.8654574609
 20
36.0749983161
 30
0.0
 10
31.2298883325
 20
36.2699066471
 30
0.0
 10
31.40562706
 20
36.371368843
 30
0.0
  0
SPLINE
  5
338
100
AcDbEntity
  8
0
100
AcDbSpline
 62
7
  6
BYLAYER
 70
0
 71
3
 72
32
 73
28
 74
0
 42
0.0000001
 43
0.0000001
 44
0.0000000001
 40
0.0
 40
0.0
 40
0.0
 40
0.0
 40
0.022292043
 40
0.0442080945
 40
0.0660137312
 40
0.0879814925
 40
0.1103743369
 40
0.1334298027
 40
0.1573506858
 40
0.1822975198
 40
0.2083884364
 40
0.2356995836
 40
0.2642687984
 40
0.2940999078
 40
0.3251658724
 40
0.3574144777
 40
0.4251103478
 40
0.4964032755
 40
0.5702577321
 40
0.645497676
 40
0.7208754067
 40
0.7951358774
 40
0.8670826155
 40
0.9018559879
 40
0.9356672399
 40
0.9684179646
 40
1.0
 40
1.0
 40
1.0
 40
1.0
 10
15.7546294644
 20
44.976134834
 30
0.0
 10
15.7112581387
 20
44.8463665192
 30
0.0
 10
15.6415042007
 20
44.5831925737
 30
0.0
 10
15.5909990228
 20
44.1799554591
 30
0.0
 10
15.5963670322
 20
43.7755071726
 30
0.0
 10
15.6574687198
 20
43.372752993
 30
0.0
 10
15.7738710668
 20
42.9744473354
 30
0.0
 10
15.9445461254
 20
42.5832062691
 30
0.0
 10
16.1682586218
 20
42.2015268783
 30
0.0
 10
16.4433878327
 20
41.8317244192
 30
0.0
 10
16.7681057666
 20
41.4760266055
 30
0.0
 10
17.1403121866
 20
41.1365582498
 30
0.0
 10
17.5576389355
 20
40.8153309357
 30
0.0
 10
18.017491458
 20
40.5143148504
 30
0.0
 10
18.5169898267
 20
40.2352774161
 30
0.0
 10
19.2434190171
 20
39.8893579486
 30
0.0
 10
20.2321340949
 20
39.5254854367
 30
0.0
 10
21.5012754723
 20
39.2068021301
 30
0.0
 10
22.8411870006
 20
39.0067863841
 30
0.0
 10
24.2187481495
 20
38.9303813838
 30
0.0
 10
25.6000729181
 20
38.979462644
 30
0.0
 10
26.9509661578
 20
39.1528012653
 30
0.0
 10
28.0360535773
 20
39.4000589574
 30
0.0
 10
28.8595456704
 20
39.6579030268
 30
0.0
 10
29.4422488261
 20
39.8764278777
 30
0.0
 10
29.9931728593
 20
40.1209063321
 30
0.0
 10
30.3436374169
 20
40.3035431086
 30
0.0
 10
30.5123344119
 20
40.3990261441
 30
0.0
  0
SPLINE
  5
339
100
AcDbEntity
  8
0
100
AcDbSpline
 62
7
  6
BYLAYER
 70
0
 71
3
 72
41
 73
37
 74
0
 42
0.0000001
 43
0.0000001
 44
0.0000000001
 40
0.0
 40
0.0
 40
0.0
 40
0.0
 40
0.0309875687
 40
0.0603874376
 40
0.0881822665
 40
0.1015079888
 40
0.1144705116
 40
0.1393813519
 40
0.1631599395
 40
0.1861234799
 40
0.208655148
 40
0.2311759352
 40
0.2541082775
 40
0.2778379137
 40
0.3026848501
 40
0.3156118246
 40
0.328900881
 40
0.3566180634
 40
0.3859280591
 40
0.4168419364
 40
0.4493130702
 40
0.483244394
 40
0.5184996258
 40
0.5549088642
 40
0.5922753796
 40
0.6303826959
 40
0.6689983083
 40
0.707880306
 40
0.7467812841
 40
0.7854528198
 40
0.8236521292
 40
0.8611462148
 40
0.8977133819
 40
0.933154503
 40
0.9673059533
 40
1.0
 40
1.0
 40
1.0
 40
1.0
 10
19.1901022509
 20
47.9146091257
 30
0.0
 10
19.025412694
 20
47.8195261333
 30
0.0
 10
18.7118983597
 20
47.6208468796
 30
0.0
 10
18.2831431306
 20
47.2893296154
 30
0.0
 10
17.9695401106
 20
46.9896563442
 30
0.0
 10
17.7507894978
 20
46.7397877226
 30
0.0
 10
17.5587605849
 20
46.4908918722
 30
0.0
 10
17.3569785313
 20
46.1693295872
 30
0.0
 10
17.1789534909
 20
45.765429404
 30
0.0
 10
17.0703785549
 20
45.3524454917
 30
0.0
 10
17.0327601548
 20
44.9347203583
 30
0.0
 10
17.0667600095
 20
44.5168737567
 30
0.0
 10
17.1717794107
 20
44.103538715
 30
0.0
 10
17.3463421659
 20
43.6990814698
 30
0.0
 10
17.5453872728
 20
43.3768754567
 30
0.0
 10
17.735301196
 20
43.1274092882
 30
0.0
 10
17.9519278937
 20
42.8769081246
 30
0.0
 10
18.2629554675
 20
42.576363126
 30
0.0
 10
18.6888872353
 20
42.2435611435
 30
0.0
 10
19.168669383
 20
41.9365150046
 30
0.0
 10
19.6977542492
 20
41.6581042267
 30
0.0
 10
20.271137705
 20
41.4108293185
 30
0.0
 10
20.8834165463
 20
41.1970192257
 30
0.0
 10
21.5288037292
 20
41.0186907221
 30
0.0
 10
22.2011758283
 20
40.8774835528
 30
0.0
 10
22.8941627648
 20
40.7747780683
 30
0.0
 10
23.6011794567
 20
40.7115272389
 30
0.0
 10
24.3155062182
 20
40.688316457
 30
0.0
 10
25.0303481329
 20
40.7054125085
 30
0.0
 10
25.7389068178
 20
40.7626015561
 30
0.0
 10
26.4344526677
 20
40.8593629617
 30
0.0
 10
27.1103687266
 20
40.9948066149
 30
0.0
 10
27.7602495738
 20
41.1675783847
 30
0.0
 10
28.3779982952
 20
41.3761266969
 30
0.0
 10
28.9576132198
 20
41.6184780804
 30
0.0
 10
29.3234153351
 20
41.8052947747
 30
0.0
 10
29.4980256288
 20
41.9041247561
 30
0.0
  0
SPLINE
  5
33A
100
AcDbEntity
  8
0
100
AcDbSpline
 62
7
  6
BYLAYER
 70
0
 71
3
 72
24
 73
20
 74
0
 42
0.0000001
 43
0.0000001
 44
0.0000000001
 40
0.0
 40
0.0
 40
0.0
 40
0.0
 40
0.073812011
 40
0.1437259272
 40
0.2097112426
 40
0.2719973422
 40
0.3309917853
 40
0.3873104257
 40
0.4417828035
 40
0.495399434
 40
0.5492315157
 40
0.6043300297
 40
0.6616274843
 40
0.7218731103
 40
0.7532918763
 40
0.785630719
 40
0.853162944
 40
0.9246320996
 40
1.0
 40
1.0
 40
1.0
 40
1.0
 10
29.5496683387
 20
41.9336461637
 30
0.0
 10
29.7189747925
 20
42.0313947069
 30
0.0
 10
30.0408093203
 20
42.2358579875
 30
0.0
 10
30.4795416024
 20
42.5779942239
 30
0.0
 10
30.8570408724
 20
42.9443850855
 30
0.0
 10
31.169301778
 20
43.3314973503
 30
0.0
 10
31.413012998
 20
43.7357211932
 30
0.0
 10
31.5851678692
 20
44.15319183
 30
0.0
 10
31.683388389
 20
44.5795653626
 30
0.0
 10
31.7062206992
 20
45.0100268331
 30
0.0
 10
31.6532110751
 20
45.4394650545
 30
0.0
 10
31.5252439071
 20
45.8628394092
 30
0.0
 10
31.3242803766
 20
46.2755207026
 30
0.0
 10
31.1011594275
 20
46.6025211017
 30
0.0
 10
30.890720476
 20
46.8548961796
 30
0.0
 10
30.6518495072
 20
47.1078743158
 30
0.0
 10
30.3116898941
 20
47.4097968733
 30
0.0
 10
29.8497719677
 20
47.7413776801
 30
0.0
 10
29.5137574789
 20
47.9383734287
 30
0.0
 10
29.3375785212
 20
48.0322279531
 30
0.0
  0
SPLINE
  5
33B
100
AcDbEntity
  8
0
100
AcDbSpline
 62
7
  6
BYLAYER
 70
0
 71
3
 72
19
 73
15
 74
0
 42
0.0000001
 43
0.0000001
 44
0.0000000001
 40
0.0
 40
0.0
 40
0.0
 40
0.0
 40
0.1514091429
 40
0.2930044772
 40
0.4249832708
 40
0.5483162787
 40
0.6073026363
 40
0.6648334775
 40
0.721240904
 40
0.7768952122
 40
0.8321914428
 40
0.8875390798
 40
0.9433448213
 40
1.0
 40
1.0
 40
1.0
 40
1.0
 10
30.5741916735
 20
40.434386671
 30
0.0
 10
30.8185347081
 20
40.5754573457
 30
0.0
 10
31.2779938839
 20
40.8728696149
 30
0.0
 10
31.8884060949
 20
41.3807191448
 30
0.0
 10
32.3885830591
 20
41.9290544837
 30
0.0
 10
32.7117415771
 20
42.4212686855
 30
0.0
 10
32.9037702432
 20
42.8255010283
 30
0.0
 10
33.0139185484
 20
43.1288846384
 30
0.0
 10
33.0917204352
 20
43.4357426488
 30
0.0
 10
33.1369376034
 20
43.7448840809
 30
0.0
 10
33.1492653983
 20
44.0551050261
 30
0.0
 10
33.1287103967
 20
44.3651766824
 30
0.0
 10
33.0753647974
 20
44.6738423867
 30
0.0
 10
33.0185943818
 20
44.8760038392
 30
0.0
 10
32.9851300748
 20
44.976133603
 30
0.0
  0
SPLINE
  5
33C
100
AcDbEntity
  8
0
100
AcDbSpline
 62
7
  6
BYLAYER
 70
0
 71
3
 72
12
 73
8
 74
0
 42
0.0000001
 43
0.0000001
 44
0.0000000001
 40
0.0
 40
0.0
 40
0.0
 40
0.0
 40
0.1081556578
 40
0.2183491095
 40
0.451297987
 40
0.7105253571
 40
1.0
 40
1.0
 40
1.0
 40
1.0
 10
5.6386630423
 20
37.5753994643
 30
0.0
 10
5.6386745209
 20
37.5621543016
 30
0.0
 10
5.641009059
 20
37.5353622793
 30
0.0
 10
5.6549393599
 20
37.4816531126
 30
0.0
 10
5.6906967436
 20
37.415774881
 30
0.0
 10
5.7572872899
 20
37.3459041539
 30
0.0
 10
5.8129887375
 20
37.3075164425
 30
0.0
 10
5.8436896886
 20
37.2897916411
 30
0.0
  0
SPLINE
  5
33D
100
AcDbEntity
  8
0
100
AcDbSpline
 62
7
  6
BYLAYER
 70
0
 71
3
 72
17
 73
13
 74
0
 42
0.0000001
 43
0.0000001
 44
0.0000000001
 40
0.0
 40
0.0
 40
0.0
 40
0.0
 40
0.1485521713
 40
0.2894548902
 40
0.4226450831
 40
0.5485382978
 40
0.6678762429
 40
0.7817924004
 40
0.8372271054
 40
0.8919112267
 40
0.9460849713
 40
1.0
 40
1.0
 40
1.0
 40
1.0
 10
31.40562706
 20
36.371368843
 30
0.0
 10
31.6300255357
 20
36.50092459
 30
0.0
 10
32.0571167809
 20
36.7716406478
 30
0.0
 10
32.6410165505
 20
37.2235680722
 30
0.0
 10
33.1460595972
 20
37.7069823249
 30
0.0
 10
33.5671870432
 20
38.2174693097
 30
0.0
 10
33.9001429294
 20
38.7503882764
 30
0.0
 10
34.1028669641
 20
39.2136846059
 30
0.0
 10
34.2156516951
 20
39.5882115913
 30
0.0
 10
34.2757207987
 20
39.8687611483
 30
0.0
 10
34.3118508715
 20
40.1506896333
 30
0.0
 10
34.3198824072
 20
40.3393228696
 30
0.0
 10
34.3198781651
 20
40.4333643504
 30
0.0
  0
SPLINE
  5
33E
100
AcDbEntity
  8
0
100
AcDbSpline
 62
7
  6
BYLAYER
 70
0
 71
3
 72
12
 73
8
 74
0
 42
0.0000001
 43
0.0000001
 44
0.0000000001
 40
0.0
 40
0.0
 40
0.0
 40
0.0
 40
0.1081416076
 40
0.2182947457
 40
0.4512526876
 40
0.7106893914
 40
1.0
 40
1.0
 40
1.0
 40
1.0
 10
42.7925131712
 20
38.0902931772
 30
0.0
 10
42.7843182398
 20
38.0950261787
 30
0.0
 10
42.7669249272
 20
38.1031878431
 30
0.0
 10
42.7287180596
 20
38.1137778696
 30
0.0
 10
42.6751559278
 20
38.1152162934
 30
0.0
 10
42.6081274414
 20
38.0989349588
 30
0.0
 10
42.5644547851
 20
38.0782080642
 30
0.0
 10
42.5425289823
 20
38.0655492716
 30
0.0
  0
LINE
  5
33F
100
AcDbEntity
  8
0
100
AcDbLine
 62
7
  6
BYLAYER
 10
19.1901022509
 20
47.9146091257
 11
19.2417449607
 21
47.9441305333
  0
SPLINE
  5
340
100
AcDbEntity
  8
0
100
AcDbSpline
 62
7
  6
BYLAYER
 70
0
 71
3
 72
15
 73
11
 74
0
 42
0.0000001
 43
0.0000001
 44
0.0000000001
 40
0.0
 40
0.0
 40
0.0
 40
0.0
 40
0.1140729022
 40
0.2373311499
 40
0.3669179829
 40
0.4999146592
 40
0.632924508
 40
0.7625779514
 40
0.8859047626
 40
1.0
 40
1.0
 40
1.0
 40
1.0
 10
42.5425301422
 20
37.9022522797
 30
0.0
 10
42.5667162751
 20
37.8882887253
 30
0.0
 10
42.6145042521
 20
37.8547513557
 30
0.0
 10
42.6803074073
 20
37.7932600608
 30
0.0
 10
42.7409221409
 20
37.7205080461
 30
0.0
 10
42.7940657824
 20
37.6392976175
 30
0.0
 10
42.8378436861
 20
37.5526603488
 30
0.0
 10
42.8705658854
 20
37.4637601234
 30
0.0
 10
42.8909262059
 20
37.3759897101
 30
0.0
 10
42.8960850048
 20
37.3178137448
 30
0.0
 10
42.8960850048
 20
37.2898806939
 30
0.0
  0
SPLINE
  5
341
100
AcDbEntity
  8
0
100
AcDbSpline
 62
7
  6
BYLAYER
 70
0
 71
3
 72
12
 73
8
 74
0
 42
0.0000001
 43
0.0000001
 44
0.0000000001
 40
0.0
 40
0.0
 40
0.0
 40
0.0
 40
0.2895138638
 40
0.5486875804
 40
0.7816176826
 40
0.8918235344
 40
1.0
 40
1.0
 40
1.0
 40
1.0
 10
42.8960850224
 20
37.2898807041
 30
0.0
 10
42.9268031981
 20
37.3076157444
 30
0.0
 10
42.9825274399
 20
37.3460189576
 30
0.0
 10
43.0491326531
 20
37.4159308765
 30
0.0
 10
43.0848705947
 20
37.4818476338
 30
0.0
 10
43.0987920479
 20
37.5355855072
 30
0.0
 10
43.1011098111
 20
37.5623958248
 30
0.0
 10
43.1011076313
 20
37.5756492322
 30
0.0
  0
SPLINE
  5
342
100
AcDbEntity
  8
0
100
AcDbSpline
 62
7
  6
BYLAYER
 70
0
 71
3
 72
15
 73
11
 74
0
 42
0.0000001
 43
0.0000001
 44
0.0000000001
 40
0.0
 40
0.0
 40
0.0
 40
0.0
 40
0.1140725843
 40
0.2373306492
 40
0.3669174217
 40
0.4999141378
 40
0.6329240987
 40
0.7625776935
 40
0.8859046562
 40
1.0
 40
1.0
 40
1.0
 40
1.0
 10
24.2285395808
 20
27.4920256966
 30
0.0
 10
24.2043536305
 20
27.478062015
 30
0.0
 10
24.1565660266
 20
27.4445243903
 30
0.0
 10
24.090763431
 20
27.3830327808
 30
0.0
 10
24.0301492124
 20
27.3102804793
 30
0.0
 10
23.977006022
 20
27.229069802
 30
0.0
 10
23.9332284899
 20
27.1424323313
 30
0.0
 10
23.9005065685
 20
27.0535319602
 30
0.0
 10
23.8801464207
 20
26.9657614638
 30
0.0
 10
23.8749876622
 20
26.9075854712
 30
0.0
 10
23.8749876622
 20
26.8796524111
 30
0.0
  0
SPLINE
  5
343
100
AcDbEntity
  8
0
100
AcDbSpline
 62
7
  6
BYLAYER
 70
0
 71
3
 72
15
 73
11
 74
0
 42
0.0000001
 43
0.0000001
 44
0.0000000001
 40
0.0
 40
0.0
 40
0.0
 40
0.0
 40
0.1140737828
 40
0.2373327242
 40
0.3669199967
 40
0.499916823
 40
0.6329265219
 40
0.7625795259
 40
0.8859056431
 40
1.0
 40
1.0
 40
1.0
 40
1.0
 10
24.8649371735
 20
26.8796547804
 30
0.0
 10
24.8649371735
 20
26.9075825787
 30
0.0
 10
24.8597864372
 20
26.9657372004
 30
0.0
 10
24.8394343233
 20
27.0534703994
 30
0.0
 10
24.8067360227
 20
27.1423404268
 30
0.0
 10
24.7629770902
 20
27.2289692727
 30
0.0
 10
24.7098356398
 20
27.3102003422
 30
0.0
 10
24.6492067032
 20
27.3829881529
 30
0.0
 10
24.5833754226
 20
27.4445051618
 30
0.0
 10
24.5355729927
 20
27.4780601856
 30
0.0
 10
24.5113823109
 20
27.4920263662
 30
0.0
  0
SPLINE
  5
344
100
AcDbEntity
  8
0
100
AcDbSpline
 62
7
  6
BYLAYER
 70
0
 71
3
 72
15
 73
11
 74
0
 42
0.0000001
 43
0.0000001
 44
0.0000000001
 40
0.0
 40
0.0
 40
0.0
 40
0.0
 40
0.1141229601
 40
0.2373235855
 40
0.3669237987
 40
0.4999417161
 40
0.6329735592
 40
0.7626088418
 40
0.8858601243
 40
1.0
 40
1.0
 40
1.0
 40
1.0
 10
23.8749876798
 20
26.8796524009
 30
0.0
 10
23.9088632164
 20
26.8600947922
 30
0.0
 10
23.9829636572
 20
26.8256067659
 30
0.0
 10
24.1035981713
 20
26.7889121004
 30
0.0
 10
24.2342254492
 20
26.7663553456
 30
0.0
 10
24.3699072117
 20
26.7587192261
 30
0.0
 10
24.5056019485
 20
26.7663417513
 30
0.0
 10
24.6362645762
 20
26.7888969873
 30
0.0
 10
24.756933382
 20
26.8255999171
 30
0.0
 10
24.8310567564
 20
26.8600940292
 30
0.0
 10
24.8649371735
 20
26.8796547804
 30
0.0
  0
SPLINE
  5
345
100
AcDbEntity
  8
0
100
AcDbSpline
 62
7
  6
BYLAYER
 70
0
 71
3
 72
11
 73
7
 74
0
 42
0.0000001
 43
0.0000001
 44
0.0000000001
 40
0.0
 40
0.0
 40
0.0
 40
0.0
 40
0.2895787044
 40
0.5491472248
 40
0.782246825
 40
1.0
 40
1.0
 40
1.0
 40
1.0
 10
6.1972404473
 20
38.0654619185
 30
0.0
 10
6.1753105457
 20
38.0781228666
 30
0.0
 10
6.1316514398
 20
38.0988630878
 30
0.0
 10
6.064580045
 20
38.1151004622
 30
0.0
 10
6.0016161609
 20
38.113518161
 30
0.0
 10
5.9637451335
 20
38.0997220796
 30
0.0
 10
5.9472531404
 20
38.0902040227
 30
0.0
  0
SPLINE
  5
346
100
AcDbEntity
  8
0
100
AcDbSpline
 62
7
  6
BYLAYER
 70
0
 71
3
 72
15
 73
11
 74
0
 42
0.0000001
 43
0.0000001
 44
0.0000000001
 40
0.0
 40
0.0
 40
0.0
 40
0.0
 40
0.1140738892
 40
0.237332982
 40
0.3669204057
 40
0.4999173443
 40
0.632927083
 40
0.7625800266
 40
0.8859059611
 40
1.0
 40
1.0
 40
1.0
 40
1.0
 10
5.8436896886
 20
37.2897916411
 30
0.0
 10
5.8436896886
 20
37.3177194487
 30
0.0
 10
5.8488403846
 20
37.3758740977
 30
0.0
 10
5.8691923259
 20
37.4636073797
 30
0.0
 10
5.9018903487
 20
37.5524775527
 30
0.0
 10
5.9456489099
 20
37.6391066004
 30
0.0
 10
5.9987899092
 20
37.7203379187
 30
0.0
 10
6.0594183305
 20
37.7931260162
 30
0.0
 10
6.1252490514
 20
37.8546433399
 30
0.0
 10
6.1730511081
 20
37.8881986188
 30
0.0
 10
6.1972416072
 20
37.9021649266
 30
0.0
  0
SPLINE
  5
347
100
AcDbEntity
  8
0
100
AcDbSpline
 62
7
  6
BYLAYER
 70
0
 71
3
 72
15
 73
11
 74
0
 42
0.0000001
 43
0.0000001
 44
0.0000000001
 40
0.0
 40
0.0
 40
0.0
 40
0.0
 40
0.1445835906
 40
0.2745391987
 40
0.3911783533
 40
0.4999990438
 40
0.608819908
 40
0.7254595243
 40
0.855415756
 40
1.0
 40
1.0
 40
1.0
 40
1.0
 10
6.1972421225
 20
38.0654628857
 30
0.0
 10
6.188483088
 20
38.0604058854
 30
0.0
 10
6.1725843478
 20
38.0494132929
 30
0.0
 10
6.1535160949
 20
38.0294541268
 30
0.0
 10
6.1414858553
 20
38.0072857814
 30
0.0
 10
6.1373066517
 20
37.983813254
 30
0.0
 10
6.1414862047
 20
37.9603407586
 30
0.0
 10
6.1535167601
 20
37.9381724903
 30
0.0
 10
6.1725852913
 20
37.9182134272
 30
0.0
 10
6.1884841897
 20
37.9072209096
 30
0.0
 10
6.1972433001
 20
37.9021639492
 30
0.0
  0
SPLINE
  5
348
100
AcDbEntity
  8
0
100
AcDbSpline
 62
7
  6
BYLAYER
 70
0
 71
3
 72
15
 73
11
 74
0
 42
0.0000001
 43
0.0000001
 44
0.0000000001
 40
0.0
 40
0.0
 40
0.0
 40
0.0
 40
0.1445835906
 40
0.2745391987
 40
0.3911783533
 40
0.4999990438
 40
0.608819908
 40
0.7254595243
 40
0.855415756
 40
1.0
 40
1.0
 40
1.0
 40
1.0
 10
42.542528467
 20
37.9022513126
 30
0.0
 10
42.5512875016
 20
37.9073083129
 30
0.0
 10
42.5671862417
 20
37.9183009054
 30
0.0
 10
42.5862544946
 20
37.9382600714
 30
0.0
 10
42.5982847342
 20
37.9604284168
 30
0.0
 10
42.6024639378
 20
37.9839009443
 30
0.0
 10
42.5982843849
 20
38.0073734396
 30
0.0
 10
42.5862538294
 20
38.0295417079
 30
0.0
 10
42.5671852982
 20
38.049500771
 30
0.0
 10
42.5512863998
 20
38.0604932886
 30
0.0
 10
42.5425272894
 20
38.065550249
 30
0.0
  0
SPLINE
  5
349
100
AcDbEntity
  8
0
100
AcDbSpline
 62
7
  6
BYLAYER
 70
0
 71
3
 72
13
 73
9
 74
0
 42
0.0000001
 43
0.0000001
 44
0.0000000001
 40
0.0
 40
0.0
 40
0.0
 40
0.0
 40
0.114062822
 40
0.2375582606
 40
0.5000005227
 40
0.7624424988
 40
0.8859376012
 40
1.0
 40
1.0
 40
1.0
 40
1.0
 10
24.2285379056
 20
27.4920266637
 30
0.0
 10
24.2382028411
 20
27.4864467363
 30
0.0
 10
24.2593874702
 20
27.4766138433
 30
0.0
 10
24.3062921032
 20
27.4623110426
 30
0.0
 10
24.3699611762
 20
27.4554192868
 30
0.0
 10
24.4336301881
 20
27.4623113366
 30
0.0
 10
24.4805346446
 20
27.4766143689
 30
0.0
 10
24.5017191442
 20
27.4864473676
 30
0.0
 10
24.5113840038
 20
27.4920273436
 30
0.0
  0
SPLINE
  5
34A
100
AcDbEntity
  8
0
100
AcDbSpline
 62
7
  6
BYLAYER
 70
0
 71
3
 72
17
 73
13
 74
0
 42
0.0000001
 43
0.0000001
 44
0.0000000001
 40
0.0
 40
0.0
 40
0.0
 40
0.0
 40
0.0539148648
 40
0.1080884889
 40
0.1627724407
 40
0.2182068936
 40
0.3321222689
 40
0.4514599941
 40
0.5773533092
 40
0.7105441052
 40
0.8514477903
 40
1.0
 40
1.0
 40
1.0
 40
1.0
 10
34.3198745155
 20
37.9838570923
 30
0.0
 10
34.3198788672
 20
37.8898159335
 30
0.0
 10
34.3118466644
 20
37.7011832838
 30
0.0
 10
34.2757171606
 20
37.4192556977
 30
0.0
 10
34.2156496176
 20
37.138706855
 30
0.0
 10
34.102865315
 20
36.76418211
 30
0.0
 10
33.9001450502
 20
36.3008867438
 30
0.0
 10
33.5671892749
 20
35.7679697769
 30
0.0
 10
33.146064177
 20
35.257480237
 30
0.0
 10
32.6410195647
 20
34.7740635724
 30
0.0
 10
32.057117748
 20
34.3221347311
 30
0.0
 10
31.6300255077
 20
34.0514173225
 30
0.0
 10
31.40562706
 20
33.9218615916
 30
0.0
  0
SPLINE
  5
34B
100
AcDbEntity
  8
0
100
AcDbSpline
 62
7
  6
BYLAYER
 70
0
 71
3
 72
12
 73
8
 74
0
 42
0.0000001
 43
0.0000001
 44
0.0000000001
 40
0.0
 40
0.0
 40
0.0
 40
0.0
 40
0.1136483028
 40
0.2311795872
 40
0.4765757515
 40
0.7338492421
 40
1.0
 40
1.0
 40
1.0
 40
1.0
 10
31.40562706
 20
33.9218615916
 30
0.0
 10
31.2350427063
 20
33.823375257
 30
0.0
 10
30.8816469009
 20
33.6339348948
 30
0.0
 10
30.1320851121
 20
33.2860747711
 30
0.0
 10
29.1211757409
 20
32.9144569342
 30
0.0
 10
27.8302686439
 20
32.5771641937
 30
0.0
 10
26.9342460646
 20
32.4267915366
 30
0.0
 10
26.4765244322
 20
32.369537486
 30
0.0
  0
LINE
  5
34C
100
AcDbEntity
  8
0
100
AcDbLine
 62
7
  6
BYLAYER
 10
29.5496683387
 20
41.9336461637
 11
29.4980256288
 21
41.9041247561
  0
SPLINE
  5
34D
100
AcDbEntity
  8
0
100
AcDbSpline
 62
7
  6
BYLAYER
 70
0
 71
3
 72
12
 73
8
 74
0
 42
0.0000001
 43
0.0000001
 44
0.0000000001
 40
0.0
 40
0.0
 40
0.0
 40
0.0
 40
0.1081683668
 40
0.2183693076
 40
0.4513184051
 40
0.7105102991
 40
1.0
 40
1.0
 40
1.0
 40
1.0
 10
43.1718727096
 20
31.206930543
 30
0.0
 10
43.1718727062
 20
31.1936796487
 30
0.0
 10
43.169554036
 20
31.1668746052
 30
0.0
 10
43.155640896
 20
31.1131401193
 30
0.0
 10
43.1198955579
 20
31.0472314856
 30
0.0
 10
43.0532986169
 20
30.9773261742
 30
0.0
 10
42.9975781034
 20
30.9389314792
 30
0.0
 10
42.966864864
 20
30.9212019518
 30
0.0
  0
SPLINE
  5
34E
100
AcDbEntity
  8
0
100
AcDbSpline
 62
7
  6
BYLAYER
 70
0
 71
3
 72
9
 73
5
 74
0
 42
0.0000001
 43
0.0000001
 44
0.0000000001
 40
0.0
 40
0.0
 40
0.0
 40
0.0
 40
0.4828084302
 40
1.0
 40
1.0
 40
1.0
 40
1.0
 10
43.1718727097
 20
36.5141962544
 30
0.0
 10
43.1718727048
 20
36.5410101814
 30
0.0
 10
43.1619178034
 20
36.5968908433
 30
0.0
 10
43.1348086634
 20
36.6463735515
 30
0.0
 10
43.1179956624
 20
36.6696622001
 30
0.0
  0
SPLINE
  5
34F
100
AcDbEntity
  8
0
100
AcDbSpline
 62
7
  6
BYLAYER
 70
0
 71
3
 72
11
 73
7
 74
0
 42
0.0000001
 43
0.0000001
 44
0.0000000001
 40
0.0
 40
0.0
 40
0.0
 40
0.0
 40
0.2340059049
 40
0.604360584
 40
0.7990614356
 40
1.0
 40
1.0
 40
1.0
 40
1.0
 10
15.6260850711
 20
23.0296953708
 30
0.0
 10
15.756853479
 20
22.8608721514
 30
0.0
 10
16.1216873597
 20
22.4454987626
 30
0.0
 10
16.6756988828
 20
21.9665735981
 30
0.0
 10
17.2489109486
 20
21.5659652987
 30
0.0
 10
17.5578561976
 20
21.3785327218
 30
0.0
 10
17.7173926693
 20
21.2881311795
 30
0.0
  0
SPLINE
  5
350
100
AcDbEntity
  8
0
100
AcDbSpline
 62
7
  6
BYLAYER
 70
0
 71
3
 72
11
 73
7
 74
0
 42
0.0000001
 43
0.0000001
 44
0.0000000001
 40
0.0
 40
0.0
 40
0.0
 40
0.0
 40
0.2302369697
 40
0.4748452044
 40
0.732291808
 40
1.0
 40
1.0
 40
1.0
 40
1.0
 10
19.8069845983
 20
20.3674202652
 30
0.0
 10
20.0119956898
 20
20.2201969785
 30
0.0
 10
20.4587624053
 20
19.949120487
 30
0.0
 10
21.1944178889
 20
19.6233772328
 30
0.0
 10
22.0010052764
 20
19.3700556688
 30
0.0
 10
22.5660118677
 20
19.254123696
 30
0.0
 10
22.8559442916
 20
19.208663439
 30
0.0
  0
SPLINE
  5
351
100
AcDbEntity
  8
0
100
AcDbSpline
 62
7
  6
BYLAYER
 70
0
 71
3
 72
11
 73
7
 74
0
 42
0.0000001
 43
0.0000001
 44
0.0000000001
 40
0.0
 40
0.0
 40
0.0
 40
0.0
 40
0.2682092067
 40
0.5258642815
 40
0.7703035158
 40
1.0
 40
1.0
 40
1.0
 40
1.0
 10
25.8839902518
 20
19.2086892864
 30
0.0
 10
26.1797046749
 20
19.2550615624
 30
0.0
 10
26.7556143493
 20
19.3737969632
 30
0.0
 10
27.5765807167
 20
19.6344944585
 30
0.0
 10
28.323092395
 20
19.9703836137
 30
0.0
 10
28.7746550875
 20
20.2504062123
 30
0.0
 10
28.9810062967
 20
20.4025016042
 30
0.0
  0
SPLINE
  5
352
100
AcDbEntity
  8
0
100
AcDbSpline
 62
7
  6
BYLAYER
 70
0
 71
3
 72
12
 73
8
 74
0
 42
0.0000001
 43
0.0000001
 44
0.0000000001
 40
0.0
 40
0.0
 40
0.0
 40
0.0
 40
0.1143785692
 40
0.2324450534
 40
0.4783031043
 40
0.7352322567
 40
1.0
 40
1.0
 40
1.0
 40
1.0
 10
17.7173926693
 20
21.2881311795
 30
0.0
 10
17.8965583576
 20
21.1866067168
 30
0.0
 10
18.2676638084
 20
20.9924108904
 30
0.0
 10
19.0539658249
 20
20.6402411457
 30
0.0
 10
20.1122549209
 20
20.272767041
 30
0.0
 10
21.4590772143
 20
19.9544043657
 30
0.0
 10
22.3910502933
 20
19.8253165751
 30
0.0
 10
22.8656895947
 20
19.7810764708
 30
0.0
  0
SPLINE
  5
353
100
AcDbEntity
  8
0
100
AcDbSpline
 62
7
  6
BYLAYER
 70
0
 71
3
 72
15
 73
11
 74
0
 42
0.0000001
 43
0.0000001
 44
0.0000000001
 40
0.0
 40
0.0
 40
0.0
 40
0.0
 40
0.1420435904
 40
0.2809974325
 40
0.4156756122
 40
0.5450766796
 40
0.6684517207
 40
0.785354053
 40
0.8957548817
 40
1.0
 40
1.0
 40
1.0
 40
1.0
 10
25.8732882385
 20
19.7810051996
 30
0.0
 10
26.2570206018
 20
19.8167628382
 30
0.0
 10
27.0139011544
 20
19.9149911423
 30
0.0
 10
28.1192587943
 20
20.1443192954
 30
0.0
 10
29.1700536118
 20
20.4514965279
 30
0.0
 10
30.1512831831
 20
20.8326816956
 30
0.0
 10
31.0491514877
 20
21.2834522114
 30
0.0
 10
31.8512729253
 20
21.7990328044
 30
0.0
 10
32.5457924097
 20
22.3743552299
 30
0.0
 10
32.9404837023
 20
22.8060902305
 30
0.0
 10
33.1136855184
 20
23.0296953708
 30
0.0
  0
SPLINE
  5
354
100
AcDbEntity
  8
0
100
AcDbSpline
 62
7
  6
BYLAYER
 70
0
 71
3
 72
13
 73
9
 74
0
 42
0.0000001
 43
0.0000001
 44
0.0000000001
 40
0.0
 40
0.0
 40
0.0
 40
0.0
 40
0.2611259612
 40
0.5131274706
 40
0.6365204394
 40
0.7585346706
 40
0.8795503836
 40
1.0
 40
1.0
 40
1.0
 40
1.0
 10
33.6313195649
 20
23.6979656939
 30
0.0
 10
33.7692870449
 20
23.8760829818
 30
0.0
 10
34.0192094607
 20
24.243293802
 30
0.0
 10
34.2628985872
 20
24.7377906497
 30
0.0
 10
34.4075058023
 20
25.1422623202
 30
0.0
 10
34.4903976412
 20
25.4477160997
 30
0.0
 10
34.5478857025
 20
25.7563488873
 30
0.0
 10
34.5691309878
 20
25.9638839396
 30
0.0
 10
34.5754030644
 20
26.0676193904
 30
0.0
  0
SPLINE
  5
355
100
AcDbEntity
  8
0
100
AcDbSpline
 62
7
  6
BYLAYER
 70
0
 71
3
 72
13
 73
9
 74
0
 42
0.0000001
 43
0.0000001
 44
0.0000000001
 40
0.0
 40
0.0
 40
0.0
 40
0.0
 40
0.1204495475
 40
0.2414650681
 40
0.3634792452
 40
0.4868722937
 40
0.7388739216
 40
1.0
 40
1.0
 40
1.0
 40
1.0
 10
14.1643677003
 20
26.0676161112
 30
0.0
 10
14.1706398287
 20
25.9638808551
 30
0.0
 10
14.1918851514
 20
25.7563462988
 30
0.0
 10
14.2493733435
 20
25.4477142128
 30
0.0
 10
14.3322653411
 20
25.1422610454
 30
0.0
 10
14.4768724457
 20
24.7377897886
 30
0.0
 10
14.7205613675
 20
24.2432933076
 30
0.0
 10
14.9704836574
 20
23.8760828361
 30
0.0
 10
15.1084510246
 20
23.6979656939
 30
0.0
  0
LINE
  5
356
100
AcDbEntity
  8
0
100
AcDbLine
 62
7
  6
BYLAYER
 10
15.8555587887
 20
22.1078324599
 11
15.6643107794
 21
22.987516673
  0
SPLINE
  5
357
100
AcDbEntity
  8
0
100
AcDbSpline
 62
7
  6
BYLAYER
 70
0
 71
3
 72
13
 73
9
 74
0
 42
0.0000001
 43
0.0000001
 44
0.0000000001
 40
0.0
 40
0.0
 40
0.0
 40
0.0
 40
0.1125775087
 40
0.2283674766
 40
0.3479994793
 40
0.4719710821
 40
0.7309597898
 40
1.0
 40
1.0
 40
1.0
 40
1.0
 10
15.8555587887
 20
22.1078324599
 30
0.0
 10
15.860701612
 20
22.0841806073
 30
0.0
 10
15.8764230701
 20
22.0372161688
 30
0.0
 10
15.9142035955
 20
21.9721090062
 30
0.0
 10
15.965242358
 20
21.9134919154
 30
0.0
 10
16.0498598795
 20
21.8455107387
 30
0.0
 10
16.1795745025
 20
21.7863619163
 30
0.0
 10
16.2937112734
 20
21.7704743829
 30
0.0
 10
16.3515557673
 20
21.7704745219
 30
0.0
  0
SPLINE
  5
358
100
AcDbEntity
  8
0
100
AcDbSpline
 62
7
  6
BYLAYER
 70
0
 71
3
 72
13
 73
9
 74
0
 42
0.0000001
 43
0.0000001
 44
0.0000000001
 40
0.0
 40
0.0
 40
0.0
 40
0.0
 40
0.2690444885
 40
0.5280343547
 40
0.6520079601
 40
0.7716398458
 40
0.8874245756
 40
1.0
 40
1.0
 40
1.0
 40
1.0
 10
32.3882230617
 20
21.7705130693
 30
0.0
 10
32.446068621
 20
21.7705132084
 30
0.0
 10
32.5602066224
 20
21.7864009498
 30
0.0
 10
32.6899235416
 20
21.8455519245
 30
0.0
 10
32.7745372316
 20
21.9135387399
 30
0.0
 10
32.8255798645
 20
21.9721513312
 30
0.0
 10
32.8633603401
 20
22.037257691
 30
0.0
 10
32.8790773917
 20
22.0842219163
 30
0.0
 10
32.8842201276
 20
22.1078733917
 30
0.0
  0
LINE
  5
359
100
AcDbEntity
  8
0
100
AcDbLine
 62
7
  6
BYLAYER
 10
33.0774775378
 20
22.9968025405
 11
32.8842201276
 21
22.1078733917
  0
SPLINE
  5
35A
100
AcDbEntity
  8
0
100
AcDbSpline
 62
7
  6
BYLAYER
 70
0
 71
3
 72
9
 73
5
 74
0
 42
0.0000001
 43
0.0000001
 44
0.0000000001
 40
0.0
 40
0.0
 40
0.0
 40
0.0
 40
0.5171921991
 40
1.0
 40
1.0
 40
1.0
 40
1.0
 10
5.6217777233
 20
36.6695785738
 30
0.0
 10
5.604964017
 20
36.646289517
 30
0.0
 10
5.5778536725
 20
36.5968058511
 30
0.0
 10
5.5678982812
 20
36.5409237961
 30
0.0
 10
5.5678982871
 20
36.5141092422
 30
0.0
  0
SPLINE
  5
35B
100
AcDbEntity
  8
0
100
AcDbSpline
 62
7
  6
BYLAYER
 70
0
 71
3
 72
15
 73
11
 74
0
 42
0.0000001
 43
0.0000001
 44
0.0000000001
 40
0.0
 40
0.0
 40
0.0
 40
0.0
 40
0.1141215444
 40
0.2373450818
 40
0.3669707188
 40
0.4999994098
 40
0.6330281823
 40
0.762654056
 40
0.8858779926
 40
1.0
 40
1.0
 40
1.0
 40
1.0
 10
24.864868305
 20
20.4700717504
 30
0.0
 10
24.830999115
 20
20.4505146243
 30
0.0
 10
24.7569031744
 20
20.4160246776
 30
0.0
 10
24.6362687077
 20
20.3793324296
 30
0.0
 10
24.5056391031
 20
20.3567740939
 30
0.0
 10
24.3699636246
 20
20.349144905
 30
0.0
 10
24.2342880284
 20
20.3567734344
 30
0.0
 10
24.1036580665
 20
20.3793311402
 30
0.0
 10
23.9830230388
 20
20.4160228292
 30
0.0
 10
23.908926607
 20
20.4505124104
 30
0.0
 10
23.8750571383
 20
20.4700693709
 30
0.0
  0
SPLINE
  5
35C
100
AcDbEntity
  8
0
100
AcDbSpline
 62
7
  6
BYLAYER
 70
0
 71
3
 72
12
 73
8
 74
0
 42
0.0000001
 43
0.0000001
 44
0.0000000001
 40
0.0
 40
0.0
 40
0.0
 40
0.0
 40
0.2894902361
 40
0.5486822973
 40
0.7816311884
 40
0.8918319084
 40
1.0
 40
1.0
 40
1.0
 40
1.0
 10
5.7729113901
 20
30.9211116573
 30
0.0
 10
5.7421974613
 20
30.9388413262
 30
0.0
 10
5.6864755801
 20
30.9772361895
 30
0.0
 10
5.6198768539
 20
31.047142181
 30
0.0
 10
5.5841305684
 20
31.1130517364
 30
0.0
 10
5.5702170194
 20
31.1667870045
 30
0.0
 10
5.5678982832
 20
31.1935924452
 30
0.0
 10
5.5678982872
 20
31.2068435308
 30
0.0
  0
SPLINE
  5
35D
100
AcDbEntity
  8
0
100
AcDbSpline
 62
7
  6
BYLAYER
 70
0
 71
3
 72
10
 73
6
 74
0
 42
0.0000001
 43
0.0000001
 44
0.0000000001
 40
0.0
 40
0.0
 40
0.0
 40
0.0
 40
0.2680020867
 40
0.5241440847
 40
1.0
 40
1.0
 40
1.0
 40
1.0
 10
17.1487566626
 20
22.117066987
 30
0.0
 10
16.9485482264
 20
22.2326547666
 30
0.0
 10
16.5648566664
 20
22.4730078827
 30
0.0
 10
15.8724805359
 20
22.9880952762
 30
0.0
 10
15.4147077783
 20
23.4305831885
 30
0.0
 10
15.1532101167
 20
23.7469826172
 30
0.0
  0
SPLINE
  5
35E
100
AcDbEntity
  8
0
100
AcDbSpline
 62
7
  6
BYLAYER
 70
0
 71
3
 72
13
 73
9
 74
0
 42
0.0000001
 43
0.0000001
 44
0.0000000001
 40
0.0
 40
0.0
 40
0.0
 40
0.0
 40
0.2669706356
 40
0.5203006313
 40
0.642903298
 40
0.7633604848
 40
0.882203795
 40
1.0
 40
1.0
 40
1.0
 40
1.0
 10
15.1532101167
 20
23.7469826172
 30
0.0
 10
15.0081728719
 20
23.9224706162
 30
0.0
 10
14.7464117706
 20
24.2826312444
 30
0.0
 10
14.4901114083
 20
24.7698373062
 30
0.0
 10
14.33919555
 20
25.1657733559
 30
0.0
 10
14.2532930619
 20
25.4625897201
 30
0.0
 10
14.1936811507
 20
25.7615829182
 30
0.0
 10
14.1715460499
 20
25.9624743308
 30
0.0
 10
14.1649654054
 20
26.0627122943
 30
0.0
  0
SPLINE
  5
35F
100
AcDbEntity
  8
0
100
AcDbSpline
 62
7
  6
BYLAYER
 70
0
 71
3
 72
9
 73
5
 74
0
 42
0.0000001
 43
0.0000001
 44
0.0000000001
 40
0.0
 40
0.0
 40
0.0
 40
0.0
 40
0.2563585431
 40
1.0
 40
1.0
 40
1.0
 40
1.0
 10
33.090306663
 20
23.0957512352
 30
0.0
 10
33.1399597366
 20
23.1439638299
 30
0.0
 10
33.3305511466
 20
23.3351742427
 30
0.0
 10
33.508368033
 20
23.5392547655
 30
0.0
 10
33.6313105899
 20
23.6979680112
 30
0.0
  0
SPLINE
  5
360
100
AcDbEntity
  8
0
100
AcDbSpline
 62
7
  6
BYLAYER
 70
0
 71
3
 72
11
 73
7
 74
0
 42
0.0000001
 43
0.0000001
 44
0.0000000001
 40
0.0
 40
0.0
 40
0.0
 40
0.0
 40
0.2371085551
 40
0.4811092451
 40
0.7346944994
 40
1.0
 40
1.0
 40
1.0
 40
1.0
 10
34.5361333185
 20
25.7271139357
 30
0.0
 10
34.5079813571
 20
25.5565057965
 30
0.0
 10
34.4249452306
 20
25.2141263598
 30
0.0
 10
34.2260647678
 20
24.7149092474
 30
0.0
 10
33.9534980004
 20
24.2282418311
 30
0.0
 10
33.7295829947
 20
23.9219880441
 30
0.0
 10
33.6072157105
 20
23.7721211217
 30
0.0
  0
SPLINE
  5
361
100
AcDbEntity
  8
0
100
AcDbSpline
 62
7
  6
BYLAYER
 70
0
 71
3
 72
9
 73
5
 74
0
 42
0.0000001
 43
0.0000001
 44
0.0000000001
 40
0.0
 40
0.0
 40
0.0
 40
0.0
 40
0.2439315899
 40
1.0
 40
1.0
 40
1.0
 40
1.0
 10
15.1084659216
 20
23.6979695402
 30
0.0
 10
15.1486541833
 20
23.6460871593
 30
0.0
 10
15.3174135581
 20
23.4365138736
 30
0.0
 10
15.5015789644
 20
23.2394733461
 30
0.0
 10
15.6474479443
 20
23.0977050344
 30
0.0
  0
SPLINE
  5
362
100
AcDbEntity
  8
0
100
AcDbSpline
 62
7
  6
BYLAYER
 70
0
 71
3
 72
10
 73
6
 74
0
 42
0.0000001
 43
0.0000001
 44
0.0000000001
 40
0.0
 40
0.0
 40
0.0
 40
0.0
 40
0.4827382016
 40
0.7371861892
 40
1.0
 40
1.0
 40
1.0
 40
1.0
 10
15.6474479443
 20
23.0977050344
 30
0.0
 10
15.8705247636
 20
22.8808993499
 30
0.0
 10
16.2358443649
 20
22.5744067979
 30
0.0
 10
16.7650703456
 20
22.2064641953
 30
0.0
 10
17.0494017725
 20
22.0320593368
 30
0.0
 10
17.1960697905
 20
21.9473824328
 30
0.0
  0
SPLINE
  5
363
100
AcDbEntity
  8
0
100
AcDbSpline
 62
7
  6
BYLAYER
 70
0
 71
3
 72
15
 73
11
 74
0
 42
0.0000001
 43
0.0000001
 44
0.0000000001
 40
0.0
 40
0.0
 40
0.0
 40
0.0
 40
0.1141220493
 40
0.2373459945
 40
0.36697177
 40
0.5000004537
 40
0.6330290716
 40
0.7626546716
 40
0.8858783225
 40
1.0
 40
1.0
 40
1.0
 40
1.0
 10
23.8750592126
 20
25.7773338846
 30
0.0
 10
23.9089285366
 20
25.7577770077
 30
0.0
 10
23.9830247966
 20
25.7232878801
 30
0.0
 10
24.1036593063
 20
25.6865966284
 30
0.0
 10
24.2342886098
 20
25.6640390915
 30
0.0
 10
24.3699634875
 20
25.6564106496
 30
0.0
 10
24.5056382685
 20
25.6640397282
 30
0.0
 10
24.6362672858
 20
25.6865978494
 30
0.0
 10
24.7569013183
 20
25.7232897159
 30
0.0
 10
24.8309971227
 20
25.7577792674
 30
0.0
 10
24.8648662305
 20
25.777336264
 30
0.0
  0
SPLINE
  5
364
100
AcDbEntity
  8
0
100
AcDbSpline
 62
7
  6
BYLAYER
 70
0
 71
3
 72
12
 73
8
 74
0
 42
0.0000001
 43
0.0000001
 44
0.0000000001
 40
0.0
 40
0.0
 40
0.0
 40
0.0
 40
0.2894897008
 40
0.5486815222
 40
0.7816306443
 40
0.8918316095
 40
1.0
 40
1.0
 40
1.0
 40
1.0
 10
42.966864864
 20
36.2284676631
 30
0.0
 10
42.9975781035
 20
36.2461971906
 30
0.0
 10
43.0532986167
 20
36.2845918715
 30
0.0
 10
43.1198955491
 20
36.3544971853
 30
0.0
 10
43.1556408837
 20
36.4204058157
 30
0.0
 10
43.1695540409
 20
36.4741403064
 30
0.0
 10
43.1718727121
 20
36.5009453571
 30
0.0
 10
43.1718727097
 20
36.5141962544
 30
0.0
  0
SPLINE
  5
365
100
AcDbEntity
  8
0
100
AcDbSpline
 62
7
  6
BYLAYER
 70
0
 71
3
 72
11
 73
7
 74
0
 42
0.0000001
 43
0.0000001
 44
0.0000000001
 40
0.0
 40
0.0
 40
0.0
 40
0.0
 40
0.2292869127
 40
0.4740138257
 40
0.7318794236
 40
1.0
 40
1.0
 40
1.0
 40
1.0
 10
28.8051941315
 20
20.3756144069
 30
0.0
 10
28.604607211
 20
20.2472108081
 30
0.0
 10
28.1714977994
 20
20.0099110805
 30
0.0
 10
27.4663016201
 20
19.7223663148
 30
0.0
 10
26.6970565896
 20
19.496272575
 30
0.0
 10
26.1600234809
 20
19.3912458724
 30
0.0
 10
25.8846575721
 20
19.3495661545
 30
0.0
  0
SPLINE
  5
366
100
AcDbEntity
  8
0
100
AcDbSpline
 62
7
  6
BYLAYER
 70
0
 71
3
 72
11
 73
7
 74
0
 42
0.0000001
 43
0.0000001
 44
0.0000000001
 40
0.0
 40
0.0
 40
0.0
 40
0.0
 40
0.2658326592
 40
0.522645941
 40
0.7680688968
 40
1.0
 40
1.0
 40
1.0
 40
1.0
 10
22.8552329548
 20
19.3495473209
 30
0.0
 10
22.6038982719
 20
19.3875862474
 30
0.0
 10
22.1124322508
 20
19.4818058699
 30
0.0
 10
21.4043855992
 20
19.6803718975
 30
0.0
 10
20.7474865741
 20
19.9308266389
 30
0.0
 10
20.3385248468
 20
20.13592443
 30
0.0
 10
20.1464572692
 20
20.246812189
 30
0.0
  0
SPLINE
  5
367
100
AcDbEntity
  8
0
100
AcDbSpline
 62
7
  6
BYLAYER
 70
0
 71
3
 72
12
 73
8
 74
0
 42
0.0000001
 43
0.0000001
 44
0.0000000001
 40
0.0
 40
0.0
 40
0.0
 40
0.0
 40
0.1081682294
 40
0.2183690507
 40
0.4513180313
 40
0.7105100225
 40
1.0
 40
1.0
 40
1.0
 40
1.0
 10
5.5678982871
 20
36.5141092422
 30
0.0
 10
5.5678982901
 20
36.500858247
 30
0.0
 10
5.5702169924
 20
36.4740529962
 30
0.0
 10
5.5841303268
 20
36.4203180961
 30
0.0
 10
5.6198761614
 20
36.3544089813
 30
0.0
 10
5.6864739832
 20
36.2845032741
 30
0.0
 10
5.7421951888
 20
36.2461084423
 30
0.0
 10
5.7729088012
 20
36.2283788633
 30
0.0
  0
SPLINE
  5
368
100
AcDbEntity
  8
0
100
AcDbSpline
 62
7
  6
BYLAYER
 70
0
 71
3
 72
10
 73
6
 74
0
 42
0.0000001
 43
0.0000001
 44
0.0000000001
 40
0.0
 40
0.0
 40
0.0
 40
0.0
 40
0.2694160873
 40
0.5260165206
 40
1.0
 40
1.0
 40
1.0
 40
1.0
 10
17.5970240099
 20
21.376954568
 30
0.0
 10
17.3959448852
 20
21.4930450285
 30
0.0
 10
17.0117667686
 20
21.7350744707
 30
0.0
 10
16.3245834137
 20
22.2558073021
 30
0.0
 10
15.8762354688
 20
22.7067581035
 30
0.0
 10
15.6261020195
 20
23.0296997464
 30
0.0
  0
ELLIPSE
  5
369
100
AcDbEntity
  8
0
100
AcDbEllipse
 62
7
  6
BYLAYER
 10
38.1938981304
 20
38.1928629913
 30
0.0
 11
-0.0214162884
 21
0.4999995303
 31
0.0
 40
0.0301984672
 41
-0.0012934265
 42
0.6141761941
  0
ELLIPSE
  5
36A
100
AcDbEntity
  8
0
100
AcDbEllipse
 62
7
  6
BYLAYER
 10
38.1938834802
 20
40.2244249159
 30
0.0
 11
-0.0214162884
 21
0.4999995303
 31
0.0
 40
0.0301984672
 41
0.6141761941
 42
1.7224602691
  0
ELLIPSE
  5
36B
100
AcDbEntity
  8
0
100
AcDbEllipse
 62
7
  6
BYLAYER
 10
38.8301437063
 20
40.2244264453
 30
0.0
 11
0.0214138935
 21
0.4999996331
 31
0.0
 40
0.0302052536
 41
-1.7224599779
 42
-0.6141759029
  0
ELLIPSE
  5
36C
100
AcDbEntity
  8
0
100
AcDbEllipse
 62
7
  6
BYLAYER
 10
38.8301583566
 20
38.1928645207
 30
0.0
 11
0.0214138935
 21
0.4999996331
 31
0.0
 40
0.0302052536
 41
-0.6141759029
 42
0.0012937178
  0
ELLIPSE
  5
36D
100
AcDbEntity
  8
0
100
AcDbEllipse
 62
7
  6
BYLAYER
 10
9.9096268832
 20
38.1927950043
 30
0.0
 11
-0.0214162884
 21
0.4999995303
 31
0.0
 40
0.0301984672
 41
-0.0012934265
 42
0.6141761941
  0
ELLIPSE
  5
36E
100
AcDbEntity
  8
0
100
AcDbEllipse
 62
7
  6
BYLAYER
 10
9.909612233
 20
40.2243569289
 30
0.0
 11
-0.0214162884
 21
0.4999995303
 31
0.0
 40
0.0301984672
 41
0.6141761941
 42
1.7224602691
  0
ELLIPSE
  5
36F
100
AcDbEntity
  8
0
100
AcDbEllipse
 62
7
  6
BYLAYER
 10
10.5458724591
 20
40.2243584583
 30
0.0
 11
0.0214138935
 21
0.4999996331
 31
0.0
 40
0.0302052536
 41
-1.7224599779
 42
-0.6141759029
  0
ELLIPSE
  5
370
100
AcDbEntity
  8
0
100
AcDbEllipse
 62
7
  6
BYLAYER
 10
10.5458871093
 20
38.1927965337
 30
0.0
 11
0.0214138935
 21
0.4999996331
 31
0.0
 40
0.0302052536
 41
-0.6141759029
 42
0.0012937178
  0
ELLIPSE
  5
371
100
AcDbEntity
  8
0
100
AcDbEllipse
 62
7
  6
BYLAYER
 10
24.0518213861
 20
30.0279799139
 30
0.0
 11
-0.0214162884
 21
0.4999995303
 31
0.0
 40
0.0301984672
 41
-0.0012934265
 42
0.6141761941
  0
ELLIPSE
  5
372
100
AcDbEntity
  8
0
100
AcDbEllipse
 62
7
  6
BYLAYER
 10
24.0518067359
 20
32.0595418385
 30
0.0
 11
-0.0214162884
 21
0.4999995303
 31
0.0
 40
0.0301984672
 41
0.6141761941
 42
1.7224602691
  0
ELLIPSE
  5
373
100
AcDbEntity
  8
0
100
AcDbEllipse
 62
7
  6
BYLAYER
 10
24.688066962
 20
32.0595433679
 30
0.0
 11
0.0214138935
 21
0.4999996331
 31
0.0
 40
0.0302052536
 41
-1.7224599779
 42
-0.6141759029
  0
ELLIPSE
  5
374
100
AcDbEntity
  8
0
100
AcDbEllipse
 62
7
  6
BYLAYER
 10
24.6880816123
 20
30.0279814433
 30
0.0
 11
0.0214138935
 21
0.4999996331
 31
0.0
 40
0.0302052536
 41
-0.6141759029
 42
0.0012937178
  0
ENDSEC
  0
SECTION
  2
OBJECTS
  0
DICTIONARY
  5
C
100
AcDbDictionary
280
0
281
1
  3
ACAD_GROUP
350
D
  3
ACAD_MLINESTYLE
350
17
  3
ACAD_LAYOUT
350
1A
  3
ACAD_PLOTSETTINGS
350
19
  3
ACAD_PLOTSTYLENAME
350
E
  0
DICTIONARY
  5
D
102
{ACAD_REACTORS
330
C
102
}
100
AcDbDictionary
280
0
281
1
  0
ACDBDICTIONARYWDFLT
  5
E
102
{ACAD_REACTORS
330
C
102
}
100
AcDbDictionary
281
1
  3
Normal
350
F
100
AcDbDictionaryWithDefault
340
F
  0
DICTIONARY
  5
17
102
{ACAD_REACTORS
330
C
102
}
100
AcDbDictionary
280
0
281
1
  3
Standard
350
18
  0
DICTIONARY
  5
19
102
{ACAD_REACTORS
330
C
102
}
100
AcDbDictionary
281
1
  0
DICTIONARY
  5
1A
102
{ACAD_REACTORS
330
C
102
}
100
AcDbDictionary
281
1
  3
Model
350
375
  3
Layout1
350
376
  0
ACDBPLACEHOLDER
  5
F
102
{ACAD_REACTORS
330
E
102
}
  0
MLINESTYLE
  5
18
102
{ACAD_REACTORS
330
17
102
}
100
AcDbMlineStyle
  2
STANDARD
 70
0
  3

 62
256
 51
90.0
 52
90.0
 71
2
 49
0.5
 62
256
  6
BYLAYER
 49
-0.5
 62
256
  6
BYLAYER
  0
LAYOUT
  5
375
102
{ACAD_REACTORS
330
1A
102
}
100
AcDbPlotSettings
  1

  2
none_device
  4

  6

 40
0.0
 41
0.0
 42
0.0
 43
0.0
 44
210.0
 45
297.0
 46
0.0
 47
0.0
 48
0.0
 49
0.0
140
0.0
141
0.0
142
1.0
143
1.0
 70
1024
 72
1
 73
0
 74
0
  7

 75
0
147
1.0
148
0.0
149
0.0
100
AcDbLayout
  1
Model
 70
0
 71
0
 10
0.0
 20
0.0
 11
210.0
 21
297.0
 12
0.0
 22
0.0
 32
0.0
 14
0.0
 24
0.0
 34
0.0
 15
0.0
 25
0.0
 35
0.0
146
0.0
 13
0.0
 23
0.0
 33
0.0
 16
1.0
 26
0.0
 36
0.0
 17
0.0
 27
1.0
 37
0.0
 76
0
330
210
345
0
346
0
  0
LAYOUT
  5
376
102
{ACAD_REACTORS
330
1A
102
}
100
AcDbPlotSettings
  1

  2
none_device
  4

  6

 40
0.0
 41
0.0
 42
0.0
 43
0.0
 44
210.0
 45
297.0
 46
0.0
 47
0.0
 48
0.0
 49
0.0
140
0.0
141
0.0
142
1.0
143
1.0
 70
0
 72
1
 73
0
 74
0
  7

 75
0
147
1.0
148
0.0
149
0.0
100
AcDbLayout
  1
Layout1
 70
0
 71
1
 10
0.0
 20
0.0
 11
210.0
 21
297.0
 12
0.0
 22
0.0
 32
0.0
 14
0.0
 24
0.0
 34
0.0
 15
0.0
 25
0.0
 35
0.0
146
0.0
 13
0.0
 23
0.0
 33
0.0
 16
1.0
 26
0.0
 36
0.0
 17
0.0
 27
1.0
 37
0.0
 76
0
330
211
345
0
346
0
  0
ENDSEC
  0
EOF
