999
DXF file: C:\Users\sesa63760\Dev\_Creo\CAD\MCADID0004747_3D-CAD\drw0001_1.dxf
999
Pro/ENGINEER 2019471 by Parametric Technology Corporation
  0
SECTION
  2
HEADER
  9
$ACADVER
  1
AC1024
  9
$DWGCODEPAGE
  3
ANSI_1252
  9
$EXTMAX
 10
43.7611370191
 20
61.890750927
 30
0.0
  9
$EXTMIN
 10
0.0
 20
0.0
 30
0.0
  9
$LIMMIN
 10
0.0
 20
0.0
  9
$LIMMAX
 10
43.7611370191
 20
61.890750927
  9
$VIEWCTR
 10
21.8805685096
 20
30.9453754635
  9
$VIEWSIZE
 40
61.890750927
  9
$CLAYER
  8
0
  9
$LTSCALE
 40
4.0343600604
  9
$CELTYPE
  6
BYLAYER
  9
$DIMSCALE
 40
1.0
  9
$DIMASZ
 40
0.5209659169
  9
$DIMEXO
 40
1.0
  9
$DIMDLI
 40
2.7873760418
  9
$DIMEXE
 40
1.0
  9
$DIMCEN
 40
0.6601680099
  9
$DIMLFAC
 40
1.0
  9
$DIMBLK
  1
_FILLED
  9
$DIMALT
 70
0
  9
$DIMALTF
 40
0.0393700787
  9
$DIMTXT
 40
0.7293522837
  9
$DIMTOL
 70
1
  9
$DIMLIM
 70
0
  9
$DIMTFAC
 40
1.0
  9
$DIMTP
 40
0.01
  9
$DIMTM
 40
0.01
  9
$DIMGAP
 40
0.625
  9
$DIMDSEP
 70
46
  9
$AUNITS
 70
0
  9
$PDMODE
 70
3
  9
$PDSIZE
 40
0.3125
  9
$HANDSEED
  5
377
  9
$TILEMODE
 70
1
  9
$MEASUREMENT
 70
1
  9
$INSUNITS
 70
4
  0
ENDSEC
  0
SECTION
  2
CLASSES
  0
CLASS
  1
ACDBDICTIONARYWDFLT
  2
AcDbDictionaryWithDefault
  3
AutoCAD 2000
 90
0
 91
1
280
0
281
0
  0
CLASS
  1
ACDBPLACEHOLDER
  2
AcDbPlaceHolder
  3
AutoCAD 2000
 90
0
 91
1
280
0
281
0
  0
CLASS
  1
LAYOUT
  2
AcDbLayout
  3
AutoCAD 2000
 90
0
 91
0
280
0
281
0
  0
ENDSEC
  0
SECTION
  2
TABLES
  0
TABLE
  2
VPORT
  5
8
100
AcDbSymbolTable
 70
2
  0
VPORT
  5
1F4
100
AcDbSymbolTableRecord
100
AcDbViewportTableRecord
  2
*ACTIVE
 70
0
 10
0.0
 20
0.0
 11
1.0
 21
1.0
 12
21.8805685096
 22
30.9453754635
 13
0.0
 23
0.0
 14
1.0
 24
1.0
 15
0.0
 25
0.0
 16
0.0
 26
0.0
 36
1.0
 17
0.0
 27
0.0
 37
0.0
 40
61.890750927
 41
0.7070707071
 42
50.0
 43
0.0
 44
0.0
 50
0.0
 51
0.0
 71
0
 72
100
 73
1
 74
1
 75
0
 76
0
 77
0
 78
0
  0
ENDTAB
  0
TABLE
  2
LTYPE
  5
5
100
AcDbSymbolTable
 70
6
  0
LTYPE
  5
14
100
AcDbSymbolTableRecord
100
AcDbLinetypeTableRecord
  2
BYBLOCK
 70
0
  3

 72
65
 73
0
 40
0.0
  0
LTYPE
  5
15
100
AcDbSymbolTableRecord
100
AcDbLinetypeTableRecord
  2
BYLAYER
 70
0
  3

 72
65
 73
0
 40
0.0
  0
LTYPE
  5
16
100
AcDbSymbolTableRecord
100
AcDbLinetypeTableRecord
  2
CONTINUOUS
 70
64
  3
Solid line
 72
65
 73
0
 40
0.0
  0
LTYPE
  5
1F5
100
AcDbSymbolTableRecord
100
AcDbLinetypeTableRecord
  2
CENTER
 70
64
  3
____ _ ____ _ ____ _ ____ _ ____ _ ____ _ ____
 72
65
 73
4
 40
0.6
 49
0.375
 74
0
 49
-0.075
 74
0
 49
0.075
 74
0
 49
-0.075
 74
0
  0
LTYPE
  5
1F6
100
AcDbSymbolTableRecord
100
AcDbLinetypeTableRecord
  2
HIDDEN
 70
64
  3
- - - - - - - - - - - - - - - - - - - -
 72
65
 73
2
 40
0.2
 49
0.1
 74
0
 49
-0.1
 74
0
  0
LTYPE
  5
1F7
100
AcDbSymbolTableRecord
100
AcDbLinetypeTableRecord
  2
PHANTOM
 70
64
  3
_____ _ _ _____ _ _ _____ _ _ _____
 72
65
 73
6
 40
0.8
 49
0.45
 74
0
 49
-0.05
 74
0
 49
0.1
 74
0
 49
-0.05
 74
0
 49
0.1
 74
0
 49
-0.05
 74
0
  0
LTYPE
  5
1F8
100
AcDbSymbolTableRecord
100
AcDbLinetypeTableRecord
  2
DOT
 70
64
  3
. . . . . . . . . . . . . . . . . . . .
 72
65
 73
2
 40
0.2
 49
0.1
 74
0
 49
-0.1
 74
0
  0
LTYPE
  5
1F9
100
AcDbSymbolTableRecord
100
AcDbLinetypeTableRecord
  2
DASHED
 70
64
  3
- - - - - - - - - - - - - - - - - - - -
 72
65
 73
2
 40
0.2
 49
0.1
 74
0
 49
-0.1
 74
0
  0
ENDTAB
  0
TABLE
  2
LAYER
  5
2
100
AcDbSymbolTable
 70
36
  0
LAYER
  5
10
100
AcDbSymbolTableRecord
100
AcDbLayerTableRecord
  2
0
 70
0
 62
7
  6
CONTINUOUS
370
-3
390
F
  0
LAYER
  5
1FA
100
AcDbSymbolTableRecord
100
AcDbLayerTableRecord
  2
DEFAULT_1
 70
0
 62
7
  6
CENTER
370
-3
390
F
  0
LAYER
  5
1FB
100
AcDbSymbolTableRecord
100
AcDbLayerTableRecord
  2
DEFAULT_2
 70
0
 62
7
  6
HIDDEN
370
-3
390
F
  0
LAYER
  5
1FC
100
AcDbSymbolTableRecord
100
AcDbLayerTableRecord
  2
DEFAULT_3
 70
0
 62
7
  6
PHANTOM
370
-3
390
F
  0
LAYER
  5
1FD
100
AcDbSymbolTableRecord
100
AcDbLayerTableRecord
  2
00_COMPONENTS
 70
0
 62
7
  6
CONTINUOUS
370
-3
390
F
  0
LAYER
  5
1FE
100
AcDbSymbolTableRecord
100
AcDbLayerTableRecord
  2
01_1_DEFAULT_DATUMS
 70
0
 62
7
  6
CONTINUOUS
370
-3
390
F
  0
LAYER
  5
1FF
100
AcDbSymbolTableRecord
100
AcDbLayerTableRecord
  2
01_PLANES
 70
0
 62
7
  6
CONTINUOUS
370
-3
390
F
  0
LAYER
  5
200
100
AcDbSymbolTableRecord
100
AcDbLayerTableRecord
  2
02_COORD_SYS
 70
0
 62
7
  6
CONTINUOUS
370
-3
390
F
  0
LAYER
  5
201
100
AcDbSymbolTableRecord
100
AcDbLayerTableRecord
  2
03_AXES
 70
0
 62
7
  6
CONTINUOUS
370
-3
390
F
  0
LAYER
  5
202
100
AcDbSymbolTableRecord
100
AcDbLayerTableRecord
  2
04_POINTS
 70
0
 62
7
  6
CONTINUOUS
370
-3
390
F
  0
LAYER
  5
203
100
AcDbSymbolTableRecord
100
AcDbLayerTableRecord
  2
05_CURVES
 70
0
 62
7
  6
CONTINUOUS
370
-3
390
F
  0
LAYER
  5
204
100
AcDbSymbolTableRecord
100
AcDbLayerTableRecord
  2
06_SURFS
 70
0
 62
7
  6
CONTINUOUS
370
-3
390
F
  0
LAYER
  5
205
100
AcDbSymbolTableRecord
100
AcDbLayerTableRecord
  2
07_COSMETICS
 70
0
 62
7
  6
CONTINUOUS
370
-3
390
F
  0
LAYER
  5
206
100
AcDbSymbolTableRecord
100
AcDbLayerTableRecord
  2
10_NOTES
 70
0
 62
7
  6
CONTINUOUS
370
-3
390
F
  0
LAYER
  5
207
100
AcDbSymbolTableRecord
100
AcDbLayerTableRecord
  2
11_NOTES_PUB
 70
0
 62
7
  6
CONTINUOUS
370
-3
390
F
  0
LAYER
  5
208
100
AcDbSymbolTableRecord
100
AcDbLayerTableRecord
  2
13_REF_GTOL
 70
0
 62
7
  6
CONTINUOUS
370
-3
390
F
  0
LAYER
  5
209
100
AcDbSymbolTableRecord
100
AcDbLayerTableRecord
  2
16_MISC
 70
0
 62
7
  6
CONTINUOUS
370
-3
390
F
  0
LAYER
  5
20A
100
AcDbSymbolTableRecord
100
AcDbLayerTableRecord
  2
17_NO_PRINT
 70
0
 62
7
  6
CONTINUOUS
370
-3
390
F
  0
LAYER
  5
20B
100
AcDbSymbolTableRecord
100
AcDbLayerTableRecord
  2
18_DATUM_CAMS_JOINTS
 70
0
 62
7
  6
CONTINUOUS
370
-3
390
F
  0
LAYER
  5
20C
100
AcDbSymbolTableRecord
100
AcDbLayerTableRecord
  2
19_DATUM_FUNCTIONAL
 70
0
 62
7
  6
CONTINUOUS
370
-3
390
F
  0
LAYER
  5
20D
100
AcDbSymbolTableRecord
100
AcDbLayerTableRecord
  2
20_DATUM_KINEMATIC_SCHEME
 70
0
 62
7
  6
CONTINUOUS
370
-3
390
F
  0
ENDTAB
  0
TABLE
  2
STYLE
  5
3
100
AcDbSymbolTable
 70
1
  0
STYLE
  5
11
100
AcDbSymbolTableRecord
100
AcDbTextStyleTableRecord
  2
STANDARD
 70
0
 40
0.0
 41
1.0
 50
0.0
 71
0
 42
0.2
  3
ARIAL.TTF
  4

  0
STYLE
  5
20E
100
AcDbSymbolTableRecord
100
AcDbTextStyleTableRecord
  2
TEXTSTYLE_1
 70
0
 40
0.0
 41
0.8
 50
0.0
 71
0
 42
0.2
  3
gdt
  4

  0
ENDTAB
  0
TABLE
  2
VIEW
  5
6
100
AcDbSymbolTable
 70
0
  0
ENDTAB
  0
TABLE
  2
UCS
  5
7
100
AcDbSymbolTable
 70
0
  0
ENDTAB
  0
TABLE
  2
APPID
  5
9
100
AcDbSymbolTable
 70
1
  0
APPID
  5
20F
100
AcDbSymbolTableRecord
100
AcDbRegAppTableRecord
  2
ACAD
 70
0
  0
ENDTAB
  0
TABLE
  2
BLOCK_RECORD
  5
1
100
AcDbSymbolTable
 70
0
  0
BLOCK_RECORD
  5
210
100
AcDbSymbolTableRecord
100
AcDbBlockTableRecord
  2
*Model_Space
  0
BLOCK_RECORD
  5
211
100
AcDbSymbolTableRecord
100
AcDbBlockTableRecord
  2
*Paper_Space
  0
BLOCK_RECORD
  5
212
100
AcDbSymbolTableRecord
100
AcDbBlockTableRecord
  2
_FILLED
  0
ENDTAB
  0
TABLE
  2
DIMSTYLE
  5
A
100
AcDbSymbolTable
 70
1
100
AcDbDimStyleTable
 71
0
  0
DIMSTYLE
105
213
100
AcDbSymbolTableRecord
100
AcDbDimStyleTableRecord
  2
STANDARD
 70
0
  3

  4

 40
1.0
 41
0.5209659169
 42
1.0
 43
0.38
 44
1.0
 45
0.0
 46
0.0
 47
0.01
 48
0.01
140
0.7293522837
141
0.09
142
0.0
143
25.4
144
1.0
145
0.0
146
1.0
147
0.625
 71
1
 72
0
 73
0
 74
0
 75
0
 76
0
 77
1
 78
8
 79
2
170
0
171
1
172
0
173
0
174
0
175
0
176
0
177
0
178
0
270
2
179
2
271
2
272
2
273
2
274
2
275
0
280
0
281
0
282
0
283
1
284
8
285
0
286
0
287
3
288
0
340
11
278
46
341
212
342
212
343
212
344
212
  0
ENDTAB
  0
ENDSEC
  0
SECTION
  2
BLOCKS
  0
BLOCK
  5
20
100
AcDbEntity
  8
0
100
AcDbBlockBegin
  2
*Model_Space
 70
0
 10
0.0
 20
0.0
 30
0.0
  3
*Model_Space
  1

  0
ENDBLK
  5
21
100
AcDbEntity
  8
0
100
AcDbBlockEnd
  0
BLOCK
  5
1C
100
AcDbEntity
  8
0
100
AcDbBlockBegin
  2
*Paper_Space
 70
0
 10
0.0
 20
0.0
 30
0.0
  3
*Paper_Space
  1

  0
ENDBLK
  5
1D
100
AcDbEntity
  8
0
100
AcDbBlockEnd
  0
BLOCK
  5
214
100
AcDbEntity
  8
0
100
AcDbBlockBegin
  2
_FILLED
 70
64
 10
0.0
 20
0.0
  3
_FILLED
  1

  0
SOLID
  5
215
100
AcDbEntity
  8
0
  6
BYBLOCK
 62
0
100
AcDbTrace
 10
0.0
 20
0.0
 11
-1.0
 21
0.25
 12
-1.0
 22
-0.25
 13
-1.0
 23
-0.25
  0
ENDBLK
  5
216
100
AcDbEntity
  8
0
  6
BYBLOCK
 62
0
100
AcDbBlockEnd
  0
ENDSEC
  0
SECTION
  2
ENTITIES
  0
LINE
  5
217
100
AcDbEntity
  8
0
100
AcDbLine
 62
7
  6
BYLAYER
 10
18.936297062
 20
53.2748170012
 11
10.4510510154
 21
48.3758871548
  0
LINE
  5
218
100
AcDbEntity
  8
0
100
AcDbLine
 62
7
  6
BYLAYER
 10
30.2126725754
 20
11.2477949193
 11
30.2120941446
 21
11.2476942776
  0
LINE
  5
219
100
AcDbEntity
  8
0
100
AcDbLine
 62
7
  6
BYLAYER
 10
10.9560738525
 20
46.3580628548
 11
10.2489700153
 21
45.9498187009
  0
LINE
  5
21A
100
AcDbEntity
  8
0
100
AcDbLine
 62
7
  6
BYLAYER
 10
11.0974946199
 20
46.4397116855
 11
11.4510465386
 21
46.6438337625
  0
LINE
  5
21B
100
AcDbEntity
  8
0
100
AcDbLine
 62
7
  6
BYLAYER
 10
5.1001908566
 20
37.0921620774
 11
5.3558943612
 21
37.7057816927
  0
LINE
  5
21C
100
AcDbEntity
  8
0
100
AcDbLine
 62
7
  6
BYLAYER
 10
5.5165818184
 20
37.2768307749
 11
7.562209855
 21
42.1857876976
  0
LINE
  5
21D
100
AcDbEntity
  8
0
100
AcDbLine
 62
7
  6
BYLAYER
 10
5.7865290386
 20
36.2857104253
 11
7.8321570752
 21
41.194667348
  0
LINE
  5
21E
100
AcDbEntity
  8
0
100
AcDbLine
 62
7
  6
BYLAYER
 10
9.8508217503
 20
45.4744406865
 11
7.9969713421
 21
41.0256984754
  0
LINE
  5
21F
100
AcDbEntity
  8
0
100
AcDbLine
 62
7
  6
BYLAYER
 10
10.8032568335
 20
44.8264609153
 11
10.604182701
 21
44.5887719081
  0
LINE
  5
220
100
AcDbEntity
  8
0
100
AcDbLine
 62
7
  6
BYLAYER
 10
5.4355587212
 20
37.8007970373
 11
5.3558943612
 21
37.7057816927
  0
LINE
  5
221
100
AcDbEntity
  8
0
100
AcDbLine
 62
7
  6
BYLAYER
 10
10.8032568335
 20
44.8264609153
 11
10.8739672303
 21
44.8672853382
  0
LINE
  5
222
100
AcDbEntity
  8
0
100
AcDbLine
 62
7
  6
BYLAYER
 10
8.8665702194
 20
43.1125018201
 11
7.8919655372
 21
42.5498169033
  0
LINE
  5
223
100
AcDbEntity
  8
0
100
AcDbLine
 62
7
  6
BYLAYER
 10
7.4718147699
 20
37.0719316203
 11
7.411998948
 21
36.7373797017
  0
LINE
  5
224
100
AcDbEntity
  8
0
100
AcDbLine
 62
7
  6
BYLAYER
 10
12.3230357537
 20
42.9399075975
 11
12.1239472821
 21
42.7022433964
  0
LINE
  5
225
100
AcDbEntity
  8
0
100
AcDbLine
 62
7
  6
BYLAYER
 10
7.6708889025
 20
37.3096206275
 11
7.4718147699
 21
37.0719316203
  0
LINE
  5
226
100
AcDbEntity
  8
0
100
AcDbLine
 62
7
  6
BYLAYER
 10
12.0532512374
 20
42.661394175
 11
12.1239616081
 21
42.7022185828
  0
LINE
  5
227
100
AcDbEntity
  8
0
100
AcDbLine
 62
7
  6
BYLAYER
 10
17.5063011646
 20
14.4598157873
 11
16.9635942818
 21
14.3903513875
  0
LINE
  5
228
100
AcDbEntity
  8
0
100
AcDbLine
 62
7
  6
BYLAYER
 10
16.5043446239
 20
15.3057762609
 11
15.948989546
 21
15.3197739237
  0
LINE
  5
229
100
AcDbEntity
  8
0
100
AcDbLine
 62
7
  6
BYLAYER
 10
7.4120001256
 20
36.5740840798
 11
7.411998948
 21
36.7373797017
  0
LINE
  5
22A
100
AcDbEntity
  8
0
100
AcDbLine
 62
7
  6
BYLAYER
 10
10.604182701
 20
44.5887719081
 11
10.5443668791
 21
44.2542199895
  0
LINE
  5
22B
100
AcDbEntity
  8
0
100
AcDbLine
 62
7
  6
BYLAYER
 10
5.4355240142
 20
37.8008572956
 11
5.8298116014
 21
38.0284979813
  0
LINE
  5
22C
100
AcDbEntity
  8
0
100
AcDbLine
 62
7
  6
BYLAYER
 10
13.1471070881
 20
42.0950632345
 11
13.8542109253
 21
42.5033073884
  0
LINE
  5
22D
100
AcDbEntity
  8
0
100
AcDbLine
 62
7
  6
BYLAYER
 10
13.7194926878
 20
42.1800198634
 11
13.9510353464
 21
42.3137002817
  0
LINE
  5
22E
100
AcDbEntity
  8
0
100
AcDbLine
 62
7
  6
BYLAYER
 10
26.4947083007
 20
12.2095103369
 11
26.6361254467
 21
12.1278607751
  0
LINE
  5
22F
100
AcDbEntity
  8
0
100
AcDbLine
 62
7
  6
BYLAYER
 10
24.1072947584
 20
14.036887519
 11
25.0464907942
 21
13.4946547018
  0
LINE
  5
230
100
AcDbEntity
  8
0
100
AcDbLine
 62
7
  6
BYLAYER
 10
10.5443680566
 20
44.0909243676
 11
10.5443668791
 21
44.2542199895
  0
LINE
  5
231
100
AcDbEntity
  8
0
100
AcDbLine
 62
7
  6
BYLAYER
 10
9.8868874048
 20
34.2714131391
 11
13.1471070881
 21
42.0950632345
  0
LINE
  5
232
100
AcDbEntity
  8
0
100
AcDbLine
 62
7
  6
BYLAYER
 10
10.593991242
 20
34.679657293
 11
13.8542109253
 21
42.5033073884
  0
LINE
  5
233
100
AcDbEntity
  8
0
100
AcDbLine
 62
7
  6
BYLAYER
 10
9.1906678226
 20
35.4230673097
 11
8.991579351
 21
35.1854031086
  0
LINE
  5
234
100
AcDbEntity
  8
0
100
AcDbLine
 62
7
  6
BYLAYER
 10
7.6708889025
 20
37.3096206275
 11
7.7415992992
 21
37.3504450504
  0
LINE
  5
235
100
AcDbEntity
  8
0
100
AcDbLine
 62
7
  6
BYLAYER
 10
12.9631993065
 20
40.3651192251
 11
13.3038592788
 21
40.5617981778
  0
LINE
  5
236
100
AcDbEntity
  8
0
100
AcDbLine
 62
7
  6
BYLAYER
 10
23.436276916
 20
45.4805767359
 11
14.9510308695
 21
40.5816468895
  0
LINE
  5
237
100
AcDbEntity
  8
0
100
AcDbLine
 62
7
  6
BYLAYER
 10
16.3553897313
 20
15.3095306523
 11
16.5970297102
 21
14.8825790402
  0
LINE
  5
238
100
AcDbEntity
  8
0
100
AcDbLine
 62
7
  6
BYLAYER
 10
15.69438417
 20
15.50046176
 11
15.680219511
 21
15.5431454988
  0
LINE
  5
239
100
AcDbEntity
  8
0
100
AcDbLine
 62
7
  6
BYLAYER
 10
18.1355313633
 20
40.5873558562
 11
17.9364209398
 21
40.3497296411
  0
LINE
  5
23A
100
AcDbEntity
  8
0
100
AcDbLine
 62
7
  6
BYLAYER
 10
8.9208833064
 20
35.1445538872
 11
8.991593677
 21
35.185378295
  0
LINE
  5
23B
100
AcDbEntity
  8
0
100
AcDbLine
 62
7
  6
BYLAYER
 10
12.2569170592
 20
37.0706023754
 11
17.9364572022
 21
40.3496668325
  0
LINE
  5
23C
100
AcDbEntity
  8
0
100
AcDbLine
 62
7
  6
BYLAYER
 10
15.1057614519
 20
22.8180314882
 11
19.2114853685
 21
20.9459325291
  0
LINE
  5
23D
100
AcDbEntity
  8
0
100
AcDbLine
 62
7
  6
BYLAYER
 10
19.2114853685
 20
20.9459325291
 11
15.1073599948
 21
23.3153968139
  0
LINE
  5
23E
100
AcDbEntity
  8
0
100
AcDbLine
 62
7
  6
BYLAYER
 10
14.5702285952
 20
21.9898114259
 11
14.5702285952
 21
18.8025801743
  0
LINE
  5
23F
100
AcDbEntity
  8
0
100
AcDbLine
 62
7
  6
BYLAYER
 10
14.6596810536
 20
22.6123915249
 11
14.6596810536
 21
23.1655883785
  0
LINE
  5
240
100
AcDbEntity
  8
0
100
AcDbLine
 62
7
  6
BYLAYER
 10
11.2949982082
 20
35.1200414558
 11
12.355653964
 21
35.7324076866
  0
LINE
  5
241
100
AcDbEntity
  8
0
100
AcDbLine
 62
7
  6
BYLAYER
 10
19.3559819524
 20
39.77402481
 11
20.4166377082
 21
40.3863910408
  0
LINE
  5
242
100
AcDbEntity
  8
0
100
AcDbLine
 62
7
  6
BYLAYER
 10
20.7762864979
 20
40.5583731087
 11
20.4388896911
 21
40.3635781343
  0
LINE
  5
243
100
AcDbEntity
  8
0
100
AcDbLine
 62
7
  6
BYLAYER
 10
10.593991242
 20
34.679657293
 11
9.8868874048
 21
34.2714131391
  0
LINE
  5
244
100
AcDbEntity
  8
0
100
AcDbLine
 62
7
  6
BYLAYER
 10
10.1958429769
 20
34.2042792786
 11
9.4887391397
 21
33.7960351247
  0
LINE
  5
245
100
AcDbEntity
  8
0
100
AcDbLine
 62
7
  6
BYLAYER
 10
29.464588159
 20
16.6594814403
 11
28.4039235712
 21
17.271842572
  0
LINE
  5
246
100
AcDbEntity
  8
0
100
AcDbLine
 62
7
  6
BYLAYER
 10
6.6204817732
 20
35.0956635437
 11
5.3019676381
 21
36.4474145245
  0
LINE
  5
247
100
AcDbEntity
  8
0
100
AcDbLine
 62
7
  6
BYLAYER
 10
5.7865290386
 20
36.2857104253
 11
7.5994859744
 21
34.4270528267
  0
LINE
  5
248
100
AcDbEntity
  8
0
100
AcDbLine
 62
7
  6
BYLAYER
 10
15.6802178031
 20
16.537831715
 11
15.6802178031
 21
15.5431454982
  0
LINE
  5
249
100
AcDbEntity
  8
0
100
AcDbLine
 62
7
  6
BYLAYER
 10
15.69438417
 20
16.5256667798
 11
15.69438417
 21
15.50046176
  0
LINE
  5
24A
100
AcDbEntity
  8
0
100
AcDbLine
 62
7
  6
BYLAYER
 10
15.7740315915
 20
16.4572719874
 11
15.7740315915
 21
15.3894483467
  0
LINE
  5
24B
100
AcDbEntity
  8
0
100
AcDbLine
 62
7
  6
BYLAYER
 10
15.948989546
 20
15.3197739237
 11
15.948989546
 21
16.3070321838
  0
LINE
  5
24C
100
AcDbEntity
  8
0
100
AcDbLine
 62
7
  6
BYLAYER
 10
16.2202285952
 20
12.4338613207
 11
16.2202285952
 21
14.066866155
  0
LINE
  5
24D
100
AcDbEntity
  8
0
100
AcDbLine
 62
7
  6
BYLAYER
 10
16.2202285952
 20
15.0466690555
 11
16.2202285952
 21
15.3129373737
  0
LINE
  5
24E
100
AcDbEntity
  8
0
100
AcDbLine
 62
7
  6
BYLAYER
 10
16.5043446239
 20
15.8301379604
 11
16.5043446239
 21
15.3057762609
  0
LINE
  5
24F
100
AcDbEntity
  8
0
100
AcDbLine
 62
7
  6
BYLAYER
 10
16.5970297102
 20
15.7505474714
 11
16.5970297102
 21
14.5958353974
  0
LINE
  5
250
100
AcDbEntity
  8
0
100
AcDbLine
 62
7
  6
BYLAYER
 10
16.6366630745
 20
15.7165135294
 11
16.6366630745
 21
14.5268374897
  0
LINE
  5
251
100
AcDbEntity
  8
0
100
AcDbLine
 62
7
  6
BYLAYER
 10
16.7633632392
 20
15.6373253418
 11
16.7633632392
 21
14.4315082507
  0
LINE
  5
252
100
AcDbEntity
  8
0
100
AcDbLine
 62
7
  6
BYLAYER
 10
14.5702285953
 20
21.990240754
 11
14.6596810536
 21
22.6123573845
  0
LINE
  5
253
100
AcDbEntity
  8
0
100
AcDbLine
 62
7
  6
BYLAYER
 10
20.4300170722
 20
41.0160344621
 11
21.9274443465
 21
44.6094570456
  0
LINE
  5
254
100
AcDbEntity
  8
0
100
AcDbLine
 62
7
  6
BYLAYER
 10
15.6550393665
 20
34.6679759746
 11
21.9482635177
 21
38.301348944
  0
LINE
  5
255
100
AcDbEntity
  8
0
100
AcDbLine
 62
7
  6
BYLAYER
 10
30.6666558503
 20
18.5782238644
 11
30.4185115652
 21
18.7214867932
  0
LINE
  5
256
100
AcDbEntity
  8
0
100
AcDbLine
 62
7
  6
BYLAYER
 10
6.6204817732
 20
35.0956635437
 11
13.1493059448
 21
30.3289535094
  0
LINE
  5
257
100
AcDbEntity
  8
0
100
AcDbLine
 62
7
  6
BYLAYER
 10
23.697419026
 20
19.5149456631
 11
13.1493059448
 21
30.3289535094
  0
LINE
  5
258
100
AcDbEntity
  8
0
100
AcDbLine
 62
7
  6
BYLAYER
 10
19.5218547158
 20
13.2570259217
 11
19.4976050817
 21
13.5776556251
  0
LINE
  5
259
100
AcDbEntity
  8
0
100
AcDbLine
 62
7
  6
BYLAYER
 10
16.9635942818
 20
14.3903513875
 11
16.9635942818
 21
15.545255806
  0
LINE
  5
25A
100
AcDbEntity
  8
0
100
AcDbLine
 62
7
  6
BYLAYER
 10
17.5063011646
 20
15.2957102307
 11
17.5063011646
 21
14.4598157873
  0
LINE
  5
25B
100
AcDbEntity
  8
0
100
AcDbLine
 62
7
  6
BYLAYER
 10
17.6951156596
 20
14.4262925366
 11
17.6951156596
 21
15.2088902118
  0
LINE
  5
25C
100
AcDbEntity
  8
0
100
AcDbLine
 62
7
  6
BYLAYER
 10
17.9072755807
 20
15.111335581
 11
17.9072755807
 21
13.8178006584
  0
LINE
  5
25D
100
AcDbEntity
  8
0
100
AcDbLine
 62
7
  6
BYLAYER
 10
17.9833046637
 20
15.0763761548
 11
17.9833046637
 21
13.7271906747
  0
LINE
  5
25E
100
AcDbEntity
  8
0
100
AcDbLine
 62
7
  6
BYLAYER
 10
18.1484231646
 20
15.0004519448
 11
18.1484231646
 21
13.65404214
  0
LINE
  5
25F
100
AcDbEntity
  8
0
100
AcDbLine
 62
7
  6
BYLAYER
 10
18.3602818807
 20
13.6442076088
 11
18.3602818807
 21
14.903035813
  0
LINE
  5
260
100
AcDbEntity
  8
0
100
AcDbLine
 62
7
  6
BYLAYER
 10
20.7762864979
 20
40.5583731087
 11
22.6345481837
 21
45.0177011995
  0
LINE
  5
261
100
AcDbEntity
  8
0
100
AcDbLine
 62
7
  6
BYLAYER
 10
31.8680020028
 20
19.5583454922
 11
32.1161462879
 21
19.4150825634
  0
LINE
  5
262
100
AcDbEntity
  8
0
100
AcDbLine
 62
7
  6
BYLAYER
 10
32.2569091132
 20
19.7828797768
 11
32.5050533984
 21
19.639616848
  0
LINE
  5
263
100
AcDbEntity
  8
0
100
AcDbLine
 62
7
  6
BYLAYER
 10
33.2121662892
 20
20.047866229
 11
32.964022004
 21
20.1911291578
  0
LINE
  5
264
100
AcDbEntity
  8
0
100
AcDbLine
 62
7
  6
BYLAYER
 10
22.8151783359
 20
25.0092216765
 11
23.9330265284
 21
24.3368175525
  0
LINE
  5
265
100
AcDbEntity
  8
0
100
AcDbLine
 62
7
  6
BYLAYER
 10
23.9552317779
 20
25.5484828374
 11
22.7633678781
 21
26.2654086299
  0
LINE
  5
266
100
AcDbEntity
  8
0
100
AcDbLine
 62
7
  6
BYLAYER
 10
11.2949982082
 20
35.1200414558
 11
28.5961136418
 21
17.3828028987
  0
LINE
  5
267
100
AcDbEntity
  8
0
100
AcDbLine
 62
7
  6
BYLAYER
 10
25.3547382319
 20
22.4056450528
 11
19.1411770847
 21
28.7758364304
  0
LINE
  5
268
100
AcDbEntity
  8
0
100
AcDbLine
 62
7
  6
BYLAYER
 10
14.4110709102
 20
33.6251781933
 11
12.355653964
 21
35.7324076866
  0
LINE
  5
269
100
AcDbEntity
  8
0
100
AcDbLine
 62
7
  6
BYLAYER
 10
18.8533559912
 20
14.7365879179
 11
18.8533559912
 21
13.7924001872
  0
LINE
  5
26A
100
AcDbEntity
  8
0
100
AcDbLine
 62
7
  6
BYLAYER
 10
19.0507650653
 20
13.7882332177
 11
19.0507650653
 21
14.6928451497
  0
LINE
  5
26B
100
AcDbEntity
  8
0
100
AcDbLine
 62
7
  6
BYLAYER
 10
19.0702285952
 20
24.2587774025
 11
19.0702285952
 21
22.6555891775
  0
LINE
  5
26C
100
AcDbEntity
  8
0
100
AcDbLine
 62
7
  6
BYLAYER
 10
19.3926486077
 20
14.6170890954
 11
19.3926486077
 21
13.6742747618
  0
LINE
  5
26D
100
AcDbEntity
  8
0
100
AcDbLine
 62
7
  6
BYLAYER
 10
19.4976050817
 20
13.5776556251
 11
19.4976050817
 21
14.5938323797
  0
LINE
  5
26E
100
AcDbEntity
  8
0
100
AcDbLine
 62
7
  6
BYLAYER
 10
19.5218547158
 20
14.5884590395
 11
19.5218547158
 21
13.2570259217
  0
LINE
  5
26F
100
AcDbEntity
  8
0
100
AcDbLine
 62
7
  6
BYLAYER
 10
19.6425375385
 20
14.5617176105
 11
19.6425375385
 21
13.1560159238
  0
LINE
  5
270
100
AcDbEntity
  8
0
100
AcDbLine
 62
7
  6
BYLAYER
 10
19.8348218227
 20
14.5191104158
 11
19.8348218227
 21
13.1100330453
  0
LINE
  5
271
100
AcDbEntity
  8
0
100
AcDbLine
 62
7
  6
BYLAYER
 10
20.0438703909
 20
13.1321910531
 11
20.0438703909
 21
14.4727885175
  0
LINE
  5
272
100
AcDbEntity
  8
0
100
AcDbLine
 62
7
  6
BYLAYER
 10
20.4537095433
 20
14.3819745612
 11
20.4537095433
 21
13.3490127307
  0
LINE
  5
273
100
AcDbEntity
  8
0
100
AcDbLine
 62
7
  6
BYLAYER
 10
27.8734059254
 20
25.9468648428
 11
27.2647055829
 21
26.1433023609
  0
LINE
  5
274
100
AcDbEntity
  8
0
100
AcDbLine
 62
7
  6
BYLAYER
 10
8.1544463244
 20
35.2881218655
 11
8.2958634704
 21
35.2064723037
  0
LINE
  5
275
100
AcDbEntity
  8
0
100
AcDbLine
 62
7
  6
BYLAYER
 10
7.9969713421
 20
41.0256984754
 11
7.8321570752
 21
41.194667348
  0
LINE
  5
276
100
AcDbEntity
  8
0
100
AcDbLine
 62
7
  6
BYLAYER
 10
30.4883233869
 20
19.4607774407
 11
26.5987066882
 21
23.4484428341
  0
LINE
  5
277
100
AcDbEntity
  8
0
100
AcDbLine
 62
7
  6
BYLAYER
 10
20.0061360125
 20
30.207197738
 11
15.6550393665
 21
34.6679759746
  0
LINE
  5
278
100
AcDbEntity
  8
0
100
AcDbLine
 62
7
  6
BYLAYER
 10
20.6462600943
 20
13.3744860146
 11
20.6462600943
 21
14.3393083659
  0
LINE
  5
279
100
AcDbEntity
  8
0
100
AcDbLine
 62
7
  6
BYLAYER
 10
21.6741305102
 20
29.3146364637
 11
21.38348179
 21
27.7874040483
  0
LINE
  5
27A
100
AcDbEntity
  8
0
100
AcDbLine
 62
7
  6
BYLAYER
 10
21.5617644543
 20
31.1053348765
 11
21.1782091975
 21
30.1849054535
  0
LINE
  5
27B
100
AcDbEntity
  8
0
100
AcDbLine
 62
7
  6
BYLAYER
 10
26.2993601637
 20
33.8405707074
 11
24.7437317218
 21
32.9424335689
  0
LINE
  5
27C
100
AcDbEntity
  8
0
100
AcDbLine
 62
7
  6
BYLAYER
 10
21.5617644543
 20
31.1053348765
 11
20.0061360125
 21
30.207197738
  0
LINE
  5
27D
100
AcDbEntity
  8
0
100
AcDbLine
 62
7
  6
BYLAYER
 10
25.0206828273
 20
32.6585011343
 11
21.8387155598
 21
30.8214024419
  0
LINE
  5
27E
100
AcDbEntity
  8
0
100
AcDbLine
 62
7
  6
BYLAYER
 10
19.6225807556
 20
29.286768315
 11
21.1782091975
 21
30.1849054535
  0
LINE
  5
27F
100
AcDbEntity
  8
0
100
AcDbLine
 62
7
  6
BYLAYER
 10
25.1672046778
 20
32.4879393206
 11
25.9158049068
 21
32.9201412844
  0
LINE
  5
280
100
AcDbEntity
  8
0
100
AcDbLine
 62
7
  6
BYLAYER
 10
35.6870930945
 20
21.4767573569
 11
35.4389488094
 21
21.6200202857
  0
LINE
  5
281
100
AcDbEntity
  8
0
100
AcDbLine
 62
7
  6
BYLAYER
 10
35.9339214954
 20
21.9057911934
 11
35.969932863
 21
21.885000491
  0
LINE
  5
282
100
AcDbEntity
  8
0
100
AcDbLine
 62
7
  6
BYLAYER
 10
25.9453351456
 20
28.1025073224
 11
27.1371990453
 21
27.3855815298
  0
LINE
  5
283
100
AcDbEntity
  8
0
100
AcDbLine
 62
7
  6
BYLAYER
 10
21.1782091975
 20
30.1849054535
 11
21.455160303
 21
29.9009730189
  0
LINE
  5
284
100
AcDbEntity
  8
0
100
AcDbLine
 62
7
  6
BYLAYER
 10
21.5617644543
 20
31.1053348765
 11
21.8387155598
 21
30.8214024419
  0
LINE
  5
285
100
AcDbEntity
  8
0
100
AcDbLine
 62
7
  6
BYLAYER
 10
23.697419026
 20
19.5149456631
 11
25.0107240521
 21
13.5933251027
  0
LINE
  5
286
100
AcDbEntity
  8
0
100
AcDbLine
 62
7
  6
BYLAYER
 10
23.307972885
 20
17.8777861099
 11
23.3085822319
 21
14.2035577055
  0
LINE
  5
287
100
AcDbEntity
  8
0
100
AcDbLine
 62
7
  6
BYLAYER
 10
24.1072947584
 20
14.036887519
 11
24.1072947584
 21
17.6668383947
  0
LINE
  5
288
100
AcDbEntity
  8
0
100
AcDbLine
 62
7
  6
BYLAYER
 10
23.9330265284
 20
24.3368175525
 11
23.9552317779
 21
25.5484828374
  0
LINE
  5
289
100
AcDbEntity
  8
0
100
AcDbLine
 62
7
  6
BYLAYER
 10
22.4239476685
 20
26.9488238058
 11
22.7145963886
 21
28.4760562211
  0
LINE
  5
28A
100
AcDbEntity
  8
0
100
AcDbLine
 62
7
  6
BYLAYER
 10
19.1411770847
 20
28.7758364304
 11
18.0805213289
 21
28.1634701996
  0
LINE
  5
28B
100
AcDbEntity
  8
0
100
AcDbLine
 62
7
  6
BYLAYER
 10
26.1415050731
 20
32.8174535537
 11
27.2021608289
 21
33.4298197845
  0
LINE
  5
28C
100
AcDbEntity
  8
0
100
AcDbLine
 62
7
  6
BYLAYER
 10
17.2669056566
 20
25.9468979189
 11
16.913350794
 21
25.7427670876
  0
LINE
  5
28D
100
AcDbEntity
  8
0
100
AcDbLine
 62
7
  6
BYLAYER
 10
39.0104899613
 20
22.1707775175
 11
37.9498253736
 21
22.7831386493
  0
LINE
  5
28E
100
AcDbEntity
  8
0
100
AcDbLine
 62
7
  6
BYLAYER
 10
30.3491229122
 20
25.6137337255
 11
25.8751261441
 21
30.2005101264
  0
LINE
  5
28F
100
AcDbEntity
  8
0
100
AcDbLine
 62
7
  6
BYLAYER
 10
25.752262102
 20
13.4954725512
 11
25.7522609244
 21
13.658768173
  0
LINE
  5
290
100
AcDbEntity
  8
0
100
AcDbLine
 62
7
  6
BYLAYER
 10
26.0702285952
 20
25.154022865
 11
26.0702285952
 21
23.0657655014
  0
LINE
  5
291
100
AcDbEntity
  8
0
100
AcDbLine
 62
7
  6
BYLAYER
 10
24.6400558225
 20
24.3283171584
 11
24.6622610719
 21
25.5399824433
  0
LINE
  5
292
100
AcDbEntity
  8
0
100
AcDbLine
 62
7
  6
BYLAYER
 10
25.8965636561
 20
30.3131549135
 11
25.6059149359
 21
28.7859224982
  0
LINE
  5
293
100
AcDbEntity
  8
0
100
AcDbLine
 62
7
  6
BYLAYER
 10
22.7145963886
 20
28.4760562211
 11
25.8965636561
 21
30.3131549136
  0
LINE
  5
294
100
AcDbEntity
  8
0
100
AcDbLine
 62
7
  6
BYLAYER
 10
25.6059149359
 20
28.7859224982
 11
22.4239476685
 21
26.9488238057
  0
LINE
  5
295
100
AcDbEntity
  8
0
100
AcDbLine
 62
7
  6
BYLAYER
 10
15.6598891343
 20
39.0352974914
 11
18.9980850087
 21
36.5980727549
  0
LINE
  5
296
100
AcDbEntity
  8
0
100
AcDbLine
 62
7
  6
BYLAYER
 10
24.7437317218
 20
32.9424335689
 11
25.0206828273
 21
32.6585011343
  0
LINE
  5
297
100
AcDbEntity
  8
0
100
AcDbLine
 62
7
  6
BYLAYER
 10
27.1371245022
 20
26.9688369819
 11
27.1149192527
 21
25.757171697
  0
LINE
  5
298
100
AcDbEntity
  8
0
100
AcDbLine
 62
7
  6
BYLAYER
 10
27.2835631852
 20
27.1722978792
 11
27.2613579358
 21
25.9606325944
  0
LINE
  5
299
100
AcDbEntity
  8
0
100
AcDbLine
 62
7
  6
BYLAYER
 10
22.7633678781
 20
26.2654086299
 11
25.9453351456
 21
28.1025073224
  0
LINE
  5
29A
100
AcDbEntity
  8
0
100
AcDbLine
 62
7
  6
BYLAYER
 10
11.2868142554
 20
42.8049621533
 11
11.4282314014
 21
42.7233125915
  0
LINE
  5
29B
100
AcDbEntity
  8
0
100
AcDbLine
 62
7
  6
BYLAYER
 10
21.2088494567
 20
37.8744505851
 11
19.3559819524
 21
39.77402481
  0
LINE
  5
29C
100
AcDbEntity
  8
0
100
AcDbLine
 62
7
  6
BYLAYER
 10
26.0104623227
 20
32.9517996041
 11
32.1525167784
 21
26.6549174446
  0
LINE
  5
29D
100
AcDbEntity
  8
0
100
AcDbLine
 62
7
  6
BYLAYER
 10
36.4962055454
 20
22.2017338235
 11
36.657097386
 21
22.0367862528
  0
LINE
  5
29E
100
AcDbEntity
  8
0
100
AcDbLine
 62
7
  6
BYLAYER
 10
21.9482635177
 20
38.301348944
 11
26.2993601637
 21
33.8405707074
  0
LINE
  5
29F
100
AcDbEntity
  8
0
100
AcDbLine
 62
7
  6
BYLAYER
 10
32.8919308394
 20
27.0818158035
 11
36.7815475381
 21
23.0941504102
  0
LINE
  5
2A0
100
AcDbEntity
  8
0
100
AcDbLine
 62
7
  6
BYLAYER
 10
22.2945779923
 20
38.4611120065
 11
20.4166377082
 21
40.3863910408
  0
LINE
  5
2A1
100
AcDbEntity
  8
0
100
AcDbLine
 62
7
  6
BYLAYER
 10
27.2021608289
 20
33.4298197845
 11
33.238245314
 21
27.241578866
  0
LINE
  5
2A2
100
AcDbEntity
  8
0
100
AcDbLine
 62
7
  6
BYLAYER
 10
37.7018459355
 20
23.2634138215
 11
33.8122292368
 21
27.2510792148
  0
LINE
  5
2A3
100
AcDbEntity
  8
0
100
AcDbLine
 62
7
  6
BYLAYER
 10
27.2196585611
 20
34.0098341187
 11
22.8685619151
 21
38.4706123553
  0
LINE
  5
2A4
100
AcDbEntity
  8
0
100
AcDbLine
 62
7
  6
BYLAYER
 10
28.4039235712
 20
11.1893161907
 11
28.4039235712
 21
17.271842572
  0
LINE
  5
2A5
100
AcDbEntity
  8
0
100
AcDbLine
 62
7
  6
BYLAYER
 10
29.8181430215
 20
12.3728489774
 11
29.8181430215
 21
16.0471098544
  0
LINE
  5
2A6
100
AcDbEntity
  8
0
100
AcDbLine
 62
7
  6
BYLAYER
 10
25.8120767463
 20
13.9933200917
 11
25.7522609244
 21
13.658768173
  0
LINE
  5
2A7
100
AcDbEntity
  8
0
100
AcDbLine
 62
7
  6
BYLAYER
 10
27.1371245022
 20
26.9688369819
 11
24.6622610719
 21
25.5399824433
  0
LINE
  5
2A8
100
AcDbEntity
  8
0
100
AcDbLine
 62
7
  6
BYLAYER
 10
24.6400558225
 20
24.3283171584
 11
27.1149192527
 21
25.757171697
  0
LINE
  5
2A9
100
AcDbEntity
  8
0
100
AcDbLine
 62
7
  6
BYLAYER
 10
19.2114853685
 20
20.9459325291
 11
17.2669498161
 21
19.8232611059
  0
LINE
  5
2AA
100
AcDbEntity
  8
0
100
AcDbLine
 62
7
  6
BYLAYER
 10
26.0702285952
 20
24.9058061401
 11
27.8734059254
 21
25.9468648428
  0
LINE
  5
2AB
100
AcDbEntity
  8
0
100
AcDbLine
 62
7
  6
BYLAYER
 10
31.4002410369
 20
19.0017569413
 11
31.4002410369
 21
19.2882851847
  0
LINE
  5
2AC
100
AcDbEntity
  8
0
100
AcDbLine
 62
7
  6
BYLAYER
 10
26.5987066882
 20
23.4484428341
 11
32.8919308394
 21
27.0818158035
  0
LINE
  5
2AD
100
AcDbEntity
  8
0
100
AcDbLine
 62
7
  6
BYLAYER
 10
29.9595502467
 20
18.4149251831
 11
29.7775417839
 21
18.0996755281
  0
LINE
  5
2AE
100
AcDbEntity
  8
0
100
AcDbLine
 62
7
  6
BYLAYER
 10
36.7815475381
 20
23.0941504102
 11
30.4883233869
 21
19.4607774407
  0
LINE
  5
2AF
100
AcDbEntity
  8
0
100
AcDbLine
 62
7
  6
BYLAYER
 10
28.7354674372
 20
17.7497866132
 11
37.767292974
 21
22.9642823918
  0
LINE
  5
2B0
100
AcDbEntity
  8
0
100
AcDbLine
 62
7
  6
BYLAYER
 10
29.7682947257
 20
18.0595579233
 11
29.8716844133
 21
18.119249631
  0
LINE
  5
2B1
100
AcDbEntity
  8
0
100
AcDbLine
 62
7
  6
BYLAYER
 10
30.6666558503
 20
18.5782238644
 11
35.6870930945
 21
21.4767573569
  0
LINE
  5
2B2
100
AcDbEntity
  8
0
100
AcDbLine
 62
7
  6
BYLAYER
 10
37.7963604463
 20
22.6945361611
 11
37.9498253736
 21
22.7831386493
  0
LINE
  5
2B3
100
AcDbEntity
  8
0
100
AcDbLine
 62
7
  6
BYLAYER
 10
20.4537095433
 20
13.3490127307
 11
20.0438703909
 21
13.1321910531
  0
LINE
  5
2B4
100
AcDbEntity
  8
0
100
AcDbLine
 62
7
  6
BYLAYER
 10
37.767292974
 20
22.9642823918
 11
37.7018189804
 21
23.2633875412
  0
LINE
  5
2B5
100
AcDbEntity
  8
0
100
AcDbLine
 62
7
  6
BYLAYER
 10
39.3640448239
 20
21.5584059317
 11
39.3640448239
 21
17.8841450546
  0
LINE
  5
2B6
100
AcDbEntity
  8
0
100
AcDbLine
 62
7
  6
BYLAYER
 10
27.530929799
 20
12.3444557811
 11
27.3318193754
 21
12.106829566
  0
LINE
  5
2B7
100
AcDbEntity
  8
0
100
AcDbLine
 62
7
  6
BYLAYER
 10
39.0104899613
 20
22.1707775175
 11
29.464588159
 21
16.6594814403
  0
LINE
  5
2B8
100
AcDbEntity
  8
0
100
AcDbLine
 62
7
  6
BYLAYER
 10
26.0111508788
 20
14.2310090989
 11
26.0818612912
 21
14.2718335308
  0
LINE
  5
2B9
100
AcDbEntity
  8
0
100
AcDbLine
 62
7
  6
BYLAYER
 10
29.8181430215
 20
16.0471098544
 11
39.3640448239
 21
21.5584059317
  0
LINE
  5
2BA
100
AcDbEntity
  8
0
100
AcDbLine
 62
7
  6
BYLAYER
 10
18.8533559912
 20
13.7924001872
 11
18.3602818807
 21
13.6442076088
  0
LINE
  5
2BB
100
AcDbEntity
  8
0
100
AcDbLine
 62
7
  6
BYLAYER
 10
27.2611452827
 20
12.0659423585
 11
27.3318556378
 21
12.1067667573
  0
LINE
  5
2BC
100
AcDbEntity
  8
0
100
AcDbLine
 62
7
  6
BYLAYER
 10
39.3640448239
 20
17.8841450546
 11
29.8181430215
 21
12.3728489774
  0
LINE
  5
2BD
100
AcDbEntity
  8
0
100
AcDbLine
 62
7
  6
BYLAYER
 10
27.9568528684
 20
11.0242334037
 11
28.4039235712
 21
11.2823482536
  0
LINE
  5
2BE
100
AcDbEntity
  8
0
100
AcDbLine
 62
7
  6
BYLAYER
 10
30.2120941446
 20
11.2476942776
 11
30.2095538378
 21
11.2461975269
  0
LINE
  5
2BF
100
AcDbEntity
  8
0
100
AcDbLine
 62
7
  6
BYLAYER
 10
37.3513025937
 20
15.369463481
 11
37.3538429005
 21
15.3709602317
  0
LINE
  5
2C0
100
AcDbEntity
  8
0
100
AcDbLine
 62
7
  6
BYLAYER
 10
29.0074773146
 20
10.5521824654
 11
30.2120941446
 21
11.2476942776
  0
LINE
  5
2C1
100
AcDbEntity
  8
0
100
AcDbLine
 62
7
  6
BYLAYER
 10
30.2126621382
 20
11.2477813061
 11
38.5559194237
 21
16.0649752933
  0
LINE
  5
2C2
100
AcDbEntity
  8
0
100
AcDbLine
 62
7
  6
BYLAYER
 10
30.2127413392
 20
11.247827033
 11
30.2126725754
 21
11.2477949193
  0
ARC
  5
2C3
100
AcDbEntity
  8
0
100
AcDbCircle
 62
7
  6
BYLAYER
 10
-40.9341540694
 20
33.7436753538
 40
66.6068580597
100
AcDbArc
 50
346.1210313534
 51
346.804360348
  0
ARC
  5
2C4
100
AcDbEntity
  8
0
100
AcDbCircle
 62
7
  6
BYLAYER
 10
19.5046700967
 20
9.4309140974
 40
14.5641751032
100
AcDbArc
 50
107.5733486958
 51
109.4306007401
  0
ARC
  5
2C5
100
AcDbEntity
  8
0
100
AcDbCircle
 62
7
  6
BYLAYER
 10
22.3099111042
 20
23.8863721783
 40
11.0569232638
100
AcDbArc
 50
256.5515593188
 51
257.0647526551
  0
ARC
  5
2C6
100
AcDbEntity
  8
0
100
AcDbCircle
 62
7
  6
BYLAYER
 10
22.2818963205
 20
23.7688427438
 40
10.9361011285
100
AcDbArc
 50
256.0341415774
 51
256.5511022393
  0
ARC
  5
2C7
100
AcDbEntity
  8
0
100
AcDbCircle
 62
7
  6
BYLAYER
 10
22.0265771019
 20
22.1460659898
 40
8.8717994749
100
AcDbArc
 50
250.4016934405
 51
252.7292309037
  0
ARC
  5
2C8
100
AcDbEntity
  8
0
100
AcDbCircle
 62
7
  6
BYLAYER
 10
21.4927307968
 20
21.4272691609
 40
8.4621186388
100
AcDbArc
 50
246.1077303168
 51
246.7209743873
  0
ARC
  5
2C9
100
AcDbEntity
  8
0
100
AcDbCircle
 62
7
  6
BYLAYER
 10
21.4316718142
 20
21.289107332
 40
8.3110660891
100
AcDbArc
 50
245.4861789739
 51
246.1068251023
  0
ARC
  5
2CA
100
AcDbEntity
  8
0
100
AcDbCircle
 62
7
  6
BYLAYER
 10
20.8518076587
 20
19.7368029729
 40
7.1705509971
100
AcDbArc
 50
119.0997101478
 51
119.996553975
  0
ARC
  5
2CB
100
AcDbEntity
  8
0
100
AcDbCircle
 62
7
  6
BYLAYER
 10
20.6433529659
 20
20.0950513718
 40
6.7560716724
100
AcDbArc
 50
119.9844454193
 51
123.6065264239
  0
ARC
  5
2CC
100
AcDbEntity
  8
0
100
AcDbCircle
 62
7
  6
BYLAYER
 10
24.5640490176
 20
20.2031205424
 40
6.62901094
100
AcDbArc
 50
56.2761525774
 51
60.0503588954
  0
ARC
  5
2CD
100
AcDbEntity
  8
0
100
AcDbCircle
 62
7
  6
BYLAYER
 10
20.9763527473
 20
19.7883094485
 40
6.2863138793
100
AcDbArc
 50
238.5358341497
 51
240.7746777937
  0
ARC
  5
2CE
100
AcDbEntity
  8
0
100
AcDbCircle
 62
7
  6
BYLAYER
 10
23.9672722789
 20
14.7908096027
 40
5.9792003482
100
AcDbArc
 50
299.9994126213
 51
300.4360307204
  0
ARC
  5
2CF
100
AcDbEntity
  8
0
100
AcDbCircle
 62
7
  6
BYLAYER
 10
24.0866787134
 20
14.9922564716
 40
5.9475061004
100
AcDbArc
 50
299.9993724623
 51
300.4359905614
  0
ARC
  5
2D0
100
AcDbEntity
  8
0
100
AcDbCircle
 62
7
  6
BYLAYER
 10
22.5831625814
 20
30.5427639326
 40
5.8713573882
100
AcDbArc
 50
275.2360310263
 51
276.8890024161
  0
ARC
  5
2D1
100
AcDbEntity
  8
0
100
AcDbCircle
 62
7
  6
BYLAYER
 10
22.5698157231
 20
30.681375827
 40
5.75322611
100
AcDbArc
 50
273.1217111276
 51
273.5736470281
  0
ARC
  5
2D2
100
AcDbEntity
  8
0
100
AcDbCircle
 62
7
  6
BYLAYER
 10
20.1533118408
 20
19.0697837718
 40
5.7450284013
100
AcDbArc
 50
233.044507963
 51
233.8382750804
  0
ARC
  5
2D3
100
AcDbEntity
  8
0
100
AcDbCircle
 62
7
  6
BYLAYER
 10
20.0735886266
 20
18.9635664983
 40
5.6122207322
100
AcDbArc
 50
232.2367380205
 51
233.0429746085
  0
ARC
  5
2D4
100
AcDbEntity
  8
0
100
AcDbCircle
 62
7
  6
BYLAYER
 10
22.4709655783
 20
23.7148339661
 40
5.0545055399
100
AcDbArc
 50
100.4739488676
 51
105.2178438199
  0
ARC
  5
2D5
100
AcDbEntity
  8
0
100
AcDbCircle
 62
7
  6
BYLAYER
 10
22.3784156597
 20
24.0749302182
 40
4.6827456426
100
AcDbArc
 50
105.2816755346
 51
106.2760775306
  0
ARC
  5
2D6
100
AcDbEntity
  8
0
100
AcDbCircle
 62
7
  6
BYLAYER
 10
18.7198375341
 20
17.5875867051
 40
3.6755387216
100
AcDbArc
 50
215.6609466769
 51
216.7300246545
  0
ARC
  5
2D7
100
AcDbEntity
  8
0
100
AcDbCircle
 62
7
  6
BYLAYER
 10
18.6517292825
 20
17.5385565501
 40
3.5916180878
100
AcDbArc
 50
214.5731998906
 51
215.6588758546
  0
ARC
  5
2D8
100
AcDbEntity
  8
0
100
AcDbCircle
 62
7
  6
BYLAYER
 10
19.5040273107
 20
16.6095486447
 40
3.4573186502
100
AcDbArc
 50
220.0098654871
 51
220.8129060184
  0
ARC
  5
2D9
100
AcDbEntity
  8
0
100
AcDbCircle
 62
7
  6
BYLAYER
 10
21.8041912361
 20
25.323862931
 40
3.3349233746
100
AcDbArc
 50
119.4989694864
 51
119.9992580242
  0
ARC
  5
2DA
100
AcDbEntity
  8
0
100
AcDbCircle
 62
7
  6
BYLAYER
 10
21.8006044091
 20
25.4634672743
 40
3.175241513
100
AcDbArc
 50
119.4964018605
 51
119.9954271931
  0
ARC
  5
2DB
100
AcDbEntity
  8
0
100
AcDbCircle
 62
7
  6
BYLAYER
 10
21.7680526601
 20
25.5202564643
 40
3.1097833584
100
AcDbArc
 50
119.9993468299
 51
120.6684520312
  0
ARC
  5
2DC
100
AcDbEntity
  8
0
100
AcDbCircle
 62
7
  6
BYLAYER
 10
21.7403966772
 20
25.5670188423
 40
3.0554550122
100
AcDbArc
 50
120.6696564162
 51
121.2312487654
  0
ARC
  5
2DD
100
AcDbEntity
  8
0
100
AcDbCircle
 62
7
  6
BYLAYER
 10
18.3711668383
 20
14.0650619133
 40
2.150936118
100
AcDbArc
 50
166.8301616856
 51
179.9519393222
  0
ARC
  5
2DE
100
AcDbEntity
  8
0
100
AcDbCircle
 62
7
  6
BYLAYER
 10
24.9091596482
 20
22.8807166774
 40
1.2263385766
100
AcDbArc
 50
9.2233841475
 51
11.1261314766
  0
ARC
  5
2DF
100
AcDbEntity
  8
0
100
AcDbCircle
 62
7
  6
BYLAYER
 10
20.2073587272
 20
22.8845473745
 40
1.2021202125
100
AcDbArc
 50
168.0833313961
 51
179.9740271278
  0
ARC
  5
2E0
100
AcDbEntity
  8
0
100
AcDbCircle
 62
7
  6
BYLAYER
 10
11.5157746311
 20
45.7152861058
 40
0.8365030552
100
AcDbArc
 50
120.0019408118
 51
126.371200967
  0
ARC
  5
2E1
100
AcDbEntity
  8
0
100
AcDbCircle
 62
7
  6
BYLAYER
 10
26.8505377209
 20
12.5574689444
 40
0.6604129654
100
AcDbArc
 50
337.3958683772
 51
341.5392597034
  0
ARC
  5
2E2
100
AcDbEntity
  8
0
100
AcDbCircle
 62
7
  6
BYLAYER
 10
26.2221957279
 20
13.8648156888
 40
0.4226517725
100
AcDbArc
 50
109.5268607271
 51
119.9557382316
  0
ARC
  5
2E3
100
AcDbEntity
  8
0
100
AcDbCircle
 62
7
  6
BYLAYER
 10
7.8818804687
 20
36.9434657614
 40
0.4225934673
100
AcDbArc
 50
109.7381158936
 51
119.9520887256
  0
ARC
  5
2E4
100
AcDbEntity
  8
0
100
AcDbCircle
 62
7
  6
BYLAYER
 10
11.0142483998
 20
44.4603060492
 40
0.4225934673
100
AcDbArc
 50
109.7381158935
 51
119.9520887256
  0
ARC
  5
2E5
100
AcDbEntity
  8
0
100
AcDbCircle
 62
7
  6
BYLAYER
 10
27.0515432977
 20
12.4289780127
 40
0.4191955175
100
AcDbArc
 50
300.0003849981
 51
310.3074144107
  0
ARC
  5
2E6
100
AcDbEntity
  8
0
100
AcDbCircle
 62
7
  6
BYLAYER
 10
8.7114072642
 20
35.5073770544
 40
0.4189502216
100
AcDbArc
 50
299.9999986907
 51
310.0663957534
  0
ARC
  5
2E7
100
AcDbEntity
  8
0
100
AcDbCircle
 62
7
  6
BYLAYER
 10
11.8437751953
 20
43.0242173422
 40
0.4189502216
100
AcDbArc
 50
299.9999986908
 51
310.0663957534
  0
SPLINE
  5
2E8
100
AcDbEntity
  8
0
100
AcDbSpline
 62
7
  6
BYLAYER
 70
0
 71
3
 72
14
 73
10
 74
0
 42
0.0000001
 43
0.0000001
 44
0.0000000001
 40
0.0
 40
0.0
 40
0.0
 40
0.0
 40
0.289269967
 40
0.4225370802
 40
0.5484957501
 40
0.6678924351
 40
0.7818657961
 40
0.8919513421
 40
1.0
 40
1.0
 40
1.0
 40
1.0
 10
26.6361254468
 20
12.127863916
 30
0.0
 10
26.6909944788
 20
12.0961843307
 30
0.0
 10
26.775235095
 20
12.0560913917
 30
0.0
 10
26.8907619497
 20
12.0223958781
 30
0.0
 10
26.9727659388
 20
12.0086443406
 30
0.0
 10
27.0516693428
 20
12.0058925569
 30
0.0
 10
27.1267259933
 20
12.0142668365
 30
0.0
 10
27.1971350842
 20
12.0337335218
 30
0.0
 10
27.2406472226
 20
12.054115017
 30
0.0
 10
27.2611434958
 20
12.0659454538
 30
0.0
  0
SPLINE
  5
2E9
100
AcDbEntity
  8
0
100
AcDbSpline
 62
7
  6
BYLAYER
 70
0
 71
3
 72
11
 73
7
 74
0
 42
0.0000001
 43
0.0000001
 44
0.0000000001
 40
0.0
 40
0.0
 40
0.0
 40
0.0
 40
0.2381683279
 40
0.4813731029
 40
0.734214583
 40
1.0
 40
1.0
 40
1.0
 40
1.0
 10
26.0111526657
 20
14.2310060036
 30
0.0
 10
25.989468981
 20
14.2184901937
 30
0.0
 10
25.9478537133
 20
14.189139824
 30
0.0
 10
25.8933717411
 20
14.1339514993
 30
0.0
 10
25.8471654316
 20
14.0681347399
 30
0.0
 10
25.8228237986
 20
14.0191101257
 30
0.0
 10
25.8120767463
 20
13.9933200917
 30
0.0
  0
SPLINE
  5
2EA
100
AcDbEntity
  8
0
100
AcDbSpline
 62
7
  6
BYLAYER
 70
0
 71
3
 72
18
 73
14
 74
0
 42
0.0000001
 43
0.0000001
 44
0.0000000001
 40
0.0
 40
0.0
 40
0.0
 40
0.0
 40
0.0558544219
 40
0.1142145873
 40
0.1748376491
 40
0.2374258464
 40
0.3670475246
 40
0.5000437794
 40
0.6330391149
 40
0.7626596202
 40
0.8252481651
 40
0.8858711259
 40
1.0
 40
1.0
 40
1.0
 40
1.0
 10
25.752262016
 20
13.4954725969
 30
0.0
 10
25.7522622851
 20
13.4667503194
 30
0.0
 10
25.7548200521
 20
13.4079960171
 30
0.0
 10
25.7656337757
 20
13.3186648899
 30
0.0
 10
25.7834369358
 20
13.226929111
 30
0.0
 10
25.816624803
 20
13.1011405332
 30
0.0
 10
25.8745221103
 20
12.9437784228
 30
0.0
 10
25.9663949187
 20
12.7617960549
 30
0.0
 10
26.0780609477
 20
12.5912384341
 30
0.0
 10
26.1853852491
 20
12.4624224764
 30
0.0
 10
26.2777377843
 20
12.3707766454
 30
0.0
 10
26.3699086814
 20
12.2907058155
 30
0.0
 10
26.4438837241
 20
12.2388596359
 30
0.0
 10
26.4947083018
 20
12.2095123501
 30
0.0
  0
SPLINE
  5
2EB
100
AcDbEntity
  8
0
100
AcDbSpline
 62
7
  6
BYLAYER
 70
0
 71
3
 72
26
 73
22
 74
0
 42
0.0000001
 43
0.0000001
 44
0.0000000001
 40
0.0
 40
0.0
 40
0.0
 40
0.0
 40
0.0530615298
 40
0.0814715306
 40
0.1111170563
 40
0.1739276053
 40
0.2409517692
 40
0.3113185223
 40
0.3839567412
 40
0.4576695602
 40
0.5312040898
 40
0.6033164798
 40
0.6728380506
 40
0.7387457296
 40
0.800241878
 40
0.8568487811
 40
0.9085236506
 40
0.9326849566
 40
0.9558637403
 40
0.9782317603
 40
1.0
 40
1.0
 40
1.0
 40
1.0
 10
27.4769663985
 20
12.3483460221
 30
0.0
 10
27.4921913531
 20
12.3938132068
 30
0.0
 10
27.5084816241
 20
12.4661356111
 30
0.0
 10
27.5187250757
 20
12.5660672194
 30
0.0
 10
27.5217405199
 20
12.6753451641
 30
0.0
 10
27.510620513
 20
12.8194595708
 30
0.0
 10
27.475505936
 20
12.9972908445
 30
0.0
 10
27.4192555135
 20
13.1788965847
 30
0.0
 10
27.3432929503
 20
13.3597156343
 30
0.0
 10
27.2495246374
 20
13.535215368
 30
0.0
 10
27.1403116995
 20
13.700977088
 30
0.0
 10
27.0184011837
 20
13.8528302912
 30
0.0
 10
26.8868469337
 20
13.9869624424
 30
0.0
 10
26.7489243105
 20
14.1000181865
 30
0.0
 10
26.6079891691
 20
14.1891764673
 30
0.0
 10
26.4674676062
 20
14.2521769341
 30
0.0
 10
26.3507547696
 20
14.2820726251
 30
0.0
 10
26.2615073757
 20
14.2903929343
 30
0.0
 10
26.1983791658
 20
14.2891307484
 30
0.0
 10
26.1380119503
 20
14.2805029096
 30
0.0
 10
26.0994621057
 20
14.2697394322
 30
0.0
 10
26.0809249053
 20
14.2631586007
 30
0.0
  0
SPLINE
  5
2EC
100
AcDbEntity
  8
0
100
AcDbSpline
 62
7
  6
BYLAYER
 70
0
 71
3
 72
10
 73
6
 74
0
 42
0.0000001
 43
0.0000001
 44
0.0000000001
 40
0.0
 40
0.0
 40
0.0
 40
0.0
 40
0.2386721549
 40
0.4836971505
 40
1.0
 40
1.0
 40
1.0
 40
1.0
 10
27.3227160437
 20
12.1093059562
 30
0.0
 10
27.3372855215
 20
12.1216440369
 30
0.0
 10
27.3651771498
 20
12.1486549969
 30
0.0
 10
27.4152224147
 20
12.2112537895
 30
0.0
 10
27.4443332736
 20
12.2655088998
 30
0.0
 10
27.4602194152
 20
12.3036313657
 30
0.0
  0
SPLINE
  5
2ED
100
AcDbEntity
  8
0
100
AcDbSpline
 62
7
  6
BYLAYER
 70
0
 71
3
 72
9
 73
5
 74
0
 42
0.0000001
 43
0.0000001
 44
0.0000000001
 40
0.0
 40
0.0
 40
0.0
 40
0.0
 40
0.260875842
 40
1.0
 40
1.0
 40
1.0
 40
1.0
 10
26.4947083018
 20
12.2095123501
 30
0.0
 10
26.5075491666
 20
12.202097738
 30
0.0
 10
26.5573969054
 20
12.1747936729
 30
0.0
 10
26.6098549715
 20
12.1520954073
 30
0.0
 10
26.6497395666
 20
12.1388997349
 30
0.0
  0
SPLINE
  5
2EE
100
AcDbEntity
  8
0
100
AcDbSpline
 62
7
  6
BYLAYER
 70
0
 71
3
 72
15
 73
11
 74
0
 42
0.0000001
 43
0.0000001
 44
0.0000000001
 40
0.0
 40
0.0
 40
0.0
 40
0.0
 40
0.1413203478
 40
0.2730760545
 40
0.3968998239
 40
0.5152836696
 40
0.6314051695
 40
0.7487757163
 40
0.8707901002
 40
1.0
 40
1.0
 40
1.0
 40
1.0
 10
26.6497395666
 20
12.1388997349
 30
0.0
 10
26.6786359345
 20
12.1293394773
 30
0.0
 10
26.7357800572
 20
12.1144558975
 30
0.0
 10
26.821213098
 20
12.1058869589
 30
0.0
 10
26.901993511
 20
12.1121988286
 30
0.0
 10
26.9767430291
 20
12.1335245071
 30
0.0
 10
27.044066937
 20
12.1695967926
 30
0.0
 10
27.1026539031
 20
12.219789322
 30
0.0
 10
27.1514497719
 20
12.2830254683
 30
0.0
 10
27.1762429367
 20
12.3314701987
 30
0.0
 10
27.1869472343
 20
12.357157633
 30
0.0
  0
SPLINE
  5
2EF
100
AcDbEntity
  8
0
100
AcDbSpline
 62
7
  6
BYLAYER
 70
0
 71
3
 72
9
 73
5
 74
0
 42
0.0000001
 43
0.0000001
 44
0.0000000001
 40
0.0
 40
0.0
 40
0.0
 40
0.0
 40
0.241305814
 40
1.0
 40
1.0
 40
1.0
 40
1.0
 10
25.8025073924
 20
13.7764961628
 30
0.0
 10
25.7988588842
 20
13.7677407249
 30
0.0
 10
25.7847123978
 20
13.73105416
 30
0.0
 10
25.7743555186
 20
13.6929476013
 30
0.0
 10
25.7683614865
 20
13.6637335344
 30
0.0
  0
SPLINE
  5
2F0
100
AcDbEntity
  8
0
100
AcDbSpline
 62
7
  6
BYLAYER
 70
0
 71
3
 72
9
 73
5
 74
0
 42
0.0000001
 43
0.0000001
 44
0.0000000001
 40
0.0
 40
0.0
 40
0.0
 40
0.0
 40
0.2395674565
 40
1.0
 40
1.0
 40
1.0
 40
1.0
 10
25.7683614865
 20
13.6637335344
 30
0.0
 10
25.7656458681
 20
13.6504979933
 30
0.0
 10
25.755902298
 20
13.5949267057
 30
0.0
 10
25.7522616141
 20
13.5383598969
 30
0.0
 10
25.752262016
 20
13.4954725969
 30
0.0
  0
SPLINE
  5
2F1
100
AcDbEntity
  8
0
100
AcDbSpline
 62
7
  6
BYLAYER
 70
0
 71
3
 72
34
 73
30
 74
0
 42
0.0000001
 43
0.0000001
 44
0.0000000001
 40
0.0
 40
0.0
 40
0.0
 40
0.0
 40
0.0546723801
 40
0.0844393157
 40
0.1158000803
 40
0.1487038975
 40
0.1830379379
 40
0.2186538758
 40
0.255371216
 40
0.3312465409
 40
0.4088661533
 40
0.4862548812
 40
0.5614562253
 40
0.5976879309
 40
0.6327314772
 40
0.6664191927
 40
0.6986222942
 40
0.7292497198
 40
0.7582664444
 40
0.7856931903
 40
0.8116262363
 40
0.8362367726
 40
0.8597847879
 40
0.8826062288
 40
0.9050980975
 40
0.9276875258
 40
0.950801781
 40
0.9748179316
 40
1.0
 40
1.0
 40
1.0
 40
1.0
 10
27.1869472343
 20
12.357157633
 30
0.0
 10
27.2055014717
 20
12.4016828109
 30
0.0
 10
27.2249355036
 20
12.4744866466
 30
0.0
 10
27.2364029422
 20
12.5760642946
 30
0.0
 10
27.2381511113
 20
12.6591355809
 30
0.0
 10
27.2327592741
 20
12.7460441707
 30
0.0
 10
27.2203225452
 20
12.8360154345
 30
0.0
 10
27.2009258228
 20
12.9281803383
 30
0.0
 10
27.1656855233
 20
13.0541831975
 30
0.0
 10
27.105439969
 20
13.2112842955
 30
0.0
 10
27.0110853557
 20
13.3922924558
 30
0.0
 10
26.8973878487
 20
13.5611062229
 30
0.0
 10
26.7887075778
 20
13.6879611782
 30
0.0
 10
26.6955634557
 20
13.7776616418
 30
0.0
 10
26.6246356295
 20
13.8373239481
 30
0.0
 10
26.5524436291
 20
13.8896073482
 30
0.0
 10
26.4796844857
 20
13.9340390825
 30
0.0
 10
26.4070220216
 20
13.9701639248
 30
0.0
 10
26.3351488934
 20
13.9976605225
 30
0.0
 10
26.2647156757
 20
14.0162133493
 30
0.0
 10
26.1963862148
 20
14.0256517835
 30
0.0
 10
26.1307976655
 20
14.0257939009
 30
0.0
 10
26.0685943392
 20
14.0166133535
 30
0.0
 10
26.010437799
 20
13.9980937416
 30
0.0
 10
25.9569621951
 20
13.9704421913
 30
0.0
 10
25.9087892424
 20
13.9339141786
 30
0.0
 10
25.866412906
 20
13.8889539525
 30
0.0
 10
25.8302930761
 20
13.8360856928
 30
0.0
 10
25.811053464
 20
13.7970044354
 30
0.0
 10
25.8025073924
 20
13.7764961628
 30
0.0
  0
SPLINE
  5
2F2
100
AcDbEntity
  8
0
100
AcDbSpline
 62
7
  6
BYLAYER
 70
0
 71
3
 72
15
 73
11
 74
0
 42
0.0000001
 43
0.0000001
 44
0.0000000001
 40
0.0
 40
0.0
 40
0.0
 40
0.0
 40
0.1486025785
 40
0.2894995365
 40
0.4227197849
 40
0.5486421172
 40
0.6679976076
 40
0.7819372185
 40
0.8919876027
 40
1.0
 40
1.0
 40
1.0
 40
1.0
 10
8.2958634704
 20
35.206472981
 30
0.0
 10
8.3240588546
 20
35.1901922627
 30
0.0
 10
8.3803412717
 20
35.1607326473
 30
0.0
 10
8.466188597
 20
35.1255889631
 30
0.0
 10
8.5505081104
 20
35.1010146173
 30
0.0
 10
8.6325014603
 20
35.0872488317
 30
0.0
 10
8.7114077707
 20
35.0845113808
 30
0.0
 10
8.7864655109
 20
35.0928721067
 30
0.0
 10
8.8568710965
 20
35.1123529693
 30
0.0
 10
8.9003860813
 20
35.1327258854
 30
0.0
 10
8.9208823667
 20
35.1445555148
 30
0.0
  0
SPLINE
  5
2F3
100
AcDbEntity
  8
0
100
AcDbSpline
 62
7
  6
BYLAYER
 70
0
 71
3
 72
15
 73
11
 74
0
 42
0.0000001
 43
0.0000001
 44
0.0000000001
 40
0.0
 40
0.0
 40
0.0
 40
0.0
 40
0.1141524139
 40
0.2373243452
 40
0.3669739443
 40
0.5000001071
 40
0.633025032
 40
0.76267447
 40
0.8858453422
 40
1.0
 40
1.0
 40
1.0
 40
1.0
 10
7.4120002308
 20
36.5740839981
 30
0.0
 10
7.4119998795
 20
36.5153960591
 30
0.0
 10
7.4227572241
 20
36.3932698091
 30
0.0
 10
7.4656043881
 20
36.2090261152
 30
0.0
 10
7.534256729
 20
36.022400879
 30
0.0
 10
7.6261350651
 20
35.8404108361
 30
0.0
 10
7.7378025034
 20
35.6698458486
 30
0.0
 10
7.8650985833
 20
35.51708041
 30
0.0
 10
8.003231627
 20
35.3878479201
 30
0.0
 10
8.103618753
 20
35.3174687962
 30
0.0
 10
8.1544463125
 20
35.2881265265
 30
0.0
  0
SPLINE
  5
2F4
100
AcDbEntity
  8
0
100
AcDbSpline
 62
7
  6
BYLAYER
 70
0
 71
3
 72
26
 73
22
 74
0
 42
0.0000001
 43
0.0000001
 44
0.0000000001
 40
0.0
 40
0.0
 40
0.0
 40
0.0
 40
0.0516296055
 40
0.1083281949
 40
0.1700457425
 40
0.2363013343
 40
0.3062480927
 40
0.3788068409
 40
0.4527425324
 40
0.5267441341
 40
0.5994975052
 40
0.6697575378
 40
0.7364241956
 40
0.7986278838
 40
0.8558314008
 40
0.8825391098
 40
0.9080153242
 40
0.9323454772
 40
0.955659761
 40
0.9781377679
 40
1.0
 40
1.0
 40
1.0
 40
1.0
 10
9.1199574389
 20
35.3822428944
 30
0.0
 10
9.1382292318
 20
35.4260902815
 30
0.0
 10
9.1663161367
 20
35.5225114552
 30
0.0
 10
9.183148534
 20
35.6786631244
 30
0.0
 10
9.1764895281
 20
35.848972544
 30
0.0
 10
9.1466306011
 20
36.0290221798
 30
0.0
 10
9.0943734594
 20
36.2142193568
 30
0.0
 10
9.0211035945
 20
36.3997307784
 30
0.0
 10
8.9287401928
 20
36.5806933877
 30
0.0
 10
8.8197170177
 20
36.7523461953
 30
0.0
 10
8.6969018951
 20
36.9101743416
 30
0.0
 10
8.5635191375
 20
37.0500335334
 30
0.0
 10
8.4230233864
 20
37.1682726758
 30
0.0
 10
8.2790585843
 20
37.2617863631
 30
0.0
 10
8.1563940904
 20
37.3183331686
 30
0.0
 10
8.0601019891
 20
37.3480421999
 30
0.0
 10
7.991042611
 20
37.3623039561
 30
0.0
 10
7.9239617135
 20
37.3689535025
 30
0.0
 10
7.8592969405
 20
37.3678897402
 30
0.0
 10
7.7975049647
 20
37.3591311974
 30
0.0
 10
7.7580920344
 20
37.3480294506
 30
0.0
 10
7.7391615711
 20
37.3412302078
 30
0.0
  0
SPLINE
  5
2F5
100
AcDbEntity
  8
0
100
AcDbSpline
 62
7
  6
BYLAYER
 70
0
 71
3
 72
10
 73
6
 74
0
 42
0.0000001
 43
0.0000001
 44
0.0000000001
 40
0.0
 40
0.0
 40
0.0
 40
0.0
 40
0.2386491311
 40
0.4836629773
 40
1.0
 40
1.0
 40
1.0
 40
1.0
 10
8.9810750016
 20
35.1867548475
 30
0.0
 10
8.9958042081
 20
35.1991221699
 30
0.0
 10
9.0240032215
 20
35.2262326737
 30
0.0
 10
9.0745715127
 20
35.2891844859
 30
0.0
 10
9.1039514017
 20
35.3438327114
 30
0.0
 10
9.1199574389
 20
35.3822428944
 30
0.0
  0
SPLINE
  5
2F6
100
AcDbEntity
  8
0
100
AcDbSpline
 62
7
  6
BYLAYER
 70
0
 71
3
 72
9
 73
5
 74
0
 42
0.0000001
 43
0.0000001
 44
0.0000000001
 40
0.0
 40
0.0
 40
0.0
 40
0.0
 40
0.2601699153
 40
1.0
 40
1.0
 40
1.0
 40
1.0
 10
8.1544463125
 20
35.2881265265
 30
0.0
 10
8.1665282751
 20
35.2811517237
 30
0.0
 10
8.2135209309
 20
35.2553302402
 30
0.0
 10
8.2628216571
 20
35.2335841084
 30
0.0
 10
8.3003127972
 20
35.2206155414
 30
0.0
  0
SPLINE
  5
2F7
100
AcDbEntity
  8
0
100
AcDbSpline
 62
7
  6
BYLAYER
 70
0
 71
3
 72
15
 73
11
 74
0
 42
0.0000001
 43
0.0000001
 44
0.0000000001
 40
0.0
 40
0.0
 40
0.0
 40
0.0
 40
0.1419798791
 40
0.2741834996
 40
0.3982215098
 40
0.5165781846
 40
0.6324680649
 40
0.7494929047
 40
0.8711387284
 40
1.0
 40
1.0
 40
1.0
 40
1.0
 10
8.3003127972
 20
35.2206155414
 30
0.0
 10
8.3296428742
 20
35.2104699693
 30
0.0
 10
8.3876568521
 20
35.1944904212
 30
0.0
 10
8.4745272715
 20
35.1845748247
 30
0.0
 10
8.5567353555
 20
35.1898872317
 30
0.0
 10
8.6328548271
 20
35.2106215054
 30
0.0
 10
8.7014319134
 20
35.2465097208
 30
0.0
 10
8.7610895941
 20
35.2969272271
 30
0.0
 10
8.8107044385
 20
35.3607599977
 30
0.0
 10
8.8358505093
 20
35.4097686801
 30
0.0
 10
8.8466852579
 20
35.4357691617
 30
0.0
  0
SPLINE
  5
2F8
100
AcDbEntity
  8
0
100
AcDbSpline
 62
7
  6
BYLAYER
 70
0
 71
3
 72
9
 73
5
 74
0
 42
0.0000001
 43
0.0000001
 44
0.0000000001
 40
0.0
 40
0.0
 40
0.0
 40
0.0
 40
0.2412774022
 40
1.0
 40
1.0
 40
1.0
 40
1.0
 10
7.462245416
 20
36.8551076915
 30
0.0
 10
7.4585975117
 20
36.8463537025
 30
0.0
 10
7.4444524152
 20
36.8096685706
 30
0.0
 10
7.4340978017
 20
36.7715634671
 30
0.0
 10
7.4281030384
 20
36.7423498642
 30
0.0
  0
SPLINE
  5
2F9
100
AcDbEntity
  8
0
100
AcDbSpline
 62
7
  6
BYLAYER
 70
0
 71
3
 72
9
 73
5
 74
0
 42
0.0000001
 43
0.0000001
 44
0.0000000001
 40
0.0
 40
0.0
 40
0.0
 40
0.0
 40
0.2395748006
 40
1.0
 40
1.0
 40
1.0
 40
1.0
 10
7.4281030384
 20
36.7423498642
 30
0.0
 10
7.4253868908
 20
36.7291135688
 30
0.0
 10
7.4156381942
 20
36.6735413199
 30
0.0
 10
7.4120004875
 20
36.6169722519
 30
0.0
 10
7.4120002308
 20
36.5740839981
 30
0.0
  0
SPLINE
  5
2FA
100
AcDbEntity
  8
0
100
AcDbSpline
 62
7
  6
BYLAYER
 70
0
 71
3
 72
31
 73
27
 74
0
 42
0.0000001
 43
0.0000001
 44
0.0000000001
 40
0.0
 40
0.0
 40
0.0
 40
0.0
 40
0.0546798412
 40
0.0844545941
 40
0.1158208223
 40
0.1487286674
 40
0.1830688543
 40
0.2553756704
 40
0.3312628241
 40
0.4088950855
 40
0.4862961501
 40
0.5243107288
 40
0.5615441428
 40
0.6327901385
 40
0.6986401637
 40
0.7582247635
 40
0.785657175
 40
0.8115935563
 40
0.8362088855
 40
0.8597609091
 40
0.882586482
 40
0.9050810675
 40
0.9276745498
 40
0.9507954267
 40
0.9748171851
 40
1.0
 40
1.0
 40
1.0
 40
1.0
 10
8.8466852579
 20
35.4357691617
 30
0.0
 10
8.8652389141
 20
35.4802929446
 30
0.0
 10
8.8846707173
 20
35.5530981384
 30
0.0
 10
8.8961419376
 20
35.6546766446
 30
0.0
 10
8.8978891509
 20
35.7377488439
 30
0.0
 10
8.8924978389
 20
35.8246587807
 30
0.0
 10
8.8756159793
 20
35.9467014909
 30
0.0
 10
8.8366603828
 20
36.103465467
 30
0.0
 10
8.7651817019
 20
36.2898821423
 30
0.0
 10
8.6708265793
 20
36.470894586
 30
0.0
 10
8.5754723192
 20
36.6124723979
 30
0.0
 10
8.490722688
 20
36.7172089062
 30
0.0
 10
8.4034566879
 20
36.8126027339
 30
0.0
 10
8.2891920048
 20
36.9162672775
 30
0.0
 10
8.1448612157
 20
37.013693032
 30
0.0
 10
8.0210016554
 20
37.0693721667
 30
0.0
 10
7.9244601142
 20
37.0948300381
 30
0.0
 10
7.8561259763
 20
37.1042567751
 30
0.0
 10
7.7905383116
 20
37.1044096479
 30
0.0
 10
7.7283352169
 20
37.095219013
 30
0.0
 10
7.6701776754
 20
37.0767063917
 30
0.0
 10
7.6167020328
 20
37.0490550756
 30
0.0
 10
7.5685270352
 20
37.012526927
 30
0.0
 10
7.5261500202
 20
36.9675614439
 30
0.0
 10
7.4900317646
 20
36.9146915771
 30
0.0
 10
7.4707903071
 20
36.8756131312
 30
0.0
 10
7.462245416
 20
36.8551076915
 30
0.0
  0
SPLINE
  5
2FB
100
AcDbEntity
  8
0
100
AcDbSpline
 62
7
  6
BYLAYER
 70
0
 71
3
 72
9
 73
5
 74
0
 42
0.0000001
 43
0.0000001
 44
0.0000000001
 40
0.0
 40
0.0
 40
0.0
 40
0.0
 40
0.2548778831
 40
1.0
 40
1.0
 40
1.0
 40
1.0
 10
20.1367669499
 20
28.2120128864
 30
0.0
 10
20.1122411939
 20
28.1978530191
 30
0.0
 10
20.0167369404
 20
28.1410631659
 30
0.0
 10
19.9241932734
 20
28.079250602
 30
0.0
 10
19.8574629033
 20
28.030245383
 30
0.0
  0
SPLINE
  5
2FC
100
AcDbEntity
  8
0
100
AcDbSpline
 62
7
  6
BYLAYER
 70
0
 71
3
 72
11
 73
7
 74
0
 42
0.0000001
 43
0.0000001
 44
0.0000000001
 40
0.0
 40
0.0
 40
0.0
 40
0.0
 40
0.2634146881
 40
0.5189206335
 40
0.764928366
 40
1.0
 40
1.0
 40
1.0
 40
1.0
 10
21.5585845165
 20
28.7084061661
 30
0.0
 10
21.4303319366
 20
28.6854688039
 30
0.0
 10
21.1791931196
 20
28.6311714555
 30
0.0
 10
20.8162452855
 20
28.5229695444
 30
0.0
 10
20.4765176759
 20
28.3902057876
 30
0.0
 10
20.2632442472
 20
28.28371474
 30
0.0
 10
20.1620486007
 20
28.2264620215
 30
0.0
  0
SPLINE
  5
2FD
100
AcDbEntity
  8
0
100
AcDbSpline
 62
7
  6
BYLAYER
 70
0
 71
3
 72
11
 73
7
 74
0
 42
0.0000001
 43
0.0000001
 44
0.0000000001
 40
0.0
 40
0.0
 40
0.0
 40
0.0
 40
0.2613599199
 40
0.5156178111
 40
0.7620181817
 40
1.0
 40
1.0
 40
1.0
 40
1.0
 10
21.066001546
 20
28.5700026256
 30
0.0
 10
20.9908414623
 20
28.5480543978
 30
0.0
 10
20.8436300845
 20
28.5009860626
 30
0.0
 10
20.6301159263
 20
28.4198721999
 30
0.0
 10
20.4279925317
 20
28.3295006403
 30
0.0
 10
20.2992669466
 20
28.2622620833
 30
0.0
 10
20.2372142339
 20
28.2271549966
 30
0.0
  0
SPLINE
  5
2FE
100
AcDbEntity
  8
0
100
AcDbSpline
 62
7
  6
BYLAYER
 70
0
 71
3
 72
9
 73
5
 74
0
 42
0.0000001
 43
0.0000001
 44
0.0000000001
 40
0.0
 40
0.0
 40
0.0
 40
0.0
 40
0.2561589536
 40
1.0
 40
1.0
 40
1.0
 40
1.0
 10
20.1561632889
 20
28.1796822158
 30
0.0
 10
20.1330854199
 20
28.1656879328
 30
0.0
 10
20.0437313144
 20
28.1098555478
 30
0.0
 10
19.9573992617
 20
28.0491362793
 30
0.0
 10
19.8954924291
 20
28.0010759127
 30
0.0
  0
SPLINE
  5
2FF
100
AcDbEntity
  8
0
100
AcDbSpline
 62
7
  6
BYLAYER
 70
0
 71
3
 72
15
 73
11
 74
0
 42
0.0000001
 43
0.0000001
 44
0.0000000001
 40
0.0
 40
0.0
 40
0.0
 40
0.0
 40
0.1486025785
 40
0.2894995365
 40
0.4227197849
 40
0.5486421172
 40
0.6679976076
 40
0.7819372185
 40
0.8919876027
 40
1.0
 40
1.0
 40
1.0
 40
1.0
 10
11.4282314015
 20
42.7233132688
 30
0.0
 10
11.4564267857
 20
42.7070325505
 30
0.0
 10
11.5127092028
 20
42.6775729351
 30
0.0
 10
11.598556528
 20
42.6424292509
 30
0.0
 10
11.6828760415
 20
42.6178549051
 30
0.0
 10
11.7648693914
 20
42.6040891195
 30
0.0
 10
11.8437757018
 20
42.6013516686
 30
0.0
 10
11.9188334419
 20
42.6097123945
 30
0.0
 10
11.9892390276
 20
42.6291932571
 30
0.0
 10
12.0327540123
 20
42.6495661732
 30
0.0
 10
12.0532502978
 20
42.6613958026
 30
0.0
  0
SPLINE
  5
300
100
AcDbEntity
  8
0
100
AcDbSpline
 62
7
  6
BYLAYER
 70
0
 71
3
 72
15
 73
11
 74
0
 42
0.0000001
 43
0.0000001
 44
0.0000000001
 40
0.0
 40
0.0
 40
0.0
 40
0.0
 40
0.1141524139
 40
0.2373243452
 40
0.3669739443
 40
0.5000001071
 40
0.633025032
 40
0.76267447
 40
0.8858453422
 40
1.0
 40
1.0
 40
1.0
 40
1.0
 10
10.5443681618
 20
44.0909242858
 30
0.0
 10
10.5443678106
 20
44.0322363469
 30
0.0
 10
10.5551251552
 20
43.9101100969
 30
0.0
 10
10.5979723191
 20
43.725866403
 30
0.0
 10
10.6666246601
 20
43.5392411668
 30
0.0
 10
10.7585029961
 20
43.3572511239
 30
0.0
 10
10.8701704345
 20
43.1866861364
 30
0.0
 10
10.9974665144
 20
43.0339206978
 30
0.0
 10
11.135599558
 20
42.9046882079
 30
0.0
 10
11.235986684
 20
42.834309084
 30
0.0
 10
11.2868142435
 20
42.8049668143
 30
0.0
  0
SPLINE
  5
301
100
AcDbEntity
  8
0
100
AcDbSpline
 62
7
  6
BYLAYER
 70
0
 71
3
 72
26
 73
22
 74
0
 42
0.0000001
 43
0.0000001
 44
0.0000000001
 40
0.0
 40
0.0
 40
0.0
 40
0.0
 40
0.0516296055
 40
0.1083281949
 40
0.1700457425
 40
0.2363013343
 40
0.3062480927
 40
0.3788068409
 40
0.4527425324
 40
0.5267441341
 40
0.5994975052
 40
0.6697575378
 40
0.7364241956
 40
0.7986278838
 40
0.8558314008
 40
0.8825391098
 40
0.9080153242
 40
0.9323454772
 40
0.955659761
 40
0.9781377679
 40
1.0
 40
1.0
 40
1.0
 40
1.0
 10
12.2523253699
 20
42.8990831821
 30
0.0
 10
12.2705971629
 20
42.9429305693
 30
0.0
 10
12.2986840677
 20
43.039351743
 30
0.0
 10
12.315516465
 20
43.1955034122
 30
0.0
 10
12.3088574591
 20
43.3658128318
 30
0.0
 10
12.2789985322
 20
43.5458624676
 30
0.0
 10
12.2267413905
 20
43.7310596446
 30
0.0
 10
12.1534715256
 20
43.9165710662
 30
0.0
 10
12.0611081239
 20
44.0975336755
 30
0.0
 10
11.9520849488
 20
44.2691864831
 30
0.0
 10
11.8292698262
 20
44.4270146294
 30
0.0
 10
11.6958870686
 20
44.5668738212
 30
0.0
 10
11.5553913174
 20
44.6851129636
 30
0.0
 10
11.4114265154
 20
44.7786266509
 30
0.0
 10
11.2887620214
 20
44.8351734564
 30
0.0
 10
11.1924699201
 20
44.8648824877
 30
0.0
 10
11.123410542
 20
44.8791442439
 30
0.0
 10
11.0563296446
 20
44.8857937903
 30
0.0
 10
10.9916648716
 20
44.884730028
 30
0.0
 10
10.9298728958
 20
44.8759714852
 30
0.0
 10
10.8904599655
 20
44.8648697384
 30
0.0
 10
10.8715295022
 20
44.8580704956
 30
0.0
  0
SPLINE
  5
302
100
AcDbEntity
  8
0
100
AcDbSpline
 62
7
  6
BYLAYER
 70
0
 71
3
 72
10
 73
6
 74
0
 42
0.0000001
 43
0.0000001
 44
0.0000000001
 40
0.0
 40
0.0
 40
0.0
 40
0.0
 40
0.2386491311
 40
0.4836629773
 40
1.0
 40
1.0
 40
1.0
 40
1.0
 10
12.1134429327
 20
42.7035951352
 30
0.0
 10
12.1281721392
 20
42.7159624577
 30
0.0
 10
12.1563711525
 20
42.7430729614
 30
0.0
 10
12.2069394438
 20
42.8060247737
 30
0.0
 10
12.2363193327
 20
42.8606729992
 30
0.0
 10
12.2523253699
 20
42.8990831821
 30
0.0
  0
SPLINE
  5
303
100
AcDbEntity
  8
0
100
AcDbSpline
 62
7
  6
BYLAYER
 70
0
 71
3
 72
9
 73
5
 74
0
 42
0.0000001
 43
0.0000001
 44
0.0000000001
 40
0.0
 40
0.0
 40
0.0
 40
0.0
 40
0.2601699153
 40
1.0
 40
1.0
 40
1.0
 40
1.0
 10
11.2868142435
 20
42.8049668143
 30
0.0
 10
11.2988962061
 20
42.7979920115
 30
0.0
 10
11.345888862
 20
42.772170528
 30
0.0
 10
11.3951895881
 20
42.7504243962
 30
0.0
 10
11.4326807283
 20
42.7374558292
 30
0.0
  0
SPLINE
  5
304
100
AcDbEntity
  8
0
100
AcDbSpline
 62
7
  6
BYLAYER
 70
0
 71
3
 72
15
 73
11
 74
0
 42
0.0000001
 43
0.0000001
 44
0.0000000001
 40
0.0
 40
0.0
 40
0.0
 40
0.0
 40
0.1419798791
 40
0.2741834996
 40
0.3982215098
 40
0.5165781846
 40
0.6324680649
 40
0.7494929047
 40
0.8711387284
 40
1.0
 40
1.0
 40
1.0
 40
1.0
 10
11.4326807283
 20
42.7374558292
 30
0.0
 10
11.4620108052
 20
42.7273102571
 30
0.0
 10
11.5200247831
 20
42.711330709
 30
0.0
 10
11.6068952026
 20
42.7014151125
 30
0.0
 10
11.6891032866
 20
42.7067275195
 30
0.0
 10
11.7652227582
 20
42.7274617932
 30
0.0
 10
11.8337998444
 20
42.7633500086
 30
0.0
 10
11.8934575252
 20
42.8137675149
 30
0.0
 10
11.9430723696
 20
42.8776002855
 30
0.0
 10
11.9682184404
 20
42.9266089679
 30
0.0
 10
11.979053189
 20
42.9526094495
 30
0.0
  0
SPLINE
  5
305
100
AcDbEntity
  8
0
100
AcDbSpline
 62
7
  6
BYLAYER
 70
0
 71
3
 72
9
 73
5
 74
0
 42
0.0000001
 43
0.0000001
 44
0.0000000001
 40
0.0
 40
0.0
 40
0.0
 40
0.0
 40
0.2412774022
 40
1.0
 40
1.0
 40
1.0
 40
1.0
 10
10.5946133471
 20
44.3719479793
 30
0.0
 10
10.5909654427
 20
44.3631939903
 30
0.0
 10
10.5768203463
 20
44.3265088583
 30
0.0
 10
10.5664657328
 20
44.2884037549
 30
0.0
 10
10.5604709694
 20
44.259190152
 30
0.0
  0
SPLINE
  5
306
100
AcDbEntity
  8
0
100
AcDbSpline
 62
7
  6
BYLAYER
 70
0
 71
3
 72
9
 73
5
 74
0
 42
0.0000001
 43
0.0000001
 44
0.0000000001
 40
0.0
 40
0.0
 40
0.0
 40
0.0
 40
0.2395748006
 40
1.0
 40
1.0
 40
1.0
 40
1.0
 10
10.5604709694
 20
44.259190152
 30
0.0
 10
10.5577548218
 20
44.2459538566
 30
0.0
 10
10.5480061253
 20
44.1903816077
 30
0.0
 10
10.5443684186
 20
44.1338125397
 30
0.0
 10
10.5443681618
 20
44.0909242858
 30
0.0
  0
SPLINE
  5
307
100
AcDbEntity
  8
0
100
AcDbSpline
 62
7
  6
BYLAYER
 70
0
 71
3
 72
31
 73
27
 74
0
 42
0.0000001
 43
0.0000001
 44
0.0000000001
 40
0.0
 40
0.0
 40
0.0
 40
0.0
 40
0.0546798412
 40
0.0844545941
 40
0.1158208223
 40
0.1487286674
 40
0.1830688543
 40
0.2553756704
 40
0.3312628241
 40
0.4088950855
 40
0.4862961501
 40
0.5243107288
 40
0.5615441428
 40
0.6327901385
 40
0.6986401637
 40
0.7582247635
 40
0.785657175
 40
0.8115935563
 40
0.8362088855
 40
0.8597609091
 40
0.882586482
 40
0.9050810675
 40
0.9276745498
 40
0.9507954267
 40
0.9748171851
 40
1.0
 40
1.0
 40
1.0
 40
1.0
 10
11.979053189
 20
42.9526094495
 30
0.0
 10
11.9976068451
 20
42.9971332324
 30
0.0
 10
12.0170386483
 20
43.0699384262
 30
0.0
 10
12.0285098686
 20
43.1715169324
 30
0.0
 10
12.030257082
 20
43.2545891317
 30
0.0
 10
12.02486577
 20
43.3414990685
 30
0.0
 10
12.0079839103
 20
43.4635417787
 30
0.0
 10
11.9690283139
 20
43.6203057547
 30
0.0
 10
11.897549633
 20
43.8067224301
 30
0.0
 10
11.8031945104
 20
43.9877348738
 30
0.0
 10
11.7078402502
 20
44.1293126857
 30
0.0
 10
11.6230906191
 20
44.234049194
 30
0.0
 10
11.535824619
 20
44.3294430217
 30
0.0
 10
11.4215599358
 20
44.4331075653
 30
0.0
 10
11.2772291468
 20
44.5305333198
 30
0.0
 10
11.1533695865
 20
44.5862124545
 30
0.0
 10
11.0568280452
 20
44.6116703259
 30
0.0
 10
10.9884939074
 20
44.6210970628
 30
0.0
 10
10.9229062427
 20
44.6212499357
 30
0.0
 10
10.860703148
 20
44.6120593008
 30
0.0
 10
10.8025456064
 20
44.5935466795
 30
0.0
 10
10.7490699639
 20
44.5658953634
 30
0.0
 10
10.7008949662
 20
44.5293672148
 30
0.0
 10
10.6585179513
 20
44.4844017316
 30
0.0
 10
10.6223996956
 20
44.4315318649
 30
0.0
 10
10.6031582382
 20
44.392453419
 30
0.0
 10
10.5946133471
 20
44.3719479793
 30
0.0
  0
SPLINE
  5
308
100
AcDbEntity
  8
0
100
AcDbSpline
 62
7
  6
BYLAYER
 70
0
 71
3
 72
13
 73
9
 74
0
 42
0.0000001
 43
0.0000001
 44
0.0000000001
 40
0.0
 40
0.0
 40
0.0
 40
0.0
 40
0.2175916379
 40
0.3347294547
 40
0.4574500229
 40
0.5856561852
 40
0.7190946281
 40
1.0
 40
1.0
 40
1.0
 40
1.0
 10
9.7343841384
 20
47.5202067289
 30
0.0
 10
9.6661084477
 20
47.3563634403
 30
0.0
 10
9.5901269979
 20
47.0915813846
 30
0.0
 10
9.5356677581
 20
46.7222227528
 30
0.0
 10
9.516532185
 20
46.4222147544
 30
0.0
 10
9.5202684887
 20
46.1084217488
 30
0.0
 10
9.5563073466
 20
45.6670441598
 30
0.0
 10
9.6168176324
 20
45.3333805173
 30
0.0
 10
9.6699935818
 20
45.1104880301
 30
0.0
  0
SPLINE
  5
309
100
AcDbEntity
  8
0
100
AcDbSpline
 62
7
  6
BYLAYER
 70
0
 71
3
 72
16
 73
12
 74
0
 42
0.0000001
 43
0.0000001
 44
0.0000000001
 40
0.0
 40
0.0
 40
0.0
 40
0.0
 40
0.1444344535
 40
0.2821745142
 40
0.4134890406
 40
0.4769110178
 40
0.5389372019
 40
0.659166774
 40
0.7752345802
 40
0.8883731816
 40
1.0
 40
1.0
 40
1.0
 40
1.0
 10
13.086177814
 20
40.6091673574
 30
0.0
 10
13.1715460346
 20
40.5718978973
 30
0.0
 10
13.3413395562
 20
40.5056973212
 30
0.0
 10
13.597797437
 20
40.4313010428
 30
0.0
 10
13.8090312564
 20
40.3920562332
 30
0.0
 10
13.9738503781
 20
40.3752707254
 30
0.0
 10
14.1322048243
 20
40.3681751907
 30
0.0
 10
14.3249407548
 20
40.3765418595
 30
0.0
 10
14.5476354309
 20
40.415181153
 30
0.0
 10
14.7577088097
 20
40.482176978
 30
0.0
 10
14.8886838255
 20
40.5456537917
 30
0.0
 10
14.9510274418
 20
40.5816528086
 30
0.0
  0
SPLINE
  5
30A
100
AcDbEntity
  8
0
100
AcDbSpline
 62
7
  6
BYLAYER
 70
0
 71
3
 72
14
 73
10
 74
0
 42
0.0000001
 43
0.0000001
 44
0.0000000001
 40
0.0
 40
0.0
 40
0.0
 40
0.0
 40
0.2656719759
 40
0.3935282118
 40
0.5184804362
 40
0.6410281955
 40
0.76172925
 40
0.881180618
 40
1.0
 40
1.0
 40
1.0
 40
1.0
 10
24.1529437931
 20
46.3362571618
 30
0.0
 10
24.1142452594
 20
46.2433910925
 30
0.0
 10
24.0476675686
 20
46.1093011995
 30
0.0
 10
23.940695177
 20
45.9444786712
 30
0.0
 10
23.8539668667
 20
45.8316517137
 30
0.0
 10
23.7600121371
 20
45.728406689
 30
0.0
 10
23.6590601658
 20
45.6350127496
 30
0.0
 10
23.5513882854
 20
45.5517521711
 30
0.0
 10
23.4752394367
 20
45.5030824159
 30
0.0
 10
23.4362736191
 20
45.4805824335
 30
0.0
  0
SPLINE
  5
30B
100
AcDbEntity
  8
0
100
AcDbSpline
 62
7
  6
BYLAYER
 70
0
 71
3
 72
35
 73
31
 74
0
 42
0.0000001
 43
0.0000001
 44
0.0000000001
 40
0.0
 40
0.0
 40
0.0
 40
0.0
 40
0.0217114725
 40
0.0437324729
 40
0.0663521717
 40
0.089820067
 40
0.1143376491
 40
0.1400522903
 40
0.1670607386
 40
0.195410951
 40
0.2251083417
 40
0.2561216712
 40
0.288386563
 40
0.3218129981
 40
0.3562865332
 40
0.3916750395
 40
0.4278299753
 40
0.4645909355
 40
0.5017880574
 40
0.5392448219
 40
0.6141926422
 40
0.688016142
 40
0.7593409316
 40
0.7936917539
 40
0.8269794134
 40
0.8590940829
 40
0.8899474298
 40
0.9194776558
 40
0.9476607615
 40
1.0
 40
1.0
 40
1.0
 40
1.0
 10
18.936300359
 20
53.2748113037
 30
0.0
 10
19.000290742
 20
53.311761189
 30
0.0
 10
19.1349282564
 20
53.3766920394
 30
0.0
 10
19.3511592908
 20
53.4443181718
 30
0.0
 10
19.5806022156
 20
53.4820359167
 30
0.0
 10
19.8214077767
 20
53.4897181589
 30
0.0
 10
20.0718000513
 20
53.4673999445
 30
0.0
 10
20.3299740159
 20
53.415408036
 30
0.0
 10
20.5941008262
 20
53.3341771574
 30
0.0
 10
20.8623227643
 20
53.2243577911
 30
0.0
 10
21.1327574192
 20
53.0867814799
 30
0.0
 10
21.4034779213
 20
52.9224316045
 30
0.0
 10
21.6725822184
 20
52.7325286099
 30
0.0
 10
21.9381255761
 20
52.5184101197
 30
0.0
 10
22.1982294129
 20
52.2816443865
 30
0.0
 10
22.4510100491
 20
52.0239197634
 30
0.0
 10
22.69465569
 20
51.7470984868
 30
0.0
 10
22.9274143661
 20
51.4531828789
 30
0.0
 10
23.1476002686
 20
51.144271446
 30
0.0
 10
23.4223123035
 20
50.7153927267
 30
0.0
 10
23.7245845563
 20
50.1570349844
 30
0.0
 10
24.0150062778
 20
49.4652708758
 30
0.0
 10
24.1923262434
 20
48.8792692634
 30
0.0
 10
24.2898967783
 20
48.4162574176
 30
0.0
 10
24.3397377516
 20
48.0802110046
 30
0.0
 10
24.3668225047
 20
47.7534896741
 30
0.0
 10
24.3709249544
 20
47.4384512879
 30
0.0
 10
24.3520001578
 20
47.1372432233
 30
0.0
 10
24.2976166309
 20
46.7664722034
 30
0.0
 10
24.2214618581
 20
46.5006820835
 30
0.0
 10
24.1529437931
 20
46.3362571618
 30
0.0
  0
SPLINE
  5
30C
100
AcDbEntity
  8
0
100
AcDbSpline
 62
7
  6
BYLAYER
 70
0
 71
3
 72
14
 73
10
 74
0
 42
0.0000001
 43
0.0000001
 44
0.0000000001
 40
0.0
 40
0.0
 40
0.0
 40
0.0
 40
0.1188193098
 40
0.2382705765
 40
0.3589716173
 40
0.4815195419
 40
0.6064721011
 40
0.7343286225
 40
1.0
 40
1.0
 40
1.0
 40
1.0
 10
10.4510544431
 20
48.3758812356
 30
0.0
 10
10.4120886567
 20
48.3533812574
 30
0.0
 10
10.3359397723
 20
48.3047117022
 30
0.0
 10
10.2282678113
 20
48.2214513281
 30
0.0
 10
10.1273160082
 20
48.1280571879
 30
0.0
 10
10.0333610442
 20
48.0248121442
 30
0.0
 10
9.9466325902
 20
47.9119849163
 30
0.0
 10
9.8396603899
 20
47.7471622713
 30
0.0
 10
9.7730825834
 20
47.6130725853
 30
0.0
 10
9.7343841384
 20
47.5202067289
 30
0.0
  0
SPLINE
  5
30D
100
AcDbEntity
  8
0
100
AcDbSpline
 62
7
  6
BYLAYER
 70
0
 71
3
 72
11
 73
7
 74
0
 42
0.0000001
 43
0.0000001
 44
0.0000000001
 40
0.0
 40
0.0
 40
0.0
 40
0.0
 40
0.2658230935
 40
0.5186267465
 40
0.7618167885
 40
1.0
 40
1.0
 40
1.0
 40
1.0
 10
14.3491836114
 20
42.7890782961
 30
0.0
 10
14.327686434
 20
42.7374908542
 30
0.0
 10
14.2790129929
 20
42.6394356508
 30
0.0
 10
14.1865857507
 20
42.5078164501
 30
0.0
 10
14.0776351979
 20
42.3974373137
 30
0.0
 10
13.9943986053
 20
42.3387454083
 30
0.0
 10
13.9510314873
 20
42.3137069734
 30
0.0
  0
SPLINE
  5
30E
100
AcDbEntity
  8
0
100
AcDbSpline
 62
7
  6
BYLAYER
 70
0
 71
3
 72
30
 73
26
 74
0
 42
0.0000001
 43
0.0000001
 44
0.0000000001
 40
0.0
 40
0.0
 40
0.0
 40
0.0
 40
0.0217150347
 40
0.043739582
 40
0.0663622145
 40
0.0898342371
 40
0.1143554147
 40
0.1400748323
 40
0.1670874021
 40
0.1954426114
 40
0.256120097
 40
0.3217876473
 40
0.3916319458
 40
0.4645337514
 40
0.5391754302
 40
0.6141342925
 40
0.6879690183
 40
0.7593047885
 40
0.7936598715
 40
0.8269527978
 40
0.8590721776
 40
0.8899300587
 40
0.9194637384
 40
0.947653306
 40
1.0
 40
1.0
 40
1.0
 40
1.0
 10
11.4510503976
 20
46.6438270708
 30
0.0
 10
11.4866020579
 20
46.6643531738
 30
0.0
 10
11.5613947278
 20
46.7004408436
 30
0.0
 10
11.6815288931
 20
46.7379921988
 30
0.0
 10
11.8089942459
 20
46.7589651922
 30
0.0
 10
11.9427758014
 20
46.7632117544
 30
0.0
 10
12.0818862155
 20
46.7508305856
 30
0.0
 10
12.2253139044
 20
46.7219306337
 30
0.0
 10
12.3720603275
 20
46.6768111237
 30
0.0
 10
12.575305317
 20
46.5935734781
 30
0.0
 10
12.8310807685
 20
46.449229359
 30
0.0
 10
13.1269653927
 20
46.2240494098
 30
0.0
 10
13.4106095516
 20
45.9493695635
 30
0.0
 10
13.6740168419
 20
45.6329721101
 30
0.0
 10
13.9097776014
 20
45.2837955214
 30
0.0
 10
14.1112018365
 20
44.9117406405
 30
0.0
 10
14.2725529647
 20
44.5274117454
 30
0.0
 10
14.3710686227
 20
44.2018622759
 30
0.0
 10
14.4252634023
 20
43.9446324504
 30
0.0
 10
14.4529640633
 20
43.7579435364
 30
0.0
 10
14.4679971314
 20
43.5764310362
 30
0.0
 10
14.4702899162
 20
43.4014128175
 30
0.0
 10
14.4597699648
 20
43.2340734303
 30
0.0
 10
14.4295582561
 20
43.028088571
 30
0.0
 10
14.3872487954
 20
42.8804244965
 30
0.0
 10
14.3491836114
 20
42.7890782961
 30
0.0
  0
SPLINE
  5
30F
100
AcDbEntity
  8
0
100
AcDbSpline
 62
7
  6
BYLAYER
 70
0
 71
3
 72
10
 73
6
 74
0
 42
0.0000001
 43
0.0000001
 44
0.0000000001
 40
0.0
 40
0.0
 40
0.0
 40
0.0
 40
0.2392082481
 40
0.4847162935
 40
1.0
 40
1.0
 40
1.0
 40
1.0
 10
13.7574055604
 20
42.2292974613
 30
0.0
 10
13.7823134768
 20
42.2529444843
 30
0.0
 10
13.8300227015
 20
42.3038692789
 30
0.0
 10
13.9160831974
 20
42.4190545155
 30
0.0
 10
13.9671737697
 20
42.5166648603
 30
0.0
 10
13.9956316928
 20
42.5849562192
 30
0.0
  0
SPLINE
  5
310
100
AcDbEntity
  8
0
100
AcDbSpline
 62
7
  6
BYLAYER
 70
0
 71
3
 72
14
 73
10
 74
0
 42
0.0000001
 43
0.0000001
 44
0.0000000001
 40
0.0
 40
0.0
 40
0.0
 40
0.0
 40
0.1188193098
 40
0.2382705765
 40
0.3589716173
 40
0.4815195419
 40
0.6064721011
 40
0.7343286225
 40
1.0
 40
1.0
 40
1.0
 40
1.0
 10
14.9510274418
 20
40.5816528086
 30
0.0
 10
14.9899932282
 20
40.6041527868
 30
0.0
 10
15.0661421126
 20
40.652822342
 30
0.0
 10
15.1738140737
 20
40.7360827161
 30
0.0
 10
15.2747658767
 20
40.8294768563
 30
0.0
 10
15.3687208408
 20
40.9327219
 30
0.0
 10
15.4554492947
 20
41.0455491279
 30
0.0
 10
15.562421495
 20
41.2103717729
 30
0.0
 10
15.6289993015
 20
41.3444614589
 30
0.0
 10
15.6676977465
 20
41.4373273153
 30
0.0
  0
SPLINE
  5
311
100
AcDbEntity
  8
0
100
AcDbSpline
 62
7
  6
BYLAYER
 70
0
 71
3
 72
30
 73
26
 74
0
 42
0.0000001
 43
0.0000001
 44
0.0000000001
 40
0.0
 40
0.0
 40
0.0
 40
0.0
 40
0.0523460785
 40
0.0805352664
 40
0.1100688375
 40
0.1409267051
 40
0.1730461375
 40
0.2063392289
 40
0.2406946234
 40
0.3120313464
 40
0.3858673018
 40
0.4608273449
 40
0.5354698427
 40
0.6083719385
 40
0.6782160233
 40
0.7438829274
 40
0.804559494
 40
0.8329142065
 40
0.8599263414
 40
0.885645357
 40
0.9101662219
 40
0.9336380028
 40
0.956260482
 40
0.9782849606
 40
1.0
 40
1.0
 40
1.0
 40
1.0
 10
13.9956316928
 20
42.5849562192
 30
0.0
 10
14.03369643
 20
42.6763013475
 30
0.0
 10
14.0760057177
 20
42.8239634734
 30
0.0
 10
14.1062175115
 20
43.0299462251
 30
0.0
 10
14.1167377367
 20
43.1972846343
 30
0.0
 10
14.1144458091
 20
43.372302742
 30
0.0
 10
14.099412798
 20
43.5538156449
 30
0.0
 10
14.0717125056
 20
43.7405056261
 30
0.0
 10
14.0175172613
 20
43.9977381314
 30
0.0
 10
13.9190003688
 20
44.3232921786
 30
0.0
 10
13.757646206
 20
44.7076267473
 30
0.0
 10
13.5562180261
 20
45.0796864744
 30
0.0
 10
13.3204534165
 20
45.4288657298
 30
0.0
 10
13.0570434012
 20
45.7452631453
 30
0.0
 10
12.7733983828
 20
46.0199405939
 30
0.0
 10
12.4775149591
 20
46.2451165301
 30
0.0
 10
12.2217420858
 20
46.3894573324
 30
0.0
 10
12.0184996726
 20
46.4726919911
 30
0.0
 10
11.8717555506
 20
46.517810393
 30
0.0
 10
11.7283298141
 20
46.5467090387
 30
0.0
 10
11.5892211912
 20
46.559089745
 30
0.0
 10
11.455440979
 20
46.5548429145
 30
0.0
 10
11.3279765369
 20
46.5338698868
 30
0.0
 10
11.2078427427
 20
46.4963186512
 30
0.0
 10
11.1330503129
 20
46.4602308038
 30
0.0
 10
11.0974985647
 20
46.4397048338
 30
0.0
  0
SPLINE
  5
312
100
AcDbEntity
  8
0
100
AcDbSpline
 62
7
  6
BYLAYER
 70
0
 71
3
 72
35
 73
31
 74
0
 42
0.0000001
 43
0.0000001
 44
0.0000000001
 40
0.0
 40
0.0
 40
0.0
 40
0.0
 40
0.0523390499
 40
0.0805219776
 40
0.1100520861
 40
0.1409053004
 40
0.1730198752
 40
0.2063074975
 40
0.240658374
 40
0.3119833946
 40
0.385807054
 40
0.4607549019
 40
0.4982116839
 40
0.5354088321
 40
0.5721698342
 40
0.6083248021
 40
0.6437133391
 40
0.6781868891
 40
0.7116133423
 40
0.7438782604
 40
0.7748916198
 40
0.8045890546
 40
0.8329392811
 40
0.8599477266
 40
0.8856623208
 40
0.9101798472
 40
0.933647703
 40
0.9562673903
 40
0.9782884401
 40
1.0
 40
1.0
 40
1.0
 40
1.0
 10
15.6676977465
 20
41.4373273153
 30
0.0
 10
15.736215565
 20
41.6017516452
 30
0.0
 10
15.8123700788
 20
41.8675405057
 30
0.0
 10
15.8667538344
 20
42.2383098341
 30
0.0
 10
15.8856786559
 20
42.5395164287
 30
0.0
 10
15.8815770374
 20
42.8545536531
 30
0.0
 10
15.8544923975
 20
43.1812740977
 30
0.0
 10
15.8046520462
 20
43.5173203279
 30
0.0
 10
15.7070818187
 20
43.9803331121
 30
0.0
 10
15.5297619685
 20
44.5663363497
 30
0.0
 10
15.2393401349
 20
45.2581019748
 30
0.0
 10
14.9370677338
 20
45.8164604308
 30
0.0
 10
14.662355768
 20
46.2453394906
 30
0.0
 10
14.4421696632
 20
46.5542511351
 30
0.0
 10
14.209411038
 20
46.8481672253
 30
0.0
 10
13.9657650077
 20
47.1249886347
 30
0.0
 10
13.7129844385
 20
47.382713696
 30
0.0
 10
13.4528803142
 20
47.6194794437
 30
0.0
 10
13.18733692
 20
47.8335982019
 30
0.0
 10
12.9182324261
 20
48.0235013753
 30
0.0
 10
12.6475115798
 20
48.1878513248
 30
0.0
 10
12.3770767875
 20
48.3254280516
 30
0.0
 10
12.1088545653
 20
48.4352472097
 30
0.0
 10
11.8447279827
 20
48.5164784199
 30
0.0
 10
11.586554318
 20
48.5684700371
 30
0.0
 10
11.3361625641
 20
48.5907884302
 30
0.0
 10
11.0953573356
 20
48.5831063622
 30
0.0
 10
10.8659144748
 20
48.5453884366
 30
0.0
 10
10.6496828248
 20
48.4777627662
 30
0.0
 10
10.5150450743
 20
48.4128312868
 30
0.0
 10
10.4510544431
 20
48.3758812356
 30
0.0
  0
SPLINE
  5
313
100
AcDbEntity
  8
0
100
AcDbSpline
 62
7
  6
BYLAYER
 70
0
 71
3
 72
17
 73
13
 74
0
 42
0.0000001
 43
0.0000001
 44
0.0000000001
 40
0.0
 40
0.0
 40
0.0
 40
0.0
 40
0.1562950464
 40
0.3045084304
 40
0.443245468
 40
0.5718054992
 40
0.6901872322
 40
0.7993734725
 40
0.8512075995
 40
0.9016281109
 40
0.9510659788
 40
1.0
 40
1.0
 40
1.0
 40
1.0
 10
7.5994859744
 20
34.4270528267
 30
0.0
 10
7.6770564551
 20
34.3475269646
 30
0.0
 10
7.8353711777
 20
34.1993530847
 30
0.0
 10
8.0865554215
 20
34.0082097455
 30
0.0
 10
8.3411616898
 20
33.8570814067
 30
0.0
 10
8.5941667586
 20
33.7491065274
 30
0.0
 10
8.840670945
 20
33.6867076659
 30
0.0
 10
9.0403589
 20
33.6740683126
 30
0.0
 10
9.1901579794
 20
33.6893031082
 30
0.0
 10
9.2957270921
 20
33.712457724
 30
0.0
 10
9.395793526
 20
33.7474599068
 30
0.0
 10
9.4586114721
 20
33.7786544512
 30
0.0
 10
9.4887342391
 20
33.7960436248
 30
0.0
  0
SPLINE
  5
314
100
AcDbEntity
  8
0
100
AcDbSpline
 62
7
  6
BYLAYER
 70
0
 71
3
 72
15
 73
11
 74
0
 42
0.0000001
 43
0.0000001
 44
0.0000000001
 40
0.0
 40
0.0
 40
0.0
 40
0.0
 40
0.1404960562
 40
0.2765407238
 40
0.407535073
 40
0.5335352043
 40
0.6549136891
 40
0.7723532785
 40
0.8869306753
 40
1.0
 40
1.0
 40
1.0
 40
1.0
 10
5.7865290386
 20
36.2857104253
 30
0.0
 10
5.750973333
 20
36.3221624121
 30
0.0
 10
5.6848289283
 20
36.3978001186
 30
0.0
 10
5.6009693545
 20
36.5198116718
 30
0.0
 10
5.5354708921
 20
36.6467745872
 30
0.0
 10
5.4895201907
 20
36.7764642966
 30
0.0
 10
5.4639190373
 20
36.9067064606
 30
0.0
 10
5.4593036122
 20
37.0352829494
 30
0.0
 10
5.4757795194
 20
37.1598561026
 30
0.0
 10
5.5008351973
 20
37.2389962485
 30
0.0
 10
5.5165933862
 20
37.2768259747
 30
0.0
  0
SPLINE
  5
315
100
AcDbEntity
  8
0
100
AcDbSpline
 62
7
  6
BYLAYER
 70
0
 71
3
 72
11
 73
7
 74
0
 42
0.0000001
 43
0.0000001
 44
0.0000000001
 40
0.0
 40
0.0
 40
0.0
 40
0.0
 40
0.25982365
 40
0.5117121836
 40
0.7574471007
 40
1.0
 40
1.0
 40
1.0
 40
1.0
 10
7.8919655372
 20
42.5498169033
 30
0.0
 10
7.8544963441
 20
42.5281841837
 30
0.0
 10
7.7836304638
 20
42.4801971882
 30
0.0
 10
7.6910105864
 20
42.3937992282
 30
0.0
 10
7.6156624574
 20
42.2955414144
 30
0.0
 10
7.5777524062
 20
42.223067185
 30
0.0
 10
7.5622214228
 20
42.1857828973
 30
0.0
  0
SPLINE
  5
316
100
AcDbEntity
  8
0
100
AcDbSpline
 62
7
  6
BYLAYER
 70
0
 71
3
 72
11
 73
7
 74
0
 42
0.0000001
 43
0.0000001
 44
0.0000000001
 40
0.0
 40
0.0
 40
0.0
 40
0.0
 40
0.2658070222
 40
0.5186298193
 40
0.7618249721
 40
1.0
 40
1.0
 40
1.0
 40
1.0
 10
10.593991242
 20
34.679657293
 30
0.0
 10
10.5724953913
 20
34.6280730347
 30
0.0
 10
10.5238169803
 20
34.5300201626
 30
0.0
 10
10.4313960937
 20
34.3983944603
 30
0.0
 10
10.3224393668
 20
34.2880168823
 30
0.0
 10
10.2392052107
 20
34.2293226183
 30
0.0
 10
10.1958380767
 20
34.2042877781
 30
0.0
  0
SPLINE
  5
317
100
AcDbEntity
  8
0
100
AcDbSpline
 62
7
  6
BYLAYER
 70
0
 71
3
 72
19
 73
15
 74
0
 42
0.0000001
 43
0.0000001
 44
0.0000000001
 40
0.0
 40
0.0
 40
0.0
 40
0.0
 40
0.1141265644
 40
0.1749980561
 40
0.2379667378
 40
0.3685709871
 40
0.5025592137
 40
0.6361757063
 40
0.7017025042
 40
0.7657625001
 40
0.8279493975
 40
0.8879073826
 40
0.9453352221
 40
1.0
 40
1.0
 40
1.0
 40
1.0
 10
22.3539097643
 20
52.1324631307
 30
0.0
 10
22.4814209796
 20
52.0617121044
 30
0.0
 10
22.6669738376
 20
51.9345747699
 30
0.0
 10
22.8975847945
 20
51.7362210961
 30
0.0
 10
23.1288188316
 20
51.5073156836
 30
0.0
 10
23.3963973111
 20
51.1839144199
 30
0.0
 10
23.6719386286
 20
50.7548494206
 30
0.0
 10
23.8587985113
 20
50.371141856
 30
0.0
 10
23.9775965027
 20
50.0563198394
 30
0.0
 10
24.0493780457
 20
49.8218416112
 30
0.0
 10
24.1036139107
 20
49.5899907057
 30
0.0
 10
24.1397571589
 20
49.3631866647
 30
0.0
 10
24.1574043956
 20
49.1438340074
 30
0.0
 10
24.156699565
 20
49.0003783131
 30
0.0
 10
24.1529609852
 20
48.9306308078
 30
0.0
  0
SPLINE
  5
318
100
AcDbEntity
  8
0
100
AcDbSpline
 62
7
  6
BYLAYER
 70
0
 71
3
 72
26
 73
22
 74
0
 42
0.0000001
 43
0.0000001
 44
0.0000000001
 40
0.0
 40
0.0
 40
0.0
 40
0.0
 40
0.0217163808
 40
0.0437456679
 40
0.0663728562
 40
0.0898491517
 40
0.1400205413
 40
0.1670392179
 40
0.1953983561
 40
0.2560883065
 40
0.3217683083
 40
0.3916255189
 40
0.4645418058
 40
0.5391984362
 40
0.6141720233
 40
0.6880207836
 40
0.7593705579
 40
0.8270043704
 40
0.8899500478
 40
0.9476533576
 40
1.0
 40
1.0
 40
1.0
 40
1.0
 10
7.7415992862
 20
37.3504450728
 30
0.0
 10
7.7593726619
 20
37.3607067526
 30
0.0
 10
7.7967740919
 20
37.3787355433
 30
0.0
 10
7.8568357624
 20
37.3975111991
 30
0.0
 10
7.9205711777
 20
37.4080123825
 30
0.0
 10
8.0117249199
 20
37.4109006637
 30
0.0
 10
8.106666865
 20
37.3962948121
 30
0.0
 10
8.2020759946
 20
37.3669275366
 30
0.0
 10
8.303726596
 20
37.3253271103
 30
0.0
 10
8.431596158
 20
37.2531438361
 30
0.0
 10
8.5795435661
 20
37.1405593331
 30
0.0
 10
8.7213673923
 20
37.0032240223
 30
0.0
 10
8.8530737211
 20
36.8450285997
 30
0.0
 10
8.9709521988
 20
36.6704378411
 30
0.0
 10
9.0716614816
 20
36.4844141351
 30
0.0
 10
9.1523480377
 20
36.2922408795
 30
0.0
 10
9.210719082
 20
36.0993507534
 30
0.0
 10
9.2450974007
 20
35.9111833034
 30
0.0
 10
9.2545175274
 20
35.732912435
 30
0.0
 10
9.2385524651
 20
35.5695365083
 30
0.0
 10
9.2096966093
 20
35.4687312783
 30
0.0
 10
9.1906678226
 20
35.4230673097
 30
0.0
  0
SPLINE
  5
319
100
AcDbEntity
  8
0
100
AcDbSpline
 62
7
  6
BYLAYER
 70
0
 71
3
 72
9
 73
5
 74
0
 42
0.0000001
 43
0.0000001
 44
0.0000000001
 40
0.0
 40
0.0
 40
0.0
 40
0.0
 40
0.5146290324
 40
1.0
 40
1.0
 40
1.0
 40
1.0
 10
20.7762864979
 20
40.5583731087
 30
0.0
 10
20.7502919543
 20
40.495993198
 30
0.0
 10
20.689980288
 20
40.3785113519
 30
0.0
 10
20.6084998751
 20
40.2742489859
 30
0.0
 10
20.5641208465
 20
40.2285002863
 30
0.0
  0
SPLINE
  5
31A
100
AcDbEntity
  8
0
100
AcDbSpline
 62
7
  6
BYLAYER
 70
0
 71
3
 72
26
 73
22
 74
0
 42
0.0000001
 43
0.0000001
 44
0.0000000001
 40
0.0
 40
0.0
 40
0.0
 40
0.0
 40
0.0217163808
 40
0.0437456679
 40
0.0663728562
 40
0.0898491517
 40
0.1400205413
 40
0.1670392179
 40
0.1953983561
 40
0.2560883065
 40
0.3217683083
 40
0.3916255189
 40
0.4645418058
 40
0.5391984362
 40
0.6141720233
 40
0.6880207836
 40
0.7593705579
 40
0.8270043704
 40
0.8899500478
 40
0.9476533576
 40
1.0
 40
1.0
 40
1.0
 40
1.0
 10
10.8739672173
 20
44.8672853606
 30
0.0
 10
10.8917405929
 20
44.8775470404
 30
0.0
 10
10.9291420229
 20
44.8955758311
 30
0.0
 10
10.9892036935
 20
44.9143514869
 30
0.0
 10
11.0529391087
 20
44.9248526703
 30
0.0
 10
11.144092851
 20
44.9277409515
 30
0.0
 10
11.2390347961
 20
44.9131350999
 30
0.0
 10
11.3344439257
 20
44.8837678244
 30
0.0
 10
11.436094527
 20
44.8421673981
 30
0.0
 10
11.563964089
 20
44.7699841239
 30
0.0
 10
11.7119114972
 20
44.6573996209
 30
0.0
 10
11.8537353234
 20
44.5200643101
 30
0.0
 10
11.9854416522
 20
44.3618688875
 30
0.0
 10
12.1033201299
 20
44.1872781289
 30
0.0
 10
12.2040294127
 20
44.0012544229
 30
0.0
 10
12.2847159687
 20
43.8090811672
 30
0.0
 10
12.3430870131
 20
43.6161910412
 30
0.0
 10
12.3774653318
 20
43.4280235912
 30
0.0
 10
12.3868854585
 20
43.2497527228
 30
0.0
 10
12.3709203962
 20
43.0863767961
 30
0.0
 10
12.3420645404
 20
42.9855715661
 30
0.0
 10
12.3230357537
 20
42.9399075975
 30
0.0
  0
SPLINE
  5
31B
100
AcDbEntity
  8
0
100
AcDbSpline
 62
7
  6
BYLAYER
 70
0
 71
3
 72
11
 73
7
 74
0
 42
0.0000001
 43
0.0000001
 44
0.0000000001
 40
0.0
 40
0.0
 40
0.0
 40
0.0
 40
0.2381676845
 40
0.4813734321
 40
0.7342164043
 40
1.0
 40
1.0
 40
1.0
 40
1.0
 10
10.248974029
 20
45.9498117188
 30
0.0
 10
10.2056066051
 20
45.9247805123
 30
0.0
 10
10.1223761935
 20
45.8660795332
 30
0.0
 10
10.0134115001
 20
45.7557031913
 30
0.0
 10
9.9209993938
 20
45.6240692176
 30
0.0
 10
9.8723156971
 20
45.5260203761
 30
0.0
 10
9.8508217503
 20
45.4744406865
 30
0.0
  0
SPLINE
  5
31C
100
AcDbEntity
  8
0
100
AcDbSpline
 62
7
  6
BYLAYER
 70
0
 71
3
 72
30
 73
26
 74
0
 42
0.0000001
 43
0.0000001
 44
0.0000000001
 40
0.0
 40
0.0
 40
0.0
 40
0.0
 40
0.0217146853
 40
0.0437390929
 40
0.0663617022
 40
0.089832328
 40
0.1143537348
 40
0.140071946
 40
0.1670850588
 40
0.1954391031
 40
0.2251415743
 40
0.2561590766
 40
0.3218261688
 40
0.3916698546
 40
0.4645708738
 40
0.5392116449
 40
0.6141694791
 40
0.6880033521
 40
0.7593374526
 40
0.8269542583
 40
0.8590737675
 40
0.8899296955
 40
0.9194632625
 40
0.9476560521
 40
1.0
 40
1.0
 40
1.0
 40
1.0
 10
10.9560778751
 20
46.3580558519
 30
0.0
 10
10.9916319085
 20
46.3785774276
 30
0.0
 10
11.0664269468
 20
46.414656905
 30
0.0
 10
11.1865553609
 20
46.4522307495
 30
0.0
 10
11.3140226986
 20
46.473181629
 30
0.0
 10
11.4478027231
 20
46.4774525593
 30
0.0
 10
11.5869076115
 20
46.4650433456
 30
0.0
 10
11.7303425134
 20
46.4361725541
 30
0.0
 10
11.8770758683
 20
46.3910275514
 30
0.0
 10
12.0260959892
 20
46.3300317383
 30
0.0
 10
12.1763342901
 20
46.2535835559
 30
0.0
 10
12.3807400729
 20
46.1295017367
 30
0.0
 10
12.6320256002
 20
45.9382490216
 30
0.0
 10
12.9156238114
 20
45.6636071612
 30
0.0
 10
13.1790435225
 20
45.3471985024
 30
0.0
 10
13.4148007384
 20
44.9980224435
 30
0.0
 10
13.6162221674
 20
44.6259773572
 30
0.0
 10
13.7775858075
 20
44.2416144083
 30
0.0
 10
13.8943046713
 20
43.8558764057
 30
0.0
 10
13.9526152664
 20
43.536875057
 30
0.0
 10
13.9730244996
 20
43.2906670519
 30
0.0
 10
13.9753181554
 20
43.115647042
 30
0.0
 10
13.9647995087
 20
42.948304238
 30
0.0
 10
13.9345790188
 20
42.742317483
 30
0.0
 10
13.892274532
 20
42.5946498035
 30
0.0
 10
13.8542109253
 20
42.5033073884
 30
0.0
  0
SPLINE
  5
31D
100
AcDbEntity
  8
0
100
AcDbSpline
 62
7
  6
BYLAYER
 70
0
 71
3
 72
30
 73
26
 74
0
 42
0.0000001
 43
0.0000001
 44
0.0000000001
 40
0.0
 40
0.0
 40
0.0
 40
0.0
 40
0.0523433299
 40
0.0805355623
 40
0.1100687598
 40
0.1409245473
 40
0.1730438774
 40
0.2406606832
 40
0.3119954469
 40
0.3858304613
 40
0.4607895702
 40
0.5354313147
 40
0.6083327632
 40
0.6781763305
 40
0.7438428312
 40
0.7748599149
 40
0.8045619335
 40
0.8329155714
 40
0.8599283048
 40
0.8856462497
 40
0.9101674786
 40
0.9336380148
 40
0.9562606657
 40
0.9782851755
 40
1.0
 40
1.0
 40
1.0
 40
1.0
 10
13.1471070881
 20
42.0950632345
 30
0.0
 10
13.1851702452
 20
42.186404571
 30
0.0
 10
13.2274749151
 20
42.3340698722
 30
0.0
 10
13.2576947827
 20
42.540053765
 30
0.0
 10
13.2682143711
 20
42.7073944757
 30
0.0
 10
13.2659209595
 20
42.8824131867
 30
0.0
 10
13.2455136811
 20
43.1286207369
 30
0.0
 10
13.1872032559
 20
43.4476231193
 30
0.0
 10
13.0704843651
 20
43.8333646597
 30
0.0
 10
12.909118546
 20
44.2177330611
 30
0.0
 10
12.7076937632
 20
44.5897836397
 30
0.0
 10
12.4719330115
 20
44.9389634529
 30
0.0
 10
12.2085107455
 20
45.2553731606
 30
0.0
 10
11.9249118544
 20
45.5300135837
 30
0.0
 10
11.6736271456
 20
45.7212638101
 30
0.0
 10
11.4692233187
 20
45.8453435332
 30
0.0
 10
11.3189867816
 20
45.9217898251
 30
0.0
 10
11.1699688163
 20
45.982784705
 30
0.0
 10
11.0232371815
 20
46.0279285663
 30
0.0
 10
10.8798038305
 20
46.0567989418
 30
0.0
 10
10.7406999482
 20
46.0692085455
 30
0.0
 10
10.6069204268
 20
46.0649369374
 30
0.0
 10
10.4794527388
 20
46.0439872932
 30
0.0
 10
10.3593242146
 20
46.0064120188
 30
0.0
 10
10.2845283652
 20
45.970333296
 30
0.0
 10
10.248974029
 20
45.9498117188
 30
0.0
  0
SPLINE
  5
31E
100
AcDbEntity
  8
0
100
AcDbSpline
 62
7
  6
BYLAYER
 70
0
 71
3
 72
15
 73
11
 74
0
 42
0.0000001
 43
0.0000001
 44
0.0000000001
 40
0.0
 40
0.0
 40
0.0
 40
0.0
 40
0.1130693247
 40
0.2276467215
 40
0.3450863109
 40
0.4664647957
 40
0.592464927
 40
0.7234592762
 40
0.8595039438
 40
1.0
 40
1.0
 40
1.0
 40
1.0
 10
7.5622214228
 20
42.1857828973
 30
0.0
 10
7.5464632339
 20
42.1479531711
 30
0.0
 10
7.521407556
 20
42.0688130252
 30
0.0
 10
7.5049316488
 20
41.944239872
 30
0.0
 10
7.5095470739
 20
41.8156633833
 30
0.0
 10
7.5351482273
 20
41.6854212193
 30
0.0
 10
7.5810989287
 20
41.5557315099
 30
0.0
 10
7.6465973911
 20
41.4287685944
 30
0.0
 10
7.7304569649
 20
41.3067570413
 30
0.0
 10
7.7966013696
 20
41.2311193348
 30
0.0
 10
7.8321570752
 20
41.194667348
 30
0.0
  0
SPLINE
  5
31F
100
AcDbEntity
  8
0
100
AcDbSpline
 62
7
  6
BYLAYER
 70
0
 71
3
 72
11
 73
7
 74
0
 42
0.0000001
 43
0.0000001
 44
0.0000000001
 40
0.0
 40
0.0
 40
0.0
 40
0.0
 40
0.2381750215
 40
0.4813701762
 40
0.7341929834
 40
1.0
 40
1.0
 40
1.0
 40
1.0
 10
9.4887342391
 20
33.7960436248
 30
0.0
 10
9.5321013725
 20
33.8210784633
 30
0.0
 10
9.6153355266
 20
33.8797727284
 30
0.0
 10
9.7242922567
 20
33.9901503047
 30
0.0
 10
9.8167131406
 20
34.1217760105
 30
0.0
 10
9.8653915546
 20
34.219828882
 30
0.0
 10
9.8868874048
 20
34.2714131391
 30
0.0
  0
SPLINE
  5
320
100
AcDbEntity
  8
0
100
AcDbSpline
 62
7
  6
BYLAYER
 70
0
 71
3
 72
26
 73
22
 74
0
 42
0.0000001
 43
0.0000001
 44
0.0000000001
 40
0.0
 40
0.0
 40
0.0
 40
0.0
 40
0.0767396977
 40
0.1534455813
 40
0.2295173966
 40
0.3044445243
 40
0.3777128803
 40
0.4488487612
 40
0.5174344648
 40
0.5831180028
 40
0.6456338089
 40
0.7048202354
 40
0.7606440433
 40
0.8132249219
 40
0.8628570508
 40
0.8867301764
 40
0.9100658399
 40
0.9329555079
 40
0.955500002
 40
0.9778094994
 40
1.0
 40
1.0
 40
1.0
 40
1.0
 10
23.3058232614
 20
14.2035862245
 30
0.0
 10
23.0293912179
 20
14.1887994718
 30
0.0
 10
22.4756147315
 20
14.1759281486
 30
0.0
 10
21.6477459217
 20
14.2062789795
 30
0.0
 10
20.8296937992
 20
14.2860083546
 30
0.0
 10
20.0303475294
 20
14.4140805284
 30
0.0
 10
19.2581748037
 20
14.5891739127
 30
0.0
 10
18.5214438876
 20
14.8094320006
 30
0.0
 10
17.8280156319
 20
15.0725283236
 30
0.0
 10
17.1852628605
 20
15.3756903053
 30
0.0
 10
16.6000033958
 20
15.7157490377
 30
0.0
 10
16.078472307
 20
16.0892357123
 30
0.0
 10
15.6262288695
 20
16.4924054676
 30
0.0
 10
15.2482196503
 20
16.9211382049
 30
0.0
 10
14.9953850221
 20
17.3013262839
 30
0.0
 10
14.8364903146
 20
17.6127890741
 30
0.0
 10
14.7397492663
 20
17.8467319576
 30
0.0
 10
14.6641741974
 20
18.0833241618
 30
0.0
 10
14.6100362262
 20
18.3219509302
 30
0.0
 10
14.5774970826
 20
18.5619118044
 30
0.0
 10
14.5702384975
 20
18.722531188
 30
0.0
 10
14.5702351013
 20
18.8025801755
 30
0.0
  0
SPLINE
  5
321
100
AcDbEntity
  8
0
100
AcDbSpline
 62
7
  6
BYLAYER
 70
0
 71
3
 72
11
 73
7
 74
0
 42
0.0000001
 43
0.0000001
 44
0.0000000001
 40
0.0
 40
0.0
 40
0.0
 40
0.0
 40
0.2277957755
 40
0.4750348838
 40
0.7350997152
 40
1.0
 40
1.0
 40
1.0
 40
1.0
 10
24.1072947584
 20
14.036887519
 30
0.0
 10
24.0528008022
 20
14.0683489075
 30
0.0
 10
23.9325536472
 20
14.1227781734
 30
0.0
 10
23.7362815424
 20
14.1772556215
 30
0.0
 10
23.5243395901
 20
14.2061068447
 30
0.0
 10
23.3788934629
 20
14.2074671934
 30
0.0
 10
23.3058232614
 20
14.2035862245
 30
0.0
  0
SPLINE
  5
322
100
AcDbEntity
  8
0
100
AcDbSpline
 62
7
  6
BYLAYER
 70
0
 71
3
 72
27
 73
23
 74
0
 42
0.0000001
 43
0.0000001
 44
0.0000000001
 40
0.0
 40
0.0
 40
0.0
 40
0.0
 40
0.0620662729
 40
0.1274806173
 40
0.1957046841
 40
0.2660185342
 40
0.33755299
 40
0.4093677903
 40
0.4805039586
 40
0.5500446125
 40
0.6171737705
 40
0.6812395161
 40
0.7418202341
 40
0.79878997
 40
0.8259989996
 40
0.8524182675
 40
0.8781327338
 40
0.9032426243
 40
0.9278693301
 40
0.9521129907
 40
0.9760977574
 40
1.0
 40
1.0
 40
1.0
 40
1.0
 10
26.9568193681
 20
9.6126395587
 30
0.0
 10
26.7289322223
 20
9.4810696391
 30
0.0
 10
26.242870855
 20
9.2412432891
 30
0.0
 10
25.461370039
 20
8.9583441203
 30
0.0
 10
24.6217260451
 20
8.7461562676
 30
0.0
 10
23.7406488213
 20
8.6081449342
 30
0.0
 10
22.8357409701
 20
8.5467089022
 30
0.0
 10
21.9254257211
 20
8.5629329833
 30
0.0
 10
21.0282530481
 20
8.6565324201
 30
0.0
 10
20.1623846804
 20
8.8258473004
 30
0.0
 10
19.3450692078
 20
9.068009233
 30
0.0
 10
18.59215598
 20
9.379306487
 30
0.0
 10
17.9181021003
 20
9.7554334004
 30
0.0
 10
17.4252436072
 20
10.1252804393
 30
0.0
 10
17.0863577587
 20
10.4500518013
 30
0.0
 10
16.864062364
 20
10.703132014
 30
0.0
 10
16.6714552253
 20
10.9686193983
 30
0.0
 10
16.5102499068
 20
11.2455942121
 30
0.0
 10
16.3823873408
 20
11.5327032125
 30
0.0
 10
16.2893574943
 20
11.8279929399
 30
0.0
 10
16.2328885321
 20
12.1292772885
 30
0.0
 10
16.2202285952
 20
12.3325235066
 30
0.0
 10
16.2202285952
 20
12.4338613207
 30
0.0
  0
SPLINE
  5
323
100
AcDbEntity
  8
0
100
AcDbSpline
 62
7
  6
BYLAYER
 70
0
 71
3
 72
11
 73
7
 74
0
 42
0.0000001
 43
0.0000001
 44
0.0000000001
 40
0.0
 40
0.0
 40
0.0
 40
0.0
 40
0.2343814292
 40
0.4783881598
 40
0.7334785219
 40
1.0
 40
1.0
 40
1.0
 40
1.0
 10
28.4686670202
 20
10.9780590373
 30
0.0
 10
28.3832716341
 20
10.846335475
 30
0.0
 10
28.1890391179
 20
10.5900105848
 30
0.0
 10
27.8436113678
 20
10.2390982735
 30
0.0
 10
27.4435797235
 20
9.9166959231
 30
0.0
 10
27.1501008882
 20
9.7260008346
 30
0.0
 10
26.996192032
 20
9.6355713025
 30
0.0
  0
SPLINE
  5
324
100
AcDbEntity
  8
0
100
AcDbSpline
 62
7
  6
BYLAYER
 70
0
 71
3
 72
9
 73
5
 74
0
 42
0.0000001
 43
0.0000001
 44
0.0000000001
 40
0.0
 40
0.0
 40
0.0
 40
0.0
 40
0.4859295554
 40
1.0
 40
1.0
 40
1.0
 40
1.0
 10
29.2850782926
 20
24.98750193
 30
0.0
 10
29.1302907118
 20
25.1254954192
 30
0.0
 10
28.7951017319
 20
25.3911217454
 30
0.0
 10
28.4352772315
 20
25.6218255856
 30
0.0
 10
28.2456035084
 20
25.7320528042
 30
0.0
  0
SPLINE
  5
325
100
AcDbEntity
  8
0
100
AcDbSpline
 62
7
  6
BYLAYER
 70
0
 71
3
 72
15
 73
11
 74
0
 42
0.0000001
 43
0.0000001
 44
0.0000000001
 40
0.0
 40
0.0
 40
0.0
 40
0.0
 40
0.1141232787
 40
0.2373467935
 40
0.3669716251
 40
0.4999988493
 40
0.6330262331
 40
0.7626515288
 40
0.885875802
 40
1.0
 40
1.0
 40
1.0
 40
1.0
 10
39.0104899613
 20
22.1707775175
 30
0.0
 10
39.0346868647
 20
22.1568077449
 30
0.0
 10
39.0824908102
 20
22.1232848517
 30
0.0
 10
39.148280174
 20
22.0617565688
 30
0.0
 10
39.2088950654
 20
21.9889970358
 30
0.0
 10
39.2620764621
 20
21.9077839882
 30
0.0
 10
39.3058187981
 20
21.8211211358
 30
0.0
 10
39.3385235498
 20
21.7322471933
 30
0.0
 10
39.3589145976
 20
21.6445074135
 30
0.0
 10
39.3640448239
 20
21.5863461761
 30
0.0
 10
39.3640448239
 20
21.5584059317
 30
0.0
  0
SPLINE
  5
326
100
AcDbEntity
  8
0
100
AcDbSpline
 62
7
  6
BYLAYER
 70
0
 71
3
 72
15
 73
11
 74
0
 42
0.0000001
 43
0.0000001
 44
0.0000000001
 40
0.0
 40
0.0
 40
0.0
 40
0.0
 40
0.148350894
 40
0.2891781413
 40
0.4223954825
 40
0.5483993552
 40
0.6678953216
 40
0.7819603873
 40
0.8920958223
 40
1.0
 40
1.0
 40
1.0
 40
1.0
 10
39.3640448239
 20
17.8841450546
 30
0.0
 10
39.3640448239
 20
17.7812993691
 30
0.0
 10
39.3558453373
 20
17.5806901407
 30
0.0
 10
39.3168958792
 20
17.2900116583
 30
0.0
 10
39.2518092508
 20
17.019849803
 30
0.0
 10
39.1610856872
 20
16.7727807788
 30
0.0
 10
39.04546012
 20
16.5510870056
 30
0.0
 10
38.9057437587
 20
16.3569624344
 30
0.0
 10
38.7432018692
 20
16.1925724637
 30
0.0
 10
38.6200313727
 20
16.1035179616
 30
0.0
 10
38.5559194237
 20
16.0649752933
 30
0.0
  0
SPLINE
  5
327
100
AcDbEntity
  8
0
100
AcDbSpline
 62
7
  6
BYLAYER
 70
0
 71
3
 72
20
 73
16
 74
0
 42
0.0000001
 43
0.0000001
 44
0.0000000001
 40
0.0
 40
0.0
 40
0.0
 40
0.0
 40
0.0623552557
 40
0.1287985419
 40
0.270301874
 40
0.4173593124
 40
0.561608905
 40
0.6302403576
 40
0.6953686262
 40
0.7563486085
 40
0.8128216846
 40
0.8647398994
 40
0.9125565715
 40
0.9572022298
 40
1.0
 40
1.0
 40
1.0
 40
1.0
 10
28.4039235712
 20
11.1893161907
 30
0.0
 10
28.4039235712
 20
11.1685947861
 30
0.0
 10
28.4067569362
 20
11.1257645624
 30
0.0
 10
28.4224705638
 20
11.037189779
 30
0.0
 10
28.4605226263
 20
10.9247260289
 30
0.0
 10
28.5292585329
 20
10.7977084885
 30
0.0
 10
28.6032946186
 20
10.7028761814
 30
0.0
 10
28.6699345077
 20
10.6387058134
 30
0.0
 10
28.7209816115
 20
10.5987177414
 30
0.0
 10
28.7728796031
 20
10.566994667
 30
0.0
 10
28.8245274374
 20
10.5441406974
 30
0.0
 10
28.8749374924
 20
10.5307536244
 30
0.0
 10
28.9231208757
 20
10.5271830077
 30
0.0
 10
28.9679733066
 20
10.5338121202
 30
0.0
 10
28.9951587235
 20
10.5450747003
 30
0.0
 10
29.0074772364
 20
10.552182841
 30
0.0
  0
SPLINE
  5
328
100
AcDbEntity
  8
0
100
AcDbSpline
 62
7
  6
BYLAYER
 70
0
 71
3
 72
20
 73
16
 74
0
 42
0.0000001
 43
0.0000001
 44
0.0000000001
 40
0.0
 40
0.0
 40
0.0
 40
0.0
 40
0.1557368639
 40
0.3067823002
 40
0.4498278886
 40
0.5175360912
 40
0.5823308081
 40
0.6440510855
 40
0.7026259843
 40
0.7580986801
 40
0.8106384026
 40
0.8605602904
 40
0.908331565
 40
0.9545666773
 40
1.0
 40
1.0
 40
1.0
 40
1.0
 10
22.3855458646
 20
20.8296404134
 30
0.0
 10
22.1619643829
 20
20.8363353011
 30
0.0
 10
21.7218229936
 20
20.8734410958
 30
0.0
 10
21.0869188056
 20
21.0000851184
 30
0.0
 10
20.5919526008
 20
21.1637889734
 30
0.0
 10
20.2313563386
 20
21.3276565666
 30
0.0
 10
19.9867254427
 20
21.4623569489
 30
0.0
 10
19.7651418069
 20
21.6098524246
 30
0.0
 10
19.5686001698
 20
21.7689370359
 30
0.0
 10
19.3988400959
 20
21.938224464
 30
0.0
 10
19.2574583303
 20
22.1163344519
 30
0.0
 10
19.1457971692
 20
22.3017415436
 30
0.0
 10
19.0650616061
 20
22.4928823123
 30
0.0
 10
19.0161797457
 20
22.6879275219
 30
0.0
 10
19.0052447743
 20
22.8198373518
 30
0.0
 10
19.0052386382
 20
22.8850923102
 30
0.0
  0
LINE
  5
329
100
AcDbEntity
  8
0
100
AcDbLine
 62
7
  6
BYLAYER
 10
28.2456037724
 20
25.7320526508
 11
27.8735056188
 21
25.9469244275
  0
SPLINE
  5
32A
100
AcDbEntity
  8
0
100
AcDbSpline
 62
7
  6
BYLAYER
 70
0
 71
3
 72
14
 73
10
 74
0
 42
0.0000001
 43
0.0000001
 44
0.0000000001
 40
0.0
 40
0.0
 40
0.0
 40
0.0
 40
0.1448276176
 40
0.283665204
 40
0.5429509316
 40
0.6641309249
 40
0.7801859678
 40
0.8918546701
 40
1.0
 40
1.0
 40
1.0
 40
1.0
 10
16.913350794
 20
25.7427670876
 30
0.0
 10
16.7665761848
 20
25.6580272333
 30
0.0
 10
16.4845224984
 20
25.4822579356
 30
0.0
 10
15.9715241813
 20
25.1068780071
 30
0.0
 10
15.5242947064
 20
24.6896691802
 30
0.0
 10
15.162544337
 20
24.2338418647
 30
0.0
 10
14.9438768765
 20
23.8879905188
 30
0.0
 10
14.7734413647
 20
23.5328316045
 30
0.0
 10
14.691665681
 20
23.2880528555
 30
0.0
 10
14.6596810536
 20
23.1656073154
 30
0.0
  0
SPLINE
  5
32B
100
AcDbEntity
  8
0
100
AcDbSpline
 62
7
  6
BYLAYER
 70
0
 71
3
 72
12
 73
8
 74
0
 42
0.0000001
 43
0.0000001
 44
0.0000000001
 40
0.0
 40
0.0
 40
0.0
 40
0.0
 40
0.2458715048
 40
0.4975730639
 40
0.7504788469
 40
0.8759964099
 40
1.0
 40
1.0
 40
1.0
 40
1.0
 10
25.0395386734
 20
13.4838741261
 30
0.0
 10
24.6863248077
 20
13.4030186715
 30
0.0
 10
23.9622610342
 20
13.2777419244
 30
0.0
 10
22.8576051911
 20
13.1972925196
 30
0.0
 10
21.9276077738
 20
13.2187997844
 30
0.0
 10
21.190357835
 20
13.2899249661
 30
0.0
 10
20.8263316528
 20
13.34331944
 30
0.0
 10
20.6462600943
 20
13.3744860146
 30
0.0
  0
SPLINE
  5
32C
100
AcDbEntity
  8
0
100
AcDbSpline
 62
7
  6
BYLAYER
 70
0
 71
3
 72
11
 73
7
 74
0
 42
0.0000001
 43
0.0000001
 44
0.0000000001
 40
0.0
 40
0.0
 40
0.0
 40
0.0
 40
0.2586870402
 40
0.5190966119
 40
0.7695732884
 40
1.0
 40
1.0
 40
1.0
 40
1.0
 10
20.6462600943
 20
13.3744860146
 30
0.0
 10
20.6294979754
 20
13.3773871825
 30
0.0
 10
20.5953539883
 20
13.3805245413
 30
0.0
 10
20.544640511
 20
13.3777923551
 30
0.0
 10
20.4967413342
 20
13.3677737062
 30
0.0
 10
20.4671035684
 20
13.3560987179
 30
0.0
 10
20.4537095433
 20
13.3490127307
 30
0.0
  0
SPLINE
  5
32D
100
AcDbEntity
  8
0
100
AcDbSpline
 62
7
  6
BYLAYER
 70
0
 71
3
 72
11
 73
7
 74
0
 42
0.0000001
 43
0.0000001
 44
0.0000000001
 40
0.0
 40
0.0
 40
0.0
 40
0.0
 40
0.2312200161
 40
0.4833350247
 40
0.7441769624
 40
1.0
 40
1.0
 40
1.0
 40
1.0
 10
20.0438703909
 20
13.1321910531
 30
0.0
 10
20.0292878575
 20
13.1244762964
 30
0.0
 10
19.9968112366
 20
13.1120416778
 30
0.0
 10
19.9444010417
 20
13.1021951301
 30
0.0
 10
19.8893385434
 20
13.1009492281
 30
0.0
 10
19.8526115427
 20
13.1059470608
 30
0.0
 10
19.8348218227
 20
13.1100330453
 30
0.0
  0
SPLINE
  5
32E
100
AcDbEntity
  8
0
100
AcDbSpline
 62
7
  6
BYLAYER
 70
0
 71
3
 72
12
 73
8
 74
0
 42
0.0000001
 43
0.0000001
 44
0.0000000001
 40
0.0
 40
0.0
 40
0.0
 40
0.0
 40
0.3028159396
 40
0.5705640022
 40
0.7992522369
 40
0.90215068
 40
1.0
 40
1.0
 40
1.0
 40
1.0
 10
19.6425375385
 20
13.1560159238
 30
0.0
 10
19.6261952279
 20
13.1600803978
 30
0.0
 10
19.5959493882
 20
13.1704191396
 30
0.0
 10
19.5574990235
 20
13.193465424
 30
0.0
 10
19.5345061214
 20
13.2186565263
 30
0.0
 10
19.5245220344
 20
13.240538659
 30
0.0
 10
19.5222650977
 20
13.2515998343
 30
0.0
 10
19.5218547158
 20
13.2570259217
 30
0.0
  0
SPLINE
  5
32F
100
AcDbEntity
  8
0
100
AcDbSpline
 62
7
  6
BYLAYER
 70
0
 71
3
 72
11
 73
7
 74
0
 42
0.0000001
 43
0.0000001
 44
0.0000000001
 40
0.0
 40
0.0
 40
0.0
 40
0.0
 40
0.2033713862
 40
0.4330524374
 40
0.6991366153
 40
1.0
 40
1.0
 40
1.0
 40
1.0
 10
19.4976050817
 20
13.5776556251
 30
0.0
 10
19.4968360746
 20
13.5878234703
 30
0.0
 10
19.4899312522
 20
13.609222452
 30
0.0
 10
19.4670187202
 20
13.6365393927
 30
0.0
 10
19.4335893649
 20
13.6590768174
 30
0.0
 10
19.4070530626
 20
13.6697947348
 30
0.0
 10
19.3926486077
 20
13.6742747618
 30
0.0
  0
SPLINE
  5
330
100
AcDbEntity
  8
0
100
AcDbSpline
 62
7
  6
BYLAYER
 70
0
 71
3
 72
11
 73
7
 74
0
 42
0.0000001
 43
0.0000001
 44
0.0000000001
 40
0.0
 40
0.0
 40
0.0
 40
0.0
 40
0.242045922
 40
0.4968934289
 40
0.7533547638
 40
1.0
 40
1.0
 40
1.0
 40
1.0
 10
19.0507650653
 20
13.7882332177
 30
0.0
 10
19.0355384573
 20
13.793660077
 30
0.0
 10
19.0031937226
 20
13.8018645205
 30
0.0
 10
18.9529321166
 20
13.8066379273
 30
0.0
 10
18.9022094911
 20
13.8039494125
 30
0.0
 10
18.8691308745
 20
13.7971413013
 30
0.0
 10
18.8533559912
 20
13.7924001872
 30
0.0
  0
SPLINE
  5
331
100
AcDbEntity
  8
0
100
AcDbSpline
 62
7
  6
BYLAYER
 70
0
 71
3
 72
11
 73
7
 74
0
 42
0.0000001
 43
0.0000001
 44
0.0000000001
 40
0.0
 40
0.0
 40
0.0
 40
0.0
 40
0.2488326103
 40
0.5073753735
 40
0.7620593365
 40
1.0
 40
1.0
 40
1.0
 40
1.0
 10
18.3602818807
 20
13.6442076088
 30
0.0
 10
18.3431391144
 20
13.6390553798
 30
0.0
 10
18.3071210589
 20
13.6319270802
 30
0.0
 10
18.2521126883
 20
13.6300327097
 30
0.0
 10
18.1982825258
 20
13.6368489784
 30
0.0
 10
18.1641463984
 20
13.6472773203
 30
0.0
 10
18.1484231646
 20
13.65404214
 30
0.0
  0
SPLINE
  5
332
100
AcDbEntity
  8
0
100
AcDbSpline
 62
7
  6
BYLAYER
 70
0
 71
3
 72
26
 73
22
 74
0
 42
0.0000001
 43
0.0000001
 44
0.0000000001
 40
0.0
 40
0.0
 40
0.0
 40
0.0
 40
0.0684798045
 40
0.1394912654
 40
0.2122755918
 40
0.2860172296
 40
0.3598614134
 40
0.432951096
 40
0.5044566583
 40
0.5736064791
 40
0.6397206663
 40
0.7022485125
 40
0.760812288
 40
0.815258915
 40
0.8657190549
 40
0.8896129198
 40
0.9127199489
 40
0.9351604032
 40
0.9570764995
 40
0.9786306317
 40
1.0
 40
1.0
 40
1.0
 40
1.0
 10
25.8600289746
 20
11.9109148391
 30
0.0
 10
25.6154367459
 20
11.8253818634
 30
0.0
 10
25.1087340805
 20
11.6746731988
 30
0.0
 10
24.3213682837
 20
11.5116675283
 30
0.0
 10
23.5037238354
 20
11.4096497808
 30
0.0
 10
22.6699978243
 20
11.3703866785
 30
0.0
 10
21.8345394576
 20
11.3945552719
 30
0.0
 10
21.0117753955
 20
11.4817357784
 30
0.0
 10
20.215882055
 20
11.6304252645
 30
0.0
 10
19.460544663
 20
11.8380773783
 30
0.0
 10
18.7587041018
 20
12.1011716657
 30
0.0
 10
18.1223429471
 20
12.4152962351
 30
0.0
 10
17.5622532656
 20
12.7753592281
 30
0.0
 10
17.0880737768
 20
13.1755035159
 30
0.0
 10
16.7655695508
 20
13.5441474672
 30
0.0
 10
16.5618666249
 20
13.8521184149
 30
0.0
 10
16.4380849614
 20
14.0843751423
 30
0.0
 10
16.3411357164
 20
14.3210094019
 30
0.0
 10
16.2715043957
 20
14.5610087413
 30
0.0
 10
16.2295959967
 20
14.803245466
 30
0.0
 10
16.2202313559
 20
14.9658108911
 30
0.0
 10
16.2202313844
 20
15.0466690555
 30
0.0
  0
SPLINE
  5
333
100
AcDbEntity
  8
0
100
AcDbSpline
 62
7
  6
BYLAYER
 70
0
 71
3
 72
11
 73
7
 74
0
 42
0.0000001
 43
0.0000001
 44
0.0000000001
 40
0.0
 40
0.0
 40
0.0
 40
0.0
 40
0.2954830444
 40
0.5577000392
 40
0.7883117967
 40
1.0
 40
1.0
 40
1.0
 40
1.0
 10
17.9833046637
 20
13.7271906747
 30
0.0
 10
17.9721538673
 20
13.7322759676
 30
0.0
 10
17.9518329842
 20
13.7436570882
 30
0.0
 10
17.9270632046
 20
13.7654755759
 30
0.0
 10
17.9110756724
 20
13.7905202812
 30
0.0
 10
17.9073007297
 20
13.8090203319
 30
0.0
 10
17.9073030922
 20
13.8178004369
 30
0.0
  0
SPLINE
  5
334
100
AcDbEntity
  8
0
100
AcDbSpline
 62
7
  6
BYLAYER
 70
0
 71
3
 72
11
 73
7
 74
0
 42
0.0000001
 43
0.0000001
 44
0.0000000001
 40
0.0
 40
0.0
 40
0.0
 40
0.0
 40
0.2260690028
 40
0.4747706929
 40
0.7366086072
 40
1.0
 40
1.0
 40
1.0
 40
1.0
 10
17.6951156596
 20
14.4262925366
 30
0.0
 10
17.6825879023
 20
14.4339645714
 30
0.0
 10
17.6543047006
 20
14.4469126634
 30
0.0
 10
17.6077585457
 20
14.4588823718
 30
0.0
 10
17.5575129241
 20
14.4636994457
 30
0.0
 10
17.5232782226
 20
14.4619887856
 30
0.0
 10
17.5063011646
 20
14.4598157873
 30
0.0
  0
SPLINE
  5
335
100
AcDbEntity
  8
0
100
AcDbSpline
 62
7
  6
BYLAYER
 70
0
 71
3
 72
11
 73
7
 74
0
 42
0.0000001
 43
0.0000001
 44
0.0000000001
 40
0.0
 40
0.0
 40
0.0
 40
0.0
 40
0.2669803221
 40
0.531187295
 40
0.7790188439
 40
1.0
 40
1.0
 40
1.0
 40
1.0
 10
16.9635942818
 20
14.3903513875
 30
0.0
 10
16.945180404
 20
14.3879944817
 30
0.0
 10
16.9080942874
 20
14.3863829909
 30
0.0
 10
16.8540400184
 20
14.3925654559
 30
0.0
 10
16.804897233
 20
14.4070073832
 30
0.0
 10
16.7757686185
 20
14.4224413501
 30
0.0
 10
16.7633632392
 20
14.4315082507
 30
0.0
  0
SPLINE
  5
336
100
AcDbEntity
  8
0
100
AcDbSpline
 62
7
  6
BYLAYER
 70
0
 71
3
 72
11
 73
7
 74
0
 42
0.0000001
 43
0.0000001
 44
0.0000000001
 40
0.0
 40
0.0
 40
0.0
 40
0.0
 40
0.2801710015
 40
0.537032753
 40
0.7741348121
 40
1.0
 40
1.0
 40
1.0
 40
1.0
 10
16.6366630745
 20
14.5268374897
 30
0.0
 10
16.6305903536
 20
14.5315421443
 30
0.0
 10
16.6196268625
 20
14.5415009815
 30
0.0
 10
16.6068064309
 20
14.5586096997
 30
0.0
 10
16.5988356026
 20
14.5768847996
 30
0.0
 10
16.5970233069
 20
14.5896425411
 30
0.0
 10
16.5970243585
 20
14.5958354577
 30
0.0
  0
SPLINE
  5
337
100
AcDbEntity
  8
0
100
AcDbSpline
 62
7
  6
BYLAYER
 70
0
 71
3
 72
9
 73
5
 74
0
 42
0.0000001
 43
0.0000001
 44
0.0000000001
 40
0.0
 40
0.0
 40
0.0
 40
0.0
 40
0.4882516881
 40
1.0
 40
1.0
 40
1.0
 40
1.0
 10
16.5985353121
 20
15.2894287265
 30
0.0
 10
16.5837913776
 20
15.2945368705
 30
0.0
 10
16.5526244981
 20
15.3022896045
 30
0.0
 10
16.5206940871
 20
15.3053641745
 30
0.0
 10
16.5043446239
 20
15.3057762609
 30
0.0
  0
SPLINE
  5
338
100
AcDbEntity
  8
0
100
AcDbSpline
 62
7
  6
BYLAYER
 70
0
 71
3
 72
11
 73
7
 74
0
 42
0.0000001
 43
0.0000001
 44
0.0000000001
 40
0.0
 40
0.0
 40
0.0
 40
0.0
 40
0.2848261504
 40
0.5533129542
 40
0.7935303648
 40
1.0
 40
1.0
 40
1.0
 40
1.0
 10
15.948989546
 20
15.3197739237
 30
0.0
 10
15.9306024582
 20
15.3202373682
 30
0.0
 10
15.8948869324
 20
15.3239875021
 30
0.0
 10
15.8452580692
 20
15.3378616412
 30
0.0
 10
15.8038581749
 20
15.3590662443
 30
0.0
 10
15.7820051226
 20
15.3787623219
 30
0.0
 10
15.7740315915
 20
15.3894483467
 30
0.0
  0
SPLINE
  5
339
100
AcDbEntity
  8
0
100
AcDbSpline
 62
7
  6
BYLAYER
 70
0
 71
3
 72
11
 73
7
 74
0
 42
0.0000001
 43
0.0000001
 44
0.0000000001
 40
0.0
 40
0.0
 40
0.0
 40
0.0
 40
0.2498426394
 40
0.499782874
 40
0.7498305014
 40
1.0
 40
1.0
 40
1.0
 40
1.0
 10
14.6596810536
 20
22.6123915249
 30
0.0
 10
14.6966024391
 20
22.6300077962
 30
0.0
 10
14.7705326327
 20
22.6650952326
 30
0.0
 10
14.8818515103
 20
22.7168859139
 30
0.0
 10
14.9935749577
 20
22.767925362
 30
0.0
 10
15.0682976045
 20
22.8014675658
 30
0.0
 10
15.1057614519
 20
22.8180314882
 30
0.0
  0
SPLINE
  5
33A
100
AcDbEntity
  8
0
100
AcDbSpline
 62
7
  6
BYLAYER
 70
0
 71
3
 72
8
 73
4
 74
0
 42
0.0000001
 43
0.0000001
 44
0.0000000001
 40
0.0
 40
0.0
 40
0.0
 40
0.0
 40
1.0
 40
1.0
 40
1.0
 40
1.0
 10
16.9320033696
 20
19.2001814027
 30
0.0
 10
17.043651344
 20
19.4078751125
 30
0.0
 10
17.1561569331
 20
19.6151100756
 30
0.0
 10
17.2669480613
 20
19.823262119
 30
0.0
  0
SPLINE
  5
33B
100
AcDbEntity
  8
0
100
AcDbSpline
 62
7
  6
BYLAYER
 70
0
 71
3
 72
19
 73
15
 74
0
 42
0.0000001
 43
0.0000001
 44
0.0000000001
 40
0.0
 40
0.0
 40
0.0
 40
0.0
 40
0.0546034904
 40
0.1085288219
 40
0.1621901768
 40
0.2160244098
 40
0.2704826623
 40
0.3259967183
 40
0.3829559688
 40
0.4416998639
 40
0.5655531274
 40
0.6993713983
 40
0.8441235281
 40
1.0
 40
1.0
 40
1.0
 40
1.0
 10
15.1054484685
 20
22.8181724835
 30
0.0
 10
15.0919418557
 20
22.7467947557
 30
0.0
 10
15.0722896691
 20
22.6034422676
 30
0.0
 10
15.0656378086
 20
22.3873773227
 30
0.0
 10
15.0820720473
 20
22.1728321451
 30
0.0
 10
15.1215627305
 20
21.960603623
 30
0.0
 10
15.1839196111
 20
21.7513739405
 30
0.0
 10
15.268971007
 20
21.5458173008
 30
0.0
 10
15.3763885319
 20
21.3445503364
 30
0.0
 10
15.5519562971
 20
21.0780990022
 30
0.0
 10
15.829173561
 20
20.7586045549
 30
0.0
 10
16.2372619141
 20
20.4095891858
 30
0.0
 10
16.7214859688
 20
20.0916380668
 30
0.0
 10
17.0782982881
 20
19.9092144095
 30
0.0
 10
17.2670511456
 20
19.8233196082
 30
0.0
  0
SPLINE
  5
33C
100
AcDbEntity
  8
0
100
AcDbSpline
 62
7
  6
BYLAYER
 70
0
 71
3
 72
17
 73
13
 74
0
 42
0.0000001
 43
0.0000001
 44
0.0000000001
 40
0.0
 40
0.0
 40
0.0
 40
0.0
 40
0.1540903231
 40
0.2984204274
 40
0.4330829342
 40
0.5586479338
 40
0.676187975
 40
0.787340946
 40
0.8412542484
 40
0.8944394352
 40
0.9472364795
 40
1.0
 40
1.0
 40
1.0
 40
1.0
 10
16.9323285632
 20
19.2000211695
 30
0.0
 10
16.7515679292
 20
19.2816825086
 30
0.0
 10
16.4077053748
 20
19.454235176
 30
0.0
 10
15.9345149046
 20
19.7507176133
 30
0.0
 10
15.5249675718
 20
20.0742909538
 30
0.0
 10
15.1830600479
 20
20.4221316252
 30
0.0
 10
14.9122604294
 20
20.7911964196
 30
0.0
 10
14.7470984763
 20
21.1175716318
 30
0.0
 10
14.6553720432
 20
21.3834782758
 30
0.0
 10
14.6065147639
 20
21.5837468049
 30
0.0
 10
14.5771873638
 20
21.7862745877
 30
0.0
 10
14.5706859662
 20
21.9222455485
 30
0.0
 10
14.5706613877
 20
21.9901646611
 30
0.0
  0
SPLINE
  5
33D
100
AcDbEntity
  8
0
100
AcDbSpline
 62
7
  6
BYLAYER
 70
0
 71
3
 72
15
 73
11
 74
0
 42
0.0000001
 43
0.0000001
 44
0.0000000001
 40
0.0
 40
0.0
 40
0.0
 40
0.0
 40
0.1141241598
 40
0.2373483675
 40
0.3669736385
 40
0.5000010132
 40
0.6330282465
 40
0.7626531028
 40
0.8858766831
 40
1.0
 40
1.0
 40
1.0
 40
1.0
 10
29.8181430215
 20
16.0471098544
 30
0.0
 10
29.8181430215
 20
16.0750500894
 30
0.0
 10
29.8130128063
 20
16.1332113022
 30
0.0
 10
29.7926217643
 20
16.2209510512
 30
0.0
 10
29.7599170316
 20
16.3098249742
 30
0.0
 10
29.7161747084
 20
16.3964878266
 30
0.0
 10
29.6629933181
 20
16.4777008853
 30
0.0
 10
29.6023784193
 20
16.5504604446
 30
0.0
 10
29.5365890318
 20
16.6119887478
 30
0.0
 10
29.4887850704
 20
16.645511663
 30
0.0
 10
29.464588159
 20
16.6594814403
 30
0.0
  0
SPLINE
  5
33E
100
AcDbEntity
  8
0
100
AcDbSpline
 62
7
  6
BYLAYER
 70
0
 71
3
 72
15
 73
11
 74
0
 42
0.0000001
 43
0.0000001
 44
0.0000000001
 40
0.0
 40
0.0
 40
0.0
 40
0.0
 40
0.1079041777
 40
0.2180396127
 40
0.3321046784
 40
0.4516006448
 40
0.5776045175
 40
0.7108218587
 40
0.851649106
 40
1.0
 40
1.0
 40
1.0
 40
1.0
 10
29.0100176214
 20
10.553679216
 30
0.0
 10
29.0741295703
 20
10.5922218843
 30
0.0
 10
29.1973000668
 20
10.6812763865
 30
0.0
 10
29.3598419563
 20
10.8456663571
 30
0.0
 10
29.4995583176
 20
11.0397909284
 30
0.0
 10
29.6151838848
 20
11.2614847016
 30
0.0
 10
29.7059074485
 20
11.5085537257
 30
0.0
 10
29.7709940768
 20
11.7787155811
 30
0.0
 10
29.8099435349
 20
12.0693940634
 30
0.0
 10
29.8181430215
 20
12.2700032919
 30
0.0
 10
29.8181430215
 20
12.3728489774
 30
0.0
  0
SPLINE
  5
33F
100
AcDbEntity
  8
0
100
AcDbSpline
 62
7
  6
BYLAYER
 70
0
 71
3
 72
11
 73
7
 74
0
 42
0.0000001
 43
0.0000001
 44
0.0000000001
 40
0.0
 40
0.0
 40
0.0
 40
0.0
 40
0.2289784337
 40
0.4715261445
 40
0.7285535002
 40
1.0
 40
1.0
 40
1.0
 40
1.0
 10
28.4816659634
 20
11.0950707147
 30
0.0
 10
28.4016771237
 20
10.9773496911
 30
0.0
 10
28.2196701875
 20
10.7463643614
 30
0.0
 10
27.8972204783
 20
10.4270623878
 30
0.0
 10
27.5213073319
 20
10.1284611339
 30
0.0
 10
27.2450098653
 20
9.9498142689
 30
0.0
 10
27.0995393252
 20
9.8643426904
 30
0.0
  0
SPLINE
  5
340
100
AcDbEntity
  8
0
100
AcDbSpline
 62
7
  6
BYLAYER
 70
0
 71
3
 72
23
 73
19
 74
0
 42
0.0000001
 43
0.0000001
 44
0.0000000001
 40
0.0
 40
0.0
 40
0.0
 40
0.0
 40
0.0482466388
 40
0.0992715669
 40
0.1531243911
 40
0.2097464725
 40
0.2689894996
 40
0.3306324177
 40
0.3943905675
 40
0.4599319194
 40
0.526885227
 40
0.5948495757
 40
0.6634052358
 40
0.73212005
 40
0.8005587776
 40
0.8682906562
 40
0.9349025701
 40
1.0
 40
1.0
 40
1.0
 40
1.0
 10
16.8873631172
 20
14.3498759366
 30
0.0
 10
16.9820374648
 20
14.2402374199
 30
0.0
 10
17.1909875776
 20
14.0265980202
 30
0.0
 10
17.546457343
 20
13.733876981
 30
0.0
 10
17.9492538604
 20
13.4626816723
 30
0.0
 10
18.3955195783
 20
13.2155129923
 30
0.0
 10
18.8810841368
 20
12.9945785262
 30
0.0
 10
19.4014106329
 20
12.8019651419
 30
0.0
 10
19.9516028468
 20
12.6394221711
 30
0.0
 10
20.5264919725
 20
12.5084797496
 30
0.0
 10
21.1206682278
 20
12.4103897665
 30
0.0
 10
21.7285242984
 20
12.3460340972
 30
0.0
 10
22.344329155
 20
12.3160553728
 30
0.0
 10
22.9622674696
 20
12.3207279071
 30
0.0
 10
23.5764993822
 20
12.3599828241
 30
0.0
 10
24.1812366192
 20
12.4334928393
 30
0.0
 10
24.7707461705
 20
12.5405255143
 30
0.0
 10
25.155100405
 20
12.6348478355
 30
0.0
 10
25.3433017976
 20
12.6875883617
 30
0.0
  0
SPLINE
  5
341
100
AcDbEntity
  8
0
100
AcDbSpline
 62
7
  6
BYLAYER
 70
0
 71
3
 72
11
 73
7
 74
0
 42
0.0000001
 43
0.0000001
 44
0.0000000001
 40
0.0
 40
0.0
 40
0.0
 40
0.0
 40
0.2433327417
 40
0.489881771
 40
0.7418302558
 40
1.0
 40
1.0
 40
1.0
 40
1.0
 10
24.0971030193
 20
17.7168677605
 30
0.0
 10
24.0700962115
 20
17.731593288
 30
0.0
 10
24.0127222922
 20
17.7560809768
 30
0.0
 10
23.9205391522
 20
17.775900705
 30
0.0
 10
23.8245396235
 20
17.7795170176
 30
0.0
 10
23.760228861
 20
17.7722489031
 30
0.0
 10
23.7280898476
 20
17.7665744843
 30
0.0
  0
SPLINE
  5
342
100
AcDbEntity
  8
0
100
AcDbSpline
 62
7
  6
BYLAYER
 70
0
 71
3
 72
11
 73
7
 74
0
 42
0.0000001
 43
0.0000001
 44
0.0000000001
 40
0.0
 40
0.0
 40
0.0
 40
0.0
 40
0.2502098154
 40
0.5003990355
 40
0.7503683736
 40
1.0
 40
1.0
 40
1.0
 40
1.0
 10
23.7280977016
 20
17.766575073
 30
0.0
 10
23.6965470005
 20
17.7854298977
 30
0.0
 10
23.6310793253
 20
17.8193655834
 30
0.0
 10
23.5268958131
 20
17.8564900569
 30
0.0
 10
23.4183414452
 20
17.8775371854
 30
0.0
 10
23.3445909304
 20
17.879744047
 30
0.0
 10
23.307972885
 20
17.8777861099
 30
0.0
  0
SPLINE
  5
343
100
AcDbEntity
  8
0
100
AcDbSpline
 62
7
  6
BYLAYER
 70
0
 71
3
 72
28
 73
24
 74
0
 42
0.0000001
 43
0.0000001
 44
0.0000000001
 40
0.0
 40
0.0
 40
0.0
 40
0.0
 40
0.0306617348
 40
0.0624012078
 40
0.1287324044
 40
0.1983147161
 40
0.2702819595
 40
0.3436491795
 40
0.4173709688
 40
0.4903855703
 40
0.5616626046
 40
0.6302507403
 40
0.6953297172
 40
0.7562692911
 40
0.8126991639
 40
0.8392211352
 40
0.8646406565
 40
0.8890240584
 40
0.9124702783
 40
0.9351116448
 40
0.9571138689
 40
0.978671087
 40
1.0
 40
1.0
 40
1.0
 40
1.0
 10
27.0603753499
 20
9.8415325295
 30
0.0
 10
26.9482260697
 20
9.7767834989
 30
0.0
 10
26.7156480119
 20
9.6523945948
 30
0.0
 10
26.2216713022
 20
9.4246646515
 30
0.0
 10
25.5545715217
 20
9.1829650036
 30
0.0
 10
24.7023723912
 20
8.9666317581
 30
0.0
 10
23.8046881307
 20
8.8242820743
 30
0.0
 10
22.8806977984
 20
8.7589661466
 30
0.0
 10
21.9500801309
 20
8.7720590406
 30
0.0
 10
21.032693553
 20
8.8632876648
 30
0.0
 10
20.1480810336
 20
9.0307116862
 30
0.0
 10
19.3150485004
 20
9.2707856842
 30
0.0
 10
18.5511639691
 20
9.5785343785
 30
0.0
 10
17.8726205812
 20
9.9475680663
 30
0.0
 10
17.3800051813
 20
10.3075298686
 30
0.0
 10
17.0451036192
 20
10.6202003826
 30
0.0
 10
16.8288879996
 20
10.8598797262
 30
0.0
 10
16.6436881218
 20
11.1082900604
 30
0.0
 10
16.4905350296
 20
11.3641361532
 30
0.0
 10
16.3703885619
 20
11.6260802506
 30
0.0
 10
16.2839479881
 20
11.8926936475
 30
0.0
 10
16.2318734379
 20
12.1624449182
 30
0.0
 10
16.2202268757
 20
12.3437794886
 30
0.0
 10
16.2202288979
 20
12.4338613207
 30
0.0
  0
SPLINE
  5
344
100
AcDbEntity
  8
0
100
AcDbSpline
 62
7
  6
BYLAYER
 70
0
 71
3
 72
15
 73
11
 74
0
 42
0.0000001
 43
0.0000001
 44
0.0000000001
 40
0.0
 40
0.0
 40
0.0
 40
0.0
 40
0.1112805813
 40
0.2280479963
 40
0.3496311662
 40
0.4752963342
 40
0.6041553112
 40
0.7352336311
 40
0.867551557
 40
1.0
 40
1.0
 40
1.0
 40
1.0
 10
16.9322303835
 20
19.2000512022
 30
0.0
 10
17.1444496405
 20
19.0783506354
 30
0.0
 10
17.591574487
 20
18.8498291992
 30
0.0
 10
18.3038545229
 20
18.5588892672
 30
0.0
 10
19.0666468529
 20
18.3144227929
 30
0.0
 10
19.870803772
 20
18.1192555794
 30
0.0
 10
20.7069047794
 20
17.9757265565
 30
0.0
 10
21.565104934
 20
17.8854708188
 30
0.0
 10
22.4351383747
 20
17.8496164069
 30
0.0
 10
23.0175197967
 20
17.8622402297
 30
0.0
 10
23.3082775273
 20
17.8778024022
 30
0.0
  0
SPLINE
  5
345
100
AcDbEntity
  8
0
100
AcDbSpline
 62
7
  6
BYLAYER
 70
0
 71
3
 72
26
 73
22
 74
0
 42
0.0000001
 43
0.0000001
 44
0.0000000001
 40
0.0
 40
0.0
 40
0.0
 40
0.0
 40
0.0633387018
 40
0.1298295586
 40
0.1988741583
 40
0.2697414082
 40
0.3416389735
 40
0.4137365956
 40
0.4851949704
 40
0.5551992602
 40
0.6229870735
 40
0.6878822863
 40
0.7493307946
 40
0.8069418987
 40
0.8605375164
 40
0.8858648445
 40
0.9102502857
 40
0.9337572158
 40
0.9564728275
 40
0.9785092893
 40
1.0
 40
1.0
 40
1.0
 40
1.0
 10
26.3381110737
 20
11.4456601157
 30
0.0
 10
26.1322495551
 20
11.3470259079
 30
0.0
 10
25.6992176112
 20
11.1673773403
 30
0.0
 10
25.0135735081
 20
10.9555410351
 30
0.0
 10
24.2858136065
 20
10.7974185464
 30
0.0
 10
23.5284639819
 20
10.6957770408
 30
0.0
 10
22.7545659846
 20
10.6523478416
 30
0.0
 10
21.977482762
 20
10.6678696313
 30
0.0
 10
21.2106301292
 20
10.7420863663
 30
0.0
 10
20.4672439857
 20
10.8737206119
 30
0.0
 10
19.7601202102
 20
11.0605192862
 30
0.0
 10
19.1013972012
 20
11.2992886113
 30
0.0
 10
18.5022954852
 20
11.5860455336
 30
0.0
 10
17.9731043948
 20
11.9159992942
 30
0.0
 10
17.5907117019
 20
12.2284713858
 30
0.0
 10
17.3307235553
 20
12.495455425
 30
0.0
 10
17.1622045602
 20
12.6989257491
 30
0.0
 10
17.0172711624
 20
12.9085022779
 30
0.0
 10
16.8966234703
 20
13.1233335649
 30
0.0
 10
16.8007814272
 20
13.3424189621
 30
0.0
 10
16.7532914753
 20
13.4923083212
 30
0.0
 10
16.734030909
 20
13.5673272378
 30
0.0
  0
SPLINE
  5
346
100
AcDbEntity
  8
0
100
AcDbSpline
 62
7
  6
BYLAYER
 70
0
 71
3
 72
23
 73
19
 74
0
 42
0.0000001
 43
0.0000001
 44
0.0000000001
 40
0.0
 40
0.0
 40
0.0
 40
0.0
 40
0.0598990389
 40
0.1220821649
 40
0.1862220083
 40
0.2519198304
 40
0.3187393629
 40
0.3862231921
 40
0.4538992729
 40
0.5212906931
 40
0.587926698
 40
0.653353769
 40
0.717143631
 40
0.7789083276
 40
0.8383090453
 40
0.8950709439
 40
0.9490008793
 40
1.0
 40
1.0
 40
1.0
 40
1.0
 10
25.9978104937
 20
11.7550673848
 30
0.0
 10
25.8427122387
 20
11.685752424
 30
0.0
 10
25.5207952633
 20
11.5571894258
 30
0.0
 10
25.0169961733
 20
11.3973163885
 30
0.0
 10
24.4875422436
 20
11.2680716889
 30
0.0
 10
23.9379783426
 20
11.1707592444
 30
0.0
 10
23.3740515646
 20
11.1064418365
 30
0.0
 10
22.8016901834
 20
11.0757893227
 30
0.0
 10
22.2268984298
 20
11.0790887114
 30
0.0
 10
21.6557114384
 20
11.1163525768
 30
0.0
 10
21.0941242498
 20
11.1871599594
 30
0.0
 10
20.5480255789
 20
11.290763745
 30
0.0
 10
20.0231448736
 20
11.4261179996
 30
0.0
 10
19.5249614505
 20
11.5917682879
 30
0.0
 10
19.0586875753
 20
11.7860233653
 30
0.0
 10
18.6291705232
 20
12.0069119867
 30
0.0
 10
18.2409134805
 20
12.2520965819
 30
0.0
 10
18.0056326326
 20
12.4353788126
 30
0.0
 10
17.8967521573
 20
12.5305945902
 30
0.0
  0
SPLINE
  5
347
100
AcDbEntity
  8
0
100
AcDbSpline
 62
7
  6
BYLAYER
 70
0
 71
3
 72
15
 73
11
 74
0
 42
0.0000001
 43
0.0000001
 44
0.0000000001
 40
0.0
 40
0.0
 40
0.0
 40
0.0
 40
0.1109174402
 40
0.2277876835
 40
0.3498194037
 40
0.4760668897
 40
0.605428425
 40
0.7367047756
 40
0.8686570015
 40
1.0
 40
1.0
 40
1.0
 40
1.0
 10
17.2669498161
 20
19.8232611059
 30
0.0
 10
17.4859018297
 20
19.696851878
 30
0.0
 10
17.949659482
 20
19.4611561378
 30
0.0
 10
18.6917426383
 20
19.1668120533
 30
0.0
 10
19.4893736924
 20
18.9258280531
 30
0.0
 10
20.33105068
 20
18.7416172642
 30
0.0
 10
21.2048025991
 20
18.6168223757
 30
0.0
 10
22.0981389995
 20
18.5531886916
 30
0.0
 10
22.9981970334
 20
18.5516641751
 30
0.0
 10
23.59755257
 20
18.5922888918
 30
0.0
 10
23.8953381173
 20
18.6231474081
 30
0.0
  0
SPLINE
  5
348
100
AcDbEntity
  8
0
100
AcDbSpline
 62
7
  6
BYLAYER
 70
0
 71
3
 72
15
 73
11
 74
0
 42
0.0000001
 43
0.0000001
 44
0.0000000001
 40
0.0
 40
0.0
 40
0.0
 40
0.0
 40
0.1203634648
 40
0.2443771643
 40
0.3709315084
 40
0.498854529
 40
0.626926203
 40
0.7539235876
 40
0.8786560947
 40
1.0
 40
1.0
 40
1.0
 40
1.0
 10
25.1775846589
 20
13.1897554863
 30
0.0
 10
24.9806324463
 20
13.1285324222
 30
0.0
 10
24.5754662523
 20
13.0207277531
 30
0.0
 10
23.9501179989
 20
12.9040156629
 30
0.0
 10
23.3051127892
 20
12.831106577
 30
0.0
 10
22.6496761626
 20
12.803041853
 30
0.0
 10
21.9931056605
 20
12.820198482
 30
0.0
 10
21.3447249049
 20
12.8823406467
 30
0.0
 10
20.7137980862
 20
12.9885850495
 30
0.0
 10
20.3038799745
 20
13.0895186787
 30
0.0
 10
20.1041582706
 20
13.1473590534
 30
0.0
  0
SPLINE
  5
349
100
AcDbEntity
  8
0
100
AcDbSpline
 62
7
  6
BYLAYER
 70
0
 71
3
 72
9
 73
5
 74
0
 42
0.0000001
 43
0.0000001
 44
0.0000000001
 40
0.0
 40
0.0
 40
0.0
 40
0.0
 40
0.2578320617
 40
1.0
 40
1.0
 40
1.0
 40
1.0
 10
19.4745916337
 20
13.3610018891
 30
0.0
 10
19.4045649311
 20
13.3885336161
 30
0.0
 10
19.1348078849
 20
13.4998869148
 30
0.0
 10
18.8726238085
 20
13.6299887488
 30
0.0
 10
18.6849586615
 20
13.7381246568
 30
0.0
  0
SPLINE
  5
34A
100
AcDbEntity
  8
0
100
AcDbSpline
 62
7
  6
BYLAYER
 70
0
 71
3
 72
14
 73
10
 74
0
 42
0.0000001
 43
0.0000001
 44
0.0000000001
 40
0.0
 40
0.0
 40
0.0
 40
0.0
 40
0.1440475084
 40
0.2819996573
 40
0.5399999504
 40
0.6610403785
 40
0.7774725209
 40
0.8901462892
 40
1.0
 40
1.0
 40
1.0
 40
1.0
 10
16.9039590312
 20
25.7219010627
 30
0.0
 10
16.7806727668
 20
25.6398181952
 30
0.0
 10
16.5447817312
 20
25.4705760099
 30
0.0
 10
16.1199336452
 20
25.1126457352
 30
0.0
 10
15.7564502384
 20
24.7196985784
 30
0.0
 10
15.4718123668
 20
24.2961768021
 30
0.0
 10
15.3046503007
 20
23.9763862455
 30
0.0
 10
15.1805944228
 20
23.6498158958
 30
0.0
 10
15.1266076241
 20
23.4267002393
 30
0.0
 10
15.1073544916
 20
23.3153999911
 30
0.0
  0
SPLINE
  5
34B
100
AcDbEntity
  8
0
100
AcDbSpline
 62
7
  6
BYLAYER
 70
0
 71
3
 72
9
 73
5
 74
0
 42
0.0000001
 43
0.0000001
 44
0.0000000001
 40
0.0
 40
0.0
 40
0.0
 40
0.0
 40
0.4841782944
 40
1.0
 40
1.0
 40
1.0
 40
1.0
 10
29.1855730409
 20
24.9252538117
 30
0.0
 10
29.0505682297
 20
25.0711809039
 30
0.0
 10
28.750855272
 20
25.3536330137
 30
0.0
 10
28.4205297641
 20
25.5989836881
 30
0.0
 10
28.2444139237
 20
25.7166221703
 30
0.0
  0
SPLINE
  5
34C
100
AcDbEntity
  8
0
100
AcDbSpline
 62
7
  6
BYLAYER
 70
0
 71
3
 72
27
 73
23
 74
0
 42
0.0000001
 43
0.0000001
 44
0.0000000001
 40
0.0
 40
0.0
 40
0.0
 40
0.0
 40
0.0213150307
 40
0.0428392424
 40
0.0647721645
 40
0.0872941772
 40
0.1105611101
 40
0.1347004561
 40
0.1598094309
 40
0.1859576679
 40
0.2414751198
 40
0.3013439833
 40
0.3652914818
 40
0.4327994763
 40
0.503166204
 40
0.575558269
 40
0.649055893
 40
0.7226943096
 40
0.7955012335
 40
0.8665428553
 40
0.934951171
 40
1.0
 40
1.0
 40
1.0
 40
1.0
 10
16.220231477
 20
14.066866155
 30
0.0
 10
16.2202313481
 20
13.980651434
 30
0.0
 10
16.23089025
 20
13.8071946286
 30
0.0
 10
16.2785646656
 20
13.5489731738
 30
0.0
 10
16.3577399638
 20
13.2934882521
 30
0.0
 10
16.4678644741
 20
13.0420883051
 30
0.0
 10
16.6083420417
 20
12.7960247262
 30
0.0
 10
16.7783898496
 20
12.5565034559
 30
0.0
 10
16.9771027326
 20
12.324644635
 30
0.0
 10
17.2850617309
 20
12.0212425762
 30
0.0
 10
17.7391481492
 20
11.6690204595
 30
0.0
 10
18.3671935223
 20
11.3026964034
 30
0.0
 10
19.0771002298
 20
10.9908684467
 30
0.0
 10
19.8550665519
 20
10.7394600369
 30
0.0
 10
20.6860569416
 20
10.553233726
 30
0.0
 10
21.5538839139
 20
10.4358002249
 30
0.0
 10
22.4415996701
 20
10.3894433384
 30
0.0
 10
23.3318301593
 20
10.4150757975
 30
0.0
 10
24.2071517246
 20
10.5121760799
 30
0.0
 10
25.0504719197
 20
10.6788951789
 30
0.0
 10
25.8453012845
 20
10.9118993536
 30
0.0
 10
26.3469760608
 20
11.1143435755
 30
0.0
 10
26.5849879799
 20
11.2264882648
 30
0.0
  0
SPLINE
  5
34D
100
AcDbEntity
  8
0
100
AcDbSpline
 62
7
  6
BYLAYER
 70
0
 71
3
 72
15
 73
11
 74
0
 42
0.0000001
 43
0.0000001
 44
0.0000000001
 40
0.0
 40
0.0
 40
0.0
 40
0.0
 40
0.135466762
 40
0.2739695825
 40
0.4122091903
 40
0.5469036268
 40
0.675046203
 40
0.7941366377
 40
0.9026108292
 40
1.0
 40
1.0
 40
1.0
 40
1.0
 10
17.6722005907
 20
42.1556759499
 30
0.0
 10
17.7242791033
 20
42.0987324507
 30
0.0
 10
17.8226717853
 20
41.9770658899
 30
0.0
 10
17.9494730483
 20
41.7789176804
 30
0.0
 10
18.053868418
 20
41.5685503456
 30
0.0
 10
18.1321619974
 20
41.353375985
 30
0.0
 10
18.1815918382
 20
41.1409132444
 30
0.0
 10
18.2004519309
 20
40.9384121678
 30
0.0
 10
18.1878870757
 20
40.7528666502
 30
0.0
 10
18.1568705185
 20
40.6385640875
 30
0.0
 10
18.1355313633
 20
40.5873558562
 30
0.0
  0
SPLINE
  5
34E
100
AcDbEntity
  8
0
100
AcDbSpline
 62
7
  6
BYLAYER
 70
0
 71
3
 72
14
 73
10
 74
0
 42
0.0000001
 43
0.0000001
 44
0.0000000001
 40
0.0
 40
0.0
 40
0.0
 40
0.0
 40
0.1046679597
 40
0.2169019404
 40
0.3361086194
 40
0.4615153941
 40
0.5920061811
 40
0.7262649305
 40
1.0
 40
1.0
 40
1.0
 40
1.0
 10
21.38348179
 20
27.7874040483
 30
0.0
 10
21.3710739316
 20
27.7222061573
 30
0.0
 10
21.3551249195
 20
27.5851333586
 30
0.0
 10
21.3560062946
 20
27.3716044187
 30
0.0
 10
21.3808331549
 20
27.1463118501
 30
0.0
 10
21.4291203758
 20
26.913099532
 30
0.0
 10
21.5000328894
 20
26.6757694932
 30
0.0
 10
21.6239258572
 20
26.3573338826
 30
0.0
 10
21.7455179828
 20
26.1274946105
 30
0.0
 10
21.8378931172
 20
25.9805471996
 30
0.0
  0
SPLINE
  5
34F
100
AcDbEntity
  8
0
100
AcDbSpline
 62
7
  6
BYLAYER
 70
0
 71
3
 72
13
 73
9
 74
0
 42
0.0000001
 43
0.0000001
 44
0.0000000001
 40
0.0
 40
0.0
 40
0.0
 40
0.0
 40
0.2635832487
 40
0.5312033286
 40
0.6600506504
 40
0.7822414393
 40
0.896020454
 40
1.0
 40
1.0
 40
1.0
 40
1.0
 10
21.455160303
 20
29.9009730189
 30
0.0
 10
21.4948071885
 20
29.8603267224
 30
0.0
 10
21.5654521285
 20
29.7690973895
 30
0.0
 10
21.6294342899
 20
29.6410170835
 30
0.0
 10
21.6631518354
 20
29.5342910176
 30
0.0
 10
21.6781170428
 20
29.4569322728
 30
0.0
 10
21.6825930836
 20
29.3836244782
 30
0.0
 10
21.6783181093
 20
29.3366404729
 30
0.0
 10
21.6741305102
 20
29.3146364637
 30
0.0
  0
SPLINE
  5
350
100
AcDbEntity
  8
0
100
AcDbSpline
 62
7
  6
BYLAYER
 70
0
 71
3
 72
15
 73
11
 74
0
 42
0.0000001
 43
0.0000001
 44
0.0000000001
 40
0.0
 40
0.0
 40
0.0
 40
0.0
 40
0.1138094174
 40
0.2367138688
 40
0.3659629555
 40
0.498694198
 40
0.6316069458
 40
0.7613873076
 40
0.8851293382
 40
1.0
 40
1.0
 40
1.0
 40
1.0
 10
24.6400558225
 20
24.3283171584
 30
0.0
 10
24.6158902602
 20
24.3143652478
 30
0.0
 10
24.5629562062
 20
24.289867128
 30
0.0
 10
24.4767518724
 20
24.2641045727
 30
0.0
 10
24.3833937166
 20
24.2487706364
 30
0.0
 10
24.2864585133
 20
24.2444160876
 30
0.0
 10
24.1895273393
 20
24.2511166308
 30
0.0
 10
24.0961846659
 20
24.268709479
 30
0.0
 10
24.010008903
 20
24.2965555717
 30
0.0
 10
23.9571609203
 20
24.3223003178
 30
0.0
 10
23.9330265284
 20
24.3368175525
 30
0.0
  0
SPLINE
  5
351
100
AcDbEntity
  8
0
100
AcDbSpline
 62
7
  6
BYLAYER
 70
0
 71
3
 72
9
 73
5
 74
0
 42
0.0000001
 43
0.0000001
 44
0.0000000001
 40
0.0
 40
0.0
 40
0.0
 40
0.0
 40
0.2624593115
 40
1.0
 40
1.0
 40
1.0
 40
1.0
 10
25.8248851431
 20
28.199585943
 30
0.0
 10
25.8343493401
 20
28.1898831743
 30
0.0
 10
25.8714225613
 20
28.1539419
 30
0.0
 10
25.9126962226
 20
28.1221401728
 30
0.0
 10
25.9453351456
 20
28.1025073224
 30
0.0
  0
SPLINE
  5
352
100
AcDbEntity
  8
0
100
AcDbSpline
 62
7
  6
BYLAYER
 70
0
 71
3
 72
13
 73
9
 74
0
 42
0.0000001
 43
0.0000001
 44
0.0000000001
 40
0.0
 40
0.0
 40
0.0
 40
0.0
 40
0.1039795935
 40
0.2177587024
 40
0.3399495469
 40
0.4687968757
 40
0.7364169137
 40
1.0
 40
1.0
 40
1.0
 40
1.0
 10
25.6059149359
 20
28.7859224982
 30
0.0
 10
25.6017273349
 20
28.7639184789
 30
0.0
 10
25.597452373
 20
28.7169344418
 30
0.0
 10
25.6019284081
 20
28.6436266047
 30
0.0
 10
25.6168936416
 20
28.5662678296
 30
0.0
 10
25.6506112033
 20
28.4595417649
 30
0.0
 10
25.7145933644
 20
28.3314615064
 30
0.0
 10
25.7852382821
 20
28.2402322143
 30
0.0
 10
25.8248851431
 20
28.199585943
 30
0.0
  0
SPLINE
  5
353
100
AcDbEntity
  8
0
100
AcDbSpline
 62
7
  6
BYLAYER
 70
0
 71
3
 72
15
 73
11
 74
0
 42
0.0000001
 43
0.0000001
 44
0.0000000001
 40
0.0
 40
0.0
 40
0.0
 40
0.0
 40
0.1300102084
 40
0.263737437
 40
0.3984765264
 40
0.5315387886
 40
0.6602976697
 40
0.7824113183
 40
0.8960421153
 40
1.0
 40
1.0
 40
1.0
 40
1.0
 10
25.0206828273
 20
32.6585011343
 30
0.0
 10
25.0989606203
 20
32.57825013
 30
0.0
 10
25.2485102258
 20
32.4062231139
 30
0.0
 10
25.4461893447
 20
32.1245062949
 30
0.0
 10
25.6159794705
 20
31.8220923928
 30
0.0
 10
25.7528264654
 20
31.5080695474
 30
0.0
 10
25.8526356279
 20
31.1917285662
 30
0.0
 10
25.9124800291
 20
30.882363268
 30
0.0
 10
25.9304988255
 20
30.5891334563
 30
0.0
 10
25.9133225158
 20
30.4012154209
 30
0.0
 10
25.8965636561
 20
30.3131549135
 30
0.0
  0
SPLINE
  5
354
100
AcDbEntity
  8
0
100
AcDbSpline
 62
7
  6
BYLAYER
 70
0
 71
3
 72
24
 73
20
 74
0
 42
0.0000001
 43
0.0000001
 44
0.0000000001
 40
0.0
 40
0.0
 40
0.0
 40
0.0
 40
0.0217182179
 40
0.0437503423
 40
0.0897621759
 40
0.1399413216
 40
0.1952699552
 40
0.2559659765
 40
0.3216550835
 40
0.3915237444
 40
0.464449589
 40
0.5391169718
 40
0.6141029081
 40
0.6879619526
 40
0.7593252118
 40
0.8269727045
 40
0.8899282489
 40
0.9476498068
 40
1.0
 40
1.0
 40
1.0
 40
1.0
 10
26.0818617372
 20
14.2718327566
 30
0.0
 10
26.0996335914
 20
14.2820941145
 30
0.0
 10
26.1370335273
 20
14.3001290046
 30
0.0
 10
26.2182270507
 20
14.3255124309
 30
0.0
 10
26.3309210445
 20
14.3356272548
 30
0.0
 10
26.4734936863
 20
14.313554755
 30
0.0
 10
26.6217464622
 20
14.2592446393
 30
0.0
 10
26.7718275185
 20
14.1745554803
 30
0.0
 10
26.9197998105
 20
14.0619629675
 30
0.0
 10
27.0616076294
 20
13.9246258321
 30
0.0
 10
27.1933141435
 20
13.7664314907
 30
0.0
 10
27.3112039745
 20
13.5918515452
 30
0.0
 10
27.4119129707
 20
13.4058287354
 30
0.0
 10
27.4925966761
 20
13.2136526011
 30
0.0
 10
27.5509676394
 20
13.0207589382
 30
0.0
 10
27.5853628091
 20
12.8325895623
 30
0.0
 10
27.5947830428
 20
12.6543056691
 30
0.0
 10
27.5788032258
 20
12.4909278136
 30
0.0
 10
27.5499568959
 20
12.3901156946
 30
0.0
 10
27.530929799
 20
12.3444557811
 30
0.0
  0
SPLINE
  5
355
100
AcDbEntity
  8
0
100
AcDbSpline
 62
7
  6
BYLAYER
 70
0
 71
3
 72
14
 73
10
 74
0
 42
0.0000001
 43
0.0000001
 44
0.0000000001
 40
0.0
 40
0.0
 40
0.0
 40
0.0
 40
0.2721942889
 40
0.4067948917
 40
0.5379548565
 40
0.6640605458
 40
0.7837156482
 40
0.8959290199
 40
1.0
 40
1.0
 40
1.0
 40
1.0
 10
19.6038151296
 20
43.2774028773
 30
0.0
 10
19.7642904542
 20
43.0491656624
 30
0.0
 10
19.9764097876
 20
42.687271994
 30
0.0
 10
20.1946939347
 20
42.1804260227
 30
0.0
 10
20.3215311442
 20
41.7987072676
 30
0.0
 10
20.4094338704
 20
41.4219000583
 30
0.0
 10
20.45670124
 20
41.0573085565
 30
0.0
 10
20.4622537819
 20
40.7122451172
 30
0.0
 10
20.437055232
 20
40.4910943874
 30
0.0
 10
20.4166377082
 20
40.3863910408
 30
0.0
  0
SPLINE
  5
356
100
AcDbEntity
  8
0
100
AcDbSpline
 62
7
  6
BYLAYER
 70
0
 71
3
 72
14
 73
10
 74
0
 42
0.0000001
 43
0.0000001
 44
0.0000000001
 40
0.0
 40
0.0
 40
0.0
 40
0.0
 40
0.2756571083
 40
0.4090985143
 40
0.5383431734
 40
0.662587881
 40
0.7812283117
 40
0.8938241044
 40
1.0
 40
1.0
 40
1.0
 40
1.0
 10
11.9638167405
 20
37.9060699349
 30
0.0
 10
12.0532575905
 20
37.7203398195
 30
0.0
 10
12.1693676433
 20
37.4360802703
 30
0.0
 10
12.283510868
 20
37.0497736284
 30
0.0
 10
12.3458472208
 20
36.7669315503
 30
0.0
 10
12.3850795282
 20
36.4911387458
 30
0.0
 10
12.4007814559
 20
36.225422903
 30
0.0
 10
12.3926562439
 20
35.9728702626
 30
0.0
 10
12.3708512385
 20
35.8103410111
 30
0.0
 10
12.355653964
 20
35.7324076866
 30
0.0
  0
SPLINE
  5
357
100
AcDbEntity
  8
0
100
AcDbSpline
 62
7
  6
BYLAYER
 70
0
 71
3
 72
16
 73
12
 74
0
 42
0.0000001
 43
0.0000001
 44
0.0000000001
 40
0.0
 40
0.0
 40
0.0
 40
0.0
 40
0.1810297821
 40
0.3467544338
 40
0.4955325766
 40
0.6267315895
 40
0.7405006629
 40
0.838147437
 40
0.9227143266
 40
0.9618560803
 40
1.0
 40
1.0
 40
1.0
 40
1.0
 10
32.8919308394
 20
27.0818158035
 30
0.0
 10
32.9436055818
 20
27.1116500519
 30
0.0
 10
33.0441653589
 20
27.1661370551
 30
0.0
 10
33.1926510335
 20
27.2344984445
 30
0.0
 10
33.3307477005
 20
27.2851659162
 30
0.0
 10
33.4566965798
 20
27.317587635
 30
0.0
 10
33.5692224013
 20
27.3312754957
 30
0.0
 10
33.6672736039
 20
27.3260308541
 30
0.0
 10
33.738067707
 20
27.3043199684
 30
0.0
 10
33.7840165665
 20
27.2767835185
 30
0.0
 10
33.8034475525
 20
27.2600764555
 30
0.0
 10
33.8122239609
 20
27.2510740717
 30
0.0
  0
SPLINE
  5
358
100
AcDbEntity
  8
0
100
AcDbSpline
 62
7
  6
BYLAYER
 70
0
 71
3
 72
17
 73
13
 74
0
 42
0.0000001
 43
0.0000001
 44
0.0000000001
 40
0.0
 40
0.0
 40
0.0
 40
0.0
 40
0.0479846884
 40
0.1001714521
 40
0.15615837
 40
0.215525029
 40
0.3425722093
 40
0.4772341438
 40
0.6149520381
 40
0.7510041811
 40
0.8808019021
 40
1.0
 40
1.0
 40
1.0
 40
1.0
 10
24.6730920046
 20
21.4047152957
 30
0.0
 10
24.6906006306
 20
21.4467312873
 30
0.0
 10
24.7305014
 20
21.5330635954
 30
0.0
 10
24.8006570373
 20
21.6636065407
 30
0.0
 10
24.8831298948
 20
21.7995386709
 30
0.0
 10
25.0113418064
 20
21.9904941129
 30
0.0
 10
25.1968258536
 20
22.2324840299
 30
0.0
 10
25.4478718492
 20
22.5166279792
 30
0.0
 10
25.7228396674
 20
22.7899523819
 30
0.0
 10
26.0112546438
 20
23.0421143484
 30
0.0
 10
26.3021239904
 20
23.2634945029
 30
0.0
 10
26.5007843323
 20
23.391907673
 30
0.0
 10
26.5987066882
 20
23.4484428341
 30
0.0
  0
SPLINE
  5
359
100
AcDbEntity
  8
0
100
AcDbSpline
 62
7
  6
BYLAYER
 70
0
 71
3
 72
11
 73
7
 74
0
 42
0.0000001
 43
0.0000001
 44
0.0000000001
 40
0.0
 40
0.0
 40
0.0
 40
0.0
 40
0.2198266174
 40
0.4539458171
 40
0.7128308225
 40
1.0
 40
1.0
 40
1.0
 40
1.0
 10
27.2613301372
 20
25.9606330856
 30
0.0
 10
27.2609812616
 20
25.9414810383
 30
0.0
 10
27.2534967835
 20
25.9017962085
 30
0.0
 10
27.2232610723
 20
25.8465965865
 30
0.0
 10
27.1759983765
 20
25.7969060952
 30
0.0
 10
27.1365901092
 20
25.7696832971
 30
0.0
 10
27.1149192527
 20
25.757171697
 30
0.0
  0
SPLINE
  5
35A
100
AcDbEntity
  8
0
100
AcDbSpline
 62
7
  6
BYLAYER
 70
0
 71
3
 72
11
 73
7
 74
0
 42
0.0000001
 43
0.0000001
 44
0.0000000001
 40
0.0
 40
0.0
 40
0.0
 40
0.0
 40
0.2186945774
 40
0.4523200519
 40
0.7116235195
 40
1.0
 40
1.0
 40
1.0
 40
1.0
 10
27.2835353882
 20
27.17229837
 30
0.0
 10
27.2838940416
 20
27.1919877426
 30
0.0
 10
27.2774847866
 20
27.2331197602
 30
0.0
 10
27.2476487976
 20
27.2908264178
 30
0.0
 10
27.1997767318
 20
27.3432363412
 30
0.0
 10
27.159450866
 20
27.3721966927
 30
0.0
 10
27.1371990453
 20
27.3855815298
 30
0.0
  0
SPLINE
  5
35B
100
AcDbEntity
  8
0
100
AcDbSpline
 62
7
  6
BYLAYER
 70
0
 71
3
 72
23
 73
19
 74
0
 42
0.0000001
 43
0.0000001
 44
0.0000000001
 40
0.0
 40
0.0
 40
0.0
 40
0.0
 40
0.0695066299
 40
0.1413151752
 40
0.214594796
 40
0.2885865149
 40
0.3624674817
 40
0.4354125435
 40
0.5066380342
 40
0.5754203683
 40
0.6411242606
 40
0.7032433876
 40
0.7614441714
 40
0.8156051453
 40
0.8658813642
 40
0.9127561981
 40
0.9570702376
 40
1.0
 40
1.0
 40
1.0
 40
1.0
 10
25.0107240521
 20
13.5933251027
 30
0.0
 10
25.0326260754
 20
13.4945700772
 30
0.0
 10
25.086198482
 20
13.2957078738
 30
0.0
 10
25.1917318814
 20
13.0014503951
 30
0.0
 10
25.3223783092
 20
12.7102712283
 30
0.0
 10
25.4759074236
 20
12.4270655151
 30
0.0
 10
25.6497719583
 20
12.1564428455
 30
0.0
 10
25.8411303373
 20
11.9029051251
 30
0.0
 10
26.0468212796
 20
11.6706438631
 30
0.0
 10
26.2634380994
 20
11.4634603347
 30
0.0
 10
26.4874604013
 20
11.2847873722
 30
0.0
 10
26.7152520388
 20
11.1375673517
 30
0.0
 10
26.9431497828
 20
11.0242085711
 30
0.0
 10
27.167593199
 20
10.9466972231
 30
0.0
 10
27.3850641273
 20
10.9064961692
 30
0.0
 10
27.5921487917
 20
10.9046785927
 30
0.0
 10
27.7851471201
 20
10.9418934826
 30
0.0
 10
27.9027436972
 20
10.9929998893
 30
0.0
 10
27.9568478669
 20
11.0242420664
 30
0.0
  0
SPLINE
  5
35C
100
AcDbEntity
  8
0
100
AcDbSpline
 62
7
  6
BYLAYER
 70
0
 71
3
 72
15
 73
11
 74
0
 42
0.0000001
 43
0.0000001
 44
0.0000000001
 40
0.0
 40
0.0
 40
0.0
 40
0.0
 40
0.0973370084
 40
0.206215622
 40
0.3259004639
 40
0.4546977699
 40
0.589853706
 40
0.7281127114
 40
0.8661237036
 40
1.0
 40
1.0
 40
1.0
 40
1.0
 10
5.1001908566
 20
37.0921620774
 30
0.0
 10
5.091361533
 20
37.0709740761
 30
0.0
 10
5.0787304708
 20
37.0234826529
 30
0.0
 10
5.0741915175
 20
36.9463916541
 30
0.0
 10
5.0830858115
 20
36.8622581931
 30
0.0
 10
5.1049873571
 20
36.7742250033
 30
0.0
 10
5.1389938913
 20
36.6854472771
 30
0.0
 10
5.1839347412
 20
36.5992220301
 30
0.0
 10
5.2381057544
 20
36.5188620241
 30
0.0
 10
5.2799233154
 20
36.4700145362
 30
0.0
 10
5.3019676381
 20
36.4474145245
 30
0.0
  0
SPLINE
  5
35D
100
AcDbEntity
  8
0
100
AcDbSpline
 62
7
  6
BYLAYER
 70
0
 71
3
 72
16
 73
12
 74
0
 42
0.0000001
 43
0.0000001
 44
0.0000000001
 40
0.0
 40
0.0
 40
0.0
 40
0.0
 40
0.1810297821
 40
0.3467544338
 40
0.4955325766
 40
0.6267315895
 40
0.7405006629
 40
0.838147437
 40
0.9227143266
 40
0.9618560803
 40
1.0
 40
1.0
 40
1.0
 40
1.0
 10
21.9482635177
 20
38.301348944
 30
0.0
 10
21.9999382601
 20
38.3311831924
 30
0.0
 10
22.1004980372
 20
38.3856701956
 30
0.0
 10
22.2489837118
 20
38.454031585
 30
0.0
 10
22.3870803788
 20
38.5046990567
 30
0.0
 10
22.5130292581
 20
38.5371207755
 30
0.0
 10
22.6255550796
 20
38.5508086362
 30
0.0
 10
22.7236062822
 20
38.5455639946
 30
0.0
 10
22.7944003853
 20
38.5238531089
 30
0.0
 10
22.8403492448
 20
38.496316659
 30
0.0
 10
22.8597802308
 20
38.4796095959
 30
0.0
 10
22.8685566392
 20
38.4706072122
 30
0.0
  0
SPLINE
  5
35E
100
AcDbEntity
  8
0
100
AcDbSpline
 62
7
  6
BYLAYER
 70
0
 71
3
 72
17
 73
13
 74
0
 42
0.0000001
 43
0.0000001
 44
0.0000000001
 40
0.0
 40
0.0
 40
0.0
 40
0.0
 40
0.0479846884
 40
0.1001714521
 40
0.15615837
 40
0.215525029
 40
0.3425722093
 40
0.4772341438
 40
0.6149520381
 40
0.7510041811
 40
0.8808019021
 40
1.0
 40
1.0
 40
1.0
 40
1.0
 10
13.7294246829
 20
32.6242484362
 30
0.0
 10
13.7469333088
 20
32.6662644278
 30
0.0
 10
13.7868340783
 20
32.7525967359
 30
0.0
 10
13.8569897156
 20
32.8831396812
 30
0.0
 10
13.9394625731
 20
33.0190718114
 30
0.0
 10
14.0676744847
 20
33.2100272534
 30
0.0
 10
14.2531585319
 20
33.4520171704
 30
0.0
 10
14.5042045275
 20
33.7361611197
 30
0.0
 10
14.7791723457
 20
34.0094855224
 30
0.0
 10
15.067587322
 20
34.2616474889
 30
0.0
 10
15.3584566687
 20
34.4830276434
 30
0.0
 10
15.5571170106
 20
34.6114408135
 30
0.0
 10
15.6550393665
 20
34.6679759746
 30
0.0
  0
SPLINE
  5
35F
100
AcDbEntity
  8
0
100
AcDbSpline
 62
7
  6
BYLAYER
 70
0
 71
3
 72
14
 73
10
 74
0
 42
0.0000001
 43
0.0000001
 44
0.0000000001
 40
0.0
 40
0.0
 40
0.0
 40
0.0
 40
0.3465173488
 40
0.4956014813
 40
0.6269095784
 40
0.740715589
 40
0.8383429849
 40
0.9229396011
 40
1.0
 40
1.0
 40
1.0
 40
1.0
 10
25.9158049068
 20
32.9201412844
 30
0.0
 10
25.9405204763
 20
32.9344107399
 30
0.0
 10
25.9769827587
 20
32.9531280031
 30
0.0
 10
26.0254926109
 20
32.97098416
 30
0.0
 10
26.0570060099
 20
32.9790798349
 30
0.0
 10
26.0851275936
 20
32.9825186304
 30
0.0
 10
26.1096453431
 20
32.9811722374
 30
0.0
 10
26.1303200139
 20
32.9748536126
 30
0.0
 10
26.141435841
 20
32.9669886007
 30
0.0
 10
26.1458728328
 20
32.9624506202
 30
0.0
  0
SPLINE
  5
360
100
AcDbEntity
  8
0
100
AcDbSpline
 62
7
  6
BYLAYER
 70
0
 71
3
 72
15
 73
11
 74
0
 42
0.0000001
 43
0.0000001
 44
0.0000000001
 40
0.0
 40
0.0
 40
0.0
 40
0.0
 40
0.1000759469
 40
0.2154852358
 40
0.3425304221
 40
0.4771972027
 40
0.6149108447
 40
0.7509604982
 40
0.880867149
 40
1.0
 40
1.0
 40
1.0
 40
1.0
 10
19.1411770847
 20
28.7758364304
 30
0.0
 10
19.150305261
 20
28.7977415975
 30
0.0
 10
19.1736102799
 20
28.8433899286
 30
0.0
 10
19.2176573974
 20
28.9117379235
 30
0.0
 10
19.2721111987
 20
28.9827871953
 30
0.0
 10
19.3348835351
 20
29.053805382
 30
0.0
 10
19.4036055252
 20
29.1221432252
 30
0.0
 10
19.4757217074
 20
29.1851963197
 30
0.0
 10
19.5484545948
 20
29.2405238444
 30
0.0
 10
19.5981155433
 20
29.2726434024
 30
0.0
 10
19.6225807556
 20
29.286768315
 30
0.0
  0
SPLINE
  5
361
100
AcDbEntity
  8
0
100
AcDbSpline
 62
7
  6
BYLAYER
 70
0
 71
3
 72
15
 73
11
 74
0
 42
0.0000001
 43
0.0000001
 44
0.0000000001
 40
0.0
 40
0.0
 40
0.0
 40
0.0
 40
0.1716879147
 40
0.3288863971
 40
0.4713024196
 40
0.5991833822
 40
0.7136168964
 40
0.816456091
 40
0.9105945222
 40
1.0
 40
1.0
 40
1.0
 40
1.0
 10
27.2021608289
 20
33.4298197845
 30
0.0
 10
27.2155951812
 20
33.4620586155
 30
0.0
 10
27.239526509
 20
33.5245970874
 30
0.0
 10
27.267319058
 20
33.6164544919
 30
0.0
 10
27.2852479711
 20
33.701686965
 30
0.0
 10
27.2930933422
 20
33.7797412991
 30
0.0
 10
27.2908035789
 20
33.8501716617
 30
0.0
 10
27.2781843458
 20
33.9126281817
 30
0.0
 10
27.2550649925
 20
33.9666034743
 30
0.0
 10
27.232349302
 20
33.9968060612
 30
0.0
 10
27.2196532852
 20
34.0098289756
 30
0.0
  0
SPLINE
  5
362
100
AcDbEntity
  8
0
100
AcDbSpline
 62
7
  6
BYLAYER
 70
0
 71
3
 72
15
 73
11
 74
0
 42
0.0000001
 43
0.0000001
 44
0.0000000001
 40
0.0
 40
0.0
 40
0.0
 40
0.0
 40
0.1039578847
 40
0.2175886817
 40
0.3397023303
 40
0.4684612114
 40
0.6015234736
 40
0.736262563
 40
0.8699897916
 40
1.0
 40
1.0
 40
1.0
 40
1.0
 10
22.7145963886
 20
28.4760562211
 30
0.0
 10
22.7313552483
 20
28.5641167285
 30
0.0
 10
22.7485315581
 20
28.7520347639
 30
0.0
 10
22.7305127617
 20
29.0452645756
 30
0.0
 10
22.6706683605
 20
29.3546298738
 30
0.0
 10
22.5708591979
 20
29.6709708549
 30
0.0
 10
22.434012203
 20
29.9849937003
 30
0.0
 10
22.2642220772
 20
30.2874076025
 30
0.0
 10
22.0665429584
 20
30.5691244215
 30
0.0
 10
21.9169933529
 20
30.7411514376
 30
0.0
 10
21.8387155598
 20
30.8214024419
 30
0.0
  0
SPLINE
  5
363
100
AcDbEntity
  8
0
100
AcDbSpline
 62
7
  6
BYLAYER
 70
0
 71
3
 72
13
 73
9
 74
0
 42
0.0000001
 43
0.0000001
 44
0.0000000001
 40
0.0
 40
0.0
 40
0.0
 40
0.0
 40
0.2635832487
 40
0.5312033286
 40
0.6600506504
 40
0.7822414393
 40
0.896020454
 40
1.0
 40
1.0
 40
1.0
 40
1.0
 10
22.6429178757
 20
26.3624872506
 30
0.0
 10
22.6032709901
 20
26.403133547
 30
0.0
 10
22.5326260501
 20
26.4943628799
 30
0.0
 10
22.4686438887
 20
26.6224431859
 30
0.0
 10
22.4349263432
 20
26.7291692518
 30
0.0
 10
22.4199611358
 20
26.8065279967
 30
0.0
 10
22.4154850951
 20
26.8798357913
 30
0.0
 10
22.4197600693
 20
26.9268197965
 30
0.0
 10
22.4239476685
 20
26.9488238058
 30
0.0
  0
SPLINE
  5
364
100
AcDbEntity
  8
0
100
AcDbSpline
 62
7
  6
BYLAYER
 70
0
 71
3
 72
9
 73
5
 74
0
 42
0.0000001
 43
0.0000001
 44
0.0000000001
 40
0.0
 40
0.0
 40
0.0
 40
0.0
 40
0.2371290764
 40
1.0
 40
1.0
 40
1.0
 40
1.0
 10
22.7633678781
 20
26.2654086299
 30
0.0
 10
22.7528729496
 20
26.2717215025
 30
0.0
 10
22.7096252458
 20
26.3000154683
 30
0.0
 10
22.6704295924
 20
26.3342820239
 30
0.0
 10
22.6429178757
 20
26.3624872506
 30
0.0
  0
SPLINE
  5
365
100
AcDbEntity
  8
0
100
AcDbSpline
 62
7
  6
BYLAYER
 70
0
 71
3
 72
16
 73
12
 74
0
 42
0.0000001
 43
0.0000001
 44
0.0000000001
 40
0.0
 40
0.0
 40
0.0
 40
0.0
 40
0.0381439197
 40
0.0772856734
 40
0.161852563
 40
0.2594993371
 40
0.3732684105
 40
0.5044674234
 40
0.6532455662
 40
0.8189702179
 40
1.0
 40
1.0
 40
1.0
 40
1.0
 10
27.2196532852
 20
34.0098289756
 30
0.0
 10
27.2108768768
 20
34.0188313594
 30
0.0
 10
27.1914458907
 20
34.0355384224
 30
0.0
 10
27.1454970313
 20
34.0630748723
 30
0.0
 10
27.0747029282
 20
34.0847857581
 30
0.0
 10
26.9766517256
 20
34.0900303996
 30
0.0
 10
26.8641259041
 20
34.0763425389
 30
0.0
 10
26.7381770248
 20
34.0439208201
 30
0.0
 10
26.6000803578
 20
33.9932533484
 30
0.0
 10
26.4515946832
 20
33.924891959
 30
0.0
 10
26.3510349061
 20
33.8704049558
 30
0.0
 10
26.2993601637
 20
33.8405707074
 30
0.0
  0
SPLINE
  5
366
100
AcDbEntity
  8
0
100
AcDbSpline
 62
7
  6
BYLAYER
 70
0
 71
3
 72
13
 73
9
 74
0
 42
0.0000001
 43
0.0000001
 44
0.0000000001
 40
0.0
 40
0.0
 40
0.0
 40
0.0
 40
0.0894248815
 40
0.1835957031
 40
0.2865005485
 40
0.4010728663
 40
0.6715125951
 40
1.0
 40
1.0
 40
1.0
 40
1.0
 10
26.1458728328
 20
32.9624506202
 30
0.0
 10
26.1490502723
 20
32.9592008601
 30
0.0
 10
26.1547350516
 20
32.951656958
 30
0.0
 10
26.1605071671
 20
32.9381631729
 30
0.0
 10
26.1636678908
 20
32.9225485216
 30
0.0
 10
26.1644659819
 20
32.897671943
 30
0.0
 10
26.1580993168
 20
32.861641171
 30
0.0
 10
26.1479269617
 20
32.8328643584
 30
0.0
 10
26.1415050731
 20
32.8174535537
 30
0.0
  0
SPLINE
  5
367
100
AcDbEntity
  8
0
100
AcDbSpline
 62
7
  6
BYLAYER
 70
0
 71
3
 72
15
 73
11
 74
0
 42
0.0000001
 43
0.0000001
 44
0.0000000001
 40
0.0
 40
0.0
 40
0.0
 40
0.0
 40
0.114870744
 40
0.2386129368
 40
0.3683933855
 40
0.5013061348
 40
0.6340373749
 40
0.7632863741
 40
0.8861906644
 40
1.0
 40
1.0
 40
1.0
 40
1.0
 10
23.9552317779
 20
25.5484828374
 30
0.0
 10
23.979366187
 20
25.5339655923
 30
0.0
 10
24.032214236
 20
25.5082208454
 30
0.0
 10
24.118390071
 20
25.4803747131
 30
0.0
 10
24.2117328136
 20
25.4627818898
 30
0.0
 10
24.3086640091
 20
25.4560813695
 30
0.0
 10
24.4055991909
 20
25.4604359417
 30
0.0
 10
24.498957278
 20
25.4757699048
 30
0.0
 10
24.5851615391
 20
25.5015324221
 30
0.0
 10
24.638095527
 20
25.5260305427
 30
0.0
 10
24.6622610719
 20
25.5399824433
 30
0.0
  0
SPLINE
  5
368
100
AcDbEntity
  8
0
100
AcDbSpline
 62
7
  6
BYLAYER
 70
0
 71
3
 72
11
 73
7
 74
0
 42
0.0000001
 43
0.0000001
 44
0.0000000001
 40
0.0
 40
0.0
 40
0.0
 40
0.0
 40
0.2871691384
 40
0.5460543404
 40
0.7801735216
 40
1.0
 40
1.0
 40
1.0
 40
1.0
 10
27.1371245022
 20
26.9688369819
 30
0.0
 10
27.1587953553
 20
26.9813485801
 30
0.0
 10
27.1982036143
 20
27.0085714084
 30
0.0
 10
27.2454663459
 20
27.0582618839
 30
0.0
 10
27.2757020289
 20
27.1134615229
 30
0.0
 10
27.2831865228
 20
27.153146335
 30
0.0
 10
27.2835353882
 20
27.17229837
 30
0.0
  0
SPLINE
  5
369
100
AcDbEntity
  8
0
100
AcDbSpline
 62
7
  6
BYLAYER
 70
0
 71
3
 72
15
 73
11
 74
0
 42
0.0000001
 43
0.0000001
 44
0.0000000001
 40
0.0
 40
0.0
 40
0.0
 40
0.0
 40
0.1142627164
 40
0.2376918608
 40
0.3673279231
 40
0.5001631609
 40
0.6329770087
 40
0.7625497209
 40
0.8858758283
 40
1.0
 40
1.0
 40
1.0
 40
1.0
 10
30.4883233869
 20
19.4607774407
 30
0.0
 10
30.4068282953
 20
19.4137265085
 30
0.0
 10
30.2413908359
 20
19.3086864561
 30
0.0
 10
29.9972122251
 20
19.1298000514
 30
0.0
 10
29.7522619381
 20
18.9270296265
 30
0.0
 10
29.5131543662
 20
18.7058793986
 30
0.0
 10
29.2863249937
 20
18.4722250691
 30
0.0
 10
29.0778020855
 20
18.2323573324
 30
0.0
 10
28.8932448158
 20
17.9927526531
 30
0.0
 10
28.7843858005
 20
17.8300410386
 30
0.0
 10
28.7354674372
 20
17.7497866132
 30
0.0
  0
SPLINE
  5
36A
100
AcDbEntity
  8
0
100
AcDbSpline
 62
7
  6
BYLAYER
 70
0
 71
3
 72
14
 73
10
 74
0
 42
0.0000001
 43
0.0000001
 44
0.0000000001
 40
0.0
 40
0.0
 40
0.0
 40
0.0
 40
0.1040707159
 40
0.2162824642
 40
0.3359366263
 40
0.4620415387
 40
0.5932011635
 40
0.7278024833
 40
1.0
 40
1.0
 40
1.0
 40
1.0
 10
19.3559819524
 20
39.77402481
 30
0.0
 10
19.3764001273
 20
39.878731496
 30
0.0
 10
19.4015994479
 20
40.0998879475
 30
0.0
 10
19.3960445105
 20
40.4449604011
 30
0.0
 10
19.3487731672
 20
40.8095606504
 30
0.0
 10
19.260866246
 20
41.1863784114
 30
0.0
 10
19.1340205847
 20
41.5681086068
 30
0.0
 10
18.9157204706
 20
42.0749724003
 30
0.0
 10
18.703586153
 20
42.4368789499
 30
0.0
 10
18.5430987734
 20
42.6651234771
 30
0.0
  0
SPLINE
  5
36B
100
AcDbEntity
  8
0
100
AcDbSpline
 62
7
  6
BYLAYER
 70
0
 71
3
 72
12
 73
8
 74
0
 42
0.0000001
 43
0.0000001
 44
0.0000000001
 40
0.0
 40
0.0
 40
0.0
 40
0.0
 40
0.2936092785
 40
0.5541264041
 40
0.7855367685
 40
0.8939464389
 40
1.0
 40
1.0
 40
1.0
 40
1.0
 10
5.7112640915
 20
37.7601455159
 30
0.0
 10
5.6873800919
 20
37.7759612741
 30
0.0
 10
5.63969438
 20
37.8022401989
 30
0.0
 10
5.56565305
 20
37.8244839618
 30
0.0
 10
5.5060221768
 20
37.8254874789
 30
0.0
 10
5.4636373853
 20
37.814806195
 30
0.0
 10
5.4444856094
 20
37.8060293383
 30
0.0
 10
5.4355239156
 20
37.8008573304
 30
0.0
  0
SPLINE
  5
36C
100
AcDbEntity
  8
0
100
AcDbSpline
 62
7
  6
BYLAYER
 70
0
 71
3
 72
11
 73
7
 74
0
 42
0.0000001
 43
0.0000001
 44
0.0000000001
 40
0.0
 40
0.0
 40
0.0
 40
0.0
 40
0.2291991157
 40
0.4728960448
 40
0.7301901427
 40
1.0
 40
1.0
 40
1.0
 40
1.0
 10
11.2949982082
 20
35.1200414558
 30
0.0
 10
11.3109912324
 20
35.2020554736
 30
0.0
 10
11.333452621
 20
35.3734341388
 30
0.0
 10
11.3400095437
 20
35.63996983
 30
0.0
 10
11.3202970571
 20
35.9206609776
 30
0.0
 10
11.2905236896
 20
36.1107560618
 30
0.0
 10
11.2715896836
 20
36.2072807915
 30
0.0
  0
SPLINE
  5
36D
100
AcDbEntity
  8
0
100
AcDbSpline
 62
7
  6
BYLAYER
 70
0
 71
3
 72
12
 73
8
 74
0
 42
0.0000001
 43
0.0000001
 44
0.0000000001
 40
0.0
 40
0.0
 40
0.0
 40
0.0
 40
0.1142252106
 40
0.2296411221
 40
0.4680603584
 40
0.7231585872
 40
1.0
 40
1.0
 40
1.0
 40
1.0
 10
27.9568478669
 20
11.0242420664
 30
0.0
 10
27.9871244843
 20
11.0417251449
 30
0.0
 10
28.0458434809
 20
11.0807643864
 30
0.0
 10
28.1545894702
 20
11.1745016199
 30
0.0
 10
28.2721931606
 20
11.3214838998
 30
0.0
 10
28.3769826958
 20
11.5343539026
 30
0.0
 10
28.4210723211
 20
11.6920440876
 30
0.0
 10
28.4377245325
 20
11.7751268759
 30
0.0
  0
SPLINE
  5
36E
100
AcDbEntity
  8
0
100
AcDbSpline
 62
7
  6
BYLAYER
 70
0
 71
3
 72
16
 73
12
 74
0
 42
0.0000001
 43
0.0000001
 44
0.0000000001
 40
0.0
 40
0.0
 40
0.0
 40
0.0
 40
0.0381387728
 40
0.0772800677
 40
0.1618499655
 40
0.2594950187
 40
0.3732709459
 40
0.5044716088
 40
0.6532434324
 40
0.8189601781
 40
1.0
 40
1.0
 40
1.0
 40
1.0
 10
37.7018439504
 20
23.2634118971
 30
0.0
 10
37.6930666223
 20
23.2724110073
 30
0.0
 10
37.6736369232
 20
23.2891164396
 30
0.0
 10
37.6276850864
 20
23.3166463366
 30
0.0
 10
37.5568942513
 20
23.3383632618
 30
0.0
 10
37.4588396132
 20
23.3436174156
 30
0.0
 10
37.3463126904
 20
23.3299184865
 30
0.0
 10
37.2203628438
 20
23.2975000542
 30
0.0
 10
37.0822699556
 20
23.2468338495
 30
0.0
 10
36.9337845703
 20
23.1784754285
 30
0.0
 10
36.8332251254
 20
23.1239863011
 30
0.0
 10
36.7815475381
 20
23.0941504102
 30
0.0
  0
SPLINE
  5
36F
100
AcDbEntity
  8
0
100
AcDbSpline
 62
7
  6
BYLAYER
 70
0
 71
3
 72
17
 73
13
 74
0
 42
0.0000001
 43
0.0000001
 44
0.0000000001
 40
0.0
 40
0.0
 40
0.0
 40
0.0
 40
0.1191980979
 40
0.2489958189
 40
0.3850479619
 40
0.5227658562
 40
0.6574277907
 40
0.784474971
 40
0.84384163
 40
0.8998285479
 40
0.9520153116
 40
1.0
 40
1.0
 40
1.0
 40
1.0
 10
20.0061360125
 20
30.207197738
 30
0.0
 10
19.9082136566
 20
30.1506625769
 30
0.0
 10
19.7095533147
 20
30.0222494068
 30
0.0
 10
19.418683968
 20
29.8008692524
 30
0.0
 10
19.1302689917
 20
29.5487072859
 30
0.0
 10
18.8553011735
 20
29.2753828831
 30
0.0
 10
18.6042551779
 20
28.9912389338
 30
0.0
 10
18.4187711307
 20
28.7492490169
 30
0.0
 10
18.2905592191
 20
28.5582935748
 30
0.0
 10
18.2080863616
 20
28.4223614446
 30
0.0
 10
18.1379307243
 20
28.2918184994
 30
0.0
 10
18.0980299548
 20
28.2054861912
 30
0.0
 10
18.0805213289
 20
28.1634701996
 30
0.0
  0
ELLIPSE
  5
370
100
AcDbEntity
  8
0
100
AcDbEllipse
 62
7
  6
BYLAYER
 10
29.6595514957
 20
18.2417218573
 30
0.0
 11
0.3639391258
 21
0.097515249
 31
0.0
 40
0.5176329258
 41
5.1900552877
 42
6.7608516145
  0
ELLIPSE
  5
371
100
AcDbEntity
  8
0
100
AcDbEllipse
 62
7
  6
BYLAYER
 10
30.088524889
 20
18.1191162933
 30
0.0
 11
0.2542026924
 21
0.4466035286
 31
0.0
 40
0.551405418
 41
0.7553575995
 42
2.3261539263
  0
ELLIPSE
  5
372
100
AcDbEntity
  8
0
100
AcDbEllipse
 62
7
  6
BYLAYER
 10
36.3817490402
 20
21.7524892628
 30
0.0
 11
1.0168107694
 21
1.7864141144
 31
0.0
 40
0.551405418
 41
-0.8154387273
 42
-0.5627584721
  0
ELLIPSE
  5
373
100
AcDbEntity
  8
0
100
AcDbEllipse
 62
7
  6
BYLAYER
 10
30.088524889
 20
18.1191162933
 30
0.0
 11
1.0168107694
 21
1.7864141144
 31
0.0
 40
0.551405418
 41
-4.209711636
 42
-3.9570313809
  0
ELLIPSE
  5
374
100
AcDbEntity
  8
0
100
AcDbEllipse
 62
7
  6
BYLAYER
 10
36.3817490402
 20
21.7524892628
 30
0.0
 11
0.2542026924
 21
0.4466035286
 31
0.0
 40
0.551405418
 41
-0.8154387273
 42
0.7553575995
  0
ENDSEC
  0
SECTION
  2
OBJECTS
  0
DICTIONARY
  5
C
100
AcDbDictionary
280
0
281
1
  3
ACAD_GROUP
350
D
  3
ACAD_MLINESTYLE
350
17
  3
ACAD_LAYOUT
350
1A
  3
ACAD_PLOTSETTINGS
350
19
  3
ACAD_PLOTSTYLENAME
350
E
  0
DICTIONARY
  5
D
102
{ACAD_REACTORS
330
C
102
}
100
AcDbDictionary
280
0
281
1
  0
ACDBDICTIONARYWDFLT
  5
E
102
{ACAD_REACTORS
330
C
102
}
100
AcDbDictionary
281
1
  3
Normal
350
F
100
AcDbDictionaryWithDefault
340
F
  0
DICTIONARY
  5
17
102
{ACAD_REACTORS
330
C
102
}
100
AcDbDictionary
280
0
281
1
  3
Standard
350
18
  0
DICTIONARY
  5
19
102
{ACAD_REACTORS
330
C
102
}
100
AcDbDictionary
281
1
  0
DICTIONARY
  5
1A
102
{ACAD_REACTORS
330
C
102
}
100
AcDbDictionary
281
1
  3
Model
350
375
  3
Layout1
350
376
  0
ACDBPLACEHOLDER
  5
F
102
{ACAD_REACTORS
330
E
102
}
  0
MLINESTYLE
  5
18
102
{ACAD_REACTORS
330
17
102
}
100
AcDbMlineStyle
  2
STANDARD
 70
0
  3

 62
256
 51
90.0
 52
90.0
 71
2
 49
0.5
 62
256
  6
BYLAYER
 49
-0.5
 62
256
  6
BYLAYER
  0
LAYOUT
  5
375
102
{ACAD_REACTORS
330
1A
102
}
100
AcDbPlotSettings
  1

  2
none_device
  4

  6

 40
0.0
 41
0.0
 42
0.0
 43
0.0
 44
210.0
 45
297.0
 46
0.0
 47
0.0
 48
0.0
 49
0.0
140
0.0
141
0.0
142
1.0
143
1.0
 70
1024
 72
1
 73
0
 74
0
  7

 75
0
147
1.0
148
0.0
149
0.0
100
AcDbLayout
  1
Model
 70
0
 71
0
 10
0.0
 20
0.0
 11
210.0
 21
297.0
 12
0.0
 22
0.0
 32
0.0
 14
0.0
 24
0.0
 34
0.0
 15
0.0
 25
0.0
 35
0.0
146
0.0
 13
0.0
 23
0.0
 33
0.0
 16
1.0
 26
0.0
 36
0.0
 17
0.0
 27
1.0
 37
0.0
 76
0
330
210
345
0
346
0
  0
LAYOUT
  5
376
102
{ACAD_REACTORS
330
1A
102
}
100
AcDbPlotSettings
  1

  2
none_device
  4

  6

 40
0.0
 41
0.0
 42
0.0
 43
0.0
 44
210.0
 45
297.0
 46
0.0
 47
0.0
 48
0.0
 49
0.0
140
0.0
141
0.0
142
1.0
143
1.0
 70
0
 72
1
 73
0
 74
0
  7

 75
0
147
1.0
148
0.0
149
0.0
100
AcDbLayout
  1
Layout1
 70
0
 71
1
 10
0.0
 20
0.0
 11
210.0
 21
297.0
 12
0.0
 22
0.0
 32
0.0
 14
0.0
 24
0.0
 34
0.0
 15
0.0
 25
0.0
 35
0.0
146
0.0
 13
0.0
 23
0.0
 33
0.0
 16
1.0
 26
0.0
 36
0.0
 17
0.0
 27
1.0
 37
0.0
 76
0
330
211
345
0
346
0
  0
ENDSEC
  0
EOF
