999
DXF file: C:\Users\sesa63760\Dev\_Creo\CAD\MCADID0004754_3D-CAD\drw0001_1.dxf
999
Pro/ENGINEER 2019471 by Parametric Technology Corporation
  0
SECTION
  2
HEADER
  9
$ACADVER
  1
AC1024
  9
$DWGCODEPAGE
  3
ANSI_1252
  9
$EXTMAX
 10
43.5793797359
 20
61.6336941979
 30
0.0
  9
$EXTMIN
 10
0.0
 20
0.0
 30
0.0
  9
$LIMMIN
 10
0.0
 20
0.0
  9
$LIMMAX
 10
43.5793797359
 20
61.6336941979
  9
$VIEWCTR
 10
21.789689868
 20
30.816847099
  9
$VIEWSIZE
 40
61.6336941979
  9
$CLAYER
  8
0
  9
$LTSCALE
 40
4.0176037699
  9
$CELTYPE
  6
BYLAYER
  9
$DIMSCALE
 40
1.0
  9
$DIMASZ
 40
0.5188021397
  9
$DIMEXO
 40
1.0
  9
$DIMDLI
 40
2.7757989683
  9
$DIMEXE
 40
1.0
  9
$DIMCEN
 40
0.6574260714
  9
$DIMLFAC
 40
1.0
  9
$DIMBLK
  1
_FILLED
  9
$DIMALT
 70
0
  9
$DIMALTF
 40
0.0393700787
  9
$DIMTXT
 40
0.7263229956
  9
$DIMTOL
 70
1
  9
$DIMLIM
 70
0
  9
$DIMTFAC
 40
1.0
  9
$DIMTP
 40
0.01
  9
$DIMTM
 40
0.01
  9
$DIMGAP
 40
0.625
  9
$DIMDSEP
 70
46
  9
$AUNITS
 70
0
  9
$PDMODE
 70
3
  9
$PDSIZE
 40
0.3125
  9
$HANDSEED
  5
36B
  9
$TILEMODE
 70
1
  9
$MEASUREMENT
 70
1
  9
$INSUNITS
 70
4
  0
ENDSEC
  0
SECTION
  2
CLASSES
  0
CLASS
  1
ACDBDICTIONARYWDFLT
  2
AcDbDictionaryWithDefault
  3
AutoCAD 2000
 90
0
 91
1
280
0
281
0
  0
CLASS
  1
ACDBPLACEHOLDER
  2
AcDbPlaceHolder
  3
AutoCAD 2000
 90
0
 91
1
280
0
281
0
  0
CLASS
  1
LAYOUT
  2
AcDbLayout
  3
AutoCAD 2000
 90
0
 91
0
280
0
281
0
  0
ENDSEC
  0
SECTION
  2
TABLES
  0
TABLE
  2
VPORT
  5
8
100
AcDbSymbolTable
 70
2
  0
VPORT
  5
1F4
100
AcDbSymbolTableRecord
100
AcDbViewportTableRecord
  2
*ACTIVE
 70
0
 10
0.0
 20
0.0
 11
1.0
 21
1.0
 12
21.789689868
 22
30.816847099
 13
0.0
 23
0.0
 14
1.0
 24
1.0
 15
0.0
 25
0.0
 16
0.0
 26
0.0
 36
1.0
 17
0.0
 27
0.0
 37
0.0
 40
61.6336941979
 41
0.7070707071
 42
50.0
 43
0.0
 44
0.0
 50
0.0
 51
0.0
 71
0
 72
100
 73
1
 74
1
 75
0
 76
0
 77
0
 78
0
  0
ENDTAB
  0
TABLE
  2
LTYPE
  5
5
100
AcDbSymbolTable
 70
6
  0
LTYPE
  5
14
100
AcDbSymbolTableRecord
100
AcDbLinetypeTableRecord
  2
BYBLOCK
 70
0
  3

 72
65
 73
0
 40
0.0
  0
LTYPE
  5
15
100
AcDbSymbolTableRecord
100
AcDbLinetypeTableRecord
  2
BYLAYER
 70
0
  3

 72
65
 73
0
 40
0.0
  0
LTYPE
  5
16
100
AcDbSymbolTableRecord
100
AcDbLinetypeTableRecord
  2
CONTINUOUS
 70
64
  3
Solid line
 72
65
 73
0
 40
0.0
  0
LTYPE
  5
1F5
100
AcDbSymbolTableRecord
100
AcDbLinetypeTableRecord
  2
CENTER
 70
64
  3
____ _ ____ _ ____ _ ____ _ ____ _ ____ _ ____
 72
65
 73
4
 40
0.6
 49
0.375
 74
0
 49
-0.075
 74
0
 49
0.075
 74
0
 49
-0.075
 74
0
  0
LTYPE
  5
1F6
100
AcDbSymbolTableRecord
100
AcDbLinetypeTableRecord
  2
HIDDEN
 70
64
  3
- - - - - - - - - - - - - - - - - - - -
 72
65
 73
2
 40
0.2
 49
0.1
 74
0
 49
-0.1
 74
0
  0
LTYPE
  5
1F7
100
AcDbSymbolTableRecord
100
AcDbLinetypeTableRecord
  2
PHANTOM
 70
64
  3
_____ _ _ _____ _ _ _____ _ _ _____
 72
65
 73
6
 40
0.8
 49
0.45
 74
0
 49
-0.05
 74
0
 49
0.1
 74
0
 49
-0.05
 74
0
 49
0.1
 74
0
 49
-0.05
 74
0
  0
LTYPE
  5
1F8
100
AcDbSymbolTableRecord
100
AcDbLinetypeTableRecord
  2
DOT
 70
64
  3
. . . . . . . . . . . . . . . . . . . .
 72
65
 73
2
 40
0.2
 49
0.1
 74
0
 49
-0.1
 74
0
  0
LTYPE
  5
1F9
100
AcDbSymbolTableRecord
100
AcDbLinetypeTableRecord
  2
DASHED
 70
64
  3
- - - - - - - - - - - - - - - - - - - -
 72
65
 73
2
 40
0.2
 49
0.1
 74
0
 49
-0.1
 74
0
  0
ENDTAB
  0
TABLE
  2
LAYER
  5
2
100
AcDbSymbolTable
 70
36
  0
LAYER
  5
10
100
AcDbSymbolTableRecord
100
AcDbLayerTableRecord
  2
0
 70
0
 62
7
  6
CONTINUOUS
370
-3
390
F
  0
LAYER
  5
1FA
100
AcDbSymbolTableRecord
100
AcDbLayerTableRecord
  2
DEFAULT_1
 70
0
 62
7
  6
CENTER
370
-3
390
F
  0
LAYER
  5
1FB
100
AcDbSymbolTableRecord
100
AcDbLayerTableRecord
  2
DEFAULT_2
 70
0
 62
7
  6
HIDDEN
370
-3
390
F
  0
LAYER
  5
1FC
100
AcDbSymbolTableRecord
100
AcDbLayerTableRecord
  2
DEFAULT_3
 70
0
 62
7
  6
PHANTOM
370
-3
390
F
  0
LAYER
  5
1FD
100
AcDbSymbolTableRecord
100
AcDbLayerTableRecord
  2
00_COMPONENTS
 70
0
 62
7
  6
CONTINUOUS
370
-3
390
F
  0
LAYER
  5
1FE
100
AcDbSymbolTableRecord
100
AcDbLayerTableRecord
  2
01_1_DEFAULT_DATUMS
 70
0
 62
7
  6
CONTINUOUS
370
-3
390
F
  0
LAYER
  5
1FF
100
AcDbSymbolTableRecord
100
AcDbLayerTableRecord
  2
01_PLANES
 70
0
 62
7
  6
CONTINUOUS
370
-3
390
F
  0
LAYER
  5
200
100
AcDbSymbolTableRecord
100
AcDbLayerTableRecord
  2
02_COORD_SYS
 70
0
 62
7
  6
CONTINUOUS
370
-3
390
F
  0
LAYER
  5
201
100
AcDbSymbolTableRecord
100
AcDbLayerTableRecord
  2
03_AXES
 70
0
 62
7
  6
CONTINUOUS
370
-3
390
F
  0
LAYER
  5
202
100
AcDbSymbolTableRecord
100
AcDbLayerTableRecord
  2
04_POINTS
 70
0
 62
7
  6
CONTINUOUS
370
-3
390
F
  0
LAYER
  5
203
100
AcDbSymbolTableRecord
100
AcDbLayerTableRecord
  2
05_CURVES
 70
0
 62
7
  6
CONTINUOUS
370
-3
390
F
  0
LAYER
  5
204
100
AcDbSymbolTableRecord
100
AcDbLayerTableRecord
  2
06_SURFS
 70
0
 62
7
  6
CONTINUOUS
370
-3
390
F
  0
LAYER
  5
205
100
AcDbSymbolTableRecord
100
AcDbLayerTableRecord
  2
07_COSMETICS
 70
0
 62
7
  6
CONTINUOUS
370
-3
390
F
  0
LAYER
  5
206
100
AcDbSymbolTableRecord
100
AcDbLayerTableRecord
  2
10_NOTES
 70
0
 62
7
  6
CONTINUOUS
370
-3
390
F
  0
LAYER
  5
207
100
AcDbSymbolTableRecord
100
AcDbLayerTableRecord
  2
11_NOTES_PUB
 70
0
 62
7
  6
CONTINUOUS
370
-3
390
F
  0
LAYER
  5
208
100
AcDbSymbolTableRecord
100
AcDbLayerTableRecord
  2
13_REF_GTOL
 70
0
 62
7
  6
CONTINUOUS
370
-3
390
F
  0
LAYER
  5
209
100
AcDbSymbolTableRecord
100
AcDbLayerTableRecord
  2
16_MISC
 70
0
 62
7
  6
CONTINUOUS
370
-3
390
F
  0
LAYER
  5
20A
100
AcDbSymbolTableRecord
100
AcDbLayerTableRecord
  2
17_NO_PRINT
 70
0
 62
7
  6
CONTINUOUS
370
-3
390
F
  0
LAYER
  5
20B
100
AcDbSymbolTableRecord
100
AcDbLayerTableRecord
  2
18_DATUM_CAMS_JOINTS
 70
0
 62
7
  6
CONTINUOUS
370
-3
390
F
  0
LAYER
  5
20C
100
AcDbSymbolTableRecord
100
AcDbLayerTableRecord
  2
19_DATUM_FUNCTIONAL
 70
0
 62
7
  6
CONTINUOUS
370
-3
390
F
  0
LAYER
  5
20D
100
AcDbSymbolTableRecord
100
AcDbLayerTableRecord
  2
20_DATUM_KINEMATIC_SCHEME
 70
0
 62
7
  6
CONTINUOUS
370
-3
390
F
  0
ENDTAB
  0
TABLE
  2
STYLE
  5
3
100
AcDbSymbolTable
 70
1
  0
STYLE
  5
11
100
AcDbSymbolTableRecord
100
AcDbTextStyleTableRecord
  2
STANDARD
 70
0
 40
0.0
 41
1.0
 50
0.0
 71
0
 42
0.2
  3
ARIAL.TTF
  4

  0
STYLE
  5
20E
100
AcDbSymbolTableRecord
100
AcDbTextStyleTableRecord
  2
TEXTSTYLE_1
 70
0
 40
0.0
 41
0.8
 50
0.0
 71
0
 42
0.2
  3
gdt
  4

  0
ENDTAB
  0
TABLE
  2
VIEW
  5
6
100
AcDbSymbolTable
 70
0
  0
ENDTAB
  0
TABLE
  2
UCS
  5
7
100
AcDbSymbolTable
 70
0
  0
ENDTAB
  0
TABLE
  2
APPID
  5
9
100
AcDbSymbolTable
 70
1
  0
APPID
  5
20F
100
AcDbSymbolTableRecord
100
AcDbRegAppTableRecord
  2
ACAD
 70
0
  0
ENDTAB
  0
TABLE
  2
BLOCK_RECORD
  5
1
100
AcDbSymbolTable
 70
0
  0
BLOCK_RECORD
  5
210
100
AcDbSymbolTableRecord
100
AcDbBlockTableRecord
  2
*Model_Space
  0
BLOCK_RECORD
  5
211
100
AcDbSymbolTableRecord
100
AcDbBlockTableRecord
  2
*Paper_Space
  0
BLOCK_RECORD
  5
212
100
AcDbSymbolTableRecord
100
AcDbBlockTableRecord
  2
_FILLED
  0
ENDTAB
  0
TABLE
  2
DIMSTYLE
  5
A
100
AcDbSymbolTable
 70
1
100
AcDbDimStyleTable
 71
0
  0
DIMSTYLE
105
213
100
AcDbSymbolTableRecord
100
AcDbDimStyleTableRecord
  2
STANDARD
 70
0
  3

  4

 40
1.0
 41
0.5188021397
 42
1.0
 43
0.38
 44
1.0
 45
0.0
 46
0.0
 47
0.01
 48
0.01
140
0.7263229956
141
0.09
142
0.0
143
25.4
144
1.0
145
0.0
146
1.0
147
0.625
 71
1
 72
0
 73
0
 74
0
 75
0
 76
0
 77
1
 78
8
 79
2
170
0
171
1
172
0
173
0
174
0
175
0
176
0
177
0
178
0
270
2
179
2
271
2
272
2
273
2
274
2
275
0
280
0
281
0
282
0
283
1
284
8
285
0
286
0
287
3
288
0
340
11
278
46
341
212
342
212
343
212
344
212
  0
ENDTAB
  0
ENDSEC
  0
SECTION
  2
BLOCKS
  0
BLOCK
  5
20
100
AcDbEntity
  8
0
100
AcDbBlockBegin
  2
*Model_Space
 70
0
 10
0.0
 20
0.0
 30
0.0
  3
*Model_Space
  1

  0
ENDBLK
  5
21
100
AcDbEntity
  8
0
100
AcDbBlockEnd
  0
BLOCK
  5
1C
100
AcDbEntity
  8
0
100
AcDbBlockBegin
  2
*Paper_Space
 70
0
 10
0.0
 20
0.0
 30
0.0
  3
*Paper_Space
  1

  0
ENDBLK
  5
1D
100
AcDbEntity
  8
0
100
AcDbBlockEnd
  0
BLOCK
  5
214
100
AcDbEntity
  8
0
100
AcDbBlockBegin
  2
_FILLED
 70
64
 10
0.0
 20
0.0
  3
_FILLED
  1

  0
SOLID
  5
215
100
AcDbEntity
  8
0
  6
BYBLOCK
 62
0
100
AcDbTrace
 10
0.0
 20
0.0
 11
-1.0
 21
0.25
 12
-1.0
 22
-0.25
 13
-1.0
 23
-0.25
  0
ENDBLK
  5
216
100
AcDbEntity
  8
0
  6
BYBLOCK
 62
0
100
AcDbBlockEnd
  0
ENDSEC
  0
SECTION
  2
ENTITIES
  0
LWPOLYLINE
  5
217
100
AcDbEntity
  8
0
100
AcDbPolyline
 62
7
  6
BYLAYER
 90
5
 70
0
 10
7.8130242753
 20
44.8775960551
 10
7.020919722
 20
44.3381293361
 10
5.7618594054
 20
42.9219420635
 10
5.366555681
 20
42.1186707416
 10
5.0557969797
 20
40.4189555762
  0
LINE
  5
218
100
AcDbEntity
  8
0
100
AcDbLine
 62
7
  6
BYLAYER
 10
7.813059848
 20
44.8776165942
 11
7.8130242753
 21
44.8775960551
  0
LINE
  5
219
100
AcDbEntity
  8
0
100
AcDbLine
 62
7
  6
BYLAYER
 10
5.0557089552
 20
40.4476629056
 11
5.0557087883
 21
27.2238284315
  0
LINE
  5
21A
100
AcDbEntity
  8
0
100
AcDbLine
 62
7
  6
BYLAYER
 10
7.3838928102
 20
22.9471724579
 11
7.3277650922
 21
23.0491882581
  0
LINE
  5
21B
100
AcDbEntity
  8
0
100
AcDbLine
 62
7
  6
BYLAYER
 10
6.3411120898
 20
23.9142602014
 11
6.3103331493
 21
23.9972667791
  0
LWPOLYLINE
  5
21C
100
AcDbEntity
  8
0
100
AcDbPolyline
 62
7
  6
BYLAYER
 90
9
 70
0
 10
6.8193140593
 20
22.0396238884
 10
7.144036456
 20
21.1496570152
 10
8.2172754953
 20
20.1138425797
 10
8.9579409422
 20
19.6875164112
 10
10.7479881576
 20
19.0726663626
 10
12.7901387679
 20
18.8252024383
 10
14.8570271673
 20
18.9725933808
 10
16.7412634635
 20
19.5026821271
 10
17.5458555429
 20
19.8957856209
  0
LINE
  5
21D
100
AcDbEntity
  8
0
100
AcDbLine
 62
7
  6
BYLAYER
 10
6.8698636067
 20
23.8198633928
 11
7.0477333155
 21
23.3323757722
  0
LINE
  5
21E
100
AcDbEntity
  8
0
100
AcDbLine
 62
7
  6
BYLAYER
 10
7.0477333155
 20
23.2598842446
 11
7.0712834328
 21
23.1822970253
  0
LINE
  5
21F
100
AcDbEntity
  8
0
100
AcDbLine
 62
7
  6
BYLAYER
 10
6.134297001
 20
24.2426278127
 11
6.1502413423
 21
24.1798559416
  0
LINE
  5
220
100
AcDbEntity
  8
0
100
AcDbLine
 62
7
  6
BYLAYER
 10
6.134297001
 20
24.9638478277
 11
6.134297001
 21
24.2426278127
  0
LINE
  5
221
100
AcDbEntity
  8
0
100
AcDbLine
 62
7
  6
BYLAYER
 10
6.3103331493
 20
23.9972667791
 11
6.3103331493
 21
24.8234452051
  0
LINE
  5
222
100
AcDbEntity
  8
0
100
AcDbLine
 62
7
  6
BYLAYER
 10
6.7057087883
 20
23.8240008967
 11
6.7057087883
 21
23.4679173127
  0
LINE
  5
223
100
AcDbEntity
  8
0
100
AcDbLine
 62
7
  6
BYLAYER
 10
6.7057087883
 20
22.2177449689
 11
6.7057087883
 21
21.9982129619
  0
LINE
  5
224
100
AcDbEntity
  8
0
100
AcDbLine
 62
7
  6
BYLAYER
 10
7.0477333155
 20
24.2353107891
 11
7.0477333155
 21
23.2598842446
  0
LINE
  5
225
100
AcDbEntity
  8
0
100
AcDbLine
 62
7
  6
BYLAYER
 10
14.1969514227
 20
17.621404969
 11
14.1969649866
 21
17.6213971379
  0
LINE
  5
226
100
AcDbEntity
  8
0
100
AcDbLine
 62
7
  6
BYLAYER
 10
14.4792356546
 20
17.542979676
 11
14.1451094793
 21
17.7358831493
  0
LWPOLYLINE
  5
227
100
AcDbEntity
  8
0
100
AcDbPolyline
 62
7
  6
BYLAYER
 90
3
 70
0
 10
14.196947913
 20
17.6214023878
 10
14.1471696673
 20
17.667420429
 10
14.1450978575
 20
17.6762671596
  0
LINE
  5
228
100
AcDbEntity
  8
0
100
AcDbLine
 62
7
  6
BYLAYER
 10
8.3706032297
 20
22.4471189994
 11
8.3863485178
 21
22.3677935817
  0
LINE
  5
229
100
AcDbEntity
  8
0
100
AcDbLine
 62
7
  6
BYLAYER
 10
7.3057087883
 20
20.5049521059
 11
7.3057087883
 21
19.2629298645
  0
LINE
  5
22A
100
AcDbEntity
  8
0
100
AcDbLine
 62
7
  6
BYLAYER
 10
7.3277650922
 20
23.0491882581
 11
7.3277650922
 21
24.0119635035
  0
LINE
  5
22B
100
AcDbEntity
  8
0
100
AcDbLine
 62
7
  6
BYLAYER
 10
7.3988780905
 20
28.7707068256
 11
7.3988780905
 21
36.930160424
  0
LINE
  5
22C
100
AcDbEntity
  8
0
100
AcDbLine
 62
7
  6
BYLAYER
 10
8.1037610287
 20
23.6627888743
 11
8.1037610287
 21
22.9852122788
  0
LINE
  5
22D
100
AcDbEntity
  8
0
100
AcDbLine
 62
7
  6
BYLAYER
 10
8.3055855212
 20
17.3922322433
 11
8.3055855212
 21
19.574068453
  0
LINE
  5
22E
100
AcDbEntity
  8
0
100
AcDbLine
 62
7
  6
BYLAYER
 10
8.3706032297
 20
23.5503620589
 11
8.3706032297
 21
22.4471189994
  0
LINE
  5
22F
100
AcDbEntity
  8
0
100
AcDbLine
 62
7
  6
BYLAYER
 10
10.0029475016
 20
21.826099931
 11
9.9780817155
 21
22.1548764236
  0
LINE
  5
230
100
AcDbEntity
  8
0
100
AcDbLine
 62
7
  6
BYLAYER
 10
8.7355469321
 20
22.2854466434
 11
8.7355469321
 21
23.396602803
  0
LINE
  5
231
100
AcDbEntity
  8
0
100
AcDbLine
 62
7
  6
BYLAYER
 10
9.4405748547
 20
23.1069228354
 11
9.4405748547
 21
22.3340410932
  0
LINE
  5
232
100
AcDbEntity
  8
0
100
AcDbLine
 62
7
  6
BYLAYER
 10
9.8155586948
 20
18.9035293447
 11
9.8155586948
 21
16.5204685469
  0
LINE
  5
233
100
AcDbEntity
  8
0
100
AcDbLine
 62
7
  6
BYLAYER
 10
9.9780817155
 20
22.1548764236
 11
9.9780817155
 21
23.0055943326
  0
LINE
  5
234
100
AcDbEntity
  8
0
100
AcDbLine
 62
7
  6
BYLAYER
 10
10.0127553452
 20
22.9990578077
 11
10.0127553452
 21
21.8597206853
  0
LINE
  5
235
100
AcDbEntity
  8
0
100
AcDbLine
 62
7
  6
BYLAYER
 10
27.5563468987
 20
18.2969454904
 11
29.1959888448
 21
18.6016103538
  0
LINE
  5
236
100
AcDbEntity
  8
0
100
AcDbLine
 62
7
  6
BYLAYER
 10
27.0603608109
 20
18.2584719059
 11
27.050205462
 21
18.2580770587
  0
LINE
  5
237
100
AcDbEntity
  8
0
100
AcDbLine
 62
7
  6
BYLAYER
 10
27.1885793371
 20
18.2362098691
 11
27.0612158475
 21
18.2364806218
  0
LINE
  5
238
100
AcDbEntity
  8
0
100
AcDbLine
 62
7
  6
BYLAYER
 10
27.0613384856
 20
18.24410114
 11
27.237144678
 21
18.2413822459
  0
LINE
  5
239
100
AcDbEntity
  8
0
100
AcDbLine
 62
7
  6
BYLAYER
 10
27.4688701822
 20
18.2384257995
 11
27.6047090111
 21
18.2353252497
  0
LINE
  5
23A
100
AcDbEntity
  8
0
100
AcDbLine
 62
7
  6
BYLAYER
 10
26.7736607134
 20
18.249431868
 11
27.0612158475
 21
18.2364806218
  0
LINE
  5
23B
100
AcDbEntity
  8
0
100
AcDbLine
 62
7
  6
BYLAYER
 10
11.6275159446
 20
21.3404422751
 11
10.008136162
 21
21.777739463
  0
LWPOLYLINE
  5
23C
100
AcDbEntity
  8
0
100
AcDbPolyline
 62
7
  6
BYLAYER
 90
3
 70
0
 10
9.9911285037
 20
21.7823322098
 10
9.8945101911
 20
21.8084230112
 10
9.1413848739
 20
22.2441200575
  0
LINE
  5
23D
100
AcDbEntity
  8
0
100
AcDbLine
 62
7
  6
BYLAYER
 10
9.9565933363
 20
22.0926755051
 11
9.3429021051
 21
22.3046857158
  0
LINE
  5
23E
100
AcDbEntity
  8
0
100
AcDbLine
 62
7
  6
BYLAYER
 10
10.0089746261
 20
21.7808444264
 11
10.0029475091
 21
21.8260998327
  0
LINE
  5
23F
100
AcDbEntity
  8
0
100
AcDbLine
 62
7
  6
BYLAYER
 10
10.4377406631
 20
21.7580896638
 11
10.4377406631
 21
22.9189413867
  0
LINE
  5
240
100
AcDbEntity
  8
0
100
AcDbLine
 62
7
  6
BYLAYER
 10
11.0237540839
 20
22.8084686339
 11
11.0237540839
 21
21.9048142531
  0
LINE
  5
241
100
AcDbEntity
  8
0
100
AcDbLine
 62
7
  6
BYLAYER
 10
7.5472645058
 20
22.9139828579
 11
7.3838928102
 21
22.9471724579
  0
LINE
  5
242
100
AcDbEntity
  8
0
100
AcDbLine
 62
7
  6
BYLAYER
 10
15.5079724944
 20
21.6824952069
 11
15.0877166545
 21
21.9048240217
  0
LINE
  5
243
100
AcDbEntity
  8
0
100
AcDbLine
 62
7
  6
BYLAYER
 10
18.2264524405
 20
19.8702202989
 11
18.3683067595
 21
19.7883225225
  0
LINE
  5
244
100
AcDbEntity
  8
0
100
AcDbLine
 62
7
  6
BYLAYER
 10
15.6079212465
 20
21.6625992812
 11
15.50797242
 21
21.6824952463
  0
LINE
  5
245
100
AcDbEntity
  8
0
100
AcDbLine
 62
7
  6
BYLAYER
 10
17.1764943684
 20
22.1821029439
 11
16.6708896931
 21
22.3340584727
  0
LINE
  5
246
100
AcDbEntity
  8
0
100
AcDbLine
 62
7
  6
BYLAYER
 10
27.3291901375
 20
18.5279810119
 11
26.4118165077
 21
18.8404885801
  0
LINE
  5
247
100
AcDbEntity
  8
0
100
AcDbLine
 62
7
  6
BYLAYER
 10
24.5718204145
 20
17.9396755891
 11
12.1101594758
 21
25.1342561235
  0
LINE
  5
248
100
AcDbEntity
  8
0
100
AcDbLine
 62
7
  6
BYLAYER
 10
23.6169430329
 20
18.7995688339
 11
9.2134055725
 21
27.1152669378
  0
LINE
  5
249
100
AcDbEntity
  8
0
100
AcDbLine
 62
7
  6
BYLAYER
 10
23.4149133651
 20
19.5240537419
 11
7.3988780905
 21
28.7707068256
  0
LINE
  5
24A
100
AcDbEntity
  8
0
100
AcDbLine
 62
7
  6
BYLAYER
 10
13.9332640554
 20
17.5334576662
 11
13.9332640554
 21
18.4172449744
  0
LINE
  5
24B
100
AcDbEntity
  8
0
100
AcDbLine
 62
7
  6
BYLAYER
 10
14.1451094793
 20
17.6760966648
 11
14.1451094793
 21
18.4324685532
  0
LINE
  5
24C
100
AcDbEntity
  8
0
100
AcDbLine
 62
7
  6
BYLAYER
 10
8.9349722232
 20
22.1820830893
 11
8.8041550381
 21
22.1828200272
  0
LINE
  5
24D
100
AcDbEntity
  8
0
100
AcDbLine
 62
7
  6
BYLAYER
 10
7.0477333155
 20
23.8153802067
 11
6.5349483219
 21
23.8283048953
  0
LINE
  5
24E
100
AcDbEntity
  8
0
100
AcDbLine
 62
7
  6
BYLAYER
 10
25.2985885139
 20
18.7902487324
 11
25.6167878902
 21
18.6065403928
  0
LWPOLYLINE
  5
24F
100
AcDbEntity
  8
0
100
AcDbPolyline
 62
7
  6
BYLAYER
 90
4
 70
0
 10
25.6157326112
 20
18.6047159805
 10
24.494122962
 20
19.2534789188
 10
23.6936754082
 20
20.6037058722
 10
23.4149133651
 20
22.4679950716
  0
LINE
  5
250
100
AcDbEntity
  8
0
100
AcDbLine
 62
7
  6
BYLAYER
 10
23.6169430329
 20
18.799568834
 11
24.5718475889
 21
17.9397226457
  0
LINE
  5
251
100
AcDbEntity
  8
0
100
AcDbLine
 62
7
  6
BYLAYER
 10
15.0877166545
 20
21.9048240217
 11
15.0877166545
 21
22.8079310211
  0
LINE
  5
252
100
AcDbEntity
  8
0
100
AcDbLine
 62
7
  6
BYLAYER
 10
15.6737345467
 20
22.9181139494
 11
15.6737345467
 21
21.7581022496
  0
LINE
  5
253
100
AcDbEntity
  8
0
100
AcDbLine
 62
7
  6
BYLAYER
 10
16.0987183987
 20
21.8597353142
 11
16.0987183987
 21
22.8315126506
  0
LINE
  5
254
100
AcDbEntity
  8
0
100
AcDbLine
 62
7
  6
BYLAYER
 10
16.1333854164
 20
22.8114980915
 11
16.1333854164
 21
22.1548912191
  0
LINE
  5
255
100
AcDbEntity
  8
0
100
AcDbLine
 62
7
  6
BYLAYER
 10
16.1283846848
 20
22.0887586959
 11
15.2230936705
 21
21.8332052393
  0
LINE
  5
256
100
AcDbEntity
  8
0
100
AcDbLine
 62
7
  6
BYLAYER
 10
10.6035013278
 20
21.682483353
 11
10.5036000574
 21
21.6626885828
  0
LWPOLYLINE
  5
257
100
AcDbEntity
  8
0
100
AcDbPolyline
 62
7
  6
BYLAYER
 90
8
 70
0
 10
15.8811641564
 20
22.9571148095
 10
14.3153117088
 20
22.6627036485
 10
11.7977959412
 20
22.6625495616
 10
9.4089407037
 20
23.1128863707
 10
7.386846072
 20
23.9648417925
 10
5.9226594662
 20
25.1326453459
 10
5.1535017555
 20
26.5038727194
 10
5.0557123838
 20
27.2238284315
  0
LINE
  5
258
100
AcDbEntity
  8
0
100
AcDbLine
 62
7
  6
BYLAYER
 10
8.1037610287
 20
22.9852122788
 11
7.547264661
 21
22.9139828778
  0
LINE
  5
259
100
AcDbEntity
  8
0
100
AcDbLine
 62
7
  6
BYLAYER
 10
26.5339236397
 20
20.8483094187
 11
27.2410333649
 21
20.4400686642
  0
LINE
  5
25A
100
AcDbEntity
  8
0
100
AcDbLine
 62
7
  6
BYLAYER
 10
16.6708896931
 20
22.3340584727
 11
16.6708896931
 21
22.501176873
  0
LINE
  5
25B
100
AcDbEntity
  8
0
100
AcDbLine
 62
7
  6
BYLAYER
 10
16.1333854164
 20
22.1548912191
 11
16.1085243721
 21
21.8261146088
  0
LINE
  5
25C
100
AcDbEntity
  8
0
100
AcDbLine
 62
7
  6
BYLAYER
 10
16.1085243704
 20
21.8261145864
 11
16.1025007144
 21
21.7809536745
  0
LINE
  5
25D
100
AcDbEntity
  8
0
100
AcDbLine
 62
7
  6
BYLAYER
 10
28.0084745964
 20
21.729037298
 11
33.9307423308
 21
18.3098917787
  0
LINE
  5
25E
100
AcDbEntity
  8
0
100
AcDbLine
 62
7
  6
BYLAYER
 10
34.3928710066
 20
18.6204347032
 11
34.8878478142
 21
18.3346661751
  0
LINE
  5
25F
100
AcDbEntity
  8
0
100
AcDbLine
 62
7
  6
BYLAYER
 10
18.8057087883
 20
20.5564090639
 11
18.8057087883
 21
19.2629298645
  0
LWPOLYLINE
  5
260
100
AcDbEntity
  8
0
100
AcDbPolyline
 62
7
  6
BYLAYER
 90
3
 70
0
 10
24.9787481698
 20
20.0913068862
 10
25.8605771912
 20
18.8367500779
 10
27.1886348224
 20
18.263458478
  0
LWPOLYLINE
  5
261
100
AcDbEntity
  8
0
100
AcDbPolyline
 62
7
  6
BYLAYER
 90
3
 70
0
 10
25.0831546918
 20
20.1232905729
 10
25.948863525
 20
18.8916675662
 10
27.2501619556
 20
18.3242961906
  0
LINE
  5
262
100
AcDbEntity
  8
0
100
AcDbLine
 62
7
  6
BYLAYER
 10
7.3988780905
 20
36.930160424
 11
23.4149133651
 21
27.6835073341
  0
LINE
  5
263
100
AcDbEntity
  8
0
100
AcDbLine
 62
7
  6
BYLAYER
 10
23.4149133651
 20
27.6835073341
 11
23.4149133651
 21
19.5240537419
  0
LINE
  5
264
100
AcDbEntity
  8
0
100
AcDbLine
 62
7
  6
BYLAYER
 10
8.5273872449
 20
39.1810360857
 11
24.5434225195
 21
29.9343829958
  0
LINE
  5
265
100
AcDbEntity
  8
0
100
AcDbLine
 62
7
  6
BYLAYER
 10
24.7448111762
 20
21.8885981142
 11
25.0831546918
 21
20.1232905729
  0
LINE
  5
266
100
AcDbEntity
  8
0
100
AcDbLine
 62
7
  6
BYLAYER
 10
24.637757273
 20
21.8925298722
 11
24.9787481698
 21
20.0913068862
  0
LWPOLYLINE
  5
267
100
AcDbEntity
  8
0
100
AcDbPolyline
 62
7
  6
BYLAYER
 90
8
 70
0
 10
23.4149133651
 20
22.4679950751
 10
23.6912280347
 20
24.6440705557
 10
24.4918690931
 20
26.9237793692
 10
25.7504935333
 20
29.1040890253
 10
27.3349265971
 20
30.9477184097
 10
29.0837933552
 20
32.2729042015
 10
30.8272402389
 20
32.9569953161
 10
32.3993439222
 20
32.9374566318
  0
LINE
  5
268
100
AcDbEntity
  8
0
100
AcDbLine
 62
7
  6
BYLAYER
 10
11.0237540839
 20
21.9048142531
 11
10.603501445
 21
21.682483415
  0
LINE
  5
269
100
AcDbEntity
  8
0
100
AcDbLine
 62
7
  6
BYLAYER
 10
37.892811622
 20
24.682646815
 11
38.3877884296
 21
24.3968782869
  0
LINE
  5
26A
100
AcDbEntity
  8
0
100
AcDbLine
 62
7
  6
BYLAYER
 10
32.031487052
 20
28.6439545818
 11
37.9306744627
 21
25.2381341922
  0
LINE
  5
26B
100
AcDbEntity
  8
0
100
AcDbLine
 62
7
  6
BYLAYER
 10
27.3291901375
 20
28.6416323899
 11
27.2501619556
 21
28.7540638718
  0
LINE
  5
26C
100
AcDbEntity
  8
0
100
AcDbLine
 62
7
  6
BYLAYER
 10
9.4405748547
 20
22.3340410932
 11
8.9349723642
 21
22.1820831317
  0
LINE
  5
26D
100
AcDbEntity
  8
0
100
AcDbLine
 62
7
  6
BYLAYER
 10
32.7942052186
 20
31.7968414841
 11
33.7115788484
 21
31.4843339159
  0
LINE
  5
26E
100
AcDbEntity
  8
0
100
AcDbLine
 62
7
  6
BYLAYER
 10
32.0338303211
 20
30.3746427373
 11
32.7409400462
 21
29.9664019827
  0
LINE
  5
26F
100
AcDbEntity
  8
0
100
AcDbLine
 62
7
  6
BYLAYER
 10
27.6353750806
 20
29.0225328983
 11
27.5563468987
 21
29.1349643802
  0
LINE
  5
270
100
AcDbEntity
  8
0
100
AcDbLine
 62
7
  6
BYLAYER
 10
16.9448122766
 20
22.1615709425
 11
15.8434007441
 21
21.7163050365
  0
LWPOLYLINE
  5
271
100
AcDbEntity
  8
0
100
AcDbPolyline
 62
7
  6
BYLAYER
 90
4
 70
0
 10
15.5433434423
 20
21.5950013436
 10
15.3801999261
 20
21.5290475712
 10
13.5387290989
 20
21.2437848242
 10
11.6275159446
 20
21.3404422751
  0
LINE
  5
272
100
AcDbEntity
  8
0
100
AcDbLine
 62
7
  6
BYLAYER
 10
33.1984544744
 20
32.473527499
 11
33.5166538507
 21
32.2898191595
  0
LINE
  5
273
100
AcDbEntity
  8
0
100
AcDbLine
 62
7
  6
BYLAYER
 10
32.3993439222
 20
32.9374566318
 11
33.5172439794
 21
32.2908393997
  0
LINE
  5
274
100
AcDbEntity
  8
0
100
AcDbLine
 62
7
  6
BYLAYER
 10
24.90286754
 20
22.3881026623
 11
24.7448111762
 21
22.2968493228
  0
LINE
  5
275
100
AcDbEntity
  8
0
100
AcDbLine
 62
7
  6
BYLAYER
 10
35.220527816
 20
28.3449710423
 11
35.3785841799
 21
28.4362243818
  0
LINE
  5
276
100
AcDbEntity
  8
0
100
AcDbLine
 62
7
  6
BYLAYER
 10
24.90286754
 20
21.9798514537
 11
24.7448111762
 21
21.8885981142
  0
LINE
  5
277
100
AcDbEntity
  8
0
100
AcDbLine
 62
7
  6
BYLAYER
 10
35.220527816
 20
27.9367198337
 11
35.3785841799
 21
28.0279731732
  0
LINE
  5
278
100
AcDbEntity
  8
0
100
AcDbLine
 62
7
  6
BYLAYER
 10
27.3291901375
 20
18.5279810119
 11
27.2501619556
 21
18.3242961906
  0
LINE
  5
279
100
AcDbEntity
  8
0
100
AcDbLine
 62
7
  6
BYLAYER
 10
32.4880202755
 20
31.8241921842
 11
32.5670484574
 21
32.0278770056
  0
LINE
  5
27A
100
AcDbEntity
  8
0
100
AcDbLine
 62
7
  6
BYLAYER
 10
32.8732334005
 20
32.0005263054
 11
32.7942052186
 21
31.7968414841
  0
LINE
  5
27B
100
AcDbEntity
  8
0
100
AcDbLine
 62
7
  6
BYLAYER
 10
27.6353750806
 20
18.5006303118
 11
27.5563468987
 21
18.2969454904
  0
LWPOLYLINE
  5
27C
100
AcDbEntity
  8
0
100
AcDbPolyline
 62
7
  6
BYLAYER
 90
6
 70
0
 10
18.2984798704
 20
44.377543878
 10
16.1749950778
 20
45.3080182974
 10
13.7356322913
 20
45.8511149911
 10
12.4592554415
 20
45.9441963517
 10
9.9475567494
 20
45.6994510041
 10
7.8130597193
 20
44.8776168074
  0
LINE
  5
27D
100
AcDbEntity
  8
0
100
AcDbLine
 62
7
  6
BYLAYER
 10
33.6000656062
 20
35.1632071081
 11
17.5840303316
 21
44.4098601979
  0
LINE
  5
27E
100
AcDbEntity
  8
0
100
AcDbLine
 62
7
  6
BYLAYER
 10
34.3143501191
 20
35.1309860917
 11
18.2983148445
 21
44.3776391816
  0
LWPOLYLINE
  5
27F
100
AcDbEntity
  8
0
100
AcDbPolyline
 62
7
  6
BYLAYER
 90
3
 70
0
 10
35.0402406643
 20
30.2015319231
 10
34.1745318311
 20
31.4331549298
 10
34.1151324772
 20
31.4590532881
  0
LINE
  5
280
100
AcDbEntity
  8
0
100
AcDbLine
 62
7
  6
BYLAYER
 10
34.8321262477
 20
30.7538623118
 11
34.5593698743
 21
31.2239581685
  0
LINE
  5
281
100
AcDbEntity
  8
0
100
AcDbLine
 62
7
  6
BYLAYER
 10
35.2853375447
 20
28.3734596453
 11
35.2822070382
 21
28.3805813452
  0
LINE
  5
282
100
AcDbEntity
  8
0
100
AcDbLine
 62
7
  6
BYLAYER
 10
34.7285747605
 20
34.2154137961
 11
34.7285747605
 21
30.9323333937
  0
LINE
  5
283
100
AcDbEntity
  8
0
100
AcDbLine
 62
7
  6
BYLAYER
 10
34.3577008895
 20
27.3009447795
 11
34.5165520297
 21
28.5507730904
  0
LINE
  5
284
100
AcDbEntity
  8
0
100
AcDbLine
 62
7
  6
BYLAYER
 10
35.4081184657
 20
28.0762906506
 11
35.2104754461
 21
26.8086062979
  0
LINE
  5
285
100
AcDbEntity
  8
0
100
AcDbLine
 62
7
  6
BYLAYER
 10
35.1891581322
 20
26.8209135764
 11
35.3785841799
 21
28.0279731732
  0
LINE
  5
286
100
AcDbEntity
  8
0
100
AcDbLine
 62
7
  6
BYLAYER
 10
35.220527816
 20
27.9367198337
 11
35.0568819486
 21
26.8972815389
  0
LINE
  5
287
100
AcDbEntity
  8
0
100
AcDbLine
 62
7
  6
BYLAYER
 10
29.354694018
 20
19.6101231221
 11
30.3577734135
 21
20.372699678
  0
LINE
  5
288
100
AcDbEntity
  8
0
100
AcDbLine
 62
7
  6
BYLAYER
 10
35.4081045047
 20
28.0762929997
 11
35.4017383
 21
28.1070766956
  0
LINE
  5
289
100
AcDbEntity
  8
0
100
AcDbLine
 62
7
  6
BYLAYER
 10
35.3735227614
 20
28.4626323361
 11
35.0402406643
 21
30.2015319231
  0
LINE
  5
28A
100
AcDbEntity
  8
0
100
AcDbLine
 62
7
  6
BYLAYER
 10
31.2378749528
 20
19.8645843125
 11
30.9707781883
 21
19.6038920975
  0
LWPOLYLINE
  5
28B
100
AcDbEntity
  8
0
100
AcDbPolyline
 62
7
  6
BYLAYER
 90
3
 70
0
 10
30.9707781883
 20
19.6038920975
 10
29.2515885209
 20
18.5849774725
 10
27.6047090112
 20
18.2353252497
  0
LWPOLYLINE
  5
28C
100
AcDbEntity
  8
0
100
AcDbPolyline
 62
7
  6
BYLAYER
 90
3
 70
0
 10
29.1959888448
 20
18.6016103538
 10
30.9274065113
 20
19.6012388426
 10
31.2136469759
 20
19.878572025
  0
LINE
  5
28D
100
AcDbEntity
  8
0
100
AcDbLine
 62
7
  6
BYLAYER
 10
27.9147052335
 20
17.8398892207
 11
29.1782884892
 21
18.5694149988
  0
ARC
  5
28E
100
AcDbEntity
  8
0
100
AcDbCircle
 62
7
  6
BYLAYER
 10
-39.0800783825
 20
-168.6935705355
 40
208.7735951096
100
AcDbArc
 50
71.4119670908
 51
71.6131430666
  0
ARC
  5
28F
100
AcDbEntity
  8
0
100
AcDbCircle
 62
7
  6
BYLAYER
 10
-31.0953058935
 20
-25.8618101875
 40
86.3123394174
100
AcDbArc
 50
42.1944749382
 51
42.6775915313
  0
ARC
  5
290
100
AcDbEntity
  8
0
100
AcDbCircle
 62
7
  6
BYLAYER
 10
-24.9327244733
 20
1.9205392174
 40
65.7721988627
100
AcDbArc
 50
23.4619467949
 51
23.7151671451
  0
ARC
  5
291
100
AcDbEntity
  8
0
100
AcDbCircle
 62
7
  6
BYLAYER
 10
-27.9485870467
 20
7.5164632148
 40
65.3348266931
100
AcDbArc
 50
22.1358190648
 51
22.6214664735
  0
ARC
  5
292
100
AcDbEntity
  8
0
100
AcDbCircle
 62
7
  6
BYLAYER
 10
13.1469768329
 20
192.3215231153
 40
170.4431201366
100
AcDbArc
 50
273.6442643024
 51
273.8656485766
  0
ARC
  5
293
100
AcDbEntity
  8
0
100
AcDbCircle
 62
7
  6
BYLAYER
 10
12.8142235947
 20
32.6416900831
 40
11.1400372177
100
AcDbArc
 50
256.5541903914
 51
257.682541151
  0
ARC
  5
294
100
AcDbEntity
  8
0
100
AcDbCircle
 62
7
  6
BYLAYER
 10
13.3068784855
 20
32.5993434558
 40
11.0965994118
100
AcDbArc
 50
282.3155543136
 51
283.4483197957
  0
ARC
  5
295
100
AcDbEntity
  8
0
100
AcDbCircle
 62
7
  6
BYLAYER
 10
12.761675753
 20
32.419599996
 40
10.9118158532
100
AcDbArc
 50
255.7885538197
 51
256.5513858921
  0
ARC
  5
296
100
AcDbEntity
  8
0
100
AcDbCircle
 62
7
  6
BYLAYER
 10
13.3570007566
 20
32.3901139765
 40
10.8814501399
100
AcDbArc
 50
283.447857493
 51
284.2128166446
  0
ARC
  5
297
100
AcDbEntity
  8
0
100
AcDbCircle
 62
7
  6
BYLAYER
 10
12.775509607
 20
32.2585268236
 40
10.8368369413
100
AcDbArc
 50
255.2092462861
 51
257.8979469645
  0
ARC
  5
298
100
AcDbEntity
  8
0
100
AcDbCircle
 62
7
  6
BYLAYER
 10
13.3359246021
 20
32.2584583983
 40
10.8367665306
100
AcDbArc
 50
282.1023529151
 51
284.791064181
  0
ARC
  5
299
100
AcDbEntity
  8
0
100
AcDbCircle
 62
7
  6
BYLAYER
 10
12.7243831654
 20
32.271334159
 40
10.7589321291
100
AcDbArc
 50
255.4020322747
 51
255.7872324701
  0
ARC
  5
29A
100
AcDbEntity
  8
0
100
AcDbCircle
 62
7
  6
BYLAYER
 10
13.3870530155
 20
32.2712617279
 40
10.7588573471
100
AcDbArc
 50
284.2130761793
 51
284.5982781596
  0
ARC
  5
29B
100
AcDbEntity
  8
0
100
AcDbCircle
 62
7
  6
BYLAYER
 10
12.9174667513
 20
32.0903685888
 40
10.4805243319
100
AcDbArc
 50
258.7629927058
 51
259.4360971189
  0
ARC
  5
29C
100
AcDbEntity
  8
0
100
AcDbCircle
 62
7
  6
BYLAYER
 10
13.1996389376
 20
32.0582343955
 40
10.4478980887
100
AcDbArc
 50
280.6152757303
 51
281.2417967964
  0
ARC
  5
29D
100
AcDbEntity
  8
0
100
AcDbCircle
 62
7
  6
BYLAYER
 10
12.0205144511
 20
30.1990617163
 40
8.5683321086
100
AcDbArc
 50
246.1129589548
 51
247.4565023805
  0
ARC
  5
29E
100
AcDbEntity
  8
0
100
AcDbCircle
 62
7
  6
BYLAYER
 10
11.920111559
 20
29.9701663881
 40
8.3183861029
100
AcDbArc
 50
245.6495941675
 51
246.1068649769
  0
ARC
  5
29F
100
AcDbEntity
  8
0
100
AcDbCircle
 62
7
  6
BYLAYER
 10
11.949078531
 20
29.8479319465
 40
8.285312618
100
AcDbArc
 50
244.5320319847
 51
247.6919574138
  0
ARC
  5
2A0
100
AcDbEntity
  8
0
100
AcDbCircle
 62
7
  6
BYLAYER
 10
11.8587434598
 20
29.8347546825
 40
8.1697174523
100
AcDbArc
 50
244.7252298685
 51
245.6501302181
  0
ARC
  5
2A1
100
AcDbEntity
  8
0
100
AcDbCircle
 62
7
  6
BYLAYER
 10
13.4217132497
 20
28.8221955793
 40
7.5514861741
100
AcDbArc
 50
286.4289783897
 51
287.1053422568
  0
ARC
  5
2A2
100
AcDbEntity
  8
0
100
AcDbCircle
 62
7
  6
BYLAYER
 10
13.5006194941
 20
28.5708262998
 40
7.2880275661
100
AcDbArc
 50
287.0937010082
 51
289.0477283106
  0
ARC
  5
2A3
100
AcDbEntity
  8
0
100
AcDbCircle
 62
7
  6
BYLAYER
 10
12.4177610104
 20
28.0344182146
 40
6.7178791805
100
AcDbArc
 50
248.7351420527
 51
248.8765272608
  0
ARC
  5
2A4
100
AcDbEntity
  8
0
100
AcDbCircle
 62
7
  6
BYLAYER
 10
11.3844143752
 20
28.0441946405
 40
6.1326739535
100
AcDbArc
 50
237.0356448541
 51
240.3959091515
  0
ARC
  5
2A5
100
AcDbEntity
  8
0
100
AcDbCircle
 62
7
  6
BYLAYER
 10
10.6951053252
 20
27.8205036745
 40
5.8398999176
100
AcDbArc
 50
233.0533834123
 51
234.7875939197
  0
ARC
  5
2A6
100
AcDbEntity
  8
0
100
AcDbCircle
 62
7
  6
BYLAYER
 10
10.5629026281
 20
27.6430368906
 40
5.6186061234
100
AcDbArc
 50
232.4490488943
 51
233.0430408383
  0
ARC
  5
2A7
100
AcDbEntity
  8
0
100
AcDbCircle
 62
7
  6
BYLAYER
 10
10.4844508074
 20
27.5411240186
 40
5.4899946377
100
AcDbArc
 50
231.2446338099
 51
232.4499361848
  0
ARC
  5
2A8
100
AcDbEntity
  8
0
100
AcDbCircle
 62
7
  6
BYLAYER
 10
14.3862056236
 20
22.7966771323
 40
5.4709448475
100
AcDbArc
 50
299.395227774
 51
299.998931727
  0
ARC
  5
2A9
100
AcDbEntity
  8
0
100
AcDbCircle
 62
7
  6
BYLAYER
 10
14.3915243178
 20
21.6443892189
 40
5.4603314649
100
AcDbArc
 50
299.122589712
 51
299.9987842211
  0
ARC
  5
2AA
100
AcDbEntity
  8
0
100
AcDbCircle
 62
7
  6
BYLAYER
 10
14.3803339545
 20
21.4596087311
 40
5.3791266179
100
AcDbArc
 50
299.9989478443
 51
300.8675458351
  0
ARC
  5
2AB
100
AcDbEntity
  8
0
100
AcDbCircle
 62
7
  6
BYLAYER
 10
14.4524256871
 20
21.5392331096
 40
5.3388129243
100
AcDbArc
 50
299.9969956711
 51
300.8693202517
  0
ARC
  5
2AC
100
AcDbEntity
  8
0
100
AcDbCircle
 62
7
  6
BYLAYER
 10
14.4170113216
 20
26.5408417602
 40
5.0564602799
100
AcDbArc
 50
299.9943846394
 51
301.2644047256
  0
ARC
  5
2AD
100
AcDbEntity
  8
0
100
AcDbCircle
 62
7
  6
BYLAYER
 10
14.2501110768
 20
22.2222605293
 40
3.9808789896
100
AcDbArc
 50
299.952679142
 51
303.6533714122
  0
ARC
  5
2AE
100
AcDbEntity
  8
0
100
AcDbCircle
 62
7
  6
BYLAYER
 10
9.254533705
 20
26.2982323816
 40
3.7366776174
100
AcDbArc
 50
215.6729966673
 51
218.0085066461
  0
ARC
  5
2AF
100
AcDbEntity
  8
0
100
AcDbCircle
 62
7
  6
BYLAYER
 10
9.1240257999
 20
26.2035548534
 40
3.5754465104
100
AcDbArc
 50
214.0558364937
 51
215.6600917783
  0
ARC
  5
2B0
100
AcDbEntity
  8
0
100
AcDbCircle
 62
7
  6
BYLAYER
 10
9.042846266
 20
26.148269498
 40
3.4772300843
100
AcDbArc
 50
213.232268479
 51
214.05018634
  0
ARC
  5
2B1
100
AcDbEntity
  8
0
100
AcDbCircle
 62
7
  6
BYLAYER
 10
8.3250986046
 20
40.447424541
 40
3.2693898154
100
AcDbArc
 50
180.0000673093
 51
180.303776041
  0
ARC
  5
2B2
100
AcDbEntity
  8
0
100
AcDbCircle
 62
7
  6
BYLAYER
 10
9.4619647188
 20
24.6505877947
 40
2.8062810648
100
AcDbArc
 50
209.7144237799
 51
211.4572655052
  0
ARC
  5
2B3
100
AcDbEntity
  8
0
100
AcDbCircle
 62
7
  6
BYLAYER
 10
9.2587856314
 20
22.9344711785
 40
2.7082288755
100
AcDbArc
 50
160.5985533742
 51
163.312070671
  0
ARC
  5
2B4
100
AcDbEntity
  8
0
100
AcDbCircle
 62
7
  6
BYLAYER
 10
9.1765497221
 20
22.9582079049
 40
2.6226404337
100
AcDbArc
 50
163.292894773
 51
167.9595287499
  0
ARC
  5
2B5
100
AcDbEntity
  8
0
100
AcDbCircle
 62
7
  6
BYLAYER
 10
9.0849801987
 20
22.9765016638
 40
2.529269559
100
AcDbArc
 50
167.9321109928
 51
179.9545559247
  0
ARC
  5
2B6
100
AcDbEntity
  8
0
100
AcDbCircle
 62
7
  6
BYLAYER
 10
17.9655569832
 20
43.7986109007
 40
0.667703587
100
AcDbArc
 50
60.1147533674
 51
60.630073005
  0
ARC
  5
2B7
100
AcDbEntity
  8
0
100
AcDbCircle
 62
7
  6
BYLAYER
 10
75.5116173628
 20
123.8602348807
 40
113.9542144027
100
AcDbArc
 50
243.1145589247
 51
243.484405581
  0
ARC
  5
2B8
100
AcDbEntity
  8
0
100
AcDbCircle
 62
7
  6
BYLAYER
 10
28.338099707
 20
94.9219655918
 40
76.6884933749
100
AcDbArc
 50
268.8310894754
 51
269.04605755
  0
ARC
  5
2B9
100
AcDbEntity
  8
0
100
AcDbCircle
 62
7
  6
BYLAYER
 10
28.2793255948
 20
90.7672340251
 40
72.5333393507
100
AcDbArc
 50
269.1767286142
 51
269.3597765537
  0
ARC
  5
2BA
100
AcDbEntity
  8
0
100
AcDbCircle
 62
7
  6
BYLAYER
 10
26.0637973785
 20
45.3940201778
 40
27.1538654683
100
AcDbArc
 50
271.498014265
 51
272.0818199055
  0
ARC
  5
2BB
100
AcDbEntity
  8
0
100
AcDbCircle
 62
7
  6
BYLAYER
 10
26.0833549286
 20
44.9101378995
 40
26.6695917646
100
AcDbArc
 50
272.0994186005
 51
272.3752202872
  0
ARC
  5
2BC
100
AcDbEntity
  8
0
100
AcDbCircle
 62
7
  6
BYLAYER
 10
33.7405984141
 20
23.5966075769
 40
7.1683682328
100
AcDbArc
 50
130.9640443557
 51
131.3245191842
  0
ARC
  5
2BD
100
AcDbEntity
  8
0
100
AcDbCircle
 62
7
  6
BYLAYER
 10
28.6912897616
 20
28.2404364399
 40
6.690159905
100
AcDbArc
 50
1.6770039528
 51
1.9253714639
  0
ARC
  5
2BE
100
AcDbEntity
  8
0
100
AcDbCircle
 62
7
  6
BYLAYER
 10
28.7861617872
 20
27.4488240154
 40
5.0938909258
100
AcDbArc
 50
359.9976222219
 51
1.4844491286
  0
ARC
  5
2BF
100
AcDbEntity
  8
0
100
AcDbCircle
 62
7
  6
BYLAYER
 10
37.7854530195
 20
21.827926149
 40
3.7091294899
100
AcDbArc
 50
119.0572663051
 51
120.0032085189
  0
ARC
  5
2C0
100
AcDbEntity
  8
0
100
AcDbCircle
 62
7
  6
BYLAYER
 10
31.0305079066
 20
23.4264124946
 40
3.6911533319
100
AcDbArc
 50
179.9854479533
 51
181.9799510877
  0
ARC
  5
2C1
100
AcDbEntity
  8
0
100
AcDbCircle
 62
7
  6
BYLAYER
 10
32.001316922
 20
25.2803969435
 40
3.5899711966
100
AcDbArc
 50
117.381107577
 51
118.3559356959
  0
ARC
  5
2C2
100
AcDbEntity
  8
0
100
AcDbCircle
 62
7
  6
BYLAYER
 10
30.8995915409
 20
23.4221239386
 40
3.5601669654
100
AcDbArc
 50
181.9837674693
 51
182.5650744827
  0
ARC
  5
2C3
100
AcDbEntity
  8
0
100
AcDbCircle
 62
7
  6
BYLAYER
 10
30.6723710702
 20
29.0120377404
 40
3.5198385476
100
AcDbArc
 50
22.2313626203
 51
25.0517448381
  0
ARC
  5
2C4
100
AcDbEntity
  8
0
100
AcDbCircle
 62
7
  6
BYLAYER
 10
27.0375615891
 20
22.66949406
 40
3.480423259
100
AcDbArc
 50
274.8583749336
 51
277.7859660096
  0
ARC
  5
2C5
100
AcDbEntity
  8
0
100
AcDbCircle
 62
7
  6
BYLAYER
 10
35.1495737319
 20
21.3305433317
 40
3.2763709475
100
AcDbArc
 50
298.9238553087
 51
300.001176137
  0
ARC
  5
2C6
100
AcDbEntity
  8
0
100
AcDbCircle
 62
7
  6
BYLAYER
 10
38.2569032241
 20
21.4196729434
 40
3.237754598
100
AcDbArc
 50
118.9213244445
 51
120.0042462904
  0
ARC
  5
2C7
100
AcDbEntity
  8
0
100
AcDbCircle
 62
7
  6
BYLAYER
 10
35.3392418276
 20
21.3270808464
 40
3.0199577511
100
AcDbArc
 50
300.0160010711
 51
301.9745845352
  0
ARC
  5
2C8
100
AcDbEntity
  8
0
100
AcDbCircle
 62
7
  6
BYLAYER
 10
36.1428413143
 20
21.6515407591
 40
3.0
100
AcDbArc
 50
246.6009155248
 51
50.1888504912
  0
ARC
  5
2C9
100
AcDbEntity
  8
0
100
AcDbCircle
 62
7
  6
BYLAYER
 10
31.9968075816
 20
29.788248412
 40
2.9343945691
100
AcDbArc
 50
39.1138031587
 51
43.8013857219
  0
ARC
  5
2CA
100
AcDbEntity
  8
0
100
AcDbCircle
 62
7
  6
BYLAYER
 10
35.4196830571
 20
21.1032332638
 40
2.8565695875
100
AcDbArc
 50
297.8845356153
 51
298.9234780734
  0
ARC
  5
2CB
100
AcDbEntity
  8
0
100
AcDbCircle
 62
7
  6
BYLAYER
 10
26.467077559
 20
21.2822896474
 40
2.8452250451
100
AcDbArc
 50
252.2582214758
 51
256.4824376182
  0
ARC
  5
2CC
100
AcDbEntity
  8
0
100
AcDbCircle
 62
7
  6
BYLAYER
 10
31.6268528922
 20
30.21743258
 40
2.8422873515
100
AcDbArc
 50
42.2344584908
 51
47.7497788728
  0
ARC
  5
2CD
100
AcDbEntity
  8
0
100
AcDbCircle
 62
7
  6
BYLAYER
 10
35.8510487374
 20
20.0178502474
 40
1.605363858
100
AcDbArc
 50
277.4181948108
 51
278.8162820666
  0
ARC
  5
2CE
100
AcDbEntity
  8
0
100
AcDbCircle
 62
7
  6
BYLAYER
 10
35.8576138011
 20
19.9682761453
 40
1.5553570659
100
AcDbArc
 50
275.9928373487
 51
277.4141582032
  0
ARC
  5
2CF
100
AcDbEntity
  8
0
100
AcDbCircle
 62
7
  6
BYLAYER
 10
34.9711248038
 20
19.8202347349
 40
1.5462885644
100
AcDbArc
 50
266.1665842843
 51
268.5792152462
  0
ARC
  5
2D0
100
AcDbEntity
  8
0
100
AcDbCircle
 62
7
  6
BYLAYER
 10
28.8590218336
 20
22.7538186732
 40
1.3627535503
100
AcDbArc
 50
240.024818317
 51
248.4595190863
  0
ARC
  5
2D1
100
AcDbEntity
  8
0
100
AcDbCircle
 62
7
  6
BYLAYER
 10
31.5496172985
 20
27.4131214772
 40
1.3568648565
100
AcDbArc
 50
50.387583671
 51
59.9983817175
  0
SPLINE
  5
2D2
100
AcDbEntity
  8
0
100
AcDbSpline
 62
7
  6
BYLAYER
 70
0
 71
3
 72
28
 73
24
 74
0
 42
0.0000001
 43
0.0000001
 44
0.0000000001
 40
0.0
 40
0.0
 40
0.0
 40
0.0
 40
0.0298037913
 40
0.0604114535
 40
0.123793738
 40
0.1897696817
 40
0.257795069
 40
0.3272089382
 40
0.3972815977
 40
0.467249976
 40
0.5363565937
 40
0.6038863727
 40
0.6692064696
 40
0.7318065069
 40
0.7913419515
 40
0.8199224405
 40
0.8477056808
 40
0.8747134576
 40
0.900985112
 40
0.9265737864
 40
0.9515503256
 40
0.9759946914
 40
1.0
 40
1.0
 40
1.0
 40
1.0
 10
17.5483660199
 20
20.0955579872
 30
0.0
 10
17.4447367814
 20
20.0357279756
 30
0.0
 10
17.2310986489
 20
19.920561856
 30
0.0
 10
16.7813513435
 20
19.7085536176
 30
0.0
 10
16.1799609446
 20
19.4799405582
 30
0.0
 10
15.4155459467
 20
19.2672085652
 30
0.0
 10
14.6120805168
 20
19.115630479
 30
0.0
 10
13.7827526166
 20
19.0273688323
 30
0.0
 10
12.9412950736
 20
19.0036993117
 30
0.0
 10
12.1017499081
 20
19.0449793809
 30
0.0
 10
11.2781075263
 20
19.1505954752
 30
0.0
 10
10.4839823484
 20
19.3190126452
 30
0.0
 10
9.7322644982
 20
19.5479140053
 30
0.0
 10
9.0350004043
 20
19.8343235255
 30
0.0
 10
8.5011141519
 20
20.1221357542
 30
0.0
 10
8.1128804909
 20
20.3791376598
 30
0.0
 10
7.8459130083
 20
20.5814759595
 30
0.0
 10
7.6003866371
 20
20.7955304005
 30
0.0
 10
7.3774558872
 20
21.0208419485
 30
0.0
 10
7.1782972558
 20
21.2568901577
 30
0.0
 10
7.0041708433
 20
21.5030934603
 30
0.0
 10
6.8563502877
 20
21.7586320453
 30
0.0
 10
6.7756029761
 20
21.9360277226
 30
0.0
 10
6.7402524659
 20
22.0256906523
 30
0.0
  0
SPLINE
  5
2D3
100
AcDbEntity
  8
0
100
AcDbSpline
 62
7
  6
BYLAYER
 70
0
 71
3
 72
11
 73
7
 74
0
 42
0.0000001
 43
0.0000001
 44
0.0000000001
 40
0.0
 40
0.0
 40
0.0
 40
0.0
 40
0.252761164
 40
0.5031466535
 40
0.7519740822
 40
1.0
 40
1.0
 40
1.0
 40
1.0
 10
6.7402524659
 20
22.0256906523
 30
0.0
 10
6.7100932381
 20
22.1021864285
 30
0.0
 10
6.6567153323
 20
22.2571942063
 30
0.0
 10
6.5986263371
 20
22.4951819459
 30
0.0
 10
6.563533471
 20
22.7360810097
 30
0.0
 10
6.5556889085
 20
22.8978217775
 30
0.0
 10
6.5557114353
 20
22.9785077505
 30
0.0
  0
SPLINE
  5
2D4
100
AcDbEntity
  8
0
100
AcDbSpline
 62
7
  6
BYLAYER
 70
0
 71
3
 72
11
 73
7
 74
0
 42
0.0000001
 43
0.0000001
 44
0.0000000001
 40
0.0
 40
0.0
 40
0.0
 40
0.0
 40
0.2362377684
 40
0.4812177646
 40
0.7357726963
 40
1.0
 40
1.0
 40
1.0
 40
1.0
 10
18.8995251298
 20
21.2210883702
 30
0.0
 10
18.8128472553
 20
21.1121229386
 30
0.0
 10
18.6233992307
 20
20.9001691744
 30
0.0
 10
18.3023310452
 20
20.6077063313
 30
0.0
 10
17.9423728698
 20
20.3364373424
 30
0.0
 10
17.6832342199
 20
20.173423714
 30
0.0
 10
17.5483660199
 20
20.0955579872
 30
0.0
  0
SPLINE
  5
2D5
100
AcDbEntity
  8
0
100
AcDbSpline
 62
7
  6
BYLAYER
 70
0
 71
3
 72
16
 73
12
 74
0
 42
0.0000001
 43
0.0000001
 44
0.0000000001
 40
0.0
 40
0.0
 40
0.0
 40
0.0
 40
0.1094998152
 40
0.2208124612
 40
0.3356068377
 40
0.4552930099
 40
0.5173568779
 40
0.5810260371
 40
0.7134459595
 40
0.8530553416
 40
1.0
 40
1.0
 40
1.0
 40
1.0
 10
28.1781563303
 20
21.5733444442
 30
0.0
 10
28.1160306334
 20
21.6092066114
 30
0.0
 10
27.9963537372
 20
21.691738872
 30
0.0
 10
27.8365757884
 20
21.8439692541
 30
0.0
 10
27.6972593019
 20
22.0235939729
 30
0.0
 10
27.6002829439
 20
22.1926230098
 30
0.0
 10
27.533661718
 20
22.3390317507
 30
0.0
 10
27.4729560861
 20
22.4969753741
 30
0.0
 10
27.4119732313
 20
22.7087670688
 30
0.0
 10
27.3633746163
 20
22.9793059907
 30
0.0
 10
27.3473006584
 20
23.1666248664
 30
0.0
 10
27.342991735
 20
23.2627920768
 30
0.0
  0
SPLINE
  5
2D6
100
AcDbEntity
  8
0
100
AcDbSpline
 62
7
  6
BYLAYER
 70
0
 71
3
 72
23
 73
19
 74
0
 42
0.0000001
 43
0.0000001
 44
0.0000000001
 40
0.0
 40
0.0
 40
0.0
 40
0.0
 40
0.0558388372
 40
0.1141794414
 40
0.1747830686
 40
0.2373534307
 40
0.3015484385
 40
0.3669924017
 40
0.4332824898
 40
0.5000001776
 40
0.5667180081
 40
0.6330074461
 40
0.6984503481
 40
0.762646207
 40
0.8252149349
 40
0.8858163009
 40
0.9441724336
 40
1.0
 40
1.0
 40
1.0
 40
1.0
 10
27.3393526867
 20
23.2640497982
 30
0.0
 10
27.339351398
 20
23.3803131338
 30
0.0
 10
27.3496792308
 20
23.6181356812
 30
0.0
 10
27.3934747258
 20
23.979721935
 30
0.0
 10
27.4655144623
 20
24.3510364058
 30
0.0
 10
27.5651111139
 20
24.7285107352
 30
0.0
 10
27.6912874418
 20
25.1085664162
 30
0.0
 10
27.8428620565
 20
25.4875642167
 30
0.0
 10
28.0183738597
 20
25.8618873561
 30
0.0
 10
28.2161361297
 20
26.2279599735
 30
0.0
 10
28.4342791369
 20
26.5822642862
 30
0.0
 10
28.6706892015
 20
26.9214246487
 30
0.0
 10
28.9231183389
 20
27.2421930261
 30
0.0
 10
29.1891657127
 20
27.5414897195
 30
0.0
 10
29.4662586972
 20
27.8164817361
 30
0.0
 10
29.7518173513
 20
28.0645526545
 30
0.0
 10
30.0430770953
 20
28.2832612099
 30
0.0
 10
30.2438747387
 20
28.4111305449
 30
0.0
 10
30.3445415681
 20
28.469250219
 30
0.0
  0
SPLINE
  5
2D7
100
AcDbEntity
  8
0
100
AcDbSpline
 62
7
  6
BYLAYER
 70
0
 71
3
 72
15
 73
11
 74
0
 42
0.0000001
 43
0.0000001
 44
0.0000000001
 40
0.0
 40
0.0
 40
0.0
 40
0.0
 40
0.1476483426
 40
0.2877974047
 40
0.4205520183
 40
0.5463281429
 40
0.6658788678
 40
0.780318555
 40
0.8911113127
 40
1.0
 40
1.0
 40
1.0
 40
1.0
 10
33.8783431673
 20
27.5807844509
 30
0.0
 10
33.8748039852
 20
27.7165755183
 30
0.0
 10
33.8570323531
 20
27.9811565484
 30
0.0
 10
33.7953074475
 20
28.3637147881
 30
0.0
 10
33.6995833445
 20
28.7185514616
 30
0.0
 10
33.5705827863
 20
29.0425082646
 30
0.0
 10
33.4092251376
 20
29.3326500136
 30
0.0
 10
33.2166930552
 20
29.5862126056
 30
0.0
 10
32.9947013699
 20
29.8006002571
 30
0.0
 10
32.827693098
 20
29.9163064505
 30
0.0
 10
32.7409380763
 20
29.9663985708
 30
0.0
  0
SPLINE
  5
2D8
100
AcDbEntity
  8
0
100
AcDbSpline
 62
7
  6
BYLAYER
 70
0
 71
3
 72
16
 73
12
 74
0
 42
0.0000001
 43
0.0000001
 44
0.0000000001
 40
0.0
 40
0.0
 40
0.0
 40
0.0
 40
0.0544236895
 40
0.1090866833
 40
0.2199689084
 40
0.3344658673
 40
0.4540309294
 40
0.5797720563
 40
0.7124366456
 40
0.8524822666
 40
1.0
 40
1.0
 40
1.0
 40
1.0
 10
27.2410353348
 20
20.4400720761
 30
0.0
 10
27.2841170422
 20
20.4151968121
 30
0.0
 10
27.3725509922
 20
20.3688360462
 30
0.0
 10
27.5577784873
 20
20.2901598993
 30
0.0
 10
27.8048489787
 20
20.2188960375
 30
0.0
 10
28.1186862191
 20
20.1785985925
 30
0.0
 10
28.4485469945
 20
20.1830275595
 30
0.0
 10
28.7914207585
 20
20.2319139071
 30
0.0
 10
29.1443921999
 20
20.3246174695
 30
0.0
 10
29.5044233147
 20
20.4601915892
 30
0.0
 10
29.7411246449
 20
20.5754076224
 30
0.0
 10
29.8598565489
 20
20.6393238472
 30
0.0
  0
SPLINE
  5
2D9
100
AcDbEntity
  8
0
100
AcDbSpline
 62
7
  6
BYLAYER
 70
0
 71
3
 72
10
 73
6
 74
0
 42
0.0000001
 43
0.0000001
 44
0.0000000001
 40
0.0
 40
0.0
 40
0.0
 40
0.0
 40
0.4739879672
 40
0.7305695951
 40
1.0
 40
1.0
 40
1.0
 40
1.0
 10
27.5090646047
 20
19.2211566391
 30
0.0
 10
27.8062958483
 20
19.2616743723
 30
0.0
 10
28.2577082586
 20
19.3812276533
 30
0.0
 10
28.8412167765
 20
19.6270427309
 30
0.0
 10
29.1362032977
 20
19.7825064421
 30
0.0
 10
29.2838769804
 20
19.8677653736
 30
0.0
  0
SPLINE
  5
2DA
100
AcDbEntity
  8
0
100
AcDbSpline
 62
7
  6
BYLAYER
 70
0
 71
3
 72
11
 73
7
 74
0
 42
0.0000001
 43
0.0000001
 44
0.0000000001
 40
0.0
 40
0.0
 40
0.0
 40
0.0
 40
0.2651058499
 40
0.5183002901
 40
0.7621865643
 40
1.0
 40
1.0
 40
1.0
 40
1.0
 10
33.8654120768
 20
30.5030897726
 30
0.0
 10
33.8119924589
 20
30.6337378625
 30
0.0
 10
33.6926666822
 20
30.8834740577
 30
0.0
 10
33.4708177168
 20
31.2247441228
 30
0.0
 10
33.2122745029
 20
31.5202307241
 30
0.0
 10
33.0151615843
 20
31.6862056009
 30
0.0
 10
32.9121468232
 20
31.7598239671
 30
0.0
  0
SPLINE
  5
2DB
100
AcDbEntity
  8
0
100
AcDbSpline
 62
7
  6
BYLAYER
 70
0
 71
3
 72
11
 73
7
 74
0
 42
0.0000001
 43
0.0000001
 44
0.0000000001
 40
0.0
 40
0.0
 40
0.0
 40
0.0
 40
0.2378846644
 40
0.481974565
 40
0.7352190614
 40
1.0
 40
1.0
 40
1.0
 40
1.0
 10
25.8243186085
 20
19.372663247
 30
0.0
 10
25.9367561023
 20
19.3246419385
 30
0.0
 10
26.1723316127
 20
19.2446198349
 30
0.0
 10
26.5451540316
 20
19.1760707921
 30
0.0
 10
26.937541356
 20
19.1582011167
 30
0.0
 10
27.2036698036
 20
19.1795270574
 30
0.0
 10
27.3385092755
 20
19.1979082837
 30
0.0
  0
SPLINE
  5
2DC
100
AcDbEntity
  8
0
100
AcDbSpline
 62
7
  6
BYLAYER
 70
0
 71
3
 72
9
 73
5
 74
0
 42
0.0000001
 43
0.0000001
 44
0.0000000001
 40
0.0
 40
0.0
 40
0.0
 40
0.0
 40
0.4900610255
 40
1.0
 40
1.0
 40
1.0
 40
1.0
 10
29.2838769804
 20
19.8677653736
 30
0.0
 10
29.4309581207
 20
19.9526822027
 30
0.0
 10
29.7245094518
 20
20.1375307379
 30
0.0
 10
30.0045795593
 20
20.342119602
 30
0.0
 10
30.1439222301
 20
20.4508152131
 30
0.0
  0
SPLINE
  5
2DD
100
AcDbEntity
  8
0
100
AcDbSpline
 62
7
  6
BYLAYER
 70
0
 71
3
 72
13
 73
9
 74
0
 42
0.0000001
 43
0.0000001
 44
0.0000000001
 40
0.0
 40
0.0
 40
0.0
 40
0.0
 40
0.2766127385
 40
0.4085576504
 40
0.5359971858
 40
0.6588445334
 40
0.777088439
 40
1.0
 40
1.0
 40
1.0
 40
1.0
 10
34.179839291
 20
27.4238371363
 30
0.0
 10
34.2184038468
 20
27.6942715518
 30
0.0
 10
34.2561084396
 20
28.0969961959
 30
0.0
 10
34.2603062519
 20
28.6265409996
 30
0.0
 10
34.2405709247
 20
29.003743944
 30
0.0
 10
34.1980938625
 20
29.365518708
 30
0.0
 10
34.1130778318
 20
29.8159814203
 30
0.0
 10
34.013872187
 20
30.1399974798
 30
0.0
 10
33.9305575735
 20
30.3437599755
 30
0.0
  0
SPLINE
  5
2DE
100
AcDbEntity
  8
0
100
AcDbSpline
 62
7
  6
BYLAYER
 70
0
 71
3
 72
16
 73
12
 74
0
 42
0.0000001
 43
0.0000001
 44
0.0000000001
 40
0.0
 40
0.0
 40
0.0
 40
0.0
 40
0.146942766
 40
0.2865423657
 40
0.4189290695
 40
0.4825854555
 40
0.5446441076
 40
0.6643367733
 40
0.7791422788
 40
0.8904748143
 40
1.0
 40
1.0
 40
1.0
 40
1.0
 10
30.3502639815
 20
28.4681731873
 30
0.0
 10
30.4356044493
 20
28.5123673322
 30
0.0
 10
30.60563852
 20
28.5918432739
 30
0.0
 10
30.8638661008
 20
28.6846234324
 30
0.0
 10
31.0774272918
 20
28.737451993
 30
0.0
 10
31.2442795007
 20
28.7636584939
 30
0.0
 10
31.4041253442
 20
28.7790123181
 30
0.0
 10
31.5986858817
 20
28.7794538696
 30
0.0
 10
31.82353761
 20
28.748517876
 30
0.0
 10
32.0349360157
 20
28.6863108218
 30
0.0
 10
32.1660446457
 20
28.6239934499
 30
0.0
 10
32.2280829158
 20
28.58818175
 30
0.0
  0
SPLINE
  5
2DF
100
AcDbEntity
  8
0
100
AcDbSpline
 62
7
  6
BYLAYER
 70
0
 71
3
 72
34
 73
30
 74
0
 42
0.0000001
 43
0.0000001
 44
0.0000000001
 40
0.0
 40
0.0
 40
0.0
 40
0.0
 40
0.0213259445
 40
0.042880138
 40
0.0648791782
 40
0.0875172689
 40
0.1109600412
 40
0.1353397365
 40
0.1607555822
 40
0.187273335
 40
0.2149294252
 40
0.2437317663
 40
0.2736651042
 40
0.3046914725
 40
0.3367555747
 40
0.3697845689
 40
0.4036930983
 40
0.4383826455
 40
0.5096484126
 40
0.5826514387
 40
0.6563615153
 40
0.7297172151
 40
0.8016726395
 40
0.8368244834
 40
0.871264801
 40
0.9048880964
 40
0.9376075198
 40
0.969341533
 40
1.0
 40
1.0
 40
1.0
 40
1.0
 10
26.5339266444
 20
20.8483146084
 30
0.0
 10
26.4663561021
 20
20.8873297709
 30
0.0
 10
26.3353648083
 20
20.9745789077
 30
0.0
 10
26.1555846297
 20
21.1304797723
 30
0.0
 10
25.9930157477
 20
21.3107711242
 30
0.0
 10
25.848566517
 20
21.5143416709
 30
0.0
 10
25.7229721551
 20
21.7400185954
 30
0.0
 10
25.6168388498
 20
21.9865207113
 30
0.0
 10
25.5306934017
 20
22.2524978619
 30
0.0
 10
25.4649268131
 20
22.5365047921
 30
0.0
 10
25.4198737948
 20
22.8370198513
 30
0.0
 10
25.3957220241
 20
23.1524333968
 30
0.0
 10
25.3926070733
 20
23.4810586251
 30
0.0
 10
25.4105041897
 20
23.821138529
 30
0.0
 10
25.4493375851
 20
24.170847021
 30
0.0
 10
25.5088629881
 20
24.5283102779
 30
0.0
 10
25.5887867807
 20
24.8916080264
 30
0.0
 10
25.7231352531
 20
25.3855529805
 30
0.0
 10
25.9396913452
 20
26.0045157788
 30
0.0
 10
26.2685321375
 20
26.7321296044
 30
0.0
 10
26.6617378496
 20
27.4358778364
 30
0.0
 10
27.1108683549
 20
28.1006522282
 30
0.0
 10
27.5270697369
 20
28.6144586038
 30
0.0
 10
27.8802209611
 20
28.9934728642
 30
0.0
 10
28.1506206831
 20
29.2573083045
 30
0.0
 10
28.4271636518
 20
29.5014524339
 30
0.0
 10
28.7083732185
 20
29.724635761
 30
0.0
 10
28.9927063513
 20
29.9255675686
 30
0.0
 10
29.1867344582
 20
30.0461544456
 30
0.0
 10
29.2838769804
 20
30.1022393722
 30
0.0
  0
SPLINE
  5
2E0
100
AcDbEntity
  8
0
100
AcDbSpline
 62
7
  6
BYLAYER
 70
0
 71
3
 72
14
 73
10
 74
0
 42
0.0000001
 43
0.0000001
 44
0.0000000001
 40
0.0
 40
0.0
 40
0.0
 40
0.0
 40
0.1199264952
 40
0.240164947
 40
0.3613296949
 40
0.4840088576
 40
0.6087550186
 40
0.7360755298
 40
1.0
 40
1.0
 40
1.0
 40
1.0
 10
25.678712593
 20
19.5727576975
 30
0.0
 10
25.7368653818
 20
19.5356951886
 30
0.0
 10
25.8566614665
 20
19.4665684284
 30
0.0
 10
26.0453051225
 20
19.3788888153
 30
0.0
 10
26.2423884168
 20
19.3074889067
 30
0.0
 10
26.4473348345
 20
19.252516909
 30
0.0
 10
26.6596286953
 20
19.2141250093
 30
0.0
 10
26.9551117389
 20
19.184823561
 30
0.0
 10
27.1811129069
 20
19.1887434332
 30
0.0
 10
27.3323292896
 20
19.2015756549
 30
0.0
  0
SPLINE
  5
2E1
100
AcDbEntity
  8
0
100
AcDbSpline
 62
7
  6
BYLAYER
 70
0
 71
3
 72
17
 73
13
 74
0
 42
0.0000001
 43
0.0000001
 44
0.0000000001
 40
0.0
 40
0.0
 40
0.0
 40
0.0
 40
0.148551117
 40
0.2894533027
 40
0.4226432614
 40
0.5485364677
 40
0.6678743629
 40
0.781790457
 40
0.8372254374
 40
0.8919100431
 40
0.9460843741
 40
1.0
 40
1.0
 40
1.0
 40
1.0
 10
29.2838769804
 20
30.1022393722
 30
0.0
 10
29.4079151005
 20
30.1738523868
 30
0.0
 10
29.655547893
 20
30.3034806292
 30
0.0
 10
30.0332664857
 20
30.4580898822
 30
0.0
 10
30.4042641967
 20
30.5662479809
 30
0.0
 10
30.7650292609
 20
30.6267525321
 30
0.0
 10
31.1121634326
 20
30.63885074
 30
0.0
 10
31.3899753705
 20
30.607848867
 30
0.0
 10
31.6004359419
 20
30.5583272801
 30
0.0
 10
31.7513400903
 20
30.5095442523
 30
0.0
 10
31.8962884997
 20
30.4489204953
 30
0.0
 10
31.9888095341
 20
30.4006307693
 30
0.0
 10
32.0338273164
 20
30.3746375476
 30
0.0
  0
SPLINE
  5
2E2
100
AcDbEntity
  8
0
100
AcDbSpline
 62
7
  6
BYLAYER
 70
0
 71
3
 72
9
 73
5
 74
0
 42
0.0000001
 43
0.0000001
 44
0.0000000001
 40
0.0
 40
0.0
 40
0.0
 40
0.0
 40
0.4866484486
 40
1.0
 40
1.0
 40
1.0
 40
1.0
 10
29.9909867055
 20
29.6939986177
 30
0.0
 10
29.8263289533
 20
29.5989339876
 30
0.0
 10
29.4985314644
 20
29.3849567229
 30
0.0
 10
29.1925715527
 20
29.1410792425
 30
0.0
 10
29.0411216754
 20
29.0095939527
 30
0.0
  0
SPLINE
  5
2E3
100
AcDbEntity
  8
0
100
AcDbSpline
 62
7
  6
BYLAYER
 70
0
 71
3
 72
22
 73
18
 74
0
 42
0.0000001
 43
0.0000001
 44
0.0000000001
 40
0.0
 40
0.0
 40
0.0
 40
0.0
 40
0.0618403644
 40
0.1253399528
 40
0.1901877708
 40
0.2560520921
 40
0.3225859055
 40
0.3894287708
 40
0.5225375703
 40
0.5881288982
 40
0.6525998773
 40
0.7156259355
 40
0.7769096592
 40
0.8361853716
 40
0.8932310434
 40
0.947873421
 40
1.0
 40
1.0
 40
1.0
 40
1.0
 10
29.007159253
 20
28.9799203887
 30
0.0
 10
28.8918662281
 20
28.8785465459
 30
0.0
 10
28.6647011412
 20
28.6655615426
 30
0.0
 10
28.3398125829
 20
28.3226199462
 30
0.0
 10
28.0283906104
 20
27.9542159981
 30
0.0
 10
27.7329692391
 20
27.5634048947
 30
0.0
 10
27.4559548814
 20
27.1533274698
 30
0.0
 10
27.1147352528
 20
26.586295006
 30
0.0
 10
26.8191449907
 20
25.9954108229
 30
0.0
 10
26.5745822644
 20
25.3893068645
 30
0.0
 10
26.4198862755
 20
24.9353197865
 30
0.0
 10
26.2943118134
 20
24.4835219841
 30
0.0
 10
26.1988613065
 20
24.0375661342
 30
0.0
 10
26.134350659
 20
23.6010714173
 30
0.0
 10
26.1012774058
 20
23.177562904
 30
0.0
 10
26.0999510247
 20
22.7705009292
 30
0.0
 10
26.120764502
 20
22.5058666153
 30
0.0
 10
26.1368589286
 20
22.377463974
 30
0.0
  0
SPLINE
  5
2E4
100
AcDbEntity
  8
0
100
AcDbSpline
 62
7
  6
BYLAYER
 70
0
 71
3
 72
15
 73
11
 74
0
 42
0.0000001
 43
0.0000001
 44
0.0000000001
 40
0.0
 40
0.0
 40
0.0
 40
0.0
 40
0.1439711687
 40
0.2813726192
 40
0.4124992101
 40
0.5378578665
 40
0.6582000252
 40
0.7745082297
 40
0.8879850885
 40
1.0
 40
1.0
 40
1.0
 40
1.0
 10
26.1368589286
 20
22.377463974
 30
0.0
 10
26.1506521462
 20
22.2674205653
 30
0.0
 10
26.1861377727
 20
22.0532879221
 30
0.0
 10
26.2658720316
 20
21.7452393414
 30
0.0
 10
26.3703526314
 20
21.4598059836
 30
0.0
 10
26.4990517426
 20
21.1989381311
 30
0.0
 10
26.6511600067
 20
20.9643905319
 30
0.0
 10
26.8258283342
 20
20.7578564989
 30
0.0
 10
27.0218356476
 20
20.5808738233
 30
0.0
 10
27.1663094281
 20
20.4832186172
 30
0.0
 10
27.2410353348
 20
20.4400720761
 30
0.0
  0
SPLINE
  5
2E5
100
AcDbEntity
  8
0
100
AcDbSpline
 62
7
  6
BYLAYER
 70
0
 71
3
 72
39
 73
35
 74
0
 42
0.0000001
 43
0.0000001
 44
0.0000000001
 40
0.0
 40
0.0
 40
0.0
 40
0.0
 40
0.0324611533
 40
0.0663277646
 40
0.1014504364
 40
0.1376859757
 40
0.1748617393
 40
0.21278124
 40
0.2512370415
 40
0.2900129254
 40
0.3288845256
 40
0.3676269935
 40
0.4060176405
 40
0.4438404723
 40
0.480889099
 40
0.5169721412
 40
0.5519175276
 40
0.5855764311
 40
0.6178312064
 40
0.6485983969
 40
0.6778389361
 40
0.7055639219
 40
0.7318428981
 40
0.7568131101
 40
0.7806815402
 40
0.8037266745
 40
0.8262867352
 40
0.8487390117
 40
0.8714695199
 40
0.8948414045
 40
0.9191687407
 40
0.9446989656
 40
0.9716051858
 40
1.0
 40
1.0
 40
1.0
 40
1.0
 10
30.3445415681
 20
29.0816270318
 30
0.0
 10
30.2322299117
 20
29.0167842538
 30
0.0
 10
30.0081347405
 20
28.8747779511
 30
0.0
 10
29.6823757872
 20
28.6330972236
 30
0.0
 10
29.3623636192
 20
28.3600100623
 30
0.0
 10
29.0508947243
 20
28.0579534338
 30
0.0
 10
28.7505817572
 20
27.7295197311
 30
0.0
 10
28.4640499372
 20
27.3775024299
 30
0.0
 10
28.193739065
 20
27.0049659445
 30
0.0
 10
27.9420000046
 20
26.615106963
 30
0.0
 10
27.7109982956
 20
26.2112962509
 30
0.0
 10
27.5027215614
 20
25.7970275491
 30
0.0
 10
27.3189943432
 20
25.375863124
 30
0.0
 10
27.1613631634
 20
24.9514529799
 30
0.0
 10
27.0312245271
 20
24.5274403015
 30
0.0
 10
26.9296784727
 20
24.1074837368
 30
0.0
 10
26.8576021291
 20
23.6951909353
 30
0.0
 10
26.8156489421
 20
23.2940921565
 30
0.0
 10
26.8041524795
 20
22.907621715
 30
0.0
 10
26.8232892873
 20
22.5390689732
 30
0.0
 10
26.8729131131
 20
22.1915685871
 30
0.0
 10
26.952693068
 20
21.8680728535
 30
0.0
 10
27.0620957054
 20
21.5713637907
 30
0.0
 10
27.2003034699
 20
21.3040214094
 30
0.0
 10
27.366363705
 20
21.0685163208
 30
0.0
 10
27.5589263082
 20
20.8671080948
 30
0.0
 10
27.7763367596
 20
20.7018775896
 30
0.0
 10
28.016516238
 20
20.5745743253
 30
0.0
 10
28.2770241537
 20
20.4863901085
 30
0.0
 10
28.5552864716
 20
20.4380877297
 30
0.0
 10
28.8486509047
 20
20.4298302915
 30
0.0
 10
29.1544984213
 20
20.4614713262
 30
0.0
 10
29.4701855615
 20
20.5325058403
 30
0.0
 10
29.6797895762
 20
20.6037156657
 30
0.0
 10
29.785389361
 20
20.6451579453
 30
0.0
  0
SPLINE
  5
2E6
100
AcDbEntity
  8
0
100
AcDbSpline
 62
7
  6
BYLAYER
 70
0
 71
3
 72
21
 73
17
 74
0
 42
0.0000001
 43
0.0000001
 44
0.0000000001
 40
0.0
 40
0.0
 40
0.0
 40
0.0
 40
0.0595783955
 40
0.1174951557
 40
0.1741698788
 40
0.2300755048
 40
0.2857164194
 40
0.3416109695
 40
0.3982647925
 40
0.4561519442
 40
0.5156916835
 40
0.5772440805
 40
0.707343409
 40
0.7763811739
 40
0.8481718315
 40
1.0
 40
1.0
 40
1.0
 40
1.0
 10
28.9647118871
 20
21.119747979
 30
0.0
 10
28.9048654384
 20
21.1209132058
 30
0.0
 10
28.7868526177
 20
21.1290378005
 30
0.0
 10
28.6142129399
 20
21.1595910736
 30
0.0
 10
28.4495837679
 20
21.2082677135
 30
0.0
 10
28.2938022931
 20
21.2748121008
 30
0.0
 10
28.1476613681
 20
21.3589355833
 30
0.0
 10
28.0119090143
 20
21.4602113428
 30
0.0
 10
27.8871940861
 20
21.5780938748
 30
0.0
 10
27.7741502602
 20
21.7120039805
 30
0.0
 10
27.6732385052
 20
21.8612364904
 30
0.0
 10
27.5533613848
 20
22.0837086422
 30
0.0
 10
27.4625253843
 20
22.3310367371
 30
0.0
 10
27.3992330345
 20
22.5959392661
 30
0.0
 10
27.3521200918
 20
22.8863998931
 30
0.0
 10
27.3393543776
 20
23.1115096241
 30
0.0
 10
27.3393526867
 20
23.2640497982
 30
0.0
  0
SPLINE
  5
2E7
100
AcDbEntity
  8
0
100
AcDbSpline
 62
7
  6
BYLAYER
 70
0
 71
3
 72
22
 73
18
 74
0
 42
0.0000001
 43
0.0000001
 44
0.0000000001
 40
0.0
 40
0.0
 40
0.0
 40
0.0
 40
0.0772909091
 40
0.1518810697
 40
0.292614933
 40
0.3589760388
 40
0.4228253234
 40
0.4843775662
 40
0.5439155047
 40
0.6017998003
 40
0.6584506758
 40
0.7143413596
 40
0.7699761363
 40
0.8258728587
 40
0.8825363042
 40
0.9404393693
 40
1.0
 40
1.0
 40
1.0
 40
1.0
 10
30.3445415681
 20
28.469250219
 30
0.0
 10
30.4117696564
 20
28.5080641422
 30
0.0
 10
30.546154919
 20
28.5805168846
 30
0.0
 10
30.8132335423
 20
28.7034154367
 30
0.0
 10
31.0819674359
 20
28.7957755431
 30
0.0
 10
31.3484234456
 20
28.8523636997
 30
0.0
 10
31.5398362139
 20
28.8759879667
 30
0.0
 10
31.7257886535
 20
28.8815090568
 30
0.0
 10
31.9054158858
 20
28.8687971199
 30
0.0
 10
32.0778577237
 20
28.837931955
 30
0.0
 10
32.2422633694
 20
28.7889615605
 30
0.0
 10
32.397820049
 20
28.7221448019
 30
0.0
 10
32.5437298774
 20
28.6377690064
 30
0.0
 10
32.6792492744
 20
28.5362659464
 30
0.0
 10
32.8037321403
 20
28.4181755119
 30
0.0
 10
32.9165381487
 20
28.2840944572
 30
0.0
 10
32.9826101146
 20
28.1860590466
 30
0.0
 10
33.0135595213
 20
28.1348669412
 30
0.0
  0
SPLINE
  5
2E8
100
AcDbEntity
  8
0
100
AcDbSpline
 62
7
  6
BYLAYER
 70
0
 71
3
 72
15
 73
11
 74
0
 42
0.0000001
 43
0.0000001
 44
0.0000000001
 40
0.0
 40
0.0
 40
0.0
 40
0.0
 40
0.134147582
 40
0.2644411913
 40
0.3914041637
 40
0.5156449941
 40
0.6378557285
 40
0.7587863611
 40
0.8792315204
 40
1.0
 40
1.0
 40
1.0
 40
1.0
 10
33.8610834232
 20
30.5024661793
 30
0.0
 10
33.8239892707
 20
30.5817472968
 30
0.0
 10
33.7447702868
 20
30.7352817217
 30
0.0
 10
33.6089723783
 20
30.9519272922
 30
0.0
 10
33.4584846936
 20
31.1506419375
 30
0.0
 10
33.293764771
 20
31.3306679886
 30
0.0
 10
33.1154134606
 20
31.4914039867
 30
0.0
 10
32.9239992474
 20
31.6322306628
 30
0.0
 10
32.7202407
 20
31.7526388356
 30
0.0
 10
32.5770984196
 20
31.8188175381
 30
0.0
 10
32.5040208776
 20
31.8482985659
 30
0.0
  0
SPLINE
  5
2E9
100
AcDbEntity
  8
0
100
AcDbSpline
 62
7
  6
BYLAYER
 70
0
 71
3
 72
23
 73
19
 74
0
 42
0.0000001
 43
0.0000001
 44
0.0000000001
 40
0.0
 40
0.0
 40
0.0
 40
0.0
 40
0.069580422
 40
0.1357132226
 40
0.1986176853
 40
0.2586594487
 40
0.3163524395
 40
0.3723514826
 40
0.4274279105
 40
0.4824196523
 40
0.5381700932
 40
0.5954677956
 40
0.6549952264
 40
0.7172960538
 40
0.7827575602
 40
0.8516405146
 40
0.9240793586
 40
1.0
 40
1.0
 40
1.0
 40
1.0
 10
33.8355109385
 20
27.6606456232
 30
0.0
 10
33.8194672925
 20
27.7669801859
 30
0.0
 10
33.7789966329
 20
27.9731619087
 30
0.0
 10
33.689976006
 20
28.267507698
 30
0.0
 10
33.5747085975
 20
28.5367627295
 30
0.0
 10
33.4339866659
 20
28.7787641729
 30
0.0
 10
33.268754367
 20
28.9915099155
 30
0.0
 10
33.0802097289
 20
29.1731182824
 30
0.0
 10
32.8698877273
 20
29.3219625848
 30
0.0
 10
32.6395658025
 20
29.4366187772
 30
0.0
 10
32.3913359145
 20
29.51619023
 30
0.0
 10
32.1273515617
 20
29.5600484636
 30
0.0
 10
31.849842327
 20
29.568065935
 30
0.0
 10
31.5610303561
 20
29.5403354703
 30
0.0
 10
31.263134135
 20
29.4772590412
 30
0.0
 10
30.95836597
 20
29.3794030858
 30
0.0
 10
30.6491241931
 20
29.2475810611
 30
0.0
 10
30.4461585641
 20
29.1402952816
 30
0.0
 10
30.3445415681
 20
29.0816270318
 30
0.0
  0
SPLINE
  5
2EA
100
AcDbEntity
  8
0
100
AcDbSpline
 62
7
  6
BYLAYER
 70
0
 71
3
 72
17
 73
13
 74
0
 42
0.0000001
 43
0.0000001
 44
0.0000000001
 40
0.0
 40
0.0
 40
0.0
 40
0.0
 40
0.0539155025
 40
0.1080897043
 40
0.1627742498
 40
0.2182093318
 40
0.3321260547
 40
0.4514642493
 40
0.5773573564
 40
0.7105470766
 40
0.851448972
 40
1.0
 40
1.0
 40
1.0
 40
1.0
 10
32.7409380763
 20
29.9663985708
 30
0.0
 10
32.6959203503
 20
29.9923916868
 30
0.0
 10
32.6033994629
 20
30.0406812362
 30
0.0
 10
32.4584512778
 20
30.1013048797
 30
0.0
 10
32.3075471311
 20
30.1500878242
 30
0.0
 10
32.0970857606
 20
30.1996091832
 30
0.0
 10
31.8192727148
 20
30.2306107049
 30
0.0
 10
31.4721376088
 20
30.2185126177
 30
0.0
 10
31.111372594
 20
30.1580071477
 30
0.0
 10
30.7403754335
 20
30.0498489812
 30
0.0
 10
30.3626572956
 20
29.8952398137
 30
0.0
 10
30.1150247928
 20
29.7656116133
 30
0.0
 10
29.9909867055
 20
29.6939986177
 30
0.0
  0
SPLINE
  5
2EB
100
AcDbEntity
  8
0
100
AcDbSpline
 62
7
  6
BYLAYER
 70
0
 71
3
 72
15
 73
11
 74
0
 42
0.0000001
 43
0.0000001
 44
0.0000000001
 40
0.0
 40
0.0
 40
0.0
 40
0.0
 40
0.1485416375
 40
0.2895054488
 40
0.4227354574
 40
0.5486409799
 40
0.6679987046
 40
0.7819402549
 40
0.8919881463
 40
1.0
 40
1.0
 40
1.0
 40
1.0
 10
36.8499510395
 20
23.7744574977
 30
0.0
 10
36.9198456756
 20
23.8148109438
 30
0.0
 10
37.0594265561
 20
23.8878577734
 30
0.0
 10
37.2723170966
 20
23.9750304727
 30
0.0
 10
37.4814496898
 20
24.0359868822
 30
0.0
 10
37.6847838442
 20
24.0700994086
 30
0.0
 10
37.8804541382
 20
24.076891109
 30
0.0
 10
38.0665874687
 20
24.0561500759
 30
0.0
 10
38.2411877712
 20
24.0078582789
 30
0.0
 10
38.3490990542
 20
23.957333683
 30
0.0
 10
38.3999203433
 20
23.9279863945
 30
0.0
  0
SPLINE
  5
2EC
100
AcDbEntity
  8
0
100
AcDbSpline
 62
7
  6
BYLAYER
 70
0
 71
3
 72
12
 73
8
 74
0
 42
0.0000001
 43
0.0000001
 44
0.0000000001
 40
0.0
 40
0.0
 40
0.0
 40
0.0
 40
0.2641778064
 40
0.5163236297
 40
0.7600489989
 40
0.880181241
 40
1.0
 40
1.0
 40
1.0
 40
1.0
 10
35.3266636947
 20
18.1739490467
 30
0.0
 10
35.20428368
 20
18.1414004048
 30
0.0
 10
34.9597697398
 20
18.0954004246
 30
0.0
 10
34.5934396444
 20
18.0918356052
 30
0.0
 10
34.3011302682
 20
18.1483275056
 30
0.0
 10
34.0834418495
 20
18.2292375946
 30
0.0
 10
33.9804832056
 20
18.281174521
 30
0.0
 10
33.9307423308
 20
18.3098917787
 30
0.0
  0
SPLINE
  5
2ED
100
AcDbEntity
  8
0
100
AcDbSpline
 62
7
  6
BYLAYER
 70
0
 71
3
 72
14
 73
10
 74
0
 42
0.0000001
 43
0.0000001
 44
0.0000000001
 40
0.0
 40
0.0
 40
0.0
 40
0.0
 40
0.1199269514
 40
0.2400970731
 40
0.3612586668
 40
0.4840471813
 40
0.60893512
 40
0.7362949625
 40
1.0
 40
1.0
 40
1.0
 40
1.0
 10
37.9306744627
 20
25.2381341922
 30
0.0
 10
37.9797978765
 20
25.2097734177
 30
0.0
 10
38.0750628288
 20
25.1474591979
 30
0.0
 10
38.2071641887
 20
25.0385801797
 30
0.0
 10
38.3277311519
 20
24.9151428222
 30
0.0
 10
38.4362113612
 20
24.7781484702
 30
0.0
 10
38.5323019889
 20
24.6287072053
 30
0.0
 10
38.6446788808
 20
24.4117923902
 30
0.0
 10
38.7076334636
 20
24.2367012318
 30
0.0
 10
38.7410817677
 20
24.1165438664
 30
0.0
  0
SPLINE
  5
2EE
100
AcDbEntity
  8
0
100
AcDbSpline
 62
7
  6
BYLAYER
 70
0
 71
3
 72
15
 73
11
 74
0
 42
0.0000001
 43
0.0000001
 44
0.0000000001
 40
0.0
 40
0.0
 40
0.0
 40
0.0
 40
0.1401677705
 40
0.2749391602
 40
0.4044492717
 40
0.5293399812
 40
0.6504074402
 40
0.7685795503
 40
0.8846947026
 40
1.0
 40
1.0
 40
1.0
 40
1.0
 10
36.7341802012
 20
18.462856298
 30
0.0
 10
36.6550470492
 20
18.4191366855
 30
0.0
 10
36.4961056723
 20
18.3398651062
 30
0.0
 10
36.2523273578
 20
18.2458385262
 30
0.0
 10
36.0094253969
 20
18.1805133857
 30
0.0
 10
35.7692070805
 20
18.1452921149
 30
0.0
 10
35.5336487673
 20
18.1415838802
 30
0.0
 10
35.3054509834
 20
18.1707426366
 30
0.0
 10
35.0879016567
 20
18.2333330947
 30
0.0
 10
34.9522554207
 20
18.2974812673
 30
0.0
 10
34.8878478142
 20
18.3346661751
 30
0.0
  0
SPLINE
  5
2EF
100
AcDbEntity
  8
0
100
AcDbSpline
 62
7
  6
BYLAYER
 70
0
 71
3
 72
18
 73
14
 74
0
 42
0.0000001
 43
0.0000001
 44
0.0000000001
 40
0.0
 40
0.0
 40
0.0
 40
0.0
 40
0.0546075509
 40
0.1092907956
 40
0.1643938559
 40
0.2201976891
 40
0.2768992195
 40
0.334657931
 40
0.4540794766
 40
0.5798942396
 40
0.712830126
 40
0.8530064367
 40
1.0
 40
1.0
 40
1.0
 40
1.0
 10
38.3877884296
 20
24.3968782869
 30
0.0
 10
38.432052463
 20
24.3713230134
 30
0.0
 10
38.5178377876
 20
24.3151379838
 30
0.0
 10
38.6366281442
 20
24.2168741237
 30
0.0
 10
38.7448043069
 20
24.1054604025
 30
0.0
 10
38.841876173
 20
23.981879611
 30
0.0
 10
38.9275562602
 20
23.8472061898
 30
0.0
 10
39.0272539049
 20
23.6520099198
 30
0.0
 10
39.121879324
 20
23.3831499915
 30
0.0
 10
39.1875307772
 20
23.0341916031
 30
0.0
 10
39.2078793165
 20
22.6604033762
 30
0.0
 10
39.1840949524
 20
22.2671849406
 30
0.0
 10
39.1406107738
 20
22.0014438631
 30
0.0
 10
39.112286948
 20
21.8668083069
 30
0.0
  0
SPLINE
  5
2F0
100
AcDbEntity
  8
0
100
AcDbSpline
 62
7
  6
BYLAYER
 70
0
 71
3
 72
9
 73
5
 74
0
 42
0.0000001
 43
0.0000001
 44
0.0000000001
 40
0.0
 40
0.0
 40
0.0
 40
0.0
 40
0.509463571
 40
1.0
 40
1.0
 40
1.0
 40
1.0
 10
37.2748457751
 20
18.8303801036
 30
0.0
 10
37.1966355917
 20
18.7669849968
 30
0.0
 10
37.0386230038
 20
18.6479767592
 30
0.0
 10
36.8717668962
 20
18.5416244331
 30
0.0
 10
36.7878174504
 20
18.4931564873
 30
0.0
  0
SPLINE
  5
2F1
100
AcDbEntity
  8
0
100
AcDbSpline
 62
7
  6
BYLAYER
 70
0
 71
3
 72
25
 73
21
 74
0
 42
0.0000001
 43
0.0000001
 44
0.0000000001
 40
0.0
 40
0.0
 40
0.0
 40
0.0
 40
0.0213322637
 40
0.0428927806
 40
0.0648987181
 40
0.0875435082
 40
0.135319483
 40
0.1872207236
 40
0.24365815
 40
0.3046057609
 40
0.3696936132
 40
0.4382908366
 40
0.5095768828
 40
0.5826009096
 40
0.6563320516
 40
0.7297075268
 40
0.8016850364
 40
0.8712728393
 40
0.9376232595
 40
1.0
 40
1.0
 40
1.0
 40
1.0
 10
35.2999817356
 20
18.5586136147
 30
0.0
 10
35.2618973924
 20
18.5806058196
 30
0.0
 10
35.1880685739
 20
18.6297860327
 30
0.0
 10
35.086725547
 20
18.7176436027
 30
0.0
 10
34.99510829
 20
18.8192837051
 30
0.0
 10
34.884603836
 20
18.9749659032
 30
0.0
 10
34.7740135638
 20
19.2037591131
 30
0.0
 10
34.6897007613
 20
19.5158925905
 30
0.0
 10
34.6521260397
 20
19.8640873459
 30
0.0
 10
34.6617216548
 20
20.2410925645
 30
0.0
 10
34.718069677
 20
20.6391581339
 30
0.0
 10
34.819908201
 20
21.0499561581
 30
0.0
 10
34.9650486268
 20
21.4648230232
 30
0.0
 10
35.1504015357
 20
21.8749494968
 30
0.0
 10
35.3720161401
 20
22.2715950724
 30
0.0
 10
35.6251710227
 20
22.646303629
 30
0.0
 10
35.9044677124
 20
22.9910600098
 30
0.0
 10
36.2039778362
 20
23.2986083552
 30
0.0
 10
36.517324743
 20
23.5622807833
 30
0.0
 10
36.7385847918
 20
23.7101605485
 30
0.0
 10
36.8499510395
 20
23.7744574977
 30
0.0
  0
SPLINE
  5
2F2
100
AcDbEntity
  8
0
100
AcDbSpline
 62
7
  6
BYLAYER
 70
0
 71
3
 72
10
 73
6
 74
0
 42
0.0000001
 43
0.0000001
 44
0.0000000001
 40
0.0
 40
0.0
 40
0.0
 40
0.0
 40
0.2501582799
 40
0.6268048469
 40
1.0
 40
1.0
 40
1.0
 40
1.0
 10
36.1428413143
 20
24.6725992284
 30
0.0
 10
36.1469319047
 20
24.6749609178
 30
0.0
 10
36.1572756968
 20
24.6807135865
 30
0.0
 10
36.173526266
 20
24.6903329312
 30
0.0
 10
36.1859669593
 20
24.6970956097
 30
0.0
 10
36.1921266507
 20
24.7005178761
 30
0.0
  0
SPLINE
  5
2F3
100
AcDbEntity
  8
0
100
AcDbSpline
 62
7
  6
BYLAYER
 70
0
 71
3
 72
32
 73
28
 74
0
 42
0.0000001
 43
0.0000001
 44
0.0000000001
 40
0.0
 40
0.0
 40
0.0
 40
0.0
 40
0.0317240394
 40
0.0646888025
 40
0.133827601
 40
0.2064903532
 40
0.2815165741
 40
0.3575970824
 40
0.433368987
 40
0.5074822339
 40
0.5786822832
 40
0.6128575981
 40
0.6459203037
 40
0.6777770381
 40
0.7083615015
 40
0.7376310433
 40
0.7655796776
 40
0.7922345694
 40
0.8176679553
 40
0.8419961212
 40
0.8653845793
 40
0.8880463632
 40
0.9102350642
 40
0.9322341568
 40
0.9543392378
 40
0.9768394775
 40
1.0
 40
1.0
 40
1.0
 40
1.0
 10
36.1428413143
 20
24.6725992284
 30
0.0
 10
36.0696952929
 20
24.6303686054
 30
0.0
 10
35.9236345515
 20
24.5388001819
 30
0.0
 10
35.6346197263
 20
24.3300867299
 30
0.0
 10
35.2834453906
 20
24.0230808042
 30
0.0
 10
34.891688465
 20
23.5977493869
 30
0.0
 10
34.5331063975
 20
23.1207962484
 30
0.0
 10
34.2172540768
 20
22.6048711064
 30
0.0
 10
33.952467277
 20
22.0636406781
 30
0.0
 10
33.7458090258
 20
21.511504969
 30
0.0
 10
33.6248993053
 20
21.0481086806
 30
0.0
 10
33.5630091641
 20
20.6845765282
 30
0.0
 10
33.534574261
 20
20.422104795
 30
0.0
 10
33.5237467746
 20
20.1678743126
 30
0.0
 10
33.5305310701
 20
19.9235791264
 30
0.0
 10
33.5549840437
 20
19.6908452429
 30
0.0
 10
33.5968913929
 20
19.4712173974
 30
0.0
 10
33.6560778365
 20
19.266166112
 30
0.0
 10
33.7321628782
 20
19.077065477
 30
0.0
 10
33.8247188911
 20
18.9052096962
 30
0.0
 10
33.9332104855
 20
18.751830544
 30
0.0
 10
34.0569192349
 20
18.6180262617
 30
0.0
 10
34.1950715431
 20
18.5048890277
 30
0.0
 10
34.3466029545
 20
18.4132235665
 30
0.0
 10
34.5104394104
 20
18.3438274639
 30
0.0
 10
34.6852569638
 20
18.2970870204
 30
0.0
 10
34.8062224229
 20
18.2815325864
 30
0.0
 10
34.8677464121
 20
18.2774057643
 30
0.0
  0
SPLINE
  5
2F4
100
AcDbEntity
  8
0
100
AcDbSpline
 62
7
  6
BYLAYER
 70
0
 71
3
 72
19
 73
15
 74
0
 42
0.0000001
 43
0.0000001
 44
0.0000000001
 40
0.0
 40
0.0
 40
0.0
 40
0.0
 40
0.0590166607
 40
0.1166019734
 40
0.1731584182
 40
0.2291313153
 40
0.2849864583
 40
0.3411975841
 40
0.3982224893
 40
0.4564886125
 40
0.5780591447
 40
0.7083899642
 40
0.8489214388
 40
1.0
 40
1.0
 40
1.0
 40
1.0
 10
38.4280584549
 20
24.4418279531
 30
0.0
 10
38.4007638524
 20
24.4826052945
 30
0.0
 10
38.3428874821
 20
24.5606236665
 30
0.0
 10
38.2454036698
 20
24.666926253
 30
0.0
 10
38.1388259378
 20
24.7603562678
 30
0.0
 10
38.0236790555
 20
24.8405100302
 30
0.0
 10
37.9004586063
 20
24.9070026386
 30
0.0
 10
37.7697229601
 20
24.9594983411
 30
0.0
 10
37.6320802267
 20
24.9978326818
 30
0.0
 10
37.4375056959
 20
25.0302582995
 30
0.0
 10
37.1778907594
 20
25.0331156518
 30
0.0
 10
36.8547503376
 20
24.9785374413
 30
0.0
 10
36.5206905621
 20
24.867688891
 30
0.0
 10
36.301931205
 20
24.7615242503
 30
0.0
 10
36.1921266507
 20
24.7005178761
 30
0.0
  0
SPLINE
  5
2F5
100
AcDbEntity
  8
0
100
AcDbSpline
 62
7
  6
BYLAYER
 70
0
 71
3
 72
15
 73
11
 74
0
 42
0.0000001
 43
0.0000001
 44
0.0000000001
 40
0.0
 40
0.0
 40
0.0
 40
0.0
 40
0.1485414116
 40
0.2895049755
 40
0.4227349966
 40
0.5486405777
 40
0.6679982113
 40
0.7819397142
 40
0.891987746
 40
1.0
 40
1.0
 40
1.0
 40
1.0
 10
36.1428413143
 20
24.5092992191
 30
0.0
 10
36.2217544919
 20
24.5548594915
 30
0.0
 10
36.3793455042
 20
24.6373316659
 30
0.0
 10
36.6197055368
 20
24.7357523346
 30
0.0
 10
36.8558228651
 20
24.8045740554
 30
0.0
 10
37.0853936295
 20
24.8430884212
 30
0.0
 10
37.3063116512
 20
24.8507565728
 30
0.0
 10
37.5164621938
 20
24.8273393877
 30
0.0
 10
37.7135918922
 20
24.7728164543
 30
0.0
 10
37.835427547
 20
24.7157724462
 30
0.0
 10
37.8928065842
 20
24.6826382031
 30
0.0
  0
SPLINE
  5
2F6
100
AcDbEntity
  8
0
100
AcDbSpline
 62
7
  6
BYLAYER
 70
0
 71
3
 72
25
 73
21
 74
0
 42
0.0000001
 43
0.0000001
 44
0.0000000001
 40
0.0
 40
0.0
 40
0.0
 40
0.0
 40
0.0623765687
 40
0.128725304
 40
0.1983126145
 40
0.27029022
 40
0.3436671052
 40
0.4173988218
 40
0.4904231547
 40
0.561709626
 40
0.6303072451
 40
0.695395523
 40
0.7563434765
 40
0.8127808681
 40
0.8646817055
 40
0.9124571097
 40
0.9351018423
 40
0.9571074709
 40
0.9786678207
 40
1.0
 40
1.0
 40
1.0
 40
1.0
 10
36.6378181219
 20
24.2235306909
 30
0.0
 10
36.5120822743
 20
24.1509374987
 30
0.0
 10
36.2622749123
 20
23.9839802049
 30
0.0
 10
35.9085007973
 20
23.6862879101
 30
0.0
 10
35.5703450277
 20
23.3390613515
 30
0.0
 10
35.2550084694
 20
22.9498178993
 30
0.0
 10
34.96918368
 20
22.526756772
 30
0.0
 10
34.7189691412
 20
22.0789269441
 30
0.0
 10
34.5096986959
 20
21.6158775369
 30
0.0
 10
34.345830115
 20
21.1474763361
 30
0.0
 10
34.2308517019
 20
20.6836685665
 30
0.0
 10
34.1672320986
 20
20.2342367904
 30
0.0
 10
34.1563974016
 20
19.8085835157
 30
0.0
 10
34.1988231513
 20
19.4154606835
 30
0.0
 10
34.2940168409
 20
19.0630538712
 30
0.0
 10
34.4188824015
 20
18.8047449962
 30
0.0
 10
34.5436382064
 20
18.6289721155
 30
0.0
 10
34.6470790961
 20
18.5142199163
 30
0.0
 10
34.7615002954
 20
18.4150304383
 30
0.0
 10
34.8448510858
 20
18.3594987614
 30
0.0
 10
34.8878495405
 20
18.3346691649
 30
0.0
  0
SPLINE
  5
2F7
100
AcDbEntity
  8
0
100
AcDbSpline
 62
7
  6
BYLAYER
 70
0
 71
3
 72
11
 73
7
 74
0
 42
0.0000001
 43
0.0000001
 44
0.0000000001
 40
0.0
 40
0.0
 40
0.0
 40
0.0
 40
0.2501812882
 40
0.4384034184
 40
0.6270665167
 40
1.0
 40
1.0
 40
1.0
 40
1.0
 10
36.8499510395
 20
18.6304928934
 30
0.0
 10
36.8459101909
 20
18.6281599223
 30
0.0
 10
36.8387638842
 20
18.6241860771
 30
0.0
 10
36.8286214655
 20
18.618363318
 30
0.0
 10
36.8165614803
 20
18.6112818468
 30
0.0
 10
36.8073254434
 20
18.6063373282
 30
0.0
 10
36.8012374618
 20
18.6029738302
 30
0.0
  0
SPLINE
  5
2F8
100
AcDbEntity
  8
0
100
AcDbSpline
 62
7
  6
BYLAYER
 70
0
 71
3
 72
34
 73
30
 74
0
 42
0.0000001
 43
0.0000001
 44
0.0000000001
 40
0.0
 40
0.0
 40
0.0
 40
0.0
 40
0.0325340223
 40
0.0665351925
 40
0.1018313604
 40
0.1382601519
 40
0.2137176916
 40
0.2911892381
 40
0.3687673157
 40
0.4445305839
 40
0.5167006206
 40
0.5509829347
 40
0.5838490535
 40
0.6151954753
 40
0.644960132
 40
0.6731389926
 40
0.6997876949
 40
0.7250380745
 40
0.749098351
 40
0.7722586694
 40
0.7948777023
 40
0.817360795
 40
0.8401263531
 40
0.8635678254
 40
0.888020899
 40
0.9137438618
 40
0.9409234719
 40
0.9696741986
 40
1.0
 40
1.0
 40
1.0
 40
1.0
 10
36.8499510395
 20
23.8561071159
 30
0.0
 10
36.7751982723
 20
23.8129488432
 30
0.0
 10
36.6260608789
 20
23.7180855135
 30
0.0
 10
36.4095822068
 20
23.5560674637
 30
0.0
 10
36.1972311547
 20
23.3724443672
 30
0.0
 10
35.9190721058
 20
23.0980524334
 30
0.0
 10
35.5950993252
 20
22.7123690441
 30
0.0
 10
35.2567587974
 20
22.201459532
 30
0.0
 10
34.9765257436
 20
21.6555064325
 30
0.0
 10
34.764701408
 20
21.0945695254
 30
0.0
 10
34.6496021938
 20
20.6234736549
 30
0.0
 10
34.5999207792
 20
20.2569100836
 30
0.0
 10
34.5843129488
 20
19.9957848941
 30
0.0
 10
34.5898054353
 20
19.7462066192
 30
0.0
 10
34.616461138
 20
19.5104531279
 30
0.0
 10
34.6640078255
 20
19.290680505
 30
0.0
 10
34.7321814118
 20
19.088929341
 30
0.0
 10
34.8203908547
 20
18.907070253
 30
0.0
 10
34.9280359318
 20
18.7469207325
 30
0.0
 10
35.0541594824
 20
18.610114801
 30
0.0
 10
35.1976418323
 20
18.4982272936
 30
0.0
 10
35.3569575288
 20
18.4124949974
 30
0.0
 10
35.5303845864
 20
18.3538682694
 30
0.0
 10
35.7160283371
 20
18.3228358417
 30
0.0
 10
35.9119723123
 20
18.3195166449
 30
0.0
 10
36.116332677
 20
18.3437507791
 30
0.0
 10
36.3272677679
 20
18.3951769973
 30
0.0
 10
36.542795762
 20
18.4732498052
 30
0.0
 10
36.6845585085
 20
18.5407064712
 30
0.0
 10
36.755675701
 20
18.5783345601
 30
0.0
  0
SPLINE
  5
2F9
100
AcDbEntity
  8
0
100
AcDbSpline
 62
7
  6
BYLAYER
 70
0
 71
3
 72
9
 73
5
 74
0
 42
0.0000001
 43
0.0000001
 44
0.0000000001
 40
0.0
 40
0.0
 40
0.0
 40
0.0
 40
0.2449510927
 40
1.0
 40
1.0
 40
1.0
 40
1.0
 10
36.8499510395
 20
18.6304928934
 30
0.0
 10
36.8708613291
 20
18.6425653827
 30
0.0
 10
36.9556294979
 20
18.6928804905
 30
0.0
 10
37.0380209587
 20
18.7471760171
 30
0.0
 10
37.0988470328
 20
18.7900643944
 30
0.0
  0
SPLINE
  5
2FA
100
AcDbEntity
  8
0
100
AcDbSpline
 62
7
  6
BYLAYER
 70
0
 71
3
 72
23
 73
19
 74
0
 42
0.0000001
 43
0.0000001
 44
0.0000000001
 40
0.0
 40
0.0
 40
0.0
 40
0.0
 40
0.0782096261
 40
0.1525613953
 40
0.2228545815
 40
0.2890586883
 40
0.3513311604
 40
0.410062133
 40
0.4658854626
 40
0.5196783321
 40
0.5725153513
 40
0.6255707328
 40
0.6799978092
 40
0.736808582
 40
0.7967831887
 40
0.8604768419
 40
0.9282175013
 40
1.0
 40
1.0
 40
1.0
 40
1.0
 10
39.0866699482
 20
22.1396736697
 30
0.0
 10
39.0985153201
 20
22.2359229253
 30
0.0
 10
39.1142947562
 20
22.4246891968
 30
0.0
 10
39.1131371202
 20
22.701391538
 30
0.0
 10
39.0865076916
 20
22.9619420866
 30
0.0
 10
39.0346789039
 20
23.2034628464
 30
0.0
 10
38.9580130223
 20
23.4232760651
 30
0.0
 10
38.857221904
 20
23.6188982801
 30
0.0
 10
38.7331738762
 20
23.7879622051
 30
0.0
 10
38.5871195237
 20
23.9282302871
 30
0.0
 10
38.4208055792
 20
24.0377528146
 30
0.0
 10
38.2363993428
 20
24.114936426
 30
0.0
 10
38.0364420643
 20
24.1589508566
 30
0.0
 10
37.8235087182
 20
24.1694446457
 30
0.0
 10
37.6001297609
 20
24.146678338
 30
0.0
 10
37.3687421273
 20
24.0910955922
 30
0.0
 10
37.1319573146
 20
24.0034700579
 30
0.0
 10
36.9765714441
 20
23.9266682694
 30
0.0
 10
36.8986646171
 20
23.883626179
 30
0.0
  0
SPLINE
  5
2FB
100
AcDbEntity
  8
0
100
AcDbSpline
 62
7
  6
BYLAYER
 70
0
 71
3
 72
10
 73
6
 74
0
 42
0.0000001
 43
0.0000001
 44
0.0000000001
 40
0.0
 40
0.0
 40
0.0
 40
0.0
 40
0.2685151074
 40
0.5248996125
 40
1.0
 40
1.0
 40
1.0
 40
1.0
 10
36.8499510395
 20
18.7121425115
 30
0.0
 10
36.7873793126
 20
18.6760169238
 30
0.0
 10
36.6623349744
 20
18.6098990555
 30
0.0
 10
36.4148056743
 20
18.5040964715
 30
0.0
 10
36.2234267625
 20
18.4510432039
 30
0.0
 10
36.097097495
 20
18.4314539773
 30
0.0
  0
SPLINE
  5
2FC
100
AcDbEntity
  8
0
100
AcDbSpline
 62
7
  6
BYLAYER
 70
0
 71
3
 72
11
 73
7
 74
0
 42
0.0000001
 43
0.0000001
 44
0.0000000001
 40
0.0
 40
0.0
 40
0.0
 40
0.0
 40
0.2647158265
 40
0.5172122052
 40
0.7609090027
 40
1.0
 40
1.0
 40
1.0
 40
1.0
 10
36.0199995109
 20
18.421419176
 30
0.0
 10
35.9546538061
 20
18.4145654296
 30
0.0
 10
35.8258998037
 20
18.4093830839
 30
0.0
 10
35.637384216
 20
18.4295685599
 30
0.0
 10
35.4605777405
 20
18.4779357606
 30
0.0
 10
35.3513726086
 20
18.528937414
 30
0.0
 10
35.2999817356
 20
18.5586136147
 30
0.0
  0
SPLINE
  5
2FD
100
AcDbEntity
  8
0
100
AcDbSpline
 62
7
  6
BYLAYER
 70
0
 71
3
 72
11
 73
7
 74
0
 42
0.0000001
 43
0.0000001
 44
0.0000000001
 40
0.0
 40
0.0
 40
0.0
 40
0.0
 40
0.2501812882
 40
0.4384034184
 40
0.6270665167
 40
1.0
 40
1.0
 40
1.0
 40
1.0
 10
36.8499510395
 20
23.8561071159
 30
0.0
 10
36.853991888
 20
23.8584400869
 30
0.0
 10
36.8611381947
 20
23.8624139321
 30
0.0
 10
36.8712806134
 20
23.8682366912
 30
0.0
 10
36.8833405986
 20
23.8753181625
 30
0.0
 10
36.8925766355
 20
23.880262681
 30
0.0
 10
36.8986646171
 20
23.883626179
 30
0.0
  0
SPLINE
  5
2FE
100
AcDbEntity
  8
0
100
AcDbSpline
 62
7
  6
BYLAYER
 70
0
 71
3
 72
26
 73
22
 74
0
 42
0.0000001
 43
0.0000001
 44
0.0000000001
 40
0.0
 40
0.0
 40
0.0
 40
0.0
 40
0.0623751562
 40
0.1287160168
 40
0.1983007785
 40
0.2702737283
 40
0.3436458609
 40
0.4173730606
 40
0.490393151
 40
0.5616754447
 40
0.6302685484
 40
0.6953522931
 40
0.7562965631
 40
0.8127310695
 40
0.8646291477
 40
0.8890141924
 40
0.9124626857
 40
0.9351058503
 40
0.9571100036
 40
0.9786691849
 40
1.0
 40
1.0
 40
1.0
 40
1.0
 10
35.9307083967
 20
25.040022654
 30
0.0
 10
35.7870046728
 20
24.9570557655
 30
0.0
 10
35.5015096731
 20
24.7662547342
 30
0.0
 10
35.0972021651
 20
24.4260264282
 30
0.0
 10
34.710737631
 20
24.0292054629
 30
0.0
 10
34.3503562675
 20
23.5843482342
 30
0.0
 10
34.0237016803
 20
23.1008500048
 30
0.0
 10
33.7377357487
 20
22.5890480144
 30
0.0
 10
33.498565043
 20
22.0598488472
 30
0.0
 10
33.3112877715
 20
21.524532704
 30
0.0
 10
33.1798921125
 20
20.9944636309
 30
0.0
 10
33.1071862631
 20
20.4808381143
 30
0.0
 10
33.0948148879
 20
19.9943449656
 30
0.0
 10
33.1432393584
 20
19.5451656487
 30
0.0
 10
33.2358779631
 20
19.202448014
 30
0.0
 10
33.3409638011
 20
18.9584160746
 30
0.0
 10
33.4322951162
 20
18.7942749397
 30
0.0
 10
33.5373570874
 20
18.6462297048
 30
0.0
 10
33.6555879729
 20
18.5151085448
 30
0.0
 10
33.7863324456
 20
18.4017195844
 30
0.0
 10
33.8816044951
 20
18.3382738436
 30
0.0
 10
33.9307470963
 20
18.3099000327
 30
0.0
  0
SPLINE
  5
2FF
100
AcDbEntity
  8
0
100
AcDbSpline
 62
7
  6
BYLAYER
 70
0
 71
3
 72
15
 73
11
 74
0
 42
0.0000001
 43
0.0000001
 44
0.0000000001
 40
0.0
 40
0.0
 40
0.0
 40
0.0
 40
0.1085681688
 40
0.2190889029
 40
0.3333465937
 40
0.4528268273
 40
0.5786410168
 40
0.7115686161
 40
0.8520500927
 40
1.0
 40
1.0
 40
1.0
 40
1.0
 10
37.9306696973
 20
25.2381259382
 30
0.0
 10
37.8666700289
 20
25.275077879
 30
0.0
 10
37.7310163596
 20
25.3389567507
 30
0.0
 10
37.5117931191
 20
25.4009901356
 30
0.0
 10
37.2782758925
 20
25.4292435759
 30
0.0
 10
37.0328406015
 20
25.4236171336
 30
0.0
 10
36.7777394421
 20
25.3844048163
 30
0.0
 10
36.5152149842
 20
25.3121029688
 30
0.0
 10
36.2476974091
 20
25.2074479623
 30
0.0
 10
36.0720232423
 20
25.1191155027
 30
0.0
 10
35.9839898499
 20
25.0702049805
 30
0.0
  0
SPLINE
  5
300
100
AcDbEntity
  8
0
100
AcDbSpline
 62
7
  6
BYLAYER
 70
0
 71
3
 72
15
 73
11
 74
0
 42
0.0000001
 43
0.0000001
 44
0.0000000001
 40
0.0
 40
0.0
 40
0.0
 40
0.0
 40
0.1086476929
 40
0.2192358461
 40
0.3335421047
 40
0.4530355821
 40
0.5788348932
 40
0.711727696
 40
0.8521505352
 40
1.0
 40
1.0
 40
1.0
 40
1.0
 10
38.3877867033
 20
24.396875297
 30
0.0
 10
38.3319862708
 20
24.4290974368
 30
0.0
 10
38.2137254515
 20
24.48479999
 30
0.0
 10
38.0226702433
 20
24.5390735112
 30
0.0
 10
37.8191685102
 20
24.5639409328
 30
0.0
 10
37.6052942928
 20
24.5594285007
 30
0.0
 10
37.3829878899
 20
24.525691302
 30
0.0
 10
37.1541843281
 20
24.4632094657
 30
0.0
 10
36.9210079103
 20
24.3725869995
 30
0.0
 10
36.767849078
 20
24.2960328966
 30
0.0
 10
36.6910986102
 20
24.2536296734
 30
0.0
  0
SPLINE
  5
301
100
AcDbEntity
  8
0
100
AcDbSpline
 62
7
  6
BYLAYER
 70
0
 71
3
 72
25
 73
21
 74
0
 42
0.0000001
 43
0.0000001
 44
0.0000000001
 40
0.0
 40
0.0
 40
0.0
 40
0.0
 40
0.0213324002
 40
0.0428930203
 40
0.0648989999
 40
0.0875438031
 40
0.1353197709
 40
0.1872209845
 40
0.2436583684
 40
0.3046059268
 40
0.3696937064
 40
0.4382908546
 40
0.509576796
 40
0.5826008745
 40
0.6563322787
 40
0.7297077578
 40
0.8016851115
 40
0.8712728492
 40
0.9376232722
 40
1.0
 40
1.0
 40
1.0
 40
1.0
 10
34.3928760444
 20
18.6204433152
 30
0.0
 10
34.3498773547
 20
18.6452734467
 30
0.0
 10
34.2665219346
 20
18.7008000245
 30
0.0
 10
34.1521016926
 20
18.7999942438
 30
0.0
 10
34.0486627622
 20
18.9147496466
 30
0.0
 10
33.9239000985
 20
19.0905203014
 30
0.0
 10
33.7990403423
 20
19.3488352311
 30
0.0
 10
33.7038486959
 20
19.7012438796
 30
0.0
 10
33.6614258944
 20
20.0943667291
 30
0.0
 10
33.6722598589
 20
20.5200173795
 30
0.0
 10
33.7358786377
 20
20.969445765
 30
0.0
 10
33.8508575392
 20
21.4332493883
 30
0.0
 10
34.0147255069
 20
21.9016472344
 30
0.0
 10
34.2239952834
 20
22.3646936205
 30
0.0
 10
34.4742055808
 20
22.8125199727
 30
0.0
 10
34.7600259495
 20
23.2355780984
 30
0.0
 10
35.0753605819
 20
23.6248187923
 30
0.0
 10
35.4135169572
 20
23.9720502877
 30
0.0
 10
35.7672955024
 20
24.269744948
 30
0.0
 10
36.0171052546
 20
24.4367059045
 30
0.0
 10
36.1428413143
 20
24.5092992191
 30
0.0
  0
SPLINE
  5
302
100
AcDbEntity
  8
0
100
AcDbSpline
 62
7
  6
BYLAYER
 70
0
 71
3
 72
15
 73
11
 74
0
 42
0.0000001
 43
0.0000001
 44
0.0000000001
 40
0.0
 40
0.0
 40
0.0
 40
0.0
 40
0.1064632266
 40
0.215208328
 40
0.3282820415
 40
0.4473374181
 40
0.5735422441
 40
0.7076051809
 40
0.8497894463
 40
1.0
 40
1.0
 40
1.0
 40
1.0
 10
38.3999203433
 20
23.9279863945
 30
0.0
 10
38.4542037858
 20
23.8966398491
 30
0.0
 10
38.5583690261
 20
23.8230556989
 30
0.0
 10
38.6944448326
 20
23.6844770338
 30
0.0
 10
38.8096951816
 20
23.5190970784
 30
0.0
 10
38.9028701729
 20
23.3289914887
 30
0.0
 10
38.9732612713
 20
23.1163918503
 30
0.0
 10
39.0202002495
 20
22.8836075796
 30
0.0
 10
39.043368969
 20
22.6331759766
 30
0.0
 10
39.0428291187
 20
22.4607446972
 30
0.0
 10
39.0388618909
 20
22.3723917709
 30
0.0
  0
SPLINE
  5
303
100
AcDbEntity
  8
0
100
AcDbSpline
 62
7
  6
BYLAYER
 70
0
 71
3
 72
9
 73
5
 74
0
 42
0.0000001
 43
0.0000001
 44
0.0000000001
 40
0.0
 40
0.0
 40
0.0
 40
0.0
 40
0.4860925281
 40
1.0
 40
1.0
 40
1.0
 40
1.0
 10
17.5458555429
 20
19.4058841706
 30
0.0
 10
17.3462352209
 20
19.290634012
 30
0.0
 10
16.9217303984
 20
19.0770560522
 30
0.0
 10
16.478500576
 20
18.9064182184
 30
0.0
 10
16.2474782581
 20
18.8288683411
 30
0.0
  0
SPLINE
  5
304
100
AcDbEntity
  8
0
100
AcDbSpline
 62
7
  6
BYLAYER
 70
0
 71
3
 72
25
 73
21
 74
0
 42
0.0000001
 43
0.0000001
 44
0.0000000001
 40
0.0
 40
0.0
 40
0.0
 40
0.0
 40
0.0689002227
 40
0.140222836
 40
0.2132104682
 40
0.2870552296
 40
0.3609151961
 40
0.4339482304
 40
0.5053419605
 40
0.5743428199
 40
0.6402894903
 40
0.7026501654
 40
0.7610644053
 40
0.8153930096
 40
0.8657757077
 40
0.9126902396
 40
0.9351286501
 40
0.9570503907
 40
0.9786162204
 40
1.0
 40
1.0
 40
1.0
 40
1.0
 10
16.2474782581
 20
18.8288683411
 30
0.0
 10
16.0025912383
 20
18.7466643423
 30
0.0
 10
15.4962371771
 20
18.602388431
 30
0.0
 10
14.7110922261
 20
18.4480488589
 30
0.0
 10
13.8977949111
 20
18.353942697
 30
0.0
 10
13.0702351914
 20
18.3216728063
 30
0.0
 10
12.2424185101
 20
18.3517730903
 30
0.0
 10
11.4283970179
 20
18.4437350502
 30
0.0
 10
10.6419628742
 20
18.5960009051
 30
0.0
 10
9.8964149348
 20
18.8060187528
 30
0.0
 10
9.204315617
 20
19.0702822363
 30
0.0
 10
8.577267089
 20
19.3844417821
 30
0.0
 10
8.0257500328
 20
19.7434302781
 30
0.0
 10
7.5590115117
 20
20.1417198113
 30
0.0
 10
7.1851775055
 20
20.5731426626
 30
0.0
 10
6.9535135079
 20
20.9611091523
 30
0.0
 10
6.8245574479
 20
21.2786703271
 30
0.0
 10
6.7561324929
 20
21.5166940519
 30
0.0
 10
6.7148997808
 20
21.7568692641
 30
0.0
 10
6.7057150373
 20
21.9180423293
 30
0.0
 10
6.7057201403
 20
21.9982129286
 30
0.0
  0
SPLINE
  5
305
100
AcDbEntity
  8
0
100
AcDbSpline
 62
7
  6
BYLAYER
 70
0
 71
3
 72
27
 73
23
 74
0
 42
0.0000001
 43
0.0000001
 44
0.0000000001
 40
0.0
 40
0.0
 40
0.0
 40
0.0
 40
0.0623739359
 40
0.1287093781
 40
0.1982928101
 40
0.2702618454
 40
0.3436307708
 40
0.4173555701
 40
0.4903730778
 40
0.5616527383
 40
0.6302430516
 40
0.6953236327
 40
0.7562643406
 40
0.8126950669
 40
0.8392175958
 40
0.8646373642
 40
0.8890215793
 40
0.912467906
 40
0.9351101138
 40
0.9571125966
 40
0.9786705461
 40
1.0
 40
1.0
 40
1.0
 40
1.0
 10
17.5458555429
 20
20.8755885215
 30
0.0
 10
17.3177211657
 20
20.7438758636
 30
0.0
 10
16.8288007385
 20
20.502819732
 30
0.0
 10
16.040126474
 20
20.2170392679
 30
0.0
 10
15.187826941
 20
20.0006908769
 30
0.0
 10
14.2901759181
 20
19.8583422076
 30
0.0
 10
13.366176404
 20
19.7930283642
 30
0.0
 10
12.4355546813
 20
19.8061182156
 30
0.0
 10
11.5181571863
 20
19.8973469786
 30
0.0
 10
10.6335374907
 20
20.064771601
 30
0.0
 10
9.8005022273
 20
20.3048473418
 30
0.0
 10
9.0366223266
 20
20.6126003339
 30
0.0
 10
8.358084666
 20
20.981633696
 30
0.0
 10
7.8654858738
 20
21.3416041515
 30
0.0
 10
7.5305756626
 20
21.654258498
 30
0.0
 10
7.3143815086
 20
21.8939526906
 30
0.0
 10
7.1291548906
 20
22.1423398213
 30
0.0
 10
6.9760395532
 20
22.3982063794
 30
0.0
 10
6.8558526602
 20
22.6601291898
 30
0.0
 10
6.7694544898
 20
22.9267563473
 30
0.0
 10
6.7173417275
 20
23.1964979733
 30
0.0
 10
6.7057144064
 20
23.3778356901
 30
0.0
 10
6.7057201403
 20
23.4679172794
 30
0.0
  0
SPLINE
  5
306
100
AcDbEntity
  8
0
100
AcDbSpline
 62
7
  6
BYLAYER
 70
0
 71
3
 72
11
 73
7
 74
0
 42
0.0000001
 43
0.0000001
 44
0.0000000001
 40
0.0
 40
0.0
 40
0.0
 40
0.0
 40
0.2479271973
 40
0.4999609248
 40
0.7520152305
 40
1.0
 40
1.0
 40
1.0
 40
1.0
 10
15.1242818324
 20
21.7891388073
 30
0.0
 10
14.787207559
 20
21.7259591232
 30
0.0
 10
14.1008888145
 20
21.6316524888
 30
0.0
 10
13.060383393
 20
21.5845026478
 30
0.0
 10
12.0197591947
 20
21.6308168873
 30
0.0
 10
11.3332602973
 20
21.7245888328
 30
0.0
 10
10.9960507244
 20
21.7874781826
 30
0.0
  0
SPLINE
  5
307
100
AcDbEntity
  8
0
100
AcDbSpline
 62
7
  6
BYLAYER
 70
0
 71
3
 72
16
 73
12
 74
0
 42
0.0000001
 43
0.0000001
 44
0.0000000001
 40
0.0
 40
0.0
 40
0.0
 40
0.0
 40
0.1438013982
 40
0.2812137767
 40
0.4122871066
 40
0.4756407138
 40
0.5376420911
 40
0.657947472
 40
0.7742831874
 40
0.8878088426
 40
1.0
 40
1.0
 40
1.0
 40
1.0
 10
17.1401224836
 20
16.8424049836
 30
0.0
 10
17.2665259196
 20
16.9179668568
 30
0.0
 10
17.5077282321
 20
17.0761460939
 30
0.0
 10
17.8380537901
 20
17.3401450653
 30
0.0
 10
18.0804125059
 20
17.5794751091
 30
0.0
 10
18.2502951758
 20
17.7799274493
 30
0.0
 10
18.4008966814
 20
17.9816129543
 30
0.0
 10
18.5599440221
 20
18.2440286221
 30
0.0
 10
18.7005732778
 20
18.5753599735
 30
0.0
 10
18.7864162727
 20
18.9164376364
 30
0.0
 10
18.8057087883
 20
19.1480352908
 30
0.0
 10
18.8057087883
 20
19.2629298645
 30
0.0
  0
SPLINE
  5
308
100
AcDbEntity
  8
0
100
AcDbSpline
 62
7
  6
BYLAYER
 70
0
 71
3
 72
17
 73
13
 74
0
 42
0.0000001
 43
0.0000001
 44
0.0000000001
 40
0.0
 40
0.0
 40
0.0
 40
0.0
 40
0.117786957
 40
0.2427142476
 40
0.3725420702
 40
0.5045883871
 40
0.6359819343
 40
0.7639098405
 40
0.8257903904
 40
0.8859102749
 40
0.9440595487
 40
1.0
 40
1.0
 40
1.0
 40
1.0
 10
9.3955195393
 20
16.6131751042
 30
0.0
 10
9.6757594368
 20
16.4764209125
 30
0.0
 10
10.2751826268
 20
16.2383593992
 30
0.0
 10
11.2325373577
 20
15.9924826503
 30
0.0
 10
12.2490465977
 20
15.8521928804
 30
0.0
 10
13.2917200963
 20
15.8217842023
 30
0.0
 10
14.3266450985
 20
15.9021096603
 30
0.0
 10
15.1640988652
 20
16.0611129021
 30
0.0
 10
15.8006619054
 20
16.24292244
 30
0.0
 10
16.2503539466
 20
16.4028532796
 30
0.0
 10
16.6737169591
 20
16.5866844932
 30
0.0
 10
16.9415568573
 20
16.7270515048
 30
0.0
 10
17.069811717
 20
16.8010990406
 30
0.0
  0
SPLINE
  5
309
100
AcDbEntity
  8
0
100
AcDbSpline
 62
7
  6
BYLAYER
 70
0
 71
3
 72
11
 73
7
 74
0
 42
0.0000001
 43
0.0000001
 44
0.0000000001
 40
0.0
 40
0.0
 40
0.0
 40
0.0
 40
0.2588016988
 40
0.5109343647
 40
0.7581711513
 40
1.0
 40
1.0
 40
1.0
 40
1.0
 10
8.5974750635
 20
17.089003479
 30
0.0
 10
8.6623164223
 20
17.0417530593
 30
0.0
 10
8.793846712
 20
16.9533022934
 30
0.0
 10
8.9942290387
 20
16.8303966975
 30
0.0
 10
9.1938574047
 20
16.7165492914
 30
0.0
 10
9.3281554116
 20
16.6460463599
 30
0.0
 10
9.39552932
 20
16.6131657066
 30
0.0
  0
SPLINE
  5
30A
100
AcDbEntity
  8
0
100
AcDbSpline
 62
7
  6
BYLAYER
 70
0
 71
3
 72
14
 73
10
 74
0
 42
0.0000001
 43
0.0000001
 44
0.0000000001
 40
0.0
 40
0.0
 40
0.0
 40
0.0
 40
0.1147087602
 40
0.2304106701
 40
0.3483144324
 40
0.4694081265
 40
0.5945070947
 40
0.724358394
 40
1.0
 40
1.0
 40
1.0
 40
1.0
 10
7.3057087883
 20
19.2629298645
 30
0.0
 10
7.3057087883
 20
19.1625982239
 30
0.0
 10
7.3203875501
 20
18.960773103
 30
0.0
 10
7.3857228467
 20
18.6622246925
 30
0.0
 10
7.4933502839
 20
18.3702500431
 30
0.0
 10
7.6413326252
 20
18.0873448275
 30
0.0
 10
7.8279483026
 20
17.8155897211
 30
0.0
 10
8.131238515
 20
17.463410522
 30
0.0
 10
8.4026185276
 20
17.2309977224
 30
0.0
 10
8.597466698
 20
17.0890103067
 30
0.0
  0
SPLINE
  5
30B
100
AcDbEntity
  8
0
100
AcDbSpline
 62
7
  6
BYLAYER
 70
0
 71
3
 72
9
 73
5
 74
0
 42
0.0000001
 43
0.0000001
 44
0.0000000001
 40
0.0
 40
0.0
 40
0.0
 40
0.0
 40
0.244722107
 40
1.0
 40
1.0
 40
1.0
 40
1.0
 10
17.2253846871
 20
22.1723776764
 30
0.0
 10
17.2213326771
 20
22.1727609963
 30
0.0
 10
17.2048188167
 20
22.1747727823
 30
0.0
 10
17.18852414
 20
22.1784874901
 30
0.0
 10
17.1764942788
 20
22.1821029708
 30
0.0
  0
SPLINE
  5
30C
100
AcDbEntity
  8
0
100
AcDbSpline
 62
7
  6
BYLAYER
 70
0
 71
3
 72
9
 73
5
 74
0
 42
0.0000001
 43
0.0000001
 44
0.0000000001
 40
0.0
 40
0.0
 40
0.0
 40
0.0
 40
0.2467421062
 40
1.0
 40
1.0
 40
1.0
 40
1.0
 10
7.0712869105
 20
23.1823063341
 30
0.0
 10
7.0963116932
 20
23.1620811386
 30
0.0
 10
7.1984627464
 20
23.0810185965
 30
0.0
 10
7.3034603754
 20
23.0035534305
 30
0.0
 10
7.3839017221
 20
22.9471811409
 30
0.0
  0
SPLINE
  5
30D
100
AcDbEntity
  8
0
100
AcDbSpline
 62
7
  6
BYLAYER
 70
0
 71
3
 72
9
 73
5
 74
0
 42
0.0000001
 43
0.0000001
 44
0.0000000001
 40
0.0
 40
0.0
 40
0.0
 40
0.0
 40
0.2471538115
 40
1.0
 40
1.0
 40
1.0
 40
1.0
 10
6.1501971318
 20
24.179798011
 30
0.0
 10
6.1649187165
 20
24.1572297899
 30
0.0
 10
6.2255216782
 20
24.0665977675
 30
0.0
 10
6.2901981235
 20
23.9786994764
 30
0.0
 10
6.3408898969
 20
23.9141471901
 30
0.0
  0
SPLINE
  5
30E
100
AcDbEntity
  8
0
100
AcDbSpline
 62
7
  6
BYLAYER
 70
0
 71
3
 72
9
 73
5
 74
0
 42
0.0000001
 43
0.0000001
 44
0.0000000001
 40
0.0
 40
0.0
 40
0.0
 40
0.0
 40
0.2545506549
 40
1.0
 40
1.0
 40
1.0
 40
1.0
 10
34.5593696683
 20
31.2239579302
 30
0.0
 10
34.5378828914
 20
31.2609888546
 30
0.0
 10
34.4507800455
 20
31.4048780919
 30
0.0
 10
34.3527034354
 20
31.5421839227
 30
0.0
 10
34.2735880362
 20
31.6394486304
 30
0.0
  0
SPLINE
  5
30F
100
AcDbEntity
  8
0
100
AcDbSpline
 62
7
  6
BYLAYER
 70
0
 71
3
 72
9
 73
5
 74
0
 42
0.0000001
 43
0.0000001
 44
0.0000000001
 40
0.0
 40
0.0
 40
0.0
 40
0.0
 40
0.5033791576
 40
1.0
 40
1.0
 40
1.0
 40
1.0
 10
34.1146877534
 20
31.8193208049
 30
0.0
 10
34.0260421445
 20
31.9116554089
 30
0.0
 10
33.8372992555
 20
32.0834230921
 30
0.0
 10
33.6260175302
 20
32.226681778
 30
0.0
 10
33.5166542368
 20
32.2898198341
 30
0.0
  0
SPLINE
  5
310
100
AcDbEntity
  8
0
100
AcDbSpline
 62
7
  6
BYLAYER
 70
0
 71
3
 72
10
 73
6
 74
0
 42
0.0000001
 43
0.0000001
 44
0.0000000001
 40
0.0
 40
0.0
 40
0.0
 40
0.0
 40
0.3847696723
 40
0.6639086431
 40
1.0
 40
1.0
 40
1.0
 40
1.0
 10
35.4081320786
 20
28.4692654496
 30
0.0
 10
35.4083085589
 20
28.4634100232
 30
0.0
 10
35.4022558631
 20
28.4537797472
 30
0.0
 10
35.3909360291
 20
28.4439627816
 30
0.0
 10
35.3830156056
 20
28.4387828514
 30
0.0
 10
35.3785841799
 20
28.4362243818
 30
0.0
  0
SPLINE
  5
311
100
AcDbEntity
  8
0
100
AcDbSpline
 62
7
  6
BYLAYER
 70
0
 71
3
 72
11
 73
7
 74
0
 42
0.0000001
 43
0.0000001
 44
0.0000000001
 40
0.0
 40
0.0
 40
0.0
 40
0.0
 40
0.2287333457
 40
0.4708848654
 40
0.727818925
 40
1.0
 40
1.0
 40
1.0
 40
1.0
 10
34.8321262477
 20
30.7538623117
 30
0.0
 10
34.9231460088
 20
30.596989671
 30
0.0
 10
35.0847152768
 20
30.2585782823
 30
0.0
 10
35.2591274498
 20
29.7068513397
 30
0.0
 10
35.3707642999
 20
29.1042140852
 30
0.0
 10
35.4021553828
 20
28.6849997595
 30
0.0
 10
35.4081355223
 20
28.4692663032
 30
0.0
  0
SPLINE
  5
312
100
AcDbEntity
  8
0
100
AcDbSpline
 62
7
  6
BYLAYER
 70
0
 71
3
 72
16
 73
12
 74
0
 42
0.0000001
 43
0.0000001
 44
0.0000000001
 40
0.0
 40
0.0
 40
0.0
 40
0.0
 40
0.1090110605
 40
0.2199118306
 40
0.3344280633
 40
0.4540068797
 40
0.5160801319
 40
0.5798028985
 40
0.7124778499
 40
0.8525525218
 40
1.0
 40
1.0
 40
1.0
 40
1.0
 10
26.4117607516
 20
18.8403920074
 30
0.0
 10
26.2973217832
 20
18.9064659538
 30
0.0
 10
26.0769780397
 20
19.0589632808
 30
0.0
 10
25.7838168193
 20
19.3412722781
 30
0.0
 10
25.5292122139
 20
19.6749473006
 30
0.0
 10
25.3532696096
 20
19.9892192468
 30
0.0
 10
25.2331016249
 20
20.261471916
 30
0.0
 10
25.1242116867
 20
20.5554485159
 30
0.0
 10
25.0162675541
 20
20.9497199858
 30
0.0
 10
24.9331004725
 20
21.4530103573
 30
0.0
 10
24.9082616453
 20
21.8011959251
 30
0.0
 10
24.90286754
 20
21.9798514537
 30
0.0
  0
SPLINE
  5
313
100
AcDbEntity
  8
0
100
AcDbSpline
 62
7
  6
BYLAYER
 70
0
 71
3
 72
11
 73
7
 74
0
 42
0.0000001
 43
0.0000001
 44
0.0000000001
 40
0.0
 40
0.0
 40
0.0
 40
0.0
 40
0.2449200338
 40
0.491972117
 40
0.7431202963
 40
1.0
 40
1.0
 40
1.0
 40
1.0
 10
25.6167874991
 20
18.6065397211
 30
0.0
 10
25.7030321033
 20
18.5567486396
 30
0.0
 10
25.8821234606
 20
18.4665054796
 30
0.0
 10
26.1661238923
 20
18.3615886118
 30
0.0
 10
26.4646188623
 20
18.2873139252
 30
0.0
 10
26.6696265391
 20
18.258724961
 30
0.0
 10
26.7736607134
 20
18.249431868
 30
0.0
  0
SPLINE
  5
314
100
AcDbEntity
  8
0
100
AcDbSpline
 62
7
  6
BYLAYER
 70
0
 71
3
 72
15
 73
11
 74
0
 42
0.0000001
 43
0.0000001
 44
0.0000000001
 40
0.0
 40
0.0
 40
0.0
 40
0.0
 40
0.1484729998
 40
0.2894667185
 40
0.4227513796
 40
0.5486589981
 40
0.6679939989
 40
0.7819275581
 40
0.8919838442
 40
1.0
 40
1.0
 40
1.0
 40
1.0
 10
34.7285747605
 20
34.2154137961
 30
0.0
 10
34.7285747605
 20
34.2674606218
 30
0.0
 10
34.7243478032
 20
34.3690007544
 30
0.0
 10
34.7043863116
 20
34.5160786446
 30
0.0
 10
34.6709934927
 20
34.6526297377
 30
0.0
 10
34.624446843
 20
34.7772533401
 30
0.0
 10
34.5651299596
 20
34.8887697752
 30
0.0
 10
34.4934730731
 20
34.9860500728
 30
0.0
 10
34.4101974885
 20
35.0680642557
 30
0.0
 10
34.3471321716
 20
35.1120366858
 30
0.0
 10
34.3143387382
 20
35.1309663604
 30
0.0
  0
SPLINE
  5
315
100
AcDbEntity
  8
0
100
AcDbSpline
 62
7
  6
BYLAYER
 70
0
 71
3
 72
12
 73
8
 74
0
 42
0.0000001
 43
0.0000001
 44
0.0000000001
 40
0.0
 40
0.0
 40
0.0
 40
0.0
 40
0.156228332
 40
0.3063723017
 40
0.5143259002
 40
0.6986567652
 40
1.0
 40
1.0
 40
1.0
 40
1.0
 10
27.2501619556
 20
18.3242961906
 30
0.0
 10
27.2484560179
 20
18.3198993589
 30
0.0
 10
27.2447145555
 20
18.3114221428
 30
0.0
 10
27.2371481833
 20
18.2978495105
 30
0.0
 10
27.2273404342
 20
18.2845944383
 30
0.0
 10
27.2120819111
 20
18.2702769026
 30
0.0
 10
27.1977263073
 20
18.2638366886
 30
0.0
 10
27.1886372648
 20
18.2634593851
 30
0.0
  0
SPLINE
  5
316
100
AcDbEntity
  8
0
100
AcDbSpline
 62
7
  6
BYLAYER
 70
0
 71
3
 72
15
 73
11
 74
0
 42
0.0000001
 43
0.0000001
 44
0.0000000001
 40
0.0
 40
0.0
 40
0.0
 40
0.0
 40
0.1134675869
 40
0.2282131628
 40
0.3454330491
 40
0.4661947945
 40
0.5914005527
 40
0.7217898255
 40
0.8579115565
 40
1.0
 40
1.0
 40
1.0
 40
1.0
 10
24.5718217148
 20
17.9396778298
 30
0.0
 10
24.6849288991
 20
17.8743757595
 30
0.0
 10
24.9213246569
 20
17.7578355199
 30
0.0
 10
25.2986415854
 20
17.6292297204
 30
0.0
 10
25.6972950809
 20
17.5470975735
 30
0.0
 10
26.1147622573
 20
17.511786326
 30
0.0
 10
26.5486295327
 20
17.5233639613
 30
0.0
 10
26.9964709923
 20
17.5816066667
 30
0.0
 10
27.4556515742
 20
17.6861236019
 30
0.0
 10
27.7610141269
 20
17.7839690389
 30
0.0
 10
27.9147052335
 20
17.8398892207
 30
0.0
  0
SPLINE
  5
317
100
AcDbEntity
  8
0
100
AcDbSpline
 62
7
  6
BYLAYER
 70
0
 71
3
 72
11
 73
7
 74
0
 42
0.0000001
 43
0.0000001
 44
0.0000000001
 40
0.0
 40
0.0
 40
0.0
 40
0.0
 40
0.2185722735
 40
0.4659128016
 40
0.7315913108
 40
1.0
 40
1.0
 40
1.0
 40
1.0
 10
32.5706218593
 20
32.134849279
 30
0.0
 10
32.5736192336
 20
32.1274789955
 30
0.0
 10
32.577854533
 20
32.1108773544
 30
0.0
 10
32.5793156755
 20
32.0841565069
 30
0.0
 10
32.5759752423
 20
32.0557795153
 30
0.0
 10
32.5705826845
 20
32.0369860145
 30
0.0
 10
32.5670484574
 20
32.0278770056
 30
0.0
  0
SPLINE
  5
318
100
AcDbEntity
  8
0
100
AcDbSpline
 62
7
  6
BYLAYER
 70
0
 71
3
 72
15
 73
11
 74
0
 42
0.0000001
 43
0.0000001
 44
0.0000000001
 40
0.0
 40
0.0
 40
0.0
 40
0.0
 40
0.1479530178
 40
0.2910036764
 40
0.427900094
 40
0.5577577527
 40
0.6799179809
 40
0.7941079578
 40
0.9005656709
 40
1.0
 40
1.0
 40
1.0
 40
1.0
 10
27.6353750806
 20
29.0225328983
 30
0.0
 10
27.8185723377
 20
29.2409565947
 30
0.0
 10
28.1949101169
 20
29.6574799135
 30
0.0
 10
28.7947910453
 20
30.2243847953
 30
0.0
 10
29.4136741242
 20
30.7164769441
 30
0.0
 10
30.0423869494
 20
31.1264984757
 30
0.0
 10
30.6719768484
 20
31.4483325269
 30
0.0
 10
31.293572772
 20
31.6771831366
 30
0.0
 10
31.8981657265
 20
31.809145703
 30
0.0
 10
32.2965632214
 20
31.8313896848
 30
0.0
 10
32.4880202755
 20
31.8241921842
 30
0.0
  0
LINE
  5
319
100
AcDbEntity
  8
0
100
AcDbLine
 62
7
  6
BYLAYER
 10
26.7736604144
 20
29.4217992941
 11
27.1886249887
 21
28.8407487555
  0
LINE
  5
31A
100
AcDbEntity
  8
0
100
AcDbLine
 62
7
  6
BYLAYER
 10
27.1886249887
 20
28.8407487555
 11
27.2501619556
 21
28.7540638718
  0
SPLINE
  5
31B
100
AcDbEntity
  8
0
100
AcDbSpline
 62
7
  6
BYLAYER
 70
0
 71
3
 72
15
 73
11
 74
0
 42
0.0000001
 43
0.0000001
 44
0.0000000001
 40
0.0
 40
0.0
 40
0.0
 40
0.0
 40
0.1119645035
 40
0.2297498054
 40
0.3524362857
 40
0.4790294546
 40
0.6083537067
 40
0.7391440414
 40
0.8701515023
 40
1.0
 40
1.0
 40
1.0
 40
1.0
 10
24.90286754
 20
22.3881026623
 30
0.0
 10
24.9102790002
 20
22.6421319831
 30
0.0
 10
24.9528722904
 20
23.1628524221
 30
0.0
 10
25.090589885
 20
23.9518208847
 30
0.0
 10
25.3019447593
 20
24.7586763445
 30
0.0
 10
25.583672744
 20
25.5713961379
 30
0.0
 10
25.931704916
 20
26.3780308998
 30
0.0
 10
26.3408457716
 20
27.1667450146
 30
0.0
 10
26.8050542394
 20
27.9256915147
 30
0.0
 10
27.149302318
 20
28.4081661632
 30
0.0
 10
27.3291901375
 20
28.6416323899
 30
0.0
  0
SPLINE
  5
31C
100
AcDbEntity
  8
0
100
AcDbSpline
 62
7
  6
BYLAYER
 70
0
 71
3
 72
11
 73
7
 74
0
 42
0.0000001
 43
0.0000001
 44
0.0000000001
 40
0.0
 40
0.0
 40
0.0
 40
0.0
 40
0.2334570931
 40
0.491153328
 40
0.7528428168
 40
1.0
 40
1.0
 40
1.0
 40
1.0
 10
24.7448111762
 20
22.2968493228
 30
0.0
 10
24.7372534047
 20
22.2924858674
 30
0.0
 10
24.7205638809
 20
22.2846694338
 30
0.0
 10
24.6938603854
 20
22.2756493961
 30
0.0
 10
24.6658871073
 20
22.2692371358
 30
0.0
 10
24.6469794045
 20
22.2668049502
 30
0.0
 10
24.6377613577
 20
22.2661819087
 30
0.0
  0
SPLINE
  5
31D
100
AcDbEntity
  8
0
100
AcDbSpline
 62
7
  6
BYLAYER
 70
0
 71
3
 72
9
 73
5
 74
0
 42
0.0000001
 43
0.0000001
 44
0.0000000001
 40
0.0
 40
0.0
 40
0.0
 40
0.0
 40
0.485131323
 40
1.0
 40
1.0
 40
1.0
 40
1.0
 10
18.4157528107
 20
21.5022013821
 30
0.0
 10
18.2872782911
 20
21.3854277042
 30
0.0
 10
18.0073294986
 20
21.1610681208
 30
0.0
 10
17.7054261818
 20
20.9677161229
 30
0.0
 10
17.5458555429
 20
20.8755885215
 30
0.0
  0
SPLINE
  5
31E
100
AcDbEntity
  8
0
100
AcDbSpline
 62
7
  6
BYLAYER
 70
0
 71
3
 72
11
 73
7
 74
0
 42
0.0000001
 43
0.0000001
 44
0.0000000001
 40
0.0
 40
0.0
 40
0.0
 40
0.0
 40
0.2233416547
 40
0.4631676208
 40
0.72186994
 40
1.0
 40
1.0
 40
1.0
 40
1.0
 10
19.1919415444
 20
21.054988637
 30
0.0
 10
19.1182432691
 20
20.8951583715
 30
0.0
 10
18.9305796389
 20
20.5790713679
 30
0.0
 10
18.5574222552
 20
20.1465939697
 30
0.0
 10
18.0909509277
 20
19.7473168398
 30
0.0
 10
17.7356704016
 20
19.5154731762
 30
0.0
 10
17.5458555429
 20
19.4058841706
 30
0.0
  0
SPLINE
  5
31F
100
AcDbEntity
  8
0
100
AcDbSpline
 62
7
  6
BYLAYER
 70
0
 71
3
 72
11
 73
7
 74
0
 42
0.0000001
 43
0.0000001
 44
0.0000000001
 40
0.0
 40
0.0
 40
0.0
 40
0.0
 40
0.2589101976
 40
0.5153129669
 40
0.7635023244
 40
1.0
 40
1.0
 40
1.0
 40
1.0
 10
6.534948163
 20
23.8283048993
 30
0.0
 10
6.5161058503
 20
23.8287798176
 30
0.0
 10
6.4786016943
 20
23.8331406156
 30
0.0
 10
6.4251986908
 20
23.8497406664
 30
0.0
 10
6.3776759318
 20
23.8761418364
 30
0.0
 10
6.3515388178
 20
23.9006156849
 30
0.0
 10
6.3409000588
 20
23.9141519865
 30
0.0
  0
SPLINE
  5
320
100
AcDbEntity
  8
0
100
AcDbSpline
 62
7
  6
BYLAYER
 70
0
 71
3
 72
11
 73
7
 74
0
 42
0.0000001
 43
0.0000001
 44
0.0000000001
 40
0.0
 40
0.0
 40
0.0
 40
0.0
 40
0.2317480101
 40
0.4771803965
 40
0.7340822331
 40
1.0
 40
1.0
 40
1.0
 40
1.0
 10
16.2377025514
 20
18.7730754574
 30
0.0
 10
16.090544048
 20
18.688113963
 30
0.0
 10
15.7768923123
 20
18.5312043802
 30
0.0
 10
15.2727648017
 20
18.3403928842
 30
0.0
 10
14.7291441865
 20
18.1900726102
 30
0.0
 10
14.3518203331
 20
18.1195670945
 30
0.0
 10
14.1588865918
 20
18.0914075644
 30
0.0
  0
SPLINE
  5
321
100
AcDbEntity
  8
0
100
AcDbSpline
 62
7
  6
BYLAYER
 70
0
 71
3
 72
9
 73
5
 74
0
 42
0.0000001
 43
0.0000001
 44
0.0000000001
 40
0.0
 40
0.0
 40
0.0
 40
0.0
 40
0.5027277643
 40
1.0
 40
1.0
 40
1.0
 40
1.0
 10
9.1829088147
 20
27.0489414247
 30
0.0
 10
8.8519257846
 20
27.3011580251
 30
0.0
 10
8.2251853295
 20
27.845312103
 30
0.0
 10
7.6624910193
 20
28.4545851247
 30
0.0
 10
7.3988789259
 20
28.7707081343
 30
0.0
  0
SPLINE
  5
322
100
AcDbEntity
  8
0
100
AcDbSpline
 62
7
  6
BYLAYER
 70
0
 71
3
 72
9
 73
5
 74
0
 42
0.0000001
 43
0.0000001
 44
0.0000000001
 40
0.0
 40
0.0
 40
0.0
 40
0.0
 40
0.2468856925
 40
1.0
 40
1.0
 40
1.0
 40
1.0
 10
13.5948366943
 20
24.256358775
 30
0.0
 10
13.4640959105
 20
24.311469482
 30
0.0
 10
12.9389692883
 20
24.5451963542
 30
0.0
 10
12.4312861626
 20
24.8170939577
 30
0.0
 10
12.0583799856
 20
25.0367748069
 30
0.0
  0
SPLINE
  5
323
100
AcDbEntity
  8
0
100
AcDbSpline
 62
7
  6
BYLAYER
 70
0
 71
3
 72
12
 73
8
 74
0
 42
0.0000001
 43
0.0000001
 44
0.0000000001
 40
0.0
 40
0.0
 40
0.0
 40
0.0
 40
0.2475435679
 40
0.49752278
 40
0.6232004046
 40
0.7491017909
 40
1.0
 40
1.0
 40
1.0
 40
1.0
 10
12.0583799856
 20
25.0367748069
 30
0.0
 10
11.8087139913
 20
25.1838542628
 30
0.0
 10
11.3149658219
 20
25.4932397505
 30
0.0
 10
10.7141648783
 20
25.9072983119
 30
0.0
 10
10.2388267897
 20
26.2519277125
 30
0.0
 10
9.7670955794
 20
26.6032797131
 30
0.0
 10
9.4165404502
 20
26.8709757533
 30
0.0
 10
9.1829138098
 20
27.0489511487
 30
0.0
  0
SPLINE
  5
324
100
AcDbEntity
  8
0
100
AcDbSpline
 62
7
  6
BYLAYER
 70
0
 71
3
 72
11
 73
7
 74
0
 42
0.0000001
 43
0.0000001
 44
0.0000000001
 40
0.0
 40
0.0
 40
0.0
 40
0.0
 40
0.2789571878
 40
0.5378324752
 40
0.7773235028
 40
1.0
 40
1.0
 40
1.0
 40
1.0
 10
23.4149133651
 20
19.5240537419
 30
0.0
 10
23.4149133651
 20
19.4530099945
 30
0.0
 10
23.4226327919
 20
19.3158454755
 30
0.0
 10
23.4602040967
 20
19.1207770094
 30
0.0
 10
23.5230069781
 20
18.9473419432
 30
0.0
 10
23.5830938179
 20
18.8450693806
 30
0.0
 10
23.6169430329
 20
18.799568834
 30
0.0
  0
SPLINE
  5
325
100
AcDbEntity
  8
0
100
AcDbSpline
 62
7
  6
BYLAYER
 70
0
 71
3
 72
16
 73
12
 74
0
 42
0.0000001
 43
0.0000001
 44
0.0000000001
 40
0.0
 40
0.0
 40
0.0
 40
0.0
 40
0.1090110605
 40
0.2199118306
 40
0.3344280633
 40
0.4540068797
 40
0.5160801319
 40
0.5798028985
 40
0.7124778499
 40
0.8525525218
 40
1.0
 40
1.0
 40
1.0
 40
1.0
 10
33.7116346045
 20
31.4844304886
 30
0.0
 10
33.8260735729
 20
31.4183565422
 30
0.0
 10
34.0464173164
 20
31.2658592152
 30
0.0
 10
34.3395785368
 20
30.9835502179
 30
0.0
 10
34.5941831422
 20
30.6498751954
 30
0.0
 10
34.7701257465
 20
30.3356032492
 30
0.0
 10
34.8902937312
 20
30.06335058
 30
0.0
 10
34.9991836694
 20
29.7693739801
 30
0.0
 10
35.107127802
 20
29.3751025102
 30
0.0
 10
35.1902948835
 20
28.8718121387
 30
0.0
 10
35.2151337108
 20
28.5236265709
 30
0.0
 10
35.220527816
 20
28.3449710423
 30
0.0
  0
SPLINE
  5
326
100
AcDbEntity
  8
0
100
AcDbSpline
 62
7
  6
BYLAYER
 70
0
 71
3
 72
15
 73
11
 74
0
 42
0.0000001
 43
0.0000001
 44
0.0000000001
 40
0.0
 40
0.0
 40
0.0
 40
0.0
 40
0.1077317932
 40
0.2185327331
 40
0.3336667967
 40
0.4541367591
 40
0.5806575929
 40
0.7137101325
 40
0.8535394441
 40
1.0
 40
1.0
 40
1.0
 40
1.0
 10
26.0396008383
 20
19.0878682306
 30
0.0
 10
26.155605552
 20
19.0426079283
 30
0.0
 10
26.3981796453
 20
18.9684313431
 30
0.0
 10
26.7804582377
 20
18.9092446975
 30
0.0
 10
27.1818757336
 20
18.9010912725
 30
0.0
 10
27.5991959916
 20
18.9438480882
 30
0.0
 10
28.0293241417
 20
19.036937806
 30
0.0
 10
28.4691364512
 20
19.1795467886
 30
0.0
 10
28.9152521845
 20
19.3705258138
 30
0.0
 10
29.2080878652
 20
19.5254805256
 30
0.0
 10
29.354694018
 20
19.6101231221
 30
0.0
  0
SPLINE
  5
327
100
AcDbEntity
  8
0
100
AcDbSpline
 62
7
  6
BYLAYER
 70
0
 71
3
 72
15
 73
11
 74
0
 42
0.0000001
 43
0.0000001
 44
0.0000000001
 40
0.0
 40
0.0
 40
0.0
 40
0.0
 40
0.1080128123
 40
0.2180608877
 40
0.3319984268
 40
0.4513602264
 40
0.5772741036
 40
0.7104905204
 40
0.8514269206
 40
1.0
 40
1.0
 40
1.0
 40
1.0
 10
25.2985885138
 20
18.7902487323
 30
0.0
 10
25.1690628305
 20
18.86502902
 30
0.0
 10
24.9200430448
 20
19.0388123529
 30
0.0
 10
24.5909889252
 20
19.3626339173
 30
0.0
 10
24.3079814555
 20
19.7469776668
 30
0.0
 10
24.0736963739
 20
20.1875336745
 30
0.0
 10
23.8898562775
 20
20.6797567635
 30
0.0
 10
23.7579435058
 20
21.2189618764
 30
0.0
 10
23.6790058219
 20
21.7998818938
 30
0.0
 10
23.6624011801
 20
22.2010338229
 30
0.0
 10
23.6624011801
 20
22.4067593001
 30
0.0
  0
SPLINE
  5
328
100
AcDbEntity
  8
0
100
AcDbSpline
 62
7
  6
BYLAYER
 70
0
 71
3
 72
11
 73
7
 74
0
 42
0.0000001
 43
0.0000001
 44
0.0000000001
 40
0.0
 40
0.0
 40
0.0
 40
0.0
 40
0.3412116164
 40
0.6263779332
 40
0.8480485306
 40
1.0
 40
1.0
 40
1.0
 40
1.0
 10
9.1829087521
 20
27.0489414724
 30
0.0
 10
9.1871175991
 20
27.0561353627
 30
0.0
 10
9.1946227412
 20
27.0694685025
 30
0.0
 10
9.2039888553
 20
27.0879732754
 30
0.0
 10
9.2102583533
 20
27.1027713217
 30
0.0
 10
9.2129736267
 20
27.1115799717
 30
0.0
 10
9.2134052722
 20
27.1152664513
 30
0.0
  0
SPLINE
  5
329
100
AcDbEntity
  8
0
100
AcDbSpline
 62
7
  6
BYLAYER
 70
0
 71
3
 72
9
 73
5
 74
0
 42
0.0000001
 43
0.0000001
 44
0.0000000001
 40
0.0
 40
0.0
 40
0.0
 40
0.0
 40
0.496659389
 40
1.0
 40
1.0
 40
1.0
 40
1.0
 10
7.3988780905
 20
28.7707068317
 30
0.0
 10
7.6709545279
 20
28.4677878928
 30
0.0
 10
8.2475675421
 20
27.8831192411
 30
0.0
 10
8.8806674782
 20
27.3593186381
 30
0.0
 10
9.2134055725
 20
27.1152669378
 30
0.0
  0
SPLINE
  5
32A
100
AcDbEntity
  8
0
100
AcDbSpline
 62
7
  6
BYLAYER
 70
0
 71
3
 72
15
 73
11
 74
0
 42
0.0000001
 43
0.0000001
 44
0.0000000001
 40
0.0
 40
0.0
 40
0.0
 40
0.0
 40
0.1214030119
 40
0.2486794652
 40
0.3794212088
 40
0.5112214388
 40
0.6415025987
 40
0.767780807
 40
0.8879185916
 40
1.0
 40
1.0
 40
1.0
 40
1.0
 10
24.5434225195
 20
29.9343829958
 30
0.0
 10
24.4621875763
 20
29.8681331879
 30
0.0
 10
24.3042722153
 20
29.7217927716
 30
0.0
 10
24.0893074044
 20
29.4738340388
 30
0.0
 10
23.8954930896
 20
29.1979569366
 30
0.0
 10
23.7283564711
 20
28.902194104
 30
0.0
 10
23.592718624
 20
28.5949156049
 30
0.0
 10
23.492358258
 20
28.2848658404
 30
0.0
 10
23.4302678584
 20
27.9809491474
 30
0.0
 10
23.4149133651
 20
27.7802830668
 30
0.0
 10
23.4149133651
 20
27.6835073341
 30
0.0
  0
SPLINE
  5
32B
100
AcDbEntity
  8
0
100
AcDbSpline
 62
7
  6
BYLAYER
 70
0
 71
3
 72
13
 73
9
 74
0
 42
0.0000001
 43
0.0000001
 44
0.0000000001
 40
0.0
 40
0.0
 40
0.0
 40
0.0
 40
0.2307971198
 40
0.3511743305
 40
0.4747902039
 40
0.601589081
 40
0.7314885098
 40
1.0
 40
1.0
 40
1.0
 40
1.0
 10
33.6000656062
 20
35.1632071081
 30
0.0
 10
32.834328532
 20
34.9034995198
 30
0.0
 10
31.6905914898
 20
34.4423540337
 30
0.0
 10
30.1965275429
 20
33.7104075052
 30
0.0
 10
29.0572434598
 20
33.0852418129
 30
0.0
 10
27.9181222917
 20
32.3932840779
 30
0.0
 10
26.3865354179
 20
31.3728009773
 30
0.0
 10
25.2724365899
 20
30.528918306
 30
0.0
 10
24.5434225195
 20
29.9343829958
 30
0.0
  0
SPLINE
  5
32C
100
AcDbEntity
  8
0
100
AcDbSpline
 62
7
  6
BYLAYER
 70
0
 71
3
 72
28
 73
24
 74
0
 42
0.0000001
 43
0.0000001
 44
0.0000000001
 40
0.0
 40
0.0
 40
0.0
 40
0.0
 40
0.030661876
 40
0.0624015789
 40
0.1287331252
 40
0.198315454
 40
0.270282626
 40
0.3436496165
 40
0.4173710902
 40
0.4903853194
 40
0.5616619716
 40
0.6302497581
 40
0.695328461
 40
0.7562678745
 40
0.8126977321
 40
0.839219688
 40
0.8646393643
 40
0.8890228398
 40
0.9124692911
 40
0.9351108275
 40
0.9571133308
 40
0.9786707953
 40
1.0
 40
1.0
 40
1.0
 40
1.0
 10
23.6624011801
 20
22.4067593001
 30
0.0
 10
23.6624011801
 20
22.5678680801
 30
0.0
 10
23.6730561996
 20
22.8958284439
 30
0.0
 10
23.7349701698
 20
23.5697082346
 30
0.0
 10
23.8895221331
 20
24.4388028903
 30
0.0
 10
24.1865441002
 20
25.4915460156
 30
0.0
 10
24.5915692264
 20
26.5472721362
 30
0.0
 10
25.0959554394
 20
27.5834207726
 30
0.0
 10
25.6889425444
 20
28.5779347414
 30
0.0
 10
26.3578842106
 20
29.5095885179
 30
0.0
 10
27.0885334596
 20
30.3585336687
 30
0.0
 10
27.8653727332
 20
31.1067140059
 30
0.0
 10
28.6721136856
 20
31.738297188
 30
0.0
 10
29.4917999057
 20
32.2398095402
 30
0.0
 10
30.1860561053
 20
32.5466483318
 30
0.0
 10
30.7312583205
 20
32.7129734105
 30
0.0
 10
31.1239883774
 20
32.7968405514
 30
0.0
 10
31.5068350101
 20
32.8418481466
 30
0.0
 10
31.8777577704
 20
32.8477154848
 30
0.0
 10
32.2347196054
 20
32.8142157945
 30
0.0
 10
32.5757471655
 20
32.7415074296
 30
0.0
 10
32.8987776957
 20
32.6298131159
 30
0.0
 10
33.1013972625
 20
32.5295624572
 30
0.0
 10
33.1984544744
 20
32.4735274991
 30
0.0
  0
SPLINE
  5
32D
100
AcDbEntity
  8
0
100
AcDbSpline
 62
7
  6
BYLAYER
 70
0
 71
3
 72
11
 73
7
 74
0
 42
0.0000001
 43
0.0000001
 44
0.0000000001
 40
0.0
 40
0.0
 40
0.0
 40
0.0
 40
0.2470563671
 40
0.4946943281
 40
0.7451028183
 40
1.0
 40
1.0
 40
1.0
 40
1.0
 10
27.4688544128
 20
18.2384228269
 30
0.0
 10
27.4780498695
 20
18.2383204523
 30
0.0
 10
27.4966039394
 20
18.2407533124
 30
0.0
 10
27.5222456676
 20
18.2523763615
 30
0.0
 10
27.5433359759
 20
18.2715013245
 30
0.0
 10
27.5529149403
 20
18.2881000658
 30
0.0
 10
27.5563468987
 20
18.2969454904
 30
0.0
  0
SPLINE
  5
32E
100
AcDbEntity
  8
0
100
AcDbSpline
 62
7
  6
BYLAYER
 70
0
 71
3
 72
11
 73
7
 74
0
 42
0.0000001
 43
0.0000001
 44
0.0000000001
 40
0.0
 40
0.0
 40
0.0
 40
0.0
 40
0.2478292322
 40
0.4979282348
 40
0.7492678617
 40
1.0
 40
1.0
 40
1.0
 40
1.0
 10
12.1101851909
 20
25.134255007
 30
0.0
 10
11.8589779474
 20
25.2793052933
 30
0.0
 10
11.361890883
 20
25.5840867266
 30
0.0
 10
10.6345317911
 20
26.0743749854
 30
0.0
 10
9.9196012456
 20
26.588292499
 30
0.0
 10
9.448330069
 20
26.9393751549
 30
0.0
 10
9.2134055725
 20
27.1152669378
 30
0.0
  0
SPLINE
  5
32F
100
AcDbEntity
  8
0
100
AcDbSpline
 62
7
  6
BYLAYER
 70
0
 71
3
 72
11
 73
7
 74
0
 42
0.0000001
 43
0.0000001
 44
0.0000000001
 40
0.0
 40
0.0
 40
0.0
 40
0.0
 40
0.2473661008
 40
0.4945699342
 40
0.7445917194
 40
1.0
 40
1.0
 40
1.0
 40
1.0
 10
34.1245170332
 20
31.4736312662
 30
0.0
 10
34.0356381761
 20
31.5437325586
 30
0.0
 10
33.8483466411
 20
31.6722206379
 30
0.0
 10
33.5429506692
 20
31.8255888775
 30
0.0
 10
33.2162830397
 20
31.9377652692
 30
0.0
 10
32.9889578581
 20
31.984149155
 30
0.0
 10
32.8732334005
 20
32.0005263054
 30
0.0
  0
SPLINE
  5
330
100
AcDbEntity
  8
0
100
AcDbSpline
 62
7
  6
BYLAYER
 70
0
 71
3
 72
15
 73
11
 74
0
 42
0.0000001
 43
0.0000001
 44
0.0000000001
 40
0.0
 40
0.0
 40
0.0
 40
0.0
 40
0.1134537928
 40
0.2282209283
 40
0.3454846301
 40
0.4663047435
 40
0.5915628507
 40
0.7219670405
 40
0.8580582692
 40
1.0
 40
1.0
 40
1.0
 40
1.0
 10
5.0557547405
 20
40.4300906701
 30
0.0
 10
5.0566387649
 20
40.2633509907
 30
0.0
 10
5.0842070352
 20
39.9275284115
 30
0.0
 10
5.2021324628
 20
39.4318023084
 30
0.0
 10
5.3955042848
 20
38.9486558468
 30
0.0
 10
5.6624052091
 20
38.4842230015
 30
0.0
 10
6.0000317452
 20
38.0439449337
 30
0.0
 10
6.4052077276
 20
37.6329408994
 30
0.0
 10
6.8738396461
 20
37.2559449333
 30
0.0
 10
7.2182151351
 20
37.0344639863
 30
0.0
 10
7.3988780905
 20
36.930160424
 30
0.0
  0
SPLINE
  5
331
100
AcDbEntity
  8
0
100
AcDbSpline
 62
7
  6
BYLAYER
 70
0
 71
3
 72
15
 73
11
 74
0
 42
0.0000001
 43
0.0000001
 44
0.0000000001
 40
0.0
 40
0.0
 40
0.0
 40
0.0
 40
0.0980154486
 40
0.2032715306
 40
0.3167485388
 40
0.4387546887
 40
0.569001964
 40
0.7067349572
 40
0.8508694515
 40
1.0
 40
1.0
 40
1.0
 40
1.0
 10
32.3597810274
 20
32.6469276843
 30
0.0
 10
32.1422009403
 20
32.6663635483
 30
0.0
 10
31.6860131472
 20
32.6599472492
 30
0.0
 10
30.989897527
 20
32.5264124433
 30
0.0
 10
30.2715601829
 20
32.27243994
 30
0.0
 10
29.5428012418
 20
31.9030120106
 30
0.0
 10
28.8152640925
 20
31.4245343628
 30
0.0
 10
28.1008196143
 20
30.8451369296
 30
0.0
 10
27.4114389267
 20
30.1745856689
 30
0.0
 10
26.9818951195
 20
29.6808467915
 30
0.0
 10
26.7736607134
 20
29.4217988687
 30
0.0
  0
SPLINE
  5
332
100
AcDbEntity
  8
0
100
AcDbSpline
 62
7
  6
BYLAYER
 70
0
 71
3
 72
11
 73
7
 74
0
 42
0.0000001
 43
0.0000001
 44
0.0000000001
 40
0.0
 40
0.0
 40
0.0
 40
0.0
 40
0.2479568392
 40
0.4990413805
 40
0.7506343953
 40
1.0
 40
1.0
 40
1.0
 40
1.0
 10
32.8732334005
 20
32.0005263054
 30
0.0
 10
32.8767305665
 20
32.0095397943
 30
0.0
 10
32.8809362652
 20
32.0288887479
 30
0.0
 10
32.8787695536
 20
32.058447503
 30
0.0
 10
32.8686665222
 20
32.0863353994
 30
0.0
 10
32.8573923678
 20
32.102595211
 30
0.0
 10
32.850862393
 20
32.1097992191
 30
0.0
  0
SPLINE
  5
333
100
AcDbEntity
  8
0
100
AcDbSpline
 62
7
  6
BYLAYER
 70
0
 71
3
 72
15
 73
11
 74
0
 42
0.0000001
 43
0.0000001
 44
0.0000000001
 40
0.0
 40
0.0
 40
0.0
 40
0.0
 40
0.0993906806
 40
0.2058127749
 40
0.3199813489
 40
0.4421370127
 40
0.5720062845
 40
0.7089274035
 40
0.8520113579
 40
1.0
 40
1.0
 40
1.0
 40
1.0
 10
32.5670484574
 20
32.0278770056
 30
0.0
 10
32.3694266615
 20
32.0356044599
 30
0.0
 10
31.958113131
 20
32.0131416993
 30
0.0
 10
31.3338256166
 20
31.8773691177
 30
0.0
 10
30.6919123134
 20
31.6413162273
 30
0.0
 10
30.0417131588
 20
31.3090303044
 30
0.0
 10
29.3924254383
 20
30.8854841859
 30
0.0
 10
28.7533317527
 20
30.3770225692
 30
0.0
 10
28.1339427159
 20
29.7911753214
 30
0.0
 10
27.7454419421
 20
29.3607052644
 30
0.0
 10
27.5563468987
 20
29.1349643802
 30
0.0
  0
SPLINE
  5
334
100
AcDbEntity
  8
0
100
AcDbSpline
 62
7
  6
BYLAYER
 70
0
 71
3
 72
15
 73
11
 74
0
 42
0.0000001
 43
0.0000001
 44
0.0000000001
 40
0.0
 40
0.0
 40
0.0
 40
0.0
 40
0.0992545746
 40
0.2055652589
 40
0.3196667788
 40
0.4418081284
 40
0.5717137866
 40
0.7087122443
 40
0.8519002943
 40
1.0
 40
1.0
 40
1.0
 40
1.0
 10
32.570624716
 20
32.1348355526
 30
0.0
 10
32.3696404127
 20
32.1436452662
 30
0.0
 10
31.9510463299
 20
32.1223878015
 30
0.0
 10
31.3154065652
 20
31.9857057168
 30
0.0
 10
30.6616000653
 20
31.7461662304
 30
0.0
 10
29.9992564723
 20
31.4079392228
 30
0.0
 10
29.3378596226
 20
30.9761539811
 30
0.0
 10
28.6869835231
 20
30.4573624429
 30
0.0
 10
28.0564377918
 20
29.8593459698
 30
0.0
 10
27.6611801481
 20
29.419842375
 30
0.0
 10
27.4688698897
 20
29.1893534307
 30
0.0
  0
SPLINE
  5
335
100
AcDbEntity
  8
0
100
AcDbSpline
 62
7
  6
BYLAYER
 70
0
 71
3
 72
11
 73
7
 74
0
 42
0.0000001
 43
0.0000001
 44
0.0000000001
 40
0.0
 40
0.0
 40
0.0
 40
0.0
 40
0.199824001
 40
0.4447296572
 40
0.7179432987
 40
1.0
 40
1.0
 40
1.0
 40
1.0
 10
27.5563468987
 20
29.1349643802
 30
0.0
 10
27.5523519117
 20
29.1406479515
 30
0.0
 10
27.541290386
 20
29.151721625
 30
0.0
 10
27.5208367527
 20
29.1661168469
 30
0.0
 10
27.4961488211
 20
29.1790935748
 30
0.0
 10
27.4781684125
 20
29.1862258577
 30
0.0
 10
27.4688739218
 20
29.1893518257
 30
0.0
  0
SPLINE
  5
336
100
AcDbEntity
  8
0
100
AcDbSpline
 62
7
  6
BYLAYER
 70
0
 71
3
 72
15
 73
11
 74
0
 42
0.0000001
 43
0.0000001
 44
0.0000000001
 40
0.0
 40
0.0
 40
0.0
 40
0.0
 40
0.1298421566
 40
0.2611898165
 40
0.3925249453
 40
0.5223738123
 40
0.6492911192
 40
0.7719393733
 40
0.8891632796
 40
1.0
 40
1.0
 40
1.0
 40
1.0
 10
26.7736607134
 20
29.4217988687
 30
0.0
 10
26.5606161732
 20
29.1567669945
 30
0.0
 10
26.1531321006
 20
28.606343627
 30
0.0
 10
25.6055317769
 20
27.7352611093
 30
0.0
 10
25.1249236303
 20
26.8254040481
 30
0.0
 10
24.7194422054
 20
25.8922895196
 30
0.0
 10
24.3959760512
 20
24.9516292725
 30
0.0
 10
24.1599266737
 20
24.0192361805
 30
0.0
 10
24.0153790431
 20
23.1109280245
 30
0.0
 10
23.9806005597
 20
22.5133215041
 30
0.0
 10
23.9806005564
 20
22.2230509606
 30
0.0
  0
SPLINE
  5
337
100
AcDbEntity
  8
0
100
AcDbSpline
 62
7
  6
BYLAYER
 70
0
 71
3
 72
15
 73
11
 74
0
 42
0.0000001
 43
0.0000001
 44
0.0000000001
 40
0.0
 40
0.0
 40
0.0
 40
0.0
 40
0.129848833
 40
0.2609008955
 40
0.3917562377
 40
0.5211435234
 40
0.6477751539
 40
0.7704553054
 40
0.8881739466
 40
1.0
 40
1.0
 40
1.0
 40
1.0
 10
27.1886345399
 20
28.8407347488
 30
0.0
 10
26.9988441416
 20
28.595692059
 30
0.0
 10
26.6356697444
 20
28.0889913605
 30
0.0
 10
26.1461496471
 20
27.2913707191
 30
0.0
 10
25.714935246
 20
26.4619577177
 30
0.0
 10
25.3485020471
 20
25.6134235095
 30
0.0
 10
25.0524142474
 20
24.7584303848
 30
0.0
 10
24.8310201533
 20
23.9097627869
 30
0.0
 10
24.6877983745
 20
23.0802805832
 30
0.0
 10
24.6446013151
 20
22.5330192519
 30
0.0
 10
24.637757263
 20
22.2661812326
 30
0.0
  0
SPLINE
  5
338
100
AcDbEntity
  8
0
100
AcDbSpline
 62
7
  6
BYLAYER
 70
0
 71
3
 72
15
 73
11
 74
0
 42
0.0000001
 43
0.0000001
 44
0.0000000001
 40
0.0
 40
0.0
 40
0.0
 40
0.0
 40
0.1298486408
 40
0.2608669126
 40
0.3916729627
 40
0.5210124356
 40
0.6476148835
 40
0.7702998228
 40
0.8880689997
 40
1.0
 40
1.0
 40
1.0
 40
1.0
 10
27.2501619556
 20
28.7540638718
 30
0.0
 10
27.0642559891
 20
28.513090302
 30
0.0
 10
26.7084970177
 20
28.015029409
 30
0.0
 10
26.2288166369
 20
27.23143101
 30
0.0
 10
25.8060954174
 20
26.4169776967
 30
0.0
 10
25.4466005289
 20
25.5839535468
 30
0.0
 10
25.1557208061
 20
24.744631579
 30
0.0
 10
24.9376744459
 20
23.9114028665
 30
0.0
 10
24.7958431841
 20
23.0967338318
 30
0.0
 10
24.7522387046
 20
22.5590978308
 30
0.0
 10
24.7448111762
 20
22.2968493228
 30
0.0
  0
SPLINE
  5
339
100
AcDbEntity
  8
0
100
AcDbSpline
 62
7
  6
BYLAYER
 70
0
 71
3
 72
10
 73
6
 74
0
 42
0.0000001
 43
0.0000001
 44
0.0000000001
 40
0.0
 40
0.0
 40
0.0
 40
0.0
 40
0.2662374566
 40
0.5283312355
 40
1.0
 40
1.0
 40
1.0
 40
1.0
 10
24.6377412655
 20
21.8925355296
 30
0.0
 10
24.6465172567
 20
21.8881578621
 30
0.0
 10
24.6648960252
 20
21.881193181
 30
0.0
 10
24.701242395
 20
21.8751636718
 30
0.0
 10
24.7297643076
 20
21.8799108524
 30
0.0
 10
24.7448111762
 20
21.8885981142
 30
0.0
  0
SPLINE
  5
33A
100
AcDbEntity
  8
0
100
AcDbSpline
 62
7
  6
BYLAYER
 70
0
 71
3
 72
15
 73
11
 74
0
 42
0.0000001
 43
0.0000001
 44
0.0000000001
 40
0.0
 40
0.0
 40
0.0
 40
0.0
 40
0.1485803541
 40
0.2895098932
 40
0.422725528
 40
0.5486429145
 40
0.6680035202
 40
0.7819416764
 40
0.8919920377
 40
1.0
 40
1.0
 40
1.0
 40
1.0
 10
23.9806005564
 20
22.2230509606
 30
0.0
 10
23.9806005508
 20
22.0173153665
 30
0.0
 10
23.9971978797
 20
21.6161622639
 30
0.0
 10
24.0761476915
 20
21.0352438672
 30
0.0
 10
24.2080595186
 20
20.496045447
 30
0.0
 10
24.3918898603
 20
20.0038149436
 30
0.0
 10
24.6261945617
 20
19.5632657915
 30
0.0
 10
24.9091862003
 20
19.1789065942
 30
0.0
 10
25.238256978
 20
18.8551052375
 30
0.0
 10
25.4872667383
 20
18.6813151673
 30
0.0
 10
25.6167874991
 20
18.6065397211
 30
0.0
  0
SPLINE
  5
33B
100
AcDbEntity
  8
0
100
AcDbSpline
 62
7
  6
BYLAYER
 70
0
 71
3
 72
10
 73
6
 74
0
 42
0.0000001
 43
0.0000001
 44
0.0000000001
 40
0.0
 40
0.0
 40
0.0
 40
0.0
 40
0.5085128147
 40
0.7530446073
 40
1.0
 40
1.0
 40
1.0
 40
1.0
 10
35.3785841799
 20
28.0279731732
 30
0.0
 10
35.3872284663
 20
28.0329639245
 30
0.0
 10
35.3986874336
 20
28.0435879102
 30
0.0
 10
35.4065634665
 20
28.0617756879
 30
0.0
 10
35.4079902768
 20
28.0714452159
 30
0.0
 10
35.4081155987
 20
28.0762910585
 30
0.0
  0
SPLINE
  5
33C
100
AcDbEntity
  8
0
100
AcDbSpline
 62
7
  6
BYLAYER
 70
0
 71
3
 72
9
 73
5
 74
0
 42
0.0000001
 43
0.0000001
 44
0.0000000001
 40
0.0
 40
0.0
 40
0.0
 40
0.0
 40
0.2460759851
 40
1.0
 40
1.0
 40
1.0
 40
1.0
 10
7.0948549385
 20
23.1432390747
 30
0.0
 10
7.1091906738
 20
23.1206962309
 30
0.0
 10
7.168706463
 20
23.0298911141
 30
0.0
 10
7.2331465735
 20
22.9423316089
 30
0.0
 10
7.284067771
 20
22.8782510919
 30
0.0
  0
SPLINE
  5
33D
100
AcDbEntity
  8
0
100
AcDbSpline
 62
7
  6
BYLAYER
 70
0
 71
3
 72
12
 73
8
 74
0
 42
0.0000001
 43
0.0000001
 44
0.0000000001
 40
0.0
 40
0.0
 40
0.0
 40
0.0
 40
0.2233044492
 40
0.341677244
 40
0.4645866142
 40
0.7237717922
 40
1.0
 40
1.0
 40
1.0
 40
1.0
 10
7.284067771
 20
22.8782510919
 30
0.0
 10
7.4069741585
 20
22.7235825997
 30
0.0
 10
7.616467772
 20
22.5033487881
 30
0.0
 10
7.9304629268
 20
22.2378682781
 30
0.0
 10
8.2875466365
 20
21.9755121767
 30
0.0
 10
8.7892341994
 20
21.6768287821
 30
0.0
 10
9.221262856
 20
21.4803156054
 30
0.0
 10
9.4482736725
 20
21.3898375432
 30
0.0
  0
SPLINE
  5
33E
100
AcDbEntity
  8
0
100
AcDbSpline
 62
7
  6
BYLAYER
 70
0
 71
3
 72
18
 73
14
 74
0
 42
0.0000001
 43
0.0000001
 44
0.0000000001
 40
0.0
 40
0.0
 40
0.0
 40
0.0
 40
0.1206777147
 40
0.2474998919
 40
0.3781484242
 40
0.5100608222
 40
0.640594376
 40
0.7045629378
 40
0.767245713
 40
0.8283592609
 40
0.8876668189
 40
0.9449566375
 40
1.0
 40
1.0
 40
1.0
 40
1.0
 10
9.4482736725
 20
21.3898375432
 30
0.0
 10
9.7603290325
 20
21.2654638913
 30
0.0
 10
10.4174975813
 20
21.0521227467
 30
0.0
 10
11.4506613327
 20
20.8409899752
 30
0.0
 10
12.5313086733
 20
20.735001307
 30
0.0
 10
13.627292658
 20
20.7373579563
 30
0.0
 10
14.5329279657
 20
20.8301389297
 30
0.0
 10
15.2374330607
 20
20.9590736976
 30
0.0
 10
15.7459812233
 20
21.0809791735
 30
0.0
 10
16.2343599271
 20
21.2278539912
 30
0.0
 10
16.6989962539
 20
21.3985935734
 30
0.0
 10
17.1362655873
 20
21.5919693848
 30
0.0
 10
17.4131604548
 20
21.7379552136
 30
0.0
 10
17.5458555429
 20
21.8145663012
 30
0.0
  0
SPLINE
  5
33F
100
AcDbEntity
  8
0
100
AcDbSpline
 62
7
  6
BYLAYER
 70
0
 71
3
 72
15
 73
11
 74
0
 42
0.0000001
 43
0.0000001
 44
0.0000000001
 40
0.0
 40
0.0
 40
0.0
 40
0.0
 40
0.1449514995
 40
0.2845515954
 40
0.4184256059
 40
0.5463437928
 40
0.6682300332
 40
0.7842253749
 40
0.8946625524
 40
1.0
 40
1.0
 40
1.0
 40
1.0
 10
31.0964053235
 20
19.9203088843
 30
0.0
 10
30.9533051288
 20
19.8038803189
 30
0.0
 10
30.6652679981
 20
19.583875797
 30
0.0
 10
30.2210676538
 20
19.2893963721
 30
0.0
 10
29.7755106989
 20
19.0384899645
 30
0.0
 10
29.3319246441
 20
18.8330033945
 30
0.0
 10
28.893489511
 20
18.6745284823
 30
0.0
 10
28.4633206873
 20
18.5642576626
 30
0.0
 10
28.0446760676
 20
18.5032757756
 30
0.0
 10
27.7693443818
 20
18.4955939649
 30
0.0
 10
27.6353750806
 20
18.5006303118
 30
0.0
  0
SPLINE
  5
340
100
AcDbEntity
  8
0
100
AcDbSpline
 62
7
  6
BYLAYER
 70
0
 71
3
 72
15
 73
11
 74
0
 42
0.0000001
 43
0.0000001
 44
0.0000000001
 40
0.0
 40
0.0
 40
0.0
 40
0.0
 40
0.1457290147
 40
0.2851350695
 40
0.4180607771
 40
0.5447064034
 40
0.6654849054
 40
0.7810120579
 40
0.8921486749
 40
1.0
 40
1.0
 40
1.0
 40
1.0
 10
34.5165520297
 20
28.5507730904
 30
0.0
 10
34.5165520297
 20
28.7135866321
 30
0.0
 10
34.5052315251
 20
29.0323019136
 30
0.0
 10
34.4519464082
 20
29.4968382944
 30
0.0
 10
34.362852823
 20
29.9342258216
 30
0.0
 10
34.2385806443
 20
30.341329348
 30
0.0
 10
34.0798306234
 20
30.7153505613
 30
0.0
 10
33.8875705067
 20
31.0536691065
 30
0.0
 10
33.6630124022
 20
31.3536689289
 30
0.0
 10
33.4907087942
 20
31.5286753941
 30
0.0
 10
33.4002363679
 20
31.608260876
 30
0.0
  0
SPLINE
  5
341
100
AcDbEntity
  8
0
100
AcDbSpline
 62
7
  6
BYLAYER
 70
0
 71
3
 72
15
 73
11
 74
0
 42
0.0000001
 43
0.0000001
 44
0.0000000001
 40
0.0
 40
0.0
 40
0.0
 40
0.0
 40
0.1098410793
 40
0.2316103526
 40
0.3626990402
 40
0.4986833409
 40
0.6346997028
 40
0.7661066633
 40
0.888667618
 40
1.0
 40
1.0
 40
1.0
 40
1.0
 10
7.3988780945
 20
36.9301604243
 30
0.0
 10
7.3988780948
 20
37.0250001071
 30
0.0
 10
7.414061491
 20
37.2251084493
 30
0.0
 10
7.4761828139
 20
37.5327624791
 30
0.0
 10
7.5807837129
 20
37.8525208229
 30
0.0
 10
7.7228470426
 20
38.1709280654
 30
0.0
 10
7.8976052825
 20
38.4729208384
 30
0.0
 10
8.0942264485
 20
38.7469754754
 30
0.0
 10
8.3037686054
 20
38.9834278672
 30
0.0
 10
8.4528922159
 20
39.1202828947
 30
0.0
 10
8.5273872535
 20
39.1810360812
 30
0.0
  0
SPLINE
  5
342
100
AcDbEntity
  8
0
100
AcDbSpline
 62
7
  6
BYLAYER
 70
0
 71
3
 72
14
 73
10
 74
0
 42
0.0000001
 43
0.0000001
 44
0.0000000001
 40
0.0
 40
0.0
 40
0.0
 40
0.0
 40
0.2706045011
 40
0.4017074216
 40
0.5288289919
 40
0.6516726052
 40
0.770478768
 40
0.8861143055
 40
1.0
 40
1.0
 40
1.0
 40
1.0
 10
8.813048824
 20
44.7785679881
 30
0.0
 10
8.7309232675
 20
44.8259819107
 30
0.0
 10
8.6032486788
 20
44.8875477284
 30
0.0
 10
8.4259071585
 20
44.9423270316
 30
0.0
 10
8.2943404529
 20
44.9671315147
 30
0.0
 10
8.1648959968
 20
44.9742619217
 30
0.0
 10
8.0396989366
 20
44.9627219185
 30
0.0
 10
7.9211075253
 20
44.9314986968
 30
0.0
 10
7.8476228697
 20
44.8975711647
 30
0.0
 10
7.813059848
 20
44.8776165941
 30
0.0
  0
SPLINE
  5
343
100
AcDbEntity
  8
0
100
AcDbSpline
 62
7
  6
BYLAYER
 70
0
 71
3
 72
12
 73
8
 74
0
 42
0.0000001
 43
0.0000001
 44
0.0000000001
 40
0.0
 40
0.0
 40
0.0
 40
0.0
 40
0.2610656634
 40
0.5137965793
 40
0.6371709348
 40
0.7589933715
 40
1.0
 40
1.0
 40
1.0
 40
1.0
 10
17.5840303269
 20
44.4098602012
 30
0.0
 10
17.6442136487
 20
44.430271995
 30
0.0
 10
17.7657380482
 20
44.4621060267
 30
0.0
 10
17.9213485202
 20
44.4751729832
 30
0.0
 10
18.0424480704
 20
44.4655767087
 30
0.0
 10
18.1587090152
 20
44.4424793619
 30
0.0
 10
18.2419026778
 20
44.4092688422
 30
0.0
 10
18.29302981
 20
44.3804954492
 30
0.0
  0
SPLINE
  5
344
100
AcDbEntity
  8
0
100
AcDbSpline
 62
7
  6
BYLAYER
 70
0
 71
3
 72
23
 73
19
 74
0
 42
0.0000001
 43
0.0000001
 44
0.0000000001
 40
0.0
 40
0.0
 40
0.0
 40
0.0
 40
0.0549395392
 40
0.1129428969
 40
0.1736043744
 40
0.2364547218
 40
0.3010038674
 40
0.3667557741
 40
0.4332241005
 40
0.4999487644
 40
0.5664974925
 40
0.6324799317
 40
0.6975431935
 40
0.7613768194
 40
0.8237177004
 40
0.8843668591
 40
0.9431721257
 40
1.0
 40
1.0
 40
1.0
 40
1.0
 10
17.5840332574
 20
44.4098611908
 30
0.0
 10
17.4392875519
 20
44.4934282198
 30
0.0
 10
17.1352336099
 20
44.654144235
 30
0.0
 10
16.6531099044
 20
44.8705072557
 30
0.0
 10
16.136546551
 20
45.0665473327
 30
0.0
 10
15.5909493917
 20
45.2396493792
 30
0.0
 10
15.0218674649
 20
45.3871294257
 30
0.0
 10
14.4350040436
 20
45.5065546363
 30
0.0
 10
13.8360483504
 20
45.5954850547
 30
0.0
 10
13.2307064019
 20
45.6519158203
 30
0.0
 10
12.6245880802
 20
45.6738477901
 30
0.0
 10
12.0232523394
 20
45.6599121534
 30
0.0
 10
11.4321855112
 20
45.6087393132
 30
0.0
 10
10.8567579362
 20
45.5198571698
 30
0.0
 10
10.3022613752
 20
45.3927632452
 30
0.0
 10
9.7737001261
 20
45.2279497055
 30
0.0
 10
9.2762192172
 20
45.0260046551
 30
0.0
 10
8.9627733147
 20
44.8650008648
 30
0.0
 10
8.8130487003
 20
44.7785681801
 30
0.0
  0
SPLINE
  5
345
100
AcDbEntity
  8
0
100
AcDbSpline
 62
7
  6
BYLAYER
 70
0
 71
3
 72
23
 73
19
 74
0
 42
0.0000001
 43
0.0000001
 44
0.0000000001
 40
0.0
 40
0.0
 40
0.0
 40
0.0
 40
0.0715482936
 40
0.1405389404
 40
0.207025285
 40
0.2711878218
 40
0.3332849987
 40
0.3936247565
 40
0.4525768624
 40
0.5105690647
 40
0.5680797931
 40
0.625619198
 40
0.6837218224
 40
0.742919859
 40
0.8037262164
 40
0.8665995826
 40
0.9319284641
 40
1.0
 40
1.0
 40
1.0
 40
1.0
 10
8.8130488671
 20
44.778568013
 30
0.0
 10
8.6686003832
 20
44.6951607628
 30
0.0
 10
8.3924062363
 20
44.5177449386
 30
0.0
 10
8.0145033177
 20
44.2161199131
 30
0.0
 10
7.6843601737
 20
43.8866213293
 30
0.0
 10
7.4050411766
 20
43.5332302545
 30
0.0
 10
7.1794395377
 20
43.1598845252
 30
0.0
 10
7.0096107665
 20
42.7712083677
 30
0.0
 10
6.8976737449
 20
42.3719298872
 30
0.0
 10
6.8447587467
 20
41.9672284993
 30
0.0
 10
6.8519644461
 20
41.5623914514
 30
0.0
 10
6.9193754356
 20
41.1628543199
 30
0.0
 10
7.0469875112
 20
40.7741574362
 30
0.0
 10
7.2335958267
 20
40.4015909858
 30
0.0
 10
7.4778766996
 20
40.0504748468
 30
0.0
 10
7.777200574
 20
39.725332015
 30
0.0
 10
8.1287993487
 20
39.4307268008
 30
0.0
 10
8.389950089
 20
39.2603793307
 30
0.0
 10
8.527384337
 20
39.1810337148
 30
0.0
  0
SPLINE
  5
346
100
AcDbEntity
  8
0
100
AcDbSpline
 62
7
  6
BYLAYER
 70
0
 71
3
 72
21
 73
17
 74
0
 42
0.0000001
 43
0.0000001
 44
0.0000000001
 40
0.0
 40
0.0
 40
0.0
 40
0.0
 40
0.136398723
 40
0.2711200963
 40
0.4037324648
 40
0.5335864271
 40
0.5971816735
 40
0.6596460769
 40
0.7207149966
 40
0.7800102119
 40
0.8369754991
 40
0.890842624
 40
0.9165326551
 40
0.941765381
 40
0.9682639607
 40
1.0
 40
1.0
 40
1.0
 40
1.0
 10
9.39552932
 20
16.6131657066
 30
0.0
 10
9.4144372421
 20
16.6039380271
 30
0.0
 10
9.452180201
 20
16.5859202705
 30
0.0
 10
9.5089497924
 20
16.5603029687
 30
0.0
 10
9.5654757433
 20
16.5366509907
 30
0.0
 10
9.6125756087
 20
16.5189548219
 30
0.0
 10
9.6500666157
 20
16.5065814538
 30
0.0
 10
9.6777765462
 20
16.4984717715
 30
0.0
 10
9.7051750378
 20
16.4917502766
 30
0.0
 10
9.7321146697
 20
16.4868375103
 30
0.0
 10
9.7582706172
 20
16.4844427522
 30
0.0
 10
9.7794958751
 20
16.4855371564
 30
0.0
 10
9.7951274975
 20
16.4899667163
 30
0.0
 10
9.8057002531
 20
16.4959061383
 30
0.0
 10
9.8139776243
 20
16.5063333993
 30
0.0
 10
9.8155586948
 20
16.5155732689
 30
0.0
 10
9.8155586948
 20
16.5204685469
 30
0.0
  0
SPLINE
  5
347
100
AcDbEntity
  8
0
100
AcDbSpline
 62
7
  6
BYLAYER
 70
0
 71
3
 72
9
 73
5
 74
0
 42
0.0000001
 43
0.0000001
 44
0.0000000001
 40
0.0
 40
0.0
 40
0.0
 40
0.0
 40
0.496555836
 40
1.0
 40
1.0
 40
1.0
 40
1.0
 10
18.8056972996
 20
19.2629298645
 30
0.0
 10
18.805697024
 20
19.1699082734
 30
0.0
 10
18.7919938671
 20
18.9823260215
 30
0.0
 10
18.7514231613
 20
18.7987241582
 30
0.0
 10
18.7248592573
 20
18.7082304373
 30
0.0
  0
SPLINE
  5
348
100
AcDbEntity
  8
0
100
AcDbSpline
 62
7
  6
BYLAYER
 70
0
 71
3
 72
14
 73
10
 74
0
 42
0.0000001
 43
0.0000001
 44
0.0000000001
 40
0.0
 40
0.0
 40
0.0
 40
0.0
 40
0.1088573178
 40
0.2211812653
 40
0.3377548529
 40
0.4591905086
 40
0.7181136345
 40
0.8562596325
 40
1.0
 40
1.0
 40
1.0
 40
1.0
 10
18.7248592573
 20
18.7082304373
 30
0.0
 10
18.7005313493
 20
18.6253539549
 30
0.0
 10
18.640542323
 20
18.4598918141
 30
0.0
 10
18.5201722599
 20
18.2198554873
 30
0.0
 10
18.3690897979
 20
17.9858960617
 30
0.0
 10
18.1227066207
 20
17.6773784658
 30
0.0
 10
17.8216384276
 20
17.3935008505
 30
0.0
 10
17.4779162016
 20
17.1363033671
 30
0.0
 10
17.2895669372
 20
17.0152370556
 30
0.0
 10
17.1916729878
 20
16.9567176796
 30
0.0
  0
SPLINE
  5
349
100
AcDbEntity
  8
0
100
AcDbSpline
 62
7
  6
BYLAYER
 70
0
 71
3
 72
10
 73
6
 74
0
 42
0.0000001
 43
0.0000001
 44
0.0000000001
 40
0.0
 40
0.0
 40
0.0
 40
0.0
 40
0.2483403149
 40
0.4986604462
 40
1.0
 40
1.0
 40
1.0
 40
1.0
 10
14.1969635304
 20
17.6213973446
 30
0.0
 10
14.2181316679
 20
17.6091785474
 30
0.0
 10
14.2625793022
 20
17.5879017091
 30
0.0
 10
14.3560373555
 20
17.5566535946
 30
0.0
 10
14.4299364322
 20
17.5450246142
 30
0.0
 10
14.4792356547
 20
17.542979676
 30
0.0
  0
SPLINE
  5
34A
100
AcDbEntity
  8
0
100
AcDbSpline
 62
7
  6
BYLAYER
 70
0
 71
3
 72
15
 73
11
 74
0
 42
0.0000001
 43
0.0000001
 44
0.0000000001
 40
0.0
 40
0.0
 40
0.0
 40
0.0
 40
0.2280639965
 40
0.431316774
 40
0.606180883
 40
0.749352556
 40
0.8598177075
 40
0.9377732976
 40
0.9836326977
 40
1.0
 40
1.0
 40
1.0
 40
1.0
 10
10.0127553452
 20
21.8597206853
 30
0.0
 10
10.0127553452
 20
21.8536864907
 30
0.0
 10
10.012717308
 20
21.8422766617
 30
0.0
 10
10.0125251803
 20
21.826230562
 30
0.0
 10
10.0122259985
 20
21.8124658754
 30
0.0
 10
10.0117806926
 20
21.8010674675
 30
0.0
 10
10.0113220119
 20
21.7924816223
 30
0.0
 10
10.0105959119
 20
21.7859237798
 30
0.0
 10
10.0102185093
 20
21.7829282118
 30
0.0
 10
10.0093948211
 20
21.7806539978
 30
0.0
 10
10.0089765678
 20
21.7807662381
 30
0.0
  0
SPLINE
  5
34B
100
AcDbEntity
  8
0
100
AcDbSpline
 62
7
  6
BYLAYER
 70
0
 71
3
 72
15
 73
11
 74
0
 42
0.0000001
 43
0.0000001
 44
0.0000000001
 40
0.0
 40
0.0
 40
0.0
 40
0.0
 40
0.0163802912
 40
0.0623163395
 40
0.1403766578
 40
0.2508868574
 40
0.3939619003
 40
0.5687302998
 40
0.7719488814
 40
1.0
 40
1.0
 40
1.0
 40
1.0
 10
16.1024964005
 20
21.7807799292
 30
0.0
 10
16.1020778603
 20
21.7806674214
 30
0.0
 10
16.1012541723
 20
21.7829463247
 30
0.0
 10
16.100877192
 20
21.7859449176
 30
0.0
 10
16.1001511964
 20
21.7925099386
 30
0.0
 10
16.0996924824
 20
21.8010969454
 30
0.0
 10
16.0992468045
 20
21.8124915507
 30
0.0
 10
16.0989479545
 20
21.8262503298
 30
0.0
 10
16.0987562879
 20
21.8422927668
 30
0.0
 10
16.0987183987
 20
21.8537014214
 30
0.0
 10
16.0987183987
 20
21.8597353142
 30
0.0
  0
SPLINE
  5
34C
100
AcDbEntity
  8
0
100
AcDbSpline
 62
7
  6
BYLAYER
 70
0
 71
3
 72
11
 73
7
 74
0
 42
0.0000001
 43
0.0000001
 44
0.0000000001
 40
0.0
 40
0.0
 40
0.0
 40
0.0
 40
0.2294494319
 40
0.4597629136
 40
0.7121603243
 40
1.0
 40
1.0
 40
1.0
 40
1.0
 10
10.5035246407
 20
21.6625242751
 30
0.0
 10
10.4941150511
 20
21.6645420888
 30
0.0
 10
10.4756865292
 20
21.6717474055
 30
0.0
 10
10.4536365329
 20
21.6930346486
 30
0.0
 10
10.4403065902
 20
21.7231939213
 30
0.0
 10
10.4377406631
 20
21.7460171647
 30
0.0
 10
10.4377406631
 20
21.7580896638
 30
0.0
  0
SPLINE
  5
34D
100
AcDbEntity
  8
0
100
AcDbSpline
 62
7
  6
BYLAYER
 70
0
 71
3
 72
11
 73
7
 74
0
 42
0.0000001
 43
0.0000001
 44
0.0000000001
 40
0.0
 40
0.0
 40
0.0
 40
0.0
 40
0.2878942834
 40
0.5404009414
 40
0.7706216972
 40
1.0
 40
1.0
 40
1.0
 40
1.0
 10
15.6737345467
 20
21.7581022496
 30
0.0
 10
15.6737345467
 20
21.7460273912
 30
0.0
 10
15.6711540252
 20
21.7232002683
 30
0.0
 10
15.6578380627
 20
21.6930307583
 30
0.0
 10
15.6357781855
 20
21.6717537043
 30
0.0
 10
15.6173560448
 20
21.6645557002
 30
0.0
 10
15.6079494687
 20
21.6625377997
 30
0.0
  0
SPLINE
  5
34E
100
AcDbEntity
  8
0
100
AcDbSpline
 62
7
  6
BYLAYER
 70
0
 71
3
 72
11
 73
7
 74
0
 42
0.0000001
 43
0.0000001
 44
0.0000000001
 40
0.0
 40
0.0
 40
0.0
 40
0.0
 40
0.2478796502
 40
0.4902421963
 40
0.7378757294
 40
1.0
 40
1.0
 40
1.0
 40
1.0
 10
8.8040841322
 20
22.1827142718
 30
0.0
 10
8.7940674482
 20
22.1868305457
 30
0.0
 10
8.7751550715
 20
22.1975282421
 30
0.0
 10
8.7525632905
 20
22.2212556
 30
0.0
 10
8.7385073495
 20
22.2515633882
 30
0.0
 10
8.7355469321
 20
22.2739948364
 30
0.0
 10
8.7355469321
 20
22.2854466434
 30
0.0
  0
SPLINE
  5
34F
100
AcDbEntity
  8
0
100
AcDbSpline
 62
7
  6
BYLAYER
 70
0
 71
3
 72
11
 73
7
 74
0
 42
0.0000001
 43
0.0000001
 44
0.0000000001
 40
0.0
 40
0.0
 40
0.0
 40
0.0
 40
0.2724065105
 40
0.5297479078
 40
0.7719394084
 40
1.0
 40
1.0
 40
1.0
 40
1.0
 10
17.5458555429
 20
19.8957856209
 30
0.0
 10
17.6992160137
 20
19.9843278015
 30
0.0
 10
17.9900568657
 20
20.1698746656
 30
0.0
 10
18.3844064996
 20
20.4817555373
 30
0.0
 10
18.7202891464
 20
20.8163236926
 30
0.0
 10
18.907932819
 20
21.0591150623
 30
0.0
 10
18.9895945122
 20
21.1828546132
 30
0.0
  0
SPLINE
  5
350
100
AcDbEntity
  8
0
100
AcDbSpline
 62
7
  6
BYLAYER
 70
0
 71
3
 72
12
 73
8
 74
0
 42
0.0000001
 43
0.0000001
 44
0.0000000001
 40
0.0
 40
0.0
 40
0.0
 40
0.0
 40
0.1639089312
 40
0.2671128537
 40
0.3877854546
 40
0.6765366995
 40
1.0
 40
1.0
 40
1.0
 40
1.0
 10
18.7383599511
 20
20.3076642933
 30
0.0
 10
18.7342953337
 20
20.29246795
 30
0.0
 10
18.7207682948
 20
20.2694524853
 30
0.0
 10
18.6937225923
 20
20.2437783971
 30
0.0
 10
18.652396904
 20
20.2165962968
 30
0.0
 10
18.5853525658
 20
20.1924569551
 30
0.0
 10
18.5264775979
 20
20.185681981
 30
0.0
 10
18.4954358938
 20
20.1853800888
 30
0.0
  0
SPLINE
  5
351
100
AcDbEntity
  8
0
100
AcDbSpline
 62
7
  6
BYLAYER
 70
0
 71
3
 72
11
 73
7
 74
0
 42
0.0000001
 43
0.0000001
 44
0.0000000001
 40
0.0
 40
0.0
 40
0.0
 40
0.0
 40
0.2780350816
 40
0.5367175952
 40
0.7766225535
 40
1.0
 40
1.0
 40
1.0
 40
1.0
 10
17.1215897079
 20
18.05864891
 30
0.0
 10
17.2929621927
 20
18.1575902696
 30
0.0
 10
17.6137776705
 20
18.3668986749
 30
0.0
 10
18.0352947528
 20
18.727185734
 30
0.0
 10
18.3727723626
 20
19.1174482074
 30
0.0
 10
18.5428610836
 20
19.4026319023
 30
0.0
 10
18.6097884853
 20
19.5468407212
 30
0.0
  0
SPLINE
  5
352
100
AcDbEntity
  8
0
100
AcDbSpline
 62
7
  6
BYLAYER
 70
0
 71
3
 72
13
 73
9
 74
0
 42
0.0000001
 43
0.0000001
 44
0.0000000001
 40
0.0
 40
0.0
 40
0.0
 40
0.0
 40
0.2403855018
 40
0.3729835951
 40
0.5089231602
 40
0.6433435655
 40
0.7723003437
 40
1.0
 40
1.0
 40
1.0
 40
1.0
 10
18.6097860348
 20
19.5468425474
 30
0.0
 10
18.6097869128
 20
19.5763447922
 30
0.0
 10
18.5976763225
 20
19.6226050696
 30
0.0
 10
18.564205092
 20
19.6755567745
 30
0.0
 10
18.5305961744
 20
19.7122420678
 30
0.0
 10
18.4914845033
 20
19.7421495875
 30
0.0
 10
18.4385044463
 20
19.7712006299
 30
0.0
 10
18.3959241005
 20
19.7840539939
 30
0.0
 10
18.3683073011
 20
19.7883264157
 30
0.0
  0
SPLINE
  5
353
100
AcDbEntity
  8
0
100
AcDbSpline
 62
7
  6
BYLAYER
 70
0
 71
3
 72
11
 73
7
 74
0
 42
0.0000001
 43
0.0000001
 44
0.0000000001
 40
0.0
 40
0.0
 40
0.0
 40
0.0
 40
0.265163811
 40
0.521754512
 40
0.7673479168
 40
1.0
 40
1.0
 40
1.0
 40
1.0
 10
14.543941422
 20
17.1994368366
 30
0.0
 10
14.7774866624
 20
17.2355664962
 30
0.0
 10
15.2345403836
 20
17.3241994809
 30
0.0
 10
15.8939346
 20
17.5085594464
 30
0.0
 10
16.5075621051
 20
17.7398582779
 30
0.0
 10
16.8908648967
 20
17.9283151064
 30
0.0
 10
17.0715159804
 20
18.0300907424
 30
0.0
  0
SPLINE
  5
354
100
AcDbEntity
  8
0
100
AcDbSpline
 62
7
  6
BYLAYER
 70
0
 71
3
 72
15
 73
11
 74
0
 42
0.0000001
 43
0.0000001
 44
0.0000000001
 40
0.0
 40
0.0
 40
0.0
 40
0.0
 40
0.0573509033
 40
0.1143982732
 40
0.2292677879
 40
0.3478695109
 40
0.4709712671
 40
0.598323023
 40
0.7293951709
 40
1.0
 40
1.0
 40
1.0
 40
1.0
 10
13.9332640554
 20
17.5334576662
 30
0.0
 10
13.9332649975
 20
17.5185384317
 30
0.0
 10
13.9358498393
 20
17.4887063496
 30
0.0
 10
13.9513662662
 20
17.4308492809
 30
0.0
 10
13.9893805658
 20
17.363937527
 30
0.0
 10
14.0567118952
 20
17.2987668625
 30
0.0
 10
14.139384095
 20
17.2486831971
 30
0.0
 10
14.2327896958
 20
17.2136556181
 30
0.0
 10
14.3680915575
 20
17.1864143828
 30
0.0
 10
14.4743760623
 20
17.1886610793
 30
0.0
 10
14.543941422
 20
17.1994368366
 30
0.0
  0
SPLINE
  5
355
100
AcDbEntity
  8
0
100
AcDbSpline
 62
7
  6
BYLAYER
 70
0
 71
3
 72
15
 73
11
 74
0
 42
0.0000001
 43
0.0000001
 44
0.0000000001
 40
0.0
 40
0.0
 40
0.0
 40
0.0
 40
0.1273995196
 40
0.2702467956
 40
0.4204727829
 40
0.568375015
 40
0.7047328972
 40
0.8239617022
 40
0.9223294039
 40
1.0
 40
1.0
 40
1.0
 40
1.0
 10
14.5439410116
 20
17.1994387062
 30
0.0
 10
14.5439411027
 20
17.2143684092
 30
0.0
 10
14.5428432399
 20
17.2460397276
 30
0.0
 10
14.5386908496
 20
17.2951561769
 30
0.0
 10
14.5318793804
 20
17.3464003948
 30
0.0
 10
14.5230624315
 20
17.396564144
 30
0.0
 10
14.5127404502
 20
17.4427249645
 30
0.0
 10
14.5018020658
 20
17.4827549455
 30
0.0
 10
14.4908620143
 20
17.5156002859
 30
0.0
 10
14.4830671022
 20
17.5347261544
 30
0.0
 10
14.4792352926
 20
17.5429823553
 30
0.0
  0
SPLINE
  5
356
100
AcDbEntity
  8
0
100
AcDbSpline
 62
7
  6
BYLAYER
 70
0
 71
3
 72
14
 73
10
 74
0
 42
0.0000001
 43
0.0000001
 44
0.0000000001
 40
0.0
 40
0.0
 40
0.0
 40
0.0
 40
0.2667751799
 40
0.4051874653
 40
0.5418125379
 40
0.6717277842
 40
0.7911918466
 40
0.8995883957
 40
1.0
 40
1.0
 40
1.0
 40
1.0
 10
13.9332646948
 20
17.5334480977
 30
0.0
 10
13.9577598542
 20
17.5356322436
 30
0.0
 10
13.994819493
 20
17.5422225806
 30
0.0
 10
14.0421498338
 20
17.558462128
 30
0.0
 10
14.0756861977
 20
17.5751587954
 30
0.0
 10
14.1047963133
 20
17.5959441395
 30
0.0
 10
14.1274004478
 20
17.6203708121
 30
0.0
 10
14.1417406685
 20
17.6474734854
 30
0.0
 10
14.1450995244
 20
17.6668418797
 30
0.0
 10
14.1450979141
 20
17.6760982002
 30
0.0
  0
SPLINE
  5
357
100
AcDbEntity
  8
0
100
AcDbSpline
 62
7
  6
BYLAYER
 70
0
 71
3
 72
16
 73
12
 74
0
 42
0.0000001
 43
0.0000001
 44
0.0000000001
 40
0.0
 40
0.0
 40
0.0
 40
0.0
 40
0.061978795
 40
0.1295496935
 40
0.1969009976
 40
0.2630890553
 40
0.3921551261
 40
0.5178192705
 40
0.6409499804
 40
0.7621192431
 40
1.0
 40
1.0
 40
1.0
 40
1.0
 10
8.3055855212
 20
17.3922322433
 30
0.0
 10
8.3055855212
 20
17.3833840223
 30
0.0
 10
8.3108232726
 20
17.3650705613
 30
0.0
 10
8.3242603908
 20
17.3403974777
 30
0.0
 10
8.3408422859
 20
17.316876063
 30
0.0
 10
8.3646314564
 20
17.2878863399
 30
0.0
 10
8.396249837
 20
17.2546534778
 30
0.0
 10
8.4356381275
 20
17.2177750697
 30
0.0
 10
8.4756313512
 20
17.1832577691
 30
0.0
 10
8.5290882877
 20
17.1398780641
 30
0.0
 10
8.5700288548
 20
17.109003752
 30
0.0
 10
8.5974750635
 20
17.089003479
 30
0.0
  0
SPLINE
  5
358
100
AcDbEntity
  8
0
100
AcDbSpline
 62
7
  6
BYLAYER
 70
0
 71
3
 72
12
 73
8
 74
0
 42
0.0000001
 43
0.0000001
 44
0.0000000001
 40
0.0
 40
0.0
 40
0.0
 40
0.0
 40
0.1141971386
 40
0.2295721934
 40
0.4679337548
 40
0.723258321
 40
1.0
 40
1.0
 40
1.0
 40
1.0
 10
34.3143387382
 20
35.1309663604
 30
0.0
 10
34.2900624587
 20
35.1449795949
 30
0.0
 10
34.2394184269
 20
35.1700967983
 30
0.0
 10
34.1307306221
 20
35.2079903641
 30
0.0
 10
33.9814404715
 20
35.2306446485
 30
0.0
 10
33.7915832756
 20
35.217764126
 30
0.0
 10
33.6643946146
 20
35.1850249515
 30
0.0
 10
33.6000656062
 20
35.1632071081
 30
0.0
  0
SPLINE
  5
359
100
AcDbEntity
  8
0
100
AcDbSpline
 62
7
  6
BYLAYER
 70
0
 71
3
 72
11
 73
7
 74
0
 42
0.0000001
 43
0.0000001
 44
0.0000000001
 40
0.0
 40
0.0
 40
0.0
 40
0.0
 40
0.2786315281
 40
0.5375385444
 40
0.7772326334
 40
1.0
 40
1.0
 40
1.0
 40
1.0
 10
16.8969156677
 20
18.3375181948
 30
0.0
 10
17.0666305645
 20
18.4331325759
 30
0.0
 10
17.384302504
 20
18.6359043167
 30
0.0
 10
17.8016583812
 20
18.986649075
 30
0.0
 10
18.1352122793
 20
19.3677513495
 30
0.0
 10
18.3027445629
 20
19.6470549272
 30
0.0
 10
18.3683067595
 20
19.7883225225
 30
0.0
  0
SPLINE
  5
35A
100
AcDbEntity
  8
0
100
AcDbSpline
 62
7
  6
BYLAYER
 70
0
 71
3
 72
11
 73
7
 74
0
 42
0.0000001
 43
0.0000001
 44
0.0000000001
 40
0.0
 40
0.0
 40
0.0
 40
0.0
 40
0.2651635728
 40
0.5217540791
 40
0.7673476735
 40
1.0
 40
1.0
 40
1.0
 40
1.0
 10
14.4792356546
 20
17.542979676
 30
0.0
 10
14.7026265156
 20
17.577538444
 30
0.0
 10
15.139807689
 20
17.6623190096
 30
0.0
 10
15.7705318741
 20
17.8386644942
 30
0.0
 10
16.357480345
 20
18.0599057509
 30
0.0
 10
16.7241188275
 20
18.2401675012
 30
0.0
 10
16.8969156677
 20
18.3375181948
 30
0.0
  0
SPLINE
  5
35B
100
AcDbEntity
  8
0
100
AcDbSpline
 62
7
  6
BYLAYER
 70
0
 71
3
 72
9
 73
5
 74
0
 42
0.0000001
 43
0.0000001
 44
0.0000000001
 40
0.0
 40
0.0
 40
0.0
 40
0.0
 40
0.4467120908
 40
1.0
 40
1.0
 40
1.0
 40
1.0
 10
18.3683067595
 20
19.7883225224
 30
0.0
 10
18.3643401007
 20
19.820137856
 30
0.0
 10
18.3541820377
 20
19.8911959393
 30
0.0
 10
18.3432090188
 20
19.9621232754
 30
0.0
 10
18.3374358841
 20
20.0014122603
 30
0.0
  0
SPLINE
  5
35C
100
AcDbEntity
  8
0
100
AcDbSpline
 62
7
  6
BYLAYER
 70
0
 71
3
 72
11
 73
7
 74
0
 42
0.0000001
 43
0.0000001
 44
0.0000000001
 40
0.0
 40
0.0
 40
0.0
 40
0.0
 40
0.2449200398
 40
0.4919721073
 40
0.7431202626
 40
1.0
 40
1.0
 40
1.0
 40
1.0
 10
33.5166542368
 20
32.2898198341
 30
0.0
 10
33.430409631
 20
32.3396109165
 30
0.0
 10
33.2513182788
 20
32.4298540752
 30
0.0
 10
32.9673178608
 20
32.5347709362
 30
0.0
 10
32.6688228911
 20
32.6090456073
 30
0.0
 10
32.4638152134
 20
32.6376345748
 30
0.0
 10
32.3597810274
 20
32.6469276843
 30
0.0
  0
SPLINE
  5
35D
100
AcDbEntity
  8
0
100
AcDbSpline
 62
7
  6
BYLAYER
 70
0
 71
3
 72
15
 73
11
 74
0
 42
0.0000001
 43
0.0000001
 44
0.0000000001
 40
0.0
 40
0.0
 40
0.0
 40
0.0
 40
0.1261363559
 40
0.2650046935
 40
0.4069665701
 40
0.5453535303
 40
0.6761128474
 40
0.7966901213
 40
0.9052109118
 40
1.0
 40
1.0
 40
1.0
 40
1.0
 10
18.7383560411
 20
20.3076622584
 30
0.0
 10
18.738358109
 20
20.2750304931
 30
0.0
 10
18.7364594309
 20
20.206471274
 30
0.0
 10
18.729533092
 20
20.1013963626
 30
0.0
 10
18.7184978309
 20
19.9934814542
 30
0.0
 10
18.7036728745
 20
19.8881363881
 30
0.0
 10
18.6853472175
 20
19.7889579387
 30
0.0
 10
18.6638120208
 20
19.6983341375
 30
0.0
 10
18.6394095351
 20
19.6181183127
 30
0.0
 10
18.6201164328
 20
19.56908189
 30
0.0
 10
18.6097884853
 20
19.5468407212
 30
0.0
  0
SPLINE
  5
35E
100
AcDbEntity
  8
0
100
AcDbSpline
 62
7
  6
BYLAYER
 70
0
 71
3
 72
14
 73
10
 74
0
 42
0.0000001
 43
0.0000001
 44
0.0000000001
 40
0.0
 40
0.0
 40
0.0
 40
0.0
 40
0.1419500691
 40
0.2780248959
 40
0.5333296458
 40
0.6541551383
 40
0.7714837034
 40
0.8863714892
 40
1.0
 40
1.0
 40
1.0
 40
1.0
 10
8.3055855212
 20
17.3922322433
 30
0.0
 10
8.2265362134
 20
17.4591383386
 30
0.0
 10
8.0766962959
 20
17.5963172435
 30
0.0
 10
7.8130913683
 20
17.8828786321
 30
0.0
 10
7.5986544252
 20
18.1927601788
 30
0.0
 10
7.446167367
 20
18.5196421421
 30
0.0
 10
7.3653454876
 20
18.7648965014
 30
0.0
 10
7.3165763473
 20
19.0131098647
 30
0.0
 10
7.3057200312
 20
19.180029816
 30
0.0
 10
7.3057202769
 20
19.2629298645
 30
0.0
  0
SPLINE
  5
35F
100
AcDbEntity
  8
0
100
AcDbSpline
 62
7
  6
BYLAYER
 70
0
 71
3
 72
18
 73
14
 74
0
 42
0.0000001
 43
0.0000001
 44
0.0000000001
 40
0.0
 40
0.0
 40
0.0
 40
0.0
 40
0.0553865924
 40
0.1129391834
 40
0.1724353205
 40
0.2336677913
 40
0.3603252498
 40
0.4907156253
 40
0.6223673491
 40
0.7527318524
 40
0.8793394635
 40
0.9405673559
 40
1.0
 40
1.0
 40
1.0
 40
1.0
 10
17.048957563
 20
16.8743506181
 30
0.0
 10
16.9288024446
 20
16.8074023965
 30
0.0
 10
16.6786692847
 20
16.6799224734
 30
0.0
 10
16.2847672614
 20
16.5112343984
 30
0.0
 10
15.8674264193
 20
16.3625731825
 30
0.0
 10
15.2773470826
 20
16.1905351824
 30
0.0
 10
14.5010367134
 20
16.033304661
 30
0.0
 10
13.538818641
 20
15.9389265952
 30
0.0
 10
12.5627209787
 20
15.9394084112
 30
0.0
 10
11.6007898796
 20
16.0347466756
 30
0.0
 10
10.8248252522
 20
16.1927437757
 30
0.0
 10
10.2352582775
 20
16.3654326141
 30
0.0
 10
9.9528886717
 20
16.466386105
 30
0.0
 10
9.8155586948
 20
16.5204685469
 30
0.0
  0
SPLINE
  5
360
100
AcDbEntity
  8
0
100
AcDbSpline
 62
7
  6
BYLAYER
 70
0
 71
3
 72
9
 73
5
 74
0
 42
0.0000001
 43
0.0000001
 44
0.0000000001
 40
0.0
 40
0.0
 40
0.0
 40
0.0
 40
0.5064534054
 40
1.0
 40
1.0
 40
1.0
 40
1.0
 10
34.8321167533
 20
30.7538513286
 30
0.0
 10
34.7856199359
 20
30.8339974913
 30
0.0
 10
34.6871594132
 20
30.9885013787
 30
0.0
 10
34.5752082973
 20
31.1335758131
 30
0.0
 10
34.5167166515
 20
31.2023658857
 30
0.0
  0
SPLINE
  5
361
100
AcDbEntity
  8
0
100
AcDbSpline
 62
7
  6
BYLAYER
 70
0
 71
3
 72
14
 73
10
 74
0
 42
0.0000001
 43
0.0000001
 44
0.0000000001
 40
0.0
 40
0.0
 40
0.0
 40
0.0
 40
0.1268567205
 40
0.2517895688
 40
0.3754715527
 40
0.4986276641
 40
0.6219994417
 40
0.746312043
 40
1.0
 40
1.0
 40
1.0
 40
1.0
 10
34.5167166515
 20
31.2023658857
 30
0.0
 10
34.4635701237
 20
31.2648697435
 30
0.0
 10
34.352664523
 20
31.3844528837
 30
0.0
 10
34.1719186166
 20
31.5471123237
 30
0.0
 10
33.978766692
 20
31.6909051882
 30
0.0
 10
33.7738428445
 20
31.8154069831
 30
0.0
 10
33.5577025052
 20
31.9202342311
 30
0.0
 10
33.2536784458
 20
32.0339734399
 30
0.0
 10
33.0134264803
 20
32.087624098
 30
0.0
 10
32.8508600758
 20
32.1098028741
 30
0.0
  0
ELLIPSE
  5
362
100
AcDbEntity
  8
0
100
AcDbEllipse
 62
7
  6
BYLAYER
 10
29.5667208704
 20
25.4481797762
 30
0.0
 11
9.1533503352
 21
-9.2311650332
 31
0.0
 40
0.5142831053
 41
-1.3453285794
 42
-1.3110753063
  0
ELLIPSE
  5
363
100
AcDbEntity
  8
0
100
AcDbEllipse
 62
7
  6
BYLAYER
 10
29.5667208704
 20
25.4481797762
 30
0.0
 11
14.8346427837
 21
-14.0052828808
 31
0.0
 40
0.2808970456
 41
4.6428575302
 42
4.6628469554
  0
ELLIPSE
  5
364
100
AcDbEntity
  8
0
100
AcDbEllipse
 62
7
  6
BYLAYER
 10
29.5667208704
 20
25.4481797762
 30
0.0
 11
15.3443503722
 21
-1.314676855
 31
0.0
 40
0.2334929648
 41
1.2135243477
 42
1.2477776208
  0
ELLIPSE
  5
365
100
AcDbEntity
  8
0
100
AcDbEllipse
 62
7
  6
BYLAYER
 10
29.5667208704
 20
25.4481797762
 30
0.0
 11
19.0907442937
 21
-3.3473986706
 31
0.0
 40
0.1658427529
 41
1.7011642489
 42
1.735417522
  0
ELLIPSE
  5
366
100
AcDbEntity
  8
0
100
AcDbEllipse
 62
7
  6
BYLAYER
 10
29.5667208704
 20
25.4481797762
 30
0.0
 11
18.8553803984
 21
-8.9026918941
 31
0.0
 40
0.3414278156
 41
7.8440103727
 42
7.8582116758
  0
ELLIPSE
  5
367
100
AcDbEntity
  8
0
100
AcDbEllipse
 62
7
  6
BYLAYER
 10
29.5667208704
 20
25.4481797762
 30
0.0
 11
14.8346427837
 21
-14.0052828808
 31
0.0
 40
0.2808970456
 41
1.4527477556
 42
1.4870010287
  0
ELLIPSE
  5
368
100
AcDbEntity
  8
0
100
AcDbEllipse
 62
7
  6
BYLAYER
 10
29.5667208704
 20
25.4481797762
 30
0.0
 11
18.8553803984
 21
-8.9026918941
 31
0.0
 40
0.3414278156
 41
-1.546514315
 42
-1.5122610419
  0
ENDSEC
  0
SECTION
  2
OBJECTS
  0
DICTIONARY
  5
C
100
AcDbDictionary
280
0
281
1
  3
ACAD_GROUP
350
D
  3
ACAD_MLINESTYLE
350
17
  3
ACAD_LAYOUT
350
1A
  3
ACAD_PLOTSETTINGS
350
19
  3
ACAD_PLOTSTYLENAME
350
E
  0
DICTIONARY
  5
D
102
{ACAD_REACTORS
330
C
102
}
100
AcDbDictionary
280
0
281
1
  0
ACDBDICTIONARYWDFLT
  5
E
102
{ACAD_REACTORS
330
C
102
}
100
AcDbDictionary
281
1
  3
Normal
350
F
100
AcDbDictionaryWithDefault
340
F
  0
DICTIONARY
  5
17
102
{ACAD_REACTORS
330
C
102
}
100
AcDbDictionary
280
0
281
1
  3
Standard
350
18
  0
DICTIONARY
  5
19
102
{ACAD_REACTORS
330
C
102
}
100
AcDbDictionary
281
1
  0
DICTIONARY
  5
1A
102
{ACAD_REACTORS
330
C
102
}
100
AcDbDictionary
281
1
  3
Model
350
369
  3
Layout1
350
36A
  0
ACDBPLACEHOLDER
  5
F
102
{ACAD_REACTORS
330
E
102
}
  0
MLINESTYLE
  5
18
102
{ACAD_REACTORS
330
17
102
}
100
AcDbMlineStyle
  2
STANDARD
 70
0
  3

 62
256
 51
90.0
 52
90.0
 71
2
 49
0.5
 62
256
  6
BYLAYER
 49
-0.5
 62
256
  6
BYLAYER
  0
LAYOUT
  5
369
102
{ACAD_REACTORS
330
1A
102
}
100
AcDbPlotSettings
  1

  2
none_device
  4

  6

 40
0.0
 41
0.0
 42
0.0
 43
0.0
 44
210.0
 45
297.0
 46
0.0
 47
0.0
 48
0.0
 49
0.0
140
0.0
141
0.0
142
1.0
143
1.0
 70
1024
 72
1
 73
0
 74
0
  7

 75
0
147
1.0
148
0.0
149
0.0
100
AcDbLayout
  1
Model
 70
0
 71
0
 10
0.0
 20
0.0
 11
210.0
 21
297.0
 12
0.0
 22
0.0
 32
0.0
 14
0.0
 24
0.0
 34
0.0
 15
0.0
 25
0.0
 35
0.0
146
0.0
 13
0.0
 23
0.0
 33
0.0
 16
1.0
 26
0.0
 36
0.0
 17
0.0
 27
1.0
 37
0.0
 76
0
330
210
345
0
346
0
  0
LAYOUT
  5
36A
102
{ACAD_REACTORS
330
1A
102
}
100
AcDbPlotSettings
  1

  2
none_device
  4

  6

 40
0.0
 41
0.0
 42
0.0
 43
0.0
 44
210.0
 45
297.0
 46
0.0
 47
0.0
 48
0.0
 49
0.0
140
0.0
141
0.0
142
1.0
143
1.0
 70
0
 72
1
 73
0
 74
0
  7

 75
0
147
1.0
148
0.0
149
0.0
100
AcDbLayout
  1
Layout1
 70
0
 71
1
 10
0.0
 20
0.0
 11
210.0
 21
297.0
 12
0.0
 22
0.0
 32
0.0
 14
0.0
 24
0.0
 34
0.0
 15
0.0
 25
0.0
 35
0.0
146
0.0
 13
0.0
 23
0.0
 33
0.0
 16
1.0
 26
0.0
 36
0.0
 17
0.0
 27
1.0
 37
0.0
 76
0
330
211
345
0
346
0
  0
ENDSEC
  0
EOF
