999
DXF file: C:\Users\sesa63760\Dev\_Creo\CAD\MCADID0004762_3D-CAD\drw0001_1.dxf
999
Pro/ENGINEER 2019471 by Parametric Technology Corporation
  0
SECTION
  2
HEADER
  9
$ACADVER
  1
AC1024
  9
$DWGCODEPAGE
  3
ANSI_1252
  9
$EXTMAX
 10
51.5454819448
 20
72.9000387505
 30
0.0
  9
$EXTMIN
 10
0.0
 20
0.0
 30
0.0
  9
$LIMMIN
 10
0.0
 20
0.0
  9
$LIMMAX
 10
51.5454819448
 20
72.9000387505
  9
$VIEWCTR
 10
25.7727409724
 20
36.4500193753
  9
$VIEWSIZE
 40
72.9000387505
  9
$CLAYER
  8
0
  9
$LTSCALE
 40
4.752002526
  9
$CELTYPE
  6
BYLAYER
  9
$DIMSCALE
 40
1.0
  9
$DIMASZ
 40
0.6136366898
  9
$DIMEXO
 40
1.0
  9
$DIMDLI
 40
3.2832017452
  9
$DIMEXE
 40
1.0
  9
$DIMCEN
 40
0.7776004133
  9
$DIMLFAC
 40
1.0
  9
$DIMBLK
  1
_FILLED
  9
$DIMALT
 70
0
  9
$DIMALTF
 40
0.0393700787
  9
$DIMTXT
 40
0.8590913657
  9
$DIMTOL
 70
1
  9
$DIMLIM
 70
0
  9
$DIMTFAC
 40
1.0
  9
$DIMTP
 40
0.01
  9
$DIMTM
 40
0.01
  9
$DIMGAP
 40
0.625
  9
$DIMDSEP
 70
46
  9
$AUNITS
 70
0
  9
$PDMODE
 70
3
  9
$PDSIZE
 40
0.3125
  9
$HANDSEED
  5
35B
  9
$TILEMODE
 70
1
  9
$MEASUREMENT
 70
1
  9
$INSUNITS
 70
4
  0
ENDSEC
  0
SECTION
  2
CLASSES
  0
CLASS
  1
ACDBDICTIONARYWDFLT
  2
AcDbDictionaryWithDefault
  3
AutoCAD 2000
 90
0
 91
1
280
0
281
0
  0
CLASS
  1
ACDBPLACEHOLDER
  2
AcDbPlaceHolder
  3
AutoCAD 2000
 90
0
 91
1
280
0
281
0
  0
CLASS
  1
LAYOUT
  2
AcDbLayout
  3
AutoCAD 2000
 90
0
 91
0
280
0
281
0
  0
ENDSEC
  0
SECTION
  2
TABLES
  0
TABLE
  2
VPORT
  5
8
100
AcDbSymbolTable
 70
2
  0
VPORT
  5
1F4
100
AcDbSymbolTableRecord
100
AcDbViewportTableRecord
  2
*ACTIVE
 70
0
 10
0.0
 20
0.0
 11
1.0
 21
1.0
 12
25.7727409724
 22
36.4500193753
 13
0.0
 23
0.0
 14
1.0
 24
1.0
 15
0.0
 25
0.0
 16
0.0
 26
0.0
 36
1.0
 17
0.0
 27
0.0
 37
0.0
 40
72.9000387505
 41
0.7070707071
 42
50.0
 43
0.0
 44
0.0
 50
0.0
 51
0.0
 71
0
 72
100
 73
1
 74
1
 75
0
 76
0
 77
0
 78
0
  0
ENDTAB
  0
TABLE
  2
LTYPE
  5
5
100
AcDbSymbolTable
 70
6
  0
LTYPE
  5
14
100
AcDbSymbolTableRecord
100
AcDbLinetypeTableRecord
  2
BYBLOCK
 70
0
  3

 72
65
 73
0
 40
0.0
  0
LTYPE
  5
15
100
AcDbSymbolTableRecord
100
AcDbLinetypeTableRecord
  2
BYLAYER
 70
0
  3

 72
65
 73
0
 40
0.0
  0
LTYPE
  5
16
100
AcDbSymbolTableRecord
100
AcDbLinetypeTableRecord
  2
CONTINUOUS
 70
64
  3
Solid line
 72
65
 73
0
 40
0.0
  0
LTYPE
  5
1F5
100
AcDbSymbolTableRecord
100
AcDbLinetypeTableRecord
  2
CENTER
 70
64
  3
____ _ ____ _ ____ _ ____ _ ____ _ ____ _ ____
 72
65
 73
4
 40
0.6
 49
0.375
 74
0
 49
-0.075
 74
0
 49
0.075
 74
0
 49
-0.075
 74
0
  0
LTYPE
  5
1F6
100
AcDbSymbolTableRecord
100
AcDbLinetypeTableRecord
  2
HIDDEN
 70
64
  3
- - - - - - - - - - - - - - - - - - - -
 72
65
 73
2
 40
0.2
 49
0.1
 74
0
 49
-0.1
 74
0
  0
LTYPE
  5
1F7
100
AcDbSymbolTableRecord
100
AcDbLinetypeTableRecord
  2
PHANTOM
 70
64
  3
_____ _ _ _____ _ _ _____ _ _ _____
 72
65
 73
6
 40
0.8
 49
0.45
 74
0
 49
-0.05
 74
0
 49
0.1
 74
0
 49
-0.05
 74
0
 49
0.1
 74
0
 49
-0.05
 74
0
  0
LTYPE
  5
1F8
100
AcDbSymbolTableRecord
100
AcDbLinetypeTableRecord
  2
DOT
 70
64
  3
. . . . . . . . . . . . . . . . . . . .
 72
65
 73
2
 40
0.2
 49
0.1
 74
0
 49
-0.1
 74
0
  0
LTYPE
  5
1F9
100
AcDbSymbolTableRecord
100
AcDbLinetypeTableRecord
  2
DASHED
 70
64
  3
- - - - - - - - - - - - - - - - - - - -
 72
65
 73
2
 40
0.2
 49
0.1
 74
0
 49
-0.1
 74
0
  0
ENDTAB
  0
TABLE
  2
LAYER
  5
2
100
AcDbSymbolTable
 70
36
  0
LAYER
  5
10
100
AcDbSymbolTableRecord
100
AcDbLayerTableRecord
  2
0
 70
0
 62
7
  6
CONTINUOUS
370
-3
390
F
  0
LAYER
  5
1FA
100
AcDbSymbolTableRecord
100
AcDbLayerTableRecord
  2
DEFAULT_1
 70
0
 62
7
  6
CENTER
370
-3
390
F
  0
LAYER
  5
1FB
100
AcDbSymbolTableRecord
100
AcDbLayerTableRecord
  2
DEFAULT_2
 70
0
 62
7
  6
HIDDEN
370
-3
390
F
  0
LAYER
  5
1FC
100
AcDbSymbolTableRecord
100
AcDbLayerTableRecord
  2
DEFAULT_3
 70
0
 62
7
  6
PHANTOM
370
-3
390
F
  0
LAYER
  5
1FD
100
AcDbSymbolTableRecord
100
AcDbLayerTableRecord
  2
00_COMPONENTS
 70
0
 62
7
  6
CONTINUOUS
370
-3
390
F
  0
LAYER
  5
1FE
100
AcDbSymbolTableRecord
100
AcDbLayerTableRecord
  2
01_1_DEFAULT_DATUMS
 70
0
 62
7
  6
CONTINUOUS
370
-3
390
F
  0
LAYER
  5
1FF
100
AcDbSymbolTableRecord
100
AcDbLayerTableRecord
  2
01_PLANES
 70
0
 62
7
  6
CONTINUOUS
370
-3
390
F
  0
LAYER
  5
200
100
AcDbSymbolTableRecord
100
AcDbLayerTableRecord
  2
02_COORD_SYS
 70
0
 62
7
  6
CONTINUOUS
370
-3
390
F
  0
LAYER
  5
201
100
AcDbSymbolTableRecord
100
AcDbLayerTableRecord
  2
03_AXES
 70
0
 62
7
  6
CONTINUOUS
370
-3
390
F
  0
LAYER
  5
202
100
AcDbSymbolTableRecord
100
AcDbLayerTableRecord
  2
04_POINTS
 70
0
 62
7
  6
CONTINUOUS
370
-3
390
F
  0
LAYER
  5
203
100
AcDbSymbolTableRecord
100
AcDbLayerTableRecord
  2
05_CURVES
 70
0
 62
7
  6
CONTINUOUS
370
-3
390
F
  0
LAYER
  5
204
100
AcDbSymbolTableRecord
100
AcDbLayerTableRecord
  2
06_SURFS
 70
0
 62
7
  6
CONTINUOUS
370
-3
390
F
  0
LAYER
  5
205
100
AcDbSymbolTableRecord
100
AcDbLayerTableRecord
  2
07_COSMETICS
 70
0
 62
7
  6
CONTINUOUS
370
-3
390
F
  0
LAYER
  5
206
100
AcDbSymbolTableRecord
100
AcDbLayerTableRecord
  2
10_NOTES
 70
0
 62
7
  6
CONTINUOUS
370
-3
390
F
  0
LAYER
  5
207
100
AcDbSymbolTableRecord
100
AcDbLayerTableRecord
  2
11_NOTES_PUB
 70
0
 62
7
  6
CONTINUOUS
370
-3
390
F
  0
LAYER
  5
208
100
AcDbSymbolTableRecord
100
AcDbLayerTableRecord
  2
13_REF_GTOL
 70
0
 62
7
  6
CONTINUOUS
370
-3
390
F
  0
LAYER
  5
209
100
AcDbSymbolTableRecord
100
AcDbLayerTableRecord
  2
16_MISC
 70
0
 62
7
  6
CONTINUOUS
370
-3
390
F
  0
LAYER
  5
20A
100
AcDbSymbolTableRecord
100
AcDbLayerTableRecord
  2
17_NO_PRINT
 70
0
 62
7
  6
CONTINUOUS
370
-3
390
F
  0
LAYER
  5
20B
100
AcDbSymbolTableRecord
100
AcDbLayerTableRecord
  2
18_DATUM_CAMS_JOINTS
 70
0
 62
7
  6
CONTINUOUS
370
-3
390
F
  0
LAYER
  5
20C
100
AcDbSymbolTableRecord
100
AcDbLayerTableRecord
  2
19_DATUM_FUNCTIONAL
 70
0
 62
7
  6
CONTINUOUS
370
-3
390
F
  0
LAYER
  5
20D
100
AcDbSymbolTableRecord
100
AcDbLayerTableRecord
  2
20_DATUM_KINEMATIC_SCHEME
 70
0
 62
7
  6
CONTINUOUS
370
-3
390
F
  0
ENDTAB
  0
TABLE
  2
STYLE
  5
3
100
AcDbSymbolTable
 70
1
  0
STYLE
  5
11
100
AcDbSymbolTableRecord
100
AcDbTextStyleTableRecord
  2
STANDARD
 70
0
 40
0.0
 41
1.0
 50
0.0
 71
0
 42
0.2
  3
ARIAL.TTF
  4

  0
STYLE
  5
20E
100
AcDbSymbolTableRecord
100
AcDbTextStyleTableRecord
  2
TEXTSTYLE_1
 70
0
 40
0.0
 41
0.8
 50
0.0
 71
0
 42
0.2
  3
gdt
  4

  0
ENDTAB
  0
TABLE
  2
VIEW
  5
6
100
AcDbSymbolTable
 70
0
  0
ENDTAB
  0
TABLE
  2
UCS
  5
7
100
AcDbSymbolTable
 70
0
  0
ENDTAB
  0
TABLE
  2
APPID
  5
9
100
AcDbSymbolTable
 70
1
  0
APPID
  5
20F
100
AcDbSymbolTableRecord
100
AcDbRegAppTableRecord
  2
ACAD
 70
0
  0
ENDTAB
  0
TABLE
  2
BLOCK_RECORD
  5
1
100
AcDbSymbolTable
 70
0
  0
BLOCK_RECORD
  5
210
100
AcDbSymbolTableRecord
100
AcDbBlockTableRecord
  2
*Model_Space
  0
BLOCK_RECORD
  5
211
100
AcDbSymbolTableRecord
100
AcDbBlockTableRecord
  2
*Paper_Space
  0
BLOCK_RECORD
  5
212
100
AcDbSymbolTableRecord
100
AcDbBlockTableRecord
  2
_FILLED
  0
ENDTAB
  0
TABLE
  2
DIMSTYLE
  5
A
100
AcDbSymbolTable
 70
1
100
AcDbDimStyleTable
 71
0
  0
DIMSTYLE
105
213
100
AcDbSymbolTableRecord
100
AcDbDimStyleTableRecord
  2
STANDARD
 70
0
  3

  4

 40
1.0
 41
0.6136366898
 42
1.0
 43
0.38
 44
1.0
 45
0.0
 46
0.0
 47
0.01
 48
0.01
140
0.8590913657
141
0.09
142
0.0
143
25.4
144
1.0
145
0.0
146
1.0
147
0.625
 71
1
 72
0
 73
0
 74
0
 75
0
 76
0
 77
1
 78
8
 79
2
170
0
171
1
172
0
173
0
174
0
175
0
176
0
177
0
178
0
270
2
179
2
271
2
272
2
273
2
274
2
275
0
280
0
281
0
282
0
283
1
284
8
285
0
286
0
287
3
288
0
340
11
278
46
341
212
342
212
343
212
344
212
  0
ENDTAB
  0
ENDSEC
  0
SECTION
  2
BLOCKS
  0
BLOCK
  5
20
100
AcDbEntity
  8
0
100
AcDbBlockBegin
  2
*Model_Space
 70
0
 10
0.0
 20
0.0
 30
0.0
  3
*Model_Space
  1

  0
ENDBLK
  5
21
100
AcDbEntity
  8
0
100
AcDbBlockEnd
  0
BLOCK
  5
1C
100
AcDbEntity
  8
0
100
AcDbBlockBegin
  2
*Paper_Space
 70
0
 10
0.0
 20
0.0
 30
0.0
  3
*Paper_Space
  1

  0
ENDBLK
  5
1D
100
AcDbEntity
  8
0
100
AcDbBlockEnd
  0
BLOCK
  5
214
100
AcDbEntity
  8
0
100
AcDbBlockBegin
  2
_FILLED
 70
64
 10
0.0
 20
0.0
  3
_FILLED
  1

  0
SOLID
  5
215
100
AcDbEntity
  8
0
  6
BYBLOCK
 62
0
100
AcDbTrace
 10
0.0
 20
0.0
 11
-1.0
 21
0.25
 12
-1.0
 22
-0.25
 13
-1.0
 23
-0.25
  0
ENDBLK
  5
216
100
AcDbEntity
  8
0
  6
BYBLOCK
 62
0
100
AcDbBlockEnd
  0
ENDSEC
  0
SECTION
  2
ENTITIES
  0
LINE
  5
217
100
AcDbEntity
  8
0
100
AcDbLine
 62
7
  6
BYLAYER
 10
19.0366057764
 20
8.0667603342
 11
18.4709227067
 21
8.3933669448
  0
LINE
  5
218
100
AcDbEntity
  8
0
100
AcDbLine
 62
7
  6
BYLAYER
 10
13.0081154577
 20
59.915524729
 11
8.8638507645
 21
57.2654873429
  0
LINE
  5
219
100
AcDbEntity
  8
0
100
AcDbLine
 62
7
  6
BYLAYER
 10
13.5208799382
 20
59.8738147624
 11
9.3803422738
 21
57.2261606135
  0
LINE
  5
21A
100
AcDbEntity
  8
0
100
AcDbLine
 62
7
  6
BYLAYER
 10
13.034274748
 20
59.9306276805
 11
13.0081149413
 21
59.9155243988
  0
LINE
  5
21B
100
AcDbEntity
  8
0
100
AcDbLine
 62
7
  6
BYLAYER
 10
24.2813876992
 20
65.7613114524
 11
13.0342752654
 21
59.9306280112
  0
LINE
  5
21C
100
AcDbEntity
  8
0
100
AcDbLine
 62
7
  6
BYLAYER
 10
24.7679923719
 20
65.7044982036
 11
13.5208799382
 21
59.8738147624
  0
LINE
  5
21D
100
AcDbEntity
  8
0
100
AcDbLine
 62
7
  6
BYLAYER
 10
8.4300729212
 20
51.1153889972
 11
8.3480645019
 21
50.9527082019
  0
LINE
  5
21E
100
AcDbEntity
  8
0
100
AcDbLine
 62
7
  6
BYLAYER
 10
6.4472945363
 20
49.7569448313
 11
8.4009318264
 21
50.9859667294
  0
LINE
  5
21F
100
AcDbEntity
  8
0
100
AcDbLine
 62
7
  6
BYLAYER
 10
8.9099086203
 20
50.9417550699
 11
6.967442561
 21
49.7197609277
  0
LINE
  5
220
100
AcDbEntity
  8
0
100
AcDbLine
 62
7
  6
BYLAYER
 10
13.5828135982
 20
53.9778159813
 11
11.6118845315
 21
52.7388218678
  0
LINE
  5
221
100
AcDbEntity
  8
0
100
AcDbLine
 62
7
  6
BYLAYER
 10
14.0927408642
 20
53.9343668959
 11
12.1255845627
 21
52.6977454342
  0
LINE
  5
222
100
AcDbEntity
  8
0
100
AcDbLine
 62
7
  6
BYLAYER
 10
5.9797832235
 20
40.8312449087
 11
5.9797832235
 21
48.9105077113
  0
LINE
  5
223
100
AcDbEntity
  8
0
100
AcDbLine
 62
7
  6
BYLAYER
 10
6.2726793863
 20
40.4230007548
 11
6.2726793863
 21
48.5022635574
  0
LWPOLYLINE
  5
224
100
AcDbEntity
  8
0
100
AcDbPolyline
 62
7
  6
BYLAYER
 90
3
 70
0
 10
8.536157099
 20
51.5046837377
 10
8.5160689523
 20
51.3605937855
 10
8.4300729212
 20
51.1153889972
  0
LINE
  5
225
100
AcDbEntity
  8
0
100
AcDbLine
 62
7
  6
BYLAYER
 10
8.5966805125
 20
48.7791413262
 11
10.5566252157
 21
49.9910443083
  0
LINE
  5
226
100
AcDbEntity
  8
0
100
AcDbLine
 62
7
  6
BYLAYER
 10
8.5361634759
 20
36.4633418041
 11
8.5361634759
 21
38.693911143
  0
LINE
  5
227
100
AcDbEntity
  8
0
100
AcDbLine
 62
7
  6
BYLAYER
 10
8.5361635666
 20
51.5046999255
 11
8.5361634759
 21
56.619331714
  0
LINE
  5
228
100
AcDbEntity
  8
0
100
AcDbLine
 62
7
  6
BYLAYER
 10
8.6826115574
 20
36.2592390505
 11
8.6826156948
 21
38.5805191402
  0
LINE
  5
229
100
AcDbEntity
  8
0
100
AcDbLine
 62
7
  6
BYLAYER
 10
8.6826211436
 20
51.300763867
 11
8.6826115573
 21
56.4151978398
  0
LWPOLYLINE
  5
22A
100
AcDbEntity
  8
0
100
AcDbPolyline
 62
7
  6
BYLAYER
 90
3
 70
0
 10
11.1440883788
 20
50.0107252045
 10
10.9961100147
 20
49.0929399926
 10
10.6261486516
 20
48.5985897769
  0
LINE
  5
22B
100
AcDbEntity
  8
0
100
AcDbLine
 62
7
  6
BYLAYER
 10
10.626056538
 20
48.5985194791
 11
10.6261212906
 21
48.598559523
  0
LINE
  5
22C
100
AcDbEntity
  8
0
100
AcDbLine
 62
7
  6
BYLAYER
 10
33.0844893843
 20
61.8330340489
 11
32.2791097424
 21
61.3680506714
  0
LINE
  5
22D
100
AcDbEntity
  8
0
100
AcDbLine
 62
7
  6
BYLAYER
 10
36.3318454356
 20
62.4954509919
 11
35.7149520506
 21
62.139289556
  0
LINE
  5
22E
100
AcDbEntity
  8
0
100
AcDbLine
 62
7
  6
BYLAYER
 10
35.7974943085
 20
62.124355447
 11
36.8589141295
 21
62.7371628084
  0
LINE
  5
22F
100
AcDbEntity
  8
0
100
AcDbLine
 62
7
  6
BYLAYER
 10
26.5518898561
 20
17.4042453329
 11
25.9446149974
 21
17.7548477044
  0
LINE
  5
230
100
AcDbEntity
  8
0
100
AcDbLine
 62
7
  6
BYLAYER
 10
11.1440943832
 20
31.48560824
 11
11.1440943832
 21
33.7678056227
  0
LINE
  5
231
100
AcDbEntity
  8
0
100
AcDbLine
 62
7
  6
BYLAYER
 10
11.1440944306
 20
50.010671376
 11
11.1440943832
 21
51.8922093982
  0
LINE
  5
232
100
AcDbEntity
  8
0
100
AcDbLine
 62
7
  6
BYLAYER
 10
11.4369905476
 20
31.0805003739
 11
11.436990546
 21
33.3594667357
  0
LINE
  5
233
100
AcDbEntity
  8
0
100
AcDbLine
 62
7
  6
BYLAYER
 10
11.436990546
 20
49.6026990429
 11
11.436990546
 21
51.4839652443
  0
LINE
  5
234
100
AcDbEntity
  8
0
100
AcDbLine
 62
7
  6
BYLAYER
 10
19.1224105118
 20
48.6582174754
 11
21.1594594051
 21
49.8544872749
  0
LINE
  5
235
100
AcDbEntity
  8
0
100
AcDbLine
 62
7
  6
BYLAYER
 10
13.6099938114
 20
22.6821204438
 11
13.6099938114
 21
29.6568384871
  0
LINE
  5
236
100
AcDbEntity
  8
0
100
AcDbLine
 62
7
  6
BYLAYER
 10
21.8650991382
 20
48.6292239997
 11
19.8355816978
 21
47.4373780177
  0
LINE
  5
237
100
AcDbEntity
  8
0
100
AcDbLine
 62
7
  6
BYLAYER
 10
18.5373726466
 20
26.8120793472
 11
11.5405467078
 21
30.8516073001
  0
LINE
  5
238
100
AcDbEntity
  8
0
100
AcDbLine
 62
7
  6
BYLAYER
 10
18.4338164936
 20
27.0409724169
 11
11.4369905476
 21
31.0805003739
  0
LINE
  5
239
100
AcDbEntity
  8
0
100
AcDbLine
 62
7
  6
BYLAYER
 10
15.3599938114
 20
19.4870289372
 11
15.3599938114
 21
18.7629088416
  0
LINE
  5
23A
100
AcDbEntity
  8
0
100
AcDbLine
 62
7
  6
BYLAYER
 10
16.7539249971
 20
18.4917740837
 11
16.7539249971
 21
18.2207066899
  0
LINE
  5
23B
100
AcDbEntity
  8
0
100
AcDbLine
 62
7
  6
BYLAYER
 10
19.8355817782
 20
45.556094133
 11
21.8650991382
 21
46.7277537857
  0
LINE
  5
23C
100
AcDbEntity
  8
0
100
AcDbLine
 62
7
  6
BYLAYER
 10
22.4209836403
 20
27.7283054871
 11
22.4203047656
 21
27.7284131585
  0
LINE
  5
23D
100
AcDbEntity
  8
0
100
AcDbLine
 62
7
  6
BYLAYER
 10
22.41796484
 20
27.7288413123
 11
22.4203047656
 21
27.7284131585
  0
LINE
  5
23E
100
AcDbEntity
  8
0
100
AcDbLine
 62
7
  6
BYLAYER
 10
22.4210200919
 20
27.7283058974
 11
22.428184209
 21
27.7269578503
  0
LINE
  5
23F
100
AcDbEntity
  8
0
100
AcDbLine
 62
7
  6
BYLAYER
 10
22.428184209
 20
27.7269578503
 11
22.4738150244
 21
27.7128010896
  0
LINE
  5
240
100
AcDbEntity
  8
0
100
AcDbLine
 62
7
  6
BYLAYER
 10
22.4738150244
 20
27.7128010896
 11
22.551504566
 21
27.6749748546
  0
LINE
  5
241
100
AcDbEntity
  8
0
100
AcDbLine
 62
7
  6
BYLAYER
 10
26.5951746919
 20
25.3404129775
 11
22.551529039
 21
27.6749600661
  0
LINE
  5
242
100
AcDbEntity
  8
0
100
AcDbLine
 62
7
  6
BYLAYER
 10
11.070774882
 20
34.3032266177
 11
9.1396014264
 21
35.4181649089
  0
LINE
  5
243
100
AcDbEntity
  8
0
100
AcDbLine
 62
7
  6
BYLAYER
 10
26.4915757365
 20
25.5693307555
 11
22.4479728836
 21
27.9038530905
  0
LINE
  5
244
100
AcDbEntity
  8
0
100
AcDbLine
 62
7
  6
BYLAYER
 10
11.0456264285
 20
34.4868520003
 11
9.0360554802
 21
35.6470520858
  0
LINE
  5
245
100
AcDbEntity
  8
0
100
AcDbLine
 62
7
  6
BYLAYER
 10
17.0285777312
 20
11.4188701106
 11
17.0285777312
 21
14.1949783288
  0
LINE
  5
246
100
AcDbEntity
  8
0
100
AcDbLine
 62
7
  6
BYLAYER
 10
18.1681444474
 20
17.4042251809
 11
18.1681444474
 21
17.9290173661
  0
LINE
  5
247
100
AcDbEntity
  8
0
100
AcDbLine
 62
7
  6
BYLAYER
 10
18.4185323039
 20
11.2001351529
 11
18.4185323039
 21
8.4240269347
  0
LINE
  5
248
100
AcDbEntity
  8
0
100
AcDbLine
 62
7
  6
BYLAYER
 10
18.4338164952
 20
47.4444372854
 11
18.4338164952
 21
45.5631688365
  0
LINE
  5
249
100
AcDbEntity
  8
0
100
AcDbLine
 62
7
  6
BYLAYER
 10
18.4338164952
 20
29.3199365212
 11
18.4338164936
 21
27.0409724169
  0
LINE
  5
24A
100
AcDbEntity
  8
0
100
AcDbLine
 62
7
  6
BYLAYER
 10
18.5240285623
 20
8.3631200194
 11
18.5240285623
 21
11.1392282376
  0
LINE
  5
24B
100
AcDbEntity
  8
0
100
AcDbLine
 62
7
  6
BYLAYER
 10
45.0547353306
 20
58.0054102782
 11
43.9233691911
 21
57.352219632
  0
LINE
  5
24C
100
AcDbEntity
  8
0
100
AcDbLine
 62
7
  6
BYLAYER
 10
26.8358894811
 20
47.1484237233
 11
41.8722142044
 21
55.8295945245
  0
LINE
  5
24D
100
AcDbEntity
  8
0
100
AcDbLine
 62
7
  6
BYLAYER
 10
42.5790816207
 20
54.6052710417
 11
27.542756898
 21
45.9241002402
  0
LINE
  5
24E
100
AcDbEntity
  8
0
100
AcDbLine
 62
7
  6
BYLAYER
 10
44.9233733545
 20
55.6201712283
 11
46.054739494
 21
56.2733618745
  0
LINE
  5
24F
100
AcDbEntity
  8
0
100
AcDbLine
 62
7
  6
BYLAYER
 10
21.5845260792
 20
27.7587478399
 11
21.5898502983
 21
27.7596598841
  0
LINE
  5
250
100
AcDbEntity
  8
0
100
AcDbLine
 62
7
  6
BYLAYER
 10
21.5898502983
 20
27.7596598841
 11
21.5900258452
 21
27.7596854368
  0
LINE
  5
251
100
AcDbEntity
  8
0
100
AcDbLine
 62
7
  6
BYLAYER
 10
22.4163799016
 20
27.7286995243
 11
22.41796484
 21
27.7288413123
  0
LINE
  5
252
100
AcDbEntity
  8
0
100
AcDbLine
 62
7
  6
BYLAYER
 10
22.3962647297
 20
27.7293527482
 11
22.3989967814
 21
27.7293187219
  0
LINE
  5
253
100
AcDbEntity
  8
0
100
AcDbLine
 62
7
  6
BYLAYER
 10
22.5519686244
 20
27.7027139487
 11
21.618693307
 21
27.7174958133
  0
LINE
  5
254
100
AcDbEntity
  8
0
100
AcDbLine
 62
7
  6
BYLAYER
 10
21.5874314937
 20
27.7593530527
 11
21.6193456902
 21
27.7586850146
  0
LINE
  5
255
100
AcDbEntity
  8
0
100
AcDbLine
 62
7
  6
BYLAYER
 10
22.3989967814
 20
27.7293187219
 11
22.4163799016
 21
27.7286995243
  0
LINE
  5
256
100
AcDbEntity
  8
0
100
AcDbLine
 62
7
  6
BYLAYER
 10
21.6173060599
 20
27.758812174
 11
21.6193465718
 21
27.7586880792
  0
LINE
  5
257
100
AcDbEntity
  8
0
100
AcDbLine
 62
7
  6
BYLAYER
 10
23.8052399756
 20
29.9625886749
 11
22.1759389606
 21
30.9032447741
  0
LINE
  5
258
100
AcDbEntity
  8
0
100
AcDbLine
 62
7
  6
BYLAYER
 10
8.1090927044
 20
39.0245585181
 11
6.479791707
 21
39.965214607
  0
LINE
  5
259
100
AcDbEntity
  8
0
100
AcDbLine
 62
7
  6
BYLAYER
 10
8.1090927044
 20
39.0245585181
 11
8.109153668
 21
39.0245233301
  0
LWPOLYLINE
  5
25A
100
AcDbEntity
  8
0
100
AcDbPolyline
 62
7
  6
BYLAYER
 90
6
 70
0
 10
8.1091988156
 20
39.0244925323
 10
9.0664484329
 20
38.283333046
 10
10.0312230057
 20
37.0969016967
 10
10.4309091677
 20
36.4057411081
 10
10.9785969721
 20
34.9762781018
 10
11.1440883272
 20
33.7679169857
  0
LINE
  5
25B
100
AcDbEntity
  8
0
100
AcDbLine
 62
7
  6
BYLAYER
 10
19.8355816978
 20
47.4373780177
 11
19.8355817782
 21
45.556094133
  0
LINE
  5
25C
100
AcDbEntity
  8
0
100
AcDbLine
 62
7
  6
BYLAYER
 10
19.8355817781
 20
29.3128979338
 11
19.8355816994
 21
27.02340929
  0
LINE
  5
25D
100
AcDbEntity
  8
0
100
AcDbLine
 62
7
  6
BYLAYER
 10
24.6931072538
 20
41.8295272364
 11
22.6636528145
 21
40.657754811
  0
LWPOLYLINE
  5
25E
100
AcDbEntity
  8
0
100
AcDbPolyline
 62
7
  6
BYLAYER
 90
3
 70
0
 10
20.6939618607
 20
31.160800472
 10
21.3062826084
 20
31.2341401071
 10
22.1758350133
 20
30.9033000203
  0
LINE
  5
25F
100
AcDbEntity
  8
0
100
AcDbLine
 62
7
  6
BYLAYER
 10
23.5981276549
 20
30.4203748227
 11
21.9689107155
 21
31.3609823819
  0
LINE
  5
260
100
AcDbEntity
  8
0
100
AcDbLine
 62
7
  6
BYLAYER
 10
7.9018982796
 20
39.4823920676
 11
6.2726793863
 21
40.4230007548
  0
LINE
  5
261
100
AcDbEntity
  8
0
100
AcDbLine
 62
7
  6
BYLAYER
 10
21.8650991382
 20
48.6292239997
 11
21.8650991382
 21
46.7277537857
  0
LINE
  5
262
100
AcDbEntity
  8
0
100
AcDbLine
 62
7
  6
BYLAYER
 10
21.8650815517
 20
28.0467887652
 11
21.8650991382
 21
30.404301649
  0
LINE
  5
263
100
AcDbEntity
  8
0
100
AcDbLine
 62
7
  6
BYLAYER
 10
22.1454788147
 20
28.0180677751
 11
22.1454521796
 21
30.4028044386
  0
LINE
  5
264
100
AcDbEntity
  8
0
100
AcDbLine
 62
7
  6
BYLAYER
 10
22.1454521787
 20
46.7264269667
 11
22.1454521784
 21
48.627813767
  0
LINE
  5
265
100
AcDbEntity
  8
0
100
AcDbLine
 62
7
  6
BYLAYER
 10
23.5981276549
 20
38.4996376254
 11
23.5981276549
 21
30.4203748227
  0
LINE
  5
266
100
AcDbEntity
  8
0
100
AcDbLine
 62
7
  6
BYLAYER
 10
23.7113348342
 20
10.3367740007
 11
23.7113348342
 21
7.5606657825
  0
LINE
  5
267
100
AcDbEntity
  8
0
100
AcDbLine
 62
7
  6
BYLAYER
 10
23.8554446424
 20
7.5829597
 11
23.8554446424
 21
10.3590679182
  0
LINE
  5
268
100
AcDbEntity
  8
0
100
AcDbLine
 62
7
  6
BYLAYER
 10
24.292890828
 20
39.7171349965
 11
26.3398238486
 21
40.878816475
  0
LINE
  5
269
100
AcDbEntity
  8
0
100
AcDbLine
 62
7
  6
BYLAYER
 10
27.0481190535
 20
39.6550863307
 11
24.9935890878
 21
38.4890943324
  0
LINE
  5
26A
100
AcDbEntity
  8
0
100
AcDbLine
 62
7
  6
BYLAYER
 10
24.9935890878
 20
30.40983153
 11
24.9935890878
 21
38.4890943324
  0
LINE
  5
26B
100
AcDbEntity
  8
0
100
AcDbLine
 62
7
  6
BYLAYER
 10
26.5518898561
 20
17.9166981455
 11
26.5518898561
 21
17.4042453329
  0
LINE
  5
26C
100
AcDbEntity
  8
0
100
AcDbLine
 62
7
  6
BYLAYER
 10
26.8450165953
 20
30.8878277433
 11
26.8450261816
 21
25.7733937683
  0
LINE
  5
26D
100
AcDbEntity
  8
0
100
AcDbLine
 62
7
  6
BYLAYER
 10
26.8450261816
 20
45.9293525614
 11
26.8450170656
 21
40.8149354113
  0
LINE
  5
26E
100
AcDbEntity
  8
0
100
AcDbLine
 62
7
  6
BYLAYER
 10
27.5427560644
 20
30.8825579233
 11
27.5427568981
 21
25.7681103277
  0
LINE
  5
26F
100
AcDbEntity
  8
0
100
AcDbLine
 62
7
  6
BYLAYER
 10
27.542756898
 20
45.9241002402
 11
27.5427560644
 21
40.8096517285
  0
LINE
  5
270
100
AcDbEntity
  8
0
100
AcDbLine
 62
7
  6
BYLAYER
 10
27.6527963417
 20
12.5514568572
 11
27.6527963417
 21
9.7753486389
  0
LINE
  5
271
100
AcDbEntity
  8
0
100
AcDbLine
 62
7
  6
BYLAYER
 10
27.6914098915
 20
9.8585494717
 11
27.6914098915
 21
12.6346576899
  0
LINE
  5
272
100
AcDbEntity
  8
0
100
AcDbLine
 62
7
  6
BYLAYER
 10
27.9660975305
 20
18.2207336406
 11
27.9660975305
 21
18.5456563623
  0
LINE
  5
273
100
AcDbEntity
  8
0
100
AcDbLine
 62
7
  6
BYLAYER
 10
46.054739494
 20
46.809614477
 11
45.0397528549
 21
46.2236151656
  0
LINE
  5
274
100
AcDbEntity
  8
0
100
AcDbLine
 62
7
  6
BYLAYER
 10
45.5818040245
 20
46.4739571132
 11
45.021366065
 21
46.1503900379
  0
LINE
  5
275
100
AcDbEntity
  8
0
100
AcDbLine
 62
7
  6
BYLAYER
 10
43.3844432725
 20
43.9928841083
 11
42.5790816207
 21
43.5279111174
  0
LINE
  5
276
100
AcDbEntity
  8
0
100
AcDbLine
 62
7
  6
BYLAYER
 10
20.6938972342
 20
31.1607775364
 11
20.6938562364
 21
31.1607554916
  0
LINE
  5
277
100
AcDbEntity
  8
0
100
AcDbLine
 62
7
  6
BYLAYER
 10
6.2726793863
 20
48.5022635574
 11
7.9018987669
 21
47.5616545889
  0
LINE
  5
278
100
AcDbEntity
  8
0
100
AcDbLine
 62
7
  6
BYLAYER
 10
21.9689063275
 20
39.4402477179
 11
23.5981276549
 21
38.4996376254
  0
LINE
  5
279
100
AcDbEntity
  8
0
100
AcDbLine
 62
7
  6
BYLAYER
 10
22.6636528145
 20
40.657754811
 11
24.292890828
 21
39.7171349965
  0
LINE
  5
27A
100
AcDbEntity
  8
0
100
AcDbLine
 62
7
  6
BYLAYER
 10
6.967442561
 20
49.7197609277
 11
8.5966805125
 21
48.7791413262
  0
LINE
  5
27B
100
AcDbEntity
  8
0
100
AcDbLine
 62
7
  6
BYLAYER
 10
29.3599938114
 20
19.3796926522
 11
29.3599938114
 21
18.7629088416
  0
LINE
  5
27C
100
AcDbEntity
  8
0
100
AcDbLine
 62
7
  6
BYLAYER
 10
31.1099938114
 20
22.6821204438
 11
31.1099938114
 21
27.266675874
  0
LINE
  5
27D
100
AcDbEntity
  8
0
100
AcDbLine
 62
7
  6
BYLAYER
 10
21.8650991382
 20
30.404301649
 11
19.8355817781
 21
29.3128979338
  0
LINE
  5
27E
100
AcDbEntity
  8
0
100
AcDbLine
 62
7
  6
BYLAYER
 10
24.9935890878
 20
30.40983153
 11
27.0481189944
 21
31.495118175
  0
LINE
  5
27F
100
AcDbEntity
  8
0
100
AcDbLine
 62
7
  6
BYLAYER
 10
8.9099086203
 20
50.9417550699
 11
10.5566252157
 21
49.9910443083
  0
LINE
  5
280
100
AcDbEntity
  8
0
100
AcDbLine
 62
7
  6
BYLAYER
 10
24.6931072538
 20
41.8295272364
 11
26.3398238486
 21
40.878816475
  0
LINE
  5
281
100
AcDbEntity
  8
0
100
AcDbLine
 62
7
  6
BYLAYER
 10
26.4787704418
 20
41.1223194369
 11
24.8321335441
 21
42.0729841864
  0
LINE
  5
282
100
AcDbEntity
  8
0
100
AcDbLine
 62
7
  6
BYLAYER
 10
10.6955033999
 20
50.2345867655
 11
9.0488598471
 21
51.1852553567
  0
LINE
  5
283
100
AcDbEntity
  8
0
100
AcDbLine
 62
7
  6
BYLAYER
 10
31.9059751008
 20
48.4431926288
 11
31.9059751008
 21
28.0300726106
  0
LINE
  5
284
100
AcDbEntity
  8
0
100
AcDbLine
 62
7
  6
BYLAYER
 10
24.7723100286
 20
29.9444031428
 11
26.8307810633
 21
31.0317707305
  0
LINE
  5
285
100
AcDbEntity
  8
0
100
AcDbLine
 62
7
  6
BYLAYER
 10
19.8355816994
 20
27.02340929
 11
21.6046262497
 21
27.9571443304
  0
LINE
  5
286
100
AcDbEntity
  8
0
100
AcDbLine
 62
7
  6
BYLAYER
 10
21.4907032549
 20
27.7226186658
 11
19.7216445316
 21
26.7888761212
  0
LWPOLYLINE
  5
287
100
AcDbEntity
  8
0
100
AcDbPolyline
 62
7
  6
BYLAYER
 90
3
 70
0
 10
21.4907288247
 20
27.7226269791
 10
21.5476542207
 20
27.7481669374
 10
21.5845260792
 20
27.7587478399
  0
LINE
  5
288
100
AcDbEntity
  8
0
100
AcDbLine
 62
7
  6
BYLAYER
 10
11.436990546
 20
51.4839652443
 11
18.4338164952
 21
47.4444372854
  0
LINE
  5
289
100
AcDbEntity
  8
0
100
AcDbLine
 62
7
  6
BYLAYER
 10
19.1224105118
 20
48.6582174754
 11
12.1255845627
 21
52.6977454342
  0
LINE
  5
28A
100
AcDbEntity
  8
0
100
AcDbLine
 62
7
  6
BYLAYER
 10
9.0360619996
 20
56.6192608573
 11
13.4652685176
 21
54.0621046059
  0
LINE
  5
28B
100
AcDbEntity
  8
0
100
AcDbLine
 62
7
  6
BYLAYER
 10
22.062370522
 20
49.0986771941
 11
26.4915822582
 21
46.5415395257
  0
LINE
  5
28C
100
AcDbEntity
  8
0
100
AcDbLine
 62
7
  6
BYLAYER
 10
9.3803422738
 20
57.2261606135
 11
13.8095701844
 21
54.669001575
  0
LINE
  5
28D
100
AcDbEntity
  8
0
100
AcDbLine
 62
7
  6
BYLAYER
 10
22.4066599479
 20
49.7055817734
 11
26.8358894811
 21
47.1484237233
  0
LINE
  5
28E
100
AcDbEntity
  8
0
100
AcDbLine
 62
7
  6
BYLAYER
 10
31.9059751008
 20
28.0300726106
 11
42.5790816207
 21
34.8549579395
  0
LINE
  5
28F
100
AcDbEntity
  8
0
100
AcDbLine
 62
7
  6
BYLAYER
 10
42.3849786849
 20
34.4051262113
 11
31.711872165
 21
27.5802408825
  0
LINE
  5
290
100
AcDbEntity
  8
0
100
AcDbLine
 62
7
  6
BYLAYER
 10
31.711872689
 20
27.5802412175
 11
31.6857128822
 21
27.5651379358
  0
LINE
  5
291
100
AcDbEntity
  8
0
100
AcDbLine
 62
7
  6
BYLAYER
 10
27.5427568981
 20
25.7681103277
 11
31.9059751008
 21
28.0300726106
  0
LINE
  5
292
100
AcDbEntity
  8
0
100
AcDbLine
 62
7
  6
BYLAYER
 10
31.6857123573
 20
27.5651376002
 11
27.318566704
 21
25.3011392633
  0
LINE
  5
293
100
AcDbEntity
  8
0
100
AcDbLine
 62
7
  6
BYLAYER
 10
18.7062414814
 20
17.7148937939
 11
18.1681444474
 21
17.4042251809
  0
LINE
  5
294
100
AcDbEntity
  8
0
100
AcDbLine
 62
7
  6
BYLAYER
 10
13.5208799382
 20
59.8738147624
 11
31.1991076845
 21
49.6675161116
  0
LINE
  5
295
100
AcDbEntity
  8
0
100
AcDbLine
 62
7
  6
BYLAYER
 10
42.5790816207
 20
34.8549579395
 11
42.5790816207
 21
54.6052710417
  0
LWPOLYLINE
  5
296
100
AcDbEntity
  8
0
100
AcDbPolyline
 62
7
  6
BYLAYER
 90
4
 70
0
 10
45.4928205738
 20
48.0279508809
 10
44.9042542491
 20
45.6839939046
 10
43.5929129107
 20
44.1234074739
 10
43.3844432725
 20
43.9928841083
  0
LINE
  5
297
100
AcDbEntity
  8
0
100
AcDbLine
 62
7
  6
BYLAYER
 10
45.5176964972
 20
48.7081403155
 11
45.4928205738
 21
48.0279508809
  0
LINE
  5
298
100
AcDbEntity
  8
0
100
AcDbLine
 62
7
  6
BYLAYER
 10
45.5176919272
 20
49.5654441809
 11
45.5176973131
 21
48.7081407866
  0
LINE
  5
299
100
AcDbEntity
  8
0
100
AcDbLine
 62
7
  6
BYLAYER
 10
33.0844893843
 20
61.8330340489
 11
34.7680319166
 21
62.3106128136
  0
LINE
  5
29A
100
AcDbEntity
  8
0
100
AcDbLine
 62
7
  6
BYLAYER
 10
36.8589141295
 20
62.7371628084
 11
37.1812827339
 21
62.1788071065
  0
LINE
  5
29B
100
AcDbEntity
  8
0
100
AcDbLine
 62
7
  6
BYLAYER
 10
45.7321871691
 20
47.3682883905
 11
46.054739494
 21
46.809614477
  0
LINE
  5
29C
100
AcDbEntity
  8
0
100
AcDbLine
 62
7
  6
BYLAYER
 10
24.7680115134
 20
65.7044871525
 11
41.8722089184
 21
55.8295975763
  0
LWPOLYLINE
  5
29D
100
AcDbEntity
  8
0
100
AcDbPolyline
 62
7
  6
BYLAYER
 90
3
 70
0
 10
34.7680319166
 20
62.3106128136
 10
37.0356860428
 20
61.9003333422
 10
38.2344663244
 20
61.3229339773
  0
LINE
  5
29E
100
AcDbEntity
  8
0
100
AcDbLine
 62
7
  6
BYLAYER
 10
38.9769269698
 20
60.8942637294
 11
38.2344667363
 21
61.3229346816
  0
ARC
  5
29F
100
AcDbEntity
  8
0
100
AcDbCircle
 62
7
  6
BYLAYER
 10
31.7404480651
 20
49.1636581282
 40
15.9827039787
100
AcDbArc
 50
26.412933187
 51
33.5873422624
  0
ARC
  5
2A0
100
AcDbEntity
  8
0
100
AcDbCircle
 62
7
  6
BYLAYER
 10
22.6011799259
 20
43.1397023443
 40
15.4962816984
100
AcDbArc
 50
266.2224301939
 51
266.340796651
  0
ARC
  5
2A1
100
AcDbEntity
  8
0
100
AcDbCircle
 62
7
  6
BYLAYER
 10
22.600784264
 20
43.1337850433
 40
15.4903511862
100
AcDbArc
 50
265.8664119884
 51
266.2224485068
  0
ARC
  5
2A2
100
AcDbEntity
  8
0
100
AcDbCircle
 62
7
  6
BYLAYER
 10
20.6225176464
 20
26.843836844
 40
8.9226535406
100
AcDbArc
 50
240.5784808267
 51
244.0366827251
  0
ARC
  5
2A3
100
AcDbEntity
  8
0
100
AcDbCircle
 62
7
  6
BYLAYER
 10
22.4219249563
 20
19.1485469081
 40
8.9056116917
100
AcDbArc
 50
278.3249000193
 51
279.2630945701
  0
ARC
  5
2A4
100
AcDbEntity
  8
0
100
AcDbCircle
 62
7
  6
BYLAYER
 10
22.4251430197
 20
16.3516368506
 40
8.8845631127
100
AcDbArc
 50
278.3237886476
 51
279.2642059419
  0
ARC
  5
2A5
100
AcDbEntity
  8
0
100
AcDbCircle
 62
7
  6
BYLAYER
 10
20.5625782213
 20
25.8970719372
 40
8.3655602547
100
AcDbArc
 50
240.0011820247
 51
240.529619858
  0
ARC
  5
2A6
100
AcDbEntity
  8
0
100
AcDbCircle
 62
7
  6
BYLAYER
 10
20.3306506516
 20
26.3118991753
 40
8.3159491233
100
AcDbArc
 50
240.0012661135
 51
240.5297039467
  0
ARC
  5
2A7
100
AcDbEntity
  8
0
100
AcDbCircle
 62
7
  6
BYLAYER
 10
21.0943089635
 20
12.9376178231
 40
5.2471298343
100
AcDbArc
 50
240.0022526476
 51
240.6696045181
  0
ARC
  5
2A8
100
AcDbEntity
  8
0
100
AcDbCircle
 62
7
  6
BYLAYER
 10
21.0855779316
 20
15.6983965852
 40
5.2294886168
100
AcDbArc
 50
240.0011270085
 51
240.6707301571
  0
ARC
  5
2A9
100
AcDbEntity
  8
0
100
AcDbCircle
 62
7
  6
BYLAYER
 10
21.0416211483
 20
12.8461512477
 40
5.1415735457
100
AcDbArc
 50
239.3246870207
 51
240.0011366003
  0
ARC
  5
2AA
100
AcDbEntity
  8
0
100
AcDbCircle
 62
7
  6
BYLAYER
 10
21.0327708801
 20
15.6071365283
 40
5.1240515664
100
AcDbArc
 50
239.3235304287
 51
240.0022931923
  0
ARC
  5
2AB
100
AcDbEntity
  8
0
100
AcDbCircle
 62
7
  6
BYLAYER
 10
23.5216184858
 20
11.9742360909
 40
4.4648539419
100
AcDbArc
 50
298.9327094838
 51
300.0019809448
  0
ARC
  5
2AC
100
AcDbEntity
  8
0
100
AcDbCircle
 62
7
  6
BYLAYER
 10
19.3747061366
 20
21.6976984639
 40
4.3518314735
100
AcDbArc
 50
225.160750736
 51
226.1567395745
  0
ARC
  5
2AD
100
AcDbEntity
  8
0
100
AcDbCircle
 62
7
  6
BYLAYER
 10
19.1518720939
 20
21.4791368291
 40
4.0397291805
100
AcDbArc
 50
220.9153256349
 51
225.2160180935
  0
ARC
  5
2AE
100
AcDbEntity
  8
0
100
AcDbCircle
 62
7
  6
BYLAYER
 10
44.0170357425
 20
49.1796922243
 40
3.1256207555
100
AcDbArc
 50
300.0414560865
 51
310.6877047521
  0
ARC
  5
2AF
100
AcDbEntity
  8
0
100
AcDbCircle
 62
7
  6
BYLAYER
 10
37.884949815
 20
59.8043078265
 40
3.1071510379
100
AcDbArc
 50
109.2819781185
 51
119.9899735339
  0
ARC
  5
2B0
100
AcDbEntity
  8
0
100
AcDbCircle
 62
7
  6
BYLAYER
 10
19.0616621295
 20
13.3019835012
 40
2.2205566718
100
AcDbArc
 50
153.920518797
 51
156.2874030931
  0
ARC
  5
2B1
100
AcDbEntity
  8
0
100
AcDbCircle
 62
7
  6
BYLAYER
 10
25.6583254932
 20
13.5276525176
 40
2.2205566718
100
AcDbArc
 50
333.920518797
 51
336.287403093
  0
ARC
  5
2B2
100
AcDbEntity
  8
0
100
AcDbCircle
 62
7
  6
BYLAYER
 10
25.6703349495
 20
10.7459707044
 40
2.2073197243
100
AcDbArc
 50
333.913420863
 51
336.2945010271
  0
ARC
  5
2B3
100
AcDbEntity
  8
0
100
AcDbCircle
 62
7
  6
BYLAYER
 10
11.0463435708
 20
37.6648703949
 40
1.4849975131
100
AcDbArc
 50
179.6696097106
 51
180.0002318158
  0
ARC
  5
2B4
100
AcDbEntity
  8
0
100
AcDbCircle
 62
7
  6
BYLAYER
 10
6.9797832235
 20
40.8312449087
 40
1.0
100
AcDbArc
 50
180.0000006805
 51
240.0173843163
  0
ARC
  5
2B5
100
AcDbEntity
  8
0
100
AcDbCircle
 62
7
  6
BYLAYER
 10
6.9797832235
 20
48.9105077113
 40
1.0
100
AcDbArc
 50
122.1738614925
 51
179.9999999962
  0
ARC
  5
2B6
100
AcDbEntity
  8
0
100
AcDbCircle
 62
7
  6
BYLAYER
 10
12.1440943832
 20
51.8922093982
 40
1.0
100
AcDbArc
 50
122.1549138272
 51
180.0148752968
  0
ARC
  5
2B7
100
AcDbEntity
  8
0
100
AcDbCircle
 62
7
  6
BYLAYER
 10
24.3052314921
 20
30.8286189766
 40
1.0
100
AcDbArc
 50
239.98504037
 51
297.8447195344
  0
ARC
  5
2B8
100
AcDbEntity
  8
0
100
AcDbCircle
 62
7
  6
BYLAYER
 10
9.1472074868
 20
50.427820865
 40
0.9512288319
100
AcDbArc
 50
143.1152491765
 51
144.9741358707
  0
ARC
  5
2B9
100
AcDbEntity
  8
0
100
AcDbCircle
 62
7
  6
BYLAYER
 10
22.463328265
 20
27.9986065458
 40
0.2735822279
100
AcDbArc
 50
256.9461009846
 51
260.9533500791
  0
ARC
  5
2BA
100
AcDbEntity
  8
0
100
AcDbCircle
 62
7
  6
BYLAYER
 10
21.5519348895
 20
28.0204143342
 40
0.2635012107
100
AcDbArc
 50
278.3121467635
 51
283.9739965761
  0
SPLINE
  5
2BB
100
AcDbEntity
  8
0
100
AcDbSpline
 62
7
  6
BYLAYER
 70
0
 71
3
 72
11
 73
7
 74
0
 42
0.0000001
 43
0.0000001
 44
0.0000000001
 40
0.0
 40
0.0
 40
0.0
 40
0.0
 40
0.2418281146
 40
0.4900763723
 40
0.7432174117
 40
1.0
 40
1.0
 40
1.0
 40
1.0
 10
18.3029057275
 20
15.489101524
 30
0.0
 10
18.193802409
 20
15.4019599417
 30
0.0
 10
17.9783257363
 20
15.2182454483
 30
0.0
 10
17.6667230213
 20
14.9229691048
 30
0.0
 10
17.3621568595
 20
14.6083583045
 30
0.0
 10
17.1649115289
 20
14.389686496
 30
0.0
 10
17.067191281
 20
14.2781791616
 30
0.0
  0
SPLINE
  5
2BC
100
AcDbEntity
  8
0
100
AcDbSpline
 62
7
  6
BYLAYER
 70
0
 71
3
 72
22
 73
18
 74
0
 42
0.0000001
 43
0.0000001
 44
0.0000000001
 40
0.0
 40
0.0
 40
0.0
 40
0.0
 40
0.0296447952
 40
0.0621069769
 40
0.0980152332
 40
0.1380138733
 40
0.1827155573
 40
0.2326397736
 40
0.2881439452
 40
0.3493658256
 40
0.416196509
 40
0.4882961057
 40
0.5651531471
 40
0.6461629933
 40
0.7307031628
 40
0.8181884782
 40
1.0
 40
1.0
 40
1.0
 40
1.0
 10
18.4185323039
 20
8.4240269347
 30
0.0
 10
18.3902599763
 20
8.4414001825
 30
0.0
 10
18.332892556
 20
8.4809057452
 30
0.0
 10
18.248840921
 20
8.5516608015
 30
0.0
 10
18.1633797464
 20
8.6379691922
 30
0.0
 10
18.0765731969
 20
8.7415481355
 30
0.0
 10
17.9885375122
 20
8.8640045389
 30
0.0
 10
17.8994832753
 20
9.0066415419
 30
0.0
 10
17.8097107966
 20
9.1702598267
 30
0.0
 10
17.719598163
 20
9.3549877079
 30
0.0
 10
17.6295669922
 20
9.5602033571
 30
0.0
 10
17.5400311506
 20
9.7845837771
 30
0.0
 10
17.4513559799
 20
10.0262766114
 30
0.0
 10
17.3638247355
 20
10.2831362652
 30
0.0
 10
17.2776223901
 20
10.5529569328
 30
0.0
 10
17.1631169951
 20
10.9321329867
 30
0.0
 10
17.0817467253
 20
11.2224228449
 30
0.0
 10
17.0285777312
 20
11.4188701106
 30
0.0
  0
SPLINE
  5
2BD
100
AcDbEntity
  8
0
100
AcDbSpline
 62
7
  6
BYLAYER
 70
0
 71
3
 72
13
 73
9
 74
0
 42
0.0000001
 43
0.0000001
 44
0.0000000001
 40
0.0
 40
0.0
 40
0.0
 40
0.0
 40
0.2634310088
 40
0.3928637604
 40
0.520255677
 40
0.6451490842
 40
0.7670549944
 40
1.0
 40
1.0
 40
1.0
 40
1.0
 10
27.6527963417
 20
9.7753486389
 30
0.0
 10
27.5059305334
 20
9.6077619294
 30
0.0
 10
27.2814865518
 20
9.3624247691
 30
0.0
 10
26.9702918463
 20
9.0511619577
 30
0.0
 10
26.7342343316
 20
8.8307507499
 30
0.0
 10
26.494382448
 20
8.6240328904
 30
0.0
 10
26.1751495107
 20
8.3733833393
 30
0.0
 10
25.9248246817
 20
8.2061614252
 30
0.0
 10
25.7541791419
 20
8.1076363393
 30
0.0
  0
SPLINE
  5
2BE
100
AcDbEntity
  8
0
100
AcDbSpline
 62
7
  6
BYLAYER
 70
0
 71
3
 72
23
 73
19
 74
0
 42
0.0000001
 43
0.0000001
 44
0.0000000001
 40
0.0
 40
0.0
 40
0.0
 40
0.0
 40
0.0558379067
 40
0.1141781358
 40
0.1747811679
 40
0.2373512185
 40
0.3015462192
 40
0.3669896943
 40
0.4332798197
 40
0.4999972451
 40
0.5667148643
 40
0.633005358
 40
0.698448948
 40
0.762645107
 40
0.8252159066
 40
0.8858167203
 40
0.9441683284
 40
1.0
 40
1.0
 40
1.0
 40
1.0
 10
25.6834650974
 20
8.0668105351
 30
0.0
 10
25.5721193299
 20
8.0025231846
 30
0.0
 10
25.3386450255
 20
7.8809083898
 30
0.0
 10
24.9681300505
 20
7.7229217386
 30
0.0
 10
24.5726826491
 20
7.5865985048
 30
0.0
 10
24.1560975496
 20
7.4732580784
 30
0.0
 10
23.7223397829
 20
7.3839614993
 30
0.0
 10
23.2755541469
 20
7.3195555748
 30
0.0
 10
22.8200085011
 20
7.2806657815
 30
0.0
 10
22.3600608195
 20
7.2676613574
 30
0.0
 10
21.9001120672
 20
7.2806581836
 30
0.0
 10
21.4445642363
 20
7.3195403478
 30
0.0
 10
20.9977735028
 20
7.3839374574
 30
0.0
 10
20.5640099388
 20
7.4732296044
 30
0.0
 10
20.1474240756
 20
7.5865631487
 30
0.0
 10
19.7519485666
 20
7.7228760014
 30
0.0
 10
19.3814312281
 20
7.8808743955
 30
0.0
 10
19.1479405377
 20
8.002482634
 30
0.0
 10
19.0366057764
 20
8.0667603342
 30
0.0
  0
SPLINE
  5
2BF
100
AcDbEntity
  8
0
100
AcDbSpline
 62
7
  6
BYLAYER
 70
0
 71
3
 72
20
 73
16
 74
0
 42
0.0000001
 43
0.0000001
 44
0.0000000001
 40
0.0
 40
0.0
 40
0.0
 40
0.0
 40
0.17161101
 40
0.335366879
 40
0.4133437745
 40
0.4881217658
 40
0.5592334984
 40
0.6262394282
 40
0.6887748803
 40
0.7465965225
 40
0.7996163224
 40
0.8479122636
 40
0.8917150797
 40
0.9313767269
 40
1.0
 40
1.0
 40
1.0
 40
1.0
 10
27.6914098915
 20
12.6346576899
 30
0.0
 10
27.6439035642
 20
12.8101826976
 30
0.0
 10
27.5482820983
 20
13.1524551828
 30
0.0
 10
27.4210010017
 20
13.5715971799
 30
0.0
 10
27.3159143459
 20
13.8901016817
 30
0.0
 10
27.2373804291
 20
14.1139523461
 30
0.0
 10
27.1580028038
 20
14.3251344835
 30
0.0
 10
27.0780030533
 20
14.5221539018
 30
0.0
 10
26.99765579
 20
14.7037404416
 30
0.0
 10
26.9172647615
 20
14.8689801107
 30
0.0
 10
26.8371340855
 20
15.0174149186
 30
0.0
 10
26.7575494621
 20
15.149061343
 30
0.0
 10
26.6787221719
 20
15.2644140757
 30
0.0
 10
26.5795953916
 20
15.3915293475
 30
0.0
 10
26.4999612357
 20
15.4749353102
 30
0.0
 10
26.4452464116
 20
15.5228265626
 30
0.0
  0
SPLINE
  5
2C0
100
AcDbEntity
  8
0
100
AcDbSpline
 62
7
  6
BYLAYER
 70
0
 71
3
 72
23
 73
19
 74
0
 42
0.0000001
 43
0.0000001
 44
0.0000000001
 40
0.0
 40
0.0
 40
0.0
 40
0.0
 40
0.0558269218
 40
0.1141819954
 40
0.1747828757
 40
0.237351575
 40
0.3015474968
 40
0.3669907364
 40
0.4332808993
 40
0.4999996316
 40
0.5667180835
 40
0.633008821
 40
0.6984532997
 40
0.7626485875
 40
0.8252189724
 40
0.8858221881
 40
0.9441621573
 40
1.0
 40
1.0
 40
1.0
 40
1.0
 10
24.4813229868
 20
12.8432976795
 30
0.0
 10
24.410264277
 20
12.8022721592
 30
0.0
 10
24.2612273344
 20
12.7246532054
 30
0.0
 10
24.0247310902
 20
12.6237954794
 30
0.0
 10
23.7722971001
 20
12.536784376
 30
0.0
 10
23.50639209
 20
12.4644495552
 30
0.0
 10
23.229526551
 20
12.4074449444
 30
0.0
 10
22.9443404257
 20
12.3663430442
 30
0.0
 10
22.6535634821
 20
12.3415257355
 30
0.0
 10
22.3599753998
 20
12.3332198276
 30
0.0
 10
22.0663864968
 20
12.3415274948
 30
0.0
 10
21.7756075887
 20
12.3663486795
 30
0.0
 10
21.4904202706
 20
12.4074540216
 30
0.0
 10
21.2135513372
 20
12.4644587465
 30
0.0
 10
20.9476427098
 20
12.536800344
 30
0.0
 10
20.6952277804
 20
12.6238154781
 30
0.0
 10
20.4587289135
 20
12.7246603111
 30
0.0
 10
20.3097018603
 20
12.8022855198
 30
0.0
 10
20.2386296923
 20
12.8433198319
 30
0.0
  0
SPLINE
  5
2C1
100
AcDbEntity
  8
0
100
AcDbSpline
 62
7
  6
BYLAYER
 70
0
 71
3
 72
19
 73
15
 74
0
 42
0.0000001
 43
0.0000001
 44
0.0000000001
 40
0.0
 40
0.0
 40
0.0
 40
0.0
 40
0.117520828
 40
0.2371692282
 40
0.2979263661
 40
0.3593401512
 40
0.4214187343
 40
0.4841434996
 40
0.5474664848
 40
0.6113127418
 40
0.6755880522
 40
0.7401898258
 40
0.8699540634
 40
1.0
 40
1.0
 40
1.0
 40
1.0
 10
23.7113348342
 20
7.5606657825
 30
0.0
 10
23.5288554641
 20
7.5135881584
 30
0.0
 10
23.1575080628
 20
7.4299816948
 30
0.0
 10
22.6842178275
 20
7.3605768778
 30
0.0
 10
22.2974918777
 20
7.3303442284
 30
0.0
 10
22.0020341992
 20
7.3216463409
 30
0.0
 10
21.7033552187
 20
7.3282119992
 30
0.0
 10
21.4023883837
 20
7.350925756
 30
0.0
 10
21.1002807436
 20
7.3902803119
 30
0.0
 10
20.7982894682
 20
7.4462911348
 30
0.0
 10
20.4976517579
 20
7.5184889202
 30
0.0
 10
20.0995343034
 20
7.6352932355
 30
0.0
 10
19.6111166203
 20
7.8163941915
 30
0.0
 10
19.2324948773
 20
7.9911068984
 30
0.0
 10
19.0459377466
 20
8.0843007471
 30
0.0
  0
SPLINE
  5
2C2
100
AcDbEntity
  8
0
100
AcDbSpline
 62
7
  6
BYLAYER
 70
0
 71
3
 72
9
 73
5
 74
0
 42
0.0000001
 43
0.0000001
 44
0.0000000001
 40
0.0
 40
0.0
 40
0.0
 40
0.0
 40
0.2501667205
 40
1.0
 40
1.0
 40
1.0
 40
1.0
 10
19.0459377466
 20
8.0843007471
 30
0.0
 10
19.0017933257
 20
8.1063529114
 30
0.0
 10
18.8259827721
 20
8.1958005613
 30
0.0
 10
18.6526710703
 20
8.2901308013
 30
0.0
 10
18.5240285623
 20
8.3631200194
 30
0.0
  0
SPLINE
  5
2C3
100
AcDbEntity
  8
0
100
AcDbSpline
 62
7
  6
BYLAYER
 70
0
 71
3
 72
20
 73
16
 74
0
 42
0.0000001
 43
0.0000001
 44
0.0000000001
 40
0.0
 40
0.0
 40
0.0
 40
0.0
 40
0.1475842572
 40
0.220097446
 40
0.291467224
 40
0.3614371663
 40
0.4297333061
 40
0.5602372638
 40
0.6221467847
 40
0.6817399221
 40
0.7391033197
 40
0.7944151095
 40
0.8479112254
 40
0.8998495758
 40
1.0
 40
1.0
 40
1.0
 40
1.0
 10
23.8554446424
 20
10.3590679182
 30
0.0
 10
24.002314756
 20
10.5266595405
 30
0.0
 10
24.2267655217
 20
10.7720037694
 30
0.0
 10
24.5379696367
 20
11.0832746522
 30
0.0
 10
24.7740352974
 20
11.3036915525
 30
0.0
 10
25.0138919424
 20
11.5104118345
 30
0.0
 10
25.3331478713
 20
11.7610731851
 30
0.0
 10
25.661362574
 20
11.9803251304
 30
0.0
 10
25.9968491753
 20
12.1603772809
 30
0.0
 10
26.2430386869
 20
12.2719452466
 30
0.0
 10
26.4870148606
 20
12.3627337042
 30
0.0
 10
26.7278571909
 20
12.4337741029
 30
0.0
 10
26.9649514965
 20
12.4865675787
 30
0.0
 10
27.2718177832
 20
12.5344068749
 30
0.0
 10
27.5015913177
 20
12.5493995103
 30
0.0
 10
27.6527963417
 20
12.5514568572
 30
0.0
  0
SPLINE
  5
2C4
100
AcDbEntity
  8
0
100
AcDbSpline
 62
7
  6
BYLAYER
 70
0
 71
3
 72
19
 73
15
 74
0
 42
0.0000001
 43
0.0000001
 44
0.0000000001
 40
0.0
 40
0.0
 40
0.0
 40
0.0
 40
0.1171473493
 40
0.2367126888
 40
0.2975630038
 40
0.3591526038
 40
0.4214703789
 40
0.4844650782
 40
0.5480472444
 40
0.6120999703
 40
0.6764956377
 40
0.7411123882
 40
0.8705882182
 40
1.0
 40
1.0
 40
1.0
 40
1.0
 10
18.5240285623
 20
11.1392282376
 30
0.0
 10
18.7282956287
 20
11.1919268422
 30
0.0
 10
19.1449425889
 20
11.2841221347
 30
0.0
 10
19.6770941286
 20
11.3541921682
 30
0.0
 10
20.1124826844
 20
11.3771066145
 30
0.0
 10
20.445376738
 20
11.3758709803
 30
0.0
 10
20.7814804012
 20
11.3547046317
 30
0.0
 10
21.1192547227
 20
11.3127883982
 30
0.0
 10
21.4569543405
 20
11.2500206253
 30
0.0
 10
21.7928517216
 20
11.1670690221
 30
0.0
 10
22.1254452348
 20
11.065246606
 30
0.0
 10
22.5632220766
 20
10.9065751822
 30
0.0
 10
23.0966640306
 20
10.6706710233
 30
0.0
 10
23.5086462276
 20
10.4517755126
 30
0.0
 10
23.7113348342
 20
10.3367740007
 30
0.0
  0
SPLINE
  5
2C5
100
AcDbEntity
  8
0
100
AcDbSpline
 62
7
  6
BYLAYER
 70
0
 71
3
 72
22
 73
18
 74
0
 42
0.0000001
 43
0.0000001
 44
0.0000000001
 40
0.0
 40
0.0
 40
0.0
 40
0.0
 40
0.0296447952
 40
0.0621069769
 40
0.0980152332
 40
0.1380138733
 40
0.1827155573
 40
0.2326397736
 40
0.2881439452
 40
0.3493658256
 40
0.4161965089
 40
0.4882961057
 40
0.5651531471
 40
0.6461629934
 40
0.7307031629
 40
0.8181884782
 40
1.0
 40
1.0
 40
1.0
 40
1.0
 10
17.0285777312
 20
14.1949783288
 30
0.0
 10
17.0568500588
 20
14.177605081
 30
0.0
 10
17.1142174791
 20
14.1380995183
 30
0.0
 10
17.198269114
 20
14.067344462
 30
0.0
 10
17.2837302886
 20
13.9810360713
 30
0.0
 10
17.3705368382
 20
13.877457128
 30
0.0
 10
17.4585725228
 20
13.7550007246
 30
0.0
 10
17.5476267598
 20
13.6123637216
 30
0.0
 10
17.6373992385
 20
13.4487454368
 30
0.0
 10
17.727511872
 20
13.2640175556
 30
0.0
 10
17.8175430428
 20
13.0588019064
 30
0.0
 10
17.9070788845
 20
12.8344214864
 30
0.0
 10
17.9957540552
 20
12.5927286521
 30
0.0
 10
18.0832852995
 20
12.3358689983
 30
0.0
 10
18.1694876449
 20
12.0660483307
 30
0.0
 10
18.2839930399
 20
11.6868722768
 30
0.0
 10
18.3653633097
 20
11.3965824186
 30
0.0
 10
18.4185323039
 20
11.2001351529
 30
0.0
  0
SPLINE
  5
2C6
100
AcDbEntity
  8
0
100
AcDbSpline
 62
7
  6
BYLAYER
 70
0
 71
3
 72
24
 73
20
 74
0
 42
0.0000001
 43
0.0000001
 44
0.0000000001
 40
0.0
 40
0.0
 40
0.0
 40
0.0
 40
0.0669619308
 40
0.0992753485
 40
0.1308472312
 40
0.1919128926
 40
0.2506135628
 40
0.3075007359
 40
0.3632336358
 40
0.4185443705
 40
0.4741934678
 40
0.5309185196
 40
0.58938825
 40
0.6501684149
 40
0.7137043874
 40
0.7803075125
 40
0.8501835381
 40
0.9234371774
 40
1.0
 40
1.0
 40
1.0
 40
1.0
 10
18.3412655967
 20
15.4750966225
 30
0.0
 10
18.2753274802
 20
15.4123262659
 30
0.0
 10
18.1817168352
 20
15.3146943525
 30
0.0
 10
18.06896205
 20
15.1770112963
 30
0.0
 10
17.9685263221
 20
15.0399179007
 30
0.0
 10
17.8610146966
 20
14.8638904681
 30
0.0
 10
17.7617022875
 20
14.6445052884
 30
0.0
 10
17.6943753496
 20
14.4207684248
 30
0.0
 10
17.6596152696
 20
14.1943374249
 30
0.0
 10
17.6577864331
 20
13.9669234209
 30
0.0
 10
17.6889012532
 20
13.7402959989
 30
0.0
 10
17.7526386102
 20
13.5161797785
 30
0.0
 10
17.8484434964
 20
13.2962267285
 30
0.0
 10
17.9754686574
 20
13.081952324
 30
0.0
 10
18.1327477172
 20
12.8748184848
 30
0.0
 10
18.3190836046
 20
12.6761563797
 30
0.0
 10
18.5331999207
 20
12.4872588967
 30
0.0
 10
18.7735705265
 20
12.3094235644
 30
0.0
 10
18.9464597283
 20
12.2013170876
 30
0.0
 10
19.0366057764
 20
12.1492724199
 30
0.0
  0
SPLINE
  5
2C7
100
AcDbEntity
  8
0
100
AcDbSpline
 62
7
  6
BYLAYER
 70
0
 71
3
 72
23
 73
19
 74
0
 42
0.0000001
 43
0.0000001
 44
0.0000000001
 40
0.0
 40
0.0
 40
0.0
 40
0.0
 40
0.0764008405
 40
0.1493999445
 40
0.2189860459
 40
0.2852565327
 40
0.3484223815
 40
0.4088250547
 40
0.4669379739
 40
0.52336095
 40
0.5787998838
 40
0.6340259281
 40
0.689824959
 40
0.7469433124
 40
0.8060422534
 40
0.867668429
 40
0.9322261604
 40
1.0
 40
1.0
 40
1.0
 40
1.0
 10
20.2386296923
 20
12.8433198319
 30
0.0
 10
20.1800210858
 20
12.8771581672
 30
0.0
 10
20.0677311707
 20
12.9474735009
 30
0.0
 10
19.9118823873
 20
13.0633306594
 30
0.0
 10
19.7734709848
 20
13.1864820448
 30
0.0
 10
19.6534857137
 20
13.3160573366
 30
0.0
 10
19.5528314305
 20
13.4512035773
 30
0.0
 10
19.4722711026
 20
13.5909868635
 30
0.0
 10
19.4124770799
 20
13.7344398276
 30
0.0
 10
19.3739873598
 20
13.8805167242
 30
0.0
 10
19.3571637999
 20
14.0280960399
 30
0.0
 10
19.3622068335
 20
14.1759984014
 30
0.0
 10
19.3890260862
 20
14.3230312643
 30
0.0
 10
19.4373914534
 20
14.4680302473
 30
0.0
 10
19.506808884
 20
14.609924588
 30
0.0
 10
19.5967245363
 20
14.747682176
 30
0.0
 10
19.7063571452
 20
14.880373938
 30
0.0
 10
19.7900027654
 20
14.9628020862
 30
0.0
 10
19.834617709
 20
15.0029714717
 30
0.0
  0
SPLINE
  5
2C8
100
AcDbEntity
  8
0
100
AcDbSpline
 62
7
  6
BYLAYER
 70
0
 71
3
 72
14
 73
10
 74
0
 42
0.0000001
 43
0.0000001
 44
0.0000000001
 40
0.0
 40
0.0
 40
0.0
 40
0.0
 40
0.1400777807
 40
0.275078777
 40
0.405238699
 40
0.5309676084
 40
0.6527790224
 40
0.7712218709
 40
1.0
 40
1.0
 40
1.0
 40
1.0
 10
25.6816348878
 20
8.0666473376
 30
0.0
 10
25.6036284551
 20
8.023534193
 30
0.0
 10
25.4478076647
 20
7.9435170833
 30
0.0
 10
25.21107267
 20
7.8408874696
 30
0.0
 10
24.9765999692
 20
7.7573732376
 30
0.0
 10
24.7451761089
 20
7.6919558267
 30
0.0
 10
24.5172956669
 20
7.6432378746
 30
0.0
 10
24.2220319108
 20
7.5989297408
 30
0.0
 10
24.0009964994
 20
7.5849401279
 30
0.0
 10
23.8554446424
 20
7.5829597
 30
0.0
  0
SPLINE
  5
2C9
100
AcDbEntity
  8
0
100
AcDbSpline
 62
7
  6
BYLAYER
 70
0
 71
3
 72
41
 73
37
 74
0
 42
0.0000001
 43
0.0000001
 44
0.0000000001
 40
0.0
 40
0.0
 40
0.0
 40
0.0
 40
0.032372373
 40
0.0661105502
 40
0.101078345
 40
0.1371422912
 40
0.1741378584
 40
0.2118814113
 40
0.2501780582
 40
0.2888228596
 40
0.3276047498
 40
0.3663104133
 40
0.4047281629
 40
0.4426506758
 40
0.4798795318
 40
0.5162284787
 40
0.5515270218
 40
0.5856261151
 40
0.618401439
 40
0.6497596012
 40
0.6796446905
 40
0.7080433342
 40
0.7349937862
 40
0.7605923788
 40
0.784998718
 40
0.8084397013
 40
0.8312041219
 40
0.8536297984
 40
0.8648379529
 40
0.8760985667
 40
0.8989384831
 40
0.9224987737
 40
0.9470603814
 40
0.9597934869
 40
0.9728523078
 40
1.0
 40
1.0
 40
1.0
 40
1.0
 10
19.0366057764
 20
12.1492724199
 30
0.0
 10
19.1394766875
 20
12.0898812153
 30
0.0
 10
19.3544997721
 20
11.9769962423
 30
0.0
 10
19.6946645007
 20
11.8285018926
 30
0.0
 10
20.0567079636
 20
11.6984159658
 30
0.0
 10
20.4375981568
 20
11.5878042251
 30
0.0
 10
20.8342514731
 20
11.49753288
 30
0.0
 10
21.2434216964
 20
11.4283662328
 30
0.0
 10
21.6617508673
 20
11.3808649889
 30
0.0
 10
22.0858093177
 20
11.3554036824
 30
0.0
 10
22.5121184397
 20
11.3522121996
 30
0.0
 10
22.9371785974
 20
11.3713049738
 30
0.0
 10
23.3575028421
 20
11.4125199309
 30
0.0
 10
23.769641955
 20
11.4755375547
 30
0.0
 10
24.1702200392
 20
11.5598239406
 30
0.0
 10
24.5559563139
 20
11.66469499
 30
0.0
 10
24.9236914287
 20
11.7893084617
 30
0.0
 10
25.2704273789
 20
11.9326331175
 30
0.0
 10
25.59333103
 20
12.0935272272
 30
0.0
 10
25.8897692047
 20
12.2707037758
 30
0.0
 10
26.157335386
 20
12.4627425564
 30
0.0
 10
26.3938253322
 20
12.6681591515
 30
0.0
 10
26.5972839271
 20
12.8853503191
 30
0.0
 10
26.7659847867
 20
13.1126385627
 30
0.0
 10
26.8983882678
 20
13.3482717647
 30
0.0
 10
26.9932234046
 20
13.5903569847
 30
0.0
 10
27.0494731525
 20
13.8368118225
 30
0.0
 10
27.0635993606
 20
14.0442056499
 30
0.0
 10
27.0552767392
 20
14.2088737553
 30
0.0
 10
27.033901688
 20
14.3738972473
 30
0.0
 10
26.9822310208
 20
14.5799868669
 30
0.0
 10
26.8820563507
 20
14.8212427992
 30
0.0
 10
26.7687478865
 20
15.0144495103
 30
0.0
 10
26.6608903305
 20
15.1645740833
 30
0.0
 10
26.5383520608
 20
15.3154161776
 30
0.0
 10
26.4356196427
 20
15.4218210601
 30
0.0
 10
26.3629783551
 20
15.4899832058
 30
0.0
  0
SPLINE
  5
2CA
100
AcDbEntity
  8
0
100
AcDbSpline
 62
7
  6
BYLAYER
 70
0
 71
3
 72
23
 73
19
 74
0
 42
0.0000001
 43
0.0000001
 44
0.0000000001
 40
0.0
 40
0.0
 40
0.0
 40
0.0
 40
0.0682882231
 40
0.133289032
 40
0.1952686929
 40
0.2546253291
 40
0.3118973401
 40
0.3677438533
 40
0.4229205716
 40
0.4782292458
 40
0.5344606944
 40
0.5923443271
 40
0.6525044758
 40
0.7154319998
 40
0.7814767972
 40
0.8508742667
 40
0.9237419061
 40
1.0
 40
1.0
 40
1.0
 40
1.0
 10
24.8594307535
 20
15.0259180014
 30
0.0
 10
24.9056660025
 20
14.9857027934
 30
0.0
 10
24.9924684321
 20
14.9031021779
 30
0.0
 10
25.1067078054
 20
14.769819563
 30
0.0
 10
25.2008841138
 20
14.6311873636
 30
0.0
 10
25.2741903906
 20
14.4881696628
 30
0.0
 10
25.3260278377
 20
14.341818083
 30
0.0
 10
25.3558544501
 20
14.1932317301
 30
0.0
 10
25.3634102797
 20
14.043612792
 30
0.0
 10
25.3485667719
 20
13.8941970752
 30
0.0
 10
25.3115254362
 20
13.7462113811
 30
0.0
 10
25.2526297412
 20
13.6008278698
 30
0.0
 10
25.1724368896
 20
13.4591331896
 30
0.0
 10
25.0716367828
 20
13.322138986
 30
0.0
 10
24.9510233871
 20
13.1907979757
 30
0.0
 10
24.8114938204
 20
13.0659979154
 30
0.0
 10
24.654100385
 20
12.9486650959
 30
0.0
 10
24.5405846915
 20
12.8775122365
 30
0.0
 10
24.4813229868
 20
12.8432976795
 30
0.0
  0
SPLINE
  5
2CB
100
AcDbEntity
  8
0
100
AcDbSpline
 62
7
  6
BYLAYER
 70
0
 71
3
 72
33
 73
29
 74
0
 42
0.0000001
 43
0.0000001
 44
0.0000000001
 40
0.0
 40
0.0
 40
0.0
 40
0.0
 40
0.0213260057
 40
0.0428803891
 40
0.0648795781
 40
0.0875178807
 40
0.110960989
 40
0.1353410053
 40
0.1607573729
 40
0.1872755702
 40
0.2149322223
 40
0.243735116
 40
0.2736689968
 40
0.3046960606
 40
0.336760684
 40
0.3697905374
 40
0.4383694133
 40
0.5096366611
 40
0.5826412359
 40
0.6563529309
 40
0.7297104717
 40
0.8016674958
 40
0.8368200478
 40
0.8712619524
 40
0.9048866065
 40
0.9376047838
 40
0.9693381757
 40
1.0
 40
1.0
 40
1.0
 40
1.0
 10
29.3599884809
 20
18.7629088373
 30
0.0
 10
29.3599917922
 20
18.6636066165
 30
0.0
 10
29.3471677173
 20
18.4637094626
 30
0.0
 10
29.2897446673
 20
18.1663505246
 30
0.0
 10
29.1944690747
 20
17.8724439787
 30
0.0
 10
29.0620199903
 20
17.5836893027
 30
0.0
 10
28.8931904384
 20
17.3016573231
 30
0.0
 10
28.6890388604
 20
17.0278119886
 30
0.0
 10
28.4506876274
 20
16.7636162488
 30
0.0
 10
28.1795072307
 20
16.510397684
 30
0.0
 10
27.8769424682
 20
16.2695137153
 30
0.0
 10
27.5446604351
 20
16.0421819633
 30
0.0
 10
27.1844287772
 20
15.829629046
 30
0.0
 10
26.7982001624
 20
15.6329541709
 30
0.0
 10
26.3880342642
 20
15.4532099471
 30
0.0
 10
25.80494011
 20
15.2347050651
 30
0.0
 10
25.030060875
 20
15.0114008101
 30
0.0
 10
24.054958702
 20
14.8268496995
 30
0.0
 10
23.043660681
 20
14.7262781383
 30
0.0
 10
22.0177824593
 20
14.7118411176
 30
0.0
 10
20.999252228
 20
14.7838413617
 30
0.0
 10
20.1680813076
 20
14.9156193747
 30
0.0
 10
19.5255923882
 20
15.0636611879
 30
0.0
 10
19.0627181803
 20
15.1938169523
 30
0.0
 10
18.6176407174
 20
15.3432509421
 30
0.0
 10
18.1927081477
 20
15.5111703475
 30
0.0
 10
17.7902998613
 20
15.6966862353
 30
0.0
 10
17.5339130787
 20
15.8338142542
 30
0.0
 10
17.4102669509
 20
15.9051997645
 30
0.0
  0
SPLINE
  5
2CC
100
AcDbEntity
  8
0
100
AcDbSpline
 62
7
  6
BYLAYER
 70
0
 71
3
 72
18
 73
14
 74
0
 42
0.0000001
 43
0.0000001
 44
0.0000000001
 40
0.0
 40
0.0
 40
0.0
 40
0.0
 40
0.1485501271
 40
0.2894297159
 40
0.4226091474
 40
0.5484961506
 40
0.667821804
 40
0.7254052288
 40
0.7818100747
 40
0.837240762
 40
0.8919205499
 40
0.9460893732
 40
1.0
 40
1.0
 40
1.0
 40
1.0
 10
17.4102669509
 20
15.9051997645
 30
0.0
 10
17.2523851305
 20
15.9963508139
 30
0.0
 10
16.9519096548
 20
16.1867974424
 30
0.0
 10
16.5411286049
 20
16.504742573
 30
0.0
 10
16.1858218913
 20
16.8448505224
 30
0.0
 10
15.8895431774
 20
17.2039170506
 30
0.0
 10
15.6919957772
 20
17.5202225239
 30
0.0
 10
15.5679127547
 20
17.7785287796
 30
0.0
 10
15.4923280598
 20
17.9724504453
 30
0.0
 10
15.4333247173
 20
18.1683267682
 30
0.0
 10
15.3910513059
 20
18.3656923722
 30
0.0
 10
15.3656588843
 20
18.5640416148
 30
0.0
 10
15.360001348
 20
18.6967481003
 30
0.0
 10
15.3599991418
 20
18.7629088459
 30
0.0
  0
SPLINE
  5
2CD
100
AcDbEntity
  8
0
100
AcDbSpline
 62
7
  6
BYLAYER
 70
0
 71
3
 72
19
 73
15
 74
0
 42
0.0000001
 43
0.0000001
 44
0.0000000001
 40
0.0
 40
0.0
 40
0.0
 40
0.0
 40
0.0579540842
 40
0.1176762838
 40
0.1789358646
 40
0.2415220543
 40
0.3696519843
 40
0.5000004334
 40
0.6303488243
 40
0.7584785832
 40
0.8210646476
 40
0.8823240788
 40
0.9420461067
 40
1.0
 40
1.0
 40
1.0
 40
1.0
 10
18.1681444474
 20
17.4042251809
 30
0.0
 10
18.3205341758
 20
17.3384391933
 30
0.0
 10
18.634160306
 20
17.2144027816
 30
0.0
 10
19.1209097381
 20
17.0532774752
 30
0.0
 10
19.6284565248
 20
16.9151621786
 30
0.0
 10
20.3338897126
 20
16.7617091554
 30
0.0
 10
21.2460349676
 20
16.6335597664
 30
0.0
 10
22.3600228295
 20
16.5822799098
 30
0.0
 10
23.4740099575
 20
16.6335650761
 30
0.0
 10
24.3861535797
 20
16.7617188407
 30
0.0
 10
25.0915847185
 20
16.9151752825
 30
0.0
 10
25.5991295191
 20
17.0532930144
 30
0.0
 10
26.0858766349
 20
17.2144206569
 30
0.0
 10
26.3995010454
 20
17.3384585994
 30
0.0
 10
26.5518898561
 20
17.4042453329
 30
0.0
  0
SPLINE
  5
2CE
100
AcDbEntity
  8
0
100
AcDbSpline
 62
7
  6
BYLAYER
 70
0
 71
3
 72
9
 73
5
 74
0
 42
0.0000001
 43
0.0000001
 44
0.0000000001
 40
0.0
 40
0.0
 40
0.0
 40
0.0
 40
0.2612605483
 40
1.0
 40
1.0
 40
1.0
 40
1.0
 10
27.9660975305
 20
18.2207336406
 30
0.0
 10
28.0365430633
 20
18.2751265242
 30
0.0
 10
28.3007819081
 20
18.490092707
 30
0.0
 10
28.5426610591
 20
18.7334994328
 30
0.0
 10
28.701047516
 20
18.9290647525
 30
0.0
  0
SPLINE
  5
2CF
100
AcDbEntity
  8
0
100
AcDbSpline
 62
7
  6
BYLAYER
 70
0
 71
3
 72
9
 73
5
 74
0
 42
0.0000001
 43
0.0000001
 44
0.0000000001
 40
0.0
 40
0.0
 40
0.0
 40
0.0
 40
0.2447391783
 40
1.0
 40
1.0
 40
1.0
 40
1.0
 10
16.3602449923
 20
18.5589947213
 30
0.0
 10
16.3907922788
 20
18.5296531464
 30
0.0
 10
16.5173270622
 20
18.4115610731
 30
0.0
 10
16.6504645321
 20
18.3005899003
 30
0.0
 10
16.7539249971
 20
18.2207066899
 30
0.0
  0
SPLINE
  5
2D0
100
AcDbEntity
  8
0
100
AcDbSpline
 62
7
  6
BYLAYER
 70
0
 71
3
 72
27
 73
23
 74
0
 42
0.0000001
 43
0.0000001
 44
0.0000000001
 40
0.0
 40
0.0
 40
0.0
 40
0.0
 40
0.0251447934
 40
0.0502776461
 40
0.0755232366
 40
0.1009741435
 40
0.1266838961
 40
0.1526964152
 40
0.205893941
 40
0.2332488969
 40
0.2611715324
 40
0.3188534917
 40
0.3791807589
 40
0.4421814273
 40
0.5077054973
 40
0.5754491011
 40
0.6449888997
 40
0.7158087569
 40
0.7873296489
 40
0.8589407985
 40
0.9300271834
 40
1.0
 40
1.0
 40
1.0
 40
1.0
 10
31.1099938114
 20
22.6821204438
 30
0.0
 10
31.1099938114
 20
22.5629793289
 30
0.0
 10
31.0980805406
 20
22.3245848835
 30
0.0
 10
31.0448667849
 20
21.9701635463
 30
0.0
 10
30.9570054366
 20
21.6211945332
 30
0.0
 10
30.8357038713
 20
21.279553081
 30
0.0
 10
30.6825305211
 20
20.9469691013
 30
0.0
 10
30.4358303645
 20
20.5147887934
 30
0.0
 10
30.1315174157
 20
20.1088306967
 30
0.0
 10
29.7804053236
 20
19.733097324
 30
0.0
 10
29.3888523902
 20
19.3676266421
 30
0.0
 10
28.8385767396
 20
18.945894028
 30
0.0
 10
28.1021391505
 20
18.5033013335
 30
0.0
 10
27.2916963318
 20
18.1207844017
 30
0.0
 10
26.4172175714
 20
17.8010167269
 30
0.0
 10
25.4895179021
 20
17.5465565537
 30
0.0
 10
24.520381198
 20
17.3598062413
 30
0.0
 10
23.5224182146
 20
17.2427221808
 30
0.0
 10
22.5088811306
 20
17.1965553112
 30
0.0
 10
21.493331217
 20
17.2218149913
 30
0.0
 10
20.4894609914
 20
17.3182285875
 30
0.0
 10
19.8298392647
 20
17.4304587157
 30
0.0
 10
19.5053711833
 20
17.4985966963
 30
0.0
  0
SPLINE
  5
2D1
100
AcDbEntity
  8
0
100
AcDbSpline
 62
7
  6
BYLAYER
 70
0
 71
3
 72
10
 73
6
 74
0
 42
0.0000001
 43
0.0000001
 44
0.0000000001
 40
0.0
 40
0.0
 40
0.0
 40
0.0
 40
0.5155832454
 40
0.7622485932
 40
1.0
 40
1.0
 40
1.0
 40
1.0
 10
19.5053711833
 20
17.4985966963
 30
0.0
 10
18.9560117272
 20
17.6139616463
 30
0.0
 10
18.1528955123
 20
17.8375952417
 30
0.0
 10
17.143658874
 20
18.2481510129
 30
0.0
 10
16.6723018117
 20
18.4865794431
 30
0.0
 10
16.4469438307
 20
18.6139303117
 30
0.0
  0
SPLINE
  5
2D2
100
AcDbEntity
  8
0
100
AcDbSpline
 62
7
  6
BYLAYER
 70
0
 71
3
 72
13
 73
9
 74
0
 42
0.0000001
 43
0.0000001
 44
0.0000000001
 40
0.0
 40
0.0
 40
0.0
 40
0.0
 40
0.2893041757
 40
0.5483362059
 40
0.6677622259
 40
0.7817641305
 40
0.8918992976
 40
1.0
 40
1.0
 40
1.0
 40
1.0
 10
25.9662916812
 20
28.1936788818
 30
0.0
 10
25.9662916812
 20
28.1126101363
 30
0.0
 10
25.9540403259
 20
27.9584989642
 30
0.0
 10
25.900531489
 20
27.7771930309
 30
0.0
 10
25.8355390177
 20
27.6549800381
 30
0.0
 10
25.7782068179
 20
27.5771626205
 30
0.0
 10
25.7115605842
 20
27.5115953716
 30
0.0
 10
25.6611423049
 20
27.4763739873
 30
0.0
 10
25.63490981
 20
27.4612260967
 30
0.0
  0
SPLINE
  5
2D3
100
AcDbEntity
  8
0
100
AcDbSpline
 62
7
  6
BYLAYER
 70
0
 71
3
 72
15
 73
11
 74
0
 42
0.0000001
 43
0.0000001
 44
0.0000000001
 40
0.0
 40
0.0
 40
0.0
 40
0.0
 40
0.1386399353
 40
0.2723066563
 40
0.4011464339
 40
0.5258408707
 40
0.6472037046
 40
0.7661434855
 40
0.8833535817
 40
1.0
 40
1.0
 40
1.0
 40
1.0
 10
16.3799475565
 20
18.6521979496
 30
0.0
 10
16.1749762596
 20
18.7705355059
 30
0.0
 10
15.7820482615
 20
19.0203549433
 30
0.0
 10
15.2410770342
 20
19.4420970485
 30
0.0
 10
14.765145575
 20
19.9028493997
 30
0.0
 10
14.3604149062
 20
20.4007902857
 30
0.0
 10
14.0334988828
 20
20.9335985471
 30
0.0
 10
13.7923055962
 20
21.4968130688
 30
0.0
 10
13.6434800122
 20
22.0829647584
 30
0.0
 10
13.6099938114
 20
22.4829875421
 30
0.0
 10
13.6099938114
 20
22.6821204438
 30
0.0
  0
SPLINE
  5
2D4
100
AcDbEntity
  8
0
100
AcDbSpline
 62
7
  6
BYLAYER
 70
0
 71
3
 72
15
 73
11
 74
0
 42
0.0000001
 43
0.0000001
 44
0.0000000001
 40
0.0
 40
0.0
 40
0.0
 40
0.0
 40
0.1183193801
 40
0.2438674094
 40
0.3742036361
 40
0.5065603569
 40
0.6380220712
 40
0.7657079665
 40
0.8871351601
 40
1.0
 40
1.0
 40
1.0
 40
1.0
 10
24.9617452458
 20
30.0717871931
 30
0.0
 10
25.0325684147
 20
30.0216692686
 30
0.0
 10
25.1711211206
 20
29.9076358284
 30
0.0
 10
25.3605342494
 20
29.708314694
 30
0.0
 10
25.5329324018
 20
29.4810484286
 30
0.0
 10
25.6826938428
 20
29.2332321761
 30
0.0
 10
25.8049719796
 20
28.9729008809
 30
0.0
 10
25.895837326
 20
28.7083987297
 30
0.0
 10
25.9522209851
 20
28.4483895797
 30
0.0
 10
25.9662916812
 20
28.2764415974
 30
0.0
 10
25.9662916812
 20
28.1936788818
 30
0.0
  0
SPLINE
  5
2D5
100
AcDbEntity
  8
0
100
AcDbSpline
 62
7
  6
BYLAYER
 70
0
 71
3
 72
21
 73
17
 74
0
 42
0.0000001
 43
0.0000001
 44
0.0000000001
 40
0.0
 40
0.0
 40
0.0
 40
0.0
 40
0.0428253133
 40
0.0874161144
 40
0.1352125949
 40
0.187133425
 40
0.2435933642
 40
0.3045654254
 40
0.3696769156
 40
0.4383035494
 40
0.5825305943
 40
0.7295779732
 40
0.8015778813
 40
0.8712089303
 40
0.9376293707
 40
1.0
 40
1.0
 40
1.0
 40
1.0
 10
24.0349224319
 20
46.5625504241
 30
0.0
 10
24.0743659433
 20
46.5853269842
 30
0.0
 10
24.1613257833
 20
46.6214353739
 30
0.0
 10
24.3048480775
 20
46.6425041686
 30
0.0
 10
24.4589758797
 20
46.6311363139
 30
0.0
 10
24.6202811911
 20
46.5882922703
 30
0.0
 10
24.7855998954
 20
46.5152405979
 30
0.0
 10
24.9516178193
 20
46.4136522092
 30
0.0
 10
25.1150261318
 20
46.2857713075
 30
0.0
 10
25.3282251116
 20
46.0803551576
 30
0.0
 10
25.56514611
 20
45.7770029862
 30
0.0
 10
25.7499720541
 20
45.4355136281
 30
0.0
 10
25.8601158619
 20
45.1485527618
 30
0.0
 10
25.9203196251
 20
44.9352577094
 30
0.0
 10
25.9572474497
 20
44.7271265346
 30
0.0
 10
25.9662916812
 20
44.5900622371
 30
0.0
 10
25.9662916812
 20
44.5237272244
 30
0.0
  0
SPLINE
  5
2D6
100
AcDbEntity
  8
0
100
AcDbSpline
 62
7
  6
BYLAYER
 70
0
 71
3
 72
19
 73
15
 74
0
 42
0.0000001
 43
0.0000001
 44
0.0000000001
 40
0.0
 40
0.0
 40
0.0
 40
0.0
 40
0.0427934196
 40
0.0871931861
 40
0.1345365811
 40
0.1857113305
 40
0.2411719847
 40
0.3009643874
 40
0.3648323323
 40
0.4322668287
 40
0.5748175479
 40
0.721941118
 40
0.8660080494
 40
1.0
 40
1.0
 40
1.0
 40
1.0
 10
9.8927279289
 20
54.7273655145
 30
0.0
 10
9.9302702995
 20
54.7490442654
 30
0.0
 10
10.0125728198
 20
54.7838338101
 30
0.0
 10
10.1481292275
 20
54.8061916459
 30
0.0
 10
10.2936889056
 20
54.7991219986
 30
0.0
 10
10.4462755593
 20
54.7634243679
 30
0.0
 10
10.6031108934
 20
54.7000142147
 30
0.0
 10
10.7613746634
 20
54.6103372466
 30
0.0
 10
10.9181477821
 20
54.4961185012
 30
0.0
 10
11.1249856891
 20
54.3106545926
 30
0.0
 10
11.3595459026
 20
54.0326423416
 30
0.0
 10
11.586185098
 20
53.6540876958
 30
0.0
 10
11.746667358
 20
53.2524333289
 30
0.0
 10
11.804378557
 20
52.9745247845
 30
0.0
 10
11.8169137901
 20
52.8393638068
 30
0.0
  0
SPLINE
  5
2D7
100
AcDbEntity
  8
0
100
AcDbSpline
 62
7
  6
BYLAYER
 70
0
 71
3
 72
13
 73
9
 74
0
 42
0.0000001
 43
0.0000001
 44
0.0000000001
 40
0.0
 40
0.0
 40
0.0
 40
0.0
 40
0.2502372704
 40
0.498914942
 40
0.6237622005
 40
0.7489518247
 40
0.8743748649
 40
1.0
 40
1.0
 40
1.0
 40
1.0
 10
8.5362306867
 20
56.6193626099
 30
0.0
 10
8.5362213632
 20
56.6823618242
 30
0.0
 10
8.548400589
 20
56.8084375355
 30
0.0
 10
8.5992244344
 20
56.9587730364
 30
0.0
 10
8.6614021754
 20
57.0682210116
 30
0.0
 10
8.7189200821
 20
57.143615311
 30
0.0
 10
8.7863246091
 20
57.2105796737
 30
0.0
 10
8.8372516527
 20
57.2484400015
 30
0.0
 10
8.863899799
 20
57.2654738267
 30
0.0
  0
SPLINE
  5
2D8
100
AcDbEntity
  8
0
100
AcDbSpline
 62
7
  6
BYLAYER
 70
0
 71
3
 72
12
 73
8
 74
0
 42
0.0000001
 43
0.0000001
 44
0.0000000001
 40
0.0
 40
0.0
 40
0.0
 40
0.0
 40
0.2505483358
 40
0.3758091887
 40
0.5007444893
 40
0.7495685444
 40
1.0
 40
1.0
 40
1.0
 40
1.0
 10
27.3189065289
 20
25.3013446499
 30
0.0
 10
27.2629465782
 20
25.2722604022
 30
0.0
 10
27.1720580886
 20
25.2406014494
 30
0.0
 10
27.0467802901
 20
25.2244689135
 30
0.0
 10
26.9208199551
 20
25.2253291375
 30
0.0
 10
26.765130557
 20
25.2564087755
 30
0.0
 10
26.649795778
 20
25.3089447944
 30
0.0
 10
26.5952082188
 20
25.3404709405
 30
0.0
  0
SPLINE
  5
2D9
100
AcDbEntity
  8
0
100
AcDbSpline
 62
7
  6
BYLAYER
 70
0
 71
3
 72
11
 73
7
 74
0
 42
0.0000001
 43
0.0000001
 44
0.0000000001
 40
0.0
 40
0.0
 40
0.0
 40
0.0
 40
0.2887841233
 40
0.5483917572
 40
0.7822286755
 40
1.0
 40
1.0
 40
1.0
 40
1.0
 10
24.7680115134
 20
65.7044871525
 30
0.0
 10
24.7255273366
 20
65.7290148485
 30
0.0
 10
24.640990551
 20
65.7694874669
 30
0.0
 10
24.5111232737
 20
65.8023421451
 30
0.0
 10
24.3888187372
 20
65.8021205971
 30
0.0
 10
24.3142346298
 20
65.7783284207
 30
0.0
 10
24.2813886144
 20
65.7613097958
 30
0.0
  0
SPLINE
  5
2DA
100
AcDbEntity
  8
0
100
AcDbSpline
 62
7
  6
BYLAYER
 70
0
 71
3
 72
13
 73
9
 74
0
 42
0.0000001
 43
0.0000001
 44
0.0000000001
 40
0.0
 40
0.0
 40
0.0
 40
0.0
 40
0.2893041757
 40
0.5483362059
 40
0.6677622259
 40
0.7817641305
 40
0.8918992976
 40
1.0
 40
1.0
 40
1.0
 40
1.0
 10
25.9662916812
 20
44.5237272244
 30
0.0
 10
25.9662916812
 20
44.4426584789
 30
0.0
 10
25.9540403259
 20
44.2885473068
 30
0.0
 10
25.900531489
 20
44.1072413735
 30
0.0
 10
25.8355390177
 20
43.9850283807
 30
0.0
 10
25.7782068179
 20
43.9072109631
 30
0.0
 10
25.7115605842
 20
43.8416437142
 30
0.0
 10
25.6611423049
 20
43.8064223299
 30
0.0
 10
25.63490981
 20
43.7912744393
 30
0.0
  0
SPLINE
  5
2DB
100
AcDbEntity
  8
0
100
AcDbSpline
 62
7
  6
BYLAYER
 70
0
 71
3
 72
11
 73
7
 74
0
 42
0.0000001
 43
0.0000001
 44
0.0000000001
 40
0.0
 40
0.0
 40
0.0
 40
0.0
 40
0.2460183857
 40
0.5000193958
 40
0.7540136437
 40
1.0
 40
1.0
 40
1.0
 40
1.0
 10
9.1397039702
 20
35.4181831664
 30
0.0
 10
9.0505760438
 20
35.4696225052
 30
0.0
 10
8.8855011858
 20
35.6033402051
 30
0.0
 10
8.6961706786
 20
35.8589601356
 30
0.0
 10
8.5694760225
 20
36.1507262431
 30
0.0
 10
8.5362152691
 20
36.3605272979
 30
0.0
 10
8.5362304362
 20
36.4634206184
 30
0.0
  0
SPLINE
  5
2DC
100
AcDbEntity
  8
0
100
AcDbSpline
 62
7
  6
BYLAYER
 70
0
 71
3
 72
13
 73
9
 74
0
 42
0.0000001
 43
0.0000001
 44
0.0000000001
 40
0.0
 40
0.0
 40
0.0
 40
0.0
 40
0.2499535226
 40
0.4984856052
 40
0.6234327887
 40
0.7487057894
 40
0.874126652
 40
1.0
 40
1.0
 40
1.0
 40
1.0
 10
11.5405552662
 20
30.8516140723
 30
0.0
 10
11.484055414
 20
30.8842348601
 30
0.0
 10
11.3774208023
 20
30.9607658147
 30
0.0
 10
11.2699747979
 20
31.0854775133
 30
0.0
 10
11.2063368332
 20
31.1994642004
 30
0.0
 10
11.1708276837
 20
31.2912277161
 30
0.0
 10
11.1489762732
 20
31.3874036651
 30
0.0
 10
11.144078477
 20
31.4531026883
 30
0.0
 10
11.1440935224
 20
31.4859570548
 30
0.0
  0
SPLINE
  5
2DD
100
AcDbEntity
  8
0
100
AcDbSpline
 62
7
  6
BYLAYER
 70
0
 71
3
 72
11
 73
7
 74
0
 42
0.0000001
 43
0.0000001
 44
0.0000000001
 40
0.0
 40
0.0
 40
0.0
 40
0.0
 40
0.2457977299
 40
0.49984719
 40
0.754013734
 40
1.0
 40
1.0
 40
1.0
 40
1.0
 10
19.7216502872
 20
26.7888992404
 30
0.0
 10
19.6326797894
 20
26.7419204892
 30
0.0
 10
19.436488089
 20
26.6740253586
 30
0.0
 10
19.1266541134
 20
26.6461368777
 30
0.0
 10
18.8180986144
 20
26.6862834279
 30
0.0
 10
18.62458686
 20
26.7617410142
 30
0.0
 10
18.5373861747
 20
26.8120831243
 30
0.0
  0
SPLINE
  5
2DE
100
AcDbEntity
  8
0
100
AcDbSpline
 62
7
  6
BYLAYER
 70
0
 71
3
 72
20
 73
16
 74
0
 42
0.0000001
 43
0.0000001
 44
0.0000000001
 40
0.0
 40
0.0
 40
0.0
 40
0.0
 40
0.1517345862
 40
0.2990669808
 40
0.3703493925
 40
0.4396814736
 40
0.506826554
 40
0.5715960196
 40
0.6338433843
 40
0.693478996
 40
0.8047437936
 40
0.8566398476
 40
0.906260528
 40
0.9539205865
 40
1.0
 40
1.0
 40
1.0
 40
1.0
 10
44.9233733545
 20
55.6201712283
 30
0.0
 10
45.1440325933
 20
55.1758030013
 30
0.0
 10
45.5381863573
 20
54.2790162219
 30
0.0
 10
45.9152832682
 20
53.1259087565
 30
0.0
 10
46.1351067181
 20
52.2099775189
 30
0.0
 10
46.2565130418
 20
51.5411953488
 30
0.0
 10
46.3353362643
 20
50.8874794852
 30
0.0
 10
46.371145202
 20
50.2531842526
 30
0.0
 10
46.3635847845
 20
49.6423149481
 30
0.0
 10
46.2973752929
 20
48.8824655728
 30
0.0
 10
46.147405177
 20
48.1647485436
 30
0.0
 10
45.9044007726
 20
47.5116576747
 30
0.0
 10
45.6855237967
 20
47.0745394121
 30
0.0
 10
45.4271906227
 20
46.6820708516
 30
0.0
 10
45.2268511591
 20
46.4487197522
 30
0.0
 10
45.1211516081
 20
46.3413469614
 30
0.0
  0
SPLINE
  5
2DF
100
AcDbEntity
  8
0
100
AcDbSpline
 62
7
  6
BYLAYER
 70
0
 71
3
 72
14
 73
10
 74
0
 42
0.0000001
 43
0.0000001
 44
0.0000000001
 40
0.0
 40
0.0
 40
0.0
 40
0.0
 40
0.1081283151
 40
0.2197532907
 40
0.3357540339
 40
0.4568707319
 40
0.7161760685
 40
0.8551076781
 40
1.0
 40
1.0
 40
1.0
 40
1.0
 10
35.9209347993
 20
62.1450349141
 30
0.0
 10
36.0625126311
 20
62.1849178488
 30
0.0
 10
36.3560229331
 20
62.2466446253
 30
0.0
 10
36.812310547
 20
62.2837413988
 30
0.0
 10
37.2874400098
 20
62.2664088154
 30
0.0
 10
37.9567502427
 20
62.1691419516
 30
0.0
 10
38.6371547976
 20
61.9624089896
 30
0.0
 10
39.3136330199
 20
61.6644948343
 30
0.0
 10
39.6547651701
 20
61.4827084275
 30
0.0
 10
39.8254585905
 20
61.3841607648
 30
0.0
  0
SPLINE
  5
2E0
100
AcDbEntity
  8
0
100
AcDbSpline
 62
7
  6
BYLAYER
 70
0
 71
3
 72
13
 73
9
 74
0
 42
0.0000001
 43
0.0000001
 44
0.0000000001
 40
0.0
 40
0.0
 40
0.0
 40
0.0
 40
0.1125126776
 40
0.2295195827
 40
0.3505732592
 40
0.4752496521
 40
0.7335186383
 40
1.0
 40
1.0
 40
1.0
 40
1.0
 10
39.8254585905
 20
61.3841607648
 30
0.0
 10
40.0137186426
 20
61.2754712321
 30
0.0
 10
40.389564039
 20
61.0393066208
 30
0.0
 10
40.9379422279
 20
60.6409847935
 30
0.0
 10
41.4783437212
 20
60.1940326407
 30
0.0
 10
42.1913071235
 20
59.5300930031
 30
0.0
 10
43.0361107056
 20
58.5989476517
 30
0.0
 10
43.6385035313
 20
57.7810948795
 30
0.0
 10
43.9233691911
 20
57.352219632
 30
0.0
  0
SPLINE
  5
2E1
100
AcDbEntity
  8
0
100
AcDbSpline
 62
7
  6
BYLAYER
 70
0
 71
3
 72
12
 73
8
 74
0
 42
0.0000001
 43
0.0000001
 44
0.0000000001
 40
0.0
 40
0.0
 40
0.0
 40
0.0
 40
0.2906340872
 40
0.5499518949
 40
0.7822499304
 40
0.8920778584
 40
1.0
 40
1.0
 40
1.0
 40
1.0
 10
27.5427568655
 20
25.7681103101
 30
0.0
 10
27.542151454
 20
25.7155433949
 30
0.0
 10
27.5328825492
 20
25.6157998826
 30
0.0
 10
27.4901860831
 20
25.4795929819
 30
0.0
 10
27.4298523585
 20
25.3868173849
 30
0.0
 10
27.3695651038
 20
25.3315979558
 30
0.0
 10
27.3361585782
 20
25.3102763077
 30
0.0
 10
27.3188339848
 20
25.3012799982
 30
0.0
  0
SPLINE
  5
2E2
100
AcDbEntity
  8
0
100
AcDbSpline
 62
7
  6
BYLAYER
 70
0
 71
3
 72
15
 73
11
 74
0
 42
0.0000001
 43
0.0000001
 44
0.0000000001
 40
0.0
 40
0.0
 40
0.0
 40
0.0
 40
0.1143042303
 40
0.2376384811
 40
0.3672920015
 40
0.5002800783
 40
0.6332297765
 40
0.7627714306
 40
0.8859258922
 40
1.0
 40
1.0
 40
1.0
 40
1.0
 10
19.8355817388
 20
27.0234090057
 30
0.0
 10
19.7869116538
 20
26.9969918451
 30
0.0
 10
19.6809263348
 20
26.9507065744
 30
0.0
 10
19.5092604547
 20
26.902218942
 30
0.0
 10
19.3240618312
 20
26.8734159131
 30
0.0
 10
19.1321946096
 20
26.865294223
 30
0.0
 10
18.9406444106
 20
26.8782092863
 30
0.0
 10
18.7563846015
 20
26.9116310277
 30
0.0
 10
18.58624792
 20
26.9643990889
 30
0.0
 10
18.4816783176
 20
27.0133399886
 30
0.0
 10
18.4338164952
 20
27.0409724716
 30
0.0
  0
SPLINE
  5
2E3
100
AcDbEntity
  8
0
100
AcDbSpline
 62
7
  6
BYLAYER
 70
0
 71
3
 72
11
 73
7
 74
0
 42
0.0000001
 43
0.0000001
 44
0.0000000001
 40
0.0
 40
0.0
 40
0.0
 40
0.0
 40
0.2309461399
 40
0.4768335058
 40
0.7359488428
 40
1.0
 40
1.0
 40
1.0
 40
1.0
 10
22.4015349149
 20
27.7320942247
 30
0.0
 10
22.3713886065
 20
27.7390856775
 30
0.0
 10
22.31129664
 20
27.7645769066
 30
0.0
 10
22.2360686537
 20
27.8304715514
 30
0.0
 10
22.1790299622
 20
27.9175616235
 30
0.0
 10
22.1545367814
 20
27.9838547127
 30
0.0
 10
22.1454470996
 20
28.0180496538
 30
0.0
  0
SPLINE
  5
2E4
100
AcDbEntity
  8
0
100
AcDbSpline
 62
7
  6
BYLAYER
 70
0
 71
3
 72
9
 73
5
 74
0
 42
0.0000001
 43
0.0000001
 44
0.0000000001
 40
0.0
 40
0.0
 40
0.0
 40
0.0
 40
0.2789144773
 40
1.0
 40
1.0
 40
1.0
 40
1.0
 10
11.436990546
 20
31.0805006706
 30
0.0
 10
11.4083617793
 20
31.0970290695
 30
0.0
 10
11.3091676345
 20
31.1612600986
 30
0.0
 10
11.2224038939
 20
31.2502689899
 30
0.0
 10
11.183731602
 20
31.3264832044
 30
0.0
  0
SPLINE
  5
2E5
100
AcDbEntity
  8
0
100
AcDbSpline
 62
7
  6
BYLAYER
 70
0
 71
3
 72
9
 73
5
 74
0
 42
0.0000001
 43
0.0000001
 44
0.0000000001
 40
0.0
 40
0.0
 40
0.0
 40
0.0
 40
0.5100566723
 40
1.0
 40
1.0
 40
1.0
 40
1.0
 10
11.183731602
 20
31.3264832044
 30
0.0
 10
11.1710266676
 20
31.3515217153
 30
0.0
 10
11.1511191875
 20
31.4034024285
 30
0.0
 10
11.1440922735
 20
31.4586433348
 30
0.0
 10
11.1440945943
 20
31.4856135772
 30
0.0
  0
SPLINE
  5
2E6
100
AcDbEntity
  8
0
100
AcDbSpline
 62
7
  6
BYLAYER
 70
0
 71
3
 72
11
 73
7
 74
0
 42
0.0000001
 43
0.0000001
 44
0.0000000001
 40
0.0
 40
0.0
 40
0.0
 40
0.0
 40
0.224540572
 40
0.4678006926
 40
0.7288088997
 40
1.0
 40
1.0
 40
1.0
 40
1.0
 10
21.6155655589
 20
27.7647113308
 30
0.0
 10
21.6441633365
 20
27.7718243705
 30
0.0
 10
21.7016537194
 20
27.7966689343
 30
0.0
 10
21.7744470959
 20
27.8607322526
 30
0.0
 10
21.8310960604
 20
27.9464801319
 30
0.0
 10
21.8558096923
 20
28.0124260165
 30
0.0
 10
21.8651213785
 20
28.0467779428
 30
0.0
  0
SPLINE
  5
2E7
100
AcDbEntity
  8
0
100
AcDbSpline
 62
7
  6
BYLAYER
 70
0
 71
3
 72
11
 73
7
 74
0
 42
0.0000001
 43
0.0000001
 44
0.0000000001
 40
0.0
 40
0.0
 40
0.0
 40
0.0
 40
0.2887839592
 40
0.548390913
 40
0.7822280936
 40
1.0
 40
1.0
 40
1.0
 40
1.0
 10
31.905975192
 20
28.0300726689
 30
0.0
 10
31.905975192
 20
27.9810172527
 30
0.0
 10
31.8987555232
 20
27.8875714825
 30
0.0
 10
31.862272753
 20
27.758678891
 30
0.0
 10
31.8009291732
 20
27.6528727801
 30
0.0
 10
31.7430327822
 20
27.6001784181
 30
0.0
 10
31.7118715123
 20
27.5802426875
 30
0.0
  0
SPLINE
  5
2E8
100
AcDbEntity
  8
0
100
AcDbSpline
 62
7
  6
BYLAYER
 70
0
 71
3
 72
12
 73
8
 74
0
 42
0.0000001
 43
0.0000001
 44
0.0000000001
 40
0.0
 40
0.0
 40
0.0
 40
0.0
 40
0.2496370382
 40
0.5010580291
 40
0.7519785929
 40
0.8766197977
 40
1.0
 40
1.0
 40
1.0
 40
1.0
 10
21.6173060599
 20
27.758812174
 30
0.0
 10
21.6820762151
 20
27.7548886389
 30
0.0
 10
21.8118870123
 20
27.7442235598
 30
0.0
 10
22.0070483256
 20
27.7326482488
 30
0.0
 10
22.1700376061
 20
27.7298665984
 30
0.0
 10
22.2997254549
 20
27.7298976499
 30
0.0
 10
22.3641971834
 20
27.7297935284
 30
0.0
 10
22.3962647297
 20
27.7293527482
 30
0.0
  0
SPLINE
  5
2E9
100
AcDbEntity
  8
0
100
AcDbSpline
 62
7
  6
BYLAYER
 70
0
 71
3
 72
15
 73
11
 74
0
 42
0.0000001
 43
0.0000001
 44
0.0000000001
 40
0.0
 40
0.0
 40
0.0
 40
0.0
 40
0.1055247438
 40
0.2134860031
 40
0.3260552476
 40
0.4449473723
 40
0.5713477197
 40
0.7059248072
 40
0.8488747174
 40
1.0
 40
1.0
 40
1.0
 40
1.0
 10
31.1099846697
 20
22.6821204436
 30
0.0
 10
31.1099965362
 20
22.4982367795
 30
0.0
 10
31.0743559423
 20
22.1253146524
 30
0.0
 10
30.9158563871
 20
21.5766488582
 30
0.0
 10
30.6549012357
 20
21.0428154964
 30
0.0
 10
30.2956790113
 20
20.5303276844
 30
0.0
 10
29.8431177459
 20
20.0446926343
 30
0.0
 10
29.3027880995
 20
19.5911880978
 30
0.0
 10
28.6812174012
 20
19.1747260246
 30
0.0
 10
28.2293773883
 20
18.9312303052
 30
0.0
 10
27.9924872877
 20
18.8161913797
 30
0.0
  0
SPLINE
  5
2EA
100
AcDbEntity
  8
0
100
AcDbSpline
 62
7
  6
BYLAYER
 70
0
 71
3
 72
15
 73
11
 74
0
 42
0.0000001
 43
0.0000001
 44
0.0000000001
 40
0.0
 40
0.0
 40
0.0
 40
0.0
 40
0.116336597
 40
0.2399492588
 40
0.3686949824
 40
0.5000844911
 40
0.6314608639
 40
0.760170441
 40
0.8837174906
 40
1.0
 40
1.0
 40
1.0
 40
1.0
 10
27.9924872877
 20
18.8161913797
 30
0.0
 10
27.5873853595
 20
18.6194651746
 30
0.0
 10
26.7220414377
 20
18.2734384377
 30
0.0
 10
25.3401816458
 20
17.9053085467
 30
0.0
 10
23.86901697
 20
17.6801701406
 30
0.0
 10
22.3527767403
 20
17.6048788104
 30
0.0
 10
20.8367462235
 20
17.681604654
 30
0.0
 10
19.3662484594
 20
17.9081586339
 30
0.0
 10
17.985350398
 20
18.2775733102
 30
0.0
 10
17.1208692858
 20
18.6245303104
 30
0.0
 10
16.7162190238
 20
18.821706374
 30
0.0
  0
SPLINE
  5
2EB
100
AcDbEntity
  8
0
100
AcDbSpline
 62
7
  6
BYLAYER
 70
0
 71
3
 72
21
 73
17
 74
0
 42
0.0000001
 43
0.0000001
 44
0.0000000001
 40
0.0
 40
0.0
 40
0.0
 40
0.0
 40
0.0428253133
 40
0.0874161144
 40
0.1352125949
 40
0.187133425
 40
0.2435933642
 40
0.3045654254
 40
0.3696769156
 40
0.4383035494
 40
0.5825305943
 40
0.7295779732
 40
0.8015778813
 40
0.8712089303
 40
0.9376293707
 40
1.0
 40
1.0
 40
1.0
 40
1.0
 10
25.63490981
 20
27.4612260967
 30
0.0
 10
25.5954662986
 20
27.4384495365
 30
0.0
 10
25.5085064586
 20
27.4023411468
 30
0.0
 10
25.3649841644
 20
27.3812723522
 30
0.0
 10
25.2108563621
 20
27.3926402068
 30
0.0
 10
25.0495510508
 20
27.4354842505
 30
0.0
 10
24.8842323465
 20
27.5085359228
 30
0.0
 10
24.7182144226
 20
27.6101243116
 30
0.0
 10
24.55480611
 20
27.7380052133
 30
0.0
 10
24.3416071303
 20
27.9434213631
 30
0.0
 10
24.1046861319
 20
28.2467735345
 30
0.0
 10
23.9198601878
 20
28.5882628927
 30
0.0
 10
23.80971638
 20
28.8752237589
 30
0.0
 10
23.7495126167
 20
29.0885188113
 30
0.0
 10
23.7125847922
 20
29.2966499861
 30
0.0
 10
23.7035405607
 20
29.4337142836
 30
0.0
 10
23.7035405607
 20
29.5000492963
 30
0.0
  0
SPLINE
  5
2EC
100
AcDbEntity
  8
0
100
AcDbSpline
 62
7
  6
BYLAYER
 70
0
 71
3
 72
15
 73
11
 74
0
 42
0.0000001
 43
0.0000001
 44
0.0000000001
 40
0.0
 40
0.0
 40
0.0
 40
0.0
 40
0.1137959009
 40
0.2369712285
 40
0.3667362888
 40
0.499998903
 40
0.6332616698
 40
0.7630271734
 40
0.8862032018
 40
1.0
 40
1.0
 40
1.0
 40
1.0
 10
26.8358894492
 20
47.1484237042
 30
0.0
 10
26.8837090446
 20
47.1200668384
 30
0.0
 10
26.9782292975
 20
47.0522898613
 30
0.0
 10
27.1084834341
 20
46.9286160353
 30
0.0
 10
27.2288739389
 20
46.7827719425
 30
0.0
 10
27.3349067229
 20
46.6203170232
 30
0.0
 10
27.4225813566
 20
46.447262711
 30
0.0
 10
27.4886919122
 20
46.2700791741
 30
0.0
 10
27.5306709061
 20
46.0954381946
 30
0.0
 10
27.5421084591
 20
45.9796920904
 30
0.0
 10
27.542756898
 20
45.9241002402
 30
0.0
  0
SPLINE
  5
2ED
100
AcDbEntity
  8
0
100
AcDbSpline
 62
7
  6
BYLAYER
 70
0
 71
3
 72
15
 73
11
 74
0
 42
0.0000001
 43
0.0000001
 44
0.0000000001
 40
0.0
 40
0.0
 40
0.0
 40
0.0
 40
0.114122173
 40
0.2373431119
 40
0.3669695605
 40
0.5000010833
 40
0.6330324554
 40
0.762658464
 40
0.8858787087
 40
1.0
 40
1.0
 40
1.0
 40
1.0
 10
31.9059750047
 20
48.4431925733
 30
0.0
 10
31.9059750047
 20
48.4990536512
 30
0.0
 10
31.8957259764
 20
48.6153353311
 30
0.0
 10
31.8549718161
 20
48.7907584436
 30
0.0
 10
31.789595296
 20
48.9684531682
 30
0.0
 10
31.702141336
 20
49.1417282813
 30
0.0
 10
31.5958070132
 20
49.3041025051
 30
0.0
 10
31.4746067627
 20
49.4495664782
 30
0.0
 10
31.3430629056
 20
49.5725706682
 30
0.0
 10
31.2474846008
 20
49.6395862069
 30
0.0
 10
31.1991075885
 20
49.6675160561
 30
0.0
  0
SPLINE
  5
2EE
100
AcDbEntity
  8
0
100
AcDbSpline
 62
7
  6
BYLAYER
 70
0
 71
3
 72
13
 73
9
 74
0
 42
0.0000001
 43
0.0000001
 44
0.0000000001
 40
0.0
 40
0.0
 40
0.0
 40
0.0
 40
0.1138580377
 40
0.2367724463
 40
0.4983035852
 40
0.7607900226
 40
0.8848030001
 40
1.0
 40
1.0
 40
1.0
 40
1.0
 10
26.8450261816
 20
45.929371884
 30
0.0
 10
26.868793617
 20
45.9156500592
 30
0.0
 10
26.920749132
 20
45.8913913246
 30
0.0
 10
27.0358055676
 20
45.8559516393
 30
0.0
 10
27.1921646501
 20
45.8380983925
 30
0.0
 10
27.3490096798
 20
45.8536565463
 30
0.0
 10
27.4654420969
 20
45.8873182745
 30
0.0
 10
27.5184049573
 20
45.910758286
 30
0.0
 10
27.5427564812
 20
45.9241000092
 30
0.0
  0
SPLINE
  5
2EF
100
AcDbEntity
  8
0
100
AcDbSpline
 62
7
  6
BYLAYER
 70
0
 71
3
 72
13
 73
9
 74
0
 42
0.0000001
 43
0.0000001
 44
0.0000000001
 40
0.0
 40
0.0
 40
0.0
 40
0.0
 40
0.1151767218
 40
0.2391257094
 40
0.5015384252
 40
0.7631433546
 40
0.8861213844
 40
1.0
 40
1.0
 40
1.0
 40
1.0
 10
26.835889075
 20
47.1484234765
 30
0.0
 10
26.8121631213
 20
47.1340079337
 30
0.0
 10
26.7653951979
 20
47.0998772426
 30
0.0
 10
26.6780542002
 20
47.01590111
 30
0.0
 10
26.5861535581
 20
46.8878728026
 30
0.0
 10
26.5234123801
 20
46.7435259416
 30
0.0
 10
26.4965681776
 20
46.6261268839
 30
0.0
 10
26.4915924729
 20
46.568982737
 30
0.0
 10
26.4915924729
 20
46.5415336283
 30
0.0
  0
SPLINE
  5
2F0
100
AcDbEntity
  8
0
100
AcDbSpline
 62
7
  6
BYLAYER
 70
0
 71
3
 72
13
 73
9
 74
0
 42
0.0000001
 43
0.0000001
 44
0.0000000001
 40
0.0
 40
0.0
 40
0.0
 40
0.0
 40
0.1141717192
 40
0.2375668745
 40
0.5000002709
 40
0.7624337799
 40
0.8858288003
 40
1.0
 40
1.0
 40
1.0
 40
1.0
 10
26.8450261816
 20
45.9293525614
 30
0.0
 10
26.8450309835
 20
45.9572712528
 30
0.0
 10
26.8398901734
 20
46.0154197597
 30
0.0
 10
26.8121654899
 20
46.1348021593
 30
0.0
 10
26.747553459
 20
46.2812006541
 30
0.0
 10
26.6530757081
 20
46.4103563018
 30
0.0
 10
26.5635505137
 20
46.4940583067
 30
0.0
 10
26.5157629328
 20
46.5275845539
 30
0.0
 10
26.4915822582
 20
46.5415395257
 30
0.0
  0
SPLINE
  5
2F1
100
AcDbEntity
  8
0
100
AcDbSpline
 62
7
  6
BYLAYER
 70
0
 71
3
 72
15
 73
11
 74
0
 42
0.0000001
 43
0.0000001
 44
0.0000000001
 40
0.0
 40
0.0
 40
0.0
 40
0.0
 40
0.114153833
 40
0.2373253168
 40
0.3669757595
 40
0.5000011004
 40
0.6330262876
 40
0.7626762839
 40
0.8858470609
 40
1.0
 40
1.0
 40
1.0
 40
1.0
 10
22.1454521787
 20
46.7264269667
 30
0.0
 10
22.1454416398
 20
46.5140498094
 30
0.0
 10
22.1843183208
 20
46.072104053
 30
0.0
 10
22.3393691596
 20
45.4053740509
 30
0.0
 10
22.5877804871
 20
44.7300254815
 30
0.0
 10
22.9202653789
 20
44.0714570688
 30
0.0
 10
23.3243624012
 20
43.4542351186
 30
0.0
 10
23.7850271339
 20
42.9014346043
 30
0.0
 10
24.284907049
 20
42.4337974047
 30
0.0
 10
24.6482046599
 20
42.1791610025
 30
0.0
 10
24.8321335441
 20
42.0729841864
 30
0.0
  0
SPLINE
  5
2F2
100
AcDbEntity
  8
0
100
AcDbSpline
 62
7
  6
BYLAYER
 70
0
 71
3
 72
13
 73
9
 74
0
 42
0.0000001
 43
0.0000001
 44
0.0000000001
 40
0.0
 40
0.0
 40
0.0
 40
0.0
 40
0.2893041757
 40
0.5483362059
 40
0.6677622259
 40
0.7817641305
 40
0.8918992976
 40
1.0
 40
1.0
 40
1.0
 40
1.0
 10
23.7035405607
 20
45.8300976389
 30
0.0
 10
23.7035405607
 20
45.9111663844
 30
0.0
 10
23.715791916
 20
46.0652775565
 30
0.0
 10
23.7693007529
 20
46.2465834899
 30
0.0
 10
23.8342932242
 20
46.3687964827
 30
0.0
 10
23.8916254239
 20
46.4466139003
 30
0.0
 10
23.9582716577
 20
46.5121811491
 30
0.0
 10
24.0086899369
 20
46.5474025334
 30
0.0
 10
24.0349224319
 20
46.5625504241
 30
0.0
  0
SPLINE
  5
2F3
100
AcDbEntity
  8
0
100
AcDbSpline
 62
7
  6
BYLAYER
 70
0
 71
3
 72
15
 73
11
 74
0
 42
0.0000001
 43
0.0000001
 44
0.0000000001
 40
0.0
 40
0.0
 40
0.0
 40
0.0
 40
0.1083611085
 40
0.2184290116
 40
0.332163157
 40
0.451228399
 40
0.5769603363
 40
0.7101505013
 40
0.851142657
 40
1.0
 40
1.0
 40
1.0
 40
1.0
 10
20.693864327
 20
31.1607388448
 30
0.0
 10
20.6258026518
 20
31.1241690851
 30
0.0
 10
20.4948718263
 20
31.0380922983
 30
0.0
 10
20.3215637103
 20
30.8751098737
 30
0.0
 10
20.1724094216
 20
30.6801246534
 30
0.0
 10
20.0489677746
 20
30.4552456893
 30
0.0
 10
19.9527611954
 20
30.2026779313
 30
0.0
 10
19.8840816914
 20
29.9252894262
 30
0.0
 10
19.8432772304
 20
29.6259224994
 30
0.0
 10
19.835187552
 20
29.4190700729
 30
0.0
 10
19.8355887166
 20
29.3129319526
 30
0.0
  0
SPLINE
  5
2F4
100
AcDbEntity
  8
0
100
AcDbSpline
 62
7
  6
BYLAYER
 70
0
 71
3
 72
15
 73
11
 74
0
 42
0.0000001
 43
0.0000001
 44
0.0000000001
 40
0.0
 40
0.0
 40
0.0
 40
0.0
 40
0.0849871102
 40
0.1837000908
 40
0.2967645479
 40
0.4234160138
 40
0.5619015265
 40
0.70749519
 40
0.8551803205
 40
1.0
 40
1.0
 40
1.0
 40
1.0
 10
22.0624028684
 20
49.0987156453
 30
0.0
 10
22.0422925354
 20
49.1257497391
 30
0.0
 10
21.9966399712
 20
49.1825582272
 30
0.0
 10
21.9189112262
 20
49.2709003127
 30
0.0
 10
21.8273650475
 20
49.369026384
 30
0.0
 10
21.7206112259
 20
49.4743881199
 30
0.0
 10
21.5991367016
 20
49.5829590378
 30
0.0
 10
21.4637834509
 20
49.6880753427
 30
0.0
 10
21.3170657554
 20
49.7815267652
 30
0.0
 10
21.2126961049
 20
49.832907519
 30
0.0
 10
21.1594994554
 20
49.8545078161
 30
0.0
  0
SPLINE
  5
2F5
100
AcDbEntity
  8
0
100
AcDbSpline
 62
7
  6
BYLAYER
 70
0
 71
3
 72
9
 73
5
 74
0
 42
0.0000001
 43
0.0000001
 44
0.0000000001
 40
0.0
 40
0.0
 40
0.0
 40
0.0
 40
0.4793507947
 40
1.0
 40
1.0
 40
1.0
 40
1.0
 10
22.1454521784
 20
48.627813767
 30
0.0
 10
22.1454424419
 20
48.7044554632
 30
0.0
 10
22.1294214677
 20
48.8644820846
 30
0.0
 10
22.0887727989
 20
49.0197303215
 30
0.0
 10
22.062370522
 20
49.0986771941
 30
0.0
  0
SPLINE
  5
2F6
100
AcDbEntity
  8
0
100
AcDbSpline
 62
7
  6
BYLAYER
 70
0
 71
3
 72
11
 73
7
 74
0
 42
0.0000001
 43
0.0000001
 44
0.0000000001
 40
0.0
 40
0.0
 40
0.0
 40
0.0
 40
0.2284067198
 40
0.501097937
 40
0.7731458523
 40
1.0
 40
1.0
 40
1.0
 40
1.0
 10
21.8650837215
 20
48.6292331877
 30
0.0
 10
21.8843920348
 20
48.6399982515
 30
0.0
 10
21.9307038424
 20
48.6566005883
 30
0.0
 10
22.0057210807
 20
48.6645744886
 30
0.0
 10
22.0805079334
 20
48.6558789959
 30
0.0
 10
22.1264338015
 20
48.6387894778
 30
0.0
 10
22.1454472975
 20
48.6278093427
 30
0.0
  0
SPLINE
  5
2F7
100
AcDbEntity
  8
0
100
AcDbSpline
 62
7
  6
BYLAYER
 70
0
 71
3
 72
15
 73
11
 74
0
 42
0.0000001
 43
0.0000001
 44
0.0000000001
 40
0.0
 40
0.0
 40
0.0
 40
0.0
 40
0.1143450654
 40
0.2375563675
 40
0.367176434
 40
0.5001082567
 40
0.6330254733
 40
0.7626042033
 40
0.8857504988
 40
1.0
 40
1.0
 40
1.0
 40
1.0
 10
21.8650834836
 20
48.6292330754
 30
0.0
 10
21.8653342908
 20
48.6852448119
 30
0.0
 10
21.8555137511
 20
48.8017587777
 30
0.0
 10
21.8154203614
 20
48.9775843934
 30
0.0
 10
21.75037275
 20
49.1555003925
 30
0.0
 10
21.6632555121
 20
49.3289944487
 30
0.0
 10
21.5569386239
 20
49.4914091686
 30
0.0
 10
21.4357330405
 20
49.6369166978
 30
0.0
 10
21.3038239229
 20
49.75974517
 30
0.0
 10
21.2080097355
 20
49.8266304434
 30
0.0
 10
21.1594597864
 20
49.854469948
 30
0.0
  0
SPLINE
  5
2F8
100
AcDbEntity
  8
0
100
AcDbSpline
 62
7
  6
BYLAYER
 70
0
 71
3
 72
17
 73
13
 74
0
 42
0.0000001
 43
0.0000001
 44
0.0000000001
 40
0.0
 40
0.0
 40
0.0
 40
0.0
 40
0.1517658524
 40
0.2223152257
 40
0.2897440999
 40
0.41676932
 40
0.5366443752
 40
0.6528903188
 40
0.7681867778
 40
0.8259359641
 40
0.8837692491
 40
1.0
 40
1.0
 40
1.0
 40
1.0
 10
13.8095701844
 20
54.669001575
 30
0.0
 10
13.8471260567
 20
54.6481392937
 30
0.0
 10
13.8992333646
 20
54.6118279007
 30
0.0
 10
13.9588236946
 20
54.5553467094
 30
0.0
 10
14.0083262325
 20
54.4988597521
 30
0.0
 10
14.0570268417
 20
54.4235928011
 30
0.0
 10
14.0940162809
 20
54.3269233454
 30
0.0
 10
14.1112071118
 20
54.2284194583
 30
0.0
 10
14.112935643
 20
54.1463610482
 30
0.0
 10
14.1103835352
 20
54.0810525181
 30
0.0
 10
14.1056499576
 20
54.0155949598
 30
0.0
 10
14.0989611116
 20
53.9666757727
 30
0.0
 10
14.0927408642
 20
53.9343668959
 30
0.0
  0
SPLINE
  5
2F9
100
AcDbEntity
  8
0
100
AcDbSpline
 62
7
  6
BYLAYER
 70
0
 71
3
 72
15
 73
11
 74
0
 42
0.0000001
 43
0.0000001
 44
0.0000000001
 40
0.0
 40
0.0
 40
0.0
 40
0.0
 40
0.1074147332
 40
0.2290776564
 40
0.3623354487
 40
0.5015879855
 40
0.6405958768
 40
0.7731693126
 40
0.8938057678
 40
1.0
 40
1.0
 40
1.0
 40
1.0
 10
22.4066306796
 20
49.7056044146
 30
0.0
 10
22.3844854899
 20
49.6921477987
 30
0.0
 10
22.3395060732
 20
49.6596755883
 30
0.0
 10
22.2757404618
 20
49.5995592249
 30
0.0
 10
22.2151378203
 20
49.5259831963
 30
0.0
 10
22.1609328366
 20
49.4425429825
 30
0.0
 10
22.1171911123
 20
49.3533553014
 30
0.0
 10
22.0853542947
 20
49.2640044566
 30
0.0
 10
22.0668300958
 20
49.1790670507
 30
0.0
 10
22.0623626742
 20
49.1243068638
 30
0.0
 10
22.0623629414
 20
49.0986881791
 30
0.0
  0
SPLINE
  5
2FA
100
AcDbEntity
  8
0
100
AcDbSpline
 62
7
  6
BYLAYER
 70
0
 71
3
 72
15
 73
11
 74
0
 42
0.0000001
 43
0.0000001
 44
0.0000000001
 40
0.0
 40
0.0
 40
0.0
 40
0.0
 40
0.1106343009
 40
0.2296792746
 40
0.3538177426
 40
0.481443499
 40
0.6107345439
 40
0.7405441673
 40
0.8704215455
 40
1.0
 40
1.0
 40
1.0
 40
1.0
 10
22.4066599479
 20
49.7055817734
 30
0.0
 10
22.3664583573
 20
49.7298359293
 30
0.0
 10
22.2772113749
 20
49.7704930708
 30
0.0
 10
22.1336737255
 20
49.8152113172
 30
0.0
 10
21.9792681593
 20
49.8469001397
 30
0.0
 10
21.8184639314
 20
49.8654789627
 30
0.0
 10
21.6544046022
 20
49.8728955298
 30
0.0
 10
21.489293245
 20
49.8715912911
 30
0.0
 10
21.3241816207
 20
49.8659283259
 30
0.0
 10
21.2142623538
 20
49.8590307503
 30
0.0
 10
21.1594594051
 20
49.8544872749
 30
0.0
  0
SPLINE
  5
2FB
100
AcDbEntity
  8
0
100
AcDbSpline
 62
7
  6
BYLAYER
 70
0
 71
3
 72
12
 73
8
 74
0
 42
0.0000001
 43
0.0000001
 44
0.0000000001
 40
0.0
 40
0.0
 40
0.0
 40
0.0
 40
0.2899671135
 40
0.5486960391
 40
0.7810977073
 40
0.8913633656
 40
1.0
 40
1.0
 40
1.0
 40
1.0
 10
14.0927403671
 20
53.9343499862
 30
0.0
 10
14.0478793501
 20
53.9604268883
 30
0.0
 10
13.9585711995
 20
54.0028764243
 30
0.0
 10
13.8212656931
 20
54.0352148432
 30
0.0
 10
13.7118799514
 20
54.0300198798
 30
0.0
 10
13.63438295
 20
54.0061142078
 30
0.0
 10
13.5992896575
 20
53.9881682818
 30
0.0
 10
13.5828346658
 20
53.97781623
 30
0.0
  0
SPLINE
  5
2FC
100
AcDbEntity
  8
0
100
AcDbSpline
 62
7
  6
BYLAYER
 70
0
 71
3
 72
15
 73
11
 74
0
 42
0.0000001
 43
0.0000001
 44
0.0000000001
 40
0.0
 40
0.0
 40
0.0
 40
0.0
 40
0.14884359
 40
0.2898336026
 40
0.4230280051
 40
0.5487653726
 40
0.6678336746
 40
0.7815690579
 40
0.8916376507
 40
1.0
 40
1.0
 40
1.0
 40
1.0
 10
8.5967433318
 20
48.7791099727
 30
0.0
 10
8.6884494492
 20
48.7257022789
 30
0.0
 10
8.8716180756
 20
48.6292959165
 30
0.0
 10
9.1512620472
 20
48.5149642484
 30
0.0
 10
9.4258209253
 20
48.4357524693
 30
0.0
 10
9.6926513356
 20
48.3927850319
 30
0.0
 10
9.9491188561
 20
48.38724864
 30
0.0
 10
10.1925509653
 20
48.4189278993
 30
0.0
 10
10.420343278
 20
48.4875267462
 30
0.0
 10
10.5603472803
 20
48.5578776522
 30
0.0
 10
10.6260458068
 20
48.5985354503
 30
0.0
  0
SPLINE
  5
2FD
100
AcDbEntity
  8
0
100
AcDbSpline
 62
7
  6
BYLAYER
 70
0
 71
3
 72
11
 73
7
 74
0
 42
0.0000001
 43
0.0000001
 44
0.0000000001
 40
0.0
 40
0.0
 40
0.0
 40
0.0
 40
0.2366651216
 40
0.49877346
 40
0.7616245618
 40
1.0
 40
1.0
 40
1.0
 40
1.0
 10
10.6955778504
 20
50.2345437823
 30
0.0
 10
10.6955778504
 20
50.2116394379
 30
0.0
 10
10.6870852278
 20
50.1633352752
 30
0.0
 10
10.6573842978
 20
50.0952891206
 30
0.0
 10
10.6138041598
 20
50.0349738454
 30
0.0
 10
10.5764292524
 20
50.0028772682
 30
0.0
 10
10.5566252157
 20
49.9910443083
 30
0.0
  0
SPLINE
  5
2FE
100
AcDbEntity
  8
0
100
AcDbSpline
 62
7
  6
BYLAYER
 70
0
 71
3
 72
9
 73
5
 74
0
 42
0.0000001
 43
0.0000001
 44
0.0000000001
 40
0.0
 40
0.0
 40
0.0
 40
0.0
 40
0.2369597448
 40
1.0
 40
1.0
 40
1.0
 40
1.0
 10
13.4652685176
 20
54.0621046059
 30
0.0
 10
13.4573392401
 20
54.0475504375
 30
0.0
 10
13.4267272414
 20
53.9845810714
 30
0.0
 10
13.4072709414
 20
53.9165093795
 30
0.0
 10
13.397561747
 20
53.8640296151
 30
0.0
  0
SPLINE
  5
2FF
100
AcDbEntity
  8
0
100
AcDbSpline
 62
7
  6
BYLAYER
 70
0
 71
3
 72
18
 73
14
 74
0
 42
0.0000001
 43
0.0000001
 44
0.0000000001
 40
0.0
 40
0.0
 40
0.0
 40
0.0
 40
0.1630234962
 40
0.3102662591
 40
0.442351433
 40
0.5608642755
 40
0.6692008485
 40
0.7211172133
 40
0.7725642226
 40
0.8245802926
 40
0.8781925015
 40
0.935323955
 40
1.0
 40
1.0
 40
1.0
 40
1.0
 10
14.0927437175
 20
53.9343480386
 30
0.0
 10
14.0643116686
 20
53.9572960245
 30
0.0
 10
14.0081803004
 20
53.9985849397
 30
0.0
 10
13.9217916412
 20
54.0477975267
 30
0.0
 10
13.8384103538
 20
54.0803712714
 30
0.0
 10
13.7593964179
 20
54.0973972483
 30
0.0
 10
13.6967193356
 20
54.100107314
 30
0.0
 10
13.6493269687
 20
54.0974196018
 30
0.0
 10
13.6147337145
 20
54.0932095273
 30
0.0
 10
13.5800920861
 20
54.0867927703
 30
0.0
 10
13.5447238074
 20
54.077811969
 30
0.0
 10
13.5068453541
 20
54.0672537803
 30
0.0
 10
13.4797286982
 20
54.0631127095
 30
0.0
 10
13.4652683179
 20
54.0621046218
 30
0.0
  0
SPLINE
  5
300
100
AcDbEntity
  8
0
100
AcDbSpline
 62
7
  6
BYLAYER
 70
0
 71
3
 72
15
 73
11
 74
0
 42
0.0000001
 43
0.0000001
 44
0.0000000001
 40
0.0
 40
0.0
 40
0.0
 40
0.0
 40
0.144774701
 40
0.2745635383
 40
0.3911314
 40
0.5000001092
 40
0.6088683615
 40
0.7254356077
 40
0.8552256312
 40
1.0
 40
1.0
 40
1.0
 40
1.0
 10
9.0360619996
 20
56.6192608573
 30
0.0
 10
9.0141413169
 20
56.6319215093
 30
0.0
 10
8.9704928964
 20
56.6526613403
 30
0.0
 10
8.9034491922
 20
56.6689068381
 30
0.0
 10
8.8404543848
 20
56.6673088826
 30
0.0
 10
8.7844453478
 20
56.6469456511
 30
0.0
 10
8.7388053148
 20
56.60862264
 30
0.0
 10
8.7059237142
 20
56.5548667375
 30
0.0
 10
8.6864693596
 20
56.4886829041
 30
0.0
 10
8.6826062198
 20
56.4405119755
 30
0.0
 10
8.6826115573
 20
56.4151978398
 30
0.0
  0
SPLINE
  5
301
100
AcDbEntity
  8
0
100
AcDbSpline
 62
7
  6
BYLAYER
 70
0
 71
3
 72
9
 73
5
 74
0
 42
0.0000001
 43
0.0000001
 44
0.0000000001
 40
0.0
 40
0.0
 40
0.0
 40
0.0
 40
0.2584377298
 40
1.0
 40
1.0
 40
1.0
 40
1.0
 10
10.6955033999
 20
50.2345867655
 30
0.0
 10
10.7333400798
 20
50.2127397375
 30
0.0
 10
10.8812772248
 20
50.1309159829
 30
0.0
 10
11.0354795725
 20
50.0601822073
 30
0.0
 10
11.1527426068
 20
50.0158389156
 30
0.0
  0
SPLINE
  5
302
100
AcDbEntity
  8
0
100
AcDbSpline
 62
7
  6
BYLAYER
 70
0
 71
3
 72
13
 73
9
 74
0
 42
0.0000001
 43
0.0000001
 44
0.0000000001
 40
0.0
 40
0.0
 40
0.0
 40
0.0
 40
0.2893041757
 40
0.5483362059
 40
0.6677622259
 40
0.7817641305
 40
0.8918992976
 40
1.0
 40
1.0
 40
1.0
 40
1.0
 10
9.5613460578
 20
53.9949127293
 30
0.0
 10
9.5613460578
 20
54.0759814748
 30
0.0
 10
9.573597413
 20
54.2300926469
 30
0.0
 10
9.6271062499
 20
54.4113985803
 30
0.0
 10
9.6920987212
 20
54.5336115731
 30
0.0
 10
9.749430921
 20
54.6114289907
 30
0.0
 10
9.8160771547
 20
54.6769962395
 30
0.0
 10
9.866495434
 20
54.7122176238
 30
0.0
 10
9.8927279289
 20
54.7273655145
 30
0.0
  0
SPLINE
  5
303
100
AcDbEntity
  8
0
100
AcDbSpline
 62
7
  6
BYLAYER
 70
0
 71
3
 72
13
 73
9
 74
0
 42
0.0000001
 43
0.0000001
 44
0.0000000001
 40
0.0
 40
0.0
 40
0.0
 40
0.0
 40
0.0830507223
 40
0.1786997356
 40
0.4070140563
 40
0.5388869157
 40
0.6818505701
 40
1.0
 40
1.0
 40
1.0
 40
1.0
 10
8.6825639647
 20
51.3008342288
 30
0.0
 10
8.6749112933
 20
51.2919490622
 30
0.0
 10
8.6576128311
 20
51.2735508409
 30
0.0
 10
8.6163305337
 20
51.2335594976
 30
0.0
 10
8.5683561127
 20
51.1906390208
 30
0.0
 10
8.5160042183
 20
51.1426048984
 30
0.0
 10
8.4561988084
 20
51.0840022486
 30
0.0
 10
8.4133332374
 20
51.03468666
 30
0.0
 10
8.386372403
 20
50.9987554198
 30
0.0
  0
SPLINE
  5
304
100
AcDbEntity
  8
0
100
AcDbSpline
 62
7
  6
BYLAYER
 70
0
 71
3
 72
9
 73
5
 74
0
 42
0.0000001
 43
0.0000001
 44
0.0000000001
 40
0.0
 40
0.0
 40
0.0
 40
0.0
 40
0.2749718631
 40
1.0
 40
1.0
 40
1.0
 40
1.0
 10
9.0488598471
 20
51.1852553567
 30
0.0
 10
9.0182106149
 20
51.202945107
 30
0.0
 10
8.9041103861
 20
51.2619732329
 30
0.0
 10
8.7759011293
 20
51.2984567744
 30
0.0
 10
8.6826211436
 20
51.300763867
 30
0.0
  0
SPLINE
  5
305
100
AcDbEntity
  8
0
100
AcDbSpline
 62
7
  6
BYLAYER
 70
0
 71
3
 72
11
 73
7
 74
0
 42
0.0000001
 43
0.0000001
 44
0.0000000001
 40
0.0
 40
0.0
 40
0.0
 40
0.0
 40
0.2284061558
 40
0.5010968022
 40
0.7731448106
 40
1.0
 40
1.0
 40
1.0
 40
1.0
 10
8.9099089193
 20
50.9417370956
 30
0.0
 10
8.92888592
 20
50.9530759548
 30
0.0
 10
8.9664198954
 20
50.9848819148
 30
0.0
 10
9.0108339097
 20
51.0458619594
 30
0.0
 10
9.0406963821
 20
51.1149773867
 30
0.0
 10
9.0488589053
 20
51.163295368
 30
0.0
 10
9.048856363
 20
51.1852517323
 30
0.0
  0
SPLINE
  5
306
100
AcDbEntity
  8
0
100
AcDbSpline
 62
7
  6
BYLAYER
 70
0
 71
3
 72
12
 73
8
 74
0
 42
0.0000001
 43
0.0000001
 44
0.0000000001
 40
0.0
 40
0.0
 40
0.0
 40
0.0
 40
0.2902922218
 40
0.5490952051
 40
0.7813622377
 40
0.8915043493
 40
1.0
 40
1.0
 40
1.0
 40
1.0
 10
8.9099086929
 20
50.9417369785
 30
0.0
 10
8.8651100935
 20
50.967870453
 30
0.0
 10
8.7759567403
 20
51.0104375862
 30
0.0
 10
8.638886976
 20
51.0429913833
 30
0.0
 10
8.5296945329
 20
51.0379805249
 30
0.0
 10
8.4523692143
 20
51.0141947896
 30
0.0
 10
8.417371182
 20
50.9963022154
 30
0.0
 10
8.4009667166
 20
50.9859759402
 30
0.0
  0
SPLINE
  5
307
100
AcDbEntity
  8
0
100
AcDbSpline
 62
7
  6
BYLAYER
 70
0
 71
3
 72
10
 73
6
 74
0
 42
0.0000001
 43
0.0000001
 44
0.0000000001
 40
0.0
 40
0.0
 40
0.0
 40
0.0
 40
0.281560188
 40
0.5418164601
 40
1.0
 40
1.0
 40
1.0
 40
1.0
 10
8.6826115573
 20
36.2592197271
 30
0.0
 10
8.6660551966
 20
36.2687783302
 30
0.0
 10
8.6352526384
 20
36.2892038554
 30
0.0
 10
8.5845601621
 20
36.3344400211
 30
0.0
 10
8.5564985817
 20
36.3765073216
 30
0.0
 10
8.5461761555
 20
36.4058548886
 30
0.0
  0
SPLINE
  5
308
100
AcDbEntity
  8
0
100
AcDbSpline
 62
7
  6
BYLAYER
 70
0
 71
3
 72
9
 73
5
 74
0
 42
0.0000001
 43
0.0000001
 44
0.0000000001
 40
0.0
 40
0.0
 40
0.0
 40
0.0
 40
0.2546013012
 40
1.0
 40
1.0
 40
1.0
 40
1.0
 10
8.5461761555
 20
36.4058548886
 30
0.0
 10
8.5445286867
 20
36.4105387876
 30
0.0
 10
8.5387924347
 20
36.4291844758
 30
0.0
 10
8.5361883958
 20
36.448805186
 30
0.0
 10
8.5361843618
 20
36.463341806
 30
0.0
  0
SPLINE
  5
309
100
AcDbEntity
  8
0
100
AcDbSpline
 62
7
  6
BYLAYER
 70
0
 71
3
 72
11
 73
7
 74
0
 42
0.0000001
 43
0.0000001
 44
0.0000000001
 40
0.0
 40
0.0
 40
0.0
 40
0.0
 40
0.2177854249
 40
0.450916019
 40
0.7102917864
 40
1.0
 40
1.0
 40
1.0
 40
1.0
 10
6.4797918233
 20
39.9652148084
 30
0.0
 10
6.4468028509
 20
39.984256648
 30
0.0
 10
6.3850880583
 20
40.0361479394
 30
0.0
 10
6.3193843295
 20
40.1435769525
 30
0.0
 10
6.2803583223
 20
40.275971418
 30
0.0
 10
6.272679387
 20
40.3723314038
 30
0.0
 10
6.2726793863
 20
40.4230007548
 30
0.0
  0
SPLINE
  5
30A
100
AcDbEntity
  8
0
100
AcDbSpline
 62
7
  6
BYLAYER
 70
0
 71
3
 72
13
 73
9
 74
0
 42
0.0000001
 43
0.0000001
 44
0.0000000001
 40
0.0
 40
0.0
 40
0.0
 40
0.0
 40
0.1138586999
 40
0.2367734949
 40
0.4983046862
 40
0.760790577
 40
0.884803237
 40
1.0
 40
1.0
 40
1.0
 40
1.0
 10
9.0360452678
 20
56.6192705172
 30
0.0
 10
9.0360452678
 20
56.646714826
 30
0.0
 10
9.0410138095
 20
56.7038393634
 30
0.0
 10
9.0678494007
 20
56.8212016519
 30
0.0
 10
9.1305666476
 20
56.9655398419
 30
0.0
 10
9.2224625487
 20
57.0935928787
 30
0.0
 10
9.3098306421
 20
57.1775953222
 30
0.0
 10
9.3566117873
 20
57.2117423139
 30
0.0
 10
9.3803418699
 20
57.2261603654
 30
0.0
  0
SPLINE
  5
30B
100
AcDbEntity
  8
0
100
AcDbSpline
 62
7
  6
BYLAYER
 70
0
 71
3
 72
21
 73
17
 74
0
 42
0.0000001
 43
0.0000001
 44
0.0000000001
 40
0.0
 40
0.0
 40
0.0
 40
0.0
 40
0.0428253133
 40
0.0874161144
 40
0.1352125949
 40
0.187133425
 40
0.2435933642
 40
0.3045654254
 40
0.3696769156
 40
0.4383035494
 40
0.5825305943
 40
0.7295779732
 40
0.8015778813
 40
0.8712089303
 40
0.9376293707
 40
1.0
 40
1.0
 40
1.0
 40
1.0
 10
25.63490981
 20
43.7912744393
 30
0.0
 10
25.5954662986
 20
43.7684978791
 30
0.0
 10
25.5085064586
 20
43.7323894894
 30
0.0
 10
25.3649841644
 20
43.7113206948
 30
0.0
 10
25.2108563621
 20
43.7226885494
 30
0.0
 10
25.0495510508
 20
43.7655325931
 30
0.0
 10
24.8842323465
 20
43.8385842654
 30
0.0
 10
24.7182144226
 20
43.9401726542
 30
0.0
 10
24.55480611
 20
44.0680535559
 30
0.0
 10
24.3416071303
 20
44.2734697057
 30
0.0
 10
24.1046861319
 20
44.5768218771
 30
0.0
 10
23.9198601878
 20
44.9183112353
 30
0.0
 10
23.80971638
 20
45.2052721015
 30
0.0
 10
23.7495126167
 20
45.4185671539
 30
0.0
 10
23.7125847922
 20
45.6266983287
 30
0.0
 10
23.7035405607
 20
45.7637626262
 30
0.0
 10
23.7035405607
 20
45.8300976389
 30
0.0
  0
SPLINE
  5
30C
100
AcDbEntity
  8
0
100
AcDbSpline
 62
7
  6
BYLAYER
 70
0
 71
3
 72
15
 73
11
 74
0
 42
0.0000001
 43
0.0000001
 44
0.0000000001
 40
0.0
 40
0.0
 40
0.0
 40
0.0
 40
0.1074188165
 40
0.2290845711
 40
0.3623437299
 40
0.5015962161
 40
0.6406027826
 40
0.7731740978
 40
0.8938080712
 40
1.0
 40
1.0
 40
1.0
 40
1.0
 10
13.8095829949
 20
54.6689994275
 30
0.0
 10
13.7874354801
 20
54.6555445329
 30
0.0
 10
13.7424510582
 20
54.6230760186
 30
0.0
 10
13.6786772415
 20
54.5629648937
 30
0.0
 10
13.6180660397
 20
54.4893940788
 30
0.0
 10
13.5638526202
 20
54.4059588159
 30
0.0
 10
13.5201031514
 20
54.3167753683
 30
0.0
 10
13.4882597393
 20
54.2274279225
 30
0.0
 10
13.4697304229
 20
54.1424929137
 30
0.0
 10
13.4652605339
 20
54.0877338059
 30
0.0
 10
13.4652598578
 20
54.0621155698
 30
0.0
  0
SPLINE
  5
30D
100
AcDbEntity
  8
0
100
AcDbSpline
 62
7
  6
BYLAYER
 70
0
 71
3
 72
11
 73
7
 74
0
 42
0.0000001
 43
0.0000001
 44
0.0000000001
 40
0.0
 40
0.0
 40
0.0
 40
0.0
 40
0.2887829463
 40
0.5483896011
 40
0.7822271527
 40
1.0
 40
1.0
 40
1.0
 40
1.0
 10
13.5208798508
 20
59.8738147065
 30
0.0
 10
13.4783976597
 20
59.8983412561
 30
0.0
 10
13.3938634325
 20
59.9388096138
 30
0.0
 10
13.2640011565
 20
59.9716588159
 30
0.0
 10
13.1417017345
 20
59.9714361355
 30
0.0
 10
13.0671207132
 20
59.9476442127
 30
0.0
 10
13.0342758771
 20
59.9306261804
 30
0.0
  0
SPLINE
  5
30E
100
AcDbEntity
  8
0
100
AcDbSpline
 62
7
  6
BYLAYER
 70
0
 71
3
 72
13
 73
9
 74
0
 42
0.0000001
 43
0.0000001
 44
0.0000000001
 40
0.0
 40
0.0
 40
0.0
 40
0.0
 40
0.1141721465
 40
0.2375668628
 40
0.5000002689
 40
0.7624337895
 40
0.8858283521
 40
1.0
 40
1.0
 40
1.0
 40
1.0
 10
8.6826115574
 20
36.2592390505
 30
0.0
 10
8.6826056389
 20
36.2313202493
 30
0.0
 10
8.6877467597
 20
36.1731715685
 30
0.0
 10
8.715473255
 20
36.0537897234
 30
0.0
 10
8.78008347
 20
35.9073904864
 30
0.0
 10
8.874562797
 20
35.7782360771
 30
0.0
 10
8.964086547
 20
35.6945327238
 30
0.0
 10
9.0118741211
 20
35.6610061018
 30
0.0
 10
9.0360554802
 20
35.6470520858
 30
0.0
  0
SPLINE
  5
30F
100
AcDbEntity
  8
0
100
AcDbSpline
 62
7
  6
BYLAYER
 70
0
 71
3
 72
12
 73
8
 74
0
 42
0.0000001
 43
0.0000001
 44
0.0000000001
 40
0.0
 40
0.0
 40
0.0
 40
0.0
 40
0.1078680752
 40
0.2178272976
 40
0.4505774354
 40
0.7100079439
 40
1.0
 40
1.0
 40
1.0
 40
1.0
 10
6.4472946032
 20
49.7569432648
 30
0.0
 10
6.4638985273
 20
49.7673932049
 30
0.0
 10
6.4993664919
 20
49.7855729845
 30
0.0
 10
6.5778999381
 20
49.810140592
 30
0.0
 10
6.6890606826
 20
49.8163228503
 30
0.0
 10
6.8293188064
 20
49.7861345978
 30
0.0
 10
6.9211765658
 20
49.7450846356
 30
0.0
 10
6.9674419008
 20
49.7197605136
 30
0.0
  0
SPLINE
  5
310
100
AcDbEntity
  8
0
100
AcDbSpline
 62
7
  6
BYLAYER
 70
0
 71
3
 72
11
 73
7
 74
0
 42
0.0000001
 43
0.0000001
 44
0.0000000001
 40
0.0
 40
0.0
 40
0.0
 40
0.0
 40
0.2177847204
 40
0.450915612
 40
0.7102874216
 40
1.0
 40
1.0
 40
1.0
 40
1.0
 10
5.9797837227
 20
48.9105077113
 30
0.0
 10
5.9797789449
 20
48.8724185503
 30
0.0
 10
5.9938632842
 20
48.793028437
 30
0.0
 10
6.0540463643
 20
48.6824170352
 30
0.0
 10
6.1491886523
 20
48.5824248629
 30
0.0
 10
6.2287985959
 20
48.5275975705
 30
0.0
 10
6.2726793863
 20
48.5022635574
 30
0.0
  0
SPLINE
  5
311
100
AcDbEntity
  8
0
100
AcDbSpline
 62
7
  6
BYLAYER
 70
0
 71
3
 72
15
 73
11
 74
0
 42
0.0000001
 43
0.0000001
 44
0.0000000001
 40
0.0
 40
0.0
 40
0.0
 40
0.0
 40
0.1061936487
 40
0.2269373077
 40
0.3597058735
 40
0.4989177752
 40
0.6382970106
 40
0.7715330543
 40
0.8929765266
 40
1.0
 40
1.0
 40
1.0
 40
1.0
 10
18.4338187407
 20
29.3200347893
 30
0.0
 10
18.4784112545
 20
29.2942892108
 30
0.0
 10
18.5782883864
 20
29.247051153
 30
0.0
 10
18.7449470672
 20
29.1940590313
 30
0.0
 10
18.9327711696
 20
29.1599426333
 30
0.0
 10
19.1322617716
 20
29.1468630216
 30
0.0
 10
19.3320985773
 20
29.1579569306
 30
0.0
 10
19.5209046567
 20
29.1901980034
 30
0.0
 10
19.6890920306
 20
29.2415143167
 30
0.0
 10
19.79026387
 20
29.2876998084
 30
0.0
 10
19.8355886846
 20
29.3129700773
 30
0.0
  0
SPLINE
  5
312
100
AcDbEntity
  8
0
100
AcDbSpline
 62
7
  6
BYLAYER
 70
0
 71
3
 72
23
 73
19
 74
0
 42
0.0000001
 43
0.0000001
 44
0.0000000001
 40
0.0
 40
0.0
 40
0.0
 40
0.0
 40
0.0742612725
 40
0.1447501471
 40
0.2113707506
 40
0.2743223133
 40
0.3339974147
 40
0.3909688732
 40
0.4459925063
 40
0.4999977018
 40
0.5540030029
 40
0.6090269155
 40
0.6659988003
 40
0.7256744655
 40
0.7886267958
 40
0.8552482276
 40
0.9257378432
 40
1.0
 40
1.0
 40
1.0
 40
1.0
 10
21.9689107155
 20
31.3609823819
 30
0.0
 10
21.856193905
 20
31.4260471488
 30
0.0
 10
21.6310810642
 20
31.5438494707
 30
0.0
 10
21.2877491822
 20
31.6845004291
 30
0.0
 10
20.9504450062
 20
31.7828330739
 30
0.0
 10
20.6225103283
 20
31.8378772259
 30
0.0
 10
20.3069369357
 20
31.8488039279
 30
0.0
 10
20.0067567086
 20
31.8154098207
 30
0.0
 10
19.7251130044
 20
31.7374590462
 30
0.0
 10
19.4650655922
 20
31.6157612084
 30
0.0
 10
19.2296518457
 20
31.4513967805
 30
0.0
 10
19.0213261284
 20
31.2464560114
 30
0.0
 10
18.8423195071
 20
31.0031839642
 30
0.0
 10
18.6939988492
 20
30.7244208734
 30
0.0
 10
18.5777042614
 20
30.4128938442
 30
0.0
 10
18.4942147922
 20
30.0716082592
 30
0.0
 10
18.4443628244
 20
29.7039434082
 30
0.0
 10
18.4338278845
 20
29.4500860757
 30
0.0
 10
18.4338164952
 20
29.3199365212
 30
0.0
  0
SPLINE
  5
313
100
AcDbEntity
  8
0
100
AcDbSpline
 62
7
  6
BYLAYER
 70
0
 71
3
 72
15
 73
11
 74
0
 42
0.0000001
 43
0.0000001
 44
0.0000000001
 40
0.0
 40
0.0
 40
0.0
 40
0.0
 40
0.1151256215
 40
0.2389312978
 40
0.3687376694
 40
0.5016144509
 40
0.6342674778
 40
0.7634201184
 40
0.8861928523
 40
1.0
 40
1.0
 40
1.0
 40
1.0
 10
24.9935890878
 20
30.4098315299
 30
0.0
 10
24.9448740438
 20
30.3831414496
 30
0.0
 10
24.8390040494
 20
30.3362382404
 30
0.0
 10
24.6676610078
 20
30.2867281553
 30
0.0
 10
24.4831465423
 20
30.256903559
 30
0.0
 10
24.2922278446
 20
30.2477806538
 30
0.0
 10
24.1017807927
 20
30.2597494817
 30
0.0
 10
23.9186601721
 20
30.2923184135
 30
0.0
 10
23.7495790062
 20
30.3443726086
 30
0.0
 10
23.6456824739
 20
30.3929196563
 30
0.0
 10
23.5981276549
 20
30.4203748227
 30
0.0
  0
SPLINE
  5
314
100
AcDbEntity
  8
0
100
AcDbSpline
 62
7
  6
BYLAYER
 70
0
 71
3
 72
12
 73
8
 74
0
 42
0.0000001
 43
0.0000001
 44
0.0000000001
 40
0.0
 40
0.0
 40
0.0
 40
0.0
 40
0.2915040349
 40
0.5513525161
 40
0.7834706814
 40
0.8928282278
 40
1.0
 40
1.0
 40
1.0
 40
1.0
 10
24.9935884003
 20
30.409831627
 30
0.0
 10
24.992782745
 20
30.3574160979
 30
0.0
 10
24.9833132077
 20
30.2580451057
 30
0.0
 10
24.9410110595
 20
30.1224002357
 30
0.0
 10
24.8815799552
 20
30.0298765661
 30
0.0
 10
24.8222232388
 20
29.9747240336
 30
0.0
 10
24.7893519188
 20
29.9534025926
 30
0.0
 10
24.7723087552
 20
29.9444039637
 30
0.0
  0
SPLINE
  5
315
100
AcDbEntity
  8
0
100
AcDbSpline
 62
7
  6
BYLAYER
 70
0
 71
3
 72
11
 73
7
 74
0
 42
0.0000001
 43
0.0000001
 44
0.0000000001
 40
0.0
 40
0.0
 40
0.0
 40
0.0
 40
0.217783252
 40
0.4509255372
 40
0.7103058299
 40
1.0
 40
1.0
 40
1.0
 40
1.0
 10
11.1440946939
 20
51.8919497754
 30
0.0
 10
11.144121113
 20
51.8538795097
 30
0.0
 10
11.1582503512
 20
51.7745386891
 30
0.0
 10
11.2184496277
 20
51.6640054182
 30
0.0
 10
11.3135633418
 20
51.5640817604
 30
0.0
 10
11.3931340052
 20
51.509285258
 30
0.0
 10
11.436990546
 20
51.4839652443
 30
0.0
  0
SPLINE
  5
316
100
AcDbEntity
  8
0
100
AcDbSpline
 62
7
  6
BYLAYER
 70
0
 71
3
 72
11
 73
7
 74
0
 42
0.0000001
 43
0.0000001
 44
0.0000000001
 40
0.0
 40
0.0
 40
0.0
 40
0.0
 40
0.289692522
 40
0.549072767
 40
0.7822159978
 40
1.0
 40
1.0
 40
1.0
 40
1.0
 10
23.5981276549
 20
30.4203748227
 30
0.0
 10
23.5981276549
 20
30.3697340724
 30
0.0
 10
23.605798354
 20
30.2734257018
 30
0.0
 10
23.644778544
 20
30.1410929392
 30
0.0
 10
23.7104032705
 20
30.0336914191
 30
0.0
 10
23.7720491731
 20
29.9817833226
 30
0.0
 10
23.8050055358
 20
29.9627243944
 30
0.0
  0
SPLINE
  5
317
100
AcDbEntity
  8
0
100
AcDbSpline
 62
7
  6
BYLAYER
 70
0
 71
3
 72
15
 73
11
 74
0
 42
0.0000001
 43
0.0000001
 44
0.0000000001
 40
0.0
 40
0.0
 40
0.0
 40
0.0
 40
0.1147926218
 40
0.2384054772
 40
0.3681527387
 40
0.50108045
 40
0.6338582236
 40
0.7631675561
 40
0.8860889039
 40
1.0
 40
1.0
 40
1.0
 40
1.0
 10
24.2928908662
 20
39.7171350187
 30
0.0
 10
24.2451087963
 20
39.6885851285
 30
0.0
 10
24.1508665094
 20
39.6207340132
 30
0.0
 10
24.0213052197
 20
39.4972785169
 30
0.0
 10
23.9021711171
 20
39.3521725425
 30
0.0
 10
23.7978122157
 20
39.1908357427
 30
0.0
 10
23.7120820805
 20
39.0191104914
 30
0.0
 10
23.6480467242
 20
38.8432772443
 30
0.0
 10
23.6081493547
 20
38.6698127513
 30
0.0
 10
23.5981276557
 20
38.5548718615
 30
0.0
 10
23.5981276549
 20
38.4996376254
 30
0.0
  0
SPLINE
  5
318
100
AcDbEntity
  8
0
100
AcDbSpline
 62
7
  6
BYLAYER
 70
0
 71
3
 72
15
 73
11
 74
0
 42
0.0000001
 43
0.0000001
 44
0.0000000001
 40
0.0
 40
0.0
 40
0.0
 40
0.0
 40
0.113800815
 40
0.2371202536
 40
0.3670924028
 40
0.5005511169
 40
0.6339335068
 40
0.7636826111
 40
0.8866494407
 40
1.0
 40
1.0
 40
1.0
 40
1.0
 10
24.9935884003
 20
38.489093482
 30
0.0
 10
24.992720283
 20
38.5446214455
 30
0.0
 10
24.9809726376
 20
38.6602600294
 30
0.0
 10
24.9389464608
 20
38.8348417867
 30
0.0
 10
24.8731690849
 20
39.0121887109
 30
0.0
 10
24.7861951123
 20
39.1856203476
 30
0.0
 10
24.6812050328
 20
39.3486481593
 30
0.0
 10
24.5621635366
 20
39.4952370436
 30
0.0
 10
24.4335144624
 20
39.6198002954
 30
0.0
 10
24.3401354699
 20
39.6883660399
 30
0.0
 10
24.2928901339
 20
39.717134602
 30
0.0
  0
SPLINE
  5
319
100
AcDbEntity
  8
0
100
AcDbSpline
 62
7
  6
BYLAYER
 70
0
 71
3
 72
15
 73
11
 74
0
 42
0.0000001
 43
0.0000001
 44
0.0000000001
 40
0.0
 40
0.0
 40
0.0
 40
0.0
 40
0.1138071474
 40
0.2365798807
 40
0.3657325209
 40
0.4983855473
 40
0.6312623284
 40
0.7610686993
 40
0.8848743768
 40
1.0
 40
1.0
 40
1.0
 40
1.0
 10
23.5981276549
 20
38.4996376254
 30
0.0
 10
23.6456824738
 20
38.472182459
 30
0.0
 10
23.7495790056
 20
38.4236354114
 30
0.0
 10
23.9186601709
 20
38.3715812164
 30
0.0
 10
24.1017807907
 20
38.3390122846
 30
0.0
 10
24.292227842
 20
38.3270434565
 30
0.0
 10
24.4831465389
 20
38.3361663615
 30
0.0
 10
24.6676610047
 20
38.3659909568
 30
0.0
 10
24.839004047
 20
38.4155010428
 30
0.0
 10
24.9448740431
 20
38.4624042518
 30
0.0
 10
24.9935890878
 20
38.4890943325
 30
0.0
  0
SPLINE
  5
31A
100
AcDbEntity
  8
0
100
AcDbSpline
 62
7
  6
BYLAYER
 70
0
 71
3
 72
11
 73
7
 74
0
 42
0.0000001
 43
0.0000001
 44
0.0000000001
 40
0.0
 40
0.0
 40
0.0
 40
0.0
 40
0.2287057135
 40
0.4700332364
 40
0.7282601792
 40
1.0
 40
1.0
 40
1.0
 40
1.0
 10
22.1758515577
 20
30.9032923601
 30
0.0
 10
22.1412187501
 20
30.9232712573
 30
0.0
 10
22.0776354773
 20
30.978427568
 30
0.0
 10
22.011970925
 20
31.0895101611
 30
0.0
 10
21.9758754026
 20
31.2206542696
 30
0.0
 10
21.9688273466
 20
31.313525971
 30
0.0
 10
21.968827691
 20
31.3610315377
 30
0.0
  0
SPLINE
  5
31B
100
AcDbEntity
  8
0
100
AcDbSpline
 62
7
  6
BYLAYER
 70
0
 71
3
 72
15
 73
11
 74
0
 42
0.0000001
 43
0.0000001
 44
0.0000000001
 40
0.0
 40
0.0
 40
0.0
 40
0.0
 40
0.1061945426
 40
0.2269387744
 40
0.3597075469
 40
0.4989193264
 40
0.6382981953
 40
0.7715337672
 40
0.8929768083
 40
1.0
 40
1.0
 40
1.0
 40
1.0
 10
21.9688277031
 20
39.4402943233
 30
0.0
 10
21.9688273333
 20
39.4917857992
 30
0.0
 10
21.9778558966
 20
39.6019017361
 30
0.0
 10
22.0152918385
 20
39.7727294903
 30
0.0
 10
22.0796573877
 20
39.9524487938
 30
0.0
 10
22.16807465
 20
40.1317527804
 30
0.0
 10
22.277600038
 20
40.2992694578
 30
0.0
 10
22.3999242339
 20
40.4466593762
 30
0.0
 10
22.5284589639
 20
40.5666551558
 30
0.0
 10
22.6190426833
 20
40.6311792435
 30
0.0
 10
22.6635898054
 20
40.6577962571
 30
0.0
  0
SPLINE
  5
31C
100
AcDbEntity
  8
0
100
AcDbSpline
 62
7
  6
BYLAYER
 70
0
 71
3
 72
19
 73
15
 74
0
 42
0.0000001
 43
0.0000001
 44
0.0000000001
 40
0.0
 40
0.0
 40
0.0
 40
0.0
 40
0.0558251409
 40
0.1142037771
 40
0.1748287211
 40
0.2374057488
 40
0.3670166579
 40
0.5000015277
 40
0.6329861733
 40
0.7625964727
 40
0.8251730563
 40
0.8857974158
 40
0.9441754227
 40
1.0
 40
1.0
 40
1.0
 40
1.0
 10
18.4338164952
 20
45.5631688365
 30
0.0
 10
18.4338284709
 20
45.426470037
 30
0.0
 10
18.4460090641
 20
45.1467209783
 30
0.0
 10
18.4974163718
 20
44.721353188
 30
0.0
 10
18.5821801401
 20
44.2844964505
 30
0.0
 10
18.740208669
 20
43.6855626392
 30
0.0
 10
19.0158534655
 20
42.9363004565
 30
0.0
 10
19.4533055387
 20
42.0698026479
 30
0.0
 10
19.9849921307
 20
41.2577132107
 30
0.0
 10
20.4960515677
 20
40.6443722133
 30
0.0
 10
20.9357294703
 20
40.208054549
 30
0.0
 10
21.2716755269
 20
39.9162235693
 30
0.0
 10
21.6143490799
 20
39.6590240781
 30
0.0
 10
21.8505277938
 20
39.5086049223
 30
0.0
 10
21.9689063275
 20
39.4402477179
 30
0.0
  0
SPLINE
  5
31D
100
AcDbEntity
  8
0
100
AcDbSpline
 62
7
  6
BYLAYER
 70
0
 71
3
 72
15
 73
11
 74
0
 42
0.0000001
 43
0.0000001
 44
0.0000000001
 40
0.0
 40
0.0
 40
0.0
 40
0.0
 40
0.1070234764
 40
0.2284669512
 40
0.3617029973
 40
0.5010822344
 40
0.6402941352
 40
0.7730627
 40
0.8938063554
 40
1.0
 40
1.0
 40
1.0
 40
1.0
 10
19.8355887285
 20
45.5560135045
 30
0.0
 10
19.7902639124
 20
45.5307432315
 30
0.0
 10
19.6890920693
 20
45.4845577318
 30
0.0
 10
19.5209046879
 20
45.4332414078
 30
0.0
 10
19.3320985993
 20
45.4010003289
 30
0.0
 10
19.132261785
 20
45.3899064148
 30
0.0
 10
18.9327711758
 20
45.4029860272
 30
0.0
 10
18.74494707
 20
45.4371024297
 30
0.0
 10
18.5782883885
 20
45.4900945571
 30
0.0
 10
18.4784112601
 20
45.5373326228
 30
0.0
 10
18.4338187482
 20
45.5630782043
 30
0.0
  0
SPLINE
  5
31E
100
AcDbEntity
  8
0
100
AcDbSpline
 62
7
  6
BYLAYER
 70
0
 71
3
 72
15
 73
11
 74
0
 42
0.0000001
 43
0.0000001
 44
0.0000000001
 40
0.0
 40
0.0
 40
0.0
 40
0.0
 40
0.1151253816
 40
0.2389307374
 40
0.3687367971
 40
0.5016133523
 40
0.6342663046
 40
0.7634190774
 40
0.8861921933
 40
1.0
 40
1.0
 40
1.0
 40
1.0
 10
19.1224105118
 20
48.6582174753
 30
0.0
 10
19.0749386034
 20
48.6293743003
 30
0.0
 10
18.981384096
 20
48.5611401714
 30
0.0
 10
18.8528356419
 20
48.4375079844
 30
0.0
 10
18.7347499229
 20
48.2926259745
 30
0.0
 10
18.6313905735
 20
48.1318466042
 30
0.0
 10
18.5465332927
 20
47.9609295483
 30
0.0
 10
18.4831796751
 20
47.7860570613
 30
0.0
 10
18.4437207131
 20
47.6136002453
 30
0.0
 10
18.4338164952
 20
47.4993489373
 30
0.0
 10
18.4338164952
 20
47.4444372854
 30
0.0
  0
SPLINE
  5
31F
100
AcDbEntity
  8
0
100
AcDbSpline
 62
7
  6
BYLAYER
 70
0
 71
3
 72
15
 73
11
 74
0
 42
0.0000001
 43
0.0000001
 44
0.0000000001
 40
0.0
 40
0.0
 40
0.0
 40
0.0
 40
0.1137999057
 40
0.237118632
 40
0.3670903305
 40
0.50054889
 40
0.6339314336
 40
0.7636809886
 40
0.8866485303
 40
1.0
 40
1.0
 40
1.0
 40
1.0
 10
19.1224094315
 20
48.6582173052
 30
0.0
 10
19.1700639006
 20
48.6297022044
 30
0.0
 10
19.2643359591
 20
48.5617103755
 30
0.0
 10
19.3945151688
 20
48.4380252699
 30
0.0
 10
19.515213786
 20
48.292388047
 30
0.0
 10
19.6219236571
 20
48.1303512401
 30
0.0
 10
19.7106157657
 20
47.9579134753
 30
0.0
 10
19.7780458699
 20
47.7815258212
 30
0.0
 10
19.8215976146
 20
47.607830119
 30
0.0
 10
19.8342888188
 20
47.492677991
 30
0.0
 10
19.835581009
 20
47.4373776145
 30
0.0
  0
SPLINE
  5
320
100
AcDbEntity
  8
0
100
AcDbSpline
 62
7
  6
BYLAYER
 70
0
 71
3
 72
15
 73
11
 74
0
 42
0.0000001
 43
0.0000001
 44
0.0000000001
 40
0.0
 40
0.0
 40
0.0
 40
0.0
 40
0.1139104364
 40
0.2368314028
 40
0.3661406054
 40
0.4989184556
 40
0.6318463936
 40
0.7615939744
 40
0.8852071343
 40
1.0
 40
1.0
 40
1.0
 40
1.0
 10
18.4338164952
 20
47.4444372854
 30
0.0
 10
18.4816506803
 20
47.4168208305
 30
0.0
 10
18.5862031487
 20
47.3680307413
 30
0.0
 10
18.756376191
 20
47.3158523882
 30
0.0
 10
18.940669723
 20
47.2833934832
 30
0.0
 10
19.13225312
 20
47.2717764693
 30
0.0
 10
19.3241543454
 20
47.2814863003
 30
0.0
 10
19.5093869629
 20
47.3121068073
 30
0.0
 10
19.6810834091
 20
47.3625823867
 30
0.0
 10
19.786965569
 20
47.4102727664
 30
0.0
 10
19.835581738
 20
47.4373780413
 30
0.0
  0
SPLINE
  5
321
100
AcDbEntity
  8
0
100
AcDbSpline
 62
7
  6
BYLAYER
 70
0
 71
3
 72
11
 73
7
 74
0
 42
0.0000001
 43
0.0000001
 44
0.0000000001
 40
0.0
 40
0.0
 40
0.0
 40
0.0
 40
0.2287036699
 40
0.4700273915
 40
0.7282546687
 40
1.0
 40
1.0
 40
1.0
 40
1.0
 10
11.1440900167
 20
33.7678056254
 30
0.0
 10
11.1440641082
 20
33.727817042
 30
0.0
 10
11.1600222746
 20
33.6451564642
 30
0.0
 10
11.2233865594
 20
33.5327212018
 30
0.0
 10
11.3189246139
 20
33.4358680411
 30
0.0
 10
11.3958436401
 20
33.383319104
 30
0.0
 10
11.4369927989
 20
33.3595627773
 30
0.0
  0
SPLINE
  5
322
100
AcDbEntity
  8
0
100
AcDbSpline
 62
7
  6
BYLAYER
 70
0
 71
3
 72
12
 73
8
 74
0
 42
0.0000001
 43
0.0000001
 44
0.0000000001
 40
0.0
 40
0.0
 40
0.0
 40
0.0
 40
0.2915030016
 40
0.5513511056
 40
0.7834696922
 40
0.8928276886
 40
1.0
 40
1.0
 40
1.0
 40
1.0
 10
12.125584303
 20
52.6977447903
 30
0.0
 10
12.0797893804
 20
52.7232536446
 30
0.0
 10
11.9889989718
 20
52.76473624
 30
0.0
 10
11.8503794681
 20
52.7959219143
 30
0.0
 10
11.7405388734
 20
52.7907144247
 30
0.0
 10
11.663098797
 20
52.7668867354
 30
0.0
 10
11.6281989167
 20
52.749080544
 30
0.0
 10
11.6118845775
 20
52.7388203391
 30
0.0
  0
SPLINE
  5
323
100
AcDbEntity
  8
0
100
AcDbSpline
 62
7
  6
BYLAYER
 70
0
 71
3
 72
15
 73
11
 74
0
 42
0.0000001
 43
0.0000001
 44
0.0000000001
 40
0.0
 40
0.0
 40
0.0
 40
0.0
 40
0.1138078064
 40
0.2365809217
 40
0.365733694
 40
0.4983866459
 40
0.6312632007
 40
0.7610692597
 40
0.8848746167
 40
1.0
 40
1.0
 40
1.0
 40
1.0
 10
11.436990546
 20
51.4839652443
 30
0.0
 10
11.436990546
 20
51.5388768961
 30
0.0
 10
11.4468947638
 20
51.6531282037
 30
0.0
 10
11.4863537256
 20
51.825585019
 30
0.0
 10
11.5497073427
 20
52.0004575054
 30
0.0
 10
11.634564623
 20
52.1713745608
 30
0.0
 10
11.7379239718
 20
52.3321539306
 30
0.0
 10
11.8560096901
 20
52.4770359412
 30
0.0
 10
11.9845581455
 20
52.6006681284
 30
0.0
 10
12.0781126535
 20
52.6689022588
 30
0.0
 10
12.1255845626
 20
52.6977454342
 30
0.0
  0
SPLINE
  5
324
100
AcDbEntity
  8
0
100
AcDbSpline
 62
7
  6
BYLAYER
 70
0
 71
3
 72
11
 73
7
 74
0
 42
0.0000001
 43
0.0000001
 44
0.0000000001
 40
0.0
 40
0.0
 40
0.0
 40
0.0
 40
0.2717372366
 40
0.5299645191
 40
0.7712943437
 40
1.0
 40
1.0
 40
1.0
 40
1.0
 10
11.4369927915
 20
49.6026061837
 30
0.0
 10
11.3958586263
 20
49.6263538575
 30
0.0
 10
11.3189655676
 20
49.678882292
 30
0.0
 10
11.2234489506
 20
49.7756904803
 30
0.0
 10
11.1600767508
 20
49.8880710134
 30
0.0
 10
11.1440862819
 20
49.9706958142
 30
0.0
 10
11.1440899942
 20
50.0106713744
 30
0.0
  0
SPLINE
  5
325
100
AcDbEntity
  8
0
100
AcDbSpline
 62
7
  6
BYLAYER
 70
0
 71
3
 72
23
 73
19
 74
0
 42
0.0000001
 43
0.0000001
 44
0.0000000001
 40
0.0
 40
0.0
 40
0.0
 40
0.0
 40
0.0742614215
 40
0.1447501263
 40
0.2113706715
 40
0.2743222838
 40
0.3339973993
 40
0.3909688422
 40
0.4459924768
 40
0.4999976812
 40
0.5540029817
 40
0.6090269051
 40
0.6659988186
 40
0.7256744567
 40
0.7886266949
 40
0.8552481962
 40
0.9257380623
 40
1.0
 40
1.0
 40
1.0
 40
1.0
 10
7.9018987669
 20
47.5616545889
 30
0.0
 10
8.0146163323
 20
47.4965908443
 30
0.0
 10
8.2397289966
 20
47.3787890048
 30
0.0
 10
8.5830598189
 20
47.2381366678
 30
0.0
 10
8.9203634621
 20
47.1398042546
 30
0.0
 10
9.2482979365
 20
47.0847607076
 30
0.0
 10
9.5638711152
 20
47.0738341393
 30
0.0
 10
9.8640510682
 20
47.1072282387
 30
0.0
 10
10.145694489
 20
47.1851790079
 30
0.0
 10
10.4057416686
 20
47.3068767589
 30
0.0
 10
10.6411552389
 20
47.4712410402
 30
0.0
 10
10.8494808433
 20
47.6761816354
 30
0.0
 10
11.0284874618
 20
47.9194533636
 30
0.0
 10
11.176808028
 20
48.1982160192
 30
0.0
 10
11.2931020861
 20
48.5097428406
 30
0.0
 10
11.3765918553
 20
48.8510283503
 30
0.0
 10
11.4264466201
 20
49.218692638
 30
0.0
 10
11.436981092
 20
49.4725499905
 30
0.0
 10
11.436990546
 20
49.6026990429
 30
0.0
  0
SPLINE
  5
326
100
AcDbEntity
  8
0
100
AcDbSpline
 62
7
  6
BYLAYER
 70
0
 71
3
 72
9
 73
5
 74
0
 42
0.0000001
 43
0.0000001
 44
0.0000000001
 40
0.0
 40
0.0
 40
0.0
 40
0.0
 40
0.2479630853
 40
1.0
 40
1.0
 40
1.0
 40
1.0
 10
9.1396124272
 20
35.4181839634
 30
0.0
 10
9.1358899685
 20
35.4203330087
 30
0.0
 10
9.1212127321
 20
35.4295713848
 30
0.0
 10
9.1079975046
 20
35.4411012321
 30
0.0
 10
9.0991660033
 20
35.4506899102
 30
0.0
  0
SPLINE
  5
327
100
AcDbEntity
  8
0
100
AcDbSpline
 62
7
  6
BYLAYER
 70
0
 71
3
 72
11
 73
7
 74
0
 42
0.0000001
 43
0.0000001
 44
0.0000000001
 40
0.0
 40
0.0
 40
0.0
 40
0.0
 40
0.2203184349
 40
0.4582814814
 40
0.7180847498
 40
1.0
 40
1.0
 40
1.0
 40
1.0
 10
9.0991660033
 20
35.4506899102
 30
0.0
 10
9.0886830347
 20
35.4620716457
 30
0.0
 10
9.0698738073
 20
35.4886209572
 30
0.0
 10
9.0501907852
 20
35.5353981367
 30
0.0
 10
9.0384683673
 20
35.5891452652
 30
0.0
 10
9.036045266
 20
35.6272580854
 30
0.0
 10
9.036045266
 20
35.6470579828
 30
0.0
  0
SPLINE
  5
328
100
AcDbEntity
  8
0
100
AcDbSpline
 62
7
  6
BYLAYER
 70
0
 71
3
 72
15
 73
11
 74
0
 42
0.0000001
 43
0.0000001
 44
0.0000000001
 40
0.0
 40
0.0
 40
0.0
 40
0.0
 40
0.1070231924
 40
0.228466236
 40
0.3617018112
 40
0.5010806831
 40
0.6402924643
 40
0.7730612354
 40
0.8938054637
 40
1.0
 40
1.0
 40
1.0
 40
1.0
 10
8.5967435172
 20
48.7791100649
 30
0.0
 10
8.5521963958
 20
48.7524930477
 30
0.0
 10
8.461612678
 20
48.6879689512
 30
0.0
 10
8.3330779522
 20
48.5679731576
 30
0.0
 10
8.2107537612
 20
48.4205832247
 30
0.0
 10
8.1012283804
 20
48.2530665335
 30
0.0
 10
8.0128111264
 20
48.0737625367
 30
0.0
 10
7.9484455861
 20
47.8940432278
 30
0.0
 10
7.9110096539
 20
47.7232154737
 30
0.0
 10
7.9019810955
 20
47.613099539
 30
0.0
 10
7.901981468
 20
47.5616080652
 30
0.0
  0
SPLINE
  5
329
100
AcDbEntity
  8
0
100
AcDbSpline
 62
7
  6
BYLAYER
 70
0
 71
3
 72
15
 73
11
 74
0
 42
0.0000001
 43
0.0000001
 44
0.0000000001
 40
0.0
 40
0.0
 40
0.0
 40
0.0
 40
0.1106494804
 40
0.2296812915
 40
0.3538423842
 40
0.4814577702
 40
0.6107448703
 40
0.7405480044
 40
0.8704230911
 40
1.0
 40
1.0
 40
1.0
 40
1.0
 10
27.5427560644
 20
40.8096517285
 30
0.0
 10
27.5435467062
 20
40.7627005334
 30
0.0
 10
27.5342639376
 20
40.6650890622
 30
0.0
 10
27.5012200678
 20
40.5183951997
 30
0.0
 10
27.4514136296
 20
40.3688525541
 30
0.0
 10
27.3871323182
 20
40.2202861303
 30
0.0
 10
27.3115586686
 20
40.07448983
 30
0.0
 10
27.2278471507
 20
39.9321721387
 30
0.0
 10
27.1403648481
 20
39.792032463
 30
0.0
 10
27.0794544557
 20
39.7002751656
 30
0.0
 10
27.0481190535
 20
39.6550863307
 30
0.0
  0
SPLINE
  5
32A
100
AcDbEntity
  8
0
100
AcDbSpline
 62
7
  6
BYLAYER
 70
0
 71
3
 72
15
 73
11
 74
0
 42
0.0000001
 43
0.0000001
 44
0.0000000001
 40
0.0
 40
0.0
 40
0.0
 40
0.0
 40
0.1139110958
 40
0.2368324432
 40
0.3661417757
 40
0.4989195487
 40
0.6318472582
 40
0.7615945263
 40
0.8852073678
 40
1.0
 40
1.0
 40
1.0
 40
1.0
 10
6.2726793863
 20
48.5022635574
 30
0.0
 10
6.2726793863
 20
48.5574977934
 30
0.0
 10
6.2827010858
 20
48.6724386828
 30
0.0
 10
6.3225984556
 20
48.8459031752
 30
0.0
 10
6.3866338112
 20
49.0217364216
 30
0.0
 10
6.4723639441
 20
49.1934616729
 30
0.0
 10
6.5767228533
 20
49.3547984694
 30
0.0
 10
6.6958569347
 20
49.4999044537
 30
0.0
 10
6.8254182455
 20
49.6233599399
 30
0.0
 10
6.9196605537
 20
49.6912110078
 30
0.0
 10
6.9674425977
 20
49.7197609508
 30
0.0
  0
SPLINE
  5
32B
100
AcDbEntity
  8
0
100
AcDbSpline
 62
7
  6
BYLAYER
 70
0
 71
3
 72
11
 73
7
 74
0
 42
0.0000001
 43
0.0000001
 44
0.0000000001
 40
0.0
 40
0.0
 40
0.0
 40
0.0
 40
0.2897125788
 40
0.5490843879
 40
0.7822152795
 40
1.0
 40
1.0
 40
1.0
 40
1.0
 10
6.2726793863
 20
40.4230007548
 30
0.0
 10
6.2287985958
 20
40.4483347679
 30
0.0
 10
6.1491886522
 20
40.5031620602
 30
0.0
 10
6.0540463642
 20
40.6031542328
 30
0.0
 10
5.9938632842
 20
40.7137656345
 30
0.0
 10
5.9797789447
 20
40.7931557479
 30
0.0
 10
5.9797837228
 20
40.8312449089
 30
0.0
  0
SPLINE
  5
32C
100
AcDbEntity
  8
0
100
AcDbSpline
 62
7
  6
BYLAYER
 70
0
 71
3
 72
11
 73
7
 74
0
 42
0.0000001
 43
0.0000001
 44
0.0000000001
 40
0.0
 40
0.0
 40
0.0
 40
0.0
 40
0.2717443581
 40
0.5299712959
 40
0.7712953991
 40
1.0
 40
1.0
 40
1.0
 40
1.0
 10
7.9019814385
 20
39.4823452695
 30
0.0
 10
7.9019810978
 20
39.4348300124
 30
0.0
 10
7.9090318352
 20
39.3419399861
 30
0.0
 10
7.9451431801
 20
39.210772907
 30
0.0
 10
8.0108364989
 20
39.0996788501
 30
0.0
 10
8.0744461687
 20
39.0445282067
 30
0.0
 10
8.1090915049
 20
39.0245564354
 30
0.0
  0
SPLINE
  5
32D
100
AcDbEntity
  8
0
100
AcDbSpline
 62
7
  6
BYLAYER
 70
0
 71
3
 72
19
 73
15
 74
0
 42
0.0000001
 43
0.0000001
 44
0.0000000001
 40
0.0
 40
0.0
 40
0.0
 40
0.0
 40
0.0558252781
 40
0.1142037929
 40
0.1748287049
 40
0.2374057485
 40
0.3670166565
 40
0.5000015305
 40
0.6329861804
 40
0.7625964786
 40
0.8251730707
 40
0.8857974075
 40
0.9441753342
 40
1.0
 40
1.0
 40
1.0
 40
1.0
 10
11.436990546
 20
33.3594667357
 30
0.0
 10
11.4369806054
 20
33.4961659748
 30
0.0
 10
11.4248005712
 20
33.7759154796
 30
0.0
 10
11.3733901942
 20
34.2012831566
 30
0.0
 10
11.288626353
 20
34.6381398095
 30
0.0
 10
11.1305990199
 20
35.2370743966
 30
0.0
 10
10.8549535035
 20
35.9863370599
 30
0.0
 10
10.4175013489
 20
36.8528356412
 30
0.0
 10
9.8858141596
 20
37.6649255787
 30
0.0
 10
9.3747545312
 20
38.2782672787
 30
0.0
 10
8.9350756559
 20
38.7145845931
 30
0.0
 10
8.5991295574
 20
39.0064156168
 30
0.0
 10
8.2564569573
 20
39.2636168271
 30
0.0
 10
8.0202777494
 20
39.4140358442
 30
0.0
 10
7.9018982796
 20
39.4823920676
 30
0.0
  0
SPLINE
  5
32E
100
AcDbEntity
  8
0
100
AcDbSpline
 62
7
  6
BYLAYER
 70
0
 71
3
 72
17
 73
13
 74
0
 42
0.0000001
 43
0.0000001
 44
0.0000000001
 40
0.0
 40
0.0
 40
0.0
 40
0.0
 40
0.0967992043
 40
0.1507437877
 40
0.2083274276
 40
0.3331827681
 40
0.467956591
 40
0.6075861687
 40
0.7463652055
 40
0.8787092438
 40
0.9410356959
 40
1.0
 40
1.0
 40
1.0
 40
1.0
 10
11.1594666839
 20
51.882231154
 30
0.0
 10
11.0678271096
 20
51.8872259519
 30
0.0
 10
10.9261517016
 20
51.9213850656
 30
0.0
 10
10.7459979401
 20
52.0026559388
 30
0.0
 10
10.5529725323
 20
52.1175045849
 30
0.0
 10
10.3195058222
 20
52.3099255529
 30
0.0
 10
10.0692206602
 20
52.5957474971
 30
0.0
 10
9.8559632404
 20
52.9259886476
 30
0.0
 10
9.6924886418
 20
53.2808462819
 30
0.0
 10
9.6039000307
 20
53.5859316598
 30
0.0
 10
9.5677639302
 20
53.82395008
 30
0.0
 10
9.5613460578
 20
53.9390085092
 30
0.0
 10
9.5613460578
 20
53.9949127293
 30
0.0
  0
SPLINE
  5
32F
100
AcDbEntity
  8
0
100
AcDbSpline
 62
7
  6
BYLAYER
 70
0
 71
3
 72
9
 73
5
 74
0
 42
0.0000001
 43
0.0000001
 44
0.0000000001
 40
0.0
 40
0.0
 40
0.0
 40
0.0
 40
0.2478501619
 40
1.0
 40
1.0
 40
1.0
 40
1.0
 10
11.5405576923
 20
30.8516263264
 30
0.0
 10
11.5367318551
 20
30.8538350585
 30
0.0
 10
11.521649543
 20
30.863350439
 30
0.0
 10
11.5081180129
 20
30.8752877958
 30
0.0
 10
11.4991158389
 20
30.8852219159
 30
0.0
  0
SPLINE
  5
330
100
AcDbEntity
  8
0
100
AcDbSpline
 62
7
  6
BYLAYER
 70
0
 71
3
 72
11
 73
7
 74
0
 42
0.0000001
 43
0.0000001
 44
0.0000000001
 40
0.0
 40
0.0
 40
0.0
 40
0.0
 40
0.220471402
 40
0.4585654461
 40
0.7183341076
 40
1.0
 40
1.0
 40
1.0
 40
1.0
 10
11.4991158389
 20
30.8852219159
 30
0.0
 10
11.4887905098
 20
30.8966161701
 30
0.0
 10
11.4702788289
 20
30.9231121302
 30
0.0
 10
11.4509129438
 20
30.9696500278
 30
0.0
 10
11.4393771099
 20
31.0230293852
 30
0.0
 10
11.4369905474
 20
31.0608557463
 30
0.0
 10
11.4369905474
 20
31.0805003741
 30
0.0
  0
SPLINE
  5
331
100
AcDbEntity
  8
0
100
AcDbSpline
 62
7
  6
BYLAYER
 70
0
 71
3
 72
11
 73
7
 74
0
 42
0.0000001
 43
0.0000001
 44
0.0000000001
 40
0.0
 40
0.0
 40
0.0
 40
0.0
 40
0.2171356029
 40
0.4500619226
 40
0.7099419594
 40
1.0
 40
1.0
 40
1.0
 40
1.0
 10
19.7216477092
 20
26.7889042557
 30
0.0
 10
19.7390944066
 20
26.7981166345
 30
0.0
 10
19.7720570824
 20
26.8238891021
 30
0.0
 10
19.8077732016
 20
26.8787081233
 30
0.0
 10
19.8297740453
 20
26.9470286517
 30
0.0
 10
19.8349816519
 20
26.9970606332
 30
0.0
 10
19.8355816993
 20
27.0234092899
 30
0.0
  0
SPLINE
  5
332
100
AcDbEntity
  8
0
100
AcDbSpline
 62
7
  6
BYLAYER
 70
0
 71
3
 72
12
 73
8
 74
0
 42
0.0000001
 43
0.0000001
 44
0.0000000001
 40
0.0
 40
0.0
 40
0.0
 40
0.0
 40
0.1079281268
 40
0.2177546233
 40
0.4500398395
 40
0.709351933
 40
1.0
 40
1.0
 40
1.0
 40
1.0
 10
8.8638758529
 20
57.265501186
 30
0.0
 10
8.880329287
 20
57.2760255892
 30
0.0
 10
8.9155011464
 20
57.2943320919
 30
0.0
 10
8.9934864175
 20
57.3189941877
 30
0.0
 10
9.1040485435
 20
57.3249078702
 30
0.0
 10
9.243428821
 20
57.2937934607
 30
0.0
 10
9.3344911499
 20
57.2519328202
 30
0.0
 10
9.3803422738
 20
57.2261606135
 30
0.0
  0
SPLINE
  5
333
100
AcDbEntity
  8
0
100
AcDbSpline
 62
7
  6
BYLAYER
 70
0
 71
3
 72
15
 73
11
 74
0
 42
0.0000001
 43
0.0000001
 44
0.0000000001
 40
0.0
 40
0.0
 40
0.0
 40
0.0
 40
0.107420572
 40
0.2290877517
 40
0.3623477988
 40
0.5016005012
 40
0.6406066254
 40
0.7731769144
 40
0.8938095339
 40
1.0
 40
1.0
 40
1.0
 40
1.0
 10
27.5427610385
 20
30.8825894994
 30
0.0
 10
27.5200348402
 20
30.870135994
 30
0.0
 10
27.469423778
 20
30.8474112472
 30
0.0
 10
27.3854786051
 20
30.8222350169
 30
0.0
 10
27.2914584435
 20
30.806527486
 30
0.0
 10
27.1920945198
 20
30.8012928867
 30
0.0
 10
27.0929847247
 20
30.8079945446
 30
0.0
 10
26.9996861306
 20
30.8250893236
 30
0.0
 10
26.9168660006
 20
30.8515084869
 30
0.0
 10
26.867208544
 20
30.8750161232
 30
0.0
 10
26.8450223183
 20
30.8878242704
 30
0.0
  0
SPLINE
  5
334
100
AcDbEntity
  8
0
100
AcDbSpline
 62
7
  6
BYLAYER
 70
0
 71
3
 72
21
 73
17
 74
0
 42
0.0000001
 43
0.0000001
 44
0.0000000001
 40
0.0
 40
0.0
 40
0.0
 40
0.0
 40
0.0558307696
 40
0.1141953512
 40
0.1748042309
 40
0.2373781666
 40
0.3669745328
 40
0.4999423803
 40
0.5666672243
 40
0.6329650413
 40
0.6984161252
 40
0.7626190324
 40
0.8251965532
 40
0.8858072122
 40
0.9441554138
 40
1.0
 40
1.0
 40
1.0
 40
1.0
 10
38.2344663244
 20
61.3229339773
 30
0.0
 10
38.4784208365
 20
61.1820899604
 30
0.0
 10
38.9650484291
 20
60.8721958619
 30
0.0
 10
39.6709277891
 20
60.3421785147
 30
0.0
 10
40.363005194
 20
59.7409675034
 30
0.0
 10
41.2688011854
 20
58.8420089293
 30
0.0
 10
42.3216590894
 20
57.5784298446
 30
0.0
 10
43.2337822778
 20
56.1853122794
 30
0.0
 10
43.8719990656
 20
55.0040510155
 30
0.0
 10
44.2973834273
 20
54.0968635587
 30
0.0
 10
44.6647000088
 20
53.1783525558
 30
0.0
 10
44.970542381
 20
52.2572972829
 30
0.0
 10
45.211897089
 20
51.3424740339
 30
0.0
 10
45.3864989479
 20
50.4425873853
 30
0.0
 10
45.4926819429
 20
49.566280045
 30
0.0
 10
45.5176804583
 20
48.989911079
 30
0.0
 10
45.5176822264
 20
48.7081485545
 30
0.0
  0
SPLINE
  5
335
100
AcDbEntity
  8
0
100
AcDbSpline
 62
7
  6
BYLAYER
 70
0
 71
3
 72
15
 73
11
 74
0
 42
0.0000001
 43
0.0000001
 44
0.0000000001
 40
0.0
 40
0.0
 40
0.0
 40
0.0
 40
0.1447738598
 40
0.2745641218
 40
0.3911316886
 40
0.4999999997
 40
0.6088686563
 40
0.7254362146
 40
0.8552247562
 40
1.0
 40
1.0
 40
1.0
 40
1.0
 10
26.4915757365
 20
25.5693307555
 30
0.0
 10
26.5134957852
 20
25.5566693004
 30
0.0
 10
26.5571445859
 20
25.5359295883
 30
0.0
 10
26.6241884884
 20
25.5196851401
 30
0.0
 10
26.6871833853
 20
25.5212827037
 30
0.0
 10
26.7431924086
 20
25.5416459706
 30
0.0
 10
26.7888324184
 20
25.5799690142
 30
0.0
 10
26.8217143336
 20
25.6337246261
 30
0.0
 10
26.8411676142
 20
25.6999088364
 30
0.0
 10
26.8450304454
 20
25.7480794796
 30
0.0
 10
26.8450261816
 20
25.7733937683
 30
0.0
  0
SPLINE
  5
336
100
AcDbEntity
  8
0
100
AcDbSpline
 62
7
  6
BYLAYER
 70
0
 71
3
 72
11
 73
7
 74
0
 42
0.0000001
 43
0.0000001
 44
0.0000000001
 40
0.0
 40
0.0
 40
0.0
 40
0.0
 40
0.2177083118
 40
0.45083669
 40
0.7104457066
 40
1.0
 40
1.0
 40
1.0
 40
1.0
 10
8.5361854779
 20
56.6193317139
 30
0.0
 10
8.5361852129
 20
56.6002940823
 30
0.0
 10
8.5431781936
 20
56.5606004245
 30
0.0
 10
8.573288079
 20
56.5052782316
 30
0.0
 10
8.6208918852
 20
56.4553107732
 30
0.0
 10
8.6606834571
 20
56.4278695453
 30
0.0
 10
8.6826115573
 20
56.4152096371
 30
0.0
  0
SPLINE
  5
337
100
AcDbEntity
  8
0
100
AcDbSpline
 62
7
  6
BYLAYER
 70
0
 71
3
 72
11
 73
7
 74
0
 42
0.0000001
 43
0.0000001
 44
0.0000000001
 40
0.0
 40
0.0
 40
0.0
 40
0.0
 40
0.2282536551
 40
0.4696931001
 40
0.7282507662
 40
1.0
 40
1.0
 40
1.0
 40
1.0
 10
21.4907027795
 20
27.7226191538
 30
0.0
 10
21.5090547193
 20
27.7322696969
 30
0.0
 10
21.5430600405
 20
27.7598023134
 30
0.0
 10
21.5788012863
 20
27.8165611842
 30
0.0
 10
21.599286773
 20
27.8842633754
 30
0.0
 10
21.6040772242
 20
27.9324582434
 30
0.0
 10
21.6046397667
 20
27.9571376658
 30
0.0
  0
SPLINE
  5
338
100
AcDbEntity
  8
0
100
AcDbSpline
 62
7
  6
BYLAYER
 70
0
 71
3
 72
9
 73
5
 74
0
 42
0.0000001
 43
0.0000001
 44
0.0000000001
 40
0.0
 40
0.0
 40
0.0
 40
0.0
 40
0.2416328029
 40
1.0
 40
1.0
 40
1.0
 40
1.0
 10
22.1846331503
 20
30.908212109
 30
0.0
 10
22.1780405611
 20
30.867892086
 30
0.0
 10
22.1545198808
 20
30.7004204881
 30
0.0
 10
22.1454458157
 20
30.5310296653
 30
0.0
 10
22.1454521796
 20
30.4028044386
 30
0.0
  0
SPLINE
  5
339
100
AcDbEntity
  8
0
100
AcDbSpline
 62
7
  6
BYLAYER
 70
0
 71
3
 72
10
 73
6
 74
0
 42
0.0000001
 43
0.0000001
 44
0.0000000001
 40
0.0
 40
0.0
 40
0.0
 40
0.0
 40
0.2726131095
 40
0.5304052627
 40
1.0
 40
1.0
 40
1.0
 40
1.0
 10
23.7035405607
 20
29.5000492963
 30
0.0
 10
23.7035405607
 20
29.5450463454
 30
0.0
 10
23.7075053464
 20
29.6327042146
 30
0.0
 10
23.7316286446
 20
29.7960761846
 30
0.0
 10
23.7693584676
 20
29.9119571927
 30
0.0
 10
23.8044347786
 20
29.9810768677
 30
0.0
  0
SPLINE
  5
33A
100
AcDbEntity
  8
0
100
AcDbSpline
 62
7
  6
BYLAYER
 70
0
 71
3
 72
11
 73
7
 74
0
 42
0.0000001
 43
0.0000001
 44
0.0000000001
 40
0.0
 40
0.0
 40
0.0
 40
0.0
 40
0.228532909
 40
0.4698035206
 40
0.7280831635
 40
1.0
 40
1.0
 40
1.0
 40
1.0
 10
8.5361587706
 20
51.5046984912
 30
0.0
 10
8.5361617179
 20
51.4847329747
 30
0.0
 10
8.5441621074
 20
51.4434582649
 30
0.0
 10
8.5758381751
 20
51.3873090298
 30
0.0
 10
8.6235841307
 20
51.3389064766
 30
0.0
 10
8.66203441
 20
51.3126403154
 30
0.0
 10
8.6826076934
 20
51.3007628795
 30
0.0
  0
SPLINE
  5
33B
100
AcDbEntity
  8
0
100
AcDbSpline
 62
7
  6
BYLAYER
 70
0
 71
3
 72
9
 73
5
 74
0
 42
0.0000001
 43
0.0000001
 44
0.0000000001
 40
0.0
 40
0.0
 40
0.0
 40
0.0
 40
0.2491547372
 40
1.0
 40
1.0
 40
1.0
 40
1.0
 10
26.8450660673
 20
30.8877529323
 30
0.0
 10
26.8509443953
 20
30.8945781941
 30
0.0
 10
26.8747528678
 20
30.9217865043
 30
0.0
 10
26.8990804866
 20
30.9485330551
 30
0.0
 10
26.9170528826
 20
30.9688767211
 30
0.0
  0
SPLINE
  5
33C
100
AcDbEntity
  8
0
100
AcDbSpline
 62
7
  6
BYLAYER
 70
0
 71
3
 72
15
 73
11
 74
0
 42
0.0000001
 43
0.0000001
 44
0.0000000001
 40
0.0
 40
0.0
 40
0.0
 40
0.0
 40
0.0809187693
 40
0.1685115849
 40
0.2662308498
 40
0.3774482483
 40
0.5044323955
 40
0.6501859558
 40
0.8156805637
 40
1.0
 40
1.0
 40
1.0
 40
1.0
 10
26.9170528826
 20
30.9688767211
 30
0.0
 10
26.9271219449
 20
30.980274291
 30
0.0
 10
26.9479447161
 20
31.0041487653
 30
0.0
 10
26.9781372689
 20
31.0441388105
 30
0.0
 10
27.0066542726
 20
31.0921822351
 30
0.0
 10
27.031710262
 20
31.1503399403
 30
0.0
 10
27.0508346759
 20
31.220178427
 30
0.0
 10
27.0611200636
 20
31.3021542424
 30
0.0
 10
27.0611106309
 20
31.3954959451
 30
0.0
 10
27.053757802
 20
31.4609824455
 30
0.0
 10
27.0481568164
 20
31.4951684893
 30
0.0
  0
SPLINE
  5
33D
100
AcDbEntity
  8
0
100
AcDbSpline
 62
7
  6
BYLAYER
 70
0
 71
3
 72
9
 73
5
 74
0
 42
0.0000001
 43
0.0000001
 44
0.0000000001
 40
0.0
 40
0.0
 40
0.0
 40
0.0
 40
0.2558379734
 40
1.0
 40
1.0
 40
1.0
 40
1.0
 10
26.6396127463
 20
30.9282330036
 30
0.0
 10
26.6469711943
 20
30.925624578
 30
0.0
 10
26.675874784
 20
30.9158354667
 30
0.0
 10
26.705350279
 20
30.9077111278
 30
0.0
 10
26.7275127765
 20
30.902760647
 30
0.0
  0
SPLINE
  5
33E
100
AcDbEntity
  8
0
100
AcDbSpline
 62
7
  6
BYLAYER
 70
0
 71
3
 72
9
 73
5
 74
0
 42
0.0000001
 43
0.0000001
 44
0.0000000001
 40
0.0
 40
0.0
 40
0.0
 40
0.0
 40
0.258079495
 40
1.0
 40
1.0
 40
1.0
 40
1.0
 10
26.7275127765
 20
30.902760647
 30
0.0
 10
26.7374661046
 20
30.9005373525
 30
0.0
 10
26.7762142394
 20
30.8927771839
 30
0.0
 10
26.8157068324
 20
30.8885527749
 30
0.0
 10
26.8450165953
 20
30.8878277433
 30
0.0
  0
SPLINE
  5
33F
100
AcDbEntity
  8
0
100
AcDbSpline
 62
7
  6
BYLAYER
 70
0
 71
3
 72
12
 73
8
 74
0
 42
0.0000001
 43
0.0000001
 44
0.0000000001
 40
0.0
 40
0.0
 40
0.0
 40
0.0
 40
0.108636112
 40
0.2189013339
 40
0.4513026036
 40
0.7100319165
 40
1.0
 40
1.0
 40
1.0
 40
1.0
 10
26.8307922618
 20
31.0317890933
 30
0.0
 10
26.8479852834
 20
31.0408636273
 30
0.0
 10
26.8810743003
 20
31.0622827301
 30
0.0
 10
26.940526955
 20
31.1174456059
 30
0.0
 10
26.999719714
 20
31.2095816116
 30
0.0
 10
27.0403664766
 20
31.3446648189
 30
0.0
 10
27.0482574493
 20
31.4432355238
 30
0.0
 10
27.0481041867
 20
31.495126236
 30
0.0
  0
SPLINE
  5
340
100
AcDbEntity
  8
0
100
AcDbSpline
 62
7
  6
BYLAYER
 70
0
 71
3
 72
17
 73
13
 74
0
 42
0.0000001
 43
0.0000001
 44
0.0000000001
 40
0.0
 40
0.0
 40
0.0
 40
0.0
 40
0.151770406
 40
0.2222998211
 40
0.2897309181
 40
0.4167595961
 40
0.5366338739
 40
0.6528775443
 40
0.768180935
 40
0.8259301693
 40
0.8837639883
 40
1.0
 40
1.0
 40
1.0
 40
1.0
 10
27.5427560644
 20
30.8825579233
 30
0.0
 10
27.5435665208
 20
30.9255135157
 30
0.0
 10
27.5381151967
 20
30.9888050552
 30
0.0
 10
27.5189228148
 20
31.0686268871
 30
0.0
 10
27.4947780663
 20
31.1397434172
 30
0.0
 10
27.4539944561
 20
31.2195846501
 30
0.0
 10
27.3887297281
 20
31.2999299434
 30
0.0
 10
27.3119835172
 20
31.3640253303
 30
0.0
 10
27.2418048418
 20
31.4065858515
 30
0.0
 10
27.1839913397
 20
31.4370780793
 30
0.0
 10
27.1249324143
 20
31.4657062388
 30
0.0
 10
27.0792113853
 20
31.4843503551
 30
0.0
 10
27.0481189944
 20
31.495118175
 30
0.0
  0
SPLINE
  5
341
100
AcDbEntity
  8
0
100
AcDbSpline
 62
7
  6
BYLAYER
 70
0
 71
3
 72
9
 73
5
 74
0
 42
0.0000001
 43
0.0000001
 44
0.0000000001
 40
0.0
 40
0.0
 40
0.0
 40
0.0
 40
0.2600681397
 40
1.0
 40
1.0
 40
1.0
 40
1.0
 10
21.8650991681
 20
30.4042634884
 30
0.0
 10
21.8651390127
 20
30.4581578514
 30
0.0
 10
21.8697608512
 20
30.6653306601
 30
0.0
 10
21.8927190632
 20
30.8723363974
 30
0.0
 10
21.9223033899
 20
31.0227927691
 30
0.0
  0
SPLINE
  5
342
100
AcDbEntity
  8
0
100
AcDbSpline
 62
7
  6
BYLAYER
 70
0
 71
3
 72
15
 73
11
 74
0
 42
0.0000001
 43
0.0000001
 44
0.0000000001
 40
0.0
 40
0.0
 40
0.0
 40
0.0
 40
0.1138796762
 40
0.2368863677
 40
0.3664782832
 40
0.4995410236
 40
0.6326752962
 40
0.7624378411
 40
0.8857890561
 40
1.0
 40
1.0
 40
1.0
 40
1.0
 10
10.7006203473
 20
35.7007545183
 30
0.0
 10
10.6227863102
 20
35.7450620579
 30
0.0
 10
10.4689510126
 20
35.8517598937
 30
0.0
 10
10.2571878622
 20
36.0484002839
 30
0.0
 10
10.0618630358
 20
36.281411409
 30
0.0
 10
9.8903989878
 20
36.541998501
 30
0.0
 10
9.749285198
 20
36.8203396326
 30
0.0
 10
9.64373854
 20
37.1059725005
 30
0.0
 10
9.5779150686
 20
37.3880386481
 30
0.0
 10
9.5613460578
 20
37.5750421734
 30
0.0
 10
9.5613460578
 20
37.6648643867
 30
0.0
  0
SPLINE
  5
343
100
AcDbEntity
  8
0
100
AcDbSpline
 62
7
  6
BYLAYER
 70
0
 71
3
 72
17
 73
13
 74
0
 42
0.0000001
 43
0.0000001
 44
0.0000000001
 40
0.0
 40
0.0
 40
0.0
 40
0.0
 40
0.0558180229
 40
0.1141979652
 40
0.2373443832
 40
0.3669814364
 40
0.4999996445
 40
0.6330179016
 40
0.7626550965
 40
0.8858017425
 40
0.9441817711
 40
1.0
 40
1.0
 40
1.0
 40
1.0
 10
24.6931073731
 20
41.8295273052
 30
0.0
 10
24.5984787131
 20
41.8842539824
 30
0.0
 10
24.4096798824
 20
42.0046936201
 30
0.0
 10
24.0378700553
 20
42.2842268299
 30
0.0
 10
23.5916174078
 20
42.7021564222
 30
0.0
 10
23.1070290141
 20
43.2840302562
 30
0.0
 10
22.6817276683
 20
43.9337629795
 30
0.0
 10
22.3316944762
 20
44.6269520383
 30
0.0
 10
22.0700722952
 20
45.3375560634
 30
0.0
 10
21.931261115
 20
45.9329879737
 30
0.0
 10
21.8750844354
 20
46.3947525297
 30
0.0
 10
21.8651800552
 20
46.6184774568
 30
0.0
 10
21.8650991647
 20
46.7277920217
 30
0.0
  0
SPLINE
  5
344
100
AcDbEntity
  8
0
100
AcDbSpline
 62
7
  6
BYLAYER
 70
0
 71
3
 72
15
 73
11
 74
0
 42
0.0000001
 43
0.0000001
 44
0.0000000001
 40
0.0
 40
0.0
 40
0.0
 40
0.0
 40
0.1142717026
 40
0.2374551806
 40
0.3670662293
 40
0.5000019389
 40
0.6329369631
 40
0.7625486462
 40
0.8857350801
 40
1.0
 40
1.0
 40
1.0
 40
1.0
 10
19.8355887897
 20
45.5560517543
 30
0.0
 10
19.8347461631
 20
45.3321336008
 30
0.0
 10
19.874457069
 20
44.8662764611
 30
0.0
 10
20.0355259756
 20
44.1633082451
 30
0.0
 10
20.2964606333
 20
43.4519333209
 30
0.0
 10
20.6457203546
 20
42.7582695221
 30
0.0
 10
21.0718179307
 20
42.1089661538
 30
0.0
 10
21.5574267447
 20
41.5273007348
 30
0.0
 10
22.0856817014
 20
41.0363379523
 30
0.0
 10
22.4692606962
 20
40.7690182453
 30
0.0
 10
22.6635896671
 20
40.6577961768
 30
0.0
  0
SPLINE
  5
345
100
AcDbEntity
  8
0
100
AcDbSpline
 62
7
  6
BYLAYER
 70
0
 71
3
 72
9
 73
5
 74
0
 42
0.0000001
 43
0.0000001
 44
0.0000000001
 40
0.0
 40
0.0
 40
0.0
 40
0.0
 40
0.2400528605
 40
1.0
 40
1.0
 40
1.0
 40
1.0
 10
11.1208351167
 20
49.7313544721
 30
0.0
 10
11.0737662843
 20
49.7474471427
 30
0.0
 10
10.879544268
 20
49.8198733042
 30
0.0
 10
10.6930633124
 20
49.912408989
 30
0.0
 10
10.5566253263
 20
49.9910443767
 30
0.0
  0
SPLINE
  5
346
100
AcDbEntity
  8
0
100
AcDbSpline
 62
7
  6
BYLAYER
 70
0
 71
3
 72
11
 73
7
 74
0
 42
0.0000001
 43
0.0000001
 44
0.0000000001
 40
0.0
 40
0.0
 40
0.0
 40
0.0
 40
0.2382561764
 40
0.5009601618
 40
0.7632192429
 40
1.0
 40
1.0
 40
1.0
 40
1.0
 10
21.8650991382
 20
30.404301649
 30
0.0
 10
21.8852398048
 20
30.4155308228
 30
0.0
 10
21.931698996
 20
30.4318473821
 30
0.0
 10
22.005715144
 20
30.4394397431
 30
0.0
 10
22.07951177
 20
30.4311453855
 30
0.0
 10
22.1256198678
 20
30.4143418842
 30
0.0
 10
22.1454654966
 20
30.402882106
 30
0.0
  0
SPLINE
  5
347
100
AcDbEntity
  8
0
100
AcDbSpline
 62
7
  6
BYLAYER
 70
0
 71
3
 72
15
 73
11
 74
0
 42
0.0000001
 43
0.0000001
 44
0.0000000001
 40
0.0
 40
0.0
 40
0.0
 40
0.0
 40
0.1142503654
 40
0.2373973324
 40
0.3669764957
 40
0.4998938647
 40
0.632825536
 40
0.7624451689
 40
0.885655797
 40
1.0
 40
1.0
 40
1.0
 40
1.0
 10
27.0481041596
 20
39.6550952821
 30
0.0
 10
27.0482688704
 20
39.7110609493
 30
0.0
 10
27.0382506053
 20
39.8274817617
 30
0.0
 10
26.9978312561
 20
40.0031333234
 30
0.0
 10
26.9324196887
 20
40.1808544349
 30
0.0
 10
26.8449219486
 20
40.3541347006
 30
0.0
 10
26.7382296586
 20
40.5163267936
 30
0.0
 10
26.6166733188
 20
40.6616165727
 30
0.0
 10
26.4844504851
 20
40.7842497839
 30
0.0
 10
26.3884567605
 20
40.8510103982
 30
0.0
 10
26.3398238653
 20
40.8787983771
 30
0.0
  0
SPLINE
  5
348
100
AcDbEntity
  8
0
100
AcDbSpline
 62
7
  6
BYLAYER
 70
0
 71
3
 72
15
 73
11
 74
0
 42
0.0000001
 43
0.0000001
 44
0.0000000001
 40
0.0
 40
0.0
 40
0.0
 40
0.0
 40
0.107415398
 40
0.2290787712
 40
0.3623367821
 40
0.5015893412
 40
0.6405970426
 40
0.7731701781
 40
0.8938062153
 40
1.0
 40
1.0
 40
1.0
 40
1.0
 10
27.5427606097
 20
40.8096349924
 30
0.0
 10
27.5200343557
 20
40.79718446
 30
0.0
 10
27.4694231442
 20
40.7744660234
 30
0.0
 10
27.3854783265
 20
40.7492994691
 30
0.0
 10
27.2914584997
 20
40.7336017651
 30
0.0
 10
27.1920947623
 20
40.7283766107
 30
0.0
 10
27.0929850485
 20
40.735086784
 30
0.0
 10
26.9996863906
 20
40.7521887914
 30
0.0
 10
26.9168661282
 20
40.7786135477
 30
0.0
 10
26.8672085736
 20
40.8021240195
 30
0.0
 10
26.8450222307
 20
40.8149333049
 30
0.0
  0
SPLINE
  5
349
100
AcDbEntity
  8
0
100
AcDbSpline
 62
7
  6
BYLAYER
 70
0
 71
3
 72
11
 73
7
 74
0
 42
0.0000001
 43
0.0000001
 44
0.0000000001
 40
0.0
 40
0.0
 40
0.0
 40
0.0
 40
0.2268551791
 40
0.4989031706
 40
0.7715938134
 40
1.0
 40
1.0
 40
1.0
 40
1.0
 10
26.4787716109
 20
41.1223131282
 30
0.0
 10
26.4787741552
 20
41.1003567642
 30
0.0
 10
26.470611626
 20
41.0520387839
 30
0.0
 10
26.4407491366
 20
40.9829233644
 30
0.0
 10
26.3963350962
 20
40.921943334
 30
0.0
 10
26.358801102
 20
40.8901373895
 30
0.0
 10
26.3398240927
 20
40.8787985377
 30
0.0
  0
SPLINE
  5
34A
100
AcDbEntity
  8
0
100
AcDbSpline
 62
7
  6
BYLAYER
 70
0
 71
3
 72
15
 73
11
 74
0
 42
0.0000001
 43
0.0000001
 44
0.0000000001
 40
0.0
 40
0.0
 40
0.0
 40
0.0
 40
0.1157303738
 40
0.2362895537
 40
0.3603521758
 40
0.486912858
 40
0.6148750907
 40
0.7432283315
 40
0.8720287949
 40
1.0
 40
1.0
 40
1.0
 40
1.0
 10
27.0481041481
 20
39.6550913844
 30
0.0
 10
27.0541861239
 20
39.7005723493
 30
0.0
 10
27.0618349759
 20
39.7941175577
 30
0.0
 10
27.0603543275
 20
39.9371673397
 30
0.0
 10
27.0461052198
 20
40.0838041349
 30
0.0
 10
27.0210696832
 20
40.2319091936
 30
0.0
 10
26.9872831268
 20
40.3799603747
 30
0.0
 10
26.9477439607
 20
40.527489542
 30
0.0
 10
26.900351498
 20
40.6727571768
 30
0.0
 10
26.8630021883
 20
40.7674902982
 30
0.0
 10
26.8450169805
 20
40.8149349641
 30
0.0
  0
SPLINE
  5
34B
100
AcDbEntity
  8
0
100
AcDbSpline
 62
7
  6
BYLAYER
 70
0
 71
3
 72
9
 73
5
 74
0
 42
0.0000001
 43
0.0000001
 44
0.0000000001
 40
0.0
 40
0.0
 40
0.0
 40
0.0
 40
0.5206515382
 40
1.0
 40
1.0
 40
1.0
 40
1.0
 10
26.8450170656
 20
40.8149354113
 30
0.0
 10
26.7898468707
 20
40.8772748803
 30
0.0
 10
26.6757217401
 20
40.990104953
 30
0.0
 10
26.5451402807
 20
41.0839904145
 30
0.0
 10
26.4787704418
 20
41.1223194369
 30
0.0
  0
SPLINE
  5
34C
100
AcDbEntity
  8
0
100
AcDbSpline
 62
7
  6
BYLAYER
 70
0
 71
3
 72
11
 73
7
 74
0
 42
0.0000001
 43
0.0000001
 44
0.0000000001
 40
0.0
 40
0.0
 40
0.0
 40
0.0
 40
0.236664075
 40
0.4987723574
 40
0.7616240013
 40
1.0
 40
1.0
 40
1.0
 40
1.0
 10
22.1454521785
 20
46.7263419324
 30
0.0
 10
22.1256164337
 20
46.737793846
 30
0.0
 10
22.0795374883
 20
46.7545905826
 30
0.0
 10
22.0057574304
 20
46.7628913714
 30
0.0
 10
21.9317328325
 20
46.7553072702
 30
0.0
 10
21.8852488789
 20
46.7389880187
 30
0.0
 10
21.8650991382
 20
46.7277537857
 30
0.0
  0
SPLINE
  5
34D
100
AcDbEntity
  8
0
100
AcDbSpline
 62
7
  6
BYLAYER
 70
0
 71
3
 72
11
 73
7
 74
0
 42
0.0000001
 43
0.0000001
 44
0.0000000001
 40
0.0
 40
0.0
 40
0.0
 40
0.0
 40
0.2382529672
 40
0.5009535711
 40
0.7632129009
 40
1.0
 40
1.0
 40
1.0
 40
1.0
 10
24.6931072538
 20
41.8295272364
 30
0.0
 10
24.7129011151
 20
41.8413541164
 30
0.0
 10
24.7502592057
 20
41.8734281398
 30
0.0
 10
24.7938408743
 20
41.9337274639
 30
0.0
 10
24.8235563696
 20
42.0017804203
 30
0.0
 10
24.8320598885
 20
42.0501105619
 30
0.0
 10
24.8320598885
 20
42.0730267104
 30
0.0
  0
SPLINE
  5
34E
100
AcDbEntity
  8
0
100
AcDbSpline
 62
7
  6
BYLAYER
 70
0
 71
3
 72
9
 73
5
 74
0
 42
0.0000001
 43
0.0000001
 44
0.0000000001
 40
0.0
 40
0.0
 40
0.0
 40
0.0
 40
0.4781056361
 40
1.0
 40
1.0
 40
1.0
 40
1.0
 10
21.8650815517
 20
28.0467887652
 30
0.0
 10
21.821488328
 20
28.0404330189
 30
0.0
 10
21.7316791567
 20
28.0171733444
 30
0.0
 10
21.647152787
 20
27.9795951554
 30
0.0
 10
21.6046262497
 20
27.9571443304
 30
0.0
  0
SPLINE
  5
34F
100
AcDbEntity
  8
0
100
AcDbSpline
 62
7
  6
BYLAYER
 70
0
 71
3
 72
20
 73
16
 74
0
 42
0.0000001
 43
0.0000001
 44
0.0000000001
 40
0.0
 40
0.0
 40
0.0
 40
0.0
 40
0.0558476102
 40
0.1141989712
 40
0.1748129123
 40
0.2373938215
 40
0.3016002053
 40
0.3670548334
 40
0.5000305482
 40
0.6330055958
 40
0.7626089796
 40
0.8251863036
 40
0.8857984652
 40
0.9441662072
 40
1.0
 40
1.0
 40
1.0
 40
1.0
 10
45.5176791112
 20
49.5654515799
 30
0.0
 10
45.5176775233
 20
49.8184907403
 30
0.0
 10
45.4952273946
 20
50.3361037244
 30
0.0
 10
45.3998689068
 20
51.1230783957
 30
0.0
 10
45.243066161
 20
51.9312304525
 30
0.0
 10
45.0263159858
 20
52.7527894504
 30
0.0
 10
44.7516501231
 20
53.5799723209
 30
0.0
 10
44.3095510124
 20
54.6853938721
 30
0.0
 10
43.6311620556
 20
56.0289935755
 30
0.0
 10
42.6475253812
 20
57.5314010346
 30
0.0
 10
41.7019291899
 20
58.6662579609
 30
0.0
 10
40.8884801531
 20
59.4735640026
 30
0.0
 10
40.2669527099
 20
60.0134886237
 30
0.0
 10
39.6330323426
 20
60.4894745323
 30
0.0
 10
39.196012329
 20
60.7677775998
 30
0.0
 10
38.9769269662
 20
60.8942637315
 30
0.0
  0
SPLINE
  5
350
100
AcDbEntity
  8
0
100
AcDbSpline
 62
7
  6
BYLAYER
 70
0
 71
3
 72
20
 73
16
 74
0
 42
0.0000001
 43
0.0000001
 44
0.0000000001
 40
0.0
 40
0.0
 40
0.0
 40
0.0
 40
0.1031069287
 40
0.2188151767
 40
0.2817759347
 40
0.3497264753
 40
0.3864909859
 40
0.425587647
 40
0.4663912033
 40
0.5069188973
 40
0.5825790761
 40
0.65195071
 40
0.7792358566
 40
0.8954907929
 40
1.0
 40
1.0
 40
1.0
 40
1.0
 10
22.1454654966
 20
28.0180552038
 30
0.0
 10
22.1363828062
 20
28.0100000987
 30
0.0
 10
22.1179979695
 20
27.9919412407
 30
0.0
 10
22.0939555482
 20
27.9690404471
 30
0.0
 10
22.0711411865
 20
27.9510209495
 30
0.0
 10
22.0541152907
 20
27.9408256908
 30
0.0
 10
22.0383503071
 20
27.9344998998
 30
0.0
 10
22.0248292509
 20
27.9316514685
 30
0.0
 10
22.0105470833
 20
27.9314611871
 30
0.0
 10
21.9923049321
 20
27.9351398113
 30
0.0
 10
21.9724268112
 20
27.9448808086
 30
0.0
 10
21.9466543515
 20
27.9640511309
 30
0.0
 10
21.9202915491
 20
27.9899399393
 30
0.0
 10
21.8924664356
 20
28.0199754112
 30
0.0
 10
21.8743003057
 20
28.0386282236
 30
0.0
 10
21.8650991382
 20
28.0467985703
 30
0.0
  0
SPLINE
  5
351
100
AcDbEntity
  8
0
100
AcDbSpline
 62
7
  6
BYLAYER
 70
0
 71
3
 72
11
 73
7
 74
0
 42
0.0000001
 43
0.0000001
 44
0.0000000001
 40
0.0
 40
0.0
 40
0.0
 40
0.0
 40
0.2285432488
 40
0.4698073523
 40
0.7280817752
 40
1.0
 40
1.0
 40
1.0
 40
1.0
 10
22.551518998
 20
27.6749686577
 30
0.0
 10
22.5342071889
 20
27.6849428477
 30
0.0
 10
22.5024151539
 20
27.7125000359
 30
0.0
 10
22.4695742144
 20
27.7680274029
 30
0.0
 10
22.4514993414
 20
27.8336162915
 30
0.0
 10
22.4479709111
 20
27.8800786526
 30
0.0
 10
22.447970514
 20
27.9038501231
 30
0.0
  0
SPLINE
  5
352
100
AcDbEntity
  8
0
100
AcDbSpline
 62
7
  6
BYLAYER
 70
0
 71
3
 72
9
 73
5
 74
0
 42
0.0000001
 43
0.0000001
 44
0.0000000001
 40
0.0
 40
0.0
 40
0.0
 40
0.0
 40
0.5243317432
 40
1.0
 40
1.0
 40
1.0
 40
1.0
 10
22.4479728836
 20
27.9038530905
 30
0.0
 10
22.3988374857
 20
27.9322319118
 30
0.0
 10
22.3011912672
 20
27.9798974864
 30
0.0
 10
22.1963234736
 20
28.0100325283
 30
0.0
 10
22.1454788147
 20
28.0180677751
 30
0.0
  0
SPLINE
  5
353
100
AcDbEntity
  8
0
100
AcDbSpline
 62
7
  6
BYLAYER
 70
0
 71
3
 72
11
 73
7
 74
0
 42
0.0000001
 43
0.0000001
 44
0.0000000001
 40
0.0
 40
0.0
 40
0.0
 40
0.0
 40
0.2895966492
 40
0.5491422208
 40
0.7822396085
 40
1.0
 40
1.0
 40
1.0
 40
1.0
 10
18.4338164863
 20
27.0409724211
 30
0.0
 10
18.4338164863
 20
27.0156477797
 30
0.0
 10
18.4376808697
 20
26.9674662256
 30
0.0
 10
18.4571590715
 20
26.9012617754
 30
0.0
 10
18.4900106639
 20
26.8475241854
 30
0.0
 10
18.5208941951
 20
26.8216232389
 30
0.0
 10
18.537383103
 20
26.8120974547
 30
0.0
  0
SPLINE
  5
354
100
AcDbEntity
  8
0
100
AcDbSpline
 62
7
  6
BYLAYER
 70
0
 71
3
 72
11
 73
7
 74
0
 42
0.0000001
 43
0.0000001
 44
0.0000000001
 40
0.0
 40
0.0
 40
0.0
 40
0.0
 40
0.2895968593
 40
0.5491431104
 40
0.7822403441
 40
1.0
 40
1.0
 40
1.0
 40
1.0
 10
26.4915924712
 20
25.5693210939
 30
0.0
 10
26.4915924712
 20
25.5439964341
 30
0.0
 10
26.4954569326
 20
25.4958148133
 30
0.0
 10
26.5149350925
 20
25.4296102758
 30
0.0
 10
26.5477867653
 20
25.3758727583
 30
0.0
 10
26.5786702145
 20
25.3499718431
 30
0.0
 10
26.5951590757
 20
25.3404461064
 30
0.0
  0
SPLINE
  5
355
100
AcDbEntity
  8
0
100
AcDbSpline
 62
7
  6
BYLAYER
 70
0
 71
3
 72
13
 73
9
 74
0
 42
0.0000001
 43
0.0000001
 44
0.0000000001
 40
0.0
 40
0.0
 40
0.0
 40
0.0
 40
0.1151769586
 40
0.2391262636
 40
0.5015395259
 40
0.7631444034
 40
0.8861220467
 40
1.0
 40
1.0
 40
1.0
 40
1.0
 10
27.5427564812
 20
25.7681100992
 30
0.0
 10
27.5184091943
 20
25.7547706974
 30
0.0
 10
27.4654670616
 20
25.731333986
 30
0.0
 10
27.3490709782
 20
25.6976825678
 30
0.0
 10
27.1922449941
 20
25.6821079441
 30
0.0
 10
27.035866437
 20
25.6999448015
 30
0.0
 10
26.9207738527
 20
25.7353954135
 30
0.0
 10
26.8687977739
 20
25.7596577493
 30
0.0
 10
26.8450261816
 20
25.773381974
 30
0.0
  0
SPLINE
  5
356
100
AcDbEntity
  8
0
100
AcDbSpline
 62
7
  6
BYLAYER
 70
0
 71
3
 72
15
 73
11
 74
0
 42
0.0000001
 43
0.0000001
 44
0.0000000001
 40
0.0
 40
0.0
 40
0.0
 40
0.0
 40
0.1485659923
 40
0.2895105704
 40
0.4227294423
 40
0.5486402072
 40
0.6680024055
 40
0.7819397109
 40
0.8919877285
 40
1.0
 40
1.0
 40
1.0
 40
1.0
 10
16.1728352357
 20
19.1099840974
 30
0.0
 10
15.9755153957
 20
19.2239041829
 30
0.0
 10
15.5999348955
 20
19.4619877289
 30
0.0
 10
15.0864226083
 20
19.8593916274
 30
0.0
 10
14.6422670388
 20
20.284529748
 30
0.0
 10
14.2719437062
 20
20.733449088
 30
0.0
 10
13.979098113
 20
21.202130975
 30
0.0
 10
13.7671862828
 20
21.6864356125
 30
0.0
 10
13.6387590091
 20
22.181374362
 30
0.0
 10
13.6100136428
 20
22.5164704757
 30
0.0
 10
13.610002953
 20
22.682120444
 30
0.0
  0
ELLIPSE
  5
357
100
AcDbEntity
  8
0
100
AcDbEllipse
 62
7
  6
BYLAYER
 10
41.8717295036
 20
35.2638983217
 30
0.0
 11
-0.5003405027
 21
0.8666203242
 31
0.0
 40
0.5769613115
 41
-3.11543021
 42
-2.3565210051
  0
ELLIPSE
  5
358
100
AcDbEntity
  8
0
100
AcDbEllipse
 62
7
  6
BYLAYER
 10
41.8717295036
 20
55.0130920522
 30
0.0
 11
-0.4999977527
 21
0.8660267013
 31
0.0
 40
0.5777525591
 41
-2.3558506948
 42
-0.7857246547
  0
ENDSEC
  0
SECTION
  2
OBJECTS
  0
DICTIONARY
  5
C
100
AcDbDictionary
280
0
281
1
  3
ACAD_GROUP
350
D
  3
ACAD_MLINESTYLE
350
17
  3
ACAD_LAYOUT
350
1A
  3
ACAD_PLOTSETTINGS
350
19
  3
ACAD_PLOTSTYLENAME
350
E
  0
DICTIONARY
  5
D
102
{ACAD_REACTORS
330
C
102
}
100
AcDbDictionary
280
0
281
1
  0
ACDBDICTIONARYWDFLT
  5
E
102
{ACAD_REACTORS
330
C
102
}
100
AcDbDictionary
281
1
  3
Normal
350
F
100
AcDbDictionaryWithDefault
340
F
  0
DICTIONARY
  5
17
102
{ACAD_REACTORS
330
C
102
}
100
AcDbDictionary
280
0
281
1
  3
Standard
350
18
  0
DICTIONARY
  5
19
102
{ACAD_REACTORS
330
C
102
}
100
AcDbDictionary
281
1
  0
DICTIONARY
  5
1A
102
{ACAD_REACTORS
330
C
102
}
100
AcDbDictionary
281
1
  3
Model
350
359
  3
Layout1
350
35A
  0
ACDBPLACEHOLDER
  5
F
102
{ACAD_REACTORS
330
E
102
}
  0
MLINESTYLE
  5
18
102
{ACAD_REACTORS
330
17
102
}
100
AcDbMlineStyle
  2
STANDARD
 70
0
  3

 62
256
 51
90.0
 52
90.0
 71
2
 49
0.5
 62
256
  6
BYLAYER
 49
-0.5
 62
256
  6
BYLAYER
  0
LAYOUT
  5
359
102
{ACAD_REACTORS
330
1A
102
}
100
AcDbPlotSettings
  1

  2
none_device
  4

  6

 40
0.0
 41
0.0
 42
0.0
 43
0.0
 44
210.0
 45
297.0
 46
0.0
 47
0.0
 48
0.0
 49
0.0
140
0.0
141
0.0
142
1.0
143
1.0
 70
1024
 72
1
 73
0
 74
0
  7

 75
0
147
1.0
148
0.0
149
0.0
100
AcDbLayout
  1
Model
 70
0
 71
0
 10
0.0
 20
0.0
 11
210.0
 21
297.0
 12
0.0
 22
0.0
 32
0.0
 14
0.0
 24
0.0
 34
0.0
 15
0.0
 25
0.0
 35
0.0
146
0.0
 13
0.0
 23
0.0
 33
0.0
 16
1.0
 26
0.0
 36
0.0
 17
0.0
 27
1.0
 37
0.0
 76
0
330
210
345
0
346
0
  0
LAYOUT
  5
35A
102
{ACAD_REACTORS
330
1A
102
}
100
AcDbPlotSettings
  1

  2
none_device
  4

  6

 40
0.0
 41
0.0
 42
0.0
 43
0.0
 44
210.0
 45
297.0
 46
0.0
 47
0.0
 48
0.0
 49
0.0
140
0.0
141
0.0
142
1.0
143
1.0
 70
0
 72
1
 73
0
 74
0
  7

 75
0
147
1.0
148
0.0
149
0.0
100
AcDbLayout
  1
Layout1
 70
0
 71
1
 10
0.0
 20
0.0
 11
210.0
 21
297.0
 12
0.0
 22
0.0
 32
0.0
 14
0.0
 24
0.0
 34
0.0
 15
0.0
 25
0.0
 35
0.0
146
0.0
 13
0.0
 23
0.0
 33
0.0
 16
1.0
 26
0.0
 36
0.0
 17
0.0
 27
1.0
 37
0.0
 76
0
330
211
345
0
346
0
  0
ENDSEC
  0
EOF
