999
DXF file: C:\Users\sesa63760\Dev\_Creo\CAD\MCADID0004752_3D-CAD\drw0001_1.dxf
999
Pro/ENGINEER 2019471 by Parametric Technology Corporation
  0
SECTION
  2
HEADER
  9
$ACADVER
  1
AC1024
  9
$DWGCODEPAGE
  3
ANSI_1252
  9
$EXTMAX
 10
47.9775654201
 20
67.8539853798
 30
0.0
  9
$EXTMIN
 10
0.0
 20
0.0
 30
0.0
  9
$LIMMIN
 10
0.0
 20
0.0
  9
$LIMMAX
 10
47.9775654201
 20
67.8539853798
  9
$VIEWCTR
 10
23.98878271
 20
33.9269926899
  9
$VIEWSIZE
 40
67.8539853798
  9
$CLAYER
  8
0
  9
$LTSCALE
 40
4.4230746025
  9
$CELTYPE
  6
BYLAYER
  9
$DIMSCALE
 40
1.0
  9
$DIMASZ
 40
0.5711614931
  9
$DIMEXO
 40
1.0
  9
$DIMDLI
 40
3.0559424527
  9
$DIMEXE
 40
1.0
  9
$DIMCEN
 40
0.7237758441
  9
$DIMLFAC
 40
1.0
  9
$DIMBLK
  1
_FILLED
  9
$DIMALT
 70
0
  9
$DIMALTF
 40
0.0393700787
  9
$DIMTXT
 40
0.7996260903
  9
$DIMTOL
 70
1
  9
$DIMLIM
 70
0
  9
$DIMTFAC
 40
1.0
  9
$DIMTP
 40
0.01
  9
$DIMTM
 40
0.01
  9
$DIMGAP
 40
0.625
  9
$DIMDSEP
 70
46
  9
$AUNITS
 70
0
  9
$PDMODE
 70
3
  9
$PDSIZE
 40
0.3125
  9
$HANDSEED
  5
36C
  9
$TILEMODE
 70
1
  9
$MEASUREMENT
 70
1
  9
$INSUNITS
 70
4
  0
ENDSEC
  0
SECTION
  2
CLASSES
  0
CLASS
  1
ACDBDICTIONARYWDFLT
  2
AcDbDictionaryWithDefault
  3
AutoCAD 2000
 90
0
 91
1
280
0
281
0
  0
CLASS
  1
ACDBPLACEHOLDER
  2
AcDbPlaceHolder
  3
AutoCAD 2000
 90
0
 91
1
280
0
281
0
  0
CLASS
  1
LAYOUT
  2
AcDbLayout
  3
AutoCAD 2000
 90
0
 91
0
280
0
281
0
  0
ENDSEC
  0
SECTION
  2
TABLES
  0
TABLE
  2
VPORT
  5
8
100
AcDbSymbolTable
 70
2
  0
VPORT
  5
1F4
100
AcDbSymbolTableRecord
100
AcDbViewportTableRecord
  2
*ACTIVE
 70
0
 10
0.0
 20
0.0
 11
1.0
 21
1.0
 12
23.98878271
 22
33.9269926899
 13
0.0
 23
0.0
 14
1.0
 24
1.0
 15
0.0
 25
0.0
 16
0.0
 26
0.0
 36
1.0
 17
0.0
 27
0.0
 37
0.0
 40
67.8539853798
 41
0.7070707071
 42
50.0
 43
0.0
 44
0.0
 50
0.0
 51
0.0
 71
0
 72
100
 73
1
 74
1
 75
0
 76
0
 77
0
 78
0
  0
ENDTAB
  0
TABLE
  2
LTYPE
  5
5
100
AcDbSymbolTable
 70
6
  0
LTYPE
  5
14
100
AcDbSymbolTableRecord
100
AcDbLinetypeTableRecord
  2
BYBLOCK
 70
0
  3

 72
65
 73
0
 40
0.0
  0
LTYPE
  5
15
100
AcDbSymbolTableRecord
100
AcDbLinetypeTableRecord
  2
BYLAYER
 70
0
  3

 72
65
 73
0
 40
0.0
  0
LTYPE
  5
16
100
AcDbSymbolTableRecord
100
AcDbLinetypeTableRecord
  2
CONTINUOUS
 70
64
  3
Solid line
 72
65
 73
0
 40
0.0
  0
LTYPE
  5
1F5
100
AcDbSymbolTableRecord
100
AcDbLinetypeTableRecord
  2
CENTER
 70
64
  3
____ _ ____ _ ____ _ ____ _ ____ _ ____ _ ____
 72
65
 73
4
 40
0.6
 49
0.375
 74
0
 49
-0.075
 74
0
 49
0.075
 74
0
 49
-0.075
 74
0
  0
LTYPE
  5
1F6
100
AcDbSymbolTableRecord
100
AcDbLinetypeTableRecord
  2
HIDDEN
 70
64
  3
- - - - - - - - - - - - - - - - - - - -
 72
65
 73
2
 40
0.2
 49
0.1
 74
0
 49
-0.1
 74
0
  0
LTYPE
  5
1F7
100
AcDbSymbolTableRecord
100
AcDbLinetypeTableRecord
  2
PHANTOM
 70
64
  3
_____ _ _ _____ _ _ _____ _ _ _____
 72
65
 73
6
 40
0.8
 49
0.45
 74
0
 49
-0.05
 74
0
 49
0.1
 74
0
 49
-0.05
 74
0
 49
0.1
 74
0
 49
-0.05
 74
0
  0
LTYPE
  5
1F8
100
AcDbSymbolTableRecord
100
AcDbLinetypeTableRecord
  2
DOT
 70
64
  3
. . . . . . . . . . . . . . . . . . . .
 72
65
 73
2
 40
0.2
 49
0.1
 74
0
 49
-0.1
 74
0
  0
LTYPE
  5
1F9
100
AcDbSymbolTableRecord
100
AcDbLinetypeTableRecord
  2
DASHED
 70
64
  3
- - - - - - - - - - - - - - - - - - - -
 72
65
 73
2
 40
0.2
 49
0.1
 74
0
 49
-0.1
 74
0
  0
ENDTAB
  0
TABLE
  2
LAYER
  5
2
100
AcDbSymbolTable
 70
36
  0
LAYER
  5
10
100
AcDbSymbolTableRecord
100
AcDbLayerTableRecord
  2
0
 70
0
 62
7
  6
CONTINUOUS
370
-3
390
F
  0
LAYER
  5
1FA
100
AcDbSymbolTableRecord
100
AcDbLayerTableRecord
  2
DEFAULT_1
 70
0
 62
7
  6
CENTER
370
-3
390
F
  0
LAYER
  5
1FB
100
AcDbSymbolTableRecord
100
AcDbLayerTableRecord
  2
DEFAULT_2
 70
0
 62
7
  6
HIDDEN
370
-3
390
F
  0
LAYER
  5
1FC
100
AcDbSymbolTableRecord
100
AcDbLayerTableRecord
  2
DEFAULT_3
 70
0
 62
7
  6
PHANTOM
370
-3
390
F
  0
LAYER
  5
1FD
100
AcDbSymbolTableRecord
100
AcDbLayerTableRecord
  2
00_COMPONENTS
 70
0
 62
7
  6
CONTINUOUS
370
-3
390
F
  0
LAYER
  5
1FE
100
AcDbSymbolTableRecord
100
AcDbLayerTableRecord
  2
01_1_DEFAULT_DATUMS
 70
0
 62
7
  6
CONTINUOUS
370
-3
390
F
  0
LAYER
  5
1FF
100
AcDbSymbolTableRecord
100
AcDbLayerTableRecord
  2
01_PLANES
 70
0
 62
7
  6
CONTINUOUS
370
-3
390
F
  0
LAYER
  5
200
100
AcDbSymbolTableRecord
100
AcDbLayerTableRecord
  2
02_COORD_SYS
 70
0
 62
7
  6
CONTINUOUS
370
-3
390
F
  0
LAYER
  5
201
100
AcDbSymbolTableRecord
100
AcDbLayerTableRecord
  2
03_AXES
 70
0
 62
7
  6
CONTINUOUS
370
-3
390
F
  0
LAYER
  5
202
100
AcDbSymbolTableRecord
100
AcDbLayerTableRecord
  2
04_POINTS
 70
0
 62
7
  6
CONTINUOUS
370
-3
390
F
  0
LAYER
  5
203
100
AcDbSymbolTableRecord
100
AcDbLayerTableRecord
  2
05_CURVES
 70
0
 62
7
  6
CONTINUOUS
370
-3
390
F
  0
LAYER
  5
204
100
AcDbSymbolTableRecord
100
AcDbLayerTableRecord
  2
06_SURFS
 70
0
 62
7
  6
CONTINUOUS
370
-3
390
F
  0
LAYER
  5
205
100
AcDbSymbolTableRecord
100
AcDbLayerTableRecord
  2
07_COSMETICS
 70
0
 62
7
  6
CONTINUOUS
370
-3
390
F
  0
LAYER
  5
206
100
AcDbSymbolTableRecord
100
AcDbLayerTableRecord
  2
10_NOTES
 70
0
 62
7
  6
CONTINUOUS
370
-3
390
F
  0
LAYER
  5
207
100
AcDbSymbolTableRecord
100
AcDbLayerTableRecord
  2
11_NOTES_PUB
 70
0
 62
7
  6
CONTINUOUS
370
-3
390
F
  0
LAYER
  5
208
100
AcDbSymbolTableRecord
100
AcDbLayerTableRecord
  2
13_REF_GTOL
 70
0
 62
7
  6
CONTINUOUS
370
-3
390
F
  0
LAYER
  5
209
100
AcDbSymbolTableRecord
100
AcDbLayerTableRecord
  2
16_MISC
 70
0
 62
7
  6
CONTINUOUS
370
-3
390
F
  0
LAYER
  5
20A
100
AcDbSymbolTableRecord
100
AcDbLayerTableRecord
  2
17_NO_PRINT
 70
0
 62
7
  6
CONTINUOUS
370
-3
390
F
  0
LAYER
  5
20B
100
AcDbSymbolTableRecord
100
AcDbLayerTableRecord
  2
18_DATUM_CAMS_JOINTS
 70
0
 62
7
  6
CONTINUOUS
370
-3
390
F
  0
LAYER
  5
20C
100
AcDbSymbolTableRecord
100
AcDbLayerTableRecord
  2
19_DATUM_FUNCTIONAL
 70
0
 62
7
  6
CONTINUOUS
370
-3
390
F
  0
LAYER
  5
20D
100
AcDbSymbolTableRecord
100
AcDbLayerTableRecord
  2
20_DATUM_KINEMATIC_SCHEME
 70
0
 62
7
  6
CONTINUOUS
370
-3
390
F
  0
ENDTAB
  0
TABLE
  2
STYLE
  5
3
100
AcDbSymbolTable
 70
1
  0
STYLE
  5
11
100
AcDbSymbolTableRecord
100
AcDbTextStyleTableRecord
  2
STANDARD
 70
0
 40
0.0
 41
1.0
 50
0.0
 71
0
 42
0.2
  3
ARIAL.TTF
  4

  0
STYLE
  5
20E
100
AcDbSymbolTableRecord
100
AcDbTextStyleTableRecord
  2
TEXTSTYLE_1
 70
0
 40
0.0
 41
0.8
 50
0.0
 71
0
 42
0.2
  3
gdt
  4

  0
ENDTAB
  0
TABLE
  2
VIEW
  5
6
100
AcDbSymbolTable
 70
0
  0
ENDTAB
  0
TABLE
  2
UCS
  5
7
100
AcDbSymbolTable
 70
0
  0
ENDTAB
  0
TABLE
  2
APPID
  5
9
100
AcDbSymbolTable
 70
1
  0
APPID
  5
20F
100
AcDbSymbolTableRecord
100
AcDbRegAppTableRecord
  2
ACAD
 70
0
  0
ENDTAB
  0
TABLE
  2
BLOCK_RECORD
  5
1
100
AcDbSymbolTable
 70
0
  0
BLOCK_RECORD
  5
210
100
AcDbSymbolTableRecord
100
AcDbBlockTableRecord
  2
*Model_Space
  0
BLOCK_RECORD
  5
211
100
AcDbSymbolTableRecord
100
AcDbBlockTableRecord
  2
*Paper_Space
  0
BLOCK_RECORD
  5
212
100
AcDbSymbolTableRecord
100
AcDbBlockTableRecord
  2
_FILLED
  0
ENDTAB
  0
TABLE
  2
DIMSTYLE
  5
A
100
AcDbSymbolTable
 70
1
100
AcDbDimStyleTable
 71
0
  0
DIMSTYLE
105
213
100
AcDbSymbolTableRecord
100
AcDbDimStyleTableRecord
  2
STANDARD
 70
0
  3

  4

 40
1.0
 41
0.5711614931
 42
1.0
 43
0.38
 44
1.0
 45
0.0
 46
0.0
 47
0.01
 48
0.01
140
0.7996260903
141
0.09
142
0.0
143
25.4
144
1.0
145
0.0
146
1.0
147
0.625
 71
1
 72
0
 73
0
 74
0
 75
0
 76
0
 77
1
 78
8
 79
2
170
0
171
1
172
0
173
0
174
0
175
0
176
0
177
0
178
0
270
2
179
2
271
2
272
2
273
2
274
2
275
0
280
0
281
0
282
0
283
1
284
8
285
0
286
0
287
3
288
0
340
11
278
46
341
212
342
212
343
212
344
212
  0
ENDTAB
  0
ENDSEC
  0
SECTION
  2
BLOCKS
  0
BLOCK
  5
20
100
AcDbEntity
  8
0
100
AcDbBlockBegin
  2
*Model_Space
 70
0
 10
0.0
 20
0.0
 30
0.0
  3
*Model_Space
  1

  0
ENDBLK
  5
21
100
AcDbEntity
  8
0
100
AcDbBlockEnd
  0
BLOCK
  5
1C
100
AcDbEntity
  8
0
100
AcDbBlockBegin
  2
*Paper_Space
 70
0
 10
0.0
 20
0.0
 30
0.0
  3
*Paper_Space
  1

  0
ENDBLK
  5
1D
100
AcDbEntity
  8
0
100
AcDbBlockEnd
  0
BLOCK
  5
214
100
AcDbEntity
  8
0
100
AcDbBlockBegin
  2
_FILLED
 70
64
 10
0.0
 20
0.0
  3
_FILLED
  1

  0
SOLID
  5
215
100
AcDbEntity
  8
0
  6
BYBLOCK
 62
0
100
AcDbTrace
 10
0.0
 20
0.0
 11
-1.0
 21
0.25
 12
-1.0
 22
-0.25
 13
-1.0
 23
-0.25
  0
ENDBLK
  5
216
100
AcDbEntity
  8
0
  6
BYBLOCK
 62
0
100
AcDbBlockEnd
  0
ENDSEC
  0
SECTION
  2
ENTITIES
  0
LWPOLYLINE
  5
217
100
AcDbEntity
  8
0
100
AcDbPolyline
 62
7
  6
BYLAYER
 90
5
 70
0
 10
8.3232644169
 20
47.9953319953
 10
7.5311598637
 20
47.4558652762
 10
6.2720995471
 20
46.0396780037
 10
5.8767958227
 20
45.2364066818
 10
5.5660371214
 20
43.5366915164
  0
LINE
  5
218
100
AcDbEntity
  8
0
100
AcDbLine
 62
7
  6
BYLAYER
 10
8.3232999897
 20
47.9953525343
 11
8.3232644169
 21
47.9953319953
  0
LINE
  5
219
100
AcDbEntity
  8
0
100
AcDbLine
 62
7
  6
BYLAYER
 10
5.5659490969
 20
43.5653988457
 11
5.5659489299
 21
30.3415643716
  0
LINE
  5
21A
100
AcDbEntity
  8
0
100
AcDbLine
 62
7
  6
BYLAYER
 10
6.6445371427
 20
28.0815837678
 11
6.6445371427
 21
27.3603637529
  0
LINE
  5
21B
100
AcDbEntity
  8
0
100
AcDbLine
 62
7
  6
BYLAYER
 10
6.820573291
 20
27.1150027192
 11
6.820573291
 21
27.9411811452
  0
LINE
  5
21C
100
AcDbEntity
  8
0
100
AcDbLine
 62
7
  6
BYLAYER
 10
7.8941329519
 20
26.0649083981
 11
7.8380052339
 21
26.1669241983
  0
LINE
  5
21D
100
AcDbEntity
  8
0
100
AcDbLine
 62
7
  6
BYLAYER
 10
6.8513522315
 20
27.0319961415
 11
6.820573291
 21
27.1150027192
  0
LWPOLYLINE
  5
21E
100
AcDbEntity
  8
0
100
AcDbPolyline
 62
7
  6
BYLAYER
 90
9
 70
0
 10
7.3295542009
 20
25.1573598285
 10
7.6542765977
 20
24.2673929554
 10
8.7275156369
 20
23.2315785199
 10
9.4681810839
 20
22.8052523514
 10
11.2582282993
 20
22.1904023028
 10
13.3003789096
 20
21.9429383785
 10
15.367267309
 20
22.0903293209
 10
17.2515036052
 20
22.6204180672
 10
18.0560956846
 20
23.0135215611
  0
LINE
  5
21F
100
AcDbEntity
  8
0
100
AcDbLine
 62
7
  6
BYLAYER
 10
7.3801037484
 20
26.937599333
 11
7.5579734571
 21
26.4501117123
  0
LINE
  5
220
100
AcDbEntity
  8
0
100
AcDbLine
 62
7
  6
BYLAYER
 10
7.5579734571
 20
26.3776201847
 11
7.5815235745
 21
26.3000329654
  0
LINE
  5
221
100
AcDbEntity
  8
0
100
AcDbLine
 62
7
  6
BYLAYER
 10
6.6445371427
 20
27.3603637529
 11
6.660481484
 21
27.2975918818
  0
LINE
  5
222
100
AcDbEntity
  8
0
100
AcDbLine
 62
7
  6
BYLAYER
 10
7.2159489299
 20
26.9417368369
 11
7.2159489299
 21
26.5856532528
  0
LINE
  5
223
100
AcDbEntity
  8
0
100
AcDbLine
 62
7
  6
BYLAYER
 10
7.2159489299
 20
25.335480909
 11
7.2159489299
 21
25.115948902
  0
LINE
  5
224
100
AcDbEntity
  8
0
100
AcDbLine
 62
7
  6
BYLAYER
 10
7.5579734571
 20
27.3530467292
 11
7.5579734571
 21
26.3776201847
  0
LINE
  5
225
100
AcDbEntity
  8
0
100
AcDbLine
 62
7
  6
BYLAYER
 10
7.8159489299
 20
23.622688046
 11
7.8159489299
 21
22.3806658046
  0
LINE
  5
226
100
AcDbEntity
  8
0
100
AcDbLine
 62
7
  6
BYLAYER
 10
7.8380052339
 20
26.1669241983
 11
7.8380052339
 21
27.1296994437
  0
LINE
  5
227
100
AcDbEntity
  8
0
100
AcDbLine
 62
7
  6
BYLAYER
 10
7.9091182322
 20
31.8884427657
 11
7.9091182322
 21
40.0478963642
  0
LINE
  5
228
100
AcDbEntity
  8
0
100
AcDbLine
 62
7
  6
BYLAYER
 10
14.7071915644
 20
20.7391409091
 11
14.7072051283
 21
20.739133078
  0
LINE
  5
229
100
AcDbEntity
  8
0
100
AcDbLine
 62
7
  6
BYLAYER
 10
14.9894757963
 20
20.6607156162
 11
14.655349621
 21
20.8536190894
  0
LWPOLYLINE
  5
22A
100
AcDbEntity
  8
0
100
AcDbPolyline
 62
7
  6
BYLAYER
 90
3
 70
0
 10
14.7071880547
 20
20.739138328
 10
14.6574098089
 20
20.7851563691
 10
14.6553379992
 20
20.7940030998
  0
LINE
  5
22B
100
AcDbEntity
  8
0
100
AcDbLine
 62
7
  6
BYLAYER
 10
8.8808433714
 20
25.5648549395
 11
8.8965886595
 21
25.4855295219
  0
LINE
  5
22C
100
AcDbEntity
  8
0
100
AcDbLine
 62
7
  6
BYLAYER
 10
10.5131876433
 20
24.9438358712
 11
10.4883218572
 21
25.2726123637
  0
LINE
  5
22D
100
AcDbEntity
  8
0
100
AcDbLine
 62
7
  6
BYLAYER
 10
8.6140011704
 20
26.7805248145
 11
8.6140011704
 21
26.1029482189
  0
LINE
  5
22E
100
AcDbEntity
  8
0
100
AcDbLine
 62
7
  6
BYLAYER
 10
8.8158256629
 20
20.5099681834
 11
8.8158256629
 21
22.6918043932
  0
LINE
  5
22F
100
AcDbEntity
  8
0
100
AcDbLine
 62
7
  6
BYLAYER
 10
8.8808433714
 20
26.6680979991
 11
8.8808433714
 21
25.5648549395
  0
LINE
  5
230
100
AcDbEntity
  8
0
100
AcDbLine
 62
7
  6
BYLAYER
 10
9.2457870738
 20
25.4031825836
 11
9.2457870738
 21
26.5143387432
  0
LINE
  5
231
100
AcDbEntity
  8
0
100
AcDbLine
 62
7
  6
BYLAYER
 10
9.9508149963
 20
26.2246587756
 11
9.9508149963
 21
25.4517770333
  0
LINE
  5
232
100
AcDbEntity
  8
0
100
AcDbLine
 62
7
  6
BYLAYER
 10
10.5192147678
 20
24.8985803666
 11
10.5131876508
 21
24.9438357729
  0
LINE
  5
233
100
AcDbEntity
  8
0
100
AcDbLine
 62
7
  6
BYLAYER
 10
10.3257988365
 20
22.0212652849
 11
10.3257988365
 21
19.6382044871
  0
LINE
  5
234
100
AcDbEntity
  8
0
100
AcDbLine
 62
7
  6
BYLAYER
 10
10.4883218572
 20
25.2726123637
 11
10.4883218572
 21
26.1233302728
  0
LINE
  5
235
100
AcDbEntity
  8
0
100
AcDbLine
 62
7
  6
BYLAYER
 10
10.5229954869
 20
26.1167937479
 11
10.5229954869
 21
24.9774566255
  0
LINE
  5
236
100
AcDbEntity
  8
0
100
AcDbLine
 62
7
  6
BYLAYER
 10
10.9479808048
 20
24.8758256039
 11
10.9479808048
 21
26.0366773268
  0
LINE
  5
237
100
AcDbEntity
  8
0
100
AcDbLine
 62
7
  6
BYLAYER
 10
11.5339942256
 20
25.9262045741
 11
11.5339942256
 21
25.0225501932
  0
LWPOLYLINE
  5
238
100
AcDbEntity
  8
0
100
AcDbPolyline
 62
7
  6
BYLAYER
 90
3
 70
0
 10
28.0665870404
 20
21.4146814305
 10
29.7062289865
 20
21.7193462939
 10
30.3209337478
 20
22.0742441349
  0
LINE
  5
239
100
AcDbEntity
  8
0
100
AcDbLine
 62
7
  6
BYLAYER
 10
27.5706009526
 20
21.376207846
 11
27.5604456037
 21
21.3758129989
  0
LINE
  5
23A
100
AcDbEntity
  8
0
100
AcDbLine
 62
7
  6
BYLAYER
 10
27.6988194788
 20
21.3539458093
 11
27.5714559892
 21
21.3542165619
  0
LINE
  5
23B
100
AcDbEntity
  8
0
100
AcDbLine
 62
7
  6
BYLAYER
 10
10.466833478
 20
25.2104114452
 11
9.8531422468
 21
25.4224216559
  0
LINE
  5
23C
100
AcDbEntity
  8
0
100
AcDbLine
 62
7
  6
BYLAYER
 10
27.5715786273
 20
21.3618370801
 11
27.7473848196
 21
21.3591181861
  0
LINE
  5
23D
100
AcDbEntity
  8
0
100
AcDbLine
 62
7
  6
BYLAYER
 10
27.9791103239
 20
21.3561617396
 11
28.1149491528
 21
21.3530611899
  0
LINE
  5
23E
100
AcDbEntity
  8
0
100
AcDbLine
 62
7
  6
BYLAYER
 10
27.2839008551
 20
21.3671678082
 11
27.5714559892
 21
21.3542165619
  0
LINE
  5
23F
100
AcDbEntity
  8
0
100
AcDbLine
 62
7
  6
BYLAYER
 10
8.0575046475
 20
26.0317187981
 11
7.8941329519
 21
26.0649083981
  0
LWPOLYLINE
  5
240
100
AcDbEntity
  8
0
100
AcDbPolyline
 62
7
  6
BYLAYER
 90
3
 70
0
 10
10.5013686453
 20
24.9000681499
 10
10.4047503328
 20
24.9261589513
 10
9.6516250156
 20
25.3618559976
  0
LINE
  5
241
100
AcDbEntity
  8
0
100
AcDbLine
 62
7
  6
BYLAYER
 10
16.0182126361
 20
24.8002311471
 11
15.5979567962
 21
25.0225599618
  0
LINE
  5
242
100
AcDbEntity
  8
0
100
AcDbLine
 62
7
  6
BYLAYER
 10
18.7366925821
 20
22.9879562391
 11
18.8785469011
 21
22.9060584626
  0
LINE
  5
243
100
AcDbEntity
  8
0
100
AcDbLine
 62
7
  6
BYLAYER
 10
14.4435041971
 20
20.6511936063
 11
14.4435041971
 21
21.5349809146
  0
LINE
  5
244
100
AcDbEntity
  8
0
100
AcDbLine
 62
7
  6
BYLAYER
 10
14.655349621
 20
20.7938326049
 11
14.655349621
 21
21.5502044934
  0
LINE
  5
245
100
AcDbEntity
  8
0
100
AcDbLine
 62
7
  6
BYLAYER
 10
16.1181613882
 20
24.7803352214
 11
16.0182125617
 21
24.8002311864
  0
LINE
  5
246
100
AcDbEntity
  8
0
100
AcDbLine
 62
7
  6
BYLAYER
 10
17.6867345101
 20
25.299838884
 11
17.1811298348
 21
25.4517944128
  0
LINE
  5
247
100
AcDbEntity
  8
0
100
AcDbLine
 62
7
  6
BYLAYER
 10
27.8394302792
 20
21.6457169521
 11
26.9220566494
 21
21.9582245202
  0
LINE
  5
248
100
AcDbEntity
  8
0
100
AcDbLine
 62
7
  6
BYLAYER
 10
25.0820605561
 20
21.0574115293
 11
12.6203996175
 21
28.2519920636
  0
LINE
  5
249
100
AcDbEntity
  8
0
100
AcDbLine
 62
7
  6
BYLAYER
 10
24.1271831746
 20
21.9173047741
 11
9.7236457142
 21
30.2330028779
  0
LINE
  5
24A
100
AcDbEntity
  8
0
100
AcDbLine
 62
7
  6
BYLAYER
 10
23.9251535068
 20
22.641789682
 11
7.9091182322
 21
31.8884427657
  0
LINE
  5
24B
100
AcDbEntity
  8
0
100
AcDbLine
 62
7
  6
BYLAYER
 10
25.8088286556
 20
21.9079846725
 11
26.1270280319
 21
21.724276333
  0
LWPOLYLINE
  5
24C
100
AcDbEntity
  8
0
100
AcDbPolyline
 62
7
  6
BYLAYER
 90
4
 70
0
 10
26.1259727529
 20
21.7224519207
 10
25.0043631037
 20
22.371214859
 10
24.2039155499
 20
23.7214418124
 10
23.9251535068
 20
25.5857310118
  0
LINE
  5
24D
100
AcDbEntity
  8
0
100
AcDbLine
 62
7
  6
BYLAYER
 10
15.5979567962
 20
25.0225599618
 11
15.5979567962
 21
25.9256669612
  0
LINE
  5
24E
100
AcDbEntity
  8
0
100
AcDbLine
 62
7
  6
BYLAYER
 10
16.1839746884
 20
26.0358498895
 11
16.1839746884
 21
24.8758381897
  0
LINE
  5
24F
100
AcDbEntity
  8
0
100
AcDbLine
 62
7
  6
BYLAYER
 10
9.4452123649
 20
25.2998190294
 11
9.3143951798
 21
25.3005559674
  0
LINE
  5
250
100
AcDbEntity
  8
0
100
AcDbLine
 62
7
  6
BYLAYER
 10
24.1271831746
 20
21.9173047741
 11
25.0820877305
 21
21.0574585858
  0
LINE
  5
251
100
AcDbEntity
  8
0
100
AcDbLine
 62
7
  6
BYLAYER
 10
16.6089585404
 20
24.9774712543
 11
16.6089585404
 21
25.9492485908
  0
LINE
  5
252
100
AcDbEntity
  8
0
100
AcDbLine
 62
7
  6
BYLAYER
 10
16.643625558
 20
25.9292340316
 11
16.643625558
 21
25.2726271593
  0
LINE
  5
253
100
AcDbEntity
  8
0
100
AcDbLine
 62
7
  6
BYLAYER
 10
17.1811298348
 20
25.4517944128
 11
17.1811298348
 21
25.6189128131
  0
LINE
  5
254
100
AcDbEntity
  8
0
100
AcDbLine
 62
7
  6
BYLAYER
 10
16.643625558
 20
25.2726271593
 11
16.6187645138
 21
24.943850549
  0
LINE
  5
255
100
AcDbEntity
  8
0
100
AcDbLine
 62
7
  6
BYLAYER
 10
16.6187645121
 20
24.9438505265
 11
16.6127408561
 21
24.8986896146
  0
LINE
  5
256
100
AcDbEntity
  8
0
100
AcDbLine
 62
7
  6
BYLAYER
 10
16.6386248264
 20
25.206494636
 11
15.7333338122
 21
24.9509411795
  0
LINE
  5
257
100
AcDbEntity
  8
0
100
AcDbLine
 62
7
  6
BYLAYER
 10
11.1137414694
 20
24.8002192932
 11
11.0138401991
 21
24.780424523
  0
LWPOLYLINE
  5
258
100
AcDbEntity
  8
0
100
AcDbPolyline
 62
7
  6
BYLAYER
 90
8
 70
0
 10
16.3914042981
 20
26.0748507496
 10
14.8255518505
 20
25.7804395887
 10
12.3080360829
 20
25.7802855018
 10
9.9191808454
 20
26.2306223109
 10
7.8970862137
 20
27.0825777326
 10
6.4328996079
 20
28.250381286
 10
5.6637418972
 20
29.6216086595
 10
5.5659525255
 20
30.3415643717
  0
LINE
  5
259
100
AcDbEntity
  8
0
100
AcDbLine
 62
7
  6
BYLAYER
 10
7.5579734571
 20
26.9331161468
 11
7.0451884635
 21
26.9460408354
  0
LINE
  5
25A
100
AcDbEntity
  8
0
100
AcDbLine
 62
7
  6
BYLAYER
 10
27.0441637814
 20
23.9660453588
 11
31.6403769948
 21
21.3124804545
  0
LINE
  5
25B
100
AcDbEntity
  8
0
100
AcDbLine
 62
7
  6
BYLAYER
 10
30.7154458586
 20
22.4842423484
 11
26.3313503748
 21
25.015343795
  0
LINE
  5
25C
100
AcDbEntity
  8
0
100
AcDbLine
 62
7
  6
BYLAYER
 10
19.3159489299
 20
23.674145004
 11
19.3159489299
 21
22.3806658046
  0
LINE
  5
25D
100
AcDbEntity
  8
0
100
AcDbLine
 62
7
  6
BYLAYER
 10
8.6140011704
 20
26.1029482189
 11
8.0575048027
 21
26.0317188179
  0
LINE
  5
25E
100
AcDbEntity
  8
0
100
AcDbLine
 62
7
  6
BYLAYER
 10
37.2772353954
 20
19.790153375
 11
37.4815542906
 21
19.6721924744
  0
LINE
  5
25F
100
AcDbEntity
  8
0
100
AcDbLine
 62
7
  6
BYLAYER
 10
27.4408660139
 20
25.6559191242
 11
31.5601911811
 21
23.277679433
  0
LINE
  5
260
100
AcDbEntity
  8
0
100
AcDbLine
 62
7
  6
BYLAYER
 10
31.5601911811
 20
23.3439317021
 11
30.4327477307
 21
23.994846756
  0
LWPOLYLINE
  5
261
100
AcDbEntity
  8
0
100
AcDbPolyline
 62
7
  6
BYLAYER
 90
3
 70
0
 10
25.4889883115
 20
23.2090428263
 10
26.3708173329
 20
21.9544860181
 10
27.6988749641
 20
21.3811944181
  0
LWPOLYLINE
  5
262
100
AcDbEntity
  8
0
100
AcDbPolyline
 62
7
  6
BYLAYER
 90
3
 70
0
 10
25.5933948335
 20
23.241026513
 10
26.4591036667
 20
22.0094035064
 10
27.7604020973
 20
21.4420321307
  0
LINE
  5
263
100
AcDbEntity
  8
0
100
AcDbLine
 62
7
  6
BYLAYER
 10
26.3313503748
 20
27.9547524966
 11
30.7154458562
 21
25.4236510515
  0
LINE
  5
264
100
AcDbEntity
  8
0
100
AcDbLine
 62
7
  6
BYLAYER
 10
32.5187208089
 20
25.6482953429
 11
36.9381640046
 21
23.096786347
  0
LINE
  5
265
100
AcDbEntity
  8
0
100
AcDbLine
 62
7
  6
BYLAYER
 10
7.9091182322
 20
40.0478963642
 11
23.9251535068
 21
30.8012432743
  0
LINE
  5
266
100
AcDbEntity
  8
0
100
AcDbLine
 62
7
  6
BYLAYER
 10
23.9251535068
 20
30.8012432743
 11
23.9251535068
 21
22.641789682
  0
LINE
  5
267
100
AcDbEntity
  8
0
100
AcDbLine
 62
7
  6
BYLAYER
 10
9.0376273866
 20
42.2987720259
 11
25.0536626612
 21
33.052118936
  0
LINE
  5
268
100
AcDbEntity
  8
0
100
AcDbLine
 62
7
  6
BYLAYER
 10
25.2550513179
 20
25.0063340544
 11
25.5933948335
 21
23.241026513
  0
LINE
  5
269
100
AcDbEntity
  8
0
100
AcDbLine
 62
7
  6
BYLAYER
 10
25.1479974147
 20
25.0102658124
 11
25.4889883115
 21
23.2090428263
  0
LWPOLYLINE
  5
26A
100
AcDbEntity
  8
0
100
AcDbPolyline
 62
7
  6
BYLAYER
 90
8
 70
0
 10
23.9251535068
 20
25.5857310152
 10
24.2014681764
 20
27.7618064959
 10
25.0021092348
 20
30.0415153093
 10
26.260733675
 20
32.2218249654
 10
27.8451667388
 20
34.0654543499
 10
29.5940334969
 20
35.3906401417
 10
31.3374803805
 20
36.0747312563
 10
32.9095840639
 20
36.055192572
  0
LINE
  5
26B
100
AcDbEntity
  8
0
100
AcDbLine
 62
7
  6
BYLAYER
 10
27.8394302792
 20
31.7593683301
 11
27.7604020973
 21
31.871799812
  0
LINE
  5
26C
100
AcDbEntity
  8
0
100
AcDbLine
 62
7
  6
BYLAYER
 10
11.5339942256
 20
25.0225501932
 11
11.1137415866
 21
24.8002193552
  0
LINE
  5
26D
100
AcDbEntity
  8
0
100
AcDbLine
 62
7
  6
BYLAYER
 10
36.9592516796
 20
29.2112892687
 11
41.4814864225
 21
26.6004348879
  0
LINE
  5
26E
100
AcDbEntity
  8
0
100
AcDbLine
 62
7
  6
BYLAYER
 10
28.1456152223
 20
32.1402688385
 11
28.0665870404
 21
32.2527003204
  0
LINE
  5
26F
100
AcDbEntity
  8
0
100
AcDbLine
 62
7
  6
BYLAYER
 10
9.9508149963
 20
25.4517770333
 11
9.4452125059
 21
25.2998190718
  0
LINE
  5
270
100
AcDbEntity
  8
0
100
AcDbLine
 62
7
  6
BYLAYER
 10
33.3044453603
 20
34.9145774242
 11
34.2218189901
 21
34.6020698561
  0
LINE
  5
271
100
AcDbEntity
  8
0
100
AcDbLine
 62
7
  6
BYLAYER
 10
32.5440704627
 20
33.4923786774
 11
37.1402836762
 21
30.838813773
  0
LINE
  5
272
100
AcDbEntity
  8
0
100
AcDbLine
 62
7
  6
BYLAYER
 10
26.0524753133
 20
27.7937406331
 11
26.3313522076
 21
27.954749322
  0
LINE
  5
273
100
AcDbEntity
  8
0
100
AcDbLine
 62
7
  6
BYLAYER
 10
17.4550524183
 20
25.2793068827
 11
16.3536408858
 21
24.8340409767
  0
LINE
  5
274
100
AcDbEntity
  8
0
100
AcDbLine
 62
7
  6
BYLAYER
 10
33.7086946161
 20
35.5912634392
 11
34.0268939924
 21
35.4075550996
  0
LINE
  5
275
100
AcDbEntity
  8
0
100
AcDbLine
 62
7
  6
BYLAYER
 10
32.9095840639
 20
36.055192572
 11
34.027484121
 21
35.4085753398
  0
LINE
  5
276
100
AcDbEntity
  8
0
100
AcDbLine
 62
7
  6
BYLAYER
 10
31.5601911811
 20
23.1566948795
 11
31.5601911811
 21
25.4393642471
  0
LINE
  5
277
100
AcDbEntity
  8
0
100
AcDbLine
 62
7
  6
BYLAYER
 10
27.8394302792
 20
21.6457169521
 11
27.7604020973
 21
21.4420321307
  0
LINE
  5
278
100
AcDbEntity
  8
0
100
AcDbLine
 62
7
  6
BYLAYER
 10
32.9982604172
 20
34.9419281244
 11
33.0772885991
 21
35.1456129458
  0
LINE
  5
279
100
AcDbEntity
  8
0
100
AcDbLine
 62
7
  6
BYLAYER
 10
33.3834735422
 20
35.1182622456
 11
33.3044453603
 21
34.9145774242
  0
LINE
  5
27A
100
AcDbEntity
  8
0
100
AcDbLine
 62
7
  6
BYLAYER
 10
28.1456152223
 20
21.6183662519
 11
28.0665870404
 21
21.4146814305
  0
LINE
  5
27B
100
AcDbEntity
  8
0
100
AcDbLine
 62
7
  6
BYLAYER
 10
25.4131076817
 20
25.5058386024
 11
25.2550513179
 21
25.4145852629
  0
LINE
  5
27C
100
AcDbEntity
  8
0
100
AcDbLine
 62
7
  6
BYLAYER
 10
42.0248835112
 20
26.0335955479
 11
41.4814864225
 21
26.6004348879
  0
LINE
  5
27D
100
AcDbEntity
  8
0
100
AcDbLine
 62
7
  6
BYLAYER
 10
25.4131076817
 20
25.0975873938
 11
25.2550513179
 21
25.0063340544
  0
LINE
  5
27E
100
AcDbEntity
  8
0
100
AcDbLine
 62
7
  6
BYLAYER
 10
27.1340060196
 20
25.9686516989
 11
26.0524753133
 21
25.3442333817
  0
LINE
  5
27F
100
AcDbEntity
  8
0
100
AcDbLine
 62
7
  6
BYLAYER
 10
26.3313503748
 20
25.015343795
 11
27.4408660139
 21
25.6559191242
  0
LINE
  5
280
100
AcDbEntity
  8
0
100
AcDbLine
 62
7
  6
BYLAYER
 10
34.1103057479
 20
38.2809430482
 11
18.0942704733
 21
47.5275961381
  0
LINE
  5
281
100
AcDbEntity
  8
0
100
AcDbLine
 62
7
  6
BYLAYER
 10
34.8245902608
 20
38.2487220319
 11
18.8085549862
 21
47.4953751217
  0
LWPOLYLINE
  5
282
100
AcDbEntity
  8
0
100
AcDbPolyline
 62
7
  6
BYLAYER
 90
3
 70
0
 10
35.550480806
 20
33.3192678633
 10
34.6847719728
 20
34.5508908699
 10
34.6253726189
 20
34.5767892283
  0
LINE
  5
283
100
AcDbEntity
  8
0
100
AcDbLine
 62
7
  6
BYLAYER
 10
35.3423663894
 20
33.8715982519
 11
35.069610016
 21
34.3416941086
  0
LINE
  5
284
100
AcDbEntity
  8
0
100
AcDbLine
 62
7
  6
BYLAYER
 10
35.2388149022
 20
37.3331497362
 11
35.2388149022
 21
34.0500693339
  0
LINE
  5
285
100
AcDbEntity
  8
0
100
AcDbLine
 62
7
  6
BYLAYER
 10
31.5601911811
 20
25.1356698676
 11
30.127940764
 21
24.3087646397
  0
LINE
  5
286
100
AcDbEntity
  8
0
100
AcDbLine
 62
7
  6
BYLAYER
 10
32.1811188883
 20
25.4533819466
 11
32.532056035
 21
25.6559943933
  0
LINE
  5
287
100
AcDbEntity
  8
0
100
AcDbLine
 62
7
  6
BYLAYER
 10
37.8246551223
 20
28.7116596612
 11
38.0137612331
 21
28.8208394735
  0
LWPOLYLINE
  5
288
100
AcDbEntity
  8
0
100
AcDbPolyline
 62
7
  6
BYLAYER
 90
6
 70
0
 10
18.808720012
 20
47.4952798181
 10
16.6852352195
 20
48.4257542376
 10
14.2458724329
 20
48.9688509313
 10
12.9694955832
 20
49.0619322918
 10
10.4577968911
 20
48.8171869443
 10
8.3232998609
 20
47.9953527475
  0
LINE
  5
289
100
AcDbEntity
  8
0
100
AcDbLine
 62
7
  6
BYLAYER
 10
35.8837629031
 20
31.5803682762
 11
35.550480806
 21
33.3192678633
  0
LINE
  5
28A
100
AcDbEntity
  8
0
100
AcDbLine
 62
7
  6
BYLAYER
 10
30.4327477307
 20
23.994846756
 11
31.5601911811
 21
24.6457726502
  0
LWPOLYLINE
  5
28B
100
AcDbEntity
  8
0
100
AcDbPolyline
 62
7
  6
BYLAYER
 90
3
 70
0
 10
30.3552626421
 20
22.0544247869
 10
29.7618286626
 20
21.7027134126
 10
28.1149491529
 20
21.3530611899
  0
LINE
  5
28C
100
AcDbEntity
  8
0
100
AcDbLine
 62
7
  6
BYLAYER
 10
28.4249453752
 20
20.9576251608
 11
29.6885286309
 21
21.6871509389
  0
LINE
  5
28D
100
AcDbEntity
  8
0
100
AcDbLine
 62
7
  6
BYLAYER
 10
37.6917806177
 20
23.1236482052
 11
41.9783698206
 21
25.5984968626
  0
LINE
  5
28E
100
AcDbEntity
  8
0
100
AcDbLine
 62
7
  6
BYLAYER
 10
43.1601911811
 20
23.1566948795
 11
43.1601911811
 21
25.56537701
  0
LINE
  5
28F
100
AcDbEntity
  8
0
100
AcDbLine
 62
7
  6
BYLAYER
 10
39.8351179854
 20
20.0744595354
 11
39.4815692323
 21
19.8703322314
  0
ARC
  5
290
100
AcDbEntity
  8
0
100
AcDbCircle
 62
7
  6
BYLAYER
 10
-38.5698382402
 20
-165.5758345937
 40
208.7735951079
100
AcDbArc
 50
71.4119670908
 51
71.6131430666
  0
ARC
  5
291
100
AcDbEntity
  8
0
100
AcDbCircle
 62
7
  6
BYLAYER
 10
-30.5850657523
 20
-22.7440742477
 40
86.3123394181
100
AcDbArc
 50
42.1944749382
 51
42.6775915313
  0
ARC
  5
292
100
AcDbEntity
  8
0
100
AcDbCircle
 62
7
  6
BYLAYER
 10
-27.4383469027
 20
10.6341991559
 40
65.3348266906
100
AcDbArc
 50
22.1358190648
 51
22.6214664735
  0
ARC
  5
293
100
AcDbEntity
  8
0
100
AcDbCircle
 62
7
  6
BYLAYER
 10
13.3244637364
 20
35.7594260232
 40
11.1400372176
100
AcDbArc
 50
256.5541903914
 51
257.682541151
  0
ARC
  5
294
100
AcDbEntity
  8
0
100
AcDbCircle
 62
7
  6
BYLAYER
 10
13.2719158946
 20
35.5373359359
 40
10.911815853
100
AcDbArc
 50
255.7885538197
 51
256.5513858921
  0
ARC
  5
295
100
AcDbEntity
  8
0
100
AcDbCircle
 62
7
  6
BYLAYER
 10
13.2857497486
 20
35.3762627637
 40
10.8368369412
100
AcDbArc
 50
255.2092462861
 51
257.8979469645
  0
ARC
  5
296
100
AcDbEntity
  8
0
100
AcDbCircle
 62
7
  6
BYLAYER
 10
13.2346233069
 20
35.3890700984
 40
10.7589321284
100
AcDbArc
 50
255.4020322747
 51
255.7872324701
  0
ARC
  5
297
100
AcDbEntity
  8
0
100
AcDbCircle
 62
7
  6
BYLAYER
 10
13.427706893
 20
35.2081045286
 40
10.4805243316
100
AcDbArc
 50
258.7629927058
 51
259.436097119
  0
ARC
  5
298
100
AcDbEntity
  8
0
100
AcDbCircle
 62
7
  6
BYLAYER
 10
12.5307545928
 20
33.3167976564
 40
8.5683321085
100
AcDbArc
 50
246.1129589548
 51
247.4565023805
  0
ARC
  5
299
100
AcDbEntity
  8
0
100
AcDbCircle
 62
7
  6
BYLAYER
 10
12.4303517005
 20
33.0879023277
 40
8.3183861024
100
AcDbArc
 50
245.6495941675
 51
246.1068649769
  0
ARC
  5
29A
100
AcDbEntity
  8
0
100
AcDbCircle
 62
7
  6
BYLAYER
 10
12.4593186727
 20
32.9656678867
 40
8.285312618
100
AcDbArc
 50
244.5320319847
 51
247.6919574138
  0
ARC
  5
29B
100
AcDbEntity
  8
0
100
AcDbCircle
 62
7
  6
BYLAYER
 10
12.3689836015
 20
32.9524906226
 40
8.1697174523
100
AcDbArc
 50
244.7252298685
 51
245.6501302181
  0
ARC
  5
29C
100
AcDbEntity
  8
0
100
AcDbCircle
 62
7
  6
BYLAYER
 10
13.204737501
 20
31.9552107473
 40
7.5674896693
100
AcDbArc
 50
252.8495479934
 51
253.540765623
  0
ARC
  5
29D
100
AcDbEntity
  8
0
100
AcDbCircle
 62
7
  6
BYLAYER
 10
13.0907777994
 20
31.5924124712
 40
7.1872192881
100
AcDbArc
 50
248.9309021278
 51
252.8647720534
  0
ARC
  5
29E
100
AcDbEntity
  8
0
100
AcDbCircle
 62
7
  6
BYLAYER
 10
12.9280011522
 20
31.1521541549
 40
6.7178791807
100
AcDbArc
 50
248.7351420527
 51
248.8765272608
  0
ARC
  5
29F
100
AcDbEntity
  8
0
100
AcDbCircle
 62
7
  6
BYLAYER
 10
11.8946545169
 20
31.1619305806
 40
6.1326739535
100
AcDbArc
 50
237.0356448541
 51
240.3959091515
  0
ARC
  5
2A0
100
AcDbEntity
  8
0
100
AcDbCircle
 62
7
  6
BYLAYER
 10
11.2053454668
 20
30.9382396146
 40
5.8398999175
100
AcDbArc
 50
233.0533834123
 51
234.7875939197
  0
ARC
  5
2A1
100
AcDbEntity
  8
0
100
AcDbCircle
 62
7
  6
BYLAYER
 10
11.1396789378
 20
30.7054614835
 40
5.6628758816
100
AcDbArc
 50
231.0730177845
 51
235.0315532562
  0
ARC
  5
2A2
100
AcDbEntity
  8
0
100
AcDbCircle
 62
7
  6
BYLAYER
 10
11.0731427698
 20
30.7607728307
 40
5.6186061233
100
AcDbArc
 50
232.4490488943
 51
233.0430408383
  0
ARC
  5
2A3
100
AcDbEntity
  8
0
100
AcDbCircle
 62
7
  6
BYLAYER
 10
10.9946909491
 20
30.6588599587
 40
5.4899946377
100
AcDbArc
 50
231.2446338099
 51
232.4499361848
  0
ARC
  5
2A4
100
AcDbEntity
  8
0
100
AcDbCircle
 62
7
  6
BYLAYER
 10
9.7647738466
 20
29.4159683217
 40
3.7366776173
100
AcDbArc
 50
215.6729966673
 51
218.0085066461
  0
ARC
  5
2A5
100
AcDbEntity
  8
0
100
AcDbCircle
 62
7
  6
BYLAYER
 10
9.7573902644
 20
29.3193590025
 40
3.6984989342
100
AcDbArc
 50
213.1382424217
 51
218.20577775
  0
ARC
  5
2A6
100
AcDbEntity
  8
0
100
AcDbCircle
 62
7
  6
BYLAYER
 10
9.6342659416
 20
29.3212907936
 40
3.5754465104
100
AcDbArc
 50
214.0558364937
 51
215.6600917783
  0
ARC
  5
2A7
100
AcDbEntity
  8
0
100
AcDbCircle
 62
7
  6
BYLAYER
 10
9.5530864075
 20
29.2660054381
 40
3.4772300841
100
AcDbArc
 50
213.232268479
 51
214.05018634
  0
ARC
  5
2A8
100
AcDbEntity
  8
0
100
AcDbCircle
 62
7
  6
BYLAYER
 10
8.8353387472
 20
43.5651604811
 40
3.2693898163
100
AcDbArc
 50
180.0000673094
 51
180.3037760409
  0
ARC
  5
2A9
100
AcDbEntity
  8
0
100
AcDbCircle
 62
7
  6
BYLAYER
 10
9.9722048605
 20
27.7683237348
 40
2.8062810648
100
AcDbArc
 50
209.7144237799
 51
211.4572655052
  0
ARC
  5
2AA
100
AcDbEntity
  8
0
100
AcDbCircle
 62
7
  6
BYLAYER
 10
9.7690257731
 20
26.0522071186
 40
2.7082288755
100
AcDbArc
 50
160.5985533742
 51
163.312070671
  0
ARC
  5
2AB
100
AcDbEntity
  8
0
100
AcDbCircle
 62
7
  6
BYLAYER
 10
9.6867898638
 20
26.075943845
 40
2.6226404337
100
AcDbArc
 50
163.292894773
 51
167.9595287499
  0
ARC
  5
2AC
100
AcDbEntity
  8
0
100
AcDbCircle
 62
7
  6
BYLAYER
 10
9.5952203404
 20
26.0942376039
 40
2.529269559
100
AcDbArc
 50
167.9321109928
 51
179.9545559247
  0
ARC
  5
2AD
100
AcDbEntity
  8
0
100
AcDbCircle
 62
7
  6
BYLAYER
 10
13.8171186272
 20
35.7170793959
 40
11.0965994117
100
AcDbArc
 50
282.3155543136
 51
283.4483197957
  0
ARC
  5
2AE
100
AcDbEntity
  8
0
100
AcDbCircle
 62
7
  6
BYLAYER
 10
13.8672408981
 20
35.507849917
 40
10.8814501403
100
AcDbArc
 50
283.447857493
 51
284.2128166446
  0
ARC
  5
2AF
100
AcDbEntity
  8
0
100
AcDbCircle
 62
7
  6
BYLAYER
 10
13.8461647438
 20
35.3761943384
 40
10.8367665306
100
AcDbArc
 50
282.1023529151
 51
284.791064181
  0
ARC
  5
2B0
100
AcDbEntity
  8
0
100
AcDbCircle
 62
7
  6
BYLAYER
 10
13.8972931573
 20
35.388997668
 40
10.7588573469
100
AcDbArc
 50
284.2130761793
 51
284.5982781596
  0
ARC
  5
2B1
100
AcDbEntity
  8
0
100
AcDbCircle
 62
7
  6
BYLAYER
 10
13.7098790792
 20
35.175970336
 40
10.4478980891
100
AcDbArc
 50
280.6152757304
 51
281.2417967964
  0
ARC
  5
2B2
100
AcDbEntity
  8
0
100
AcDbCircle
 62
7
  6
BYLAYER
 10
13.9319533914
 20
31.9399315195
 40
7.5514861742
100
AcDbArc
 50
286.4289783897
 51
287.1053422568
  0
ARC
  5
2B3
100
AcDbEntity
  8
0
100
AcDbCircle
 62
7
  6
BYLAYER
 10
14.0108596358
 20
31.6885622399
 40
7.2880275661
100
AcDbArc
 50
287.0937010082
 51
289.0477283106
  0
ARC
  5
2B4
100
AcDbEntity
  8
0
100
AcDbCircle
 62
7
  6
BYLAYER
 10
14.8964457651
 20
25.9144130728
 40
5.4709448479
100
AcDbArc
 50
299.395227774
 51
299.998931727
  0
ARC
  5
2B5
100
AcDbEntity
  8
0
100
AcDbCircle
 62
7
  6
BYLAYER
 10
14.9017644594
 20
24.7621251591
 40
5.460331465
100
AcDbArc
 50
299.122589712
 51
299.9987842211
  0
ARC
  5
2B6
100
AcDbEntity
  8
0
100
AcDbCircle
 62
7
  6
BYLAYER
 10
14.8905740962
 20
24.5773446712
 40
5.3791266179
100
AcDbArc
 50
299.9989478443
 51
300.8675458351
  0
ARC
  5
2B7
100
AcDbEntity
  8
0
100
AcDbCircle
 62
7
  6
BYLAYER
 10
14.9626658288
 20
24.6569690498
 40
5.3388129243
100
AcDbArc
 50
299.9969956711
 51
300.8693202517
  0
ARC
  5
2B8
100
AcDbEntity
  8
0
100
AcDbCircle
 62
7
  6
BYLAYER
 10
14.9272514633
 20
29.6585777003
 40
5.0564602798
100
AcDbArc
 50
299.9943846394
 51
301.2644047256
  0
ARC
  5
2B9
100
AcDbEntity
  8
0
100
AcDbCircle
 62
7
  6
BYLAYER
 10
14.7603512185
 20
25.3399964694
 40
3.9808789896
100
AcDbArc
 50
299.952679142
 51
303.6533714122
  0
ARC
  5
2BA
100
AcDbEntity
  8
0
100
AcDbCircle
 62
7
  6
BYLAYER
 10
18.4757971248
 20
46.9163468407
 40
0.6677035872
100
AcDbArc
 50
60.1147533674
 51
60.6300730051
  0
ARC
  5
2BB
100
AcDbEntity
  8
0
100
AcDbCircle
 62
7
  6
BYLAYER
 10
13.6572169746
 20
195.4392590558
 40
170.4431201369
100
AcDbArc
 50
273.6442643024
 51
273.8656485766
  0
ARC
  5
2BC
100
AcDbEntity
  8
0
100
AcDbCircle
 62
7
  6
BYLAYER
 10
27.9237505474
 20
196.4860429418
 40
174.0241942157
100
AcDbArc
 50
270.9191780548
 51
271.2405275502
  0
ARC
  5
2BD
100
AcDbEntity
  8
0
100
AcDbCircle
 62
7
  6
BYLAYER
 10
27.9643692185
 20
197.4204936897
 40
172.0188428638
100
AcDbArc
 50
270.9163635679
 51
271.4046252043
  0
ARC
  5
2BE
100
AcDbEntity
  8
0
100
AcDbCircle
 62
7
  6
BYLAYER
 10
76.0218575043
 20
126.9779708206
 40
113.9542144023
100
AcDbArc
 50
243.1145589247
 51
243.484405581
  0
ARC
  5
2BF
100
AcDbEntity
  8
0
100
AcDbCircle
 62
7
  6
BYLAYER
 10
28.8483398487
 20
98.0397015316
 40
76.6884933745
100
AcDbArc
 50
268.8310894754
 51
269.04605755
  0
ARC
  5
2C0
100
AcDbEntity
  8
0
100
AcDbCircle
 62
7
  6
BYLAYER
 10
34.704769366
 20
96.3888267027
 40
73.3260610636
100
AcDbArc
 50
271.7454078246
 51
272.3346215137
  0
ARC
  5
2C1
100
AcDbEntity
  8
0
100
AcDbCircle
 62
7
  6
BYLAYER
 10
28.7895657364
 20
93.884969965
 40
72.5333393504
100
AcDbArc
 50
269.1767286142
 51
269.3597765537
  0
ARC
  5
2C2
100
AcDbEntity
  8
0
100
AcDbCircle
 62
7
  6
BYLAYER
 10
26.5740375202
 20
48.5117561179
 40
27.1538654683
100
AcDbArc
 50
271.498014265
 51
272.0818199055
  0
ARC
  5
2C3
100
AcDbEntity
  8
0
100
AcDbCircle
 62
7
  6
BYLAYER
 10
26.5935950703
 20
48.0278738408
 40
26.6695917658
100
AcDbArc
 50
272.0994186005
 51
272.3752202872
  0
ARC
  5
2C4
100
AcDbEntity
  8
0
100
AcDbCircle
 62
7
  6
BYLAYER
 10
29.2086285471
 20
31.3584023624
 40
6.6830575419
100
AcDbArc
 50
1.7548345908
 51
1.9254455884
  0
ARC
  5
2C5
100
AcDbEntity
  8
0
100
AcDbCircle
 62
7
  6
BYLAYER
 10
36.0750433693
 20
25.6685457118
 40
5.6339390841
100
AcDbArc
 50
240.0095561887
 51
241.6562536604
  0
ARC
  5
2C6
100
AcDbEntity
  8
0
100
AcDbCircle
 62
7
  6
BYLAYER
 10
38.6748446262
 20
25.6161365037
 40
5.573802231
100
AcDbArc
 50
298.3618666907
 51
299.9962236649
  0
ARC
  5
2C7
100
AcDbEntity
  8
0
100
AcDbCircle
 62
7
  6
BYLAYER
 10
38.7633897622
 20
23.5843257653
 40
5.1152280918
100
AcDbArc
 50
58.1682759358
 51
60.0120951586
  0
ARC
  5
2C8
100
AcDbEntity
  8
0
100
AcDbCircle
 62
7
  6
BYLAYER
 10
31.1833046627
 20
32.1300011864
 40
3.5191078669
100
AcDbArc
 50
22.2321864073
 51
25.1348276811
  0
ARC
  5
2C9
100
AcDbEntity
  8
0
100
AcDbCircle
 62
7
  6
BYLAYER
 10
27.5484606116
 20
25.7827219991
 40
3.4758736779
100
AcDbArc
 50
274.8720838111
 51
277.785228611
  0
ARC
  5
2CA
100
AcDbEntity
  8
0
100
AcDbCircle
 62
7
  6
BYLAYER
 10
32.5070477232
 20
32.9059843522
 40
2.9343945691
100
AcDbArc
 50
39.1138031587
 51
43.8013857219
  0
ARC
  5
2CB
100
AcDbEntity
  8
0
100
AcDbCircle
 62
7
  6
BYLAYER
 10
26.9773177007
 20
24.4000255875
 40
2.8452250451
100
AcDbArc
 50
252.2582214758
 51
256.4824376183
  0
ARC
  5
2CC
100
AcDbEntity
  8
0
100
AcDbCircle
 62
7
  6
BYLAYER
 10
32.1370930338
 20
33.3351685201
 40
2.8422873515
100
AcDbArc
 50
42.2344584908
 51
47.7497788728
  0
ARC
  5
2CD
100
AcDbEntity
  8
0
100
AcDbCircle
 62
7
  6
BYLAYER
 10
37.2858113716
 20
24.1931060002
 40
2.274576072
100
AcDbArc
 50
104.1763506211
 51
104.9420844253
  0
ARC
  5
2CE
100
AcDbEntity
  8
0
100
AcDbCircle
 62
7
  6
BYLAYER
 10
28.9206587836
 20
26.8123939683
 40
1.9673597353
100
AcDbArc
 50
202.4769217351
 51
205.3410631307
  0
ARC
  5
2CF
100
AcDbEntity
  8
0
100
AcDbCircle
 62
7
  6
BYLAYER
 10
36.444749463
 20
28.0012399887
 40
1.3551860074
100
AcDbArc
 50
52.4579935903
 51
59.9969149416
  0
ARC
  5
2D0
100
AcDbEntity
  8
0
100
AcDbCircle
 62
7
  6
BYLAYER
 10
38.15231358
 20
20.8334542797
 40
1.3410628637
100
AcDbArc
 50
233.3137802987
 51
239.9887341242
  0
ARC
  5
2D1
100
AcDbEntity
  8
0
100
AcDbCircle
 62
7
  6
BYLAYER
 10
37.075538342
 20
25.249580473
 40
1.2201008671
100
AcDbArc
 50
118.3830879418
 51
119.9886422065
  0
SPLINE
  5
2D2
100
AcDbEntity
  8
0
100
AcDbSpline
 62
7
  6
BYLAYER
 70
0
 71
3
 72
27
 73
23
 74
0
 42
0.0000001
 43
0.0000001
 44
0.0000000001
 40
0.0
 40
0.0
 40
0.0
 40
0.0
 40
0.029804648
 40
0.06041319
 40
0.1237972964
 40
0.1897751366
 40
0.2578024792
 40
0.3272183437
 40
0.3972930174
 40
0.4672634069
 40
0.536372011
 40
0.6039037312
 40
0.6692257056
 40
0.7318275424
 40
0.7913646983
 40
0.8477013031
 40
0.8747098563
 40
0.9009822659
 40
0.9265716758
 40
0.951548933
 40
0.9759940013
 40
1.0
 40
1.0
 40
1.0
 40
1.0
 10
18.0586061616
 20
23.2132939274
 30
0.0
 10
17.9549769231
 20
23.1534639157
 30
0.0
 10
17.7413387906
 20
23.0382977961
 30
0.0
 10
17.2915914852
 20
22.8262895578
 30
0.0
 10
16.6902010867
 20
22.5976764981
 30
0.0
 10
15.9257860869
 20
22.3849445062
 30
0.0
 10
15.1223206645
 20
22.2333664156
 30
0.0
 10
14.2929927356
 20
22.1451047859
 30
0.0
 10
13.4515353008
 20
22.121435201
 30
0.0
 10
12.6119897328
 20
22.1627155094
 30
0.0
 10
11.7883488236
 20
22.2683307288
 30
0.0
 10
10.9942183427
 20
22.4367510488
 30
0.0
 10
10.242519305
 20
22.6656412345
 30
0.0
 10
9.5451893632
 20
22.9520898676
 30
0.0
 10
8.9132154175
 20
23.2927675806
 30
0.0
 10
8.4426129889
 20
23.6238411895
 30
0.0
 10
8.1106301642
 20
23.9132622173
 30
0.0
 10
7.8876951575
 20
24.1385789499
 30
0.0
 10
7.6885376225
 20
24.3746258238
 30
0.0
 10
7.5144109265
 20
24.6208294718
 30
0.0
 10
7.3665904457
 20
24.8763679657
 30
0.0
 10
7.2858431178
 20
25.0537636628
 30
0.0
 10
7.2504926076
 20
25.1434265924
 30
0.0
  0
SPLINE
  5
2D3
100
AcDbEntity
  8
0
100
AcDbSpline
 62
7
  6
BYLAYER
 70
0
 71
3
 72
11
 73
7
 74
0
 42
0.0000001
 43
0.0000001
 44
0.0000000001
 40
0.0
 40
0.0
 40
0.0
 40
0.0
 40
0.252761164
 40
0.5031466535
 40
0.7519740822
 40
1.0
 40
1.0
 40
1.0
 40
1.0
 10
7.2504926076
 20
25.1434265924
 30
0.0
 10
7.2203333798
 20
25.2199223686
 30
0.0
 10
7.166955474
 20
25.3749301464
 30
0.0
 10
7.1088664788
 20
25.612917886
 30
0.0
 10
7.0737736127
 20
25.8538169498
 30
0.0
 10
7.0659290502
 20
26.0155577177
 30
0.0
 10
7.065951577
 20
26.0962436907
 30
0.0
  0
SPLINE
  5
2D4
100
AcDbEntity
  8
0
100
AcDbSpline
 62
7
  6
BYLAYER
 70
0
 71
3
 72
11
 73
7
 74
0
 42
0.0000001
 43
0.0000001
 44
0.0000000001
 40
0.0
 40
0.0
 40
0.0
 40
0.0
 40
0.2362377684
 40
0.4812177646
 40
0.7357726963
 40
1.0
 40
1.0
 40
1.0
 40
1.0
 10
19.4097652715
 20
24.3388243103
 30
0.0
 10
19.323087397
 20
24.2298588788
 30
0.0
 10
19.1336393724
 20
24.0179051145
 30
0.0
 10
18.8125711869
 20
23.7254422715
 30
0.0
 10
18.4526130115
 20
23.4541732825
 30
0.0
 10
18.1934743616
 20
23.2911596541
 30
0.0
 10
18.0586061616
 20
23.2132939274
 30
0.0
  0
SPLINE
  5
2D5
100
AcDbEntity
  8
0
100
AcDbSpline
 62
7
  6
BYLAYER
 70
0
 71
3
 72
17
 73
13
 74
0
 42
0.0000001
 43
0.0000001
 44
0.0000000001
 40
0.0
 40
0.0
 40
0.0
 40
0.0
 40
0.0539152222
 40
0.108089048
 40
0.1627732371
 40
0.2182085589
 40
0.3321248467
 40
0.4514608812
 40
0.5773568293
 40
0.710554058
 40
0.8514221876
 40
1.0
 40
1.0
 40
1.0
 40
1.0
 10
43.1601882613
 20
25.5653770101
 30
0.0
 10
43.1601901355
 20
25.6201939518
 30
0.0
 10
43.1555068967
 20
25.7301483377
 30
0.0
 10
43.1344505046
 20
25.8944850158
 30
0.0
 10
43.0994395719
 20
26.0580190477
 30
0.0
 10
43.0336877744
 20
26.2763285887
 30
0.0
 10
42.9155334736
 20
26.5463873859
 30
0.0
 10
42.7214575036
 20
26.8570305733
 30
0.0
 10
42.4759709442
 20
27.1545941663
 30
0.0
 10
42.1816046442
 20
27.4363620893
 30
0.0
 10
41.8412711702
 20
27.699815935
 30
0.0
 10
41.5923179581
 20
27.8575973256
 30
0.0
 10
41.4614947199
 20
27.9331303138
 30
0.0
  0
SPLINE
  5
2D6
100
AcDbEntity
  8
0
100
AcDbSpline
 62
7
  6
BYLAYER
 70
0
 71
3
 72
18
 73
14
 74
0
 42
0.0000001
 43
0.0000001
 44
0.0000000001
 40
0.0
 40
0.0
 40
0.0
 40
0.0
 40
0.0539107218
 40
0.1080796138
 40
0.1627594387
 40
0.2181901774
 40
0.2745951706
 40
0.3321788653
 40
0.4515049561
 40
0.5773918937
 40
0.7105709977
 40
0.8514501938
 40
1.0
 40
1.0
 40
1.0
 40
1.0
 10
43.1601882613
 20
23.1566948795
 30
0.0
 10
43.1601863871
 20
23.101876575
 30
0.0
 10
43.1554987447
 20
22.991921006
 30
0.0
 10
43.1344596597
 20
22.8275763636
 30
0.0
 10
43.0994338367
 20
22.6640467227
 30
0.0
 10
43.0505463848
 20
22.5017508841
 30
0.0
 10
42.9879200903
 20
22.3410743672
 30
0.0
 10
42.8851100063
 20
22.1270508234
 30
0.0
 10
42.7214311118
 20
21.8649709916
 30
0.0
 10
42.4759474546
 20
21.5674613556
 30
0.0
 10
42.1815565207
 20
21.2856599726
 30
0.0
 10
41.8412019741
 20
21.0222214695
 30
0.0
 10
41.5922414653
 20
20.8644234803
 30
0.0
 10
41.461427587
 20
20.7888985033
 30
0.0
  0
SPLINE
  5
2D7
100
AcDbEntity
  8
0
100
AcDbSpline
 62
7
  6
BYLAYER
 70
0
 71
3
 72
23
 73
19
 74
0
 42
0.0000001
 43
0.0000001
 44
0.0000000001
 40
0.0
 40
0.0
 40
0.0
 40
0.0
 40
0.0558327899
 40
0.1141819236
 40
0.1747825858
 40
0.237353443
 40
0.3015491894
 40
0.3669928516
 40
0.4332833197
 40
0.5000010899
 40
0.5667186509
 40
0.6330088631
 40
0.6984527299
 40
0.7626479
 40
0.8252180801
 40
0.8858218282
 40
0.9441623159
 40
1.0
 40
1.0
 40
1.0
 40
1.0
 10
41.320005642
 20
20.7072461707
 30
0.0
 10
41.1873487615
 20
20.6306571423
 30
0.0
 10
40.9091515618
 20
20.4857585348
 30
0.0
 10
40.4676851553
 20
20.2975073523
 30
0.0
 10
39.9964855365
 20
20.1350923193
 30
0.0
 10
39.5001293812
 20
20.0000475973
 30
0.0
 10
38.9833028268
 20
19.8936573268
 30
0.0
 10
38.4509550128
 20
19.8169299083
 30
0.0
 10
37.9081723736
 20
19.7705943132
 30
0.0
 10
37.3601450543
 20
19.7551060148
 30
0.0
 10
36.8121189348
 20
19.7706047609
 30
0.0
 10
36.2693369512
 20
19.8169384432
 30
0.0
 10
35.7369912316
 20
19.8936702356
 30
0.0
 10
35.2201701188
 20
20.0000720083
 30
0.0
 10
34.723809532
 20
20.1351198538
 30
0.0
 10
34.2526296413
 20
20.2975388958
 30
0.0
 10
33.8111617187
 20
20.4857824368
 30
0.0
 10
33.5329811239
 20
20.6306910928
 30
0.0
 10
33.4003137699
 20
20.7072888351
 30
0.0
  0
SPLINE
  5
2D8
100
AcDbEntity
  8
0
100
AcDbSpline
 62
7
  6
BYLAYER
 70
0
 71
3
 72
14
 73
10
 74
0
 42
0.0000001
 43
0.0000001
 44
0.0000000001
 40
0.0
 40
0.0
 40
0.0
 40
0.0
 40
0.1126420912
 40
0.2296384525
 40
0.3506592374
 40
0.4753015199
 40
0.6031006364
 40
0.7335392725
 40
1.0
 40
1.0
 40
1.0
 40
1.0
 10
41.3200685941
 20
28.0147830535
 30
0.0
 10
41.2078717447
 20
28.0795617648
 30
0.0
 10
40.9742266354
 20
28.2032599019
 30
0.0
 10
40.6058060462
 20
28.3679785446
 30
0.0
 10
40.2149910012
 20
28.5144620741
 30
0.0
 10
39.8044993329
 20
28.6416973457
 30
0.0
 10
39.3771222435
 20
28.7488053012
 30
0.0
 10
38.7846648795
 20
28.8646095286
 30
0.0
 10
38.3302923685
 20
28.9178681859
 30
0.0
 10
38.0245504417
 20
28.9389563749
 30
0.0
  0
SPLINE
  5
2D9
100
AcDbEntity
  8
0
100
AcDbSpline
 62
7
  6
BYLAYER
 70
0
 71
3
 72
17
 73
13
 74
0
 42
0.0000001
 43
0.0000001
 44
0.0000000001
 40
0.0
 40
0.0
 40
0.0
 40
0.0
 40
0.1485778124
 40
0.289445942
 40
0.4226431707
 40
0.5485391188
 40
0.6678751533
 40
0.7817914411
 40
0.8372267629
 40
0.891910952
 40
0.9460847778
 40
1.0
 40
1.0
 40
1.0
 40
1.0
 10
33.2588876424
 20
20.7889415757
 30
0.0
 10
33.1280644042
 20
20.8644745639
 30
0.0
 10
32.879111192
 20
21.0222559545
 30
0.0
 10
32.5387777181
 20
21.2857098002
 30
0.0
 10
32.2444114181
 20
21.5674777232
 30
0.0
 10
31.9989248586
 20
21.8650413162
 30
0.0
 10
31.8048488887
 20
22.1756845036
 30
0.0
 10
31.6866945878
 20
22.4457433008
 30
0.0
 10
31.6209427904
 20
22.6640528418
 30
0.0
 10
31.5859318577
 20
22.8275868737
 30
0.0
 10
31.5648754655
 20
22.9919235518
 30
0.0
 10
31.5601922267
 20
23.1018779377
 30
0.0
 10
31.5601941009
 20
23.1566948795
 30
0.0
  0
SPLINE
  5
2DA
100
AcDbEntity
  8
0
100
AcDbSpline
 62
7
  6
BYLAYER
 70
0
 71
3
 72
32
 73
28
 74
0
 42
0.0000001
 43
0.0000001
 44
0.0000000001
 40
0.0
 40
0.0
 40
0.0
 40
0.0
 40
0.0213562317
 40
0.0431675964
 40
0.0656081837
 40
0.0888266405
 40
0.11294152
 40
0.1380428974
 40
0.1641907022
 40
0.1914196396
 40
0.2197385663
 40
0.2491361807
 40
0.2795804579
 40
0.311023944
 40
0.3766224174
 40
0.4453106456
 40
0.5162940515
 40
0.5886771648
 40
0.6615060939
 40
0.7338089402
 40
0.8046346813
 40
0.8392218197
 40
0.8731136913
 40
0.9062144349
 40
0.9384448526
 40
0.9697333664
 40
1.0
 40
1.0
 40
1.0
 40
1.0
 10
31.782126558
 20
25.4428358306
 30
0.0
 10
31.7939062196
 20
25.3662225601
 30
0.0
 10
31.8271930481
 20
25.212668422
 30
0.0
 10
31.9047107295
 20
24.9869896918
 30
0.0
 10
32.0096912684
 20
24.7652106655
 30
0.0
 10
32.1415708941
 20
24.548511122
 30
0.0
 10
32.2995833461
 20
24.3379109678
 30
0.0
 10
32.4829342865
 20
24.1344649804
 30
0.0
 10
32.6906437801
 20
23.9391169294
 30
0.0
 10
32.9216920697
 20
23.7528463609
 30
0.0
 10
33.1748934745
 20
23.5765187216
 30
0.0
 10
33.4490047358
 20
23.4110301987
 30
0.0
 10
33.7426477182
 20
23.2571519386
 30
0.0
 10
34.1641921785
 20
23.0658448961
 30
0.0
 10
34.7312622138
 20
22.8618108185
 30
0.0
 10
35.4540889046
 20
22.6771918265
 30
0.0
 10
36.2146269057
 20
22.5529586479
 30
0.0
 10
36.9978007606
 20
22.4915732773
 30
0.0
 10
37.7881598148
 20
22.4942418017
 30
0.0
 10
38.5700127753
 20
22.5609129815
 30
0.0
 10
39.2067235797
 20
22.6695643937
 30
0.0
 10
39.6984420087
 20
22.7879209752
 30
0.0
 10
40.0526632354
 20
22.8907008134
 30
0.0
 10
40.3934193762
 20
23.0076918886
 30
0.0
 10
40.7190482937
 20
23.1383090802
 30
0.0
 10
41.0278530332
 20
23.281914898
 30
0.0
 10
41.2248688467
 20
23.3876023417
 30
0.0
 10
41.320005642
 20
23.4425292681
 30
0.0
  0
SPLINE
  5
2DB
100
AcDbEntity
  8
0
100
AcDbSpline
 62
7
  6
BYLAYER
 70
0
 71
3
 72
28
 73
24
 74
0
 42
0.0000001
 43
0.0000001
 44
0.0000000001
 40
0.0
 40
0.0
 40
0.0
 40
0.0
 40
0.0746899161
 40
0.1456176294
 40
0.2127599114
 40
0.2449781874
 40
0.2763324782
 40
0.3366138645
 40
0.3941593803
 40
0.4221433842
 40
0.4497249624
 40
0.4770166729
 40
0.504138149
 40
0.5312124581
 40
0.5583639228
 40
0.5857150147
 40
0.6133835798
 40
0.6700692904
 40
0.7292413769
 40
0.7914982179
 40
0.8572505232
 40
0.9267282342
 40
1.0
 40
1.0
 40
1.0
 40
1.0
 10
41.320005642
 20
23.4425292681
 30
0.0
 10
41.4434602056
 20
23.5138053682
 30
0.0
 10
41.6786915878
 20
23.6625985617
 30
0.0
 10
42.001091078
 20
23.9104383834
 30
0.0
 10
42.237791691
 20
24.1341886083
 30
0.0
 10
42.4036713301
 20
24.3207164478
 30
0.0
 10
42.5499292652
 20
24.5065759751
 30
0.0
 10
42.7046727485
 20
24.746624998
 30
0.0
 10
42.8215642153
 20
25.0003916148
 30
0.0
 10
42.8886389222
 20
25.2057924137
 30
0.0
 10
42.9257695668
 20
25.3596917468
 30
0.0
 10
42.9500393845
 20
25.5144693698
 30
0.0
 10
42.9614067102
 20
25.6697585708
 30
0.0
 10
42.9598506586
 20
25.8251894058
 30
0.0
 10
42.9453469772
 20
25.9803868851
 30
0.0
 10
42.9179542409
 20
26.1349892843
 30
0.0
 10
42.8639386764
 20
26.3414358463
 30
0.0
 10
42.763217444
 20
26.5974326088
 30
0.0
 10
42.593531185
 20
26.8932265884
 30
0.0
 10
42.3758772048
 20
27.1777115908
 30
0.0
 10
42.1124255123
 20
27.448383324
 30
0.0
 10
41.8057036641
 20
27.702933635
 30
0.0
 10
41.5801033305
 20
27.8564600062
 30
0.0
 10
41.4612955436
 20
27.930227608
 30
0.0
  0
SPLINE
  5
2DC
100
AcDbEntity
  8
0
100
AcDbSpline
 62
7
  6
BYLAYER
 70
0
 71
3
 72
9
 73
5
 74
0
 42
0.0000001
 43
0.0000001
 44
0.0000000001
 40
0.0
 40
0.0
 40
0.0
 40
0.0
 40
0.2454856587
 40
1.0
 40
1.0
 40
1.0
 40
1.0
 10
36.5013110611
 20
26.3275896598
 30
0.0
 10
36.517236956
 20
26.3335715064
 30
0.0
 10
36.5824284034
 20
26.3570912069
 30
0.0
 10
36.6488089172
 20
26.3772891606
 30
0.0
 10
36.6993289035
 20
26.3907717214
 30
0.0
  0
SPLINE
  5
2DD
100
AcDbEntity
  8
0
100
AcDbSpline
 62
7
  6
BYLAYER
 70
0
 71
3
 72
14
 73
10
 74
0
 42
0.0000001
 43
0.0000001
 44
0.0000000001
 40
0.0
 40
0.0
 40
0.0
 40
0.0
 40
0.1227820233
 40
0.2484048721
 40
0.5036880291
 40
0.6312398973
 40
0.757182557
 40
0.8804360061
 40
1.0
 40
1.0
 40
1.0
 40
1.0
 10
36.7287512755
 20
26.3984133159
 30
0.0
 10
36.7850900563
 20
26.4126460992
 30
0.0
 10
36.9002034143
 20
26.4371453667
 30
0.0
 10
37.1364073276
 20
26.4702572511
 30
0.0
 10
37.377744971
 20
26.4793035086
 30
0.0
 10
37.6182037105
 20
26.4644469932
 30
0.0
 10
37.7951668779
 20
26.4414163665
 30
0.0
 10
37.9663659613
 20
26.4068208669
 30
0.0
 10
38.077155883
 20
26.3757971198
 30
0.0
 10
38.1309866089
 20
26.3583556568
 30
0.0
  0
SPLINE
  5
2DE
100
AcDbEntity
  8
0
100
AcDbSpline
 62
7
  6
BYLAYER
 70
0
 71
3
 72
23
 73
19
 74
0
 42
0.0000001
 43
0.0000001
 44
0.0000000001
 40
0.0
 40
0.0
 40
0.0
 40
0.0
 40
0.0563612596
 40
0.1150396782
 40
0.1757995286
 40
0.2383700831
 40
0.3024294581
 40
0.367630318
 40
0.4336047884
 40
0.4999700791
 40
0.5663364336
 40
0.6323144973
 40
0.6975214936
 40
0.7615885719
 40
0.8241687264
 40
0.8849435033
 40
0.9436317881
 40
1.0
 40
1.0
 40
1.0
 40
1.0
 10
41.322616125
 20
20.7113860105
 30
0.0
 10
41.187004127
 20
20.6381450829
 30
0.0
 10
40.9041209051
 20
20.4997011256
 30
0.0
 10
40.4578837525
 20
20.3198884665
 30
0.0
 10
39.9845059342
 20
20.1649911748
 30
0.0
 10
39.4881534027
 20
20.0363439613
 30
0.0
 10
38.973133888
 20
19.9350876355
 30
0.0
 10
38.4439735364
 20
19.8620937321
 30
0.0
 10
37.9053077648
 20
19.8179974069
 30
0.0
 10
37.3618590209
 20
19.8032001367
 30
0.0
 10
36.8183959826
 20
19.817822563
 30
0.0
 10
36.2796853296
 20
19.8617307052
 30
0.0
 10
35.7504527444
 20
19.9345515678
 30
0.0
 10
35.2353363301
 20
20.0356451125
 30
0.0
 10
34.7388476664
 20
20.1641171291
 30
0.0
 10
34.2653206289
 20
20.3188620805
 30
0.0
 10
33.8189310237
 20
20.4985252054
 30
0.0
 10
33.535933738
 20
20.6368408357
 30
0.0
 10
33.400272586
 20
20.7100307264
 30
0.0
  0
SPLINE
  5
2DF
100
AcDbEntity
  8
0
100
AcDbSpline
 62
7
  6
BYLAYER
 70
0
 71
3
 72
32
 73
28
 74
0
 42
0.0000001
 43
0.0000001
 44
0.0000000001
 40
0.0
 40
0.0
 40
0.0
 40
0.0
 40
0.021303187
 40
0.0429368605
 40
0.0651005672
 40
0.0879687032
 40
0.1116868816
 40
0.1363681136
 40
0.1620944216
 40
0.1889171614
 40
0.2168603414
 40
0.2459230241
 40
0.2760820042
 40
0.3072951644
 40
0.3726087927
 40
0.4412523209
 40
0.512415195
 40
0.5851692618
 40
0.658516577
 40
0.7314340642
 40
0.8029165818
 40
0.8378313126
 40
0.8720415799
 40
0.9054454755
 40
0.9379581156
 40
0.9695042234
 40
1.0
 40
1.0
 40
1.0
 40
1.0
 10
31.5642955449
 20
25.4394249474
 30
0.0
 10
31.5695851809
 20
25.3583013325
 30
0.0
 10
31.5905873257
 20
25.1952952345
 30
0.0
 10
31.6524563788
 20
24.954097752
 30
0.0
 10
31.7444763646
 20
24.7163084135
 30
0.0
 10
31.8660231809
 20
24.48323212
 30
0.0
 10
32.0164085369
 20
24.2560802597
 30
0.0
 10
32.1947565534
 20
24.0359959672
 30
0.0
 10
32.4001073934
 20
23.8240974579
 30
0.0
 10
32.6313574125
 20
23.6214442604
 30
0.0
 10
32.8872896117
 20
23.429057356
 30
0.0
 10
33.1665684927
 20
23.2479212645
 30
0.0
 10
33.467737351
 20
23.0789392813
 30
0.0
 10
33.9029413228
 20
22.8678645624
 30
0.0
 10
34.4925384791
 20
22.6413447689
 30
0.0
 10
35.2485423042
 20
22.434130731
 30
0.0
 10
36.0481792168
 20
22.2916560458
 30
0.0
 10
36.8748959262
 20
22.2168665109
 30
0.0
 10
37.7116590388
 20
22.2112967219
 30
0.0
 10
38.5411144349
 20
22.2750629159
 30
0.0
 10
39.2173796796
 20
22.3857496022
 30
0.0
 10
39.7399123287
 20
22.5084275743
 30
0.0
 10
40.1163441935
 20
22.6157078966
 30
0.0
 10
40.4783688157
 20
22.7384207839
 30
0.0
 10
40.8241385161
 20
22.8759319835
 30
0.0
 10
41.1517754739
 20
23.0275379394
 30
0.0
 10
41.3606428031
 20
23.139392859
 30
0.0
 10
41.461427587
 20
23.1975806338
 30
0.0
  0
SPLINE
  5
2E0
100
AcDbEntity
  8
0
100
AcDbSpline
 62
7
  6
BYLAYER
 70
0
 71
3
 72
18
 73
14
 74
0
 42
0.0000001
 43
0.0000001
 44
0.0000000001
 40
0.0
 40
0.0
 40
0.0
 40
0.0
 40
0.1485498062
 40
0.2894290023
 40
0.4226081063
 40
0.5484950439
 40
0.6678211347
 40
0.7254048294
 40
0.7818098226
 40
0.8372405613
 40
0.8919203862
 40
0.9460892782
 40
1.0
 40
1.0
 40
1.0
 40
1.0
 10
41.461427587
 20
23.1975806338
 30
0.0
 10
41.5922414653
 20
23.2731056108
 30
0.0
 10
41.8412019741
 20
23.4309036
 30
0.0
 10
42.1815565207
 20
23.6943421032
 30
0.0
 10
42.4759474546
 20
23.9761434861
 30
0.0
 10
42.7214311118
 20
24.2736531222
 30
0.0
 10
42.8851100063
 20
24.5357329539
 30
0.0
 10
42.9879200903
 20
24.7497564977
 30
0.0
 10
43.0505463848
 20
24.9104330146
 30
0.0
 10
43.0994338367
 20
25.0727288533
 30
0.0
 10
43.1344596597
 20
25.2362584941
 30
0.0
 10
43.1554987447
 20
25.4006031365
 30
0.0
 10
43.1601863871
 20
25.5105587056
 30
0.0
 10
43.1601882613
 20
25.5653770101
 30
0.0
  0
SPLINE
  5
2E1
100
AcDbEntity
  8
0
100
AcDbSpline
 62
7
  6
BYLAYER
 70
0
 71
3
 72
9
 73
5
 74
0
 42
0.0000001
 43
0.0000001
 44
0.0000000001
 40
0.0
 40
0.0
 40
0.0
 40
0.0
 40
0.2633135079
 40
1.0
 40
1.0
 40
1.0
 40
1.0
 10
34.7286796583
 20
32.3012499363
 30
0.0
 10
34.7164373117
 20
32.4056327495
 30
0.0
 10
34.6584850328
 20
32.800477931
 30
0.0
 10
34.5520852359
 20
33.1893290668
 30
0.0
 10
34.4407956578
 20
33.4614938059
 30
0.0
  0
SPLINE
  5
2E2
100
AcDbEntity
  8
0
100
AcDbSpline
 62
7
  6
BYLAYER
 70
0
 71
3
 72
9
 73
5
 74
0
 42
0.0000001
 43
0.0000001
 44
0.0000000001
 40
0.0
 40
0.0
 40
0.0
 40
0.0
 40
0.243460802
 40
1.0
 40
1.0
 40
1.0
 40
1.0
 10
26.9303465814
 20
27.0758231949
 30
0.0
 10
26.9303465814
 20
27.1174141036
 30
0.0
 10
26.9331466947
 20
27.2882403217
 30
0.0
 10
26.9467587892
 20
27.4588428634
 30
0.0
 10
26.9623309976
 20
27.5871424336
 30
0.0
  0
SPLINE
  5
2E3
100
AcDbEntity
  8
0
100
AcDbSpline
 62
7
  6
BYLAYER
 70
0
 71
3
 72
10
 73
6
 74
0
 42
0.0000001
 43
0.0000001
 44
0.0000000001
 40
0.0
 40
0.0
 40
0.0
 40
0.0
 40
0.4729043846
 40
0.729704775
 40
1.0
 40
1.0
 40
1.0
 40
1.0
 10
27.1340060196
 20
25.9686516989
 30
0.0
 10
27.0633314457
 20
26.1325220172
 30
0.0
 10
26.9873263259
 20
26.4003597442
 30
0.0
 10
26.9383225797
 20
26.7747170861
 30
0.0
 10
26.9303465814
 20
26.9738211959
 30
0.0
 10
26.9303465814
 20
27.0758231949
 30
0.0
  0
SPLINE
  5
2E4
100
AcDbEntity
  8
0
100
AcDbSpline
 62
7
  6
BYLAYER
 70
0
 71
3
 72
11
 73
7
 74
0
 42
0.0000001
 43
0.0000001
 44
0.0000000001
 40
0.0
 40
0.0
 40
0.0
 40
0.0
 40
0.237970813
 40
0.482230837
 40
0.7355063502
 40
1.0
 40
1.0
 40
1.0
 40
1.0
 10
26.3761049395
 20
22.4731103926
 30
0.0
 10
26.4861567139
 20
22.4285087526
 30
0.0
 10
26.7161380512
 20
22.3544612054
 30
0.0
 10
27.0788618162
 20
22.2917967644
 30
0.0
 10
27.4598040944
 20
22.2766953704
 30
0.0
 10
27.7179768298
 20
22.2978152745
 30
0.0
 10
27.8487485984
 20
22.3156412756
 30
0.0
  0
SPLINE
  5
2E5
100
AcDbEntity
  8
0
100
AcDbSpline
 62
7
  6
BYLAYER
 70
0
 71
3
 72
11
 73
7
 74
0
 42
0.0000001
 43
0.0000001
 44
0.0000000001
 40
0.0
 40
0.0
 40
0.0
 40
0.0
 40
0.2624906701
 40
0.5122863075
 40
0.7554586006
 40
1.0
 40
1.0
 40
1.0
 40
1.0
 10
26.3313503748
 20
27.9547524966
 30
0.0
 10
26.3177944023
 20
27.9625788639
 30
0.0
 10
26.289455284
 20
27.9749125467
 30
0.0
 10
26.2443975916
 20
27.9818284335
 30
0.0
 10
26.2002113136
 20
27.9762683586
 30
0.0
 10
26.1730529765
 20
27.9648067323
 30
0.0
 10
26.1604240056
 20
27.9575154745
 30
0.0
  0
SPLINE
  5
2E6
100
AcDbEntity
  8
0
100
AcDbSpline
 62
7
  6
BYLAYER
 70
0
 71
3
 72
14
 73
10
 74
0
 42
0.0000001
 43
0.0000001
 44
0.0000000001
 40
0.0
 40
0.0
 40
0.0
 40
0.0
 40
0.268031151
 40
0.3963548296
 40
0.5213328481
 40
0.6435279672
 40
0.7635744519
 40
0.8821589695
 40
1.0
 40
1.0
 40
1.0
 40
1.0
 10
38.0652300004
 20
29.6670431105
 30
0.0
 10
38.0188119575
 20
29.7950012217
 30
0.0
 10
37.9369429225
 20
29.9800051451
 30
0.0
 10
37.8010844094
 20
30.2075154695
 30
0.0
 10
37.6896342012
 20
30.3625617686
 30
0.0
 10
37.5675945337
 20
30.5039085974
 30
0.0
 10
37.4353010216
 20
30.6311003094
 30
0.0
 10
37.2932056174
 20
30.7436974213
 30
0.0
 10
37.1921087243
 20
30.8088883141
 30
0.0
 10
37.1402830298
 20
30.8388126518
 30
0.0
  0
SPLINE
  5
2E7
100
AcDbEntity
  8
0
100
AcDbSpline
 62
7
  6
BYLAYER
 70
0
 71
3
 72
11
 73
7
 74
0
 42
0.0000001
 43
0.0000001
 44
0.0000000001
 40
0.0
 40
0.0
 40
0.0
 40
0.0
 40
0.2499084343
 40
0.4998728231
 40
0.7498987856
 40
1.0
 40
1.0
 40
1.0
 40
1.0
 10
38.0652451882
 20
29.667034342
 30
0.0
 10
38.0617865044
 20
29.5965004218
 30
0.0
 10
38.0546244081
 20
29.4554281127
 30
0.0
 10
38.0424035298
 20
29.2438740205
 30
0.0
 10
38.0289357421
 20
29.0323422969
 30
0.0
 10
38.0191503783
 20
28.8913542481
 30
0.0
 10
38.0138337919
 20
28.8208813651
 30
0.0
  0
SPLINE
  5
2E8
100
AcDbEntity
  8
0
100
AcDbSpline
 62
7
  6
BYLAYER
 70
0
 71
3
 72
25
 73
21
 74
0
 42
0.0000001
 43
0.0000001
 44
0.0000000001
 40
0.0
 40
0.0
 40
0.0
 40
0.0
 40
0.0731125298
 40
0.1474581164
 40
0.22229614
 40
0.2969597589
 40
0.3707500957
 40
0.4429972887
 40
0.513080629
 40
0.5804439657
 40
0.6446258187
 40
0.7052837925
 40
0.7622269921
 40
0.815456935
 40
0.8652041576
 40
0.9119644377
 40
0.9344833815
 40
0.9565704514
 40
0.9783613136
 40
1.0
 40
1.0
 40
1.0
 40
1.0
 10
32.532056035
 20
25.6559943933
 30
0.0
 10
32.5828716247
 20
25.8036007992
 30
0.0
 10
32.696432701
 20
26.0976003375
 30
0.0
 10
32.8981483595
 20
26.5276414356
 30
0.0
 10
33.1304671482
 20
26.9457669205
 30
0.0
 10
33.3900772174
 20
27.3460988213
 30
0.0
 10
33.6734119144
 20
27.7231275101
 30
0.0
 10
33.9765300794
 20
28.0716127105
 30
0.0
 10
34.2952415506
 20
28.3867203571
 30
0.0
 10
34.6251599266
 20
28.6640866192
 30
0.0
 10
34.9617518653
 20
28.8998927626
 30
0.0
 10
35.3004580425
 20
29.0908630048
 30
0.0
 10
35.6367360617
 20
29.2342970392
 30
0.0
 10
35.9661441845
 20
29.3280887604
 30
0.0
 10
36.2842459586
 20
29.3706831975
 30
0.0
 10
36.5397090222
 20
29.3623707131
 30
0.0
 10
36.7321317829
 20
29.328719976
 30
0.0
 10
36.8689940219
 20
29.2908380007
 30
0.0
 10
36.9996311169
 20
29.2401814343
 30
0.0
 10
37.0823926695
 20
29.1979295361
 30
0.0
 10
37.1224056589
 20
29.1748290117
 30
0.0
  0
SPLINE
  5
2E9
100
AcDbEntity
  8
0
100
AcDbSpline
 62
7
  6
BYLAYER
 70
0
 71
3
 72
15
 73
11
 74
0
 42
0.0000001
 43
0.0000001
 44
0.0000000001
 40
0.0
 40
0.0
 40
0.0
 40
0.0
 40
0.1212332607
 40
0.2542162884
 40
0.3924421813
 40
0.5303215684
 40
0.6632906872
 40
0.7877117889
 40
0.9008206109
 40
1.0
 40
1.0
 40
1.0
 40
1.0
 10
27.4408660139
 20
25.6559191242
 30
0.0
 10
27.4253354924
 20
25.6648854721
 30
0.0
 10
27.3936394294
 20
25.6852049529
 30
0.0
 10
27.3469761981
 20
25.7197940936
 30
0.0
 10
27.3006319251
 20
25.7587629243
 30
0.0
 10
27.2566866327
 20
25.800414414
 30
0.0
 10
27.2168304352
 20
25.8432507216
 30
0.0
 10
27.1824059769
 20
25.8859703835
 30
0.0
 10
27.1545498995
 20
25.9273322225
 30
0.0
 10
27.1398159662
 20
25.9551804071
 30
0.0
 10
27.1340060196
 20
25.9686516989
 30
0.0
  0
SPLINE
  5
2EA
100
AcDbEntity
  8
0
100
AcDbSpline
 62
7
  6
BYLAYER
 70
0
 71
3
 72
13
 73
9
 74
0
 42
0.0000001
 43
0.0000001
 44
0.0000000001
 40
0.0
 40
0.0
 40
0.0
 40
0.0
 40
0.2654138311
 40
0.5184131458
 40
0.641234192
 40
0.7621166657
 40
0.8815367735
 40
1.0
 40
1.0
 40
1.0
 40
1.0
 10
34.3756500752
 20
33.62082353
 30
0.0
 10
34.3196532694
 20
33.7577767469
 30
0.0
 10
34.1939492611
 20
34.0190326876
 30
0.0
 10
33.9954035096
 20
34.3178889452
 30
0.0
 10
33.8168008422
 20
34.5297976357
 30
0.0
 10
33.6745495342
 20
34.6741254392
 30
0.0
 10
33.5230670586
 20
34.8050274411
 30
0.0
 10
33.4158310004
 20
34.8833438875
 30
0.0
 10
33.3609320172
 20
34.9200489473
 30
0.0
  0
SPLINE
  5
2EB
100
AcDbEntity
  8
0
100
AcDbSpline
 62
7
  6
BYLAYER
 70
0
 71
3
 72
9
 73
5
 74
0
 42
0.0000001
 43
0.0000001
 44
0.0000000001
 40
0.0
 40
0.0
 40
0.0
 40
0.0
 40
0.2372137875
 40
1.0
 40
1.0
 40
1.0
 40
1.0
 10
28.01930296
 20
22.3388861569
 30
0.0
 10
28.1161176163
 20
22.3520843393
 30
0.0
 10
28.5219697516
 20
22.42429767
 30
0.0
 10
28.9154784594
 20
22.558666702
 30
0.0
 10
29.2031577616
 20
22.6850019176
 30
0.0
  0
SPLINE
  5
2EC
100
AcDbEntity
  8
0
100
AcDbSpline
 62
7
  6
BYLAYER
 70
0
 71
3
 72
11
 73
7
 74
0
 42
0.0000001
 43
0.0000001
 44
0.0000000001
 40
0.0
 40
0.0
 40
0.0
 40
0.0
 40
0.240786019
 40
0.485426644
 40
0.7374896418
 40
1.0
 40
1.0
 40
1.0
 40
1.0
 10
31.6403776426
 20
21.3124815748
 30
0.0
 10
31.7233473019
 20
21.2645746025
 30
0.0
 10
31.8985446222
 20
21.1810734604
 30
0.0
 10
32.1807828876
 20
21.0968978842
 30
0.0
 10
32.4808152784
 20
21.0539594158
 30
0.0
 10
32.6862416108
 20
21.0529320047
 30
0.0
 10
32.7905280582
 20
21.0587981573
 30
0.0
  0
SPLINE
  5
2ED
100
AcDbEntity
  8
0
100
AcDbSpline
 62
7
  6
BYLAYER
 70
0
 71
3
 72
25
 73
21
 74
0
 42
0.0000001
 43
0.0000001
 44
0.0000000001
 40
0.0
 40
0.0
 40
0.0
 40
0.0
 40
0.069300882
 40
0.1409209999
 40
0.2140953002
 40
0.2880324978
 40
0.3618990424
 40
0.4348707828
 40
0.5061507462
 40
0.5750034427
 40
0.6407859899
 40
0.7029839694
 40
0.7612528852
 40
0.815467082
 40
0.8657758429
 40
0.9126594843
 40
0.9350962094
 40
0.9570245286
 40
0.9786017753
 40
1.0
 40
1.0
 40
1.0
 40
1.0
 10
26.0524753133
 20
27.7937406331
 30
0.0
 10
26.0993547805
 20
28.011767355
 30
0.0
 10
26.2148330238
 20
28.4509822367
 30
0.0
 10
26.4443132782
 20
29.101323866
 30
0.0
 10
26.7297330987
 20
29.7454987996
 30
0.0
 10
27.0662518626
 20
30.3726887159
 30
0.0
 10
27.4483076521
 20
30.9724615072
 30
0.0
 10
27.8695037386
 20
31.5348063603
 30
0.0
 10
28.3228357721
 20
32.0503497747
 30
0.0
 10
28.8007718765
 20
32.5105113056
 30
0.0
 10
29.2954170752
 20
32.9076533453
 30
0.0
 10
29.7986814813
 20
33.2351865746
 30
0.0
 10
30.3024269518
 20
33.4876424708
 30
0.0
 10
30.798704289
 20
33.6606476105
 30
0.0
 10
31.2795640787
 20
33.7509054566
 30
0.0
 10
31.6670250484
 20
33.7550661948
 30
0.0
 10
31.9582027633
 20
33.7137269729
 30
0.0
 10
32.1644350419
 20
33.6619893588
 30
0.0
 10
32.360646294
 20
33.5892366463
 30
0.0
 10
32.4844318428
 20
33.5268002118
 30
0.0
 10
32.5440673234
 20
33.4923732392
 30
0.0
  0
SPLINE
  5
2EE
100
AcDbEntity
  8
0
100
AcDbSpline
 62
7
  6
BYLAYER
 70
0
 71
3
 72
11
 73
7
 74
0
 42
0.0000001
 43
0.0000001
 44
0.0000000001
 40
0.0
 40
0.0
 40
0.0
 40
0.0
 40
0.2303822216
 40
0.4726294655
 40
0.7293597475
 40
1.0
 40
1.0
 40
1.0
 40
1.0
 10
26.1604240056
 20
27.9575154745
 30
0.0
 10
26.1470210686
 20
27.9497773722
 30
0.0
 10
26.1215416097
 20
27.930199118
 30
0.0
 10
26.0904280276
 20
27.8918686837
 30
0.0
 10
26.0666087794
 20
27.8456250403
 30
0.0
 10
26.056297135
 20
27.8115151368
 30
0.0
 10
26.0524753133
 20
27.7937406331
 30
0.0
  0
SPLINE
  5
2EF
100
AcDbEntity
  8
0
100
AcDbSpline
 62
7
  6
BYLAYER
 70
0
 71
3
 72
27
 73
23
 74
0
 42
0.0000001
 43
0.0000001
 44
0.0000000001
 40
0.0
 40
0.0
 40
0.0
 40
0.0
 40
0.0214541954
 40
0.0430780032
 40
0.0650347994
 40
0.0874758952
 40
0.11053445
 40
0.1343253751
 40
0.1844116809
 40
0.2108697245
 40
0.2383046346
 40
0.2961172679
 40
0.3577980073
 40
0.4230530802
 40
0.491424185
 40
0.562327029
 40
0.6350841267
 40
0.708953854
 40
0.7831601559
 40
0.8569082074
 40
0.9294407577
 40
1.0
 40
1.0
 40
1.0
 40
1.0
 10
37.1402830298
 20
30.8388126518
 30
0.0
 10
37.0822916851
 20
30.8722970577
 30
0.0
 10
36.962044681
 20
30.9331673875
 30
0.0
 10
36.7716955847
 20
31.0047506938
 30
0.0
 10
36.5718313329
 20
31.0564926538
 30
0.0
 10
36.3633285072
 20
31.0881737181
 30
0.0
 10
36.1470310399
 20
31.099757007
 30
0.0
 10
35.8443481104
 20
31.0881155432
 30
0.0
 10
35.5340633252
 20
31.0350900213
 30
0.0
 10
35.2218965806
 20
30.9457031031
 30
0.0
 10
34.8938809294
 20
30.8267250974
 30
0.0
 10
34.4790399462
 20
30.6283712227
 30
0.0
 10
33.9889247846
 20
30.3226337264
 30
0.0
 10
33.5053996435
 20
29.9499054721
 30
0.0
 10
33.036009163
 20
29.5160842065
 30
0.0
 10
32.5880611786
 20
29.0279715631
 30
0.0
 10
32.1685999666
 20
28.4932503051
 30
0.0
 10
31.7842257038
 20
27.920349458
 30
0.0
 10
31.4410277971
 20
27.3183246059
 30
0.0
 10
31.1443657862
 20
26.6966508362
 30
0.0
 10
30.8990175514
 20
26.0652141981
 30
0.0
 10
30.7699826895
 20
25.6370305355
 30
0.0
 10
30.7154306707
 20
25.4236598186
 30
0.0
  0
SPLINE
  5
2F0
100
AcDbEntity
  8
0
100
AcDbSpline
 62
7
  6
BYLAYER
 70
0
 71
3
 72
30
 73
26
 74
0
 42
0.0000001
 43
0.0000001
 44
0.0000000001
 40
0.0
 40
0.0
 40
0.0
 40
0.0
 40
0.0489049468
 40
0.0722851765
 40
0.0951683213
 40
0.1177797113
 40
0.1403551742
 40
0.1631281347
 40
0.1863233387
 40
0.2101449427
 40
0.2347706497
 40
0.2869159419
 40
0.3146796603
 40
0.343621646
 40
0.3737597435
 40
0.4050834936
 40
0.4375631283
 40
0.4711459775
 40
0.541312071
 40
0.6148963457
 40
0.6910109055
 40
0.7686545272
 40
0.846752279
 40
0.9242279838
 40
1.0
 40
1.0
 40
1.0
 40
1.0
 10
38.0137612331
 20
28.8208394735
 30
0.0
 10
37.9545741531
 20
28.9432660098
 30
0.0
 10
37.849136715
 20
29.1167828929
 30
0.0
 10
37.6743751836
 20
29.3161243838
 30
0.0
 10
37.5314268876
 20
29.4443212804
 30
0.0
 10
37.3755312205
 20
29.5525196254
 30
0.0
 10
37.207537627
 20
29.640128538
 30
0.0
 10
37.0284276998
 20
29.7066848668
 30
0.0
 10
36.8392141117
 20
29.751768794
 30
0.0
 10
36.6409624682
 20
29.7752674644
 30
0.0
 10
36.360814593
 20
29.7776905494
 30
0.0
 10
36.0712206973
 20
29.7350249743
 30
0.0
 10
35.7795871434
 20
29.6533522513
 30
0.0
 10
35.5526884566
 20
29.569951685
 30
0.0
 10
35.3235447807
 20
29.4661221379
 30
0.0
 10
35.0932522994
 20
29.3424593348
 30
0.0
 10
34.8630416224
 20
29.1995591982
 30
0.0
 10
34.5532587467
 20
28.9812639704
 30
0.0
 10
34.1744241398
 20
28.6641087829
 30
0.0
 10
33.7455996367
 20
28.2271902198
 30
0.0
 10
33.344722236
 20
27.7373595911
 30
0.0
 10
32.9801115897
 20
27.2047647675
 30
0.0
 10
32.6592317468
 20
26.6403686544
 30
0.0
 10
32.3888035007
 20
26.0559093988
 30
0.0
 10
32.2435501664
 20
25.6546080012
 30
0.0
 10
32.1811188883
 20
25.4533819466
 30
0.0
  0
SPLINE
  5
2F1
100
AcDbEntity
  8
0
100
AcDbSpline
 62
7
  6
BYLAYER
 70
0
 71
3
 72
15
 73
11
 74
0
 42
0.0000001
 43
0.0000001
 44
0.0000000001
 40
0.0
 40
0.0
 40
0.0
 40
0.0
 40
0.1030206561
 40
0.2190262783
 40
0.3452688725
 40
0.4787093663
 40
0.6155115259
 40
0.7512571531
 40
0.8811483351
 40
1.0
 40
1.0
 40
1.0
 40
1.0
 10
26.0524753133
 20
25.3442333817
 30
0.0
 10
26.0566253893
 20
25.3297243018
 30
0.0
 10
26.0681066535
 20
25.2996269817
 30
0.0
 10
26.0916966849
 20
25.2547942297
 30
0.0
 10
26.1220554046
 20
25.208796277
 30
0.0
 10
26.1580819522
 20
25.1631632977
 30
0.0
 10
26.1984581258
 20
25.1194224318
 30
0.0
 10
26.2416297367
 20
25.0791917587
 30
0.0
 10
26.2857853895
 20
25.0441370584
 30
0.0
 10
26.316272838
 20
25.0240486179
 30
0.0
 10
26.3313503748
 20
25.015343795
 30
0.0
  0
SPLINE
  5
2F2
100
AcDbEntity
  8
0
100
AcDbSpline
 62
7
  6
BYLAYER
 70
0
 71
3
 72
14
 73
10
 74
0
 42
0.0000001
 43
0.0000001
 44
0.0000000001
 40
0.0
 40
0.0
 40
0.0
 40
0.0
 40
0.2680311973
 40
0.3963548147
 40
0.5213328207
 40
0.6435279568
 40
0.7635744565
 40
0.8821589749
 40
1.0
 40
1.0
 40
1.0
 40
1.0
 10
30.7154306707
 20
22.484251117
 30
0.0
 10
30.7618488563
 20
22.3562930327
 30
0.0
 10
30.8437178141
 20
22.1712891021
 30
0.0
 10
30.9795762499
 20
21.9437787425
 30
0.0
 10
31.0910264415
 20
21.7887324663
 30
0.0
 10
31.2130661249
 20
21.6473856383
 30
0.0
 10
31.3453596524
 20
21.520193919
 30
0.0
 10
31.4874550596
 20
21.407596803
 30
0.0
 10
31.5885519506
 20
21.3424059112
 30
0.0
 10
31.6403776426
 20
21.3124815748
 30
0.0
  0
SPLINE
  5
2F3
100
AcDbEntity
  8
0
100
AcDbSpline
 62
7
  6
BYLAYER
 70
0
 71
3
 72
15
 73
11
 74
0
 42
0.0000001
 43
0.0000001
 44
0.0000000001
 40
0.0
 40
0.0
 40
0.0
 40
0.0
 40
0.1341109195
 40
0.2643730182
 40
0.3913156431
 40
0.5155488124
 40
0.6377646882
 40
0.7587143004
 40
0.8791897155
 40
1.0
 40
1.0
 40
1.0
 40
1.0
 10
34.3691909465
 20
33.6247415537
 30
0.0
 10
34.3320244096
 20
33.7038742421
 30
0.0
 10
34.2526795401
 20
33.8571166753
 30
0.0
 10
34.1166937151
 20
34.0733018155
 30
0.0
 10
33.9660564585
 20
34.2715682115
 30
0.0
 10
33.8012216754
 20
34.4511682555
 30
0.0
 10
33.6227610694
 20
34.6114706683
 30
0.0
 10
33.4312936277
 20
34.7519179393
 30
0.0
 10
33.2274841649
 20
34.8719338206
 30
0.0
 10
33.0843365168
 20
34.9378666144
 30
0.0
 10
33.0112626365
 20
34.967237434
 30
0.0
  0
SPLINE
  5
2F4
100
AcDbEntity
  8
0
100
AcDbSpline
 62
7
  6
BYLAYER
 70
0
 71
3
 72
14
 73
10
 74
0
 42
0.0000001
 43
0.0000001
 44
0.0000000001
 40
0.0
 40
0.0
 40
0.0
 40
0.0
 40
0.1202565013
 40
0.2405692282
 40
0.3616334082
 40
0.4841258096
 40
0.608680191
 40
0.7358774085
 40
1.0
 40
1.0
 40
1.0
 40
1.0
 10
26.1064944872
 20
22.7455209713
 30
0.0
 10
26.1664787039
 20
22.7036348017
 30
0.0
 10
26.2904638473
 20
22.6253913431
 30
0.0
 10
26.4869699847
 20
22.5257741819
 30
0.0
 10
26.6931618776
 20
22.4443405769
 30
0.0
 10
26.9083950114
 20
22.3813929563
 30
0.0
 10
27.1320264707
 20
22.3370491431
 30
0.0
 10
27.4442436051
 20
22.3024646775
 30
0.0
 10
27.6835646335
 20
22.3057806548
 30
0.0
 10
27.8436716527
 20
22.3194073634
 30
0.0
  0
SPLINE
  5
2F5
100
AcDbEntity
  8
0
100
AcDbSpline
 62
7
  6
BYLAYER
 70
0
 71
3
 72
14
 73
10
 74
0
 42
0.0000001
 43
0.0000001
 44
0.0000000001
 40
0.0
 40
0.0
 40
0.0
 40
0.0
 40
0.1162375294
 40
0.2334108929
 40
0.352408323
 40
0.4740543347
 40
0.599096451
 40
0.7281841042
 40
1.0
 40
1.0
 40
1.0
 40
1.0
 10
27.0441669207
 20
23.966050797
 30
0.0
 10
26.985772171
 20
23.999761508
 30
0.0
 10
26.8721594023
 20
24.0740074404
 30
0.0
 10
26.7140386884
 20
24.204173005
 30
0.0
 10
26.5685035606
 20
24.352708288
 30
0.0
 10
26.4362191167
 20
24.5189850595
 30
0.0
 10
26.3176502151
 20
24.7023061977
 30
0.0
 10
26.1761332014
 20
24.9729501348
 30
0.0
 10
26.095836387
 20
25.1926387376
 30
0.0
 10
26.0524753133
 20
25.3442333817
 30
0.0
  0
SPLINE
  5
2F6
100
AcDbEntity
  8
0
100
AcDbSpline
 62
7
  6
BYLAYER
 70
0
 71
3
 72
17
 73
13
 74
0
 42
0.0000001
 43
0.0000001
 44
0.0000000001
 40
0.0
 40
0.0
 40
0.0
 40
0.0
 40
0.0577054511
 40
0.1196426297
 40
0.1845662402
 40
0.2512779683
 40
0.3862412188
 40
0.5192069193
 40
0.647575908
 40
0.7703855722
 40
0.8876417005
 40
1.0
 40
1.0
 40
1.0
 40
1.0
 10
38.9971501949
 20
26.6819682666
 30
0.0
 10
38.945993844
 20
26.6524333099
 30
0.0
 10
38.8374522599
 20
26.5954388037
 30
0.0
 10
38.664788341
 20
26.5184942444
 30
0.0
 10
38.4794419521
 20
26.4481322511
 30
0.0
 10
38.219549106
 20
26.3645664338
 30
0.0
 10
37.8860573869
 20
26.2837653716
 30
0.0
 10
37.4836816982
 20
26.2270321162
 30
0.0
 10
37.0897473669
 20
26.214737617
 30
0.0
 10
36.7131201009
 20
26.2512100366
 30
0.0
 10
36.3619408623
 20
26.3401992643
 30
0.0
 10
36.146292471
 20
26.437707274
 30
0.0
 10
36.0466867994
 20
26.4952163082
 30
0.0
  0
SPLINE
  5
2F7
100
AcDbEntity
  8
0
100
AcDbSpline
 62
7
  6
BYLAYER
 70
0
 71
3
 72
11
 73
7
 74
0
 42
0.0000001
 43
0.0000001
 44
0.0000000001
 40
0.0
 40
0.0
 40
0.0
 40
0.0
 40
0.2497987793
 40
0.4997239977
 40
0.7497842271
 40
1.0
 40
1.0
 40
1.0
 40
1.0
 10
42.0248903164
 20
26.033591619
 30
0.0
 10
42.0215558474
 20
25.997309812
 30
0.0
 10
42.0146921074
 20
25.9247451185
 30
0.0
 10
42.0034821371
 20
25.8159591667
 30
0.0
 10
41.9914551745
 20
25.7071999709
 30
0.0
 10
41.982906544
 20
25.6347326609
 30
0.0
 10
41.9784030628
 20
25.5985160548
 30
0.0
  0
SPLINE
  5
2F8
100
AcDbEntity
  8
0
100
AcDbSpline
 62
7
  6
BYLAYER
 70
0
 71
3
 72
11
 73
7
 74
0
 42
0.0000001
 43
0.0000001
 44
0.0000000001
 40
0.0
 40
0.0
 40
0.0
 40
0.0
 40
0.2770831822
 40
0.5323758861
 40
0.7708321055
 40
1.0
 40
1.0
 40
1.0
 40
1.0
 10
36.3043643603
 20
26.3674668332
 30
0.0
 10
36.2719206635
 20
26.3958573599
 30
0.0
 10
36.2134818888
 20
26.4552116464
 30
0.0
 10
36.1461438037
 20
26.5554190959
 30
0.0
 10
36.1046158974
 20
26.6609973643
 30
0.0
 10
36.0952023368
 20
26.7340616032
 30
0.0
 10
36.0951960483
 20
26.7697180756
 30
0.0
  0
SPLINE
  5
2F9
100
AcDbEntity
  8
0
100
AcDbSpline
 62
7
  6
BYLAYER
 70
0
 71
3
 72
15
 73
11
 74
0
 42
0.0000001
 43
0.0000001
 44
0.0000000001
 40
0.0
 40
0.0
 40
0.0
 40
0.0
 40
0.1175539897
 40
0.2423414533
 40
0.3720462102
 40
0.5040117357
 40
0.6354344058
 40
0.7635128122
 40
0.8857589122
 40
1.0
 40
1.0
 40
1.0
 40
1.0
 10
38.1580068082
 20
26.3566815953
 30
0.0
 10
38.0971582378
 20
26.3852355646
 30
0.0
 10
37.9673424033
 20
26.4350336445
 30
0.0
 10
37.7605590627
 20
26.4867748086
 30
0.0
 10
37.541186649
 20
26.5166460688
 30
0.0
 10
37.3161374833
 20
26.5236845226
 30
0.0
 10
37.0924787049
 20
26.5076546117
 30
0.0
 10
36.8771827623
 20
26.4691062498
 30
0.0
 10
36.6770480643
 20
26.4091972817
 30
0.0
 10
36.5530122893
 20
26.3540665945
 30
0.0
 10
36.4955456527
 20
26.3230117034
 30
0.0
  0
SPLINE
  5
2FA
100
AcDbEntity
  8
0
100
AcDbSpline
 62
7
  6
BYLAYER
 70
0
 71
3
 72
11
 73
7
 74
0
 42
0.0000001
 43
0.0000001
 44
0.0000000001
 40
0.0
 40
0.0
 40
0.0
 40
0.0
 40
0.234907316
 40
0.4763448984
 40
0.7299264545
 40
1.0
 40
1.0
 40
1.0
 40
1.0
 10
38.625186314
 20
26.769718075
 30
0.0
 10
38.625191474
 20
26.7404604546
 30
0.0
 10
38.6189142077
 20
26.6809586258
 30
0.0
 10
38.5910947412
 20
26.5938214276
 30
0.0
 10
38.5454999935
 20
26.5095879117
 30
0.0
 10
38.5051733615
 20
26.4579407308
 30
0.0
 10
38.4826705682
 20
26.4329385335
 30
0.0
  0
SPLINE
  5
2FB
100
AcDbEntity
  8
0
100
AcDbSpline
 62
7
  6
BYLAYER
 70
0
 71
3
 72
15
 73
11
 74
0
 42
0.0000001
 43
0.0000001
 44
0.0000000001
 40
0.0
 40
0.0
 40
0.0
 40
0.0
 40
0.1080049372
 40
0.2180564525
 40
0.3319967938
 40
0.4513541817
 40
0.5772763149
 40
0.7104981883
 40
0.8513958471
 40
1.0
 40
1.0
 40
1.0
 40
1.0
 10
37.4815538
 20
19.6721916385
 30
0.0
 10
37.5471300268
 20
19.6343303601
 30
0.0
 10
37.686379503
 20
19.5691544086
 30
0.0
 10
37.9116684256
 20
19.5068286608
 30
0.0
 10
38.1518484435
 20
19.480058338
 30
0.0
 10
38.4043446054
 20
19.4888241591
 30
0.0
 10
38.6667193714
 20
19.5328710914
 30
0.0
 10
38.9365366011
 20
19.6115083274
 30
0.0
 10
39.2112447269
 20
19.7239650198
 30
0.0
 10
39.3913429598
 20
19.8182385741
 30
0.0
 10
39.4815692323
 20
19.8703322314
 30
0.0
  0
SPLINE
  5
2FC
100
AcDbEntity
  8
0
100
AcDbSpline
 62
7
  6
BYLAYER
 70
0
 71
3
 72
14
 73
10
 74
0
 42
0.0000001
 43
0.0000001
 44
0.0000000001
 40
0.0
 40
0.0
 40
0.0
 40
0.0
 40
0.0994717243
 40
0.2127828729
 40
0.3373480337
 40
0.4703950582
 40
0.7461950098
 40
0.8789546341
 40
1.0
 40
1.0
 40
1.0
 40
1.0
 10
30.127940764
 20
24.3087646397
 30
0.0
 10
30.133611668
 20
24.2952031833
 30
0.0
 10
30.148078283
 20
24.2671644853
 30
0.0
 10
30.1756116247
 20
24.225530973
 30
0.0
 10
30.2097448738
 20
24.1825614486
 30
0.0
 10
30.2631566165
 20
24.1245322158
 30
0.0
 10
30.3228706867
 20
24.0708619806
 30
0.0
 10
30.3856581598
 20
24.0240878314
 30
0.0
 10
30.4172566716
 20
24.0037903208
 30
0.0
 10
30.4327477307
 20
23.994846756
 30
0.0
  0
SPLINE
  5
2FD
100
AcDbEntity
  8
0
100
AcDbSpline
 62
7
  6
BYLAYER
 70
0
 71
3
 72
11
 73
7
 74
0
 42
0.0000001
 43
0.0000001
 44
0.0000000001
 40
0.0
 40
0.0
 40
0.0
 40
0.0
 40
0.2275322579
 40
0.4678104028
 40
0.7245642004
 40
1.0
 40
1.0
 40
1.0
 40
1.0
 10
38.3614931566
 20
19.7854682664
 30
0.0
 10
38.4439738087
 20
19.7625150492
 30
0.0
 10
38.618839433
 20
19.7328867037
 30
0.0
 10
38.8927394593
 20
19.7379598478
 30
0.0
 10
39.1797032753
 20
19.7907033257
 30
0.0
 10
39.3701727081
 20
19.8546734776
 30
0.0
 10
39.4662909073
 20
19.8934356417
 30
0.0
  0
SPLINE
  5
2FE
100
AcDbEntity
  8
0
100
AcDbSpline
 62
7
  6
BYLAYER
 70
0
 71
3
 72
9
 73
5
 74
0
 42
0.0000001
 43
0.0000001
 44
0.0000000001
 40
0.0
 40
0.0
 40
0.0
 40
0.0
 40
0.2425644437
 40
1.0
 40
1.0
 40
1.0
 40
1.0
 10
39.4662909073
 20
19.8934356417
 30
0.0
 10
39.4971146693
 20
19.9058661256
 30
0.0
 10
39.6232019819
 20
19.959546395
 30
0.0
 10
39.7452401152
 20
20.0225811424
 30
0.0
 10
39.8351179852
 20
20.0744736369
 30
0.0
  0
SPLINE
  5
2FF
100
AcDbEntity
  8
0
100
AcDbSpline
 62
7
  6
BYLAYER
 70
0
 71
3
 72
25
 73
21
 74
0
 42
0.0000001
 43
0.0000001
 44
0.0000000001
 40
0.0
 40
0.0
 40
0.0
 40
0.0
 40
0.0467758456
 40
0.069566504
 40
0.0921573482
 40
0.1147427376
 40
0.1375186034
 40
0.184305473
 40
0.2338489166
 40
0.2870454227
 40
0.3444027072
 40
0.406069349
 40
0.4718999084
 40
0.5415180121
 40
0.6143638983
 40
0.6897443918
 40
0.766864776
 40
0.8448636625
 40
0.9228961403
 40
1.0
 40
1.0
 40
1.0
 40
1.0
 10
41.9783698206
 20
25.5984968626
 30
0.0
 10
41.9258227454
 20
25.6732551276
 30
0.0
 10
41.8362625869
 20
25.777238901
 30
0.0
 10
41.6975885538
 20
25.8924923137
 30
0.0
 10
41.5863087907
 20
25.9654748259
 30
0.0
 10
41.4674975339
 20
26.0253268053
 30
0.0
 10
41.2983393273
 20
26.0878561624
 30
0.0
 10
41.0678295327
 20
26.1314724514
 30
0.0
 10
40.774086902
 20
26.1272506484
 30
0.0
 10
40.4655636533
 20
26.0681154567
 30
0.0
 10
40.1473505596
 20
25.9555973658
 30
0.0
 10
39.8244809572
 20
25.7919146287
 30
0.0
 10
39.5021470679
 20
25.5799431699
 30
0.0
 10
39.185635878
 20
25.3232515297
 30
0.0
 10
38.8801987409
 20
25.0261554638
 30
0.0
 10
38.5909411802
 20
24.6936676999
 30
0.0
 10
38.3227453757
 20
24.3314068543
 30
0.0
 10
38.0800976062
 20
23.9454328191
 30
0.0
 10
37.867208078
 20
23.5423520604
 30
0.0
 10
37.7462645038
 20
23.2640741514
 30
0.0
 10
37.6917806177
 20
23.1236482052
 30
0.0
  0
SPLINE
  5
300
100
AcDbEntity
  8
0
100
AcDbSpline
 62
7
  6
BYLAYER
 70
0
 71
3
 72
22
 73
18
 74
0
 42
0.0000001
 43
0.0000001
 44
0.0000000001
 40
0.0
 40
0.0
 40
0.0
 40
0.0
 40
0.0623720644
 40
0.1287687548
 40
0.1983769917
 40
0.2703688285
 40
0.4173904982
 40
0.4904354058
 40
0.5617443454
 40
0.6303607923
 40
0.6954690383
 40
0.7564342775
 40
0.8128877812
 40
0.8648053158
 40
0.912592642
 40
0.9571804765
 40
1.0
 40
1.0
 40
1.0
 40
1.0
 10
36.4656973788
 20
27.2861426298
 30
0.0
 10
36.5111248004
 20
27.3123700073
 30
0.0
 10
36.6085405841
 20
27.3603710953
 30
0.0
 10
36.7656392645
 20
27.4173391851
 30
0.0
 10
36.935464821
 20
27.4604430038
 30
0.0
 10
37.1754441811
 20
27.4984594117
 30
0.0
 10
37.422408409
 20
27.5052777373
 30
0.0
 10
37.6664745762
 20
27.4810198196
 30
0.0
 10
37.8427161311
 20
27.4476716313
 30
0.0
 10
38.0086602684
 20
27.3998317876
 30
0.0
 10
38.1608362062
 20
27.3385428657
 30
0.0
 10
38.2960232754
 20
27.2650049467
 30
0.0
 10
38.4114012115
 20
27.1806934509
 30
0.0
 10
38.5045286664
 20
27.0871990441
 30
0.0
 10
38.5732067862
 20
26.9861374129
 30
0.0
 10
38.6155692635
 20
26.8795544339
 30
0.0
 10
38.6251799629
 20
26.8057293512
 30
0.0
 10
38.625186314
 20
26.769718075
 30
0.0
  0
SPLINE
  5
301
100
AcDbEntity
  8
0
100
AcDbSpline
 62
7
  6
BYLAYER
 70
0
 71
3
 72
19
 73
15
 74
0
 42
0.0000001
 43
0.0000001
 44
0.0000000001
 40
0.0
 40
0.0
 40
0.0
 40
0.0
 40
0.1316782783
 40
0.2598851321
 40
0.3854237044
 40
0.5086050212
 40
0.5694631061
 40
0.6298392188
 40
0.6898738479
 40
0.7498328459
 40
0.8101527598
 40
0.8714565031
 40
0.9344930706
 40
1.0
 40
1.0
 40
1.0
 40
1.0
 10
36.0466867994
 20
26.4952163082
 30
0.0
 10
35.9505151707
 20
26.550742639
 30
0.0
 10
35.7706373951
 20
26.6789343431
 30
0.0
 10
35.548083653
 20
26.9188774358
 30
0.0
 10
35.3831468337
 20
27.1932524796
 30
0.0
 10
35.2983915066
 20
27.4427097337
 30
0.0
 10
35.2672047179
 20
27.6469093883
 30
0.0
 10
35.2632527913
 20
27.8001799451
 30
0.0
 10
35.280194717
 20
27.951868246
 30
0.0
 10
35.3196755974
 20
28.0993710031
 30
0.0
 10
35.3832495447
 20
28.2395052904
 30
0.0
 10
35.4719719625
 20
28.3685338417
 30
0.0
 10
35.5857383905
 20
28.4824052217
 30
0.0
 10
35.6753885642
 20
28.5445006077
 30
0.0
 10
35.7232321674
 20
28.57212296
 30
0.0
  0
SPLINE
  5
302
100
AcDbEntity
  8
0
100
AcDbSpline
 62
7
  6
BYLAYER
 70
0
 71
3
 72
34
 73
30
 74
0
 42
0.0000001
 43
0.0000001
 44
0.0000000001
 40
0.0
 40
0.0
 40
0.0
 40
0.0
 40
0.034620318
 40
0.0708343192
 40
0.1085537734
 40
0.1475628151
 40
0.1875892855
 40
0.2283509769
 40
0.3109943852
 40
0.3935978332
 40
0.47432956
 40
0.5512922281
 40
0.6225192057
 40
0.6554085405
 40
0.6862262999
 40
0.7148369461
 40
0.7411591574
 40
0.7651754412
 40
0.7869474892
 40
0.8066430332
 40
0.8245827885
 40
0.8413057374
 40
0.8576194387
 40
0.874562328
 40
0.8932394299
 40
0.9146166169
 40
0.9393790478
 40
0.9678563082
 40
1.0
 40
1.0
 40
1.0
 40
1.0
 10
35.7232321674
 20
28.57212296
 30
0.0
 10
35.7732573682
 20
28.6010048507
 30
0.0
 10
35.8808427102
 20
28.6513635813
 30
0.0
 10
36.0550457912
 20
28.7029141243
 30
0.0
 10
36.2415772972
 20
28.732735625
 30
0.0
 10
36.4364702849
 20
28.742300647
 30
0.0
 10
36.6364070829
 20
28.7337270744
 30
0.0
 10
36.9073376696
 20
28.7010109422
 30
0.0
 10
37.2437480273
 20
28.6266328572
 30
0.0
 10
37.6348251829
 20
28.5008341961
 30
0.0
 10
38.0070585295
 20
28.3511079089
 30
0.0
 10
38.3527638571
 20
28.188293429
 30
0.0
 10
38.6191190119
 20
28.0453195121
 30
0.0
 10
38.8124772478
 20
27.929929308
 30
0.0
 10
38.9419845555
 20
27.8464728743
 30
0.0
 10
39.058997526
 20
27.7640561138
 30
0.0
 10
39.162704963
 20
27.6827175529
 30
0.0
 10
39.2523482479
 20
27.6022987671
 30
0.0
 10
39.3271776197
 20
27.522441698
 30
0.0
 10
39.3863719835
 20
27.4425813996
 30
0.0
 10
39.428883102
 20
27.3619502965
 30
0.0
 10
39.4531730215
 20
27.2797222586
 30
0.0
 10
39.4571361302
 20
27.1955366044
 30
0.0
 10
39.438850308
 20
27.1099034414
 30
0.0
 10
39.3973255722
 20
27.0235156116
 30
0.0
 10
39.3320628138
 20
26.9366060898
 30
0.0
 10
39.2426901234
 20
26.8493937855
 30
0.0
 10
39.1294193185
 20
26.7625735214
 30
0.0
 10
39.0435967537
 20
26.7087840397
 30
0.0
 10
38.9971501949
 20
26.6819682666
 30
0.0
  0
SPLINE
  5
303
100
AcDbEntity
  8
0
100
AcDbSpline
 62
7
  6
BYLAYER
 70
0
 71
3
 72
14
 73
10
 74
0
 42
0.0000001
 43
0.0000001
 44
0.0000000001
 40
0.0
 40
0.0
 40
0.0
 40
0.0
 40
0.1080489963
 40
0.2181413076
 40
0.3321041937
 40
0.4514761502
 40
0.5774316941
 40
0.7107836617
 40
1.0
 40
1.0
 40
1.0
 40
1.0
 10
36.0951960483
 20
26.7697180756
 30
0.0
 10
36.0951918246
 20
26.7936663277
 30
0.0
 10
36.0993522317
 20
26.8421145179
 30
0.0
 10
36.1179368647
 20
26.9136606686
 30
0.0
 10
36.1485478621
 20
26.9836792929
 30
0.0
 10
36.1908801723
 20
27.051427806
 30
0.0
 10
36.244425248
 20
27.1163506815
 30
0.0
 10
36.3324309687
 20
27.2005316105
 30
0.0
 10
36.4101827814
 20
27.2540914533
 30
0.0
 10
36.4656973788
 20
27.2861426298
 30
0.0
  0
SPLINE
  5
304
100
AcDbEntity
  8
0
100
AcDbSpline
 62
7
  6
BYLAYER
 70
0
 71
3
 72
10
 73
6
 74
0
 42
0.0000001
 43
0.0000001
 44
0.0000000001
 40
0.0
 40
0.0
 40
0.0
 40
0.0
 40
0.2698083979
 40
0.526456628
 40
1.0
 40
1.0
 40
1.0
 40
1.0
 10
29.9355626188
 20
25.3816242336
 30
0.0
 10
29.9355626188
 20
25.2830711783
 30
0.0
 10
29.9431050051
 20
25.0905957815
 30
0.0
 10
29.9894316245
 20
24.7281051875
 30
0.0
 10
30.0612098321
 20
24.4683456553
 30
0.0
 10
30.127940764
 20
24.3087646397
 30
0.0
  0
SPLINE
  5
305
100
AcDbEntity
  8
0
100
AcDbSpline
 62
7
  6
BYLAYER
 70
0
 71
3
 72
9
 73
5
 74
0
 42
0.0000001
 43
0.0000001
 44
0.0000000001
 40
0.0
 40
0.0
 40
0.0
 40
0.0
 40
0.2561165546
 40
1.0
 40
1.0
 40
1.0
 40
1.0
 10
29.963457254
 20
25.8552937457
 30
0.0
 10
29.958850585
 20
25.8150361072
 30
0.0
 10
29.9429548413
 20
25.6576240263
 30
0.0
 10
29.9355626188
 20
25.4993144721
 30
0.0
 10
29.9355626188
 20
25.3816242336
 30
0.0
  0
SPLINE
  5
306
100
AcDbEntity
  8
0
100
AcDbSpline
 62
7
  6
BYLAYER
 70
0
 71
3
 72
9
 73
5
 74
0
 42
0.0000001
 43
0.0000001
 44
0.0000000001
 40
0.0
 40
0.0
 40
0.0
 40
0.0
 40
0.243581515
 40
1.0
 40
1.0
 40
1.0
 40
1.0
 10
27.3393192228
 20
25.6485449237
 30
0.0
 10
27.320447171
 20
25.6727078461
 30
0.0
 10
27.2459350389
 20
25.7742074426
 30
0.0
 10
27.1833671222
 20
25.8843093856
 30
0.0
 10
27.1426062011
 20
25.9703527922
 30
0.0
  0
SPLINE
  5
307
100
AcDbEntity
  8
0
100
AcDbSpline
 62
7
  6
BYLAYER
 70
0
 71
3
 72
24
 73
20
 74
0
 42
0.0000001
 43
0.0000001
 44
0.0000000001
 40
0.0
 40
0.0
 40
0.0
 40
0.0
 40
0.0216253683
 40
0.043404576
 40
0.0879434513
 40
0.1347046274
 40
0.1844691792
 40
0.23773449
 40
0.2947299226
 40
0.3554482945
 40
0.4196955621
 40
0.4871231196
 40
0.5572591769
 40
0.629544002
 40
0.7033490421
 40
0.7779925295
 40
0.852777395
 40
0.9270350584
 40
1.0
 40
1.0
 40
1.0
 40
1.0
 10
41.4814869012
 20
26.6004357308
 30
0.0
 10
41.4418087091
 20
26.6233444456
 30
0.0
 10
41.3597206274
 20
26.6652342843
 30
0.0
 10
41.1857160459
 20
26.7325872505
 30
0.0
 10
40.9501375234
 20
26.7846044511
 30
0.0
 10
40.6499067809
 20
26.7937005872
 30
0.0
 10
40.3341825655
 20
26.7507494816
 30
0.0
 10
40.0073534965
 20
26.6568102504
 30
0.0
 10
39.6737739666
 20
26.5134494678
 30
0.0
 10
39.3378809825
 20
26.3228542646
 30
0.0
 10
39.0042232665
 20
26.0876997512
 30
0.0
 10
38.6773838231
 20
25.8112563769
 30
0.0
 10
38.3618404179
 20
25.4974146523
 30
0.0
 10
38.0620036174
 20
25.1505180487
 30
0.0
 10
37.7820682829
 20
24.7754171076
 30
0.0
 10
37.5259077962
 20
24.3773990951
 30
0.0
 10
37.2971111565
 20
23.9619425441
 30
0.0
 10
37.0989721976
 20
23.5349615782
 30
0.0
 10
36.9877754481
 20
23.2431983379
 30
0.0
 10
36.938157202
 20
23.0967902744
 30
0.0
  0
SPLINE
  5
308
100
AcDbEntity
  8
0
100
AcDbSpline
 62
7
  6
BYLAYER
 70
0
 71
3
 72
9
 73
5
 74
0
 42
0.0000001
 43
0.0000001
 44
0.0000000001
 40
0.0
 40
0.0
 40
0.0
 40
0.0
 40
0.4860925281
 40
1.0
 40
1.0
 40
1.0
 40
1.0
 10
18.0560956846
 20
22.5236201108
 30
0.0
 10
17.8564753626
 20
22.4083699521
 30
0.0
 10
17.4319705401
 20
22.1947919924
 30
0.0
 10
16.9887407177
 20
22.0241541585
 30
0.0
 10
16.7577183998
 20
21.9466042812
 30
0.0
  0
SPLINE
  5
309
100
AcDbEntity
  8
0
100
AcDbSpline
 62
7
  6
BYLAYER
 70
0
 71
3
 72
25
 73
21
 74
0
 42
0.0000001
 43
0.0000001
 44
0.0000000001
 40
0.0
 40
0.0
 40
0.0
 40
0.0
 40
0.0689002227
 40
0.140222836
 40
0.2132104682
 40
0.2870552296
 40
0.3609151961
 40
0.4339482304
 40
0.5053419605
 40
0.5743428199
 40
0.6402894903
 40
0.7026501654
 40
0.7610644053
 40
0.8153930096
 40
0.8657757077
 40
0.9126902396
 40
0.9351286501
 40
0.9570503907
 40
0.9786162204
 40
1.0
 40
1.0
 40
1.0
 40
1.0
 10
16.7577183998
 20
21.9466042812
 30
0.0
 10
16.5128313799
 20
21.8644002824
 30
0.0
 10
16.0064773188
 20
21.7201243712
 30
0.0
 10
15.2213323678
 20
21.5657847991
 30
0.0
 10
14.4080350528
 20
21.4716786372
 30
0.0
 10
13.5804753331
 20
21.4394087464
 30
0.0
 10
12.7526586518
 20
21.4695090304
 30
0.0
 10
11.9386371596
 20
21.5614709903
 30
0.0
 10
11.1522030158
 20
21.7137368453
 30
0.0
 10
10.4066550765
 20
21.923754693
 30
0.0
 10
9.7145557587
 20
22.1880181764
 30
0.0
 10
9.0875072307
 20
22.5021777223
 30
0.0
 10
8.5359901745
 20
22.8611662183
 30
0.0
 10
8.0692516534
 20
23.2594557515
 30
0.0
 10
7.6954176472
 20
23.6908786028
 30
0.0
 10
7.4637536496
 20
24.0788450924
 30
0.0
 10
7.3347975896
 20
24.3964062673
 30
0.0
 10
7.2663726346
 20
24.6344299921
 30
0.0
 10
7.2251399225
 20
24.8746052042
 30
0.0
 10
7.215955179
 20
25.0357782695
 30
0.0
 10
7.215960282
 20
25.1159488687
 30
0.0
  0
SPLINE
  5
30A
100
AcDbEntity
  8
0
100
AcDbSpline
 62
7
  6
BYLAYER
 70
0
 71
3
 72
26
 73
22
 74
0
 42
0.0000001
 43
0.0000001
 44
0.0000000001
 40
0.0
 40
0.0
 40
0.0
 40
0.0
 40
0.062376922
 40
0.12871554
 40
0.1983023033
 40
0.2702747841
 40
0.343647222
 40
0.4173755509
 40
0.4903965542
 40
0.5616796272
 40
0.6302732243
 40
0.6953569211
 40
0.7563005465
 40
0.8127339744
 40
0.8646308837
 40
0.8890162662
 40
0.9124637154
 40
0.9351070072
 40
0.9571105434
 40
0.978669525
 40
1.0
 40
1.0
 40
1.0
 40
1.0
 10
18.0560956846
 20
23.9933244616
 30
0.0
 10
17.8279613073
 20
23.8616118037
 30
0.0
 10
17.33904088
 20
23.6205556723
 30
0.0
 10
16.5503666164
 20
23.3347752074
 30
0.0
 10
15.6980670799
 20
23.1184268198
 30
0.0
 10
14.8004160708
 20
22.976078137
 30
0.0
 10
13.8764165038
 20
22.9107643453
 30
0.0
 10
12.9457949795
 20
22.9238540027
 30
0.0
 10
12.0283967561
 20
23.0150834778
 30
0.0
 10
11.1437796776
 20
23.1825055417
 30
0.0
 10
10.3107352077
 20
23.4225902831
 30
0.0
 10
9.5468870345
 20
23.7303122573
 30
0.0
 10
8.8682420945
 20
24.0994504994
 30
0.0
 10
8.2891436669
 20
24.5225430772
 30
0.0
 10
7.891540155
 20
24.9219471078
 30
0.0
 10
7.6393997976
 20
25.2600701432
 30
0.0
 10
7.4862784859
 20
25.5159437449
 30
0.0
 10
7.3660931113
 20
25.7778647652
 30
0.0
 10
7.279694551
 20
26.0444923824
 30
0.0
 10
7.2275818918
 20
26.3142338869
 30
0.0
 10
7.2159545481
 20
26.4955716303
 30
0.0
 10
7.215960282
 20
26.5856532195
 30
0.0
  0
SPLINE
  5
30B
100
AcDbEntity
  8
0
100
AcDbSpline
 62
7
  6
BYLAYER
 70
0
 71
3
 72
11
 73
7
 74
0
 42
0.0000001
 43
0.0000001
 44
0.0000000001
 40
0.0
 40
0.0
 40
0.0
 40
0.0
 40
0.2479271973
 40
0.4999609248
 40
0.7520152305
 40
1.0
 40
1.0
 40
1.0
 40
1.0
 10
15.6345219741
 20
24.9068747475
 30
0.0
 10
15.2974477006
 20
24.8436950634
 30
0.0
 10
14.6111289562
 20
24.7493884289
 30
0.0
 10
13.5706235347
 20
24.702238588
 30
0.0
 10
12.5299993364
 20
24.7485528274
 30
0.0
 10
11.843500439
 20
24.842324773
 30
0.0
 10
11.5062908661
 20
24.9052141227
 30
0.0
  0
SPLINE
  5
30C
100
AcDbEntity
  8
0
100
AcDbSpline
 62
7
  6
BYLAYER
 70
0
 71
3
 72
16
 73
12
 74
0
 42
0.0000001
 43
0.0000001
 44
0.0000000001
 40
0.0
 40
0.0
 40
0.0
 40
0.0
 40
0.1438013982
 40
0.2812137767
 40
0.4122871066
 40
0.4756407138
 40
0.5376420911
 40
0.657947472
 40
0.7742831874
 40
0.8878088426
 40
1.0
 40
1.0
 40
1.0
 40
1.0
 10
17.6503626253
 20
19.9601409237
 30
0.0
 10
17.7767660613
 20
20.035702797
 30
0.0
 10
18.0179683737
 20
20.193882034
 30
0.0
 10
18.3482939318
 20
20.4578810054
 30
0.0
 10
18.5906526476
 20
20.6972110493
 30
0.0
 10
18.7605353175
 20
20.8976633895
 30
0.0
 10
18.9111368231
 20
21.0993488944
 30
0.0
 10
19.0701841638
 20
21.3617645622
 30
0.0
 10
19.2108134195
 20
21.6930959137
 30
0.0
 10
19.2966564144
 20
22.0341735765
 30
0.0
 10
19.3159489299
 20
22.2657712309
 30
0.0
 10
19.3159489299
 20
22.3806658046
 30
0.0
  0
SPLINE
  5
30D
100
AcDbEntity
  8
0
100
AcDbSpline
 62
7
  6
BYLAYER
 70
0
 71
3
 72
17
 73
13
 74
0
 42
0.0000001
 43
0.0000001
 44
0.0000000001
 40
0.0
 40
0.0
 40
0.0
 40
0.0
 40
0.117786957
 40
0.2427142476
 40
0.3725420702
 40
0.5045883871
 40
0.6359819343
 40
0.7639098405
 40
0.8257903904
 40
0.8859102749
 40
0.9440595487
 40
1.0
 40
1.0
 40
1.0
 40
1.0
 10
9.905759681
 20
19.7309110443
 30
0.0
 10
10.1859995785
 20
19.5941568527
 30
0.0
 10
10.7854227685
 20
19.3560953394
 30
0.0
 10
11.7427774994
 20
19.1102185904
 30
0.0
 10
12.7592867394
 20
18.9699288205
 30
0.0
 10
13.801960238
 20
18.9395201425
 30
0.0
 10
14.8368852402
 20
19.0198456005
 30
0.0
 10
15.6743390069
 20
19.1788488423
 30
0.0
 10
16.3109020471
 20
19.3606583801
 30
0.0
 10
16.7605940883
 20
19.5205892198
 30
0.0
 10
17.1839571008
 20
19.7044204334
 30
0.0
 10
17.451796999
 20
19.844787445
 30
0.0
 10
17.5800518586
 20
19.9188349807
 30
0.0
  0
SPLINE
  5
30E
100
AcDbEntity
  8
0
100
AcDbSpline
 62
7
  6
BYLAYER
 70
0
 71
3
 72
11
 73
7
 74
0
 42
0.0000001
 43
0.0000001
 44
0.0000000001
 40
0.0
 40
0.0
 40
0.0
 40
0.0
 40
0.2588016988
 40
0.5109343647
 40
0.7581711513
 40
1.0
 40
1.0
 40
1.0
 40
1.0
 10
9.1077152052
 20
20.2067394191
 30
0.0
 10
9.172556564
 20
20.1594889994
 30
0.0
 10
9.3040868537
 20
20.0710382336
 30
0.0
 10
9.5044691804
 20
19.9481326376
 30
0.0
 10
9.7040975464
 20
19.8342852316
 30
0.0
 10
9.8383955532
 20
19.7637823001
 30
0.0
 10
9.9057694616
 20
19.7309016467
 30
0.0
  0
SPLINE
  5
30F
100
AcDbEntity
  8
0
100
AcDbSpline
 62
7
  6
BYLAYER
 70
0
 71
3
 72
14
 73
10
 74
0
 42
0.0000001
 43
0.0000001
 44
0.0000000001
 40
0.0
 40
0.0
 40
0.0
 40
0.0
 40
0.1147087602
 40
0.2304106701
 40
0.3483144324
 40
0.4694081265
 40
0.5945070947
 40
0.724358394
 40
1.0
 40
1.0
 40
1.0
 40
1.0
 10
7.8159489299
 20
22.3806658046
 30
0.0
 10
7.8159489299
 20
22.2803341641
 30
0.0
 10
7.8306276918
 20
22.0785090431
 30
0.0
 10
7.8959629884
 20
21.7799606327
 30
0.0
 10
8.0035904256
 20
21.4879859832
 30
0.0
 10
8.1515727669
 20
21.2050807677
 30
0.0
 10
8.3381884443
 20
20.9333256613
 30
0.0
 10
8.6414786567
 20
20.5811464621
 30
0.0
 10
8.9128586693
 20
20.3487336626
 30
0.0
 10
9.1077068396
 20
20.2067462468
 30
0.0
  0
SPLINE
  5
310
100
AcDbEntity
  8
0
100
AcDbSpline
 62
7
  6
BYLAYER
 70
0
 71
3
 72
9
 73
5
 74
0
 42
0.0000001
 43
0.0000001
 44
0.0000000001
 40
0.0
 40
0.0
 40
0.0
 40
0.0
 40
0.244722107
 40
1.0
 40
1.0
 40
1.0
 40
1.0
 10
17.7356248288
 20
25.2901136166
 30
0.0
 10
17.7315728188
 20
25.2904969364
 30
0.0
 10
17.7150589584
 20
25.2925087225
 30
0.0
 10
17.6987642817
 20
25.2962234303
 30
0.0
 10
17.6867344205
 20
25.2998389109
 30
0.0
  0
SPLINE
  5
311
100
AcDbEntity
  8
0
100
AcDbSpline
 62
7
  6
BYLAYER
 70
0
 71
3
 72
9
 73
5
 74
0
 42
0.0000001
 43
0.0000001
 44
0.0000000001
 40
0.0
 40
0.0
 40
0.0
 40
0.0
 40
0.2545506549
 40
1.0
 40
1.0
 40
1.0
 40
1.0
 10
35.06960981
 20
34.3416938703
 30
0.0
 10
35.0481230331
 20
34.3787247947
 30
0.0
 10
34.9610201872
 20
34.5226140321
 30
0.0
 10
34.8629435771
 20
34.6599198628
 30
0.0
 10
34.7838281779
 20
34.7571845706
 30
0.0
  0
SPLINE
  5
312
100
AcDbEntity
  8
0
100
AcDbSpline
 62
7
  6
BYLAYER
 70
0
 71
3
 72
9
 73
5
 74
0
 42
0.0000001
 43
0.0000001
 44
0.0000000001
 40
0.0
 40
0.0
 40
0.0
 40
0.0
 40
0.5033791576
 40
1.0
 40
1.0
 40
1.0
 40
1.0
 10
34.6249278951
 20
34.937056745
 30
0.0
 10
34.5362822862
 20
35.0293913491
 30
0.0
 10
34.3475393972
 20
35.2011590323
 30
0.0
 10
34.1362576719
 20
35.3444177181
 30
0.0
 10
34.0268943785
 20
35.4075557742
 30
0.0
  0
SPLINE
  5
313
100
AcDbEntity
  8
0
100
AcDbSpline
 62
7
  6
BYLAYER
 70
0
 71
3
 72
10
 73
6
 74
0
 42
0.0000001
 43
0.0000001
 44
0.0000000001
 40
0.0
 40
0.0
 40
0.0
 40
0.0
 40
0.3946067845
 40
0.6696350225
 40
1.0
 40
1.0
 40
1.0
 40
1.0
 10
35.9183722203
 20
31.5870013897
 30
0.0
 10
35.9185229179
 20
31.5820014026
 30
0.0
 10
35.9140929978
 20
31.5737326512
 30
0.0
 10
35.9051484263
 20
31.5649424146
 30
0.0
 10
35.8989257733
 20
31.560339369
 30
0.0
 10
35.8954301179
 20
31.558033109
 30
0.0
  0
SPLINE
  5
314
100
AcDbEntity
  8
0
100
AcDbSpline
 62
7
  6
BYLAYER
 70
0
 71
3
 72
11
 73
7
 74
0
 42
0.0000001
 43
0.0000001
 44
0.0000000001
 40
0.0
 40
0.0
 40
0.0
 40
0.0
 40
0.2287333457
 40
0.4708848654
 40
0.727818925
 40
1.0
 40
1.0
 40
1.0
 40
1.0
 10
35.3423663894
 20
33.8715982518
 30
0.0
 10
35.4333861505
 20
33.7147256111
 30
0.0
 10
35.5949554185
 20
33.3763142224
 30
0.0
 10
35.7693675915
 20
32.8245872798
 30
0.0
 10
35.8810044416
 20
32.2219500254
 30
0.0
 10
35.9123955245
 20
31.8027356997
 30
0.0
 10
35.918375664
 20
31.5870022434
 30
0.0
  0
SPLINE
  5
315
100
AcDbEntity
  8
0
100
AcDbSpline
 62
7
  6
BYLAYER
 70
0
 71
3
 72
16
 73
12
 74
0
 42
0.0000001
 43
0.0000001
 44
0.0000000001
 40
0.0
 40
0.0
 40
0.0
 40
0.0
 40
0.1090110605
 40
0.2199118306
 40
0.3344280633
 40
0.4540068797
 40
0.5160801319
 40
0.5798028985
 40
0.7124778499
 40
0.8525525218
 40
1.0
 40
1.0
 40
1.0
 40
1.0
 10
26.9220008932
 20
21.9581279475
 30
0.0
 10
26.8075619249
 20
22.024201894
 30
0.0
 10
26.5872181814
 20
22.1766992209
 30
0.0
 10
26.294056961
 20
22.4590082182
 30
0.0
 10
26.0394523555
 20
22.7926832408
 30
0.0
 10
25.8635097513
 20
23.1069551869
 30
0.0
 10
25.7433417666
 20
23.3792078561
 30
0.0
 10
25.6344518284
 20
23.673184456
 30
0.0
 10
25.5265076958
 20
24.067455926
 30
0.0
 10
25.4433406142
 20
24.5707462974
 30
0.0
 10
25.418501787
 20
24.9189318652
 30
0.0
 10
25.4131076817
 20
25.0975873938
 30
0.0
  0
SPLINE
  5
316
100
AcDbEntity
  8
0
100
AcDbSpline
 62
7
  6
BYLAYER
 70
0
 71
3
 72
11
 73
7
 74
0
 42
0.0000001
 43
0.0000001
 44
0.0000000001
 40
0.0
 40
0.0
 40
0.0
 40
0.0
 40
0.2449200338
 40
0.491972117
 40
0.7431202963
 40
1.0
 40
1.0
 40
1.0
 40
1.0
 10
26.1270276408
 20
21.7242756613
 30
0.0
 10
26.213272245
 20
21.6744845797
 30
0.0
 10
26.3923636023
 20
21.5842414197
 30
0.0
 10
26.6763640339
 20
21.4793245519
 30
0.0
 10
26.974859004
 20
21.4050498653
 30
0.0
 10
27.1798666808
 20
21.3764609012
 30
0.0
 10
27.2839008551
 20
21.3671678082
 30
0.0
  0
SPLINE
  5
317
100
AcDbEntity
  8
0
100
AcDbSpline
 62
7
  6
BYLAYER
 70
0
 71
3
 72
15
 73
11
 74
0
 42
0.0000001
 43
0.0000001
 44
0.0000000001
 40
0.0
 40
0.0
 40
0.0
 40
0.0
 40
0.1484729998
 40
0.2894667185
 40
0.4227513796
 40
0.5486589981
 40
0.6679939989
 40
0.7819275581
 40
0.8919838442
 40
1.0
 40
1.0
 40
1.0
 40
1.0
 10
35.2388149022
 20
37.3331497362
 30
0.0
 10
35.2388149022
 20
37.385196562
 30
0.0
 10
35.2345879449
 20
37.4867366945
 30
0.0
 10
35.2146264533
 20
37.6338145848
 30
0.0
 10
35.1812336343
 20
37.7703656779
 30
0.0
 10
35.1346869847
 20
37.8949892802
 30
0.0
 10
35.0753701013
 20
38.0065057154
 30
0.0
 10
35.0037132148
 20
38.103786013
 30
0.0
 10
34.9204376302
 20
38.1858001959
 30
0.0
 10
34.8573723133
 20
38.2297726259
 30
0.0
 10
34.8245788799
 20
38.2487023006
 30
0.0
  0
SPLINE
  5
318
100
AcDbEntity
  8
0
100
AcDbSpline
 62
7
  6
BYLAYER
 70
0
 71
3
 72
12
 73
8
 74
0
 42
0.0000001
 43
0.0000001
 44
0.0000000001
 40
0.0
 40
0.0
 40
0.0
 40
0.0
 40
0.156228332
 40
0.3063723017
 40
0.5143259002
 40
0.6986567652
 40
1.0
 40
1.0
 40
1.0
 40
1.0
 10
27.7604020973
 20
21.4420321307
 30
0.0
 10
27.7586961596
 20
21.437635299
 30
0.0
 10
27.7549546972
 20
21.4291580829
 30
0.0
 10
27.747388325
 20
21.4155854507
 30
0.0
 10
27.7375805759
 20
21.4023303785
 30
0.0
 10
27.7223220528
 20
21.3880128427
 30
0.0
 10
27.707966449
 20
21.3815726287
 30
0.0
 10
27.6988774065
 20
21.3811953253
 30
0.0
  0
SPLINE
  5
319
100
AcDbEntity
  8
0
100
AcDbSpline
 62
7
  6
BYLAYER
 70
0
 71
3
 72
15
 73
11
 74
0
 42
0.0000001
 43
0.0000001
 44
0.0000000001
 40
0.0
 40
0.0
 40
0.0
 40
0.0
 40
0.1134675869
 40
0.2282131628
 40
0.3454330491
 40
0.4661947945
 40
0.5914005527
 40
0.7217898255
 40
0.8579115565
 40
1.0
 40
1.0
 40
1.0
 40
1.0
 10
25.0820618565
 20
21.0574137699
 30
0.0
 10
25.1951690408
 20
20.9921116997
 30
0.0
 10
25.4315647986
 20
20.87557146
 30
0.0
 10
25.8088817271
 20
20.7469656606
 30
0.0
 10
26.2075352226
 20
20.6648335136
 30
0.0
 10
26.625002399
 20
20.6295222661
 30
0.0
 10
27.0588696743
 20
20.6410999014
 30
0.0
 10
27.506711134
 20
20.6993426068
 30
0.0
 10
27.9658917159
 20
20.8038595421
 30
0.0
 10
28.2712542686
 20
20.9017049791
 30
0.0
 10
28.4249453752
 20
20.9576251608
 30
0.0
  0
SPLINE
  5
31A
100
AcDbEntity
  8
0
100
AcDbSpline
 62
7
  6
BYLAYER
 70
0
 71
3
 72
10
 73
6
 74
0
 42
0.0000001
 43
0.0000001
 44
0.0000000001
 40
0.0
 40
0.0
 40
0.0
 40
0.0
 40
0.2189845175
 40
0.4667915486
 40
1.0
 40
1.0
 40
1.0
 40
1.0
 10
33.080862001
 20
35.2525852191
 30
0.0
 10
33.0838593753
 20
35.2452149356
 30
0.0
 10
33.0880975322
 20
35.2286040957
 30
0.0
 10
33.090071008
 20
35.192212879
 30
0.0
 10
33.0842963162
 20
35.1636744218
 30
0.0
 10
33.0772885991
 20
35.1456129458
 30
0.0
  0
SPLINE
  5
31B
100
AcDbEntity
  8
0
100
AcDbSpline
 62
7
  6
BYLAYER
 70
0
 71
3
 72
15
 73
11
 74
0
 42
0.0000001
 43
0.0000001
 44
0.0000000001
 40
0.0
 40
0.0
 40
0.0
 40
0.0
 40
0.1479530178
 40
0.2910036764
 40
0.427900094
 40
0.5577577527
 40
0.6799179809
 40
0.7941079578
 40
0.9005656709
 40
1.0
 40
1.0
 40
1.0
 40
1.0
 10
28.1456152223
 20
32.1402688385
 30
0.0
 10
28.3288124794
 20
32.3586925349
 30
0.0
 10
28.7051502586
 20
32.7752158537
 30
0.0
 10
29.3050311869
 20
33.3421207355
 30
0.0
 10
29.9239142659
 20
33.8342128842
 30
0.0
 10
30.5526270911
 20
34.2442344159
 30
0.0
 10
31.1822169901
 20
34.566068467
 30
0.0
 10
31.8038129136
 20
34.7949190767
 30
0.0
 10
32.4084058682
 20
34.9268816432
 30
0.0
 10
32.8068033631
 20
34.949125625
 30
0.0
 10
32.9982604172
 20
34.9419281244
 30
0.0
  0
LINE
  5
31C
100
AcDbEntity
  8
0
100
AcDbLine
 62
7
  6
BYLAYER
 10
27.2839005561
 20
32.5395352343
 11
27.6988651304
 21
31.9584846956
  0
LINE
  5
31D
100
AcDbEntity
  8
0
100
AcDbLine
 62
7
  6
BYLAYER
 10
27.6988651304
 20
31.9584846956
 11
27.7604020973
 21
31.871799812
  0
SPLINE
  5
31E
100
AcDbEntity
  8
0
100
AcDbSpline
 62
7
  6
BYLAYER
 70
0
 71
3
 72
15
 73
11
 74
0
 42
0.0000001
 43
0.0000001
 44
0.0000000001
 40
0.0
 40
0.0
 40
0.0
 40
0.0
 40
0.1119645035
 40
0.2297498054
 40
0.3524362857
 40
0.4790294546
 40
0.6083537067
 40
0.7391440414
 40
0.8701515023
 40
1.0
 40
1.0
 40
1.0
 40
1.0
 10
25.4131076817
 20
25.5058386024
 30
0.0
 10
25.4205191419
 20
25.7598679232
 30
0.0
 10
25.4631124321
 20
26.2805883622
 30
0.0
 10
25.6008300266
 20
27.0695568249
 30
0.0
 10
25.812184901
 20
27.8764122846
 30
0.0
 10
26.0939128857
 20
28.689132078
 30
0.0
 10
26.4419450576
 20
29.4957668399
 30
0.0
 10
26.8510859133
 20
30.2844809548
 30
0.0
 10
27.3152943811
 20
31.0434274548
 30
0.0
 10
27.6595424597
 20
31.5259021033
 30
0.0
 10
27.8394302792
 20
31.7593683301
 30
0.0
  0
SPLINE
  5
31F
100
AcDbEntity
  8
0
100
AcDbSpline
 62
7
  6
BYLAYER
 70
0
 71
3
 72
11
 73
7
 74
0
 42
0.0000001
 43
0.0000001
 44
0.0000000001
 40
0.0
 40
0.0
 40
0.0
 40
0.0
 40
0.2334570931
 40
0.491153328
 40
0.7528428168
 40
1.0
 40
1.0
 40
1.0
 40
1.0
 10
25.2550513179
 20
25.4145852629
 30
0.0
 10
25.2474935464
 20
25.4102218075
 30
0.0
 10
25.2308040226
 20
25.4024053739
 30
0.0
 10
25.2041005271
 20
25.3933853363
 30
0.0
 10
25.176127249
 20
25.3869730759
 30
0.0
 10
25.1572195462
 20
25.3845408903
 30
0.0
 10
25.1480014994
 20
25.3839178488
 30
0.0
  0
SPLINE
  5
320
100
AcDbEntity
  8
0
100
AcDbSpline
 62
7
  6
BYLAYER
 70
0
 71
3
 72
9
 73
5
 74
0
 42
0.0000001
 43
0.0000001
 44
0.0000000001
 40
0.0
 40
0.0
 40
0.0
 40
0.0
 40
0.485131323
 40
1.0
 40
1.0
 40
1.0
 40
1.0
 10
18.9259929524
 20
24.6199373222
 30
0.0
 10
18.7975184328
 20
24.5031636444
 30
0.0
 10
18.5175696403
 20
24.2788040609
 30
0.0
 10
18.2156663235
 20
24.085452063
 30
0.0
 10
18.0560956846
 20
23.9933244616
 30
0.0
  0
SPLINE
  5
321
100
AcDbEntity
  8
0
100
AcDbSpline
 62
7
  6
BYLAYER
 70
0
 71
3
 72
11
 73
7
 74
0
 42
0.0000001
 43
0.0000001
 44
0.0000000001
 40
0.0
 40
0.0
 40
0.0
 40
0.0
 40
0.2233416547
 40
0.4631676208
 40
0.72186994
 40
1.0
 40
1.0
 40
1.0
 40
1.0
 10
19.7021816861
 20
24.1727245772
 30
0.0
 10
19.6284834108
 20
24.0128943117
 30
0.0
 10
19.4408197806
 20
23.6968073081
 30
0.0
 10
19.0676623968
 20
23.2643299099
 30
0.0
 10
18.6011910694
 20
22.86505278
 30
0.0
 10
18.2459105433
 20
22.6332091164
 30
0.0
 10
18.0560956846
 20
22.5236201108
 30
0.0
  0
SPLINE
  5
322
100
AcDbEntity
  8
0
100
AcDbSpline
 62
7
  6
BYLAYER
 70
0
 71
3
 72
11
 73
7
 74
0
 42
0.0000001
 43
0.0000001
 44
0.0000000001
 40
0.0
 40
0.0
 40
0.0
 40
0.0
 40
0.2589101976
 40
0.5153129669
 40
0.7635023244
 40
1.0
 40
1.0
 40
1.0
 40
1.0
 10
7.0451883047
 20
26.9460408394
 30
0.0
 10
7.026345992
 20
26.9465157578
 30
0.0
 10
6.988841836
 20
26.9508765557
 30
0.0
 10
6.9354388325
 20
26.9674766065
 30
0.0
 10
6.8879160734
 20
26.9938777765
 30
0.0
 10
6.8617789595
 20
27.0183516251
 30
0.0
 10
6.8511402005
 20
27.0318879267
 30
0.0
  0
SPLINE
  5
323
100
AcDbEntity
  8
0
100
AcDbSpline
 62
7
  6
BYLAYER
 70
0
 71
3
 72
11
 73
7
 74
0
 42
0.0000001
 43
0.0000001
 44
0.0000000001
 40
0.0
 40
0.0
 40
0.0
 40
0.0
 40
0.2317480101
 40
0.4771803965
 40
0.7340822331
 40
1.0
 40
1.0
 40
1.0
 40
1.0
 10
16.7479426931
 20
21.8908113975
 30
0.0
 10
16.6007841897
 20
21.8058499031
 30
0.0
 10
16.287132454
 20
21.6489403204
 30
0.0
 10
15.7830049434
 20
21.4581288244
 30
0.0
 10
15.2393843282
 20
21.3078085503
 30
0.0
 10
14.8620604748
 20
21.2373030347
 30
0.0
 10
14.6691267335
 20
21.2091435045
 30
0.0
  0
SPLINE
  5
324
100
AcDbEntity
  8
0
100
AcDbSpline
 62
7
  6
BYLAYER
 70
0
 71
3
 72
9
 73
5
 74
0
 42
0.0000001
 43
0.0000001
 44
0.0000000001
 40
0.0
 40
0.0
 40
0.0
 40
0.0
 40
0.5027277643
 40
1.0
 40
1.0
 40
1.0
 40
1.0
 10
9.6931489563
 20
30.1666773649
 30
0.0
 10
9.3621659262
 20
30.4188939653
 30
0.0
 10
8.7354254712
 20
30.9630480431
 30
0.0
 10
8.172731161
 20
31.5723210648
 30
0.0
 10
7.9091190676
 20
31.8884440744
 30
0.0
  0
SPLINE
  5
325
100
AcDbEntity
  8
0
100
AcDbSpline
 62
7
  6
BYLAYER
 70
0
 71
3
 72
9
 73
5
 74
0
 42
0.0000001
 43
0.0000001
 44
0.0000000001
 40
0.0
 40
0.0
 40
0.0
 40
0.0
 40
0.2468856925
 40
1.0
 40
1.0
 40
1.0
 40
1.0
 10
14.105076836
 20
27.3740947152
 30
0.0
 10
13.9743360522
 20
27.4292054222
 30
0.0
 10
13.44920943
 20
27.6629322943
 30
0.0
 10
12.9415263043
 20
27.9348298978
 30
0.0
 10
12.5686201273
 20
28.154510747
 30
0.0
  0
SPLINE
  5
326
100
AcDbEntity
  8
0
100
AcDbSpline
 62
7
  6
BYLAYER
 70
0
 71
3
 72
12
 73
8
 74
0
 42
0.0000001
 43
0.0000001
 44
0.0000000001
 40
0.0
 40
0.0
 40
0.0
 40
0.0
 40
0.2475435679
 40
0.49752278
 40
0.6232004046
 40
0.7491017909
 40
1.0
 40
1.0
 40
1.0
 40
1.0
 10
12.5686201273
 20
28.154510747
 30
0.0
 10
12.318954133
 20
28.301590203
 30
0.0
 10
11.8252059636
 20
28.6109756906
 30
0.0
 10
11.22440502
 20
29.025034252
 30
0.0
 10
10.7490669314
 20
29.3696636526
 30
0.0
 10
10.2773357211
 20
29.7210156533
 30
0.0
 10
9.9267805919
 20
29.9887116935
 30
0.0
 10
9.6931539515
 20
30.1666870889
 30
0.0
  0
SPLINE
  5
327
100
AcDbEntity
  8
0
100
AcDbSpline
 62
7
  6
BYLAYER
 70
0
 71
3
 72
11
 73
7
 74
0
 42
0.0000001
 43
0.0000001
 44
0.0000000001
 40
0.0
 40
0.0
 40
0.0
 40
0.0
 40
0.2789571878
 40
0.5378324752
 40
0.7773235028
 40
1.0
 40
1.0
 40
1.0
 40
1.0
 10
23.9251535068
 20
22.641789682
 30
0.0
 10
23.9251535068
 20
22.5707459347
 30
0.0
 10
23.9328729336
 20
22.4335814156
 30
0.0
 10
23.9704442384
 20
22.2385129496
 30
0.0
 10
24.0332471197
 20
22.0650778834
 30
0.0
 10
24.0933339596
 20
21.9628053208
 30
0.0
 10
24.1271831746
 20
21.9173047741
 30
0.0
  0
SPLINE
  5
328
100
AcDbEntity
  8
0
100
AcDbSpline
 62
7
  6
BYLAYER
 70
0
 71
3
 72
16
 73
12
 74
0
 42
0.0000001
 43
0.0000001
 44
0.0000000001
 40
0.0
 40
0.0
 40
0.0
 40
0.0
 40
0.1102093187
 40
0.2221327014
 40
0.3373511304
 40
0.457214752
 40
0.5192564646
 40
0.5828292152
 40
0.714857619
 40
0.8538657479
 40
1.0
 40
1.0
 40
1.0
 40
1.0
 10
34.2218747462
 20
34.6021664288
 30
0.0
 10
34.330147573
 20
34.5396526447
 30
0.0
 10
34.5389623633
 20
34.3965067758
 30
0.0
 10
34.8190202824
 20
34.1337010667
 30
0.0
 10
35.0648950799
 20
33.8246210764
 30
0.0
 10
35.2376177372
 20
33.5340034971
 30
0.0
 10
35.3574386614
 20
33.2824786248
 30
0.0
 10
35.467400714
 20
33.0115114384
 30
0.0
 10
35.5798974686
 20
32.6481339486
 30
0.0
 10
35.673549197
 20
32.183557073
 30
0.0
 10
35.70831434
 20
31.8614735464
 30
0.0
 10
35.7194417827
 20
31.6960694623
 30
0.0
  0
SPLINE
  5
329
100
AcDbEntity
  8
0
100
AcDbSpline
 62
7
  6
BYLAYER
 70
0
 71
3
 72
14
 73
10
 74
0
 42
0.0000001
 43
0.0000001
 44
0.0000000001
 40
0.0
 40
0.0
 40
0.0
 40
0.0
 40
0.1100565199
 40
0.2227577562
 40
0.3391524259
 40
0.4601157012
 40
0.5863067669
 40
0.7182061953
 40
1.0
 40
1.0
 40
1.0
 40
1.0
 10
26.54984098
 20
22.2056041707
 30
0.0
 10
26.6526450192
 20
22.1654942326
 30
0.0
 10
26.8663790827
 20
22.0981115088
 30
0.0
 10
27.2019026034
 20
22.0378745778
 30
0.0
 10
27.5531235857
 20
22.0176644077
 30
0.0
 10
27.9177942504
 20
22.0376099332
 30
0.0
 10
28.2937925399
 20
22.097325153
 30
0.0
 10
28.8186079867
 20
22.2324380803
 30
0.0
 10
29.2054092742
 20
22.3886396633
 30
0.0
 10
29.459500492
 20
22.5122187736
 30
0.0
  0
SPLINE
  5
32A
100
AcDbEntity
  8
0
100
AcDbSpline
 62
7
  6
BYLAYER
 70
0
 71
3
 72
15
 73
11
 74
0
 42
0.0000001
 43
0.0000001
 44
0.0000000001
 40
0.0
 40
0.0
 40
0.0
 40
0.0
 40
0.1080128123
 40
0.2180608877
 40
0.3319984268
 40
0.4513602264
 40
0.5772741036
 40
0.7104905204
 40
0.8514269206
 40
1.0
 40
1.0
 40
1.0
 40
1.0
 10
25.8088286555
 20
21.9079846724
 30
0.0
 10
25.6793029722
 20
21.9827649601
 30
0.0
 10
25.4302831865
 20
22.156548293
 30
0.0
 10
25.1012290669
 20
22.4803698574
 30
0.0
 10
24.8182215972
 20
22.864713607
 30
0.0
 10
24.5839365156
 20
23.3052696146
 30
0.0
 10
24.4000964192
 20
23.7974927036
 30
0.0
 10
24.2681836475
 20
24.3366978165
 30
0.0
 10
24.1892459636
 20
24.917617834
 30
0.0
 10
24.1726413218
 20
25.318769763
 30
0.0
 10
24.1726413218
 20
25.5244952403
 30
0.0
  0
SPLINE
  5
32B
100
AcDbEntity
  8
0
100
AcDbSpline
 62
7
  6
BYLAYER
 70
0
 71
3
 72
11
 73
7
 74
0
 42
0.0000001
 43
0.0000001
 44
0.0000000001
 40
0.0
 40
0.0
 40
0.0
 40
0.0
 40
0.3412116164
 40
0.6263779332
 40
0.8480485306
 40
1.0
 40
1.0
 40
1.0
 40
1.0
 10
9.6931488937
 20
30.1666774126
 30
0.0
 10
9.6973577408
 20
30.1738713029
 30
0.0
 10
9.7048628829
 20
30.1872044426
 30
0.0
 10
9.714228997
 20
30.2057092155
 30
0.0
 10
9.7204984949
 20
30.2205072618
 30
0.0
 10
9.7232137684
 20
30.2293159119
 30
0.0
 10
9.7236454139
 20
30.2330023914
 30
0.0
  0
SPLINE
  5
32C
100
AcDbEntity
  8
0
100
AcDbSpline
 62
7
  6
BYLAYER
 70
0
 71
3
 72
9
 73
5
 74
0
 42
0.0000001
 43
0.0000001
 44
0.0000000001
 40
0.0
 40
0.0
 40
0.0
 40
0.0
 40
0.496659389
 40
1.0
 40
1.0
 40
1.0
 40
1.0
 10
7.9091182322
 20
31.8884427719
 30
0.0
 10
8.1811946696
 20
31.585523833
 30
0.0
 10
8.7578076838
 20
31.0008551812
 30
0.0
 10
9.3909076199
 20
30.4770545782
 30
0.0
 10
9.7236457141
 20
30.2330028779
 30
0.0
  0
SPLINE
  5
32D
100
AcDbEntity
  8
0
100
AcDbSpline
 62
7
  6
BYLAYER
 70
0
 71
3
 72
15
 73
11
 74
0
 42
0.0000001
 43
0.0000001
 44
0.0000000001
 40
0.0
 40
0.0
 40
0.0
 40
0.0
 40
0.1209786314
 40
0.2453796986
 40
0.3721101574
 40
0.5000233043
 40
0.6279347243
 40
0.7546576736
 40
0.8790398875
 40
1.0
 40
1.0
 40
1.0
 40
1.0
 10
16.0677146364
 20
24.6967645779
 30
0.0
 10
15.8715606062
 20
24.6389204097
 30
0.0
 10
15.4688478316
 20
24.5375470859
 30
0.0
 10
14.8486977244
 20
24.4292595078
 30
0.0
 10
14.2107822587
 20
24.3637504485
 30
0.0
 10
13.5639724651
 20
24.3419146926
 30
0.0
 10
12.9171843274
 20
24.3640196495
 30
0.0
 10
12.2793443519
 20
24.4297978623
 30
0.0
 10
11.6593149107
 20
24.5383364379
 30
0.0
 10
11.2567117033
 20
24.6398891434
 30
0.0
 10
11.0606173599
 20
24.6978249429
 30
0.0
  0
SPLINE
  5
32E
100
AcDbEntity
  8
0
100
AcDbSpline
 62
7
  6
BYLAYER
 70
0
 71
3
 72
15
 73
11
 74
0
 42
0.0000001
 43
0.0000001
 44
0.0000000001
 40
0.0
 40
0.0
 40
0.0
 40
0.0
 40
0.1214030119
 40
0.2486794652
 40
0.3794212088
 40
0.5112214388
 40
0.6415025987
 40
0.767780807
 40
0.8879185916
 40
1.0
 40
1.0
 40
1.0
 40
1.0
 10
25.0536626612
 20
33.052118936
 30
0.0
 10
24.972427718
 20
32.9858691281
 30
0.0
 10
24.814512357
 20
32.8395287117
 30
0.0
 10
24.5995475461
 20
32.591569979
 30
0.0
 10
24.4057332313
 20
32.3156928768
 30
0.0
 10
24.2385966128
 20
32.0199300441
 30
0.0
 10
24.1029587657
 20
31.7126515451
 30
0.0
 10
24.0025983997
 20
31.4026017805
 30
0.0
 10
23.940508
 20
31.0986850876
 30
0.0
 10
23.9251535068
 20
30.898019007
 30
0.0
 10
23.9251535068
 20
30.8012432743
 30
0.0
  0
SPLINE
  5
32F
100
AcDbEntity
  8
0
100
AcDbSpline
 62
7
  6
BYLAYER
 70
0
 71
3
 72
11
 73
7
 74
0
 42
0.0000001
 43
0.0000001
 44
0.0000000001
 40
0.0
 40
0.0
 40
0.0
 40
0.0
 40
0.2308252879
 40
0.4747824849
 40
0.7314557387
 40
1.0
 40
1.0
 40
1.0
 40
1.0
 10
34.1103057479
 20
38.2809430482
 30
0.0
 10
33.3445686737
 20
38.0212354599
 30
0.0
 10
31.7987717782
 20
37.3979586092
 30
0.0
 10
29.5240651498
 20
36.2111591289
 30
0.0
 10
27.2509428528
 20
34.7587826172
 30
0.0
 10
25.7826767316
 20
33.6466542462
 30
0.0
 10
25.0536626612
 20
33.052118936
 30
0.0
  0
SPLINE
  5
330
100
AcDbEntity
  8
0
100
AcDbSpline
 62
7
  6
BYLAYER
 70
0
 71
3
 72
27
 73
23
 74
0
 42
0.0000001
 43
0.0000001
 44
0.0000000001
 40
0.0
 40
0.0
 40
0.0
 40
0.0
 40
0.0623764786
 40
0.1287105512
 40
0.1982955302
 40
0.2702654432
 40
0.343635228
 40
0.4173595096
 40
0.4903765196
 40
0.5616558865
 40
0.6302462852
 40
0.6953274668
 40
0.7562692013
 40
0.7850773059
 40
0.8127384169
 40
0.8646342088
 40
0.8890186131
 40
0.9124659573
 40
0.9351083561
 40
0.9571116974
 40
0.978669983
 40
1.0
 40
1.0
 40
1.0
 40
1.0
 10
24.1726413218
 20
25.5244952403
 30
0.0
 10
24.1726413218
 20
25.8522317304
 30
0.0
 10
24.2170458522
 20
26.5289495511
 30
0.0
 10
24.3997402793
 20
27.5564490161
 30
0.0
 10
24.6967904889
 20
28.6093074323
 30
0.0
 10
25.1018075983
 20
29.6650009821
 30
0.0
 10
25.6061961978
 20
30.7011587237
 30
0.0
 10
26.1991820148
 20
31.6956698347
 30
0.0
 10
26.8681263808
 20
32.6273258191
 30
0.0
 10
27.5987664544
 20
33.4762651822
 30
0.0
 10
28.3756378725
 20
34.2244653358
 30
0.0
 10
29.1822680804
 20
34.855980361
 30
0.0
 10
29.8781705485
 20
35.2817586595
 30
0.0
 10
30.4348588627
 20
35.5487795046
 30
0.0
 10
30.9649827524
 20
35.7573167206
 30
0.0
 10
31.4959394938
 20
35.8983130977
 30
0.0
 10
32.0170611179
 20
35.9595834935
 30
0.0
 10
32.3880014724
 20
35.9654515755
 30
0.0
 10
32.7449588358
 20
35.9319516961
 30
0.0
 10
33.0859875442
 20
35.8592433797
 30
0.0
 10
33.409017771
 20
35.7475490533
 30
0.0
 10
33.6116374041
 20
35.6472983973
 30
0.0
 10
33.7086946161
 20
35.5912634393
 30
0.0
  0
SPLINE
  5
331
100
AcDbEntity
  8
0
100
AcDbSpline
 62
7
  6
BYLAYER
 70
0
 71
3
 72
11
 73
7
 74
0
 42
0.0000001
 43
0.0000001
 44
0.0000000001
 40
0.0
 40
0.0
 40
0.0
 40
0.0
 40
0.2470563671
 40
0.4946943281
 40
0.7451028183
 40
1.0
 40
1.0
 40
1.0
 40
1.0
 10
27.9790945545
 20
21.3561587671
 30
0.0
 10
27.9882900112
 20
21.3560563925
 30
0.0
 10
28.0068440811
 20
21.3584892526
 30
0.0
 10
28.0324858093
 20
21.3701123016
 30
0.0
 10
28.0535761176
 20
21.3892372646
 30
0.0
 10
28.063155082
 20
21.4058360059
 30
0.0
 10
28.0665870404
 20
21.4146814305
 30
0.0
  0
SPLINE
  5
332
100
AcDbEntity
  8
0
100
AcDbSpline
 62
7
  6
BYLAYER
 70
0
 71
3
 72
11
 73
7
 74
0
 42
0.0000001
 43
0.0000001
 44
0.0000000001
 40
0.0
 40
0.0
 40
0.0
 40
0.0
 40
0.2478292322
 40
0.4979282348
 40
0.7492678617
 40
1.0
 40
1.0
 40
1.0
 40
1.0
 10
12.6204253326
 20
28.2519909472
 30
0.0
 10
12.3692180891
 20
28.3970412335
 30
0.0
 10
11.8721310247
 20
28.7018226668
 30
0.0
 10
11.1447719328
 20
29.1921109255
 30
0.0
 10
10.4298413873
 20
29.7060284391
 30
0.0
 10
9.9585702107
 20
30.0571110951
 30
0.0
 10
9.7236457142
 20
30.2330028779
 30
0.0
  0
SPLINE
  5
333
100
AcDbEntity
  8
0
100
AcDbSpline
 62
7
  6
BYLAYER
 70
0
 71
3
 72
11
 73
7
 74
0
 42
0.0000001
 43
0.0000001
 44
0.0000000001
 40
0.0
 40
0.0
 40
0.0
 40
0.0
 40
0.2473661008
 40
0.4945699342
 40
0.7445917194
 40
1.0
 40
1.0
 40
1.0
 40
1.0
 10
34.6347571749
 20
34.5913672063
 30
0.0
 10
34.5458783178
 20
34.6614684987
 30
0.0
 10
34.3585867827
 20
34.789956578
 30
0.0
 10
34.0531908109
 20
34.9433248177
 30
0.0
 10
33.7265231814
 20
35.0555012094
 30
0.0
 10
33.4991979998
 20
35.1018850951
 30
0.0
 10
33.3834735422
 20
35.1182622456
 30
0.0
  0
SPLINE
  5
334
100
AcDbEntity
  8
0
100
AcDbSpline
 62
7
  6
BYLAYER
 70
0
 71
3
 72
15
 73
11
 74
0
 42
0.0000001
 43
0.0000001
 44
0.0000000001
 40
0.0
 40
0.0
 40
0.0
 40
0.0
 40
0.1134537928
 40
0.2282209283
 40
0.3454846301
 40
0.4663047435
 40
0.5915628507
 40
0.7219670405
 40
0.8580582692
 40
1.0
 40
1.0
 40
1.0
 40
1.0
 10
5.5659948822
 20
43.5478266103
 30
0.0
 10
5.5668789066
 20
43.3810869309
 30
0.0
 10
5.5944471769
 20
43.0452643516
 30
0.0
 10
5.7123726045
 20
42.5495382486
 30
0.0
 10
5.9057444265
 20
42.0663917869
 30
0.0
 10
6.1726453508
 20
41.6019589417
 30
0.0
 10
6.5102718869
 20
41.1616808738
 30
0.0
 10
6.9154478692
 20
40.7506768395
 30
0.0
 10
7.3840797878
 20
40.3736808735
 30
0.0
 10
7.7284552768
 20
40.1521999265
 30
0.0
 10
7.9091182322
 20
40.0478963642
 30
0.0
  0
SPLINE
  5
335
100
AcDbEntity
  8
0
100
AcDbSpline
 62
7
  6
BYLAYER
 70
0
 71
3
 72
15
 73
11
 74
0
 42
0.0000001
 43
0.0000001
 44
0.0000000001
 40
0.0
 40
0.0
 40
0.0
 40
0.0
 40
0.0980154486
 40
0.2032715306
 40
0.3167485388
 40
0.4387546887
 40
0.569001964
 40
0.7067349572
 40
0.8508694515
 40
1.0
 40
1.0
 40
1.0
 40
1.0
 10
32.8700211691
 20
35.7646636244
 30
0.0
 10
32.652441082
 20
35.7840994885
 30
0.0
 10
32.1962532889
 20
35.7776831894
 30
0.0
 10
31.5001376687
 20
35.6441483835
 30
0.0
 10
30.7818003245
 20
35.3901758802
 30
0.0
 10
30.0530413834
 20
35.0207479508
 30
0.0
 10
29.3255042342
 20
34.542270303
 30
0.0
 10
28.6110597559
 20
33.9628728698
 30
0.0
 10
27.9216790684
 20
33.2923216091
 30
0.0
 10
27.4921352612
 20
32.7985827317
 30
0.0
 10
27.2839008551
 20
32.5395348089
 30
0.0
  0
SPLINE
  5
336
100
AcDbEntity
  8
0
100
AcDbSpline
 62
7
  6
BYLAYER
 70
0
 71
3
 72
11
 73
7
 74
0
 42
0.0000001
 43
0.0000001
 44
0.0000000001
 40
0.0
 40
0.0
 40
0.0
 40
0.0
 40
0.2479568392
 40
0.4990413805
 40
0.7506343953
 40
1.0
 40
1.0
 40
1.0
 40
1.0
 10
33.3834735422
 20
35.1182622456
 30
0.0
 10
33.3869707082
 20
35.1272757344
 30
0.0
 10
33.3911764069
 20
35.146624688
 30
0.0
 10
33.3890096953
 20
35.1761834431
 30
0.0
 10
33.3789066639
 20
35.2040713396
 30
0.0
 10
33.3676325095
 20
35.2203311512
 30
0.0
 10
33.3611025346
 20
35.2275351593
 30
0.0
  0
SPLINE
  5
337
100
AcDbEntity
  8
0
100
AcDbSpline
 62
7
  6
BYLAYER
 70
0
 71
3
 72
15
 73
11
 74
0
 42
0.0000001
 43
0.0000001
 44
0.0000000001
 40
0.0
 40
0.0
 40
0.0
 40
0.0
 40
0.0993906806
 40
0.2058127749
 40
0.3199813489
 40
0.4421370127
 40
0.5720062845
 40
0.7089274035
 40
0.8520113579
 40
1.0
 40
1.0
 40
1.0
 40
1.0
 10
33.0772885991
 20
35.1456129458
 30
0.0
 10
32.8796668032
 20
35.1533404
 30
0.0
 10
32.4683532727
 20
35.1308776394
 30
0.0
 10
31.8440657582
 20
34.9951050578
 30
0.0
 10
31.2021524551
 20
34.7590521674
 30
0.0
 10
30.5519533005
 20
34.4267662446
 30
0.0
 10
29.90266558
 20
34.003220126
 30
0.0
 10
29.2635718944
 20
33.4947585093
 30
0.0
 10
28.6441828576
 20
32.9089112615
 30
0.0
 10
28.2556820838
 20
32.4784412046
 30
0.0
 10
28.0665870404
 20
32.2527003204
 30
0.0
  0
SPLINE
  5
338
100
AcDbEntity
  8
0
100
AcDbSpline
 62
7
  6
BYLAYER
 70
0
 71
3
 72
15
 73
11
 74
0
 42
0.0000001
 43
0.0000001
 44
0.0000000001
 40
0.0
 40
0.0
 40
0.0
 40
0.0
 40
0.0992545746
 40
0.2055652589
 40
0.3196667788
 40
0.4418081284
 40
0.5717137866
 40
0.7087122443
 40
0.8519002943
 40
1.0
 40
1.0
 40
1.0
 40
1.0
 10
33.0808648577
 20
35.2525714927
 30
0.0
 10
32.8798805544
 20
35.2613812063
 30
0.0
 10
32.4612864716
 20
35.2401237416
 30
0.0
 10
31.8256467069
 20
35.1034416569
 30
0.0
 10
31.171840207
 20
34.8639021705
 30
0.0
 10
30.509496614
 20
34.525675163
 30
0.0
 10
29.8480997643
 20
34.0938899213
 30
0.0
 10
29.1972236648
 20
33.575098383
 30
0.0
 10
28.5666779335
 20
32.9770819099
 30
0.0
 10
28.1714202898
 20
32.5375783152
 30
0.0
 10
27.9791100314
 20
32.3070893708
 30
0.0
  0
SPLINE
  5
339
100
AcDbEntity
  8
0
100
AcDbSpline
 62
7
  6
BYLAYER
 70
0
 71
3
 72
11
 73
7
 74
0
 42
0.0000001
 43
0.0000001
 44
0.0000000001
 40
0.0
 40
0.0
 40
0.0
 40
0.0
 40
0.199824001
 40
0.4447296572
 40
0.7179432987
 40
1.0
 40
1.0
 40
1.0
 40
1.0
 10
28.0665870404
 20
32.2527003204
 30
0.0
 10
28.0625920534
 20
32.2583838917
 30
0.0
 10
28.0515305277
 20
32.2694575651
 30
0.0
 10
28.0310768944
 20
32.283852787
 30
0.0
 10
28.0063889628
 20
32.2968295149
 30
0.0
 10
27.9884085542
 20
32.3039617979
 30
0.0
 10
27.9791140635
 20
32.3070877658
 30
0.0
  0
SPLINE
  5
33A
100
AcDbEntity
  8
0
100
AcDbSpline
 62
7
  6
BYLAYER
 70
0
 71
3
 72
15
 73
11
 74
0
 42
0.0000001
 43
0.0000001
 44
0.0000000001
 40
0.0
 40
0.0
 40
0.0
 40
0.0
 40
0.1298421566
 40
0.2611898165
 40
0.3925249453
 40
0.5223738123
 40
0.6492911192
 40
0.7719393733
 40
0.8891632796
 40
1.0
 40
1.0
 40
1.0
 40
1.0
 10
27.2839008551
 20
32.5395348089
 30
0.0
 10
27.0708563149
 20
32.2745029347
 30
0.0
 10
26.6633722423
 20
31.7240795672
 30
0.0
 10
26.1157719185
 20
30.8529970494
 30
0.0
 10
25.635163772
 20
29.9431399882
 30
0.0
 10
25.2296823471
 20
29.0100254597
 30
0.0
 10
24.9062161929
 20
28.0693652127
 30
0.0
 10
24.6701668154
 20
27.1369721207
 30
0.0
 10
24.5256191848
 20
26.2286639646
 30
0.0
 10
24.4908407014
 20
25.6310574442
 30
0.0
 10
24.4908406981
 20
25.3407869007
 30
0.0
  0
SPLINE
  5
33B
100
AcDbEntity
  8
0
100
AcDbSpline
 62
7
  6
BYLAYER
 70
0
 71
3
 72
15
 73
11
 74
0
 42
0.0000001
 43
0.0000001
 44
0.0000000001
 40
0.0
 40
0.0
 40
0.0
 40
0.0
 40
0.129848833
 40
0.2609008955
 40
0.3917562377
 40
0.5211435234
 40
0.6477751539
 40
0.7704553054
 40
0.8881739466
 40
1.0
 40
1.0
 40
1.0
 40
1.0
 10
27.6988746816
 20
31.9584706889
 30
0.0
 10
27.5090842833
 20
31.7134279992
 30
0.0
 10
27.1459098861
 20
31.2067273006
 30
0.0
 10
26.6563897888
 20
30.4091066593
 30
0.0
 10
26.2251753877
 20
29.5796936578
 30
0.0
 10
25.8587421888
 20
28.7311594496
 30
0.0
 10
25.5626543891
 20
27.876166325
 30
0.0
 10
25.3412602949
 20
27.027498727
 30
0.0
 10
25.1980385162
 20
26.1980165233
 30
0.0
 10
25.1548414568
 20
25.6507551921
 30
0.0
 10
25.1479974047
 20
25.3839171728
 30
0.0
  0
SPLINE
  5
33C
100
AcDbEntity
  8
0
100
AcDbSpline
 62
7
  6
BYLAYER
 70
0
 71
3
 72
15
 73
11
 74
0
 42
0.0000001
 43
0.0000001
 44
0.0000000001
 40
0.0
 40
0.0
 40
0.0
 40
0.0
 40
0.1298486408
 40
0.2608669126
 40
0.3916729627
 40
0.5210124356
 40
0.6476148835
 40
0.7702998228
 40
0.8880689997
 40
1.0
 40
1.0
 40
1.0
 40
1.0
 10
27.7604020973
 20
31.871799812
 30
0.0
 10
27.5744961308
 20
31.6308262422
 30
0.0
 10
27.2187371594
 20
31.1327653491
 30
0.0
 10
26.7390567786
 20
30.3491669501
 30
0.0
 10
26.3163355591
 20
29.5347136368
 30
0.0
 10
25.9568406705
 20
28.7016894869
 30
0.0
 10
25.6659609477
 20
27.8623675191
 30
0.0
 10
25.4479145876
 20
27.0291388066
 30
0.0
 10
25.3060833258
 20
26.2144697719
 30
0.0
 10
25.2624788463
 20
25.6768337709
 30
0.0
 10
25.2550513179
 20
25.4145852629
 30
0.0
  0
SPLINE
  5
33D
100
AcDbEntity
  8
0
100
AcDbSpline
 62
7
  6
BYLAYER
 70
0
 71
3
 72
10
 73
6
 74
0
 42
0.0000001
 43
0.0000001
 44
0.0000000001
 40
0.0
 40
0.0
 40
0.0
 40
0.0
 40
0.2662374566
 40
0.5283312355
 40
1.0
 40
1.0
 40
1.0
 40
1.0
 10
25.1479814072
 20
25.0102714697
 30
0.0
 10
25.1567573984
 20
25.0058938023
 30
0.0
 10
25.1751361669
 20
24.9989291212
 30
0.0
 10
25.2114825367
 20
24.9928996119
 30
0.0
 10
25.2400044492
 20
24.9976467925
 30
0.0
 10
25.2550513179
 20
25.0063340544
 30
0.0
  0
SPLINE
  5
33E
100
AcDbEntity
  8
0
100
AcDbSpline
 62
7
  6
BYLAYER
 70
0
 71
3
 72
15
 73
11
 74
0
 42
0.0000001
 43
0.0000001
 44
0.0000000001
 40
0.0
 40
0.0
 40
0.0
 40
0.0
 40
0.1485803541
 40
0.2895098932
 40
0.422725528
 40
0.5486429145
 40
0.6680035202
 40
0.7819416764
 40
0.8919920377
 40
1.0
 40
1.0
 40
1.0
 40
1.0
 10
24.4908406981
 20
25.3407869007
 30
0.0
 10
24.4908406924
 20
25.1350513066
 30
0.0
 10
24.5074380214
 20
24.733898204
 30
0.0
 10
24.5863878332
 20
24.1529798074
 30
0.0
 10
24.7182996603
 20
23.6137813871
 30
0.0
 10
24.902130002
 20
23.1215508837
 30
0.0
 10
25.1364347034
 20
22.6810017317
 30
0.0
 10
25.419426342
 20
22.2966425344
 30
0.0
 10
25.7484971197
 20
21.9728411777
 30
0.0
 10
25.99750688
 20
21.7990511074
 30
0.0
 10
26.1270276408
 20
21.7242756613
 30
0.0
  0
SPLINE
  5
33F
100
AcDbEntity
  8
0
100
AcDbSpline
 62
7
  6
BYLAYER
 70
0
 71
3
 72
9
 73
5
 74
0
 42
0.0000001
 43
0.0000001
 44
0.0000000001
 40
0.0
 40
0.0
 40
0.0
 40
0.0
 40
0.2460759851
 40
1.0
 40
1.0
 40
1.0
 40
1.0
 10
7.6050950802
 20
26.2609750149
 30
0.0
 10
7.6194308155
 20
26.2384321711
 30
0.0
 10
7.6789466047
 20
26.1476270542
 30
0.0
 10
7.7433867152
 20
26.060067549
 30
0.0
 10
7.7943079127
 20
25.995987032
 30
0.0
  0
SPLINE
  5
340
100
AcDbEntity
  8
0
100
AcDbSpline
 62
7
  6
BYLAYER
 70
0
 71
3
 72
11
 73
7
 74
0
 42
0.0000001
 43
0.0000001
 44
0.0000000001
 40
0.0
 40
0.0
 40
0.0
 40
0.0
 40
0.2233359815
 40
0.4645110098
 40
0.7237327866
 40
1.0
 40
1.0
 40
1.0
 40
1.0
 10
7.7943079127
 20
25.995987032
 30
0.0
 10
7.9172143002
 20
25.8413185398
 30
0.0
 10
8.2018695872
 20
25.5421039808
 30
0.0
 10
8.7078005288
 20
25.146866047
 30
0.0
 10
9.2994382684
 20
24.7945723428
 30
0.0
 10
9.7315029976
 20
24.5980515455
 30
0.0
 10
9.9585138142
 20
24.5075734833
 30
0.0
  0
SPLINE
  5
341
100
AcDbEntity
  8
0
100
AcDbSpline
 62
7
  6
BYLAYER
 70
0
 71
3
 72
17
 73
13
 74
0
 42
0.0000001
 43
0.0000001
 44
0.0000000001
 40
0.0
 40
0.0
 40
0.0
 40
0.0
 40
0.1206833745
 40
0.2475114996
 40
0.3781661593
 40
0.5100847439
 40
0.6406244198
 40
0.7672347968
 40
0.8283512109
 40
0.8876615505
 40
0.9449540559
 40
1.0
 40
1.0
 40
1.0
 40
1.0
 10
9.9585138142
 20
24.5075734833
 30
0.0
 10
10.2705691742
 20
24.3831998314
 30
0.0
 10
10.9277365837
 20
24.1698586956
 30
0.0
 10
11.9609057345
 20
23.9587258826
 30
0.0
 10
13.0415324211
 20
23.8527373733
 30
0.0
 10
14.1375942787
 20
23.8550934236
 30
0.0
 10
15.2167272144
 20
23.965680388
 30
0.0
 10
16.0857595755
 20
24.1474719363
 30
0.0
 10
16.7445944504
 20
24.3455844164
 30
0.0
 10
17.2092378346
 20
24.5163309261
 30
0.0
 10
17.646505341
 20
24.709704944
 30
0.0
 10
17.9234005965
 20
24.8556911538
 30
0.0
 10
18.0560956846
 20
24.9323022413
 30
0.0
  0
SPLINE
  5
342
100
AcDbEntity
  8
0
100
AcDbSpline
 62
7
  6
BYLAYER
 70
0
 71
3
 72
11
 73
7
 74
0
 42
0.0000001
 43
0.0000001
 44
0.0000000001
 40
0.0
 40
0.0
 40
0.0
 40
0.0
 40
0.2721662675
 40
0.5289600547
 40
0.7711404052
 40
1.0
 40
1.0
 40
1.0
 40
1.0
 10
30.161191171
 20
22.101455232
 30
0.0
 10
29.9904409422
 20
22.0186137743
 30
0.0
 10
29.6507776947
 20
21.8729419371
 30
0.0
 10
29.1355808486
 20
21.7149461808
 30
0.0
 10
28.6346422267
 20
21.6256486141
 30
0.0
 10
28.3050892829
 20
21.6123710973
 30
0.0
 10
28.1456152223
 20
21.6183662519
 30
0.0
  0
SPLINE
  5
343
100
AcDbEntity
  8
0
100
AcDbSpline
 62
7
  6
BYLAYER
 70
0
 71
3
 72
14
 73
10
 74
0
 42
0.0000001
 43
0.0000001
 44
0.0000000001
 40
0.0
 40
0.0
 40
0.0
 40
0.0
 40
0.2807266795
 40
0.4125130261
 40
0.5388250996
 40
0.6600765504
 40
0.7768295452
 40
0.8898340268
 40
1.0
 40
1.0
 40
1.0
 40
1.0
 10
35.0108152583
 20
32.1276121618
 30
0.0
 10
34.9916311593
 20
32.3975596096
 30
0.0
 10
34.9370579619
 20
32.7935285636
 30
0.0
 10
34.8024226693
 20
33.2957471438
 30
0.0
 10
34.6764323518
 20
33.6396479797
 30
0.0
 10
34.5240332415
 20
33.9567242858
 30
0.0
 10
34.3458617049
 20
34.2452047035
 30
0.0
 10
34.1429194574
 20
34.5033879584
 30
0.0
 10
33.9902177865
 20
34.6558511572
 30
0.0
 10
33.9104765096
 20
34.7259968161
 30
0.0
  0
SPLINE
  5
344
100
AcDbEntity
  8
0
100
AcDbSpline
 62
7
  6
BYLAYER
 70
0
 71
3
 72
15
 73
11
 74
0
 42
0.0000001
 43
0.0000001
 44
0.0000000001
 40
0.0
 40
0.0
 40
0.0
 40
0.0
 40
0.1098410793
 40
0.2316103526
 40
0.3626990402
 40
0.4986833409
 40
0.6346997028
 40
0.7661066633
 40
0.888667618
 40
1.0
 40
1.0
 40
1.0
 40
1.0
 10
7.9091182362
 20
40.0478963644
 30
0.0
 10
7.9091182365
 20
40.1427360472
 30
0.0
 10
7.9243016327
 20
40.3428443894
 30
0.0
 10
7.9864229556
 20
40.6504984192
 30
0.0
 10
8.0910238546
 20
40.970256763
 30
0.0
 10
8.2330871843
 20
41.2886640056
 30
0.0
 10
8.4078454242
 20
41.5906567786
 30
0.0
 10
8.6044665902
 20
41.8647114156
 30
0.0
 10
8.8140087471
 20
42.1011638073
 30
0.0
 10
8.9631323576
 20
42.2380188349
 30
0.0
 10
9.0376273951
 20
42.2987720213
 30
0.0
  0
SPLINE
  5
345
100
AcDbEntity
  8
0
100
AcDbSpline
 62
7
  6
BYLAYER
 70
0
 71
3
 72
14
 73
10
 74
0
 42
0.0000001
 43
0.0000001
 44
0.0000000001
 40
0.0
 40
0.0
 40
0.0
 40
0.0
 40
0.2706045011
 40
0.4017074216
 40
0.5288289919
 40
0.6516726052
 40
0.770478768
 40
0.8861143055
 40
1.0
 40
1.0
 40
1.0
 40
1.0
 10
9.3232889657
 20
47.8963039282
 30
0.0
 10
9.2411634092
 20
47.9437178509
 30
0.0
 10
9.1134888205
 20
48.0052836686
 30
0.0
 10
8.9361473002
 20
48.0600629717
 30
0.0
 10
8.8045805946
 20
48.0848674548
 30
0.0
 10
8.6751361385
 20
48.0919978618
 30
0.0
 10
8.5499390783
 20
48.0804578587
 30
0.0
 10
8.431347667
 20
48.0492346369
 30
0.0
 10
8.3578630114
 20
48.0153071048
 30
0.0
 10
8.3232999897
 20
47.9953525343
 30
0.0
  0
SPLINE
  5
346
100
AcDbEntity
  8
0
100
AcDbSpline
 62
7
  6
BYLAYER
 70
0
 71
3
 72
12
 73
8
 74
0
 42
0.0000001
 43
0.0000001
 44
0.0000000001
 40
0.0
 40
0.0
 40
0.0
 40
0.0
 40
0.2610656634
 40
0.5137965793
 40
0.6371709348
 40
0.7589933715
 40
1.0
 40
1.0
 40
1.0
 40
1.0
 10
18.0942704686
 20
47.5275961414
 30
0.0
 10
18.1544537904
 20
47.5480079352
 30
0.0
 10
18.2759781899
 20
47.5798419669
 30
0.0
 10
18.4315886619
 20
47.5929089234
 30
0.0
 10
18.552688212
 20
47.5833126488
 30
0.0
 10
18.6689491569
 20
47.560215302
 30
0.0
 10
18.7521428195
 20
47.5270047824
 30
0.0
 10
18.8032699517
 20
47.4982313893
 30
0.0
  0
SPLINE
  5
347
100
AcDbEntity
  8
0
100
AcDbSpline
 62
7
  6
BYLAYER
 70
0
 71
3
 72
22
 73
18
 74
0
 42
0.0000001
 43
0.0000001
 44
0.0000000001
 40
0.0
 40
0.0
 40
0.0
 40
0.0
 40
0.0549458664
 40
0.1129559042
 40
0.1736243679
 40
0.2364819536
 40
0.301038533
 40
0.3667980123
 40
0.4332739935
 40
0.5000063419
 40
0.5665627343
 40
0.6325527724
 40
0.6976235274
 40
0.7614645048
 40
0.8238125654
 40
0.8844687089
 40
1.0
 40
1.0
 40
1.0
 40
1.0
 10
18.0942733991
 20
47.5275971309
 30
0.0
 10
17.9495276936
 20
47.61116416
 30
0.0
 10
17.6454737516
 20
47.7718801752
 30
0.0
 10
17.1633500462
 20
47.9882431959
 30
0.0
 10
16.6467866926
 20
48.1842832728
 30
0.0
 10
16.1011895339
 20
48.3573853195
 30
0.0
 10
15.5321076047
 20
48.5048653652
 30
0.0
 10
14.9452441925
 20
48.6242905789
 30
0.0
 10
14.3462884648
 20
48.7132209857
 30
0.0
 10
13.7409466455
 20
48.7696517946
 30
0.0
 10
13.1348278442
 20
48.7915836035
 30
0.0
 10
12.5334938692
 20
48.7776485594
 30
0.0
 10
11.9424205916
 20
48.7264735548
 30
0.0
 10
11.3670163962
 20
48.6375992575
 30
0.0
 10
10.8124356476
 20
48.5104770798
 30
0.0
 10
10.1193802993
 20
48.2943811508
 30
0.0
 10
9.6276445182
 20
48.0720018724
 30
0.0
 10
9.323288842
 20
47.8963041202
 30
0.0
  0
SPLINE
  5
348
100
AcDbEntity
  8
0
100
AcDbSpline
 62
7
  6
BYLAYER
 70
0
 71
3
 72
23
 73
19
 74
0
 42
0.0000001
 43
0.0000001
 44
0.0000000001
 40
0.0
 40
0.0
 40
0.0
 40
0.0
 40
0.0715482936
 40
0.1405389404
 40
0.207025285
 40
0.2711878218
 40
0.3332849987
 40
0.3936247565
 40
0.4525768624
 40
0.5105690647
 40
0.5680797931
 40
0.625619198
 40
0.6837218224
 40
0.742919859
 40
0.8037262164
 40
0.8665995826
 40
0.9319284641
 40
1.0
 40
1.0
 40
1.0
 40
1.0
 10
9.3232890088
 20
47.8963039532
 30
0.0
 10
9.1788405249
 20
47.812896703
 30
0.0
 10
8.9026463779
 20
47.6354808788
 30
0.0
 10
8.5247434593
 20
47.3338558533
 30
0.0
 10
8.1946003154
 20
47.0043572694
 30
0.0
 10
7.9152813183
 20
46.6509661947
 30
0.0
 10
7.6896796794
 20
46.2776204653
 30
0.0
 10
7.5198509082
 20
45.8889443078
 30
0.0
 10
7.4079138866
 20
45.4896658273
 30
0.0
 10
7.3549988884
 20
45.0849644394
 30
0.0
 10
7.3622045878
 20
44.6801273916
 30
0.0
 10
7.4296155773
 20
44.2805902601
 30
0.0
 10
7.5572276529
 20
43.8918933764
 30
0.0
 10
7.7438359684
 20
43.519326926
 30
0.0
 10
7.9881168413
 20
43.1682107869
 30
0.0
 10
8.2874407157
 20
42.8430679551
 30
0.0
 10
8.6390394904
 20
42.5484627409
 30
0.0
 10
8.9001902307
 20
42.3781152708
 30
0.0
 10
9.0376244787
 20
42.2987696549
 30
0.0
  0
SPLINE
  5
349
100
AcDbEntity
  8
0
100
AcDbSpline
 62
7
  6
BYLAYER
 70
0
 71
3
 72
21
 73
17
 74
0
 42
0.0000001
 43
0.0000001
 44
0.0000000001
 40
0.0
 40
0.0
 40
0.0
 40
0.0
 40
0.136398723
 40
0.2711200963
 40
0.4037324648
 40
0.5335864271
 40
0.5971816735
 40
0.6596460769
 40
0.7207149966
 40
0.7800102119
 40
0.8369754991
 40
0.890842624
 40
0.9165326551
 40
0.941765381
 40
0.9682639607
 40
1.0
 40
1.0
 40
1.0
 40
1.0
 10
9.9057694616
 20
19.7309016467
 30
0.0
 10
9.9246773838
 20
19.7216739672
 30
0.0
 10
9.9624203427
 20
19.7036562107
 30
0.0
 10
10.0191899341
 20
19.6780389089
 30
0.0
 10
10.075715885
 20
19.6543869309
 30
0.0
 10
10.1228157504
 20
19.636690762
 30
0.0
 10
10.1603067574
 20
19.624317394
 30
0.0
 10
10.1880166879
 20
19.6162077117
 30
0.0
 10
10.2154151795
 20
19.6094862167
 30
0.0
 10
10.2423548114
 20
19.6045734505
 30
0.0
 10
10.2685107589
 20
19.6021786923
 30
0.0
 10
10.2897360168
 20
19.6032730966
 30
0.0
 10
10.3053676392
 20
19.6077026565
 30
0.0
 10
10.3159403948
 20
19.6136420784
 30
0.0
 10
10.3242177659
 20
19.6240693395
 30
0.0
 10
10.3257988365
 20
19.6333092091
 30
0.0
 10
10.3257988365
 20
19.6382044871
 30
0.0
  0
SPLINE
  5
34A
100
AcDbEntity
  8
0
100
AcDbSpline
 62
7
  6
BYLAYER
 70
0
 71
3
 72
9
 73
5
 74
0
 42
0.0000001
 43
0.0000001
 44
0.0000000001
 40
0.0
 40
0.0
 40
0.0
 40
0.0
 40
0.496555836
 40
1.0
 40
1.0
 40
1.0
 40
1.0
 10
19.3159374413
 20
22.3806658046
 30
0.0
 10
19.3159371657
 20
22.2876442136
 30
0.0
 10
19.3022340088
 20
22.1000619616
 30
0.0
 10
19.261663303
 20
21.9164600984
 30
0.0
 10
19.235099399
 20
21.8259663774
 30
0.0
  0
SPLINE
  5
34B
100
AcDbEntity
  8
0
100
AcDbSpline
 62
7
  6
BYLAYER
 70
0
 71
3
 72
13
 73
9
 74
0
 42
0.0000001
 43
0.0000001
 44
0.0000000001
 40
0.0
 40
0.0
 40
0.0
 40
0.0
 40
0.1088842438
 40
0.2212359746
 40
0.4590039332
 40
0.5857941437
 40
0.7182238244
 40
1.0
 40
1.0
 40
1.0
 40
1.0
 10
19.235099399
 20
21.8259663774
 30
0.0
 10
19.210771491
 20
21.743089895
 30
0.0
 10
19.1507731308
 20
21.5776174735
 30
0.0
 10
18.9872917469
 20
21.2515576111
 30
0.0
 10
18.7623965038
 20
20.9435374029
 30
0.0
 10
18.488812266
 20
20.659264103
 30
0.0
 10
18.1658613448
 20
20.3759783053
 30
0.0
 10
17.8937684994
 20
20.1891415713
 30
0.0
 10
17.7019131295
 20
20.0744536198
 30
0.0
  0
SPLINE
  5
34C
100
AcDbEntity
  8
0
100
AcDbSpline
 62
7
  6
BYLAYER
 70
0
 71
3
 72
10
 73
6
 74
0
 42
0.0000001
 43
0.0000001
 44
0.0000000001
 40
0.0
 40
0.0
 40
0.0
 40
0.0
 40
0.2483403149
 40
0.4986604462
 40
1.0
 40
1.0
 40
1.0
 40
1.0
 10
14.7072036721
 20
20.7391332847
 30
0.0
 10
14.7283718096
 20
20.7269144875
 30
0.0
 10
14.7728194439
 20
20.7056376492
 30
0.0
 10
14.8662774972
 20
20.6743895347
 30
0.0
 10
14.9401765739
 20
20.6627605543
 30
0.0
 10
14.9894757964
 20
20.6607156162
 30
0.0
  0
SPLINE
  5
34D
100
AcDbEntity
  8
0
100
AcDbSpline
 62
7
  6
BYLAYER
 70
0
 71
3
 72
15
 73
11
 74
0
 42
0.0000001
 43
0.0000001
 44
0.0000000001
 40
0.0
 40
0.0
 40
0.0
 40
0.0
 40
0.2280639965
 40
0.431316774
 40
0.606180883
 40
0.749352556
 40
0.8598177075
 40
0.9377732976
 40
0.9836326977
 40
1.0
 40
1.0
 40
1.0
 40
1.0
 10
10.5229954869
 20
24.9774566255
 30
0.0
 10
10.5229954869
 20
24.9714224309
 30
0.0
 10
10.5229574496
 20
24.9600126018
 30
0.0
 10
10.522765322
 20
24.9439665022
 30
0.0
 10
10.5224661402
 20
24.9302018155
 30
0.0
 10
10.5220208343
 20
24.9188034076
 30
0.0
 10
10.5215621536
 20
24.9102175625
 30
0.0
 10
10.5208360536
 20
24.90365972
 30
0.0
 10
10.520458651
 20
24.9006641519
 30
0.0
 10
10.5196349628
 20
24.8983899379
 30
0.0
 10
10.5192167095
 20
24.8985021782
 30
0.0
  0
SPLINE
  5
34E
100
AcDbEntity
  8
0
100
AcDbSpline
 62
7
  6
BYLAYER
 70
0
 71
3
 72
15
 73
11
 74
0
 42
0.0000001
 43
0.0000001
 44
0.0000000001
 40
0.0
 40
0.0
 40
0.0
 40
0.0
 40
0.0163802912
 40
0.0623163395
 40
0.1403766578
 40
0.2508868574
 40
0.3939619003
 40
0.5687302998
 40
0.7719488814
 40
1.0
 40
1.0
 40
1.0
 40
1.0
 10
16.6127365422
 20
24.8985158694
 30
0.0
 10
16.612318002
 20
24.8984033616
 30
0.0
 10
16.6114943139
 20
24.9006822649
 30
0.0
 10
16.6111173337
 20
24.9036808577
 30
0.0
 10
16.6103913381
 20
24.9102458788
 30
0.0
 10
16.6099326241
 20
24.9188328855
 30
0.0
 10
16.6094869462
 20
24.9302274909
 30
0.0
 10
16.6091880962
 20
24.9439862699
 30
0.0
 10
16.6089964296
 20
24.960028707
 30
0.0
 10
16.6089585404
 20
24.9714373616
 30
0.0
 10
16.6089585404
 20
24.9774712543
 30
0.0
  0
SPLINE
  5
34F
100
AcDbEntity
  8
0
100
AcDbSpline
 62
7
  6
BYLAYER
 70
0
 71
3
 72
11
 73
7
 74
0
 42
0.0000001
 43
0.0000001
 44
0.0000000001
 40
0.0
 40
0.0
 40
0.0
 40
0.0
 40
0.2294494319
 40
0.4597629136
 40
0.7121603243
 40
1.0
 40
1.0
 40
1.0
 40
1.0
 10
11.0137647824
 20
24.7802602152
 30
0.0
 10
11.0043551928
 20
24.7822780289
 30
0.0
 10
10.9859266709
 20
24.7894833457
 30
0.0
 10
10.9638766746
 20
24.8107705888
 30
0.0
 10
10.9505467319
 20
24.8409298615
 30
0.0
 10
10.9479808048
 20
24.8637531048
 30
0.0
 10
10.9479808048
 20
24.8758256039
 30
0.0
  0
SPLINE
  5
350
100
AcDbEntity
  8
0
100
AcDbSpline
 62
7
  6
BYLAYER
 70
0
 71
3
 72
11
 73
7
 74
0
 42
0.0000001
 43
0.0000001
 44
0.0000000001
 40
0.0
 40
0.0
 40
0.0
 40
0.0
 40
0.2878942834
 40
0.5404009414
 40
0.7706216972
 40
1.0
 40
1.0
 40
1.0
 40
1.0
 10
16.1839746884
 20
24.8758381897
 30
0.0
 10
16.1839746884
 20
24.8637633313
 30
0.0
 10
16.1813941669
 20
24.8409362084
 30
0.0
 10
16.1680782044
 20
24.8107666985
 30
0.0
 10
16.1460183272
 20
24.7894896444
 30
0.0
 10
16.1275961865
 20
24.7822916403
 30
0.0
 10
16.1181896104
 20
24.7802737399
 30
0.0
  0
SPLINE
  5
351
100
AcDbEntity
  8
0
100
AcDbSpline
 62
7
  6
BYLAYER
 70
0
 71
3
 72
11
 73
7
 74
0
 42
0.0000001
 43
0.0000001
 44
0.0000000001
 40
0.0
 40
0.0
 40
0.0
 40
0.0
 40
0.2478796502
 40
0.4902421963
 40
0.7378757294
 40
1.0
 40
1.0
 40
1.0
 40
1.0
 10
9.3143242738
 20
25.3004502119
 30
0.0
 10
9.3043075899
 20
25.3045664859
 30
0.0
 10
9.2853952132
 20
25.3152641822
 30
0.0
 10
9.2628034322
 20
25.3389915402
 30
0.0
 10
9.2487474912
 20
25.3692993283
 30
0.0
 10
9.2457870738
 20
25.3917307765
 30
0.0
 10
9.2457870738
 20
25.4031825836
 30
0.0
  0
SPLINE
  5
352
100
AcDbEntity
  8
0
100
AcDbSpline
 62
7
  6
BYLAYER
 70
0
 71
3
 72
11
 73
7
 74
0
 42
0.0000001
 43
0.0000001
 44
0.0000000001
 40
0.0
 40
0.0
 40
0.0
 40
0.0
 40
0.2724065105
 40
0.5297479078
 40
0.7719394084
 40
1.0
 40
1.0
 40
1.0
 40
1.0
 10
18.0560956846
 20
23.0135215611
 30
0.0
 10
18.2094561554
 20
23.1020637416
 30
0.0
 10
18.5002970074
 20
23.2876106058
 30
0.0
 10
18.8946466413
 20
23.5994914775
 30
0.0
 10
19.2305292881
 20
23.9340596328
 30
0.0
 10
19.4181729607
 20
24.1768510024
 30
0.0
 10
19.4998346539
 20
24.3005905533
 30
0.0
  0
SPLINE
  5
353
100
AcDbEntity
  8
0
100
AcDbSpline
 62
7
  6
BYLAYER
 70
0
 71
3
 72
12
 73
8
 74
0
 42
0.0000001
 43
0.0000001
 44
0.0000000001
 40
0.0
 40
0.0
 40
0.0
 40
0.0
 40
0.1639089312
 40
0.2671128537
 40
0.3877854546
 40
0.6765366995
 40
1.0
 40
1.0
 40
1.0
 40
1.0
 10
19.2486000928
 20
23.4254002334
 30
0.0
 10
19.2445354753
 20
23.4102038902
 30
0.0
 10
19.2310084365
 20
23.3871884255
 30
0.0
 10
19.203962734
 20
23.3615143372
 30
0.0
 10
19.1626370456
 20
23.3343322369
 30
0.0
 10
19.0955927075
 20
23.3101928952
 30
0.0
 10
19.0367177396
 20
23.3034179212
 30
0.0
 10
19.0056760354
 20
23.3031160289
 30
0.0
  0
SPLINE
  5
354
100
AcDbEntity
  8
0
100
AcDbSpline
 62
7
  6
BYLAYER
 70
0
 71
3
 72
11
 73
7
 74
0
 42
0.0000001
 43
0.0000001
 44
0.0000000001
 40
0.0
 40
0.0
 40
0.0
 40
0.0
 40
0.2780350816
 40
0.5367175952
 40
0.7766225535
 40
1.0
 40
1.0
 40
1.0
 40
1.0
 10
17.6318298495
 20
21.1763848501
 30
0.0
 10
17.8032023343
 20
21.2753262097
 30
0.0
 10
18.1240178121
 20
21.4846346151
 30
0.0
 10
18.5455348944
 20
21.8449216742
 30
0.0
 10
18.8830125043
 20
22.2351841475
 30
0.0
 10
19.0531012253
 20
22.5203678424
 30
0.0
 10
19.120028627
 20
22.6645766613
 30
0.0
  0
SPLINE
  5
355
100
AcDbEntity
  8
0
100
AcDbSpline
 62
7
  6
BYLAYER
 70
0
 71
3
 72
13
 73
9
 74
0
 42
0.0000001
 43
0.0000001
 44
0.0000000001
 40
0.0
 40
0.0
 40
0.0
 40
0.0
 40
0.2403855018
 40
0.3729835951
 40
0.5089231602
 40
0.6433435655
 40
0.7723003437
 40
1.0
 40
1.0
 40
1.0
 40
1.0
 10
19.1200261765
 20
22.6645784876
 30
0.0
 10
19.1200270545
 20
22.6940807323
 30
0.0
 10
19.1079164641
 20
22.7403410098
 30
0.0
 10
19.0744452337
 20
22.7932927146
 30
0.0
 10
19.0408363161
 20
22.829978008
 30
0.0
 10
19.001724645
 20
22.8598855276
 30
0.0
 10
18.948744588
 20
22.88893657
 30
0.0
 10
18.9061642422
 20
22.901789934
 30
0.0
 10
18.8785474428
 20
22.9060623559
 30
0.0
  0
SPLINE
  5
356
100
AcDbEntity
  8
0
100
AcDbSpline
 62
7
  6
BYLAYER
 70
0
 71
3
 72
11
 73
7
 74
0
 42
0.0000001
 43
0.0000001
 44
0.0000000001
 40
0.0
 40
0.0
 40
0.0
 40
0.0
 40
0.265163811
 40
0.521754512
 40
0.7673479168
 40
1.0
 40
1.0
 40
1.0
 40
1.0
 10
15.0541815637
 20
20.3171727767
 30
0.0
 10
15.2877268041
 20
20.3533024363
 30
0.0
 10
15.7447805253
 20
20.441935421
 30
0.0
 10
16.4041747417
 20
20.6262953866
 30
0.0
 10
17.0178022468
 20
20.857594218
 30
0.0
 10
17.4011050384
 20
21.0460510466
 30
0.0
 10
17.581756122
 20
21.1478266826
 30
0.0
  0
SPLINE
  5
357
100
AcDbEntity
  8
0
100
AcDbSpline
 62
7
  6
BYLAYER
 70
0
 71
3
 72
15
 73
11
 74
0
 42
0.0000001
 43
0.0000001
 44
0.0000000001
 40
0.0
 40
0.0
 40
0.0
 40
0.0
 40
0.0573509033
 40
0.1143982732
 40
0.2292677879
 40
0.3478695109
 40
0.4709712671
 40
0.598323023
 40
0.7293951709
 40
1.0
 40
1.0
 40
1.0
 40
1.0
 10
14.4435041971
 20
20.6511936063
 30
0.0
 10
14.4435051392
 20
20.6362743718
 30
0.0
 10
14.446089981
 20
20.6064422898
 30
0.0
 10
14.4616064079
 20
20.548585221
 30
0.0
 10
14.4996207075
 20
20.4816734671
 30
0.0
 10
14.5669520369
 20
20.4165028027
 30
0.0
 10
14.6496242367
 20
20.3664191373
 30
0.0
 10
14.7430298375
 20
20.3313915583
 30
0.0
 10
14.8783316992
 20
20.3041503229
 30
0.0
 10
14.984616204
 20
20.3063970195
 30
0.0
 10
15.0541815637
 20
20.3171727767
 30
0.0
  0
SPLINE
  5
358
100
AcDbEntity
  8
0
100
AcDbSpline
 62
7
  6
BYLAYER
 70
0
 71
3
 72
13
 73
9
 74
0
 42
0.0000001
 43
0.0000001
 44
0.0000000001
 40
0.0
 40
0.0
 40
0.0
 40
0.0
 40
0.1274182711
 40
0.2702865723
 40
0.5683863941
 40
0.8239357917
 40
0.9223179718
 40
1.0
 40
1.0
 40
1.0
 40
1.0
 10
15.0541811533
 20
20.3171746463
 30
0.0
 10
15.0541812444
 20
20.3321043493
 30
0.0
 10
15.0530874676
 20
20.3637764075
 30
0.0
 10
15.0474473176
 20
20.4301561906
 30
0.0
 10
15.0349424224
 20
20.5109091473
 30
0.0
 10
15.0170727689
 20
20.5853250919
 30
0.0
 10
15.0011046244
 20
20.6333369771
 30
0.0
 10
14.9933072439
 20
20.6524620945
 30
0.0
 10
14.9894754343
 20
20.6607182954
 30
0.0
  0
SPLINE
  5
359
100
AcDbEntity
  8
0
100
AcDbSpline
 62
7
  6
BYLAYER
 70
0
 71
3
 72
13
 73
9
 74
0
 42
0.0000001
 43
0.0000001
 44
0.0000000001
 40
0.0
 40
0.0
 40
0.0
 40
0.0
 40
0.2669358127
 40
0.5415366503
 40
0.6715301223
 40
0.7910661174
 40
0.8995279351
 40
1.0
 40
1.0
 40
1.0
 40
1.0
 10
14.4435048365
 20
20.6511840378
 30
0.0
 10
14.4679999959
 20
20.6533681838
 30
0.0
 10
14.5173817798
 20
20.6621333454
 30
0.0
 10
14.5755339501
 20
20.6854795959
 30
0.0
 10
14.6150363808
 20
20.7136791485
 30
0.0
 10
14.6376406068
 20
20.7381069698
 30
0.0
 10
14.6519808058
 20
20.7652093707
 30
0.0
 10
14.6553396661
 20
20.7845778198
 30
0.0
 10
14.6553380557
 20
20.7938341403
 30
0.0
  0
SPLINE
  5
35A
100
AcDbEntity
  8
0
100
AcDbSpline
 62
7
  6
BYLAYER
 70
0
 71
3
 72
16
 73
12
 74
0
 42
0.0000001
 43
0.0000001
 44
0.0000000001
 40
0.0
 40
0.0
 40
0.0
 40
0.0
 40
0.061978795
 40
0.1295496935
 40
0.1969009976
 40
0.2630890553
 40
0.3921551261
 40
0.5178192705
 40
0.6409499804
 40
0.7621192431
 40
1.0
 40
1.0
 40
1.0
 40
1.0
 10
8.8158256629
 20
20.5099681834
 30
0.0
 10
8.8158256629
 20
20.5011199625
 30
0.0
 10
8.8210634143
 20
20.4828065015
 30
0.0
 10
8.8345005325
 20
20.4581334178
 30
0.0
 10
8.8510824276
 20
20.4346120031
 30
0.0
 10
8.8748715981
 20
20.4056222801
 30
0.0
 10
8.9064899787
 20
20.3723894179
 30
0.0
 10
8.9458782692
 20
20.3355110099
 30
0.0
 10
8.9858714929
 20
20.3009937092
 30
0.0
 10
9.0393284294
 20
20.2576140043
 30
0.0
 10
9.0802689965
 20
20.2267396921
 30
0.0
 10
9.1077152052
 20
20.2067394191
 30
0.0
  0
SPLINE
  5
35B
100
AcDbEntity
  8
0
100
AcDbSpline
 62
7
  6
BYLAYER
 70
0
 71
3
 72
11
 73
7
 74
0
 42
0.0000001
 43
0.0000001
 44
0.0000000001
 40
0.0
 40
0.0
 40
0.0
 40
0.0
 40
0.2292294851
 40
0.4676970765
 40
0.7231352183
 40
1.0
 40
1.0
 40
1.0
 40
1.0
 10
34.8245788799
 20
38.2487023006
 30
0.0
 10
34.7758704375
 20
38.2768187517
 30
0.0
 10
34.6686778894
 20
38.3216093695
 30
0.0
 10
34.4917322746
 20
38.3483469603
 30
0.0
 10
34.3018068583
 20
38.335510845
 30
0.0
 10
34.1746347563
 20
38.3027608917
 30
0.0
 10
34.1103057479
 20
38.2809430482
 30
0.0
  0
SPLINE
  5
35C
100
AcDbEntity
  8
0
100
AcDbSpline
 62
7
  6
BYLAYER
 70
0
 71
3
 72
11
 73
7
 74
0
 42
0.0000001
 43
0.0000001
 44
0.0000000001
 40
0.0
 40
0.0
 40
0.0
 40
0.0
 40
0.2786315281
 40
0.5375385444
 40
0.7772326334
 40
1.0
 40
1.0
 40
1.0
 40
1.0
 10
17.4071558093
 20
21.455254135
 30
0.0
 10
17.5768707062
 20
21.5508685161
 30
0.0
 10
17.8945426457
 20
21.7536402568
 30
0.0
 10
18.3118985229
 20
22.1043850152
 30
0.0
 10
18.645452421
 20
22.4854872897
 30
0.0
 10
18.8129847046
 20
22.7647908674
 30
0.0
 10
18.8785469011
 20
22.9060584626
 30
0.0
  0
SPLINE
  5
35D
100
AcDbEntity
  8
0
100
AcDbSpline
 62
7
  6
BYLAYER
 70
0
 71
3
 72
11
 73
7
 74
0
 42
0.0000001
 43
0.0000001
 44
0.0000000001
 40
0.0
 40
0.0
 40
0.0
 40
0.0
 40
0.2651635728
 40
0.5217540791
 40
0.7673476735
 40
1.0
 40
1.0
 40
1.0
 40
1.0
 10
14.9894757963
 20
20.6607156162
 30
0.0
 10
15.2128666573
 20
20.6952743841
 30
0.0
 10
15.6500478307
 20
20.7800549498
 30
0.0
 10
16.2807720158
 20
20.9564004343
 30
0.0
 10
16.8677204867
 20
21.177641691
 30
0.0
 10
17.2343589692
 20
21.3579034413
 30
0.0
 10
17.4071558093
 20
21.455254135
 30
0.0
  0
SPLINE
  5
35E
100
AcDbEntity
  8
0
100
AcDbSpline
 62
7
  6
BYLAYER
 70
0
 71
3
 72
9
 73
5
 74
0
 42
0.0000001
 43
0.0000001
 44
0.0000000001
 40
0.0
 40
0.0
 40
0.0
 40
0.0
 40
0.4467120908
 40
1.0
 40
1.0
 40
1.0
 40
1.0
 10
18.8785469012
 20
22.9060584625
 30
0.0
 10
18.8745802424
 20
22.9378737961
 30
0.0
 10
18.8644221794
 20
23.0089318795
 30
0.0
 10
18.8534491605
 20
23.0798592156
 30
0.0
 10
18.8476760258
 20
23.1191482004
 30
0.0
  0
SPLINE
  5
35F
100
AcDbEntity
  8
0
100
AcDbSpline
 62
7
  6
BYLAYER
 70
0
 71
3
 72
11
 73
7
 74
0
 42
0.0000001
 43
0.0000001
 44
0.0000000001
 40
0.0
 40
0.0
 40
0.0
 40
0.0
 40
0.2449200398
 40
0.4919721073
 40
0.7431202626
 40
1.0
 40
1.0
 40
1.0
 40
1.0
 10
34.0268943785
 20
35.4075557742
 30
0.0
 10
33.9406497727
 20
35.4573468567
 30
0.0
 10
33.7615584205
 20
35.5475900154
 30
0.0
 10
33.4775580025
 20
35.6525068764
 30
0.0
 10
33.1790630328
 20
35.7267815474
 30
0.0
 10
32.9740553551
 20
35.755370515
 30
0.0
 10
32.8700211691
 20
35.7646636244
 30
0.0
  0
SPLINE
  5
360
100
AcDbEntity
  8
0
100
AcDbSpline
 62
7
  6
BYLAYER
 70
0
 71
3
 72
14
 73
10
 74
0
 42
0.0000001
 43
0.0000001
 44
0.0000000001
 40
0.0
 40
0.0
 40
0.0
 40
0.0
 40
0.1261429762
 40
0.2650186024
 40
0.545329668
 40
0.6760958481
 40
0.7966794505
 40
0.9052059368
 40
1.0
 40
1.0
 40
1.0
 40
1.0
 10
19.2485961827
 20
23.4253981985
 30
0.0
 10
19.2485982507
 20
23.3927664332
 30
0.0
 10
19.2467036658
 20
23.3242048948
 30
0.0
 10
19.2373959843
 20
23.183428613
 30
0.0
 10
19.2205623346
 20
23.041983708
 30
0.0
 10
19.1955912559
 20
22.9066942599
 30
0.0
 10
19.1740512574
 20
22.8160699891
 30
0.0
 10
19.1496498902
 20
22.7358542737
 30
0.0
 10
19.1303565745
 20
22.6868178302
 30
0.0
 10
19.120028627
 20
22.6645766613
 30
0.0
  0
SPLINE
  5
361
100
AcDbEntity
  8
0
100
AcDbSpline
 62
7
  6
BYLAYER
 70
0
 71
3
 72
14
 73
10
 74
0
 42
0.0000001
 43
0.0000001
 44
0.0000000001
 40
0.0
 40
0.0
 40
0.0
 40
0.0
 40
0.1419500691
 40
0.2780248959
 40
0.5333296458
 40
0.6541551383
 40
0.7714837034
 40
0.8863714892
 40
1.0
 40
1.0
 40
1.0
 40
1.0
 10
8.8158256629
 20
20.5099681834
 30
0.0
 10
8.7367763551
 20
20.5768742787
 30
0.0
 10
8.5869364376
 20
20.7140531837
 30
0.0
 10
8.32333151
 20
21.0006145722
 30
0.0
 10
8.1088945669
 20
21.3104961189
 30
0.0
 10
7.9564075087
 20
21.6373780822
 30
0.0
 10
7.8755856293
 20
21.8826324415
 30
0.0
 10
7.826816489
 20
22.1308458049
 30
0.0
 10
7.8159601729
 20
22.2977657562
 30
0.0
 10
7.8159604186
 20
22.3806658046
 30
0.0
  0
SPLINE
  5
362
100
AcDbEntity
  8
0
100
AcDbSpline
 62
7
  6
BYLAYER
 70
0
 71
3
 72
16
 73
12
 74
0
 42
0.0000001
 43
0.0000001
 44
0.0000000001
 40
0.0
 40
0.0
 40
0.0
 40
0.0
 40
0.1128887931
 40
0.233579343
 40
0.3602514201
 40
0.4906568449
 40
0.6223237636
 40
0.7527033133
 40
0.8793255372
 40
0.9405604963
 40
1.0
 40
1.0
 40
1.0
 40
1.0
 10
17.5591977047
 20
19.9920865582
 30
0.0
 10
17.3143261507
 20
19.8556486329
 30
0.0
 10
16.786109698
 20
19.6110713183
 30
0.0
 10
15.9324384569
 20
19.3376418051
 30
0.0
 10
15.0113157174
 20
19.1510391156
 30
0.0
 10
14.0490481231
 20
19.0566629429
 30
0.0
 10
13.0729639647
 20
19.0571442426
 30
0.0
 10
12.111029269
 20
19.1524826445
 30
0.0
 10
11.3350654835
 20
19.3104797124
 30
0.0
 10
10.7454984022
 20
19.4831685549
 30
0.0
 10
10.4631288134
 20
19.5841220451
 30
0.0
 10
10.3257988365
 20
19.6382044871
 30
0.0
  0
SPLINE
  5
363
100
AcDbEntity
  8
0
100
AcDbSpline
 62
7
  6
BYLAYER
 70
0
 71
3
 72
9
 73
5
 74
0
 42
0.0000001
 43
0.0000001
 44
0.0000000001
 40
0.0
 40
0.0
 40
0.0
 40
0.0
 40
0.2551043725
 40
1.0
 40
1.0
 40
1.0
 40
1.0
 10
35.3423568949
 20
33.8715872688
 30
0.0
 10
35.3189422098
 20
33.9119469595
 30
0.0
 10
35.2238605731
 20
34.0682081431
 30
0.0
 10
35.1152135157
 20
34.2163060398
 30
0.0
 10
35.0269567932
 20
34.3201018258
 30
0.0
  0
SPLINE
  5
364
100
AcDbEntity
  8
0
100
AcDbSpline
 62
7
  6
BYLAYER
 70
0
 71
3
 72
12
 73
8
 74
0
 42
0.0000001
 43
0.0000001
 44
0.0000000001
 40
0.0
 40
0.0
 40
0.0
 40
0.0
 40
0.2516667649
 40
0.4983635121
 40
0.6218002891
 40
0.7461783854
 40
1.0
 40
1.0
 40
1.0
 40
1.0
 10
35.0269567932
 20
34.3201018258
 30
0.0
 10
34.9215767114
 20
34.4440358234
 30
0.0
 10
34.6912484894
 20
34.6721450623
 30
0.0
 10
34.3559689417
 20
34.8983103435
 30
0.0
 10
34.0679506122
 20
35.0379603613
 30
0.0
 10
33.7639136896
 20
35.1517154122
 30
0.0
 10
33.523666622
 20
35.2053600382
 30
0.0
 10
33.3611002175
 20
35.2275388143
 30
0.0
  0
ELLIPSE
  5
365
100
AcDbEntity
  8
0
100
AcDbEllipse
 62
7
  6
BYLAYER
 10
30.0769610121
 20
28.5659157163
 30
0.0
 11
9.1533503352
 21
-9.2311650332
 31
0.0
 40
0.5142831053
 41
-1.3453285794
 42
-1.3110753063
  0
ELLIPSE
  5
366
100
AcDbEntity
  8
0
100
AcDbEllipse
 62
7
  6
BYLAYER
 10
30.0769610121
 20
28.5659157163
 30
0.0
 11
14.8346427837
 21
-14.0052828808
 31
0.0
 40
0.2808970456
 41
4.6428575302
 42
4.6628469554
  0
ELLIPSE
  5
367
100
AcDbEntity
  8
0
100
AcDbEllipse
 62
7
  6
BYLAYER
 10
30.0769610121
 20
28.5659157163
 30
0.0
 11
19.0907442937
 21
-3.3473986706
 31
0.0
 40
0.1658427529
 41
1.7011642489
 42
1.735417522
  0
ELLIPSE
  5
368
100
AcDbEntity
  8
0
100
AcDbEllipse
 62
7
  6
BYLAYER
 10
30.0769610121
 20
28.5659157163
 30
0.0
 11
18.8553803984
 21
-8.9026918941
 31
0.0
 40
0.3414278156
 41
7.8440103727
 42
7.8582116758
  0
ELLIPSE
  5
369
100
AcDbEntity
  8
0
100
AcDbEllipse
 62
7
  6
BYLAYER
 10
30.0769610121
 20
28.5659157163
 30
0.0
 11
18.8553803984
 21
-8.9026918941
 31
0.0
 40
0.3414278156
 41
-1.546514315
 42
-1.5122610419
  0
ENDSEC
  0
SECTION
  2
OBJECTS
  0
DICTIONARY
  5
C
100
AcDbDictionary
280
0
281
1
  3
ACAD_GROUP
350
D
  3
ACAD_MLINESTYLE
350
17
  3
ACAD_LAYOUT
350
1A
  3
ACAD_PLOTSETTINGS
350
19
  3
ACAD_PLOTSTYLENAME
350
E
  0
DICTIONARY
  5
D
102
{ACAD_REACTORS
330
C
102
}
100
AcDbDictionary
280
0
281
1
  0
ACDBDICTIONARYWDFLT
  5
E
102
{ACAD_REACTORS
330
C
102
}
100
AcDbDictionary
281
1
  3
Normal
350
F
100
AcDbDictionaryWithDefault
340
F
  0
DICTIONARY
  5
17
102
{ACAD_REACTORS
330
C
102
}
100
AcDbDictionary
280
0
281
1
  3
Standard
350
18
  0
DICTIONARY
  5
19
102
{ACAD_REACTORS
330
C
102
}
100
AcDbDictionary
281
1
  0
DICTIONARY
  5
1A
102
{ACAD_REACTORS
330
C
102
}
100
AcDbDictionary
281
1
  3
Model
350
36A
  3
Layout1
350
36B
  0
ACDBPLACEHOLDER
  5
F
102
{ACAD_REACTORS
330
E
102
}
  0
MLINESTYLE
  5
18
102
{ACAD_REACTORS
330
17
102
}
100
AcDbMlineStyle
  2
STANDARD
 70
0
  3

 62
256
 51
90.0
 52
90.0
 71
2
 49
0.5
 62
256
  6
BYLAYER
 49
-0.5
 62
256
  6
BYLAYER
  0
LAYOUT
  5
36A
102
{ACAD_REACTORS
330
1A
102
}
100
AcDbPlotSettings
  1

  2
none_device
  4

  6

 40
0.0
 41
0.0
 42
0.0
 43
0.0
 44
210.0
 45
297.0
 46
0.0
 47
0.0
 48
0.0
 49
0.0
140
0.0
141
0.0
142
1.0
143
1.0
 70
1024
 72
1
 73
0
 74
0
  7

 75
0
147
1.0
148
0.0
149
0.0
100
AcDbLayout
  1
Model
 70
0
 71
0
 10
0.0
 20
0.0
 11
210.0
 21
297.0
 12
0.0
 22
0.0
 32
0.0
 14
0.0
 24
0.0
 34
0.0
 15
0.0
 25
0.0
 35
0.0
146
0.0
 13
0.0
 23
0.0
 33
0.0
 16
1.0
 26
0.0
 36
0.0
 17
0.0
 27
1.0
 37
0.0
 76
0
330
210
345
0
346
0
  0
LAYOUT
  5
36B
102
{ACAD_REACTORS
330
1A
102
}
100
AcDbPlotSettings
  1

  2
none_device
  4

  6

 40
0.0
 41
0.0
 42
0.0
 43
0.0
 44
210.0
 45
297.0
 46
0.0
 47
0.0
 48
0.0
 49
0.0
140
0.0
141
0.0
142
1.0
143
1.0
 70
0
 72
1
 73
0
 74
0
  7

 75
0
147
1.0
148
0.0
149
0.0
100
AcDbLayout
  1
Layout1
 70
0
 71
1
 10
0.0
 20
0.0
 11
210.0
 21
297.0
 12
0.0
 22
0.0
 32
0.0
 14
0.0
 24
0.0
 34
0.0
 15
0.0
 25
0.0
 35
0.0
146
0.0
 13
0.0
 23
0.0
 33
0.0
 16
1.0
 26
0.0
 36
0.0
 17
0.0
 27
1.0
 37
0.0
 76
0
330
211
345
0
346
0
  0
ENDSEC
  0
EOF
