999
DXF file: C:\Users\sesa63760\Dev\_Creo\CAD\MCADID0004134_3D-CAD\drw0001_6.dxf
999
Pro/ENGINEER 2019471 by Parametric Technology Corporation
  0
SECTION
  2
HEADER
  9
$ACADVER
  1
AC1024
  9
$DWGCODEPAGE
  3
ANSI_1252
  9
$EXTMAX
 10
55.9042033236
 20
79.064516129
 30
0.0
  9
$EXTMIN
 10
0.0
 20
0.0
 30
0.0
  9
$LIMMIN
 10
0.0
 20
0.0
  9
$LIMMAX
 10
55.9042033236
 20
79.064516129
  9
$VIEWCTR
 10
27.9521016618
 20
39.5322580645
  9
$VIEWSIZE
 40
79.064516129
  9
$CLAYER
  8
0
  9
$LTSCALE
 40
5.1538351254
  9
$CELTYPE
  6
BYLAYER
  9
$DIMSCALE
 40
1.0
  9
$DIMASZ
 40
0.66552623
  9
$DIMEXO
 40
1.0
  9
$DIMDLI
 40
3.5608315412
  9
$DIMEXE
 40
1.0
  9
$DIMCEN
 40
0.8433548387
  9
$DIMLFAC
 40
1.0
  9
$DIMBLK
  1
_FILLED
  9
$DIMALT
 70
0
  9
$DIMALTF
 40
0.0393700787
  9
$DIMTXT
 40
0.9317367221
  9
$DIMTOL
 70
1
  9
$DIMLIM
 70
0
  9
$DIMTFAC
 40
1.0
  9
$DIMTP
 40
0.01
  9
$DIMTM
 40
0.01
  9
$DIMGAP
 40
0.625
  9
$DIMDSEP
 70
46
  9
$AUNITS
 70
0
  9
$PDMODE
 70
3
  9
$PDSIZE
 40
0.3125
  9
$HANDSEED
  5
2EC
  9
$TILEMODE
 70
1
  9
$MEASUREMENT
 70
1
  9
$INSUNITS
 70
4
  0
ENDSEC
  0
SECTION
  2
CLASSES
  0
CLASS
  1
ACDBDICTIONARYWDFLT
  2
AcDbDictionaryWithDefault
  3
AutoCAD 2000
 90
0
 91
1
280
0
281
0
  0
CLASS
  1
ACDBPLACEHOLDER
  2
AcDbPlaceHolder
  3
AutoCAD 2000
 90
0
 91
1
280
0
281
0
  0
CLASS
  1
LAYOUT
  2
AcDbLayout
  3
AutoCAD 2000
 90
0
 91
0
280
0
281
0
  0
ENDSEC
  0
SECTION
  2
TABLES
  0
TABLE
  2
VPORT
  5
8
100
AcDbSymbolTable
 70
2
  0
VPORT
  5
1F4
100
AcDbSymbolTableRecord
100
AcDbViewportTableRecord
  2
*ACTIVE
 70
0
 10
0.0
 20
0.0
 11
1.0
 21
1.0
 12
27.9521016618
 22
39.5322580645
 13
0.0
 23
0.0
 14
1.0
 24
1.0
 15
0.0
 25
0.0
 16
0.0
 26
0.0
 36
1.0
 17
0.0
 27
0.0
 37
0.0
 40
79.064516129
 41
0.7070707071
 42
50.0
 43
0.0
 44
0.0
 50
0.0
 51
0.0
 71
0
 72
100
 73
1
 74
1
 75
0
 76
0
 77
0
 78
0
  0
ENDTAB
  0
TABLE
  2
LTYPE
  5
5
100
AcDbSymbolTable
 70
6
  0
LTYPE
  5
14
100
AcDbSymbolTableRecord
100
AcDbLinetypeTableRecord
  2
BYBLOCK
 70
0
  3

 72
65
 73
0
 40
0.0
  0
LTYPE
  5
15
100
AcDbSymbolTableRecord
100
AcDbLinetypeTableRecord
  2
BYLAYER
 70
0
  3

 72
65
 73
0
 40
0.0
  0
LTYPE
  5
16
100
AcDbSymbolTableRecord
100
AcDbLinetypeTableRecord
  2
CONTINUOUS
 70
64
  3
Solid line
 72
65
 73
0
 40
0.0
  0
LTYPE
  5
1F5
100
AcDbSymbolTableRecord
100
AcDbLinetypeTableRecord
  2
CENTER
 70
64
  3
____ _ ____ _ ____ _ ____ _ ____ _ ____ _ ____
 72
65
 73
4
 40
0.6
 49
0.375
 74
0
 49
-0.075
 74
0
 49
0.075
 74
0
 49
-0.075
 74
0
  0
LTYPE
  5
1F6
100
AcDbSymbolTableRecord
100
AcDbLinetypeTableRecord
  2
HIDDEN
 70
64
  3
- - - - - - - - - - - - - - - - - - - -
 72
65
 73
2
 40
0.2
 49
0.1
 74
0
 49
-0.1
 74
0
  0
LTYPE
  5
1F7
100
AcDbSymbolTableRecord
100
AcDbLinetypeTableRecord
  2
PHANTOM
 70
64
  3
_____ _ _ _____ _ _ _____ _ _ _____
 72
65
 73
6
 40
0.8
 49
0.45
 74
0
 49
-0.05
 74
0
 49
0.1
 74
0
 49
-0.05
 74
0
 49
0.1
 74
0
 49
-0.05
 74
0
  0
LTYPE
  5
1F8
100
AcDbSymbolTableRecord
100
AcDbLinetypeTableRecord
  2
DOT
 70
64
  3
. . . . . . . . . . . . . . . . . . . .
 72
65
 73
2
 40
0.2
 49
0.1
 74
0
 49
-0.1
 74
0
  0
LTYPE
  5
1F9
100
AcDbSymbolTableRecord
100
AcDbLinetypeTableRecord
  2
DASHED
 70
64
  3
- - - - - - - - - - - - - - - - - - - -
 72
65
 73
2
 40
0.2
 49
0.1
 74
0
 49
-0.1
 74
0
  0
ENDTAB
  0
TABLE
  2
LAYER
  5
2
100
AcDbSymbolTable
 70
36
  0
LAYER
  5
10
100
AcDbSymbolTableRecord
100
AcDbLayerTableRecord
  2
0
 70
0
 62
7
  6
CONTINUOUS
370
-3
390
F
  0
LAYER
  5
1FA
100
AcDbSymbolTableRecord
100
AcDbLayerTableRecord
  2
DEFAULT_1
 70
0
 62
7
  6
CENTER
370
-3
390
F
  0
LAYER
  5
1FB
100
AcDbSymbolTableRecord
100
AcDbLayerTableRecord
  2
DEFAULT_2
 70
0
 62
7
  6
HIDDEN
370
-3
390
F
  0
LAYER
  5
1FC
100
AcDbSymbolTableRecord
100
AcDbLayerTableRecord
  2
DEFAULT_3
 70
0
 62
7
  6
PHANTOM
370
-3
390
F
  0
LAYER
  5
1FD
100
AcDbSymbolTableRecord
100
AcDbLayerTableRecord
  2
00_COMPONENTS
 70
0
 62
7
  6
CONTINUOUS
370
-3
390
F
  0
LAYER
  5
1FE
100
AcDbSymbolTableRecord
100
AcDbLayerTableRecord
  2
01_1_DEFAULT_DATUMS
 70
0
 62
7
  6
CONTINUOUS
370
-3
390
F
  0
LAYER
  5
1FF
100
AcDbSymbolTableRecord
100
AcDbLayerTableRecord
  2
01_PLANES
 70
0
 62
7
  6
CONTINUOUS
370
-3
390
F
  0
LAYER
  5
200
100
AcDbSymbolTableRecord
100
AcDbLayerTableRecord
  2
02_COORD_SYS
 70
0
 62
7
  6
CONTINUOUS
370
-3
390
F
  0
LAYER
  5
201
100
AcDbSymbolTableRecord
100
AcDbLayerTableRecord
  2
03_AXES
 70
0
 62
7
  6
CONTINUOUS
370
-3
390
F
  0
LAYER
  5
202
100
AcDbSymbolTableRecord
100
AcDbLayerTableRecord
  2
04_POINTS
 70
0
 62
7
  6
CONTINUOUS
370
-3
390
F
  0
LAYER
  5
203
100
AcDbSymbolTableRecord
100
AcDbLayerTableRecord
  2
05_CURVES
 70
0
 62
7
  6
CONTINUOUS
370
-3
390
F
  0
LAYER
  5
204
100
AcDbSymbolTableRecord
100
AcDbLayerTableRecord
  2
06_SURFS
 70
0
 62
7
  6
CONTINUOUS
370
-3
390
F
  0
LAYER
  5
205
100
AcDbSymbolTableRecord
100
AcDbLayerTableRecord
  2
07_COSMETICS
 70
0
 62
7
  6
CONTINUOUS
370
-3
390
F
  0
LAYER
  5
206
100
AcDbSymbolTableRecord
100
AcDbLayerTableRecord
  2
10_NOTES
 70
0
 62
7
  6
CONTINUOUS
370
-3
390
F
  0
LAYER
  5
207
100
AcDbSymbolTableRecord
100
AcDbLayerTableRecord
  2
11_NOTES_PUB
 70
0
 62
7
  6
CONTINUOUS
370
-3
390
F
  0
LAYER
  5
208
100
AcDbSymbolTableRecord
100
AcDbLayerTableRecord
  2
13_REF_GTOL
 70
0
 62
7
  6
CONTINUOUS
370
-3
390
F
  0
LAYER
  5
209
100
AcDbSymbolTableRecord
100
AcDbLayerTableRecord
  2
16_MISC
 70
0
 62
7
  6
CONTINUOUS
370
-3
390
F
  0
LAYER
  5
20A
100
AcDbSymbolTableRecord
100
AcDbLayerTableRecord
  2
17_NO_PRINT
 70
0
 62
7
  6
CONTINUOUS
370
-3
390
F
  0
LAYER
  5
20B
100
AcDbSymbolTableRecord
100
AcDbLayerTableRecord
  2
18_DATUM_CAMS_JOINTS
 70
0
 62
7
  6
CONTINUOUS
370
-3
390
F
  0
LAYER
  5
20C
100
AcDbSymbolTableRecord
100
AcDbLayerTableRecord
  2
19_DATUM_FUNCTIONAL
 70
0
 62
7
  6
CONTINUOUS
370
-3
390
F
  0
LAYER
  5
20D
100
AcDbSymbolTableRecord
100
AcDbLayerTableRecord
  2
20_DATUM_KINEMATIC_SCHEME
 70
0
 62
7
  6
CONTINUOUS
370
-3
390
F
  0
ENDTAB
  0
TABLE
  2
STYLE
  5
3
100
AcDbSymbolTable
 70
1
  0
STYLE
  5
11
100
AcDbSymbolTableRecord
100
AcDbTextStyleTableRecord
  2
STANDARD
 70
0
 40
0.0
 41
1.0
 50
0.0
 71
0
 42
0.2
  3
ARIAL.TTF
  4

  0
STYLE
  5
20E
100
AcDbSymbolTableRecord
100
AcDbTextStyleTableRecord
  2
TEXTSTYLE_1
 70
0
 40
0.0
 41
0.8
 50
0.0
 71
0
 42
0.2
  3
gdt
  4

  0
ENDTAB
  0
TABLE
  2
VIEW
  5
6
100
AcDbSymbolTable
 70
0
  0
ENDTAB
  0
TABLE
  2
UCS
  5
7
100
AcDbSymbolTable
 70
0
  0
ENDTAB
  0
TABLE
  2
APPID
  5
9
100
AcDbSymbolTable
 70
1
  0
APPID
  5
20F
100
AcDbSymbolTableRecord
100
AcDbRegAppTableRecord
  2
ACAD
 70
0
  0
ENDTAB
  0
TABLE
  2
BLOCK_RECORD
  5
1
100
AcDbSymbolTable
 70
0
  0
BLOCK_RECORD
  5
210
100
AcDbSymbolTableRecord
100
AcDbBlockTableRecord
  2
*Model_Space
  0
BLOCK_RECORD
  5
211
100
AcDbSymbolTableRecord
100
AcDbBlockTableRecord
  2
*Paper_Space
  0
BLOCK_RECORD
  5
212
100
AcDbSymbolTableRecord
100
AcDbBlockTableRecord
  2
_FILLED
  0
ENDTAB
  0
TABLE
  2
DIMSTYLE
  5
A
100
AcDbSymbolTable
 70
1
100
AcDbDimStyleTable
 71
0
  0
DIMSTYLE
105
213
100
AcDbSymbolTableRecord
100
AcDbDimStyleTableRecord
  2
STANDARD
 70
0
  3

  4

 40
1.0
 41
0.66552623
 42
1.0
 43
0.38
 44
1.0
 45
0.0
 46
0.0
 47
0.01
 48
0.01
140
0.9317367221
141
0.09
142
0.0
143
25.4
144
1.0
145
0.0
146
1.0
147
0.625
 71
1
 72
0
 73
0
 74
0
 75
0
 76
0
 77
1
 78
8
 79
2
170
0
171
1
172
0
173
0
174
0
175
0
176
0
177
0
178
0
270
2
179
2
271
2
272
2
273
2
274
2
275
0
280
0
281
0
282
0
283
1
284
8
285
0
286
0
287
3
288
0
340
11
278
46
341
212
342
212
343
212
344
212
  0
ENDTAB
  0
ENDSEC
  0
SECTION
  2
BLOCKS
  0
BLOCK
  5
20
100
AcDbEntity
  8
0
100
AcDbBlockBegin
  2
*Model_Space
 70
0
 10
0.0
 20
0.0
 30
0.0
  3
*Model_Space
  1

  0
ENDBLK
  5
21
100
AcDbEntity
  8
0
100
AcDbBlockEnd
  0
BLOCK
  5
1C
100
AcDbEntity
  8
0
100
AcDbBlockBegin
  2
*Paper_Space
 70
0
 10
0.0
 20
0.0
 30
0.0
  3
*Paper_Space
  1

  0
ENDBLK
  5
1D
100
AcDbEntity
  8
0
100
AcDbBlockEnd
  0
BLOCK
  5
214
100
AcDbEntity
  8
0
100
AcDbBlockBegin
  2
_FILLED
 70
64
 10
0.0
 20
0.0
  3
_FILLED
  1

  0
SOLID
  5
215
100
AcDbEntity
  8
0
  6
BYBLOCK
 62
0
100
AcDbTrace
 10
0.0
 20
0.0
 11
-1.0
 21
0.25
 12
-1.0
 22
-0.25
 13
-1.0
 23
-0.25
  0
ENDBLK
  5
216
100
AcDbEntity
  8
0
  6
BYBLOCK
 62
0
100
AcDbBlockEnd
  0
ENDSEC
  0
SECTION
  2
ENTITIES
  0
LINE
  5
217
100
AcDbEntity
  8
0
100
AcDbLine
 62
7
  6
BYLAYER
 10
33.6857704087
 20
6.5322580645
 11
23.1861748503
 21
6.5322580645
  0
LINE
  5
218
100
AcDbEntity
  8
0
100
AcDbLine
 62
7
  6
BYLAYER
 10
23.1859726295
 20
8.0322580645
 11
33.6859726295
 21
8.0322580645
  0
LINE
  5
219
100
AcDbEntity
  8
0
100
AcDbLine
 62
7
  6
BYLAYER
 10
34.4359726295
 20
8.7822580645
 11
33.8521460276
 21
8.7822580645
  0
LINE
  5
21A
100
AcDbEntity
  8
0
100
AcDbLine
 62
7
  6
BYLAYER
 10
21.1613513875
 20
72.3233065318
 11
21.1196481056
 21
72.2816075918
  0
LINE
  5
21B
100
AcDbEntity
  8
0
100
AcDbLine
 62
7
  6
BYLAYER
 10
21.3360455175
 20
72.1889262932
 11
21.3197018
 21
72.1725842773
  0
LINE
  5
21C
100
AcDbEntity
  8
0
100
AcDbLine
 62
7
  6
BYLAYER
 10
22.4425149374
 20
9.2041560191
 11
23.178852634
 21
8.7822285165
  0
LINE
  5
21D
100
AcDbEntity
  8
0
100
AcDbLine
 62
7
  6
BYLAYER
 10
22.4424925248
 20
10.2041984554
 11
23.1788663583
 21
9.7822480398
  0
LINE
  5
21E
100
AcDbEntity
  8
0
100
AcDbLine
 62
7
  6
BYLAYER
 10
22.4424598064
 20
11.2042383866
 11
23.1788663571
 21
10.7822688006
  0
LINE
  5
21F
100
AcDbEntity
  8
0
100
AcDbLine
 62
7
  6
BYLAYER
 10
22.4424212448
 20
12.204270778
 11
23.1788526306
 21
11.7822883235
  0
LINE
  5
220
100
AcDbEntity
  8
0
100
AcDbLine
 62
7
  6
BYLAYER
 10
22.4423813115
 20
13.2042919278
 11
23.1788272017
 21
12.7823041451
  0
LINE
  5
221
100
AcDbEntity
  8
0
100
AcDbLine
 62
7
  6
BYLAYER
 10
23.1859726288
 20
8.0322580638
 11
22.7090611395
 21
8.509169554
  0
LINE
  5
222
100
AcDbEntity
  8
0
100
AcDbLine
 62
7
  6
BYLAYER
 10
24.9359726295
 20
72.1887805282
 11
24.9357649283
 21
72.1885514821
  0
LINE
  5
223
100
AcDbEntity
  8
0
100
AcDbLine
 62
7
  6
BYLAYER
 10
34.4295940737
 20
8.8603671022
 11
34.2043098276
 21
8.9894354468
  0
LINE
  5
224
100
AcDbEntity
  8
0
100
AcDbLine
 62
7
  6
BYLAYER
 10
22.4423444212
 20
14.2042995135
 11
23.1787940919
 21
13.7823138376
  0
LINE
  5
225
100
AcDbEntity
  8
0
100
AcDbLine
 62
7
  6
BYLAYER
 10
33.843039057
 20
8.1964475517
 11
33.6932146065
 21
8.2823054129
  0
LINE
  5
226
100
AcDbEntity
  8
0
100
AcDbLine
 62
7
  6
BYLAYER
 10
22.4423148808
 20
15.2042926125
 11
23.1787592743
 21
14.7823150324
  0
LINE
  5
227
100
AcDbEntity
  8
0
100
AcDbLine
 62
7
  6
BYLAYER
 10
34.2043098276
 20
8.9894354468
 11
33.6932310538
 21
9.2822848928
  0
LINE
  5
228
100
AcDbEntity
  8
0
100
AcDbLine
 62
7
  6
BYLAYER
 10
22.4422968571
 20
16.2042716967
 11
23.1787305966
 21
15.782305445
  0
LINE
  5
229
100
AcDbEntity
  8
0
100
AcDbLine
 62
7
  6
BYLAYER
 10
22.4425147856
 20
9.2040334605
 11
22.4359726295
 21
9.2114668582
  0
LINE
  5
22A
100
AcDbEntity
  8
0
100
AcDbLine
 62
7
  6
BYLAYER
 10
22.442492336
 20
10.20404579
 11
22.4359726295
 21
10.2114662479
  0
LINE
  5
22B
100
AcDbEntity
  8
0
100
AcDbLine
 62
7
  6
BYLAYER
 10
22.442459591
 20
11.204063727
 11
22.4359726295
 21
11.2114652758
  0
LINE
  5
22C
100
AcDbEntity
  8
0
100
AcDbLine
 62
7
  6
BYLAYER
 10
34.4296340268
 20
9.8603203307
 11
33.6932362383
 21
10.2822584158
  0
LINE
  5
22D
100
AcDbEntity
  8
0
100
AcDbLine
 62
7
  6
BYLAYER
 10
34.4296509014
 20
10.8602782068
 11
33.6932310521
 21
11.2822319394
  0
LINE
  5
22E
100
AcDbEntity
  8
0
100
AcDbLine
 62
7
  6
BYLAYER
 10
34.4296484005
 20
11.8602451145
 11
33.6932146588
 21
12.2822113888
  0
LINE
  5
22F
100
AcDbEntity
  8
0
100
AcDbLine
 62
7
  6
BYLAYER
 10
22.4424210166
 20
12.2040851809
 11
22.4359726295
 21
12.2114645069
  0
LINE
  5
230
100
AcDbEntity
  8
0
100
AcDbLine
 62
7
  6
BYLAYER
 10
22.442381086
 20
13.2041079564
 11
22.4359726295
 21
13.211464408
  0
LINE
  5
231
100
AcDbEntity
  8
0
100
AcDbLine
 62
7
  6
BYLAYER
 10
22.4423442135
 20
14.2041296142
 11
22.4359726295
 21
14.2114650716
  0
LINE
  5
232
100
AcDbEntity
  8
0
100
AcDbLine
 62
7
  6
BYLAYER
 10
32.7360455175
 20
72.1889262932
 11
32.7197018
 21
72.1725842773
  0
LINE
  5
233
100
AcDbEntity
  8
0
100
AcDbLine
 62
7
  6
BYLAYER
 10
16.9359726295
 20
20.5322580645
 11
22.4359726295
 21
20.5322580645
  0
LINE
  5
234
100
AcDbEntity
  8
0
100
AcDbLine
 62
7
  6
BYLAYER
 10
34.4359726295
 20
20.5322580645
 11
39.9359726295
 21
20.5322580645
  0
LINE
  5
235
100
AcDbEntity
  8
0
100
AcDbLine
 62
7
  6
BYLAYER
 10
34.4296303745
 20
12.8602242011
 11
33.6931859792
 21
13.2822018035
  0
LINE
  5
236
100
AcDbEntity
  8
0
100
AcDbLine
 62
7
  6
BYLAYER
 10
34.4296008324
 20
13.8602173025
 11
33.6931511612
 21
14.2822030001
  0
LINE
  5
237
100
AcDbEntity
  8
0
100
AcDbLine
 62
7
  6
BYLAYER
 10
34.4295639412
 20
14.8602248907
 11
33.6931180522
 21
15.282212694
  0
LINE
  5
238
100
AcDbEntity
  8
0
100
AcDbLine
 62
7
  6
BYLAYER
 10
22.4423147038
 20
15.2041474138
 11
22.4359726295
 21
15.2114660878
  0
LINE
  5
239
100
AcDbEntity
  8
0
100
AcDbLine
 62
7
  6
BYLAYER
 10
22.4422967191
 20
16.2041583767
 11
22.4359726295
 21
16.2114667542
  0
LINE
  5
23A
100
AcDbEntity
  8
0
100
AcDbLine
 62
7
  6
BYLAYER
 10
36.3359726295
 20
72.1887805282
 11
36.3357649283
 21
72.1885514821
  0
LINE
  5
23B
100
AcDbEntity
  8
0
100
AcDbLine
 62
7
  6
BYLAYER
 10
34.4295240077
 20
15.8602460429
 11
33.693092625
 21
16.2822285165
  0
LINE
  5
23C
100
AcDbEntity
  8
0
100
AcDbLine
 62
7
  6
BYLAYER
 10
34.4295940956
 20
8.8603849722
 11
34.4359726295
 21
8.8530473635
  0
LINE
  5
23D
100
AcDbEntity
  8
0
100
AcDbLine
 62
7
  6
BYLAYER
 10
34.4296340832
 20
9.8603665972
 11
34.4359726295
 21
9.8530491995
  0
LINE
  5
23E
100
AcDbEntity
  8
0
100
AcDbLine
 62
7
  6
BYLAYER
 10
34.4296509981
 20
10.8603576447
 11
34.4359726295
 21
10.8530521899
  0
LINE
  5
23F
100
AcDbEntity
  8
0
100
AcDbLine
 62
7
  6
BYLAYER
 10
16.9359726295
 20
20.5322580645
 11
16.9359726295
 21
72.5049577348
  0
LINE
  5
240
100
AcDbEntity
  8
0
100
AcDbLine
 62
7
  6
BYLAYER
 10
34.4295641662
 20
14.8604085376
 11
34.4359726295
 21
14.8530530871
  0
LINE
  5
241
100
AcDbEntity
  8
0
100
AcDbLine
 62
7
  6
BYLAYER
 10
34.429601037
 20
13.8603847197
 11
34.4359726295
 21
13.8530480533
  0
LINE
  5
242
100
AcDbEntity
  8
0
100
AcDbLine
 62
7
  6
BYLAYER
 10
34.4296305521
 20
12.8603699011
 11
34.4359726295
 21
12.85305266
  0
LINE
  5
243
100
AcDbEntity
  8
0
100
AcDbLine
 62
7
  6
BYLAYER
 10
34.4296485377
 20
11.8603577715
 11
34.4359726295
 21
11.8530486173
  0
LINE
  5
244
100
AcDbEntity
  8
0
100
AcDbLine
 62
7
  6
BYLAYER
 10
34.4295242319
 20
15.8604283902
 11
34.4359726295
 21
15.8530475525
  0
LINE
  5
245
100
AcDbEntity
  8
0
100
AcDbLine
 62
7
  6
BYLAYER
 10
22.4359726295
 20
15.3529988039
 11
22.4359726295
 21
15.2115496871
  0
LINE
  5
246
100
AcDbEntity
  8
0
100
AcDbLine
 62
7
  6
BYLAYER
 10
22.4359726295
 20
14.3529654007
 11
22.4359726295
 21
14.2115840639
  0
LINE
  5
247
100
AcDbEntity
  8
0
100
AcDbLine
 62
7
  6
BYLAYER
 10
22.4359726295
 20
13.3529309903
 11
22.4359726295
 21
13.211614564
  0
LINE
  5
248
100
AcDbEntity
  8
0
100
AcDbLine
 62
7
  6
BYLAYER
 10
22.4359726295
 20
12.3529007495
 11
22.4359726295
 21
12.211637246
  0
LINE
  5
249
100
AcDbEntity
  8
0
100
AcDbLine
 62
7
  6
BYLAYER
 10
22.4359726295
 20
11.3528785651
 11
22.4359726295
 21
11.2116494465
  0
LINE
  5
24A
100
AcDbEntity
  8
0
100
AcDbLine
 62
7
  6
BYLAYER
 10
22.4359726295
 20
10.3528670168
 11
22.4359726295
 21
10.2116498004
  0
LINE
  5
24B
100
AcDbEntity
  8
0
100
AcDbLine
 62
7
  6
BYLAYER
 10
22.4359726295
 20
9.3528673686
 11
22.4359726295
 21
9.2116382541
  0
LINE
  5
24C
100
AcDbEntity
  8
0
100
AcDbLine
 62
7
  6
BYLAYER
 10
23.1859726295
 20
6.5322580645
 11
23.1859726295
 21
8.0322580632
  0
LINE
  5
24D
100
AcDbEntity
  8
0
100
AcDbLine
 62
7
  6
BYLAYER
 10
22.4359749815
 20
26.613555786
 11
22.4359726295
 21
16.2115166245
  0
LINE
  5
24E
100
AcDbEntity
  8
0
100
AcDbLine
 62
7
  6
BYLAYER
 10
16.9359726295
 20
33.5322580645
 11
39.9359726295
 21
33.5322580645
  0
LINE
  5
24F
100
AcDbEntity
  8
0
100
AcDbLine
 62
7
  6
BYLAYER
 10
33.8430032317
 20
8.1964117484
 11
33.8448872641
 21
8.191172698
  0
LINE
  5
250
100
AcDbEntity
  8
0
100
AcDbLine
 62
7
  6
BYLAYER
 10
33.6859726295
 20
6.5322580645
 11
33.6859726295
 21
8.0322580632
  0
LINE
  5
251
100
AcDbEntity
  8
0
100
AcDbLine
 62
7
  6
BYLAYER
 10
34.4359671522
 20
26.6164337826
 11
34.4359726295
 21
16.7116382541
  0
LINE
  5
252
100
AcDbEntity
  8
0
100
AcDbLine
 62
7
  6
BYLAYER
 10
34.4359726295
 20
15.8528795671
 11
34.4359726295
 21
15.7116160715
  0
LINE
  5
253
100
AcDbEntity
  8
0
100
AcDbLine
 62
7
  6
BYLAYER
 10
34.4359726295
 20
14.8529022475
 11
34.4359726295
 21
14.7115858317
  0
LINE
  5
254
100
AcDbEntity
  8
0
100
AcDbLine
 62
7
  6
BYLAYER
 10
34.4359726295
 20
13.8529327464
 11
34.4359726295
 21
13.7115514218
  0
LINE
  5
255
100
AcDbEntity
  8
0
100
AcDbLine
 62
7
  6
BYLAYER
 10
34.4359726295
 20
12.8529671232
 11
34.4359726295
 21
12.7115180178
  0
LINE
  5
256
100
AcDbEntity
  8
0
100
AcDbLine
 62
7
  6
BYLAYER
 10
34.4359726295
 20
11.8530001865
 11
34.4359726295
 21
11.7114920628
  0
LINE
  5
257
100
AcDbEntity
  8
0
100
AcDbLine
 62
7
  6
BYLAYER
 10
34.4359726295
 20
10.8530255316
 11
34.4359726295
 21
10.7114812332
  0
LINE
  5
258
100
AcDbEntity
  8
0
100
AcDbLine
 62
7
  6
BYLAYER
 10
34.4359726295
 20
9.853035583
 11
34.4359726295
 21
9.7114912814
  0
LINE
  5
259
100
AcDbEntity
  8
0
100
AcDbLine
 62
7
  6
BYLAYER
 10
34.4359726295
 20
8.853024757
 11
34.4359726295
 21
8.7822580645
  0
LINE
  5
25A
100
AcDbEntity
  8
0
100
AcDbLine
 62
7
  6
BYLAYER
 10
22.7108642614
 20
8.5141185569
 11
22.7090690487
 21
8.5091616448
  0
LINE
  5
25B
100
AcDbEntity
  8
0
100
AcDbLine
 62
7
  6
BYLAYER
 10
39.9359726295
 20
72.5049577348
 11
39.9359726295
 21
20.5322580645
  0
LINE
  5
25C
100
AcDbEntity
  8
0
100
AcDbLine
 62
7
  6
BYLAYER
 10
22.4424174248
 20
15.3604251605
 11
22.4359726295
 21
15.3530475553
  0
LINE
  5
25D
100
AcDbEntity
  8
0
100
AcDbLine
 62
7
  6
BYLAYER
 10
22.4424775815
 20
14.360465481
 11
22.4359726295
 21
14.3530539214
  0
LINE
  5
25E
100
AcDbEntity
  8
0
100
AcDbLine
 62
7
  6
BYLAYER
 10
22.4425114691
 20
13.3604786209
 11
22.4359726295
 21
13.3530471414
  0
LINE
  5
25F
100
AcDbEntity
  8
0
100
AcDbLine
 62
7
  6
BYLAYER
 10
22.4425147915
 20
11.3604803805
 11
22.4359726295
 21
11.3530468022
  0
LINE
  5
260
100
AcDbEntity
  8
0
100
AcDbLine
 62
7
  6
BYLAYER
 10
22.4425225572
 20
12.3604912129
 11
22.4359726295
 21
12.3530541959
  0
LINE
  5
261
100
AcDbEntity
  8
0
100
AcDbLine
 62
7
  6
BYLAYER
 10
20.5361509605
 20
72.1885514771
 11
20.5359726295
 21
72.1887805282
  0
LINE
  5
262
100
AcDbEntity
  8
0
100
AcDbLine
 62
7
  6
BYLAYER
 10
22.442459602
 20
9.3604488818
 11
22.4359726295
 21
9.3530465626
  0
LINE
  5
263
100
AcDbEntity
  8
0
100
AcDbLine
 62
7
  6
BYLAYER
 10
22.4424923367
 20
10.3604741164
 11
22.4359726295
 21
10.3530544128
  0
LINE
  5
264
100
AcDbEntity
  8
0
100
AcDbLine
 62
7
  6
BYLAYER
 10
23.1933368325
 20
15.790675578
 11
22.44241744
 21
15.3604127943
  0
LINE
  5
265
100
AcDbEntity
  8
0
100
AcDbLine
 62
7
  6
BYLAYER
 10
23.1934148606
 20
14.7907135673
 11
22.4424776199
 21
14.3604344237
  0
LINE
  5
266
100
AcDbEntity
  8
0
100
AcDbLine
 62
7
  6
BYLAYER
 10
34.4294304737
 20
16.7040332697
 11
34.4359726295
 21
16.7114665883
  0
LINE
  5
267
100
AcDbEntity
  8
0
100
AcDbLine
 62
7
  6
BYLAYER
 10
34.4294337904
 20
14.7040343214
 11
34.4359726295
 21
14.7114655929
  0
LINE
  5
268
100
AcDbEntity
  8
0
100
AcDbLine
 62
7
  6
BYLAYER
 10
34.4294226971
 20
15.7040287732
 11
34.4359726295
 21
15.7114665597
  0
LINE
  5
269
100
AcDbEntity
  8
0
100
AcDbLine
 62
7
  6
BYLAYER
 10
23.1934914118
 20
13.7907364098
 11
22.4425115332
 21
13.3604268283
  0
LINE
  5
26A
100
AcDbEntity
  8
0
100
AcDbLine
 62
7
  6
BYLAYER
 10
23.1935577076
 20
12.7907458406
 11
22.4425226709
 21
12.3603994468
  0
LINE
  5
26B
100
AcDbEntity
  8
0
100
AcDbLine
 62
7
  6
BYLAYER
 10
24.1358997415
 20
72.1889262932
 11
24.1522711013
 21
72.1725566379
  0
LINE
  5
26C
100
AcDbEntity
  8
0
100
AcDbLine
 62
7
  6
BYLAYER
 10
34.4296340789
 20
10.7041492739
 11
34.4359726295
 21
10.7114656558
  0
LINE
  5
26D
100
AcDbEntity
  8
0
100
AcDbLine
 62
7
  6
BYLAYER
 10
34.4295940935
 20
11.7041255179
 11
34.4359726295
 21
11.711464726
  0
LINE
  5
26E
100
AcDbEntity
  8
0
100
AcDbLine
 62
7
  6
BYLAYER
 10
34.4295278288
 20
12.7040871055
 11
34.4359726295
 21
12.7114642802
  0
LINE
  5
26F
100
AcDbEntity
  8
0
100
AcDbLine
 62
7
  6
BYLAYER
 10
34.4294676668
 20
13.7040529322
 11
34.4359726295
 21
13.7114646254
  0
LINE
  5
270
100
AcDbEntity
  8
0
100
AcDbLine
 62
7
  6
BYLAYER
 10
23.1936075612
 20
11.7907440956
 11
22.9970967394
 21
11.6781274549
  0
LINE
  5
271
100
AcDbEntity
  8
0
100
AcDbLine
 62
7
  6
BYLAYER
 10
22.9970967394
 20
11.6781274549
 11
22.4425149396
 21
11.3603608042
  0
LINE
  5
272
100
AcDbEntity
  8
0
100
AcDbLine
 62
7
  6
BYLAYER
 10
23.1936367923
 20
10.7907335045
 11
22.9971433125
 21
10.6781261847
  0
LINE
  5
273
100
AcDbEntity
  8
0
100
AcDbLine
 62
7
  6
BYLAYER
 10
22.9971433125
 20
10.6781261847
 11
22.4424925292
 21
10.360318368
  0
LINE
  5
274
100
AcDbEntity
  8
0
100
AcDbLine
 62
7
  6
BYLAYER
 10
33.6783376908
 20
16.2737727218
 11
34.4294303216
 21
16.704156019
  0
LWPOLYLINE
  5
275
100
AcDbEntity
  8
0
100
AcDbPolyline
 62
7
  6
BYLAYER
 90
4
 70
0
 10
23.193643278
 20
9.7907164698
 10
22.9971669256
 20
9.678118833
 10
22.6678586406
 20
9.4894204814
 10
22.4424598122
 20
9.3602784358
  0
LINE
  5
276
100
AcDbEntity
  8
0
100
AcDbLine
 62
7
  6
BYLAYER
 10
31.9361509605
 20
72.1885514771
 11
31.9359726295
 21
72.1887805282
  0
LINE
  5
277
100
AcDbEntity
  8
0
100
AcDbLine
 62
7
  6
BYLAYER
 10
34.4296509959
 20
9.7041596817
 11
34.4359726295
 21
9.7114665237
  0
LINE
  5
278
100
AcDbEntity
  8
0
100
AcDbLine
 62
7
  6
BYLAYER
 10
33.678387541
 20
15.273770975
 11
34.4294225874
 21
15.7041173752
  0
LINE
  5
279
100
AcDbEntity
  8
0
100
AcDbLine
 62
7
  6
BYLAYER
 10
23.1936269782
 20
8.790695444
 11
22.7109072271
 21
8.5140756148
  0
LINE
  5
27A
100
AcDbEntity
  8
0
100
AcDbLine
 62
7
  6
BYLAYER
 10
33.6784538344
 20
14.2737804037
 11
34.4294337215
 21
14.7040899909
  0
LINE
  5
27B
100
AcDbEntity
  8
0
100
AcDbLine
 62
7
  6
BYLAYER
 10
33.6785303845
 20
13.2738032436
 11
34.4294676304
 21
13.7040823914
  0
LINE
  5
27C
100
AcDbEntity
  8
0
100
AcDbLine
 62
7
  6
BYLAYER
 10
33.6859726302
 20
8.0322580638
 11
33.8449480019
 21
8.1912334358
  0
LINE
  5
27D
100
AcDbEntity
  8
0
100
AcDbLine
 62
7
  6
BYLAYER
 10
34.2705786913
 20
8.616864126
 11
34.4359726295
 21
8.7822580645
  0
LINE
  5
27E
100
AcDbEntity
  8
0
100
AcDbLine
 62
7
  6
BYLAYER
 10
33.6786084151
 20
12.2738412313
 11
34.429527808
 21
12.7041040163
  0
LINE
  5
27F
100
AcDbEntity
  8
0
100
AcDbLine
 62
7
  6
BYLAYER
 10
33.6786473281
 20
11.2738747522
 11
34.429594064
 21
11.7041497055
  0
LINE
  5
280
100
AcDbEntity
  8
0
100
AcDbLine
 62
7
  6
BYLAYER
 10
33.6786393703
 20
10.2738936852
 11
34.4296340214
 21
10.7041964773
  0
LINE
  5
281
100
AcDbEntity
  8
0
100
AcDbLine
 62
7
  6
BYLAYER
 10
35.5358997415
 20
72.1889262932
 11
35.5522711013
 21
72.1725566379
  0
LINE
  5
282
100
AcDbEntity
  8
0
100
AcDbLine
 62
7
  6
BYLAYER
 10
34.2462392121
 20
8.599048773
 11
34.2704318729
 21
8.6167173076
  0
LINE
  5
283
100
AcDbEntity
  8
0
100
AcDbLine
 62
7
  6
BYLAYER
 10
33.6785991553
 20
9.2739000248
 11
34.4296508998
 21
9.7042386025
  0
LINE
  5
284
100
AcDbEntity
  8
0
100
AcDbLine
 62
7
  6
BYLAYER
 10
33.6785398977
 20
8.2738959183
 11
34.2465715138
 21
8.5993834829
  0
LINE
  5
285
100
AcDbEntity
  8
0
100
AcDbLine
 62
7
  6
BYLAYER
 10
35.7105938715
 20
72.3233065318
 11
35.7522953629
 21
72.2816093822
  0
LINE
  5
286
100
AcDbEntity
  8
0
100
AcDbLine
 62
7
  6
BYLAYER
 10
16.9359726295
 20
72.0322580645
 11
39.9359726295
 21
72.0322580645
  0
LINE
  5
287
100
AcDbEntity
  8
0
100
AcDbLine
 62
7
  6
BYLAYER
 10
30.6698034199
 20
72.5322580645
 11
26.2021418392
 21
72.5322580645
  0
ARC
  5
288
100
AcDbEntity
  8
0
100
AcDbCircle
 62
7
  6
BYLAYER
 10
34.1360537036
 20
261.2051585175
 40
189.0388851496
100
AcDbArc
 50
269.5613857034
 51
270.4381131758
  0
ARC
  5
289
100
AcDbEntity
  8
0
100
AcDbCircle
 62
7
  6
BYLAYER
 10
22.7360537036
 20
261.2051585173
 40
189.0388851494
100
AcDbArc
 50
269.5613857034
 51
270.4381131758
  0
ARC
  5
28A
100
AcDbEntity
  8
0
100
AcDbCircle
 62
7
  6
BYLAYER
 10
22.6639700238
 20
-98.1367721078
 40
170.3480119217
100
AcDbArc
 50
89.9786933839
 51
90.4619845053
  0
ARC
  5
28B
100
AcDbEntity
  8
0
100
AcDbCircle
 62
7
  6
BYLAYER
 10
34.0639700238
 20
-98.1367721066
 40
170.3480119205
100
AcDbArc
 50
89.9786933838
 51
90.4619845053
  0
SPLINE
  5
28C
100
AcDbEntity
  8
0
100
AcDbSpline
 62
7
  6
BYLAYER
 70
0
 71
3
 72
33
 73
29
 74
0
 42
0.0000001
 43
0.0000001
 44
0.0000000001
 40
0.0
 40
0.0
 40
0.0
 40
0.0
 40
0.0002342376
 40
0.0006027867
 40
0.001768793
 40
0.0035194444
 40
0.0058589332
 40
0.0087871108
 40
0.0123024766
 40
0.0164031387
 40
0.0210870109
 40
0.0321955129
 40
0.0456056746
 40
0.0612825293
 40
0.0791886884
 40
0.09928551
 40
0.1215237208
 40
0.1458482445
 40
0.1722038043
 40
0.2307535094
 40
0.2966134286
 40
0.3691580626
 40
0.4476980534
 40
0.5314871244
 40
0.6197334402
 40
0.7115852391
 40
0.8061831712
 40
1.0
 40
1.0
 40
1.0
 40
1.0
 10
35.5358957139
 20
72.1889262927
 30
0.0
 10
35.53581844
 20
72.1890036325
 30
0.0
 10
35.5355620829
 20
72.1891368228
 30
0.0
 10
35.5347820863
 20
72.1893971916
 30
0.0
 10
35.5332676887
 20
72.1896847757
 30
0.0
 10
35.5308404083
 20
72.1900193302
 30
0.0
 10
35.527579894
 20
72.1903540773
 30
0.0
 10
35.5234950203
 20
72.1906937381
 30
0.0
 10
35.5185850152
 20
72.1910334134
 30
0.0
 10
35.512854222
 20
72.1913733548
 30
0.0
 10
35.5035816311
 20
72.1918532074
 30
0.0
 10
35.489963755
 20
72.1924339598
 30
0.0
 10
35.4712143318
 20
72.1930932478
 30
0.0
 10
35.4492902726
 20
72.1937448994
 30
0.0
 10
35.4242438504
 20
72.1943868557
 30
0.0
 10
35.3961338122
 20
72.1950166144
 30
0.0
 10
35.3650271128
 20
72.1956325291
 30
0.0
 10
35.3309984085
 20
72.1962330138
 30
0.0
 10
35.2800227062
 20
72.1970391943
 30
0.0
 10
35.2096605868
 20
72.1979823328
 30
0.0
 10
35.1177394227
 20
72.1989956862
 30
0.0
 10
35.0164865642
 20
72.1999152588
 30
0.0
 10
34.9068643083
 20
72.2007316759
 30
0.0
 10
34.7899125207
 20
72.2014368013
 30
0.0
 10
34.6667468389
 20
72.2020232928
 30
0.0
 10
34.5385356537
 20
72.2024857474
 30
0.0
 10
34.3610500867
 20
72.2029338719
 30
0.0
 10
34.2264349487
 20
72.2030654988
 30
0.0
 10
34.1359726295
 20
72.2030654988
 30
0.0
  0
SPLINE
  5
28D
100
AcDbEntity
  8
0
100
AcDbSpline
 62
7
  6
BYLAYER
 70
0
 71
3
 72
33
 73
29
 74
0
 42
0.0000001
 43
0.0000001
 44
0.0000000001
 40
0.0
 40
0.0
 40
0.0
 40
0.0
 40
0.1938133936
 40
0.2884100805
 40
0.3802615624
 40
0.468507816
 40
0.5522970963
 40
0.6308376629
 40
0.7033831351
 40
0.7692439272
 40
0.8277945008
 40
0.8541504822
 40
0.8784752792
 40
0.9007137408
 40
0.920810915
 40
0.938717221
 40
0.9543940817
 40
0.967804385
 40
0.9789130498
 40
0.9835968707
 40
0.987697451
 40
0.9912127505
 40
0.9941409229
 40
0.9964805135
 40
0.998231273
 40
0.9993972748
 40
0.9997657961
 40
1.0
 40
1.0
 40
1.0
 40
1.0
 10
34.1359726295
 20
72.2030654988
 30
0.0
 10
34.0455119099
 20
72.2030654988
 30
0.0
 10
33.9108989508
 20
72.2029338755
 30
0.0
 10
33.7334157088
 20
72.2024857667
 30
0.0
 10
33.6052052764
 20
72.2020233206
 30
0.0
 10
33.4820396687
 20
72.201436841
 30
0.0
 10
33.3650875387
 20
72.2007317205
 30
0.0
 10
33.2554645206
 20
72.1999153066
 30
0.0
 10
33.1542105904
 20
72.1989957346
 30
0.0
 10
33.0622882185
 20
72.197982376
 30
0.0
 10
32.9919250866
 20
72.1970392286
 30
0.0
 10
32.9409486524
 20
72.1962330447
 30
0.0
 10
32.9069195053
 20
72.1956325524
 30
0.0
 10
32.8758123956
 20
72.1950166281
 30
0.0
 10
32.8477020058
 20
72.1943868714
 30
0.0
 10
32.8226553467
 20
72.1937449102
 30
0.0
 10
32.8007311494
 20
72.1930932469
 30
0.0
 10
32.7819815807
 20
72.1924339548
 30
0.0
 10
32.7683635853
 20
72.1918532132
 30
0.0
 10
32.7590909804
 20
72.191373353
 30
0.0
 10
32.7533602804
 20
72.1910334093
 30
0.0
 10
32.7484503468
 20
72.1906937315
 30
0.0
 10
32.7443654595
 20
72.1903540651
 30
0.0
 10
32.741104848
 20
72.1900193209
 30
0.0
 10
32.7386774711
 20
72.1896847825
 30
0.0
 10
32.7371630324
 20
72.1893971996
 30
0.0
 10
32.7363830725
 20
72.1891368276
 30
0.0
 10
32.7361267444
 20
72.1890036344
 30
0.0
 10
32.7360494946
 20
72.1889262928
 30
0.0
  0
SPLINE
  5
28E
100
AcDbEntity
  8
0
100
AcDbSpline
 62
7
  6
BYLAYER
 70
0
 71
3
 72
36
 73
32
 74
0
 42
0.0000001
 43
0.0000001
 44
0.0000000001
 40
0.0
 40
0.0
 40
0.0
 40
0.0
 40
0.000135413
 40
0.0002979252
 40
0.0005823266
 40
0.0010086546
 40
0.0015822584
 40
0.0023052236
 40
0.0031785648
 40
0.0042028457
 40
0.0067047818
 40
0.0098104671
 40
0.013518217
 40
0.0178260024
 40
0.0227316196
 40
0.0282327671
 40
0.0410107603
 40
0.0561275365
 40
0.0735443384
 40
0.0932219772
 40
0.115113357
 40
0.1653098255
 40
0.2236505263
 40
0.2895620896
 40
0.3624040936
 40
0.4414642983
 40
0.5259724073
 40
0.6151090873
 40
0.7079916027
 40
0.8037263775
 40
1.0
 40
1.0
 40
1.0
 40
1.0
 10
32.7360494946
 20
72.1889262928
 30
0.0
 10
32.7360048197
 20
72.1888815648
 30
0.0
 10
32.7359331169
 20
72.1887248805
 30
0.0
 10
32.7361743037
 20
72.1885200646
 30
0.0
 10
32.7365347049
 20
72.1883678582
 30
0.0
 10
32.7371181501
 20
72.188193898
 30
0.0
 10
32.7379015003
 20
72.1880252524
 30
0.0
 10
32.7389010192
 20
72.1878516988
 30
0.0
 10
32.7401117886
 20
72.187678466
 30
0.0
 10
32.7421508649
 20
72.1874294481
 30
0.0
 10
32.7452325518
 20
72.1871285168
 30
0.0
 10
32.7495679588
 20
72.1867845767
 30
0.0
 10
32.7547485677
 20
72.1864403936
 30
0.0
 10
32.7607710345
 20
72.1860963185
 30
0.0
 10
32.7676319704
 20
72.1857531019
 30
0.0
 10
32.7784451335
 20
72.1852729089
 30
0.0
 10
32.7940252471
 20
72.1846899808
 30
0.0
 10
32.8151685837
 20
72.1840269642
 30
0.0
 10
32.839534634
 20
72.1833734445
 30
0.0
 10
32.867064653
 20
72.1827314943
 30
0.0
 10
32.9098963058
 20
72.1818534011
 30
0.0
 10
32.9707781407
 20
72.1808209071
 30
0.0
 10
33.0522117187
 20
72.1797014219
 30
0.0
 10
33.144219191
 20
72.1786655336
 30
0.0
 10
33.2459009898
 20
72.1777244432
 30
0.0
 10
33.3562657422
 20
72.1768883663
 30
0.0
 10
33.4742385906
 20
72.1761658334
 30
0.0
 10
33.5986651225
 20
72.175564592
 30
0.0
 10
33.728333394
 20
72.1750903208
 30
0.0
 10
33.9080186927
 20
72.1746305355
 30
0.0
 10
34.0443425233
 20
72.1744955576
 30
0.0
 10
34.1359726295
 20
72.1744955576
 30
0.0
  0
SPLINE
  5
28F
100
AcDbEntity
  8
0
100
AcDbSpline
 62
7
  6
BYLAYER
 70
0
 71
3
 72
36
 73
32
 74
0
 42
0.0000001
 43
0.0000001
 44
0.0000000001
 40
0.0
 40
0.0
 40
0.0
 40
0.0
 40
0.1962701496
 40
0.2920037104
 40
0.384885934
 40
0.4740225533
 40
0.5585309238
 40
0.6375917288
 40
0.7104346051
 40
0.7763470444
 40
0.8346886342
 40
0.884885742
 40
0.9067773958
 40
0.92645537
 40
0.9438722425
 40
0.9589890369
 40
0.9717672585
 40
0.9772684608
 40
0.9821740409
 40
0.9864817452
 40
0.9901894179
 40
0.9932950774
 40
0.9957970866
 40
0.9968214454
 40
0.9976948365
 40
0.9984178202
 40
0.9989914174
 40
0.9994177207
 40
0.9997020876
 40
0.9998645715
 40
1.0
 40
1.0
 40
1.0
 40
1.0
 10
34.1359726295
 20
72.1744955576
 30
0.0
 10
34.2276011183
 20
72.1744955576
 30
0.0
 10
34.3639227666
 20
72.1746305318
 30
0.0
 10
34.5436057487
 20
72.1750903012
 30
0.0
 10
34.6732732944
 20
72.1755645633
 30
0.0
 10
34.7976997892
 20
72.1761657941
 30
0.0
 10
34.9156730167
 20
72.1768883209
 30
0.0
 10
35.0260385833
 20
72.1777243962
 30
0.0
 10
35.127721483
 20
72.1786654852
 30
0.0
 10
35.2197301904
 20
72.1797013814
 30
0.0
 10
35.3011648943
 20
72.1808208728
 30
0.0
 10
35.3620475732
 20
72.181853377
 30
0.0
 10
35.4048798106
 20
72.1827314827
 30
0.0
 10
35.4324101484
 20
72.1833734296
 30
0.0
 10
35.4567763977
 20
72.1840269573
 30
0.0
 10
35.4779198828
 20
72.1846899886
 30
0.0
 10
35.4935001381
 20
72.1852729094
 30
0.0
 10
35.5043134167
 20
72.1857531022
 30
0.0
 10
35.5111743232
 20
72.1860963209
 30
0.0
 10
35.5171966988
 20
72.1864403981
 30
0.0
 10
35.5223772216
 20
72.1867845844
 30
0.0
 10
35.5267126145
 20
72.1871285276
 30
0.0
 10
35.5297943597
 20
72.1874294619
 30
0.0
 10
35.5318335318
 20
72.1876784692
 30
0.0
 10
35.5330443708
 20
72.1878517
 30
0.0
 10
35.5340439184
 20
72.1880252542
 30
0.0
 10
35.5348272651
 20
72.1881938944
 30
0.0
 10
35.5354106734
 20
72.1883678624
 30
0.0
 10
35.5357710444
 20
72.1885200489
 30
0.0
 10
35.5360121694
 20
72.188724917
 30
0.0
 10
35.5359404014
 20
72.1888815671
 30
0.0
 10
35.5358957139
 20
72.1889262927
 30
0.0
  0
SPLINE
  5
290
100
AcDbEntity
  8
0
100
AcDbSpline
 62
7
  6
BYLAYER
 70
0
 71
3
 72
33
 73
29
 74
0
 42
0.0000001
 43
0.0000001
 44
0.0000000001
 40
0.0
 40
0.0
 40
0.0
 40
0.0
 40
0.0002342376
 40
0.0006027867
 40
0.001768793
 40
0.0035194444
 40
0.0058589332
 40
0.0087871108
 40
0.0123024766
 40
0.0164031387
 40
0.0210870109
 40
0.0321955129
 40
0.0456056746
 40
0.0612825293
 40
0.0791886884
 40
0.09928551
 40
0.1215237208
 40
0.1458482445
 40
0.1722038043
 40
0.2307535094
 40
0.2966134286
 40
0.3691580626
 40
0.4476980534
 40
0.5314871244
 40
0.6197334402
 40
0.7115852391
 40
0.8061831712
 40
1.0
 40
1.0
 40
1.0
 40
1.0
 10
24.1358957139
 20
72.1889262927
 30
0.0
 10
24.13581844
 20
72.1890036325
 30
0.0
 10
24.1355620829
 20
72.1891368228
 30
0.0
 10
24.1347820863
 20
72.1893971916
 30
0.0
 10
24.1332676887
 20
72.1896847757
 30
0.0
 10
24.1308404083
 20
72.1900193302
 30
0.0
 10
24.127579894
 20
72.1903540773
 30
0.0
 10
24.1234950203
 20
72.1906937381
 30
0.0
 10
24.1185850152
 20
72.1910334134
 30
0.0
 10
24.112854222
 20
72.1913733548
 30
0.0
 10
24.1035816311
 20
72.1918532074
 30
0.0
 10
24.089963755
 20
72.1924339598
 30
0.0
 10
24.0712143318
 20
72.1930932478
 30
0.0
 10
24.0492902726
 20
72.1937448994
 30
0.0
 10
24.0242438504
 20
72.1943868557
 30
0.0
 10
23.9961338122
 20
72.1950166144
 30
0.0
 10
23.9650271128
 20
72.1956325291
 30
0.0
 10
23.9309984085
 20
72.1962330138
 30
0.0
 10
23.8800227062
 20
72.1970391943
 30
0.0
 10
23.8096605868
 20
72.1979823328
 30
0.0
 10
23.7177394227
 20
72.1989956862
 30
0.0
 10
23.6164865642
 20
72.1999152588
 30
0.0
 10
23.5068643083
 20
72.2007316759
 30
0.0
 10
23.3899125207
 20
72.2014368013
 30
0.0
 10
23.2667468389
 20
72.2020232928
 30
0.0
 10
23.1385356537
 20
72.2024857474
 30
0.0
 10
22.9610500867
 20
72.2029338719
 30
0.0
 10
22.8264349487
 20
72.2030654988
 30
0.0
 10
22.7359726295
 20
72.2030654988
 30
0.0
  0
SPLINE
  5
291
100
AcDbEntity
  8
0
100
AcDbSpline
 62
7
  6
BYLAYER
 70
0
 71
3
 72
33
 73
29
 74
0
 42
0.0000001
 43
0.0000001
 44
0.0000000001
 40
0.0
 40
0.0
 40
0.0
 40
0.0
 40
0.1938133936
 40
0.2884100805
 40
0.3802615624
 40
0.468507816
 40
0.5522970963
 40
0.6308376629
 40
0.7033831351
 40
0.7692439272
 40
0.8277945008
 40
0.8541504822
 40
0.8784752792
 40
0.9007137408
 40
0.920810915
 40
0.938717221
 40
0.9543940817
 40
0.967804385
 40
0.9789130498
 40
0.9835968707
 40
0.987697451
 40
0.9912127505
 40
0.9941409229
 40
0.9964805135
 40
0.998231273
 40
0.9993972748
 40
0.9997657961
 40
1.0
 40
1.0
 40
1.0
 40
1.0
 10
22.7359726295
 20
72.2030654988
 30
0.0
 10
22.6455119099
 20
72.2030654988
 30
0.0
 10
22.5108989508
 20
72.2029338755
 30
0.0
 10
22.3334157088
 20
72.2024857667
 30
0.0
 10
22.2052052764
 20
72.2020233206
 30
0.0
 10
22.0820396687
 20
72.201436841
 30
0.0
 10
21.9650875387
 20
72.2007317205
 30
0.0
 10
21.8554645206
 20
72.1999153066
 30
0.0
 10
21.7542105904
 20
72.1989957346
 30
0.0
 10
21.6622882185
 20
72.197982376
 30
0.0
 10
21.5919250866
 20
72.1970392286
 30
0.0
 10
21.5409486524
 20
72.1962330447
 30
0.0
 10
21.5069195053
 20
72.1956325524
 30
0.0
 10
21.4758123956
 20
72.1950166281
 30
0.0
 10
21.4477020058
 20
72.1943868714
 30
0.0
 10
21.4226553467
 20
72.1937449102
 30
0.0
 10
21.4007311494
 20
72.1930932469
 30
0.0
 10
21.3819815807
 20
72.1924339548
 30
0.0
 10
21.3683635853
 20
72.1918532132
 30
0.0
 10
21.3590909804
 20
72.191373353
 30
0.0
 10
21.3533602804
 20
72.1910334093
 30
0.0
 10
21.3484503468
 20
72.1906937315
 30
0.0
 10
21.3443654595
 20
72.1903540651
 30
0.0
 10
21.341104848
 20
72.1900193209
 30
0.0
 10
21.3386774711
 20
72.1896847825
 30
0.0
 10
21.3371630324
 20
72.1893971996
 30
0.0
 10
21.3363830725
 20
72.1891368276
 30
0.0
 10
21.3361267444
 20
72.1890036344
 30
0.0
 10
21.3360494946
 20
72.1889262928
 30
0.0
  0
SPLINE
  5
292
100
AcDbEntity
  8
0
100
AcDbSpline
 62
7
  6
BYLAYER
 70
0
 71
3
 72
36
 73
32
 74
0
 42
0.0000001
 43
0.0000001
 44
0.0000000001
 40
0.0
 40
0.0
 40
0.0
 40
0.0
 40
0.000135413
 40
0.0002979252
 40
0.0005823266
 40
0.0010086546
 40
0.0015822584
 40
0.0023052236
 40
0.0031785648
 40
0.0042028457
 40
0.0067047818
 40
0.0098104671
 40
0.013518217
 40
0.0178260024
 40
0.0227316196
 40
0.0282327671
 40
0.0410107603
 40
0.0561275365
 40
0.0735443384
 40
0.0932219772
 40
0.115113357
 40
0.1653098255
 40
0.2236505263
 40
0.2895620896
 40
0.3624040936
 40
0.4414642983
 40
0.5259724073
 40
0.6151090873
 40
0.7079916027
 40
0.8037263775
 40
1.0
 40
1.0
 40
1.0
 40
1.0
 10
21.3360494946
 20
72.1889262928
 30
0.0
 10
21.3360048197
 20
72.1888815648
 30
0.0
 10
21.3359331169
 20
72.1887248805
 30
0.0
 10
21.3361743037
 20
72.1885200646
 30
0.0
 10
21.3365347049
 20
72.1883678582
 30
0.0
 10
21.3371181501
 20
72.188193898
 30
0.0
 10
21.3379015003
 20
72.1880252524
 30
0.0
 10
21.3389010192
 20
72.1878516988
 30
0.0
 10
21.3401117886
 20
72.187678466
 30
0.0
 10
21.3421508649
 20
72.1874294481
 30
0.0
 10
21.3452325518
 20
72.1871285168
 30
0.0
 10
21.3495679588
 20
72.1867845767
 30
0.0
 10
21.3547485677
 20
72.1864403936
 30
0.0
 10
21.3607710345
 20
72.1860963185
 30
0.0
 10
21.3676319704
 20
72.1857531019
 30
0.0
 10
21.3784451335
 20
72.1852729089
 30
0.0
 10
21.3940252471
 20
72.1846899808
 30
0.0
 10
21.4151685837
 20
72.1840269642
 30
0.0
 10
21.439534634
 20
72.1833734445
 30
0.0
 10
21.467064653
 20
72.1827314943
 30
0.0
 10
21.5098963058
 20
72.1818534011
 30
0.0
 10
21.5707781407
 20
72.1808209071
 30
0.0
 10
21.6522117187
 20
72.1797014219
 30
0.0
 10
21.744219191
 20
72.1786655336
 30
0.0
 10
21.8459009898
 20
72.1777244432
 30
0.0
 10
21.9562657422
 20
72.1768883663
 30
0.0
 10
22.0742385906
 20
72.1761658334
 30
0.0
 10
22.1986651225
 20
72.175564592
 30
0.0
 10
22.328333394
 20
72.1750903208
 30
0.0
 10
22.5080186927
 20
72.1746305355
 30
0.0
 10
22.6443425233
 20
72.1744955576
 30
0.0
 10
22.7359726295
 20
72.1744955576
 30
0.0
  0
SPLINE
  5
293
100
AcDbEntity
  8
0
100
AcDbSpline
 62
7
  6
BYLAYER
 70
0
 71
3
 72
36
 73
32
 74
0
 42
0.0000001
 43
0.0000001
 44
0.0000000001
 40
0.0
 40
0.0
 40
0.0
 40
0.0
 40
0.1962701496
 40
0.2920037104
 40
0.384885934
 40
0.4740225533
 40
0.5585309238
 40
0.6375917288
 40
0.7104346051
 40
0.7763470444
 40
0.8346886342
 40
0.884885742
 40
0.9067773958
 40
0.92645537
 40
0.9438722425
 40
0.9589890369
 40
0.9717672585
 40
0.9772684608
 40
0.9821740409
 40
0.9864817452
 40
0.9901894179
 40
0.9932950774
 40
0.9957970866
 40
0.9968214454
 40
0.9976948365
 40
0.9984178202
 40
0.9989914174
 40
0.9994177207
 40
0.9997020876
 40
0.9998645715
 40
1.0
 40
1.0
 40
1.0
 40
1.0
 10
22.7359726295
 20
72.1744955576
 30
0.0
 10
22.8276011183
 20
72.1744955576
 30
0.0
 10
22.9639227666
 20
72.1746305318
 30
0.0
 10
23.1436057487
 20
72.1750903012
 30
0.0
 10
23.2732732944
 20
72.1755645633
 30
0.0
 10
23.3976997892
 20
72.1761657941
 30
0.0
 10
23.5156730167
 20
72.1768883209
 30
0.0
 10
23.6260385833
 20
72.1777243962
 30
0.0
 10
23.727721483
 20
72.1786654852
 30
0.0
 10
23.8197301904
 20
72.1797013814
 30
0.0
 10
23.9011648943
 20
72.1808208728
 30
0.0
 10
23.9620475732
 20
72.181853377
 30
0.0
 10
24.0048798106
 20
72.1827314827
 30
0.0
 10
24.0324101484
 20
72.1833734296
 30
0.0
 10
24.0567763977
 20
72.1840269573
 30
0.0
 10
24.0779198828
 20
72.1846899886
 30
0.0
 10
24.0935001381
 20
72.1852729094
 30
0.0
 10
24.1043134167
 20
72.1857531022
 30
0.0
 10
24.1111743232
 20
72.1860963209
 30
0.0
 10
24.1171966988
 20
72.1864403981
 30
0.0
 10
24.1223772216
 20
72.1867845844
 30
0.0
 10
24.1267126145
 20
72.1871285276
 30
0.0
 10
24.1297943597
 20
72.1874294619
 30
0.0
 10
24.1318335318
 20
72.1876784692
 30
0.0
 10
24.1330443708
 20
72.1878517
 30
0.0
 10
24.1340439184
 20
72.1880252542
 30
0.0
 10
24.1348272651
 20
72.1881938944
 30
0.0
 10
24.1354106734
 20
72.1883678624
 30
0.0
 10
24.1357710444
 20
72.1885200489
 30
0.0
 10
24.1360121694
 20
72.188724917
 30
0.0
 10
24.1359404014
 20
72.1888815671
 30
0.0
 10
24.1358957139
 20
72.1889262927
 30
0.0
  0
SPLINE
  5
294
100
AcDbEntity
  8
0
100
AcDbSpline
 62
7
  6
BYLAYER
 70
0
 71
3
 72
36
 73
32
 74
0
 42
0.0000001
 43
0.0000001
 44
0.0000000001
 40
0.0
 40
0.0
 40
0.0
 40
0.0
 40
0.0002345973
 40
0.0006037244
 40
0.001115122
 40
0.0017714289
 40
0.0035226114
 40
0.0058612398
 40
0.0087880934
 40
0.0123029767
 40
0.0164042428
 40
0.0210891581
 40
0.0263548534
 40
0.0321983948
 40
0.0456069517
 40
0.0612845248
 40
0.079191635
 40
0.0992877749
 40
0.1215258136
 40
0.1458507635
 40
0.1722068422
 40
0.2005314854
 40
0.2307555218
 40
0.2966156629
 40
0.3691601957
 40
0.4477007636
 40
0.5314906706
 40
0.6197348343
 40
0.7115922038
 40
0.8061860195
 40
1.0
 40
1.0
 40
1.0
 40
1.0
 10
35.710589262
 20
72.3233065313
 30
0.0
 10
35.7101866304
 20
72.3237085741
 30
0.0
 10
35.7088513646
 20
72.3243998421
 30
0.0
 10
35.7062991227
 20
72.3252562297
 30
0.0
 10
35.7026649168
 20
72.3261298084
 30
0.0
 10
35.6957094017
 20
72.3274361672
 30
0.0
 10
35.6842932642
 20
72.3289760323
 30
0.0
 10
35.6673665442
 20
72.3307297076
 30
0.0
 10
35.646141654
 20
72.3324899634
 30
0.0
 10
35.6206316337
 20
72.3342568484
 30
0.0
 10
35.5908485022
 20
72.3360223066
 30
0.0
 10
35.5568125425
 20
72.3377843961
 30
0.0
 10
35.5185455853
 20
72.3395405275
 30
0.0
 10
35.4591303677
 20
72.3419850126
 30
0.0
 10
35.3744636664
 20
72.3449593362
 30
0.0
 10
35.2605365332
 20
72.3483464898
 30
0.0
 10
35.1303818055
 20
72.3516817947
 30
0.0
 10
34.9843094053
 20
72.3549547183
 30
0.0
 10
34.822666276
 20
72.3581552309
 30
0.0
 10
34.6458362089
 20
72.361275399
 30
0.0
 10
34.4542401928
 20
72.3643060906
 30
0.0
 10
34.2483335141
 20
72.3672398415
 30
0.0
 10
33.9466180212
 20
72.3711247333
 30
0.0
 10
33.5376513925
 20
72.3756308594
 30
0.0
 10
33.0114951269
 20
72.3804100851
 30
0.0
 10
32.4418462329
 20
72.3846526326
 30
0.0
 10
31.8341148366
 20
72.3883163743
 30
0.0
 10
31.1940811883
 20
72.3913645143
 30
0.0
 10
30.5278408829
 20
72.3937672486
 30
0.0
 10
29.605550797
 20
72.3960959334
 30
0.0
 10
28.9060479226
 20
72.3967799037
 30
0.0
 10
28.4359726295
 20
72.3967799037
 30
0.0
  0
SPLINE
  5
295
100
AcDbEntity
  8
0
100
AcDbSpline
 62
7
  6
BYLAYER
 70
0
 71
3
 72
36
 73
32
 74
0
 42
0.0000001
 43
0.0000001
 44
0.0000000001
 40
0.0
 40
0.0
 40
0.0
 40
0.0
 40
0.1938132603
 40
0.2884066975
 40
0.3802638484
 40
0.4685078247
 40
0.5522977537
 40
0.6308385644
 40
0.7033833632
 40
0.7692437703
 40
0.7994679234
 40
0.8277926703
 40
0.8541488033
 40
0.8784738303
 40
0.900711939
 40
0.9208081159
 40
0.9387152914
 40
0.9543929233
 40
0.9678015085
 40
0.9736450705
 40
0.9789107876
 40
0.9835957221
 40
0.9876970006
 40
0.9912118874
 40
0.994138745
 40
0.9964773789
 40
0.9982285669
 40
0.998884876
 40
0.9993962751
 40
0.999765403
 40
1.0
 40
1.0
 40
1.0
 40
1.0
 10
28.4359726295
 20
72.3967799037
 30
0.0
 10
27.9658990826
 20
72.3967799037
 30
0.0
 10
27.2663988722
 20
72.3960959406
 30
0.0
 10
26.3441119802
 20
72.3937672685
 30
0.0
 10
25.6778735768
 20
72.3913645601
 30
0.0
 10
25.037840859
 20
72.388316431
 30
0.0
 10
24.4301092742
 20
72.3846526998
 30
0.0
 10
23.8604590917
 20
72.3804101668
 30
0.0
 10
23.3343009463
 20
72.3756309306
 30
0.0
 10
22.9253327437
 20
72.3711247989
 30
0.0
 10
22.6236160709
 20
72.3672399004
 30
0.0
 10
22.4177087254
 20
72.3643061511
 30
0.0
 10
22.2261121392
 20
72.3612754488
 30
0.0
 10
22.0492815833
 20
72.3581552804
 30
0.0
 10
21.8876380071
 20
72.3549547692
 30
0.0
 10
21.7415651887
 20
72.3516818336
 30
0.0
 10
21.6114100702
 20
72.3483465272
 30
0.0
 10
21.4974825673
 20
72.3449593732
 30
0.0
 10
21.4128156052
 20
72.341985037
 30
0.0
 10
21.353400216
 20
72.3395405489
 30
0.0
 10
21.3151331094
 20
72.3377844148
 30
0.0
 10
21.2810970201
 20
72.3360223227
 30
0.0
 10
21.2513138034
 20
72.3342568629
 30
0.0
 10
21.225803735
 20
72.3324899723
 30
0.0
 10
21.2045788132
 20
72.3307297133
 30
0.0
 10
21.1876520566
 20
72.3289760359
 30
0.0
 10
21.1762358869
 20
72.3274361696
 30
0.0
 10
21.1692803494
 20
72.32612981
 30
0.0
 10
21.1656461323
 20
72.325256231
 30
0.0
 10
21.1630938858
 20
72.3243998434
 30
0.0
 10
21.1617586178
 20
72.3237085752
 30
0.0
 10
21.1613559882
 20
72.3233065313
 30
0.0
  0
SPLINE
  5
296
100
AcDbEntity
  8
0
100
AcDbSpline
 62
7
  6
BYLAYER
 70
0
 71
3
 72
40
 73
36
 74
0
 42
0.0000001
 43
0.0000001
 44
0.0000000001
 40
0.0
 40
0.0
 40
0.0
 40
0.0
 40
0.0000768309
 40
0.0001400883
 40
0.0003027479
 40
0.0005876078
 40
0.0010145644
 40
0.0015888254
 40
0.0023123399
 40
0.0031859889
 40
0.0042102059
 40
0.0053852058
 40
0.0067110841
 40
0.009815506
 40
0.0135230675
 40
0.0178316264
 40
0.0227382795
 40
0.0282400225
 40
0.0343337915
 40
0.041016485
 40
0.0561332113
 40
0.0735511292
 40
0.0932283698
 40
0.1151192408
 40
0.139167832
 40
0.1653164489
 40
0.2236558954
 40
0.2895677227
 40
0.3624085823
 40
0.4414694586
 40
0.5259781979
 40
0.615111963
 40
0.7079996684
 40
0.8037304109
 40
1.0
 40
1.0
 40
1.0
 40
1.0
 10
21.1613559882
 20
72.3233065313
 30
0.0
 10
21.1612240955
 20
72.3231748304
 30
0.0
 10
21.1609999021
 20
72.322901209
 30
0.0
 10
21.1609294023
 20
72.3221188673
 30
0.0
 10
21.1619907541
 20
72.3212010723
 30
0.0
 10
21.1638899213
 20
72.3204019186
 30
0.0
 10
21.1669151556
 20
72.3195020573
 30
0.0
 10
21.1709949515
 20
72.3186240426
 30
0.0
 10
21.1761909013
 20
72.3177227955
 30
0.0
 10
21.1824851866
 20
72.3168225446
 30
0.0
 10
21.1898856939
 20
72.3159179092
 30
0.0
 10
21.1983894785
 20
72.3150126123
 30
0.0
 10
21.2119280711
 20
72.3137367401
 30
0.0
 10
21.231609505
 20
72.3121777372
 30
0.0
 10
21.2585285425
 20
72.3103881722
 30
0.0
 10
21.2898280868
 20
72.3086007602
 30
0.0
 10
21.3254865325
 20
72.3068174087
 30
0.0
 10
21.3654809102
 20
72.3050408704
 30
0.0
 10
21.4097880227
 20
72.3032727399
 30
0.0
 10
21.4774117998
 20
72.3008273135
 30
0.0
 10
21.572505489
 20
72.297848019
 30
0.0
 10
21.6991243371
 20
72.2944513446
 30
0.0
 10
21.8421836456
 20
72.2911158383
 30
0.0
 10
22.0013340518
 20
72.2878516701
 30
0.0
 10
22.1761882215
 20
72.2846672091
 30
0.0
 10
22.4394594323
 20
72.2803826205
 30
0.0
 10
22.8042902063
 20
72.2753709668
 30
0.0
 10
23.282398522
 20
72.2699869137
 30
0.0
 10
23.8107839122
 20
72.2650969162
 30
0.0
 10
24.3842908179
 20
72.2607520024
 30
0.0
 10
24.997328644
 20
72.2569978836
 30
0.0
 10
25.6439137615
 20
72.2538729901
 30
0.0
 10
26.3177260876
 20
72.2514089384
 30
0.0
 10
27.2514474108
 20
72.2490196097
 30
0.0
 10
27.9598298082
 20
72.2483182449
 30
0.0
 10
28.4359726295
 20
72.2483182449
 30
0.0
  0
SPLINE
  5
297
100
AcDbEntity
  8
0
100
AcDbSpline
 62
7
  6
BYLAYER
 70
0
 71
3
 72
40
 73
36
 74
0
 42
0.0000001
 43
0.0000001
 44
0.0000000001
 40
0.0
 40
0.0
 40
0.0
 40
0.0
 40
0.1962688555
 40
0.2919992229
 40
0.3848867075
 40
0.4740202946
 40
0.5585290674
 40
0.6375902009
 40
0.7104313386
 40
0.7763434214
 40
0.8346830805
 40
0.8608317529
 40
0.8848804252
 40
0.9067713554
 40
0.9264486393
 40
0.9438666265
 40
0.9589833992
 40
0.9656661057
 40
0.9717598945
 40
0.9772616596
 40
0.9821683333
 40
0.9864769071
 40
0.9901844739
 40
0.9932888993
 40
0.9946147802
 40
0.995789783
 40
0.996814003
 40
0.9976876547
 40
0.9984111718
 40
0.9989854346
 40
0.9994123923
 40
0.9996972523
 40
0.9998599112
 40
0.9999231688
 40
1.0
 40
1.0
 40
1.0
 40
1.0
 10
28.4359726295
 20
72.2483182449
 30
0.0
 10
28.9121136718
 20
72.2483182449
 30
0.0
 10
29.6204933802
 20
72.2490196022
 30
0.0
 10
30.554211479
 20
72.251408918
 30
0.0
 10
31.2280219285
 20
72.2538729436
 30
0.0
 10
31.8746061605
 20
72.256997825
 30
0.0
 10
32.487644261
 20
72.2607519354
 30
0.0
 10
33.0611525473
 20
72.2650968349
 30
0.0
 10
33.5895398567
 20
72.2699868409
 30
0.0
 10
34.0676499831
 20
72.2753709062
 30
0.0
 10
34.4324820277
 20
72.2803825571
 30
0.0
 10
34.695754086
 20
72.2846671606
 30
0.0
 10
34.870608731
 20
72.2878516193
 30
0.0
 10
35.0297595828
 20
72.2911157902
 30
0.0
 10
35.172819308
 20
72.2944513073
 30
0.0
 10
35.299438542
 20
72.2978479806
 30
0.0
 10
35.3945325438
 20
72.3008272796
 30
0.0
 10
35.4621565129
 20
72.3032727145
 30
0.0
 10
35.5064637587
 20
72.3050408479
 30
0.0
 10
35.5464582881
 20
72.306817389
 30
0.0
 10
35.5821168737
 20
72.3086007433
 30
0.0
 10
35.6134165168
 20
72.3103881568
 30
0.0
 10
35.6403356116
 20
72.3121777266
 30
0.0
 10
35.660017073
 20
72.313736733
 30
0.0
 10
35.6735556877
 20
72.3150126065
 30
0.0
 10
35.6820594927
 20
72.3159179046
 30
0.0
 10
35.6894600211
 20
72.316822541
 30
0.0
 10
35.6957543264
 20
72.3177227927
 30
0.0
 10
35.7009502937
 20
72.3186240407
 30
0.0
 10
35.7050301027
 20
72.3195020551
 30
0.0
 10
35.7080553452
 20
72.3204019184
 30
0.0
 10
35.7099545135
 20
72.3212010679
 30
0.0
 10
35.7110158646
 20
72.3221188697
 30
0.0
 10
35.7109453509
 20
72.3229012099
 30
0.0
 10
35.7107211558
 20
72.3231748303
 30
0.0
 10
35.710589262
 20
72.3233065313
 30
0.0
  0
SPLINE
  5
298
100
AcDbEntity
  8
0
100
AcDbSpline
 62
7
  6
BYLAYER
 70
0
 71
3
 72
33
 73
29
 74
0
 42
0.0000001
 43
0.0000001
 44
0.0000000001
 40
0.0
 40
0.0
 40
0.0
 40
0.0
 40
0.0002341798
 40
0.0006026277
 40
0.0017683166
 40
0.0035185147
 40
0.0058576908
 40
0.0087861052
 40
0.0123020204
 40
0.0164032798
 40
0.0210875326
 40
0.0321950888
 40
0.0456039331
 40
0.0612826021
 40
0.0791898829
 40
0.0992840724
 40
0.1215220825
 40
0.1458491519
 40
0.172204414
 40
0.2307531546
 40
0.2966130411
 40
0.3691565237
 40
0.4476952611
 40
0.5314887766
 40
0.6197313019
 40
0.7115792762
 40
0.8061858401
 40
1.0
 40
1.0
 40
1.0
 40
1.0
 10
36.8354974903
 20
72.3216744881
 30
0.0
 10
36.8350340529
 20
72.3212104743
 30
0.0
 10
36.8334964235
 20
72.3204113062
 30
0.0
 10
36.8288178526
 20
72.3188490945
 30
0.0
 10
36.819733966
 20
72.3171235707
 30
0.0
 10
36.805173388
 20
72.3151161144
 30
0.0
 10
36.7856118248
 20
72.3131075424
 30
0.0
 10
36.761101276
 20
72.3110697669
 30
0.0
 10
36.731637403
 20
72.3090317898
 30
0.0
 10
36.6972484109
 20
72.3069922045
 30
0.0
 10
36.6416128528
 20
72.3041133314
 30
0.0
 10
36.5599110218
 20
72.3006284541
 30
0.0
 10
36.4474159358
 20
72.2966722092
 30
0.0
 10
36.3158672315
 20
72.2927630724
 30
0.0
 10
36.1655880818
 20
72.288911635
 30
0.0
 10
35.9969329355
 20
72.2851321543
 30
0.0
 10
35.8102938377
 20
72.2814368081
 30
0.0
 10
35.6061161917
 20
72.2778345999
 30
0.0
 10
35.3002588799
 20
72.2729969917
 30
0.0
 10
34.8780904612
 20
72.2673382891
 30
0.0
 10
34.3265703759
 20
72.2612580777
 30
0.0
 10
33.7190610171
 20
72.2557410871
 30
0.0
 10
33.0613228256
 20
72.2508417859
 30
0.0
 10
32.359614891
 20
72.246612223
 30
0.0
 10
31.6206308647
 20
72.243092117
 30
0.0
 10
30.8513621316
 20
72.2403179442
 30
0.0
 10
29.7864444422
 20
72.2376289319
 30
0.0
 10
28.9787382043
 20
72.2368392507
 30
0.0
 10
28.4359726295
 20
72.2368392507
 30
0.0
  0
SPLINE
  5
299
100
AcDbEntity
  8
0
100
AcDbSpline
 62
7
  6
BYLAYER
 70
0
 71
3
 72
23
 73
19
 74
0
 42
0.0000001
 43
0.0000001
 44
0.0000000001
 40
0.0
 40
0.0
 40
0.0
 40
0.0
 40
0.0019686177
 40
0.0058819829
 40
0.0117891657
 40
0.0196968553
 40
0.0296034147
 40
0.041504484
 40
0.0712673469
 40
0.1089360316
 40
0.1544255743
 40
0.2075819775
 40
0.2682418614
 40
0.3362414785
 40
0.4114166388
 40
0.5824559678
 40
0.7793568671
 40
1.0
 40
1.0
 40
1.0
 40
1.0
 10
24.9358568633
 20
72.1885514725
 30
0.0
 10
24.9355048286
 20
72.1882030732
 30
0.0
 10
24.9339745844
 20
72.1878276869
 30
0.0
 10
24.9311368101
 20
72.187240853
 30
0.0
 10
24.9266702335
 20
72.1867064624
 30
0.0
 10
24.9207457591
 20
72.1861246618
 30
0.0
 10
24.9132852891
 20
72.1855529208
 30
0.0
 10
24.9003399585
 20
72.1847184594
 30
0.0
 10
24.8804026529
 20
72.183724841
 30
0.0
 10
24.8520154492
 20
72.1826005163
 30
0.0
 10
24.8177372814
 20
72.1814891063
 30
0.0
 10
24.7776722283
 20
72.1803920096
 30
0.0
 10
24.7319413687
 20
72.1793153179
 30
0.0
 10
24.6806689777
 20
72.1782623474
 30
0.0
 10
24.6016280991
 20
72.1768334142
 30
0.0
 10
24.4901560504
 20
72.175167198
 30
0.0
 10
24.3420838939
 20
72.1733798617
 30
0.0
 10
24.2370381249
 20
72.1723525619
 30
0.0
 10
24.1815282924
 20
72.1718589826
 30
0.0
  0
SPLINE
  5
29A
100
AcDbEntity
  8
0
100
AcDbSpline
 62
7
  6
BYLAYER
 70
0
 71
3
 72
23
 73
19
 74
0
 42
0.0000001
 43
0.0000001
 44
0.0000000001
 40
0.0
 40
0.0
 40
0.0
 40
0.0
 40
0.2206612296
 40
0.4175737786
 40
0.588614153
 40
0.6637846246
 40
0.7317804573
 40
0.7924369957
 40
0.8455898718
 40
0.8910750869
 40
0.9287388999
 40
0.9584979844
 40
0.9703976502
 40
0.980303161
 40
0.9882101826
 40
0.9941171075
 40
0.9980306652
 40
1.0
 40
1.0
 40
1.0
 40
1.0
 10
21.2889257951
 20
72.1718722592
 30
0.0
 10
21.2335210981
 20
72.172365793
 30
0.0
 10
21.1286754183
 20
72.1733929836
 30
0.0
 10
20.98088811
 20
72.1751794865
 30
0.0
 10
20.8696343193
 20
72.1768445943
 30
0.0
 10
20.790751501
 20
72.1782725357
 30
0.0
 10
20.7395834027
 20
72.1793246473
 30
0.0
 10
20.6939455986
 20
72.1804004038
 30
0.0
 10
20.6539625473
 20
72.1814964907
 30
0.0
 10
20.619755337
 20
72.182606835
 30
0.0
 10
20.5914275226
 20
72.183730067
 30
0.0
 10
20.5715321831
 20
72.1847226581
 30
0.0
 10
20.5586140398
 20
72.1855562196
 30
0.0
 10
20.5511691446
 20
72.1861273582
 30
0.0
 10
20.5452568953
 20
72.1867084876
 30
0.0
 10
20.5407994511
 20
72.1872423919
 30
0.0
 10
20.537967092
 20
72.1878284252
 30
0.0
 10
20.5364398738
 20
72.188203639
 30
0.0
 10
20.5360884007
 20
72.1885514706
 30
0.0
  0
SPLINE
  5
29B
100
AcDbEntity
  8
0
100
AcDbSpline
 62
7
  6
BYLAYER
 70
0
 71
3
 72
9
 73
5
 74
0
 42
0.0000001
 43
0.0000001
 44
0.0000000001
 40
0.0
 40
0.0
 40
0.0
 40
0.0
 40
0.2592708017
 40
1.0
 40
1.0
 40
1.0
 40
1.0
 10
26.2021418392
 20
72.5322580645
 30
0.0
 10
25.4013226532
 20
72.5315309581
 30
0.0
 10
22.3125880161
 20
72.5272030465
 30
0.0
 10
19.2238595342
 20
72.5169333343
 30
0.0
 10
16.9359726295
 20
72.5049577348
 30
0.0
  0
SPLINE
  5
29C
100
AcDbEntity
  8
0
100
AcDbSpline
 62
7
  6
BYLAYER
 70
0
 71
3
 72
9
 73
5
 74
0
 42
0.0000001
 43
0.0000001
 44
0.0000000001
 40
0.0
 40
0.0
 40
0.0
 40
0.0
 40
0.2383637811
 40
1.0
 40
1.0
 40
1.0
 40
1.0
 10
39.9359726295
 20
72.5049577348
 30
0.0
 10
39.1997394853
 20
72.5088114363
 30
0.0
 10
36.1110337385
 20
72.5229997952
 30
0.0
 10
33.0222970585
 20
72.5301221101
 30
0.0
 10
30.6698034199
 20
72.5322580645
 30
0.0
  0
SPLINE
  5
29D
100
AcDbEntity
  8
0
100
AcDbSpline
 62
7
  6
BYLAYER
 70
0
 71
3
 72
33
 73
29
 74
0
 42
0.0000001
 43
0.0000001
 44
0.0000000001
 40
0.0
 40
0.0
 40
0.0
 40
0.0
 40
0.1938110605
 40
0.2884158384
 40
0.3802630799
 40
0.4685054312
 40
0.5522987298
 40
0.6308379162
 40
0.7033820355
 40
0.7692430667
 40
0.8277927609
 40
0.8541485746
 40
0.8784761781
 40
0.9007146097
 40
0.9208091317
 40
0.9387167003
 40
0.9543956305
 40
0.9678047028
 40
0.9789123385
 40
0.9835965974
 40
0.9876978595
 40
0.9912137879
 40
0.9941422405
 40
0.996481486
 40
0.9982317176
 40
0.9993973994
 40
0.9997658347
 40
1.0
 40
1.0
 40
1.0
 40
1.0
 10
28.4359726295
 20
72.2368392507
 30
0.0
 10
27.8932157244
 20
72.2368392507
 30
0.0
 10
27.0855231532
 20
72.2376289034
 30
0.0
 10
26.0206211779
 20
72.2403178216
 30
0.0
 10
25.2513599722
 20
72.2430919469
 30
0.0
 10
24.5123790788
 20
72.2466119206
 30
0.0
 10
23.810670969
 20
72.2508414787
 30
0.0
 10
23.1529303316
 20
72.2557406669
 30
0.0
 10
22.5454147161
 20
72.2612577028
 30
0.0
 10
21.9938869605
 20
72.2673378577
 30
0.0
 10
21.5717111138
 20
72.2729966445
 30
0.0
 10
21.2658480853
 20
72.2778342876
 30
0.0
 10
21.0616662147
 20
72.2814365246
 30
0.0
 10
20.8750235064
 20
72.2851319158
 30
0.0
 10
20.7063654401
 20
72.2889114471
 30
0.0
 10
20.5560838193
 20
72.2927629298
 30
0.0
 10
20.4245329372
 20
72.2966721117
 30
0.0
 10
20.3120362556
 20
72.3006283632
 30
0.0
 10
20.2303335453
 20
72.3041132769
 30
0.0
 10
20.17469774
 20
72.3069921764
 30
0.0
 10
20.1403086867
 20
72.3090317767
 30
0.0
 10
20.1108446621
 20
72.3110697653
 30
0.0
 10
20.0863337765
 20
72.3131075625
 30
0.0
 10
20.0667718105
 20
72.3151161053
 30
0.0
 10
20.052210966
 20
72.3171235524
 30
0.0
 10
20.0431270281
 20
72.318849074
 30
0.0
 10
20.0384485684
 20
72.3204112938
 30
0.0
 10
20.0369110162
 20
72.3212104695
 30
0.0
 10
20.0364476405
 20
72.3216744879
 30
0.0
  0
SPLINE
  5
29E
100
AcDbEntity
  8
0
100
AcDbSpline
 62
7
  6
BYLAYER
 70
0
 71
3
 72
23
 73
19
 74
0
 42
0.0000001
 43
0.0000001
 44
0.0000000001
 40
0.0
 40
0.0
 40
0.0
 40
0.0
 40
0.0019686177
 40
0.0058819829
 40
0.0117891657
 40
0.0196968553
 40
0.0296034147
 40
0.041504484
 40
0.0712673469
 40
0.1089360316
 40
0.1544255743
 40
0.2075819775
 40
0.2682418614
 40
0.3362414785
 40
0.4114166388
 40
0.5824559678
 40
0.7793568671
 40
1.0
 40
1.0
 40
1.0
 40
1.0
 10
36.3358568633
 20
72.1885514725
 30
0.0
 10
36.3355048286
 20
72.1882030732
 30
0.0
 10
36.3339745844
 20
72.1878276869
 30
0.0
 10
36.3311368101
 20
72.187240853
 30
0.0
 10
36.3266702335
 20
72.1867064624
 30
0.0
 10
36.3207457591
 20
72.1861246618
 30
0.0
 10
36.3132852891
 20
72.1855529208
 30
0.0
 10
36.3003399585
 20
72.1847184594
 30
0.0
 10
36.2804026529
 20
72.183724841
 30
0.0
 10
36.2520154492
 20
72.1826005163
 30
0.0
 10
36.2177372814
 20
72.1814891063
 30
0.0
 10
36.1776722283
 20
72.1803920096
 30
0.0
 10
36.1319413687
 20
72.1793153179
 30
0.0
 10
36.0806689777
 20
72.1782623474
 30
0.0
 10
36.0016280991
 20
72.1768334142
 30
0.0
 10
35.8901560504
 20
72.175167198
 30
0.0
 10
35.7420838939
 20
72.1733798617
 30
0.0
 10
35.6370381249
 20
72.1723525619
 30
0.0
 10
35.5815282924
 20
72.1718589826
 30
0.0
  0
SPLINE
  5
29F
100
AcDbEntity
  8
0
100
AcDbSpline
 62
7
  6
BYLAYER
 70
0
 71
3
 72
23
 73
19
 74
0
 42
0.0000001
 43
0.0000001
 44
0.0000000001
 40
0.0
 40
0.0
 40
0.0
 40
0.0
 40
0.2206612296
 40
0.4175737786
 40
0.588614153
 40
0.6637846246
 40
0.7317804573
 40
0.7924369957
 40
0.8455898718
 40
0.8910750869
 40
0.9287388999
 40
0.9584979844
 40
0.9703976502
 40
0.980303161
 40
0.9882101826
 40
0.9941171075
 40
0.9980306652
 40
1.0
 40
1.0
 40
1.0
 40
1.0
 10
32.6889257951
 20
72.1718722592
 30
0.0
 10
32.6335210981
 20
72.172365793
 30
0.0
 10
32.5286754183
 20
72.1733929836
 30
0.0
 10
32.38088811
 20
72.1751794865
 30
0.0
 10
32.2696343193
 20
72.1768445943
 30
0.0
 10
32.190751501
 20
72.1782725357
 30
0.0
 10
32.1395834027
 20
72.1793246473
 30
0.0
 10
32.0939455986
 20
72.1804004038
 30
0.0
 10
32.0539625473
 20
72.1814964907
 30
0.0
 10
32.019755337
 20
72.182606835
 30
0.0
 10
31.9914275226
 20
72.183730067
 30
0.0
 10
31.9715321831
 20
72.1847226581
 30
0.0
 10
31.9586140398
 20
72.1855562196
 30
0.0
 10
31.9511691446
 20
72.1861273582
 30
0.0
 10
31.9452568953
 20
72.1867084876
 30
0.0
 10
31.9407994511
 20
72.1872423919
 30
0.0
 10
31.937967092
 20
72.1878284252
 30
0.0
 10
31.9364398738
 20
72.188203639
 30
0.0
 10
31.9360884007
 20
72.1885514706
 30
0.0
  0
SPLINE
  5
2A0
100
AcDbEntity
  8
0
100
AcDbSpline
 62
7
  6
BYLAYER
 70
0
 71
3
 72
15
 73
11
 74
0
 42
0.0000001
 43
0.0000001
 44
0.0000000001
 40
0.0
 40
0.0
 40
0.0
 40
0.0
 40
0.0782312445
 40
0.1742561722
 40
0.2861943786
 40
0.4118980196
 40
0.5488997005
 40
0.694514969
 40
0.8459319578
 40
1.0
 40
1.0
 40
1.0
 40
1.0
 10
33.8521460276
 20
8.7822580645
 30
0.0
 10
33.7109779899
 20
8.7768692727
 30
0.0
 10
33.3964623414
 20
8.7667572181
 30
0.0
 10
32.8798352928
 20
8.7528804709
 30
0.0
 10
32.2774604068
 20
8.7387615882
 30
0.0
 10
31.60107214
 20
8.7246222484
 30
0.0
 10
30.8638500624
 20
8.7108781542
 30
0.0
 10
30.0801954037
 20
8.6966793728
 30
0.0
 10
29.2657184684
 20
8.6824037937
 30
0.0
 10
28.7141487304
 20
8.6730944862
 30
0.0
 10
28.4359726295
 20
8.6682784479
 30
0.0
  0
SPLINE
  5
2A1
100
AcDbEntity
  8
0
100
AcDbSpline
 62
7
  6
BYLAYER
 70
0
 71
3
 72
22
 73
18
 74
0
 42
0.0000001
 43
0.0000001
 44
0.0000000001
 40
0.0
 40
0.0
 40
0.0
 40
0.0
 40
0.0558375219
 40
0.1111489045
 40
0.1662309706
 40
0.2213719725
 40
0.2768629246
 40
0.333003316
 40
0.3901088735
 40
0.4485180378
 40
0.5705340009
 40
0.7022860333
 40
0.7727670332
 40
0.8462907587
 40
0.9223735067
 40
0.9610863273
 40
1.0
 40
1.0
 40
1.0
 40
1.0
 10
34.4768537082
 20
25.0317455196
 30
0.0
 10
34.538696974
 20
25.240504004
 30
0.0
 10
34.6402865089
 20
25.6627853216
 30
0.0
 10
34.7260157178
 20
26.3063659858
 30
0.0
 10
34.7455709226
 20
26.9526709665
 30
0.0
 10
34.6989290564
 20
27.5982820386
 30
0.0
 10
34.585537461
 20
28.2397871264
 30
0.0
 10
34.4042586912
 20
28.8734999996
 30
0.0
 10
34.153119664
 20
29.4953448577
 30
0.0
 10
33.7156929843
 20
30.3134620916
 30
0.0
 10
32.9639808232
 20
31.2848831936
 30
0.0
 10
31.9666714098
 20
32.0841218461
 30
0.0
 10
31.0143155332
 20
32.5889166808
 30
0.0
 10
30.2068031894
 20
32.8873438501
 30
0.0
 10
29.4867384866
 20
33.0442978159
 30
0.0
 10
28.8905456286
 20
33.1094104853
 30
0.0
 10
28.5877074025
 20
33.1205431974
 30
0.0
 10
28.4359726295
 20
33.1201260302
 30
0.0
  0
SPLINE
  5
2A2
100
AcDbEntity
  8
0
100
AcDbSpline
 62
7
  6
BYLAYER
 70
0
 71
3
 72
21
 73
17
 74
0
 42
0.0000001
 43
0.0000001
 44
0.0000000001
 40
0.0
 40
0.0
 40
0.0
 40
0.0
 40
0.1806872392
 40
0.3567951589
 40
0.5215886879
 40
0.6691215324
 40
0.7347409144
 40
0.7941807423
 40
0.8469791282
 40
0.8927297026
 40
0.9310818398
 40
0.9617799044
 40
0.9742252669
 40
0.9847278663
 40
0.9933029073
 40
1.0
 40
1.0
 40
1.0
 40
1.0
 10
28.4359726295
 20
8.0322580638
 30
0.0
 10
28.7871878377
 20
8.0570530162
 30
0.0
 10
29.4807513679
 20
8.1055271668
 30
0.0
 10
30.494581824
 20
8.17739298
 30
0.0
 10
31.4437624494
 20
8.2475829478
 30
0.0
 10
32.1777759256
 20
8.3078760982
 30
0.0
 10
32.706729365
 20
8.3564627098
 30
0.0
 10
33.0515806908
 20
8.3910518849
 30
0.0
 10
33.3575192134
 20
8.4254615084
 30
0.0
 10
33.6221062531
 20
8.4596575058
 30
0.0
 10
33.8432604942
 20
8.4934252276
 30
0.0
 10
33.9994208767
 20
8.5226730011
 30
0.0
 10
34.1011570144
 20
8.5467809678
 30
0.0
 10
34.1603025812
 20
8.5634860201
 30
0.0
 10
34.2077300182
 20
8.5800864268
 30
0.0
 10
34.2348819232
 20
8.5925236491
 30
0.0
 10
34.2461921389
 20
8.5990338311
 30
0.0
  0
SPLINE
  5
2A3
100
AcDbEntity
  8
0
100
AcDbSpline
 62
7
  6
BYLAYER
 70
0
 71
3
 72
9
 73
5
 74
0
 42
0.0000001
 43
0.0000001
 44
0.0000000001
 40
0.0
 40
0.0
 40
0.0
 40
0.0
 40
0.7168450547
 40
1.0
 40
1.0
 40
1.0
 40
1.0
 10
22.4359726301
 20
13.2114644087
 30
0.0
 10
22.4359726831
 20
13.2123962355
 30
0.0
 10
22.4364531055
 20
13.2137034914
 30
0.0
 10
22.4372346581
 20
13.2147366245
 30
0.0
 10
22.437471972
 20
13.2150179782
 30
0.0
  0
SPLINE
  5
2A4
100
AcDbEntity
  8
0
100
AcDbSpline
 62
7
  6
BYLAYER
 70
0
 71
3
 72
27
 73
23
 74
0
 42
0.0000001
 43
0.0000001
 44
0.0000000001
 40
0.0
 40
0.0
 40
0.0
 40
0.0
 40
0.0010511315
 40
0.0026062871
 40
0.0073621391
 40
0.0143788171
 40
0.0236736634
 40
0.0352378254
 40
0.0490451218
 40
0.0650660922
 40
0.0832698373
 40
0.1036167738
 40
0.1260554991
 40
0.1769977225
 40
0.2356361057
 40
0.3014118953
 40
0.3737221847
 40
0.4518860502
 40
0.5351828399
 40
0.6228152585
 40
0.8078240061
 40
1.0
 40
1.0
 40
1.0
 40
1.0
 10
22.437471972
 20
13.2150179782
 30
0.0
 10
22.4388291216
 20
13.2166269817
 30
0.0
 10
22.4432808384
 20
13.2195966414
 30
0.0
 10
22.456840604
 20
13.2253215201
 30
0.0
 10
22.4828940622
 20
13.2317700923
 30
0.0
 10
22.524383013
 20
13.2391796977
 30
0.0
 10
22.5797399602
 20
13.246637964
 30
0.0
 10
22.6487424832
 20
13.2541990288
 30
0.0
 10
22.7312904521
 20
13.2617916454
 30
0.0
 10
22.8271745375
 20
13.2694154619
 30
0.0
 10
22.9361908056
 20
13.2770544872
 30
0.0
 10
23.0580854207
 20
13.2847058661
 30
0.0
 10
23.2454766002
 20
13.2953776739
 30
0.0
 10
23.5095279306
 20
13.3085013545
 30
0.0
 10
23.8603581255
 20
13.3237120989
 30
0.0
 10
24.2540127634
 20
13.3389624493
 30
0.0
 10
24.6867932572
 20
13.354238587
 30
0.0
 10
25.1546795898
 20
13.3695360443
 30
0.0
 10
25.6532640593
 20
13.3848427031
 30
0.0
 10
26.365741299
 20
13.4056364277
 30
0.0
 10
27.2962057341
 20
13.4312146559
 30
0.0
 10
28.0512662975
 20
13.4513106346
 30
0.0
 10
28.4359726288
 20
13.461465512
 30
0.0
  0
SPLINE
  5
2A5
100
AcDbEntity
  8
0
100
AcDbSpline
 62
7
  6
BYLAYER
 70
0
 71
3
 72
26
 73
22
 74
0
 42
0.0000001
 43
0.0000001
 44
0.0000000001
 40
0.0
 40
0.0
 40
0.0
 40
0.0
 40
0.1915125208
 40
0.3756539446
 40
0.4628615828
 40
0.5457978331
 40
0.6237011988
 40
0.6958557083
 40
0.7616055742
 40
0.8203354505
 40
0.8715092617
 40
0.9146316054
 40
0.9330530917
 40
0.9493229878
 40
0.9633985562
 40
0.9752477993
 40
0.9848468554
 40
0.9921743473
 40
0.9972156724
 40
0.998883723
 40
1.0
 40
1.0
 40
1.0
 40
1.0
 10
28.4359726295
 20
8.6682784479
 30
0.0
 10
28.0703204878
 20
8.6619479447
 30
0.0
 10
27.3530883359
 20
8.6496119123
 30
0.0
 10
26.469364524
 20
8.6336612192
 30
0.0
 10
25.7929559599
 20
8.6206665023
 30
0.0
 10
25.3193882831
 20
8.6111059506
 30
0.0
 10
24.8745712048
 20
8.6015743556
 30
0.0
 10
24.4625800608
 20
8.5920743838
 30
0.0
 10
24.0872125272
 20
8.5825773057
 30
0.0
 10
23.7519236846
 20
8.5730609084
 30
0.0
 10
23.4598638243
 20
8.5635332215
 30
0.0
 10
23.2447798859
 20
8.5552138738
 30
0.0
 10
23.0963440715
 20
8.5484081731
 30
0.0
 10
23.0033443681
 20
8.543594239
 30
0.0
 10
22.9229098038
 20
8.5388177507
 30
0.0
 10
22.8552430017
 20
8.5340692177
 30
0.0
 10
22.800479395
 20
8.5293898949
 30
0.0
 10
22.758809669
 20
8.5247129328
 30
0.0
 10
22.7322519256
 20
8.5206662653
 30
0.0
 10
22.7177742046
 20
8.5170222199
 30
0.0
 10
22.7127325458
 20
8.5151827693
 30
0.0
 10
22.7108890436
 20
8.5141125982
 30
0.0
  0
SPLINE
  5
2A6
100
AcDbEntity
  8
0
100
AcDbSpline
 62
7
  6
BYLAYER
 70
0
 71
3
 72
9
 73
5
 74
0
 42
0.0000001
 43
0.0000001
 44
0.0000000001
 40
0.0
 40
0.0
 40
0.0
 40
0.0
 40
0.7168971766
 40
1.0
 40
1.0
 40
1.0
 40
1.0
 10
34.4359726279
 20
13.8530480469
 30
0.0
 10
34.4359725644
 20
13.8521168751
 30
0.0
 10
34.4354930002
 20
13.8508105846
 30
0.0
 10
34.4347124454
 20
13.8497779344
 30
0.0
 10
34.4344754658
 20
13.8494967607
 30
0.0
  0
SPLINE
  5
2A7
100
AcDbEntity
  8
0
100
AcDbSpline
 62
7
  6
BYLAYER
 70
0
 71
3
 72
27
 73
23
 74
0
 42
0.0000001
 43
0.0000001
 44
0.0000000001
 40
0.0
 40
0.0
 40
0.0
 40
0.0
 40
0.0010508239
 40
0.0026056106
 40
0.007360701
 40
0.0143766608
 40
0.0236708614
 40
0.0352344414
 40
0.0490412156
 40
0.0650617251
 40
0.08326507
 40
0.1036116393
 40
0.126050039
 40
0.1769918153
 40
0.2356299593
 40
0.3014057481
 40
0.3737162272
 40
0.4518804363
 40
0.5351776621
 40
0.6228107454
 40
0.8078217975
 40
1.0
 40
1.0
 40
1.0
 40
1.0
 10
34.4344754658
 20
13.8494967607
 30
0.0
 10
34.4331193235
 20
13.8478877127
 30
0.0
 10
34.4286691124
 20
13.8449179524
 30
0.0
 10
34.4151122647
 20
13.839193664
 30
0.0
 10
34.3890621173
 20
13.8327465952
 30
0.0
 10
34.3475771922
 20
13.8253389468
 30
0.0
 10
34.2922239138
 20
13.8178823399
 30
0.0
 10
34.2232247995
 20
13.8103222367
 30
0.0
 10
34.1406799191
 20
13.8027299139
 30
0.0
 10
34.0447986168
 20
13.7951056363
 30
0.0
 10
33.9357848662
 20
13.7874653001
 30
0.0
 10
33.8138925226
 20
13.7798119425
 30
0.0
 10
33.6265037168
 20
13.7691373347
 30
0.0
 10
33.362454372
 20
13.7560122564
 30
0.0
 10
33.0116252315
 20
13.7408057896
 30
0.0
 10
32.6179704217
 20
13.7255588119
 30
0.0
 10
32.1851887562
 20
13.7102811063
 30
0.0
 10
31.7173003949
 20
13.6949808723
 30
0.0
 10
31.2187128907
 20
13.679672654
 30
0.0
 10
30.5062286884
 20
13.6588746975
 30
0.0
 10
29.575753698
 20
13.6332891872
 30
0.0
 10
28.820682213
 20
13.6132538364
 30
0.0
 10
28.4359726288
 20
13.6030492094
 30
0.0
  0
SPLINE
  5
2A8
100
AcDbEntity
  8
0
100
AcDbSpline
 62
7
  6
BYLAYER
 70
0
 71
3
 72
9
 73
5
 74
0
 42
0.0000001
 43
0.0000001
 44
0.0000000001
 40
0.0
 40
0.0
 40
0.0
 40
0.0
 40
0.7172937228
 40
1.0
 40
1.0
 40
1.0
 40
1.0
 10
34.435972628
 20
9.8530491918
 30
0.0
 10
34.435972582
 20
9.852125577
 30
0.0
 10
34.4355013814
 20
9.8508302377
 30
0.0
 10
34.4347313735
 20
9.8498035171
 30
0.0
 10
34.4344978157
 20
9.8495242971
 30
0.0
  0
SPLINE
  5
2A9
100
AcDbEntity
  8
0
100
AcDbSpline
 62
7
  6
BYLAYER
 70
0
 71
3
 72
27
 73
23
 74
0
 42
0.0000001
 43
0.0000001
 44
0.0000000001
 40
0.0
 40
0.0
 40
0.0
 40
0.0
 40
0.0010477831
 40
0.0025991642
 40
0.0073473968
 40
0.0143568439
 40
0.0236449885
 40
0.0352030401
 40
0.0490048343
 40
0.0650209148
 40
0.0832203822
 40
0.1035636474
 40
0.125999311
 40
0.1769372665
 40
0.2355737558
 40
0.3013499629
 40
0.3736628064
 40
0.451831133
 40
0.5351340312
 40
0.6227741449
 40
0.8078023705
 40
1.0
 40
1.0
 40
1.0
 40
1.0
 10
34.4344978157
 20
9.8495242971
 30
0.0
 10
34.4331515813
 20
9.8479148652
 30
0.0
 10
34.4287166566
 20
9.8449430844
 30
0.0
 10
34.4151897957
 20
9.8392172257
 30
0.0
 10
34.3891731618
 20
9.8327693071
 30
0.0
 10
34.3477281452
 20
9.8253608807
 30
0.0
 10
34.2924109087
 20
9.8179037629
 30
0.0
 10
34.2234448657
 20
9.8103434494
 30
0.0
 10
34.1409295104
 20
9.8027510716
 30
0.0
 10
34.0450743596
 20
9.7951266815
 30
0.0
 10
33.9360833095
 20
9.7874859187
 30
0.0
 10
33.8142102112
 20
9.7798317327
 30
0.0
 10
33.6268401921
 20
9.7691554539
 30
0.0
 10
33.3628058893
 20
9.7560281488
 30
0.0
 10
33.0119849385
 20
9.7408196786
 30
0.0
 10
32.6183256506
 20
9.7255710866
 30
0.0
 10
32.1855276894
 20
9.7102923339
 30
0.0
 10
31.7176122611
 20
9.6949922614
 30
0.0
 10
31.2189881281
 20
9.6796855051
 30
0.0
 10
30.5064402343
 20
9.6588782726
 30
0.0
 10
29.575873378
 20
9.6332573877
 30
0.0
 10
28.8207210523
 20
9.6133406253
 30
0.0
 10
28.4359726305
 20
9.6030494575
 30
0.0
  0
SPLINE
  5
2AA
100
AcDbEntity
  8
0
100
AcDbSpline
 62
7
  6
BYLAYER
 70
0
 71
3
 72
9
 73
5
 74
0
 42
0.0000001
 43
0.0000001
 44
0.0000000001
 40
0.0
 40
0.0
 40
0.0
 40
0.0
 40
0.7169312414
 40
1.0
 40
1.0
 40
1.0
 40
1.0
 10
22.4359726304
 20
14.2114650723
 30
0.0
 10
22.4359726823
 20
14.2123952735
 30
0.0
 10
22.4364513054
 20
14.2137001734
 30
0.0
 10
22.4372306032
 20
14.21473202
 30
0.0
 10
22.4374671836
 20
14.2150129481
 30
0.0
  0
SPLINE
  5
2AB
100
AcDbEntity
  8
0
100
AcDbSpline
 62
7
  6
BYLAYER
 70
0
 71
3
 72
27
 73
23
 74
0
 42
0.0000001
 43
0.0000001
 44
0.0000000001
 40
0.0
 40
0.0
 40
0.0
 40
0.0
 40
0.0010504674
 40
0.0026048822
 40
0.0073592509
 40
0.0143745293
 40
0.0236680835
 40
0.0352310839
 40
0.0490373454
 40
0.0650573981
 40
0.0832603369
 40
0.1036066023
 40
0.1260447884
 40
0.1769862759
 40
0.2356244346
 40
0.3014004511
 40
0.3737114138
 40
0.451876262
 40
0.5351743103
 40
0.6228081834
 40
0.8078200499
 40
1.0
 40
1.0
 40
1.0
 40
1.0
 10
22.4374671836
 20
14.2150129481
 30
0.0
 10
22.4388222228
 20
14.2166219943
 30
0.0
 10
22.4432707005
 20
14.2195919555
 30
0.0
 10
22.4568241037
 20
14.2253168168
 30
0.0
 10
22.4828704362
 20
14.2317650667
 30
0.0
 10
22.5243508771
 20
14.2391744149
 30
0.0
 10
22.5797001445
 20
14.2466327715
 30
0.0
 10
22.6486956544
 20
14.2541942802
 30
0.0
 10
22.7312374188
 20
14.2617874232
 30
0.0
 10
22.8271160399
 20
14.2694116728
 30
0.0
 10
22.9361276245
 20
14.277050795
 30
0.0
 10
23.0580183558
 20
14.2847018886
 30
0.0
 10
23.2454058818
 20
14.2953731952
 30
0.0
 10
23.50945452
 20
14.3084967507
 30
0.0
 10
23.8602835788
 20
14.3237092903
 30
0.0
 10
24.2539399776
 20
14.3389611773
 30
0.0
 10
24.6867247607
 20
14.3542371823
 30
0.0
 10
25.1546175246
 20
14.3695334244
 30
0.0
 10
25.6532100405
 20
14.3848383016
 30
0.0
 10
26.3656996697
 20
14.405636297
 30
0.0
 10
27.296181778
 20
14.4312343089
 30
0.0
 10
28.0512592701
 20
14.4512596095
 30
0.0
 10
28.4359726295
 20
14.4614655121
 30
0.0
  0
SPLINE
  5
2AC
100
AcDbEntity
  8
0
100
AcDbSpline
 62
7
  6
BYLAYER
 70
0
 71
3
 72
9
 73
5
 74
0
 42
0.0000001
 43
0.0000001
 44
0.0000000001
 40
0.0
 40
0.0
 40
0.0
 40
0.0
 40
0.7168030452
 40
1.0
 40
1.0
 40
1.0
 40
1.0
 10
34.4359726284
 20
14.8530530933
 30
0.0
 10
34.4359725643
 20
14.8521207984
 30
0.0
 10
34.4354914354
 20
14.8508128566
 30
0.0
 10
34.434709076
 20
14.8497794408
 30
0.0
 10
34.4344714929
 20
14.8494979726
 30
0.0
  0
SPLINE
  5
2AD
100
AcDbEntity
  8
0
100
AcDbSpline
 62
7
  6
BYLAYER
 70
0
 71
3
 72
27
 73
23
 74
0
 42
0.0000001
 43
0.0000001
 44
0.0000000001
 40
0.0
 40
0.0
 40
0.0
 40
0.0
 40
0.0010513303
 40
0.0026067358
 40
0.0073631208
 40
0.0143803257
 40
0.0236756779
 40
0.0352402859
 40
0.0490479713
 40
0.0650692907
 40
0.0832733613
 40
0.1036205755
 40
0.1260595259
 40
0.1770020469
 40
0.2356404998
 40
0.301416213
 40
0.3737263106
 40
0.4518898208
 40
0.5351860498
 40
0.6228178154
 40
0.8078253822
 40
1.0
 40
1.0
 40
1.0
 40
1.0
 10
34.4344714929
 20
14.8494979726
 30
0.0
 10
34.4331135112
 20
14.8478891516
 30
0.0
 10
34.4286605521
 20
14.8449199641
 30
0.0
 10
34.4150984528
 20
14.8391955196
 30
0.0
 10
34.3890424403
 20
14.8327468882
 30
0.0
 10
34.3475504065
 20
14.8253365873
 30
0.0
 10
34.2921907142
 20
14.817876911
 30
0.0
 10
34.2231857164
 20
14.8103139745
 30
0.0
 10
34.1406355482
 20
14.802719777
 30
0.0
 10
34.0447494188
 20
14.7950952674
 30
0.0
 10
33.9357312118
 20
14.7874572639
 30
0.0
 10
33.813834821
 20
14.7798085435
 30
0.0
 10
33.6264418837
 20
14.7691409091
 30
0.0
 10
33.3623894018
 20
14.7560193162
 30
0.0
 10
33.0115591342
 20
14.7408006127
 30
0.0
 10
32.6179052383
 20
14.7255455387
 30
0.0
 10
32.1851259643
 20
14.7102755416
 30
0.0
 10
31.7172418599
 20
14.6949843764
 30
0.0
 10
31.2186607827
 20
14.6796769767
 30
0.0
 10
30.5061888051
 20
14.6588782618
 30
0.0
 10
29.5757313588
 20
14.6332946233
 30
0.0
 10
28.8206760064
 20
14.6132079847
 30
0.0
 10
28.4359726295
 20
14.6030521339
 30
0.0
  0
SPLINE
  5
2AE
100
AcDbEntity
  8
0
100
AcDbSpline
 62
7
  6
BYLAYER
 70
0
 71
3
 72
11
 73
7
 74
0
 42
0.0000001
 43
0.0000001
 44
0.0000000001
 40
0.0
 40
0.0
 40
0.0
 40
0.0
 40
0.1275120578
 40
0.3343084242
 40
0.6246737113
 40
1.0
 40
1.0
 40
1.0
 40
1.0
 10
33.8448568366
 20
8.1911684091
 30
0.0
 10
33.8436909681
 20
8.1900019802
 30
0.0
 10
33.8396807501
 20
8.1880593558
 30
0.0
 10
33.8320216646
 20
8.1856531029
 30
0.0
 10
33.8209678734
 20
8.1832048015
 30
0.0
 10
33.812490498
 20
8.1817412552
 30
0.0
 10
33.8076956684
 20
8.1809837294
 30
0.0
  0
SPLINE
  5
2AF
100
AcDbEntity
  8
0
100
AcDbSpline
 62
7
  6
BYLAYER
 70
0
 71
3
 72
19
 73
15
 74
0
 42
0.0000001
 43
0.0000001
 44
0.0000000001
 40
0.0
 40
0.0
 40
0.0
 40
0.0
 40
0.0064757121
 40
0.0149725012
 40
0.0379851267
 40
0.0689203159
 40
0.1075248908
 40
0.1534690753
 40
0.2063832436
 40
0.3314027333
 40
0.4784988415
 40
0.6427096952
 40
0.8185733026
 40
1.0
 40
1.0
 40
1.0
 40
1.0
 10
33.8076956684
 20
8.1809837294
 30
0.0
 10
33.7962367307
 20
8.1791733544
 30
0.0
 10
33.7696136884
 20
8.1758231756
 30
0.0
 10
33.701881955
 20
8.1692358503
 30
0.0
 10
33.5902645804
 20
8.1615062965
 30
0.0
 10
33.4247058391
 20
8.1524907616
 30
0.0
 10
33.2180178476
 20
8.1433341972
 30
0.0
 10
32.9719248441
 20
8.1342102359
 30
0.0
 10
32.5710544398
 20
8.1214792935
 30
0.0
 10
31.9889833552
 20
8.105717076
 30
0.0
 10
31.2075292357
 20
8.0874217599
 30
0.0
 10
30.3349637227
 20
8.0693050649
 30
0.0
 10
29.4008917188
 20
8.0507953661
 30
0.0
 10
28.7609328455
 20
8.0385476031
 30
0.0
 10
28.4359726295
 20
8.0322580638
 30
0.0
  0
SPLINE
  5
2B0
100
AcDbEntity
  8
0
100
AcDbSpline
 62
7
  6
BYLAYER
 70
0
 71
3
 72
9
 73
5
 74
0
 42
0.0000001
 43
0.0000001
 44
0.0000000001
 40
0.0
 40
0.0
 40
0.0
 40
0.0
 40
0.7170394257
 40
1.0
 40
1.0
 40
1.0
 40
1.0
 10
22.4359726312
 20
15.2114660887
 30
0.0
 10
22.4359726914
 20
15.2123942347
 30
0.0
 10
22.4364490643
 20
15.2136961516
 30
0.0
 10
22.4372255292
 20
15.2147263591
 30
0.0
 10
22.437461188
 20
15.2150067468
 30
0.0
  0
SPLINE
  5
2B1
100
AcDbEntity
  8
0
100
AcDbSpline
 62
7
  6
BYLAYER
 70
0
 71
3
 72
27
 73
23
 74
0
 42
0.0000001
 43
0.0000001
 44
0.0000000001
 40
0.0
 40
0.0
 40
0.0
 40
0.0
 40
0.0010496236
 40
0.0026030959
 40
0.0073555743
 40
0.0143690726
 40
0.0236609918
 40
0.0352225033
 40
0.0490274233
 40
0.0650462867
 40
0.0832481928
 40
0.1035935736
 40
0.1260310231
 40
0.1769714901
 40
0.2356092129
 40
0.3013853734
 40
0.3736970254
 40
0.4518629824
 40
0.5351624693
 40
0.6227981443
 40
0.8078146959
 40
1.0
 40
1.0
 40
1.0
 40
1.0
 10
22.437461188
 20
15.2150067468
 30
0.0
 10
22.4388135742
 20
15.2166158209
 30
0.0
 10
22.4432579667
 20
15.2195861043
 30
0.0
 10
22.4568033234
 20
15.2253108178
 30
0.0
 10
22.4828406152
 20
15.2317585028
 30
0.0
 10
22.5243102681
 20
15.239167374
 30
0.0
 10
22.5796497695
 20
15.2466257522
 30
0.0
 10
22.6486362977
 20
15.2541878433
 30
0.0
 10
22.7311700412
 20
15.2617817377
 30
0.0
 10
22.8270415884
 20
15.2694066754
 30
0.0
 10
22.936047079
 20
15.2770460854
 30
0.0
 10
23.0579326747
 20
15.2846970107
 30
0.0
 10
23.2453151982
 20
15.2953679314
 30
0.0
 10
23.5093598233
 20
15.308491454
 30
0.0
 10
23.8601866733
 20
15.3237060433
 30
0.0
 10
24.2538443928
 20
15.3389593182
 30
0.0
 10
24.6866337318
 20
15.3542344379
 30
0.0
 10
25.1545337121
 20
15.3695291811
 30
0.0
 10
25.6531356942
 20
15.3848332076
 30
0.0
 10
26.3656420776
 20
15.4056365283
 30
0.0
 10
27.2961487901
 20
15.4312528846
 30
0.0
 10
28.0512493366
 20
15.4512087541
 30
0.0
 10
28.4359726299
 20
15.4614655121
 30
0.0
  0
SPLINE
  5
2B2
100
AcDbEntity
  8
0
100
AcDbSpline
 62
7
  6
BYLAYER
 70
0
 71
3
 72
9
 73
5
 74
0
 42
0.0000001
 43
0.0000001
 44
0.0000000001
 40
0.0
 40
0.0
 40
0.0
 40
0.0
 40
0.716852699
 40
1.0
 40
1.0
 40
1.0
 40
1.0
 10
22.4359726318
 20
10.2114662488
 30
0.0
 10
22.4359727153
 20
10.21239794
 30
0.0
 10
22.4364530409
 20
10.2137049851
 30
0.0
 10
22.4372344621
 20
10.2147379671
 30
0.0
 10
22.4374717303
 20
10.2150192712
 30
0.0
  0
SPLINE
  5
2B3
100
AcDbEntity
  8
0
100
AcDbSpline
 62
7
  6
BYLAYER
 70
0
 71
3
 72
27
 73
23
 74
0
 42
0.0000001
 43
0.0000001
 44
0.0000000001
 40
0.0
 40
0.0
 40
0.0
 40
0.0
 40
0.0010510535
 40
0.0026061223
 40
0.0073618062
 40
0.0143783452
 40
0.0236730944
 40
0.0352371543
 40
0.049044344
 40
0.0650652229
 40
0.0832689067
 40
0.1036157577
 40
0.1260543806
 40
0.1769964531
 40
0.2356346549
 40
0.301410341
 40
0.3737205775
 40
0.4518843919
 40
0.5351810257
 40
0.6228133807
 40
0.8078231135
 40
1.0
 40
1.0
 40
1.0
 40
1.0
 10
22.4374717303
 20
10.2150192712
 30
0.0
 10
22.4388287655
 20
10.2166281667
 30
0.0
 10
22.4432803074
 20
10.219597532
 30
0.0
 10
22.4568396744
 20
10.2253215994
 30
0.0
 10
22.482892598
 20
10.2317690268
 30
0.0
 10
22.5243808809
 20
10.2391776404
 30
0.0
 10
22.5797371546
 20
10.2466357408
 30
0.0
 10
22.6487389666
 20
10.2541975915
 30
0.0
 10
22.7312862271
 20
10.2617912949
 30
0.0
 10
22.8271697095
 20
10.2694160783
 30
0.0
 10
22.9361854777
 20
10.2770553435
 30
0.0
 10
23.0580796212
 20
10.2847061571
 30
0.0
 10
23.2454701749
 20
10.295376802
 30
0.0
 10
23.5095206432
 20
10.3084997964
 30
0.0
 10
23.8603498189
 20
10.3237133012
 30
0.0
 10
24.2540037309
 20
10.3389644075
 30
0.0
 10
24.6867839217
 20
10.3542365767
 30
0.0
 10
25.154669748
 20
10.369532469
 30
0.0
 10
25.6532534766
 20
10.3848444355
 30
0.0
 10
26.3657321711
 20
10.4056395827
 30
0.0
 10
27.2962007555
 20
10.4311959433
 30
0.0
 10
28.0512635644
 20
10.4513475198
 30
0.0
 10
28.4359726299
 20
10.4614655121
 30
0.0
  0
SPLINE
  5
2B4
100
AcDbEntity
  8
0
100
AcDbSpline
 62
7
  6
BYLAYER
 70
0
 71
3
 72
42
 73
38
 74
0
 42
0.0000001
 43
0.0000001
 44
0.0000000001
 40
0.0
 40
0.0
 40
0.0
 40
0.0
 40
0.0019577226
 40
0.0049786919
 40
0.0090830866
 40
0.0142741081
 40
0.0205498205
 40
0.0279060554
 40
0.0457997354
 40
0.0677736818
 40
0.0936050153
 40
0.1230520163
 40
0.1558706066
 40
0.191809978
 40
0.2305405742
 40
0.2716804925
 40
0.3148509802
 40
0.4057721785
 40
0.5000941477
 40
0.594409357
 40
0.6405138296
 40
0.6853462631
 40
0.728497371
 40
0.7695978192
 40
0.8082994073
 40
0.8442533266
 40
0.8771046577
 40
0.9065285115
 40
0.9322996994
 40
0.9542211971
 40
0.97210201
 40
0.9794729064
 40
0.9857703281
 40
0.9909746243
 40
0.9950729514
 40
0.9980722247
 40
1.0
 40
1.0
 40
1.0
 40
1.0
 10
33.6776779881
 20
16.2741551834
 30
0.0
 10
33.6717038815
 20
16.2707981956
 30
0.0
 10
33.6550129485
 20
16.2652041943
 30
0.0
 10
33.624120362
 20
16.2579273358
 30
0.0
 10
33.5816010762
 20
16.2505163893
 30
0.0
 10
33.5276336043
 20
16.2429399732
 30
0.0
 10
33.4621762016
 20
16.2353455661
 30
0.0
 10
33.3523456917
 20
16.2246242113
 30
0.0
 10
33.1875126382
 20
16.2120180825
 30
0.0
 10
32.9579988179
 20
16.197555229
 30
0.0
 10
32.6880009505
 20
16.1825997216
 30
0.0
 10
32.3800039279
 20
16.1674345448
 30
0.0
 10
32.0365871967
 20
16.1522612706
 30
0.0
 10
31.6606355115
 20
16.1373565771
 30
0.0
 10
31.2555315437
 20
16.1225656793
 30
0.0
 10
30.825103045
 20
16.1077016556
 30
0.0
 10
30.2120700055
 20
16.0873892712
 30
0.0
 10
29.4129664866
 20
16.0614160613
 30
0.0
 10
28.4348349085
 20
16.0328361209
 30
0.0
 10
27.6135467747
 20
16.0076277903
 30
0.0
 10
26.9654303302
 20
15.986998039
 30
0.0
 10
26.4963127591
 20
15.9721309887
 30
0.0
 10
26.0447154112
 20
15.9574001895
 30
0.0
 10
25.6145974372
 20
15.9424503391
 30
0.0
 10
25.2096914716
 20
15.9274102905
 30
0.0
 10
24.8336851729
 20
15.9122718407
 30
0.0
 10
24.4901858281
 20
15.8970654238
 30
0.0
 10
24.1823490407
 20
15.8822580214
 30
0.0
 10
23.9128063122
 20
15.8676751988
 30
0.0
 10
23.6837392264
 20
15.8530604552
 30
0.0
 10
23.5191230247
 20
15.8399522572
 30
0.0
 10
23.4092293843
 20
15.8290465978
 30
0.0
 10
23.3435939625
 20
15.8214814784
 30
0.0
 10
23.2895075207
 20
15.8140471273
 30
0.0
 10
23.2469961096
 20
15.8068711919
 30
0.0
 10
23.2162679057
 20
15.7998210799
 30
0.0
 10
23.1997165468
 20
15.7943217038
 30
0.0
 10
23.1938633817
 20
15.7909640122
 30
0.0
  0
SPLINE
  5
2B5
100
AcDbEntity
  8
0
100
AcDbSpline
 62
7
  6
BYLAYER
 70
0
 71
3
 72
23
 73
19
 74
0
 42
0.0000001
 43
0.0000001
 44
0.0000000001
 40
0.0
 40
0.0
 40
0.0
 40
0.0
 40
0.001308552
 40
0.0045289207
 40
0.0097825667
 40
0.0170840723
 40
0.0264336319
 40
0.0378273972
 40
0.0667249014
 40
0.1037266004
 40
0.1487541568
 40
0.2016535475
 40
0.2622554849
 40
0.3303902691
 40
0.4058878863
 40
0.5781207365
 40
0.7768900288
 40
1.0
 40
1.0
 40
1.0
 40
1.0
 10
31.9359726295
 20
72.1887805282
 30
0.0
 10
31.9359726295
 20
72.1891098601
 30
0.0
 10
31.937400424
 20
72.1896154053
 30
0.0
 10
31.9394955557
 20
72.1900871067
 30
0.0
 10
31.9435997383
 20
72.1906744355
 30
0.0
 10
31.9490081268
 20
72.1912370166
 30
0.0
 10
31.9560716601
 20
72.1918230804
 30
0.0
 10
31.9685229534
 20
72.1926673958
 30
0.0
 10
31.9879595869
 20
72.1936764725
 30
0.0
 10
32.015850367
 20
72.1948138328
 30
0.0
 10
32.0497917532
 20
72.1959401783
 30
0.0
 10
32.0896738973
 20
72.1970522035
 30
0.0
 10
32.1353746742
 20
72.1981440227
 30
0.0
 10
32.1867645983
 20
72.1992119236
 30
0.0
 10
32.2662473414
 20
72.2006626274
 30
0.0
 10
32.3786084345
 20
72.2023526412
 30
0.0
 10
32.5281217253
 20
72.2041637255
 30
0.0
 10
32.6342938733
 20
72.2052030574
 30
0.0
 10
32.6904432136
 20
72.2057023071
 30
0.0
  0
SPLINE
  5
2B6
100
AcDbEntity
  8
0
100
AcDbSpline
 62
7
  6
BYLAYER
 70
0
 71
3
 72
9
 73
5
 74
0
 42
0.0000001
 43
0.0000001
 44
0.0000000001
 40
0.0
 40
0.0
 40
0.0
 40
0.0
 40
0.5340006637
 40
1.0
 40
1.0
 40
1.0
 40
1.0
 10
34.1273174405
 20
72.2112280354
 30
0.0
 10
34.3864301712
 20
72.211238436
 30
0.0
 10
34.8716595955
 20
72.2104001686
 30
0.0
 10
35.3568837775
 20
72.2077030985
 30
0.0
 10
35.5829913067
 20
72.2056890479
 30
0.0
  0
SPLINE
  5
2B7
100
AcDbEntity
  8
0
100
AcDbSpline
 62
7
  6
BYLAYER
 70
0
 71
3
 72
23
 73
19
 74
0
 42
0.0000001
 43
0.0000001
 44
0.0000000001
 40
0.0
 40
0.0
 40
0.0
 40
0.0
 40
0.2231308841
 40
0.4219138741
 40
0.5941485308
 40
0.6696417512
 40
0.737772896
 40
0.7983713664
 40
0.8512668128
 40
0.8962892992
 40
0.9332854027
 40
0.9621782822
 40
0.9735701599
 40
0.9829181481
 40
0.9902184266
 40
0.9954712257
 40
0.9986911899
 40
1.0
 40
1.0
 40
1.0
 40
1.0
 10
35.5829913067
 20
72.2056890479
 30
0.0
 10
35.6390351403
 20
72.205189838
 30
0.0
 10
35.7450065447
 20
72.2041506031
 30
0.0
 10
35.8942340435
 20
72.2023403489
 30
0.0
 10
36.0063762679
 20
72.2006514315
 30
0.0
 10
36.0857006367
 20
72.1992017181
 30
0.0
 10
36.1369862812
 20
72.198134677
 30
0.0
 10
36.1825941102
 20
72.1970437933
 30
0.0
 10
36.2223944208
 20
72.1959327817
 30
0.0
 10
36.2562651479
 20
72.1948074969
 30
0.0
 10
36.2840970307
 20
72.1936712361
 30
0.0
 10
36.3034922194
 20
72.1926631905
 30
0.0
 10
36.3159168878
 20
72.1918197772
 30
0.0
 10
36.3229652184
 20
72.1912343173
 30
0.0
 10
36.3283620867
 20
72.1906724045
 30
0.0
 10
36.3324572029
 20
72.1900855708
 30
0.0
 10
36.3345483283
 20
72.1896146192
 30
0.0
 10
36.3359726295
 20
72.1891092753
 30
0.0
 10
36.3359726295
 20
72.1887805282
 30
0.0
  0
SPLINE
  5
2B8
100
AcDbEntity
  8
0
100
AcDbSpline
 62
7
  6
BYLAYER
 70
0
 71
3
 72
11
 73
7
 74
0
 42
0.0000001
 43
0.0000001
 44
0.0000000001
 40
0.0
 40
0.0
 40
0.0
 40
0.0
 40
0.3003515609
 40
0.5796705355
 40
0.8184540357
 40
1.0
 40
1.0
 40
1.0
 40
1.0
 10
28.4359726295
 20
72.408258898
 30
0.0
 10
29.1700625751
 20
72.408258898
 30
0.0
 10
30.5868371152
 20
72.4063885266
 30
0.0
 10
32.5872100036
 20
72.398173725
 30
0.0
 10
34.2971736576
 20
72.3851589061
 30
0.0
 10
35.3244362983
 20
72.3724677234
 30
0.0
 10
35.7680793303
 20
72.3643709231
 30
0.0
  0
SPLINE
  5
2B9
100
AcDbEntity
  8
0
100
AcDbSpline
 62
7
  6
BYLAYER
 70
0
 71
3
 72
24
 73
20
 74
0
 42
0.0000001
 43
0.0000001
 44
0.0000000001
 40
0.0
 40
0.0
 40
0.0
 40
0.0
 40
0.2341570109
 40
0.4383989086
 40
0.6119270262
 40
0.7539732054
 40
0.8129908457
 40
0.8639374228
 40
0.9067671465
 40
0.9251246509
 40
0.9414370983
 40
0.9679090237
 40
0.9861736993
 40
0.99225229
 40
0.9963351851
 40
0.9976647988
 40
0.9985791594
 40
0.9992414159
 40
1.0
 40
1.0
 40
1.0
 40
1.0
 10
35.7680793303
 20
72.3643709231
 30
0.0
 10
35.8516591202
 20
72.3628455326
 30
0.0
 10
36.0081372905
 20
72.3597884662
 30
0.0
 10
36.2265370394
 20
72.3547575324
 30
0.0
 10
36.4120401163
 20
72.349616229
 30
0.0
 10
36.5456924899
 20
72.3450428589
 30
0.0
 10
36.6355794967
 20
72.3412262009
 30
0.0
 10
36.690060383
 20
72.3385311453
 30
0.0
 10
36.730024401
 20
72.3361803105
 30
0.0
 10
36.7576240142
 20
72.3342530886
 30
0.0
 10
36.7793870528
 20
72.3325430896
 30
0.0
 10
36.8010734519
 20
72.3304789095
 30
0.0
 10
36.819102305
 20
72.328174522
 30
0.0
 10
36.8290203871
 20
72.3260986698
 30
0.0
 10
36.8329926225
 20
72.3249390385
 30
0.0
 10
36.8349863577
 20
72.3238863594
 30
0.0
 10
36.8358109552
 20
72.3232039677
 30
0.0
 10
36.8360270439
 20
72.3223135706
 30
0.0
 10
36.8356888652
 20
72.3218661011
 30
0.0
 10
36.8354974903
 20
72.3216744881
 30
0.0
  0
SPLINE
  5
2BA
100
AcDbEntity
  8
0
100
AcDbSpline
 62
7
  6
BYLAYER
 70
0
 71
3
 72
9
 73
5
 74
0
 42
0.0000001
 43
0.0000001
 44
0.0000000001
 40
0.0
 40
0.0
 40
0.0
 40
0.0
 40
0.7168208079
 40
1.0
 40
1.0
 40
1.0
 40
1.0
 10
34.4359726279
 20
15.8530475468
 30
0.0
 10
34.4359725555
 20
15.8521149446
 30
0.0
 10
34.4354913759
 20
15.8508065833
 30
0.0
 10
34.434708799
 20
15.849772829
 30
0.0
 10
34.4344711627
 20
15.849491289
 30
0.0
  0
SPLINE
  5
2BB
100
AcDbEntity
  8
0
100
AcDbSpline
 62
7
  6
BYLAYER
 70
0
 71
3
 72
27
 73
23
 74
0
 42
0.0000001
 43
0.0000001
 44
0.0000000001
 40
0.0
 40
0.0
 40
0.0
 40
0.0
 40
0.0010513986
 40
0.0026068317
 40
0.0073632286
 40
0.0143804329
 40
0.0236757933
 40
0.0352404357
 40
0.0490481688
 40
0.0650695313
 40
0.0832736221
 40
0.1036208283
 40
0.1260597567
 40
0.177002272
 40
0.2356407429
 40
0.3014164565
 40
0.3737264835
 40
0.4518899065
 40
0.5351860538
 40
0.6228177928
 40
0.8078255288
 40
1.0
 40
1.0
 40
1.0
 40
1.0
 10
34.4344711627
 20
15.849491289
 30
0.0
 10
34.4331131178
 20
15.847882343
 30
0.0
 10
34.428659966
 20
15.8449130398
 30
0.0
 10
34.4150973592
 20
15.8391892084
 30
0.0
 10
34.3890407849
 20
15.8327424853
 30
0.0
 10
34.3475482172
 20
15.8253351157
 30
0.0
 10
34.2921880423
 20
15.8178785759
 30
0.0
 10
34.2231825998
 20
15.8103183233
 30
0.0
 10
34.1406320616
 20
15.8027257718
 30
0.0
 10
34.0447457426
 20
15.7951013082
 30
0.0
 10
33.9357276271
 20
15.7874609855
 30
0.0
 10
33.8138315701
 20
15.779807885
 30
0.0
 10
33.6264391252
 20
15.769133839
 30
0.0
 10
33.3623868502
 20
15.7560094454
 30
0.0
 10
33.011556114
 20
15.7408031849
 30
0.0
 10
32.6179021389
 20
15.7255565402
 30
0.0
 10
32.1851235729
 20
15.7102794991
 30
0.0
 10
31.7172404138
 20
15.6949784018
 30
0.0
 10
31.218660005
 20
15.6796668916
 30
0.0
 10
30.5061879187
 20
15.6588748995
 30
0.0
 10
29.5757299719
 20
15.633321274
 30
0.0
 10
28.820676431
 20
15.6131732439
 30
0.0
 10
28.4359726299
 20
15.6030491358
 30
0.0
  0
SPLINE
  5
2BC
100
AcDbEntity
  8
0
100
AcDbSpline
 62
7
  6
BYLAYER
 70
0
 71
3
 72
23
 73
19
 74
0
 42
0.0000001
 43
0.0000001
 44
0.0000000001
 40
0.0
 40
0.0
 40
0.0
 40
0.0
 40
0.001308552
 40
0.0045289207
 40
0.0097825667
 40
0.0170840723
 40
0.0264336319
 40
0.0378273972
 40
0.0667249014
 40
0.1037266004
 40
0.1487541568
 40
0.2016535475
 40
0.2622554849
 40
0.3303902691
 40
0.4058878863
 40
0.5781207365
 40
0.7768900288
 40
1.0
 40
1.0
 40
1.0
 40
1.0
 10
20.5359726295
 20
72.1887805282
 30
0.0
 10
20.5359726295
 20
72.1891098601
 30
0.0
 10
20.537400424
 20
72.1896154053
 30
0.0
 10
20.5394955557
 20
72.1900871067
 30
0.0
 10
20.5435997383
 20
72.1906744355
 30
0.0
 10
20.5490081268
 20
72.1912370166
 30
0.0
 10
20.5560716601
 20
72.1918230804
 30
0.0
 10
20.5685229534
 20
72.1926673958
 30
0.0
 10
20.5879595869
 20
72.1936764725
 30
0.0
 10
20.615850367
 20
72.1948138328
 30
0.0
 10
20.6497917532
 20
72.1959401783
 30
0.0
 10
20.6896738973
 20
72.1970522035
 30
0.0
 10
20.7353746742
 20
72.1981440227
 30
0.0
 10
20.7867645983
 20
72.1992119236
 30
0.0
 10
20.8662473414
 20
72.2006626274
 30
0.0
 10
20.9786084345
 20
72.2023526412
 30
0.0
 10
21.1281217253
 20
72.2041637255
 30
0.0
 10
21.2342938733
 20
72.2052030574
 30
0.0
 10
21.2904432136
 20
72.2057023071
 30
0.0
  0
SPLINE
  5
2BD
100
AcDbEntity
  8
0
100
AcDbSpline
 62
7
  6
BYLAYER
 70
0
 71
3
 72
9
 73
5
 74
0
 42
0.0000001
 43
0.0000001
 44
0.0000000001
 40
0.0
 40
0.0
 40
0.0
 40
0.0
 40
0.5340006637
 40
1.0
 40
1.0
 40
1.0
 40
1.0
 10
22.7273174405
 20
72.2112280354
 30
0.0
 10
22.9864301712
 20
72.211238436
 30
0.0
 10
23.4716595955
 20
72.2104001686
 30
0.0
 10
23.9568837775
 20
72.2077030985
 30
0.0
 10
24.1829913067
 20
72.2056890479
 30
0.0
  0
SPLINE
  5
2BE
100
AcDbEntity
  8
0
100
AcDbSpline
 62
7
  6
BYLAYER
 70
0
 71
3
 72
23
 73
19
 74
0
 42
0.0000001
 43
0.0000001
 44
0.0000000001
 40
0.0
 40
0.0
 40
0.0
 40
0.0
 40
0.2231308841
 40
0.4219138741
 40
0.5941485308
 40
0.6696417512
 40
0.737772896
 40
0.7983713664
 40
0.8512668128
 40
0.8962892992
 40
0.9332854027
 40
0.9621782822
 40
0.9735701599
 40
0.9829181481
 40
0.9902184266
 40
0.9954712257
 40
0.9986911899
 40
1.0
 40
1.0
 40
1.0
 40
1.0
 10
24.1829913067
 20
72.2056890479
 30
0.0
 10
24.2390351403
 20
72.205189838
 30
0.0
 10
24.3450065447
 20
72.2041506031
 30
0.0
 10
24.4942340435
 20
72.2023403489
 30
0.0
 10
24.6063762679
 20
72.2006514315
 30
0.0
 10
24.6857006367
 20
72.1992017181
 30
0.0
 10
24.7369862812
 20
72.198134677
 30
0.0
 10
24.7825941102
 20
72.1970437933
 30
0.0
 10
24.8223944208
 20
72.1959327817
 30
0.0
 10
24.8562651479
 20
72.1948074969
 30
0.0
 10
24.8840970307
 20
72.1936712361
 30
0.0
 10
24.9034922194
 20
72.1926631905
 30
0.0
 10
24.9159168878
 20
72.1918197772
 30
0.0
 10
24.9229652184
 20
72.1912343173
 30
0.0
 10
24.9283620867
 20
72.1906724045
 30
0.0
 10
24.9324572029
 20
72.1900855708
 30
0.0
 10
24.9345483283
 20
72.1896146192
 30
0.0
 10
24.9359726295
 20
72.1891092753
 30
0.0
 10
24.9359726295
 20
72.1887805282
 30
0.0
  0
SPLINE
  5
2BF
100
AcDbEntity
  8
0
100
AcDbSpline
 62
7
  6
BYLAYER
 70
0
 71
3
 72
24
 73
20
 74
0
 42
0.0000001
 43
0.0000001
 44
0.0000000001
 40
0.0
 40
0.0
 40
0.0
 40
0.0
 40
0.18938494
 40
0.3719294427
 40
0.5410212595
 40
0.6185883169
 40
0.6905537089
 40
0.7562619201
 40
0.8151281552
 40
0.8666108044
 40
0.9102549112
 40
0.9456640991
 40
0.9601823489
 40
0.9725370863
 40
0.9827012359
 40
0.990656648
 40
0.9964079401
 40
0.9984679024
 40
1.0
 40
1.0
 40
1.0
 40
1.0
 10
28.4359726305
 20
16.4614655122
 30
0.0
 10
28.8146866715
 20
16.4715905694
 30
0.0
 10
29.5584431862
 20
16.4912030589
 30
0.0
 10
30.6403032437
 20
16.5209822485
 30
0.0
 10
31.4985168477
 20
16.546345773
 30
0.0
 10
32.1355641655
 20
16.5670220122
 30
0.0
 10
32.565873458
 20
16.5820669058
 30
0.0
 10
32.9587495858
 20
16.5970863443
 30
0.0
 10
33.3106201953
 20
16.612067922
 30
0.0
 10
33.6183116655
 20
16.6269988867
 30
0.0
 10
33.8790182197
 20
16.6418601002
 30
0.0
 10
34.0657613485
 20
16.6548184136
 30
0.0
 10
34.1898952012
 20
16.6655269812
 30
0.0
 10
34.2636090399
 20
16.6729911861
 30
0.0
 10
34.324134257
 20
16.6803829984
 30
0.0
 10
34.3713120857
 20
16.6877307631
 30
0.0
 10
34.4022480514
 20
16.6941622621
 30
0.0
 10
34.4201034854
 20
16.6997042085
 30
0.0
 10
34.4267528
 20
16.7025205888
 30
0.0
 10
34.4294183363
 20
16.7040332522
 30
0.0
  0
SPLINE
  5
2C0
100
AcDbEntity
  8
0
100
AcDbSpline
 62
7
  6
BYLAYER
 70
0
 71
3
 72
9
 73
5
 74
0
 42
0.0000001
 43
0.0000001
 44
0.0000000001
 40
0.0
 40
0.0
 40
0.0
 40
0.0
 40
0.1930419788
 40
1.0
 40
1.0
 40
1.0
 40
1.0
 10
34.4359526068
 20
8.8530495261
 30
0.0
 10
34.4359545589
 20
8.8524686692
 30
0.0
 10
34.4352694222
 20
8.8494429453
 30
0.0
 10
34.4325040153
 20
8.8474897693
 30
0.0
 10
34.430439088
 20
8.8462123267
 30
0.0
  0
SPLINE
  5
2C1
100
AcDbEntity
  8
0
100
AcDbSpline
 62
7
  6
BYLAYER
 70
0
 71
3
 72
16
 73
12
 74
0
 42
0.0000001
 43
0.0000001
 44
0.0000000001
 40
0.0
 40
0.0
 40
0.0
 40
0.0
 40
0.0158866205
 40
0.0377982029
 40
0.1003043571
 40
0.1880483261
 40
0.3010731215
 40
0.4392449385
 40
0.6021335082
 40
0.7892263669
 40
1.0
 40
1.0
 40
1.0
 40
1.0
 10
34.430439088
 20
8.8462123267
 30
0.0
 10
34.427812988
 20
8.8445877215
 30
0.0
 10
34.4210464002
 20
8.8416006601
 30
0.0
 10
34.402453292
 20
8.8357274286
 30
0.0
 10
34.3696047901
 20
8.8289683239
 30
0.0
 10
34.3190287813
 20
8.8212320728
 30
0.0
 10
34.2535899121
 20
8.8134554479
 30
0.0
 10
34.1734838734
 20
8.8056137566
 30
0.0
 10
34.0789217545
 20
8.7977378664
 30
0.0
 10
33.9702108518
 20
8.7898173761
 30
0.0
 10
33.8930367321
 20
8.7847998758
 30
0.0
 10
33.8521460276
 20
8.7822580645
 30
0.0
  0
SPLINE
  5
2C2
100
AcDbEntity
  8
0
100
AcDbSpline
 62
7
  6
BYLAYER
 70
0
 71
3
 72
41
 73
37
 74
0
 42
0.0000001
 43
0.0000001
 44
0.0000000001
 40
0.0
 40
0.0
 40
0.0
 40
0.0
 40
0.0019521332
 40
0.0049678862
 40
0.0090700831
 40
0.0142640301
 40
0.020547289
 40
0.0279110843
 40
0.0458135554
 40
0.0677789393
 40
0.093593533
 40
0.1230275566
 40
0.1558518704
 40
0.1918005623
 40
0.2305282575
 40
0.3148149688
 40
0.405733719
 40
0.5000496646
 40
0.5943625435
 40
0.6404621574
 40
0.6852876105
 40
0.7284384234
 40
0.7695481175
 40
0.8082616163
 40
0.8442183746
 40
0.8770554508
 40
0.9064774225
 40
0.9322646452
 40
0.9542073943
 40
0.9721059295
 40
0.9794780124
 40
0.9857686359
 40
0.9909655513
 40
0.9950616564
 40
0.9980637553
 40
1.0
 40
1.0
 40
1.0
 40
1.0
 10
33.6776787552
 20
15.2741770632
 30
0.0
 10
33.6717413298
 20
15.2707952469
 30
0.0
 10
33.6551012986
 20
15.2651567546
 30
0.0
 10
33.6242710396
 20
15.2578228628
 30
0.0
 10
33.5817745077
 20
15.2503670985
 30
0.0
 10
33.5277745981
 20
15.2428184602
 30
0.0
 10
33.46224461
 20
15.235312356
 30
0.0
 10
33.3523209266
 20
15.2247105671
 30
0.0
 10
33.1874571176
 20
15.2122088141
 30
0.0
 10
32.9580171235
 20
15.1975741649
 30
0.0
 10
32.688163463
 20
15.1825284962
 30
0.0
 10
32.3802596561
 20
15.1672993401
 30
0.0
 10
32.0368359059
 20
15.1522710914
 30
0.0
 10
31.6608454171
 20
15.1374668271
 30
0.0
 10
31.1048028512
 20
15.1171477179
 30
0.0
 10
30.3564047711
 20
15.0919001252
 30
0.0
 10
29.4134975878
 20
15.0614833629
 30
0.0
 10
28.4354197387
 20
15.0330212362
 30
0.0
 10
27.6142065405
 20
15.0074143298
 30
0.0
 10
26.9661450286
 20
14.9870262409
 30
0.0
 10
26.4970756243
 20
14.9722741941
 30
0.0
 10
26.0454815572
 20
14.9575047669
 30
0.0
 10
25.6153021487
 20
14.9424668198
 30
0.0
 10
25.2103227191
 20
14.9273587337
 30
0.0
 10
24.8343234305
 20
14.9121929421
 30
0.0
 10
24.4908718419
 20
14.897117823
 30
0.0
 10
24.183036889
 20
14.8824057754
 30
0.0
 10
23.9133758422
 20
14.8678080961
 30
0.0
 10
23.6841298976
 20
14.8530380687
 30
0.0
 10
23.5193837972
 20
14.8398416105
 30
0.0
 10
23.4094473782
 20
14.8289637676
 30
0.0
 10
23.3438492447
 20
14.8214881084
 30
0.0
 10
23.2898086341
 20
14.814147779
 30
0.0
 10
23.2473144665
 20
14.8070193416
 30
0.0
 10
23.2165494661
 20
14.7999840044
 30
0.0
 10
23.1999633567
 20
14.794464738
 30
0.0
 10
23.1940837053
 20
14.7910939109
 30
0.0
  0
SPLINE
  5
2C3
100
AcDbEntity
  8
0
100
AcDbSpline
 62
7
  6
BYLAYER
 70
0
 71
3
 72
9
 73
5
 74
0
 42
0.0000001
 43
0.0000001
 44
0.0000000001
 40
0.0
 40
0.0
 40
0.0
 40
0.0
 40
0.7172357567
 40
1.0
 40
1.0
 40
1.0
 40
1.0
 10
34.4359726283
 20
10.8530521972
 30
0.0
 10
34.4359725832
 20
10.8521282309
 30
0.0
 10
34.4355006037
 20
10.8508323502
 30
0.0
 10
34.4347297729
 20
10.8498055312
 30
0.0
 10
34.4344959319
 20
10.8495262318
 30
0.0
  0
SPLINE
  5
2C4
100
AcDbEntity
  8
0
100
AcDbSpline
 62
7
  6
BYLAYER
 70
0
 71
3
 72
27
 73
23
 74
0
 42
0.0000001
 43
0.0000001
 44
0.0000000001
 40
0.0
 40
0.0
 40
0.0
 40
0.0
 40
0.0010479531
 40
0.0025995941
 40
0.0073484285
 40
0.0143584865
 40
0.0236472099
 40
0.0352057932
 40
0.0490080663
 40
0.0650245745
 40
0.0832244262
 40
0.1035680515
 40
0.1260040378
 40
0.176942424
 40
0.2355791317
 40
0.3013553411
 40
0.3736680355
 40
0.4518360573
 40
0.5351385301
 40
0.6227780139
 40
0.8078042081
 40
1.0
 40
1.0
 40
1.0
 40
1.0
 10
34.4344959319
 20
10.8495262318
 30
0.0
 10
34.4331487453
 20
10.8479171542
 30
0.0
 10
34.4287124094
 20
10.8449462208
 30
0.0
 10
34.4151829845
 20
10.8392211265
 30
0.0
 10
34.3891635516
 20
10.8327729424
 30
0.0
 10
34.3477151483
 20
10.8253629191
 30
0.0
 10
34.2923948958
 20
10.8179028241
 30
0.0
 10
34.223426082
 20
10.8103387375
 30
0.0
 10
34.1409081673
 20
10.8027431118
 30
0.0
 10
34.0450505857
 20
10.7951171036
 30
0.0
 10
33.9360571199
 20
10.7874778256
 30
0.0
 10
33.8141816462
 20
10.7798282077
 30
0.0
 10
33.62680905
 20
10.7691594954
 30
0.0
 10
33.3627726993
 20
10.7560372948
 30
0.0
 10
33.011951084
 20
10.7408181185
 30
0.0
 10
32.6182921656
 20
10.7255604865
 30
0.0
 10
32.1854951801
 20
10.7102850696
 30
0.0
 10
31.7175814668
 20
10.6949929649
 30
0.0
 10
31.2189600687
 20
10.6796933703
 30
0.0
 10
30.5064186892
 20
10.6588862816
 30
0.0
 10
29.5758619894
 20
10.6332390407
 30
0.0
 10
28.8207170105
 20
10.6133501447
 30
0.0
 10
28.4359726299
 20
10.6030520895
 30
0.0
  0
SPLINE
  5
2C5
100
AcDbEntity
  8
0
100
AcDbSpline
 62
7
  6
BYLAYER
 70
0
 71
3
 72
20
 73
16
 74
0
 42
0.0000001
 43
0.0000001
 44
0.0000000001
 40
0.0
 40
0.0
 40
0.0
 40
0.0
 40
0.0751414464
 40
0.1492482771
 40
0.221524174
 40
0.2915252145
 40
0.3591192558
 40
0.4243900994
 40
0.4875383777
 40
0.5488135617
 40
0.6666805269
 40
0.78006571
 40
0.8356635617
 40
0.890751887
 40
1.0
 40
1.0
 40
1.0
 40
1.0
 10
28.4359726305
 20
32.9079939958
 30
0.0
 10
28.1942875802
 20
32.9085929737
 30
0.0
 10
27.713652202
 20
32.8774389783
 30
0.0
 10
27.0122440521
 20
32.7428720316
 30
0.0
 10
26.3480970526
 20
32.5290949903
 30
0.0
 10
25.7331954878
 20
32.2469641467
 30
0.0
 10
25.1733590436
 20
31.9092360353
 30
0.0
 10
24.6706215968
 20
31.5269048592
 30
0.0
 10
24.2244270709
 20
31.1092309724
 30
0.0
 10
23.7092752437
 20
30.5231345386
 30
0.0
 10
23.1889081088
 20
29.7326404857
 30
0.0
 10
22.8213289367
 20
28.8813619651
 30
0.0
 10
22.6203696751
 20
28.1884755004
 30
0.0
 10
22.479037038
 20
27.4947709823
 30
0.0
 10
22.4362690916
 20
26.9649629379
 30
0.0
 10
22.4359749434
 20
26.613576203
 30
0.0
  0
SPLINE
  5
2C6
100
AcDbEntity
  8
0
100
AcDbSpline
 62
7
  6
BYLAYER
 70
0
 71
3
 72
24
 73
20
 74
0
 42
0.0000001
 43
0.0000001
 44
0.0000000001
 40
0.0
 40
0.0
 40
0.0
 40
0.0
 40
0.0007585488
 40
0.0014208356
 40
0.0023352778
 40
0.0036649885
 40
0.007748071
 40
0.0138267928
 40
0.0320913853
 40
0.0585630579
 40
0.0748755973
 40
0.0932333019
 40
0.136063619
 40
0.1870108267
 40
0.2460288704
 40
0.3880747398
 40
0.5616025583
 40
0.7658440901
 40
1.0
 40
1.0
 40
1.0
 40
1.0
 10
20.0364476405
 20
72.3216744879
 30
0.0
 10
20.0362562916
 20
72.3218661023
 30
0.0
 10
20.0359181712
 20
72.3223136128
 30
0.0
 10
20.0361344178
 20
72.3232039828
 30
0.0
 10
20.0369590841
 20
72.3238863498
 30
0.0
 10
20.0389529328
 20
72.3249390261
 30
0.0
 10
20.0429252366
 20
72.326098654
 30
0.0
 10
20.0528432351
 20
72.328174487
 30
0.0
 10
20.0708716812
 20
72.3304789033
 30
0.0
 10
20.0925576135
 20
72.3325430892
 30
0.0
 10
20.1143202838
 20
72.3342530666
 30
0.0
 10
20.1419197291
 20
72.3361802783
 30
0.0
 10
20.1818835553
 20
72.3385310913
 30
0.0
 10
20.236364068
 20
72.341226121
 30
0.0
 10
20.3262497583
 20
72.3450427324
 30
0.0
 10
20.4598997155
 20
72.3496160864
 30
0.0
 10
20.6453991951
 20
72.3547573153
 30
0.0
 10
20.8637944879
 20
72.3597881765
 30
0.0
 10
21.0202693935
 20
72.3628452063
 30
0.0
 10
21.1038473262
 20
72.3643705824
 30
0.0
  0
SPLINE
  5
2C7
100
AcDbEntity
  8
0
100
AcDbSpline
 62
7
  6
BYLAYER
 70
0
 71
3
 72
11
 73
7
 74
0
 42
0.0000001
 43
0.0000001
 44
0.0000000001
 40
0.0
 40
0.0
 40
0.0
 40
0.0
 40
0.1815421423
 40
0.4203238461
 40
0.69964383
 40
1.0
 40
1.0
 40
1.0
 40
1.0
 10
21.1038473262
 20
72.3643705824
 30
0.0
 10
21.5474821419
 20
72.3724673361
 30
0.0
 10
22.5747336566
 20
72.3851585357
 30
0.0
 10
24.2846903836
 20
72.3981734372
 30
0.0
 10
26.2850776887
 20
72.4063884831
 30
0.0
 10
27.7018695559
 20
72.408258898
 30
0.0
 10
28.4359726295
 20
72.408258898
 30
0.0
  0
SPLINE
  5
2C8
100
AcDbEntity
  8
0
100
AcDbSpline
 62
7
  6
BYLAYER
 70
0
 71
3
 72
40
 73
36
 74
0
 42
0.0000001
 43
0.0000001
 44
0.0000000001
 40
0.0
 40
0.0
 40
0.0
 40
0.0
 40
0.0019471547
 40
0.0049589169
 40
0.0090603824
 40
0.014258556
 40
0.0205515092
 40
0.0279233775
 40
0.0458224114
 40
0.0677739524
 40
0.0935716989
 40
0.1229985192
 40
0.1558336631
 40
0.1917900221
 40
0.2305085927
 40
0.3147758559
 40
0.3595994044
 40
0.4056987427
 40
0.5000105595
 40
0.5943232217
 40
0.6852393084
 40
0.7695152644
 40
0.8082375692
 40
0.8441903293
 40
0.8770126704
 40
0.9064395775
 40
0.9322451073
 40
0.9542059122
 40
0.9721097981
 40
0.9794781812
 40
0.9857605125
 40
0.9909489771
 40
0.9950441593
 40
0.9980528443
 40
1.0
 40
1.0
 40
1.0
 40
1.0
 10
33.6777749013
 20
14.2741624732
 30
0.0
 10
33.6718757431
 20
14.2707490312
 30
0.0
 10
33.6552793164
 20
14.2650604846
 30
0.0
 10
33.6244918534
 20
14.2577001189
 30
0.0
 10
33.581995131
 20
14.2502457678
 30
0.0
 10
33.5279417386
 20
14.2427465126
 30
0.0
 10
33.4623209289
 20
14.2353569888
 30
0.0
 10
33.3523351244
 20
14.2248877247
 30
0.0
 10
33.1875081323
 20
14.212352022
 30
0.0
 10
32.9581984588
 20
14.1975540859
 30
0.0
 10
32.6884830737
 20
14.1824183194
 30
0.0
 10
32.3806250029
 20
14.1672091031
 30
0.0
 10
32.0371559211
 20
14.1523294883
 30
0.0
 10
31.6611303717
 20
14.1376087624
 30
0.0
 10
31.1051665792
 20
14.1171748944
 30
0.0
 10
30.5181266373
 20
14.0972771839
 30
0.0
 10
29.9052448936
 20
14.0771874412
 30
0.0
 10
29.2571841284
 20
14.0571754228
 30
0.0
 10
28.4359440609
 20
14.0330500335
 30
0.0
 10
27.457964671
 20
14.0022389164
 30
0.0
 10
26.5150707921
 20
13.973353411
 30
0.0
 10
25.7667389666
 20
13.9480958745
 30
0.0
 10
25.2107579151
 20
13.9272865691
 30
0.0
 10
24.8347944723
 20
13.9121205224
 30
0.0
 10
24.4913838432
 20
13.8972322119
 30
0.0
 10
24.1835188508
 20
13.8825356067
 30
0.0
 10
23.9137164165
 20
13.8678811549
 30
0.0
 10
23.6843345379
 20
13.8529543574
 30
0.0
 10
23.5195238321
 20
13.8397201667
 30
0.0
 10
23.409603111
 20
13.828924667
 30
0.0
 10
23.3440674626
 20
13.821537423
 30
0.0
 10
23.2900768598
 20
13.8142866008
 30
0.0
 10
23.2475892702
 20
13.807177541
 30
0.0
 10
23.2167714819
 20
13.8001031317
 30
0.0
 10
23.2001355024
 20
13.7945454689
 30
0.0
 10
23.1942212056
 20
13.791158318
 30
0.0
  0
SPLINE
  5
2C9
100
AcDbEntity
  8
0
100
AcDbSpline
 62
7
  6
BYLAYER
 70
0
 71
3
 72
9
 73
5
 74
0
 42
0.0000001
 43
0.0000001
 44
0.0000000001
 40
0.0
 40
0.0
 40
0.0
 40
0.0
 40
0.7168180735
 40
1.0
 40
1.0
 40
1.0
 40
1.0
 10
22.4359726306
 20
11.2114652765
 30
0.0
 10
22.4359726978
 20
11.2123976155
 30
0.0
 10
22.436453717
 20
11.2137056077
 30
0.0
 10
22.437236014
 20
11.21473912
 30
0.0
 10
22.4374735686
 20
11.2150205994
 30
0.0
  0
SPLINE
  5
2CA
100
AcDbEntity
  8
0
100
AcDbSpline
 62
7
  6
BYLAYER
 70
0
 71
3
 72
27
 73
23
 74
0
 42
0.0000001
 43
0.0000001
 44
0.0000000001
 40
0.0
 40
0.0
 40
0.0
 40
0.0
 40
0.0010513273
 40
0.0026067026
 40
0.0073629992
 40
0.0143801064
 40
0.0236753624
 40
0.0352398857
 40
0.0490474963
 40
0.0650687456
 40
0.0832727431
 40
0.1036198683
 40
0.1260587246
 40
0.1770011134
 40
0.2356394524
 40
0.3014150819
 40
0.373725078
 40
0.4518885368
 40
0.5351847505
 40
0.622816597
 40
0.8078248855
 40
1.0
 40
1.0
 40
1.0
 40
1.0
 10
22.4374735686
 20
11.2150205994
 30
0.0
 10
22.4388314195
 20
11.216629523
 30
0.0
 10
22.4432842185
 20
11.2195988955
 30
0.0
 10
22.4568460795
 20
11.2253232912
 30
0.0
 10
22.4829018343
 20
11.2317712894
 30
0.0
 10
22.5243934961
 20
11.2391803854
 30
0.0
 10
22.5797528376
 20
11.2466385064
 30
0.0
 10
22.6487574868
 20
11.2541998578
 30
0.0
 10
22.7313072923
 20
11.2617929205
 30
0.0
 10
22.8271929983
 20
11.2694171637
 30
0.0
 10
22.9362106508
 20
11.2770563367
 30
0.0
 10
23.0581063674
 20
11.2847075464
 30
0.0
 10
23.2454984556
 20
11.2953789335
 30
0.0
 10
23.5095501809
 20
11.308502289
 30
0.0
 10
23.8603800961
 20
11.3237138625
 30
0.0
 10
24.2540335637
 20
11.3389639787
 30
0.0
 10
24.6868122111
 20
11.3542378493
 30
0.0
 10
25.1546957762
 20
11.3695349264
 30
0.0
 10
25.6532767754
 20
11.3848454904
 30
0.0
 10
26.3657504925
 20
11.4056384431
 30
0.0
 10
27.2962112018
 20
11.4311960537
 30
0.0
 10
28.0512671637
 20
11.4513514988
 30
0.0
 10
28.4359726289
 20
11.4614655121
 30
0.0
  0
SPLINE
  5
2CB
100
AcDbEntity
  8
0
100
AcDbSpline
 62
7
  6
BYLAYER
 70
0
 71
3
 72
39
 73
35
 74
0
 42
0.0000001
 43
0.0000001
 44
0.0000000001
 40
0.0
 40
0.0
 40
0.0
 40
0.0
 40
0.0019424029
 40
0.0049529926
 40
0.009058633
 40
0.014262542
 40
0.0205596666
 40
0.0279331117
 40
0.0458213848
 40
0.0677543362
 40
0.0935362097
 40
0.1229649261
 40
0.1558113905
 40
0.1917685024
 40
0.2304751093
 40
0.3147286074
 40
0.4056597056
 40
0.4999697485
 40
0.5942835717
 40
0.6851973179
 40
0.7694926173
 40
0.8082205154
 40
0.8441597379
 40
0.8769762151
 40
0.9064137394
 40
0.9322369727
 40
0.9542112871
 40
0.9721075868
 40
0.9794650312
 40
0.9857408787
 40
0.9909276861
 40
0.9950259633
 40
0.9980421657
 40
1.0
 40
1.0
 40
1.0
 40
1.0
 10
33.6779644441
 20
13.2741225854
 30
0.0
 10
33.6721030691
 20
13.2706771634
 30
0.0
 10
33.6555366152
 20
13.264941227
 30
0.0
 10
33.6247557505
 20
13.2575823217
 30
0.0
 10
33.5822120226
 20
13.2502043909
 30
0.0
 10
33.5280976719
 20
13.2427874376
 30
0.0
 10
33.4624272059
 20
13.2354703595
 30
0.0
 10
33.3524507723
 20
13.2250755033
 30
0.0
 10
33.1877276451
 20
13.2124371372
 30
0.0
 10
32.9585812056
 20
13.1975048294
 30
0.0
 10
32.6889805791
 20
13.1822784603
 30
0.0
 10
32.3811196826
 20
13.1672102483
 30
0.0
 10
32.0375910188
 20
13.1524600117
 30
0.0
 10
31.6615603771
 20
13.1377117123
 30
0.0
 10
31.1056783868
 20
13.1171995316
 30
0.0
 10
30.3574319223
 20
13.0915011922
 30
0.0
 10
29.4145784451
 20
13.0619491737
 30
0.0
 10
28.4364770943
 20
13.032983406
 30
0.0
 10
27.4584932178
 20
13.0021631986
 30
0.0
 10
26.5155118173
 20
12.9735658523
 30
0.0
 10
25.7670984484
 20
12.9480291556
 30
0.0
 10
25.2110698357
 20
12.9271978638
 30
0.0
 10
24.835144389
 20
12.9121455249
 30
0.0
 10
24.4917551904
 20
12.8973479032
 30
0.0
 10
24.1838069159
 20
12.8826423395
 30
0.0
 10
23.9138593513
 20
12.867879104
 30
0.0
 10
23.6843990346
 20
12.8528280163
 30
0.0
 10
23.5196032371
 20
12.8396147309
 30
0.0
 10
23.4097541502
 20
12.8289694527
 30
0.0
 10
23.3442769299
 20
12.8216508448
 30
0.0
 10
23.2902983044
 20
12.8144331974
 30
0.0
 10
23.2477806419
 20
12.8073109866
 30
0.0
 10
23.2168975085
 20
12.8001721986
 30
0.0
 10
23.2002155214
 20
12.7945591113
 30
0.0
 10
23.1942682198
 20
12.7911541641
 30
0.0
  0
SPLINE
  5
2CC
100
AcDbEntity
  8
0
100
AcDbSpline
 62
7
  6
BYLAYER
 70
0
 71
3
 72
39
 73
35
 74
0
 42
0.0000001
 43
0.0000001
 44
0.0000000001
 40
0.0
 40
0.0
 40
0.0
 40
0.0
 40
0.0019381666
 40
0.0049485584
 40
0.0090592423
 40
0.0142691791
 40
0.0205658212
 40
0.0279329011
 40
0.0458029052
 40
0.0677150799
 40
0.0934850089
 40
0.1229200758
 40
0.155776862
 40
0.1917265517
 40
0.230420319
 40
0.314668072
 40
0.405608836
 40
0.4999198759
 40
0.5942374723
 40
0.6851559225
 40
0.7694729164
 40
0.8082008925
 40
0.8441267602
 40
0.8769438358
 40
0.9063970007
 40
0.9322364062
 40
0.9542147284
 40
0.9720972934
 40
0.9794436645
 40
0.9857140206
 40
0.9909031155
 40
0.9950080977
 40
0.9980326618
 40
1.0
 40
1.0
 40
1.0
 40
1.0
 10
33.6782158289
 20
12.2740658024
 30
0.0
 10
33.672382843
 20
12.2706010807
 30
0.0
 10
33.6558307743
 20
12.2648495823
 30
0.0
 10
33.6250439414
 20
12.2575097719
 30
0.0
 10
33.582441316
 20
12.2502291993
 30
0.0
 10
33.528274449
 20
12.2429212829
 30
0.0
 10
33.46260061
 20
12.2356453294
 30
0.0
 10
33.3527100711
 20
12.2252443234
 30
0.0
 10
33.1881526619
 20
12.2124656365
 30
0.0
 10
32.9591853187
 20
12.1974139475
 30
0.0
 10
32.6896689906
 20
12.1821807479
 30
0.0
 10
32.3817745374
 20
12.167264588
 30
0.0
 10
32.0381975503
 20
12.1526509755
 30
0.0
 10
31.6621956446
 20
12.1377702567
 30
0.0
 10
31.1063906721
 20
12.1171821663
 30
0.0
 10
30.3581577367
 20
12.0913287182
 30
0.0
 10
29.4152437183
 20
12.0622480654
 30
0.0
 10
28.4370772672
 20
12.0327894574
 30
0.0
 10
27.4590228957
 20
12.002221619
 30
0.0
 10
26.5159051957
 20
11.9736821464
 30
0.0
 10
25.767384094
 20
11.9479218804
 30
0.0
 10
25.2113075381
 20
11.9271386956
 30
0.0
 10
24.8354095688
 20
11.9122249506
 30
0.0
 10
24.4919984921
 20
11.8974566176
 30
0.0
 10
24.1839291359
 20
11.8827084495
 30
0.0
 10
23.9138550304
 20
11.8678103288
 30
0.0
 10
23.6843706406
 20
11.8526824443
 30
0.0
 10
23.5196361979
 20
11.8395657683
 30
0.0
 10
23.4098771579
 20
11.8290568515
 30
0.0
 10
23.3444422088
 20
11.8217902671
 30
0.0
 10
23.2904505707
 20
11.8145599928
 30
0.0
 10
23.2478775126
 20
11.8073952722
 30
0.0
 10
23.2169180588
 20
11.800189438
 30
0.0
 10
23.2001913854
 20
11.7945175616
 30
0.0
 10
23.1942166724
 20
11.7910931204
 30
0.0
  0
SPLINE
  5
2CD
100
AcDbEntity
  8
0
100
AcDbSpline
 62
7
  6
BYLAYER
 70
0
 71
3
 72
9
 73
5
 74
0
 42
0.0000001
 43
0.0000001
 44
0.0000000001
 40
0.0
 40
0.0
 40
0.0
 40
0.0
 40
0.7171615254
 40
1.0
 40
1.0
 40
1.0
 40
1.0
 10
34.435972628
 20
11.8530486102
 30
0.0
 10
34.4359725758
 20
11.8521224784
 30
0.0
 10
34.4354985936
 20
11.8508234908
 30
0.0
 10
34.4347250705
 20
11.8497947955
 30
0.0
 10
34.4344903731
 20
11.8495149255
 30
0.0
  0
SPLINE
  5
2CE
100
AcDbEntity
  8
0
100
AcDbSpline
 62
7
  6
BYLAYER
 70
0
 71
3
 72
27
 73
23
 74
0
 42
0.0000001
 43
0.0000001
 44
0.0000000001
 40
0.0
 40
0.0
 40
0.0
 40
0.0
 40
0.0010487938
 40
0.0026013084
 40
0.0073518255
 40
0.0143634439
 40
0.0236536089
 40
0.0352135069
 40
0.0490169658
 40
0.0650345269
 40
0.0832352899
 40
0.1035796595
 40
0.1260162382
 40
0.1769554718
 40
0.235592518
 40
0.3013685885
 40
0.3736806434
 40
0.4518475957
 40
0.5351486033
 40
0.6227863736
 40
0.8078088587
 40
1.0
 40
1.0
 40
1.0
 40
1.0
 10
34.4344903731
 20
11.8495149255
 30
0.0
 10
34.4331408281
 20
11.8479056315
 30
0.0
 10
34.4287007942
 20
11.84493456
 30
0.0
 10
34.4151639157
 20
11.8392093067
 30
0.0
 10
34.3891360909
 20
11.8327617861
 30
0.0
 10
34.3476777528
 20
11.8253537216
 30
0.0
 10
34.2923484883
 20
11.8178968067
 30
0.0
 10
34.223371408
 20
11.8103365154
 30
0.0
 10
34.1408461951
 20
11.8027440677
 30
0.0
 10
34.0449823123
 20
11.7951196146
 30
0.0
 10
33.9359836812
 20
11.7874789177
 30
0.0
 10
33.814104153
 20
11.7798249762
 30
0.0
 10
33.6267278524
 20
11.769149266
 30
0.0
 10
33.3626885064
 20
11.7560228398
 30
0.0
 10
33.0118647939
 20
11.7408153087
 30
0.0
 10
32.6182069932
 20
11.7255671699
 30
0.0
 10
32.185414492
 20
11.7102881203
 30
0.0
 10
31.7175080937
 20
11.6949880625
 30
0.0
 10
31.2188961336
 20
11.6796823464
 30
0.0
 10
30.506369543
 20
11.6588773163
 30
0.0
 10
29.5758336283
 20
11.6332587204
 30
0.0
 10
28.820707473
 20
11.6133342233
 30
0.0
 10
28.4359726289
 20
11.603049318
 30
0.0
  0
SPLINE
  5
2CF
100
AcDbEntity
  8
0
100
AcDbSpline
 62
7
  6
BYLAYER
 70
0
 71
3
 72
22
 73
18
 74
0
 42
0.0000001
 43
0.0000001
 44
0.0000000001
 40
0.0
 40
0.0
 40
0.0
 40
0.0
 40
0.1109834532
 40
0.2210452719
 40
0.2765280935
 40
0.3326604962
 40
0.3897565307
 40
0.4481544173
 40
0.5082244091
 40
0.5703524641
 40
0.6349316613
 40
0.7023331653
 40
0.772801067
 40
0.8463167387
 40
0.9223856481
 40
0.9610919945
 40
1.0
 40
1.0
 40
1.0
 40
1.0
 10
22.3950648517
 20
25.03179405
 30
0.0
 10
22.2722461624
 20
25.4468220131
 30
0.0
 10
22.1126549709
 20
26.3011808778
 30
0.0
 10
22.1355925169
 20
27.3872027687
 30
0.0
 10
22.2864293251
 20
28.2397849235
 30
0.0
 10
22.4677884509
 20
28.8735306061
 30
0.0
 10
22.7188365822
 20
29.4953161412
 30
0.0
 10
23.0421773257
 20
30.1003636792
 30
0.0
 10
23.441481971
 20
30.6823150438
 30
0.0
 10
23.9199980789
 20
31.233623972
 30
0.0
 10
24.481125138
 20
31.7444466552
 30
0.0
 10
25.127353035
 20
32.2015970555
 30
0.0
 10
25.8576713182
 20
32.5891024402
 30
0.0
 10
26.6652214064
 20
32.8871069242
 30
0.0
 10
27.3852199962
 20
33.0443685308
 30
0.0
 10
27.9813954794
 20
33.1095704535
 30
0.0
 10
28.2842377977
 20
33.1206062756
 30
0.0
 10
28.4359726295
 20
33.1201260302
 30
0.0
  0
SPLINE
  5
2D0
100
AcDbEntity
  8
0
100
AcDbSpline
 62
7
  6
BYLAYER
 70
0
 71
3
 72
40
 73
36
 74
0
 42
0.0000001
 43
0.0000001
 44
0.0000000001
 40
0.0
 40
0.0
 40
0.0
 40
0.0
 40
0.0019391667
 40
0.0049542611
 40
0.009068386
 40
0.0142794344
 40
0.020572601
 40
0.0279314176
 40
0.0457814866
 40
0.0676762638
 40
0.093444196
 40
0.122891601
 40
0.1557519237
 40
0.1916910587
 40
0.2303730757
 40
0.3146256253
 40
0.4055725896
 40
0.4998853635
 40
0.5472587185
 40
0.5942054452
 40
0.68513212
 40
0.769466702
 40
0.8081841803
 40
0.8441016734
 40
0.8769248979
 40
0.906393478
 40
0.9322445701
 40
0.9542156761
 40
0.9720759179
 40
0.9794176262
 40
0.9856877612
 40
0.9908807444
 40
0.9949926095
 40
0.9980252227
 40
1.0
 40
1.0
 40
1.0
 40
1.0
 10
33.6784630654
 20
11.2739759639
 30
0.0
 10
33.6726278364
 20
11.2705076905
 30
0.0
 10
33.6560310396
 20
11.2648037258
 30
0.0
 10
33.625197778
 20
11.2575370339
 30
0.0
 10
33.582548571
 20
11.2503207658
 30
0.0
 10
33.5283686803
 20
11.2430739371
 30
0.0
 10
33.4627286929
 20
11.2358109432
 30
0.0
 10
33.3529504492
 20
11.2253614023
 30
0.0
 10
33.1885582511
 20
11.2124435565
 30
0.0
 10
32.9597280599
 20
11.1972692173
 30
0.0
 10
32.690220063
 20
11.1821459526
 30
0.0
 10
32.3822578434
 20
11.1674045574
 30
0.0
 10
32.0386506709
 20
11.1527801731
 30
0.0
 10
31.6627049738
 20
11.1378013642
 30
0.0
 10
31.1069458314
 20
11.1170952905
 30
0.0
 10
30.3586859096
 20
11.0913169232
 30
0.0
 10
29.4156869985
 20
11.0624568977
 30
0.0
 10
28.6017231004
 20
11.0376404718
 30
0.0
 10
27.9417254035
 20
11.0170861801
 30
0.0
 10
27.2935575994
 20
10.9974794921
 30
0.0
 10
26.5160724649
 20
10.9736662111
 30
0.0
 10
25.7674761616
 20
10.9477727061
 30
0.0
 10
25.2113782811
 20
10.9271515201
 30
0.0
 10
24.8355079576
 20
10.9123246064
 30
0.0
 10
24.4920391214
 20
10.8975365801
 30
0.0
 10
24.1838457626
 20
10.882713992
 30
0.0
 10
23.9136981071
 20
10.8677046797
 30
0.0
 10
23.6842722888
 20
10.8525320127
 30
0.0
 10
23.5196360361
 20
10.8396202012
 30
0.0
 10
23.409962156
 20
10.8291771444
 30
0.0
 10
23.3445274719
 20
10.8219167413
 30
0.0
 10
23.2905024242
 20
10.8146383219
 30
0.0
 10
23.2478728407
 20
10.8074054223
 30
0.0
 10
23.2168443375
 20
10.8001414328
 30
0.0
 10
23.2000749621
 20
10.7944282509
 30
0.0
 10
23.1940785622
 20
10.7909887866
 30
0.0
  0
SPLINE
  5
2D1
100
AcDbEntity
  8
0
100
AcDbSpline
 62
7
  6
BYLAYER
 70
0
 71
3
 72
9
 73
5
 74
0
 42
0.0000001
 43
0.0000001
 44
0.0000000001
 40
0.0
 40
0.0
 40
0.0
 40
0.0
 40
0.7168165282
 40
1.0
 40
1.0
 40
1.0
 40
1.0
 10
22.43597263
 20
12.2114645074
 30
0.0
 10
22.4359726842
 20
12.212396869
 30
0.0
 10
22.4364537072
 20
12.2137049001
 30
0.0
 10
22.4372360127
 20
12.2147384483
 30
0.0
 10
22.4374735714
 20
12.2150199396
 30
0.0
  0
SPLINE
  5
2D2
100
AcDbEntity
  8
0
100
AcDbSpline
 62
7
  6
BYLAYER
 70
0
 71
3
 72
27
 73
23
 74
0
 42
0.0000001
 43
0.0000001
 44
0.0000000001
 40
0.0
 40
0.0
 40
0.0
 40
0.0
 40
0.0010513463
 40
0.0026067429
 40
0.0073630799
 40
0.0143802167
 40
0.0236754862
 40
0.0352400271
 40
0.0490476595
 40
0.0650689267
 40
0.0832729318
 40
0.1036200766
 40
0.1260589617
 40
0.1770013926
 40
0.2356397933
 40
0.301415461
 40
0.3737254815
 40
0.4518889732
 40
0.5351852702
 40
0.6228171717
 40
0.8078251534
 40
1.0
 40
1.0
 40
1.0
 40
1.0
 10
22.4374735714
 20
12.2150199396
 30
0.0
 10
22.4388314272
 20
12.2166289088
 30
0.0
 10
22.4432842335
 20
12.2195984101
 30
0.0
 10
22.4568461312
 20
12.2253231473
 30
0.0
 10
22.4829019637
 20
12.2317716242
 30
0.0
 10
22.5243937296
 20
12.2391811359
 30
0.0
 10
22.579753192
 20
12.2466393272
 30
0.0
 10
22.6487579888
 20
12.2542003495
 30
0.0
 10
22.7313079554
 20
12.2617929575
 30
0.0
 10
22.8271937925
 20
12.2694167973
 30
0.0
 10
22.936211547
 20
12.277055874
 30
0.0
 10
23.0581073666
 20
12.2847073286
 30
0.0
 10
23.2454996178
 20
12.2953792182
 30
0.0
 10
23.5095516105
 20
12.3085028829
 30
0.0
 10
23.8603818791
 20
12.3237133175
 30
0.0
 10
24.2540356271
 20
12.3389630872
 30
0.0
 10
24.6868144321
 20
12.3542385373
 30
0.0
 10
25.1546982829
 20
12.3695363096
 30
0.0
 10
25.6532797122
 20
12.3848449159
 30
0.0
 10
26.3657531485
 20
12.4056370859
 30
0.0
 10
27.2962126697
 20
12.4312020939
 30
0.0
 10
28.0512679757
 20
12.4513402408
 30
0.0
 10
28.4359726285
 20
12.461465512
 30
0.0
  0
SPLINE
  5
2D3
100
AcDbEntity
  8
0
100
AcDbSpline
 62
7
  6
BYLAYER
 70
0
 71
3
 72
40
 73
36
 74
0
 42
0.0000001
 43
0.0000001
 44
0.0000000001
 40
0.0
 40
0.0
 40
0.0
 40
0.0
 40
0.0019442851
 40
0.0049678927
 40
0.009086092
 40
0.0142942425
 40
0.0205808755
 40
0.0279319517
 40
0.0457651596
 40
0.0676506782
 40
0.0934255819
 40
0.1228890501
 40
0.1557468429
 40
0.1916747918
 40
0.2303479794
 40
0.3146135621
 40
0.4055631128
 40
0.4998770952
 40
0.5472516977
 40
0.5941974387
 40
0.685133012
 40
0.7694747357
 40
0.80817832
 40
0.8440897154
 40
0.8769228579
 40
0.9064041843
 40
0.932257719
 40
0.9542127653
 40
0.9720509452
 40
0.979391383
 40
0.9856652969
 40
0.9908636492
 40
0.9949816714
 40
0.998020949
 40
1.0
 40
1.0
 40
1.0
 40
1.0
 10
33.6786433626
 20
10.2738866916
 30
0.0
 10
33.6727832877
 20
10.2704247355
 30
0.0
 10
33.6561108514
 20
10.264781031
 30
0.0
 10
33.6251910331
 20
10.2576236817
 30
0.0
 10
33.5824969933
 20
10.2504650298
 30
0.0
 10
33.528333808
 20
10.2432243815
 30
0.0
 10
33.462755308
 20
10.2359327177
 30
0.0
 10
33.3530912278
 20
10.2253949207
 30
0.0
 10
33.1888217153
 20
10.2123518548
 30
0.0
 10
32.9600533968
 20
10.1971268059
 30
0.0
 10
32.6904791485
 20
10.1821467717
 30
0.0
 10
32.3824252222
 20
10.1676064026
 30
0.0
 10
32.0388046633
 20
10.1528281702
 30
0.0
 10
31.6629271603
 20
10.1377874839
 30
0.0
 10
31.1071772981
 20
10.1169673703
 30
0.0
 10
30.3588599484
 20
10.0913998621
 30
0.0
 10
29.4157678846
 20
10.0625936214
 30
0.0
 10
28.6017685763
 20
10.0374284759
 30
0.0
 10
27.9417373377
 20
10.017047082
 30
0.0
 10
27.2935062316
 20
9.9977251129
 30
0.0
 10
26.5159518034
 20
9.9735640827
 30
0.0
 10
25.7673229824
 20
9.9476544767
 30
0.0
 10
25.2112444031
 20
9.927203231
 30
0.0
 10
24.8353944706
 20
9.9124189335
 30
0.0
 10
24.4918577282
 20
9.8975784128
 30
0.0
 10
24.1835703597
 20
9.8826564714
 30
0.0
 10
23.9134208272
 20
9.8675662407
 30
0.0
 10
23.6841100105
 20
9.8524419223
 30
0.0
 10
23.519591183
 20
9.8397200901
 30
0.0
 10
23.4099795806
 20
9.8293007328
 30
0.0
 10
23.3445178498
 20
9.8220115124
 30
0.0
 10
23.290445017
 20
9.8146686676
 30
0.0
 10
23.2477634262
 20
9.8073529433
 30
0.0
 10
23.2166858261
 20
9.8000315952
 30
0.0
 10
23.1998840166
 20
9.7942967651
 30
0.0
 10
23.1938739429
 20
9.7908505866
 30
0.0
  0
SPLINE
  5
2D4
100
AcDbEntity
  8
0
100
AcDbSpline
 62
7
  6
BYLAYER
 70
0
 71
3
 72
40
 73
36
 74
0
 42
0.0000001
 43
0.0000001
 44
0.0000000001
 40
0.0
 40
0.0
 40
0.0
 40
0.0
 40
0.0019514307
 40
0.0049801211
 40
0.0090993237
 40
0.0143031406
 40
0.0205826177
 40
0.0279268135
 40
0.0457480505
 40
0.0676339707
 40
0.0934265302
 40
0.1228992246
 40
0.1557516882
 40
0.1916693912
 40
0.2303379379
 40
0.3146238621
 40
0.4055722508
 40
0.499887707
 40
0.5472629328
 40
0.5942085037
 40
0.685152755
 40
0.7694896738
 40
0.8081809716
 40
0.8440920534
 40
0.8769359592
 40
0.9064262655
 40
0.9322729701
 40
0.9542016992
 40
0.9720296819
 40
0.9793717566
 40
0.9856504256
 40
0.9908545925
 40
0.9949777666
 40
0.9980208271
 40
1.0
 40
1.0
 40
1.0
 40
1.0
 10
33.6786806925
 20
9.2738552921
 30
0.0
 10
33.6727734244
 20
9.2704240722
 30
0.0
 10
33.6560475604
 20
9.2648252906
 30
0.0
 10
33.6250625005
 20
9.2577283555
 30
0.0
 10
33.5823587722
 20
9.2506006075
 30
0.0
 10
33.5282329007
 20
9.2433444334
 30
0.0
 10
33.4627229848
 20
9.2360066335
 30
0.0
 10
33.3531580992
 20
9.2253595822
 30
0.0
 10
33.188958682
 20
9.2121897887
 30
0.0
 10
32.9601587717
 20
9.1970178114
 30
0.0
 10
32.690470136
 20
9.1822571644
 30
0.0
 10
32.3823318744
 20
9.1677519792
 30
0.0
 10
32.0387309222
 20
9.152835034
 30
0.0
 10
31.662917802
 20
9.1377194361
 30
0.0
 10
31.1071374206
 20
9.1168288492
 30
0.0
 10
30.3587403288
 20
9.0915548783
 30
0.0
 10
29.4155564217
 20
9.0626302685
 30
0.0
 10
28.6015420369
 20
9.0371832007
 30
0.0
 10
27.9414774793
 20
9.0171314488
 30
0.0
 10
27.2931953198
 20
8.9979040396
 30
0.0
 10
26.5156196628
 20
8.9733848912
 30
0.0
 10
25.7669978502
 20
8.9475988738
 30
0.0
 10
25.2109604407
 20
8.9273048336
 30
0.0
 10
24.8351093233
 20
8.9124722588
 30
0.0
 10
24.4914984579
 20
8.897573991
 30
0.0
 10
24.1831618538
 20
8.8825685527
 30
0.0
 10
23.9130959714
 20
8.8673887662
 30
0.0
 10
23.6839178479
 20
8.8524805421
 30
0.0
 10
23.5195105987
 20
8.8398349663
 30
0.0
 10
23.409911836
 20
8.8293897196
 30
0.0
 10
23.3444110718
 20
8.8220488006
 30
0.0
 10
23.290289556
 20
8.8146441079
 30
0.0
 10
23.2475664371
 20
8.8072568452
 30
0.0
 10
23.2164674559
 20
8.7998875655
 30
0.0
 10
23.1996533683
 20
8.7941481268
 30
0.0
 10
23.193642069
 20
8.7907028805
 30
0.0
  0
SPLINE
  5
2D5
100
AcDbEntity
  8
0
100
AcDbSpline
 62
7
  6
BYLAYER
 70
0
 71
3
 72
9
 73
5
 74
0
 42
0.0000001
 43
0.0000001
 44
0.0000000001
 40
0.0
 40
0.0
 40
0.0
 40
0.0
 40
0.7169969041
 40
1.0
 40
1.0
 40
1.0
 40
1.0
 10
34.4359726283
 20
12.8530526668
 30
0.0
 10
34.4359725743
 20
12.8521241089
 30
0.0
 10
34.4354955597
 20
12.8508215768
 30
0.0
 10
34.4347183749
 20
12.8497911173
 30
0.0
 10
34.4344824723
 20
12.8495106218
 30
0.0
  0
SPLINE
  5
2D6
100
AcDbEntity
  8
0
100
AcDbSpline
 62
7
  6
BYLAYER
 70
0
 71
3
 72
27
 73
23
 74
0
 42
0.0000001
 43
0.0000001
 44
0.0000000001
 40
0.0
 40
0.0
 40
0.0
 40
0.0
 40
0.0010498141
 40
0.002603531
 40
0.0073565306
 40
0.0143705318
 40
0.0236629129
 40
0.0352248213
 40
0.0490300818
 40
0.0650492457
 40
0.0832514262
 40
0.1035970328
 40
0.1260346558
 40
0.1769753249
 40
0.2356129973
 40
0.3013889345
 40
0.3737001973
 40
0.4518657299
 40
0.535164758
 40
0.6227999845
 40
0.807815894
 40
1.0
 40
1.0
 40
1.0
 40
1.0
 10
34.4344824723
 20
12.8495106218
 30
0.0
 10
34.4331293259
 20
12.8479016893
 30
0.0
 10
34.4286838148
 20
12.8449317357
 30
0.0
 10
34.4151363591
 20
12.8392070251
 30
0.0
 10
34.3890967423
 20
12.832758623
 30
0.0
 10
34.3476242641
 20
12.8253484621
 30
0.0
 10
34.2922822504
 20
12.8178885879
 30
0.0
 10
34.2232934711
 20
12.8103251002
 30
0.0
 10
34.140757758
 20
12.8027302183
 30
0.0
 10
34.0448844217
 20
12.7951049971
 30
0.0
 10
33.9358772997
 20
12.7874664029
 30
0.0
 10
33.8139902777
 20
12.7798172885
 30
0.0
 10
33.626606448
 20
12.7691492114
 30
0.0
 10
33.3625611828
 20
12.7560274461
 30
0.0
 10
33.0117347794
 20
12.7408086501
 30
0.0
 10
32.6180786321
 20
12.7255522273
 30
0.0
 10
32.1852914351
 20
12.7102791926
 30
0.0
 10
31.7173940403
 20
12.6949880358
 30
0.0
 10
31.2187948169
 20
12.6796863922
 30
0.0
 10
30.5062918087
 20
12.6588818789
 30
0.0
 10
29.5757903031
 20
12.6332538233
 30
0.0
 10
28.8206933669
 20
12.6133099861
 30
0.0
 10
28.4359726285
 20
12.603052131
 30
0.0
  0
SPLINE
  5
2D7
100
AcDbEntity
  8
0
100
AcDbSpline
 62
7
  6
BYLAYER
 70
0
 71
3
 72
23
 73
19
 74
0
 42
0.0000001
 43
0.0000001
 44
0.0000000001
 40
0.0
 40
0.0
 40
0.0
 40
0.0
 40
0.0039194581
 40
0.0099812023
 40
0.0182144235
 40
0.0286130472
 40
0.0411617668
 40
0.0558414873
 40
0.0914822884
 40
0.1352827768
 40
0.1869238979
 40
0.2458893159
 40
0.3115922107
 40
0.383425008
 40
0.4607797765
 40
0.6294217896
 40
0.811337736
 40
1.0
 40
1.0
 40
1.0
 40
1.0
 10
33.6786076608
 20
8.2738618377
 30
0.0
 10
33.6726410843
 20
8.2704754642
 30
0.0
 10
33.6558705072
 20
8.2649321724
 30
0.0
 10
33.624851247
 20
8.2578412695
 30
0.0
 10
33.582170014
 20
8.2506969025
 30
0.0
 10
33.5280915892
 20
8.2433998366
 30
0.0
 10
33.4626369446
 20
8.2360061352
 30
0.0
 10
33.3531172346
 20
8.2252569018
 30
0.0
 10
33.1888909056
 20
8.2119954608
 30
0.0
 10
32.9599344128
 20
8.1969485613
 30
0.0
 10
32.6900470213
 20
8.1824419878
 30
0.0
 10
32.3817830519
 20
8.167814425
 30
0.0
 10
32.0381564094
 20
8.1528031815
 30
0.0
 10
31.6623209635
 20
8.137604165
 30
0.0
 10
31.1063865576
 20
8.1167209954
 30
0.0
 10
30.3577880633
 20
8.0916961514
 30
0.0
 10
29.4143936348
 20
8.0625226762
 30
0.0
 10
28.7660570032
 20
8.0421504486
 30
0.0
 10
28.4359760786
 20
8.0321447263
 30
0.0
  0
SPLINE
  5
2D8
100
AcDbEntity
  8
0
100
AcDbSpline
 62
7
  6
BYLAYER
 70
0
 71
3
 72
29
 73
25
 74
0
 42
0.0000001
 43
0.0000001
 44
0.0000000001
 40
0.0
 40
0.0
 40
0.0
 40
0.0
 40
0.0007162763
 40
0.0018288107
 40
0.003466545
 40
0.0056668148
 40
0.0084434311
 40
0.0118023362
 40
0.0202755608
 40
0.0310894326
 40
0.0442213061
 40
0.0596412511
 40
0.0773176117
 40
0.1192792864
 40
0.169697988
 40
0.2281065575
 40
0.2939318512
 40
0.3665531031
 40
0.4452660819
 40
0.5293248103
 40
0.6179023392
 40
0.7101503417
 40
0.8052119322
 40
1.0
 40
1.0
 40
1.0
 40
1.0
 10
22.4359726319
 20
16.2114667551
 30
0.0
 10
22.4359727296
 20
16.2129020483
 30
0.0
 10
22.4380803774
 20
16.2163660605
 30
0.0
 10
22.4440603397
 20
16.2199350615
 30
0.0
 10
22.4532469528
 20
16.2237630436
 30
0.0
 10
22.4659693083
 20
16.2275229545
 30
0.0
 10
22.4822301499
 20
16.2313653921
 30
0.0
 10
22.5109751041
 20
16.2369332374
 30
0.0
 10
22.555872988
 20
16.2436303983
 30
0.0
 10
22.6203878393
 20
16.2512712143
 30
0.0
 10
22.6988990404
 20
16.2589570702
 30
0.0
 10
22.7912115207
 20
16.2666818137
 30
0.0
 10
22.9412169608
 20
16.2776421894
 30
0.0
 10
23.161354619
 20
16.2909835475
 30
0.0
 10
23.4631209838
 20
16.3063457476
 30
0.0
 10
23.812756853
 20
16.3217607237
 30
0.0
 10
24.2069179458
 20
16.33722734
 30
0.0
 10
24.6417929149
 20
16.3527143274
 30
0.0
 10
25.1132248392
 20
16.3682235172
 30
0.0
 10
25.6166461003
 20
16.3837428736
 30
0.0
 10
26.1472007695
 20
16.399280396
 30
0.0
 10
26.6998117591
 20
16.4148361556
 30
0.0
 10
27.4651840916
 20
16.4357246918
 30
0.0
 10
28.0457906469
 20
16.4510338554
 30
0.0
 10
28.4359726305
 20
16.4614655122
 30
0.0
  0
SPLINE
  5
2D9
100
AcDbEntity
  8
0
100
AcDbSpline
 62
7
  6
BYLAYER
 70
0
 71
3
 72
21
 73
17
 74
0
 42
0.0000001
 43
0.0000001
 44
0.0000000001
 40
0.0
 40
0.0
 40
0.0
 40
0.0
 40
0.1092372248
 40
0.2198194582
 40
0.3332084226
 40
0.391522266
 40
0.4511860766
 40
0.5124614029
 40
0.5756061383
 40
0.6408725069
 40
0.7084617509
 40
0.7784579381
 40
0.8507284661
 40
0.9248278091
 40
0.9623485065
 40
1.0
 40
1.0
 40
1.0
 40
1.0
 10
34.4359673675
 20
26.6164468027
 30
0.0
 10
34.4355222658
 20
26.9677145236
 30
0.0
 10
34.3780948005
 20
27.6758223202
 30
0.0
 10
34.1202821077
 20
28.720341583
 30
0.0
 10
33.7582509907
 20
29.5580019339
 30
0.0
 10
33.3769419558
 20
30.1977914913
 30
0.0
 10
33.0379054576
 20
30.6649939659
 30
0.0
 10
32.6465324701
 20
31.1102818851
 30
0.0
 10
32.2003308974
 20
31.5276554115
 30
0.0
 10
31.6976298261
 20
31.9097305719
 30
0.0
 10
31.1378618823
 20
32.2471715703
 30
0.0
 10
30.5230855306
 20
32.5290907582
 30
0.0
 10
29.8592959273
 20
32.7429876075
 30
0.0
 10
29.2769070432
 20
32.8546281442
 30
0.0
 10
28.7988744758
 20
32.9006695432
 30
0.0
 10
28.557045805
 20
32.9083803688
 30
0.0
 10
28.4359726305
 20
32.9079939958
 30
0.0
  0
SPLINE
  5
2DA
100
AcDbEntity
  8
0
100
AcDbSpline
 62
7
  6
BYLAYER
 70
0
 71
3
 72
9
 73
5
 74
0
 42
0.0000001
 43
0.0000001
 44
0.0000000001
 40
0.0
 40
0.0
 40
0.0
 40
0.0
 40
0.7169354842
 40
1.0
 40
1.0
 40
1.0
 40
1.0
 10
22.4359726324
 20
9.2114668591
 30
0.0
 10
22.43597272
 20
9.2123969789
 30
0.0
 10
22.436451316
 20
9.2137017441
 30
0.0
 10
22.4372305634
 20
9.2147334792
 30
0.0
 10
22.4374671243
 20
9.2150143717
 30
0.0
  0
SPLINE
  5
2DB
100
AcDbEntity
  8
0
100
AcDbSpline
 62
7
  6
BYLAYER
 70
0
 71
3
 72
27
 73
23
 74
0
 42
0.0000001
 43
0.0000001
 44
0.0000000001
 40
0.0
 40
0.0
 40
0.0
 40
0.0
 40
0.0010504124
 40
0.0026047657
 40
0.0073590159
 40
0.0143742028
 40
0.0236677061
 40
0.0352306397
 40
0.0490368212
 40
0.0650568063
 40
0.0832597092
 40
0.1036059039
 40
0.1260439924
 40
0.1769853318
 40
0.235623275
 40
0.3013991353
 40
0.3737099669
 40
0.451874691
 40
0.535172509
 40
0.6228062685
 40
0.8078192141
 40
1.0
 40
1.0
 40
1.0
 40
1.0
 10
22.4374671243
 20
9.2150143717
 30
0.0
 10
22.438822128
 20
9.2166233035
 30
0.0
 10
22.4432705456
 20
9.2195929516
 30
0.0
 10
22.4568237688
 20
9.2253169963
 30
0.0
 10
22.4828698051
 20
9.2317641151
 30
0.0
 10
22.5243498704
 20
9.2391724832
 30
0.0
 10
22.5796987227
 20
9.246630659
 30
0.0
 10
22.6486937406
 20
9.2541929223
 30
0.0
 10
22.7312349683
 20
9.2617871199
 30
0.0
 10
22.8271131364
 20
9.2694123207
 30
0.0
 10
22.9361243435
 20
9.2770517019
 30
0.0
 10
23.0580146837
 20
9.2847022953
 30
0.0
 10
23.2454016138
 20
9.295372549
 30
0.0
 10
23.5094493205
 20
9.3084955107
 30
0.0
 10
23.8602771807
 20
9.3237107148
 30
0.0
 10
24.253932519
 20
9.3389630162
 30
0.0
 10
24.6867165885
 20
9.3542345512
 30
0.0
 10
25.1546083591
 20
9.3695296298
 30
0.0
 10
25.6531996575
 20
9.3848417342
 30
0.0
 10
26.3656907094
 20
9.4056392969
 30
0.0
 10
27.2961772686
 20
9.4312012328
 30
0.0
 10
28.0512557399
 20
9.4513314866
 30
0.0
 10
28.4359726305
 20
9.4614655122
 30
0.0
  0
SPLINE
  5
2DC
100
AcDbEntity
  8
0
100
AcDbSpline
 62
7
  6
BYLAYER
 70
0
 71
3
 72
24
 73
20
 74
0
 42
0.0000001
 43
0.0000001
 44
0.0000000001
 40
0.0
 40
0.0
 40
0.0
 40
0.0
 40
0.1894072292
 40
0.3719714254
 40
0.5410777254
 40
0.6186495626
 40
0.6906177898
 40
0.7563265699
 40
0.8151909859
 40
0.8666693559
 40
0.9103066934
 40
0.9457064697
 40
0.9602190583
 40
0.9725675042
 40
0.982724741
 40
0.9906726871
 40
0.9964160439
 40
0.9984719312
 40
1.0
 40
1.0
 40
1.0
 40
1.0
 10
28.4359726305
 20
9.6030494575
 30
0.0
 10
28.0572100874
 20
9.5929183987
 30
0.0
 10
27.3133613688
 20
9.5733143188
 30
0.0
 10
26.2313767615
 20
9.5435328245
 30
0.0
 10
25.3730765767
 20
9.518150017
 30
0.0
 10
24.7359780564
 20
9.4974785636
 30
0.0
 10
24.3056475214
 20
9.4824406175
 30
0.0
 10
23.9127641437
 20
9.4674171862
 30
0.0
 10
23.5609012552
 20
9.4524256173
 30
0.0
 10
23.2532324209
 20
9.4374915451
 30
0.0
 10
22.9925639002
 20
9.4226332897
 30
0.0
 10
22.8058624609
 20
9.409676039
 30
0.0
 10
22.6817702734
 20
9.3989659622
 30
0.0
 10
22.6080937159
 20
9.3915004547
 30
0.0
 10
22.5476096059
 20
9.3841070146
 30
0.0
 10
22.5004768684
 20
9.3767572147
 30
0.0
 10
22.4695802875
 20
9.37032412
 30
0.0
 10
22.4517590189
 20
9.3647798303
 30
0.0
 10
22.4451273723
 20
9.3619622622
 30
0.0
 10
22.442471618
 20
9.3604486353
 30
0.0
  0
SPLINE
  5
2DD
100
AcDbEntity
  8
0
100
AcDbSpline
 62
7
  6
BYLAYER
 70
0
 71
3
 72
26
 73
22
 74
0
 42
0.0000001
 43
0.0000001
 44
0.0000000001
 40
0.0
 40
0.0
 40
0.0
 40
0.0
 40
0.1894745763
 40
0.3720983495
 40
0.4587482105
 40
0.5412491619
 40
0.6188353878
 40
0.690811901
 40
0.7565223546
 40
0.8153813895
 40
0.8668468097
 40
0.910463531
 40
0.9292024389
 40
0.9458351302
 40
0.9603306359
 40
0.972660067
 40
0.9827963302
 40
0.9907215598
 40
0.9964407376
 40
0.9984842023
 40
1.0
 40
1.0
 40
1.0
 40
1.0
 10
28.4359726305
 20
9.4614655122
 30
0.0
 10
28.8148860326
 20
9.4714466651
 30
0.0
 10
29.5590063665
 20
9.4912801716
 30
0.0
 10
30.4763892465
 20
9.5164642972
 30
0.0
 10
31.1798185595
 20
9.5369316314
 30
0.0
 10
31.673187096
 20
9.5520104377
 30
0.0
 10
32.1371873866
 20
9.5670797795
 30
0.0
 10
32.5675800684
 20
9.5821285692
 30
0.0
 10
32.9604849098
 20
9.5971558779
 30
0.0
 10
33.3123262492
 20
9.6121425533
 30
0.0
 10
33.619925343
 20
9.6270898877
 30
0.0
 10
33.8472614016
 20
9.6400391919
 30
0.0
 10
34.0049247347
 20
9.6506213467
 30
0.0
 10
34.1044016114
 20
9.6581392676
 30
0.0
 10
34.1910185243
 20
9.6656324832
 30
0.0
 10
34.2645825192
 20
9.6730988202
 30
0.0
 10
34.3249423449
 20
9.6804933708
 30
0.0
 10
34.3719387635
 20
9.6878434652
 30
0.0
 10
34.4027164645
 20
9.6942759816
 30
0.0
 10
34.4204346738
 20
9.6998237845
 30
0.0
 10
34.427013037
 20
9.7026435942
 30
0.0
 10
34.4296392185
 20
9.7041596363
 30
0.0
  0
SPLINE
  5
2DE
100
AcDbEntity
  8
0
100
AcDbSpline
 62
7
  6
BYLAYER
 70
0
 71
3
 72
24
 73
20
 74
0
 42
0.0000001
 43
0.0000001
 44
0.0000000001
 40
0.0
 40
0.0
 40
0.0
 40
0.0
 40
0.1893941182
 40
0.3719468605
 40
0.54104466
 40
0.6186136564
 40
0.6905801805
 40
0.7562886248
 40
0.8151541188
 40
0.866634993
 40
0.9102762938
 40
0.9456816456
 40
0.9601976171
 40
0.9725498051
 40
0.9827111032
 40
0.9906634012
 40
0.9964113633
 40
0.9984696061
 40
1.0
 40
1.0
 40
1.0
 40
1.0
 10
28.4359726299
 20
10.6030520897
 30
0.0
 10
28.0572390135
 20
10.5929149184
 30
0.0
 10
27.3134443977
 20
10.5733112532
 30
0.0
 10
26.2315331356
 20
10.5435320023
 30
0.0
 10
25.3732836577
 20
10.5181702137
 30
0.0
 10
24.736215811
 20
10.4974885897
 30
0.0
 10
24.3058983218
 20
10.4824391987
 30
0.0
 10
23.9130193441
 20
10.4674201823
 30
0.0
 10
23.5611517421
 20
10.4524418522
 30
0.0
 10
23.2534696334
 20
10.4375117799
 30
0.0
 10
22.9927789793
 20
10.4226487225
 30
0.0
 10
22.806053217
 20
10.4096868077
 30
0.0
 10
22.6819364871
 20
10.3989754823
 30
0.0
 10
22.6082378999
 20
10.391510273
 30
0.0
 10
22.5477295389
 20
10.3841187711
 30
0.0
 10
22.5005701028
 20
10.3767729509
 30
0.0
 10
22.4696500557
 20
10.370343861
 30
0.0
 10
22.4518083263
 20
10.3648031699
 30
0.0
 10
22.4451660943
 20
10.3619871944
 30
0.0
 10
22.4425044905
 20
10.360474483
 30
0.0
  0
SPLINE
  5
2DF
100
AcDbEntity
  8
0
100
AcDbSpline
 62
7
  6
BYLAYER
 70
0
 71
3
 72
26
 73
22
 74
0
 42
0.0000001
 43
0.0000001
 44
0.0000000001
 40
0.0
 40
0.0
 40
0.0
 40
0.0
 40
0.1894678739
 40
0.3720857769
 40
0.4587330527
 40
0.541231875
 40
0.618816587
 40
0.6907922182
 40
0.7565024673
 40
0.8153619926
 40
0.8668287068
 40
0.9104474952
 40
0.9291877659
 40
0.9458220123
 40
0.9603192616
 40
0.9726506368
 40
0.9827890522
 40
0.9907166024
 40
0.9964382361
 40
0.9984829597
 40
1.0
 40
1.0
 40
1.0
 40
1.0
 10
28.4359726299
 20
10.4614655121
 30
0.0
 10
28.8148717869
 20
10.4714307017
 30
0.0
 10
29.5589639125
 20
10.4912865685
 30
0.0
 10
30.4763136841
 20
10.5164609029
 30
0.0
 10
31.1797195081
 20
10.5369277068
 30
0.0
 10
31.6730738936
 20
10.5520082756
 30
0.0
 10
32.1370636281
 20
10.5670764627
 30
0.0
 10
32.5674497675
 20
10.5821227982
 30
0.0
 10
32.9603521335
 20
10.5971497209
 30
0.0
 10
33.3121954361
 20
10.6121372269
 30
0.0
 10
33.6198012545
 20
10.6270838575
 30
0.0
 10
33.8471461071
 20
10.6400317074
 30
0.0
 10
34.0048189537
 20
10.6506132472
 30
0.0
 10
34.1043048482
 20
10.6581312342
 30
0.0
 10
34.1909319757
 20
10.6656246888
 30
0.0
 10
34.2645074542
 20
10.6730912169
 30
0.0
 10
34.3248799842
 20
10.6804857243
 30
0.0
 10
34.3718903896
 20
10.6878352992
 30
0.0
 10
34.4026803065
 20
10.6942672367
 30
0.0
 10
34.420409132
 20
10.6998141662
 30
0.0
 10
34.4269929888
 20
10.7026335225
 30
0.0
 10
34.4296222258
 20
10.7041492224
 30
0.0
  0
SPLINE
  5
2E0
100
AcDbEntity
  8
0
100
AcDbSpline
 62
7
  6
BYLAYER
 70
0
 71
3
 72
24
 73
20
 74
0
 42
0.0000001
 43
0.0000001
 44
0.0000000001
 40
0.0
 40
0.0
 40
0.0
 40
0.0
 40
0.1893849643
 40
0.3719294672
 40
0.5410210955
 40
0.6185881508
 40
0.690553592
 40
0.7562617937
 40
0.8151279833
 40
0.8666106216
 40
0.9102547657
 40
0.9456639623
 40
0.9601822104
 40
0.9725369511
 40
0.982701116
 40
0.9906565612
 40
0.9964078985
 40
0.9984678837
 40
1.0
 40
1.0
 40
1.0
 40
1.0
 10
28.4359726289
 20
11.603049318
 30
0.0
 10
28.0572584601
 20
11.5929253601
 30
0.0
 10
27.3135017048
 20
11.5733165401
 30
0.0
 10
26.2316417674
 20
11.5435391734
 30
0.0
 10
25.3734288707
 20
11.5181611829
 30
0.0
 10
24.7363815134
 20
11.4974926462
 30
0.0
 10
24.3060717858
 20
11.4824562955
 30
0.0
 10
23.9131957023
 20
11.4674342439
 30
0.0
 10
23.5613255419
 20
11.4524441583
 30
0.0
 10
23.2536341346
 20
11.4375122963
 30
0.0
 10
22.9929271775
 20
11.4226565241
 30
0.0
 10
22.8061837312
 20
11.4097008445
 30
0.0
 10
22.6820498632
 20
11.3989919619
 30
0.0
 10
22.6083360615
 20
11.3915269245
 30
0.0
 10
22.5478108804
 20
11.3841338643
 30
0.0
 10
22.5006330685
 20
11.3767846915
 30
0.0
 10
22.4696971299
 20
11.3703520382
 30
0.0
 10
22.4518417235
 20
11.3648094047
 30
0.0
 10
22.4451924211
 20
11.3619927916
 30
0.0
 10
22.4425268846
 20
11.3604800525
 30
0.0
  0
SPLINE
  5
2E1
100
AcDbEntity
  8
0
100
AcDbSpline
 62
7
  6
BYLAYER
 70
0
 71
3
 72
26
 73
22
 74
0
 42
0.0000001
 43
0.0000001
 44
0.0000000001
 40
0.0
 40
0.0
 40
0.0
 40
0.0
 40
0.1894516109
 40
0.3720550284
 40
0.4586962833
 40
0.5411902423
 40
0.6187714689
 40
0.6907451185
 40
0.7564549838
 40
0.8153158198
 40
0.866785677
 40
0.9104094531
 40
0.9291529557
 40
0.9457908935
 40
0.9602922887
 40
0.9726282777
 40
0.9827717805
 40
0.990704825
 40
0.99643229
 40
0.9984800056
 40
1.0
 40
1.0
 40
1.0
 40
1.0
 10
28.4359726289
 20
11.4614655121
 30
0.0
 10
28.8148364336
 20
11.4714259464
 30
0.0
 10
29.5588611399
 20
11.4912866344
 30
0.0
 10
30.4761304063
 20
11.5164543794
 30
0.0
 10
31.1794800349
 20
11.5369204887
 30
0.0
 10
31.6728018326
 20
11.5520013225
 30
0.0
 10
32.1367673753
 20
11.5670670768
 30
0.0
 10
32.5671385887
 20
11.5821100464
 30
0.0
 10
32.9600358343
 20
11.597136162
 30
0.0
 10
33.3118845346
 20
11.6121242283
 30
0.0
 10
33.6195069429
 20
11.6270693685
 30
0.0
 10
33.8468729392
 20
11.6400146819
 30
0.0
 10
34.0045685393
 20
11.6505947645
 30
0.0
 10
34.104075894
 20
11.658112419
 30
0.0
 10
34.190727345
 20
11.6656057946
 30
0.0
 10
34.2643301148
 20
11.6730722327
 30
0.0
 10
34.3247327574
 20
11.6804664949
 30
0.0
 10
34.3717762318
 20
11.6878152996
 30
0.0
 10
34.4025950068
 20
11.6942465228
 30
0.0
 10
34.4203488792
 20
11.6997919354
 30
0.0
 10
34.4269456889
 20
11.7026104659
 30
0.0
 10
34.4295821213
 20
11.7041254642
 30
0.0
  0
SPLINE
  5
2E2
100
AcDbEntity
  8
0
100
AcDbSpline
 62
7
  6
BYLAYER
 70
0
 71
3
 72
24
 73
20
 74
0
 42
0.0000001
 43
0.0000001
 44
0.0000000001
 40
0.0
 40
0.0
 40
0.0
 40
0.0
 40
0.18938197
 40
0.3719240172
 40
0.5410137759
 40
0.6185801541
 40
0.6905451504
 40
0.7562532713
 40
0.8151197175
 40
0.8666029131
 40
0.9102479141
 40
0.9456583996
 40
0.9601774542
 40
0.9725330739
 40
0.9826981559
 40
0.9906545552
 40
0.9964068883
 40
0.9984673801
 40
1.0
 40
1.0
 40
1.0
 40
1.0
 10
28.4359726285
 20
12.6030521312
 30
0.0
 10
28.0572644487
 20
12.5929545896
 30
0.0
 10
27.3135212781
 20
12.5732969428
 30
0.0
 10
26.2316774643
 20
12.5435401394
 30
0.0
 10
25.3734757238
 20
12.5181761576
 30
0.0
 10
24.7364359429
 20
12.4974947411
 30
0.0
 10
24.3061298115
 20
12.482447444
 30
0.0
 10
23.9132548366
 20
12.4674301257
 30
0.0
 10
23.5613833131
 20
12.4524528933
 30
0.0
 10
23.2536889944
 20
12.4375232581
 30
0.0
 10
22.9929774897
 20
12.4226603845
 30
0.0
 10
22.8062288492
 20
12.4096995497
 30
0.0
 10
22.6820893361
 20
12.3989896855
 30
0.0
 10
22.6083703811
 20
12.3915252739
 30
0.0
 10
22.5478395458
 20
12.3841343114
 30
0.0
 10
22.5006554622
 20
12.376788775
 30
0.0
 10
22.4697139072
 20
12.3703596576
 30
0.0
 10
22.4518535453
 20
12.3648195726
 30
0.0
 10
22.4452016796
 20
12.3620039597
 30
0.0
 10
22.442534744
 20
12.3604916564
 30
0.0
  0
SPLINE
  5
2E3
100
AcDbEntity
  8
0
100
AcDbSpline
 62
7
  6
BYLAYER
 70
0
 71
3
 72
24
 73
20
 74
0
 42
0.0000001
 43
0.0000001
 44
0.0000000001
 40
0.0
 40
0.0
 40
0.0
 40
0.0
 40
0.189381539
 40
0.3719227064
 40
0.5410125268
 40
0.6185789991
 40
0.6905441421
 40
0.7562523799
 40
0.8151189888
 40
0.8666023035
 40
0.9102474631
 40
0.9456580133
 40
0.9601770965
 40
0.9725327499
 40
0.982697878
 40
0.9906543493
 40
0.9964067799
 40
0.9984673265
 40
1.0
 40
1.0
 40
1.0
 40
1.0
 10
28.4359726299
 20
15.4614655121
 30
0.0
 10
28.8146800689
 20
15.471561887
 30
0.0
 10
29.5584209489
 20
15.4912137624
 30
0.0
 10
30.6402623003
 20
15.5209788098
 30
0.0
 10
31.4984627427
 20
15.5463442583
 30
0.0
 10
32.1355034547
 20
15.5670202471
 30
0.0
 10
32.5658105398
 20
15.5820637856
 30
0.0
 10
32.9586863794
 20
15.5970834833
 30
0.0
 10
33.3105585575
 20
15.6120660526
 30
0.0
 10
33.6182537711
 20
15.6269967048
 30
0.0
 10
33.8789661859
 20
15.6418565504
 30
0.0
 10
34.0657155911
 20
15.6548143307
 30
0.0
 10
34.1898555067
 20
15.6655228713
 30
0.0
 10
34.2635747143
 20
15.6729871562
 30
0.0
 10
34.3241057697
 20
15.6803790551
 30
0.0
 10
34.3712899801
 20
15.6877267707
 30
0.0
 10
34.4022315431
 20
15.694158193
 30
0.0
 10
34.4200918397
 20
15.6996999124
 30
0.0
 10
34.4267436637
 20
15.7025161747
 30
0.0
 10
34.4294105814
 20
15.7040287281
 30
0.0
  0
SPLINE
  5
2E4
100
AcDbEntity
  8
0
100
AcDbSpline
 62
7
  6
BYLAYER
 70
0
 71
3
 72
25
 73
21
 74
0
 42
0.0000001
 43
0.0000001
 44
0.0000000001
 40
0.0
 40
0.0
 40
0.0
 40
0.0
 40
0.1894242441
 40
0.3720033746
 40
0.4586348905
 40
0.5411210232
 40
0.618696542
 40
0.690666913
 40
0.7563761494
 40
0.8152392447
 40
0.8667143669
 40
0.9103465279
 40
0.9457391117
 40
0.9602473838
 40
0.9725910224
 40
0.982742951
 40
0.9906851368
 40
0.9964223477
 40
0.9984750687
 40
1.0
 40
1.0
 40
1.0
 40
1.0
 10
28.4359726299
 20
15.6030491359
 30
0.0
 10
28.0571686759
 20
15.5930802919
 30
0.0
 10
27.3132561659
 20
15.5732469465
 30
0.0
 10
26.3961218022
 20
15.5480691849
 30
0.0
 10
25.6928649715
 20
15.5276029614
 30
0.0
 10
25.199595966
 20
15.5125262723
 30
0.0
 10
24.7356698123
 20
15.4974670449
 30
0.0
 10
24.3053232225
 20
15.4824293218
 30
0.0
 10
23.9124341929
 20
15.467403603
 30
0.0
 10
23.5605768039
 20
15.4524094812
 30
0.0
 10
23.2529250179
 20
15.4374751167
 30
0.0
 10
22.9922856185
 20
15.42261784
 30
0.0
 10
22.8056162199
 20
15.4096588576
 30
0.0
 10
22.6815560194
 20
15.3989458863
 30
0.0
 10
22.6079080623
 20
15.3914787101
 30
0.0
 10
22.5474555235
 20
15.3840842058
 30
0.0
 10
22.5003573917
 20
15.3767341463
 30
0.0
 10
22.4694909836
 20
15.370301457
 30
0.0
 10
22.4516958343
 20
15.3647566903
 30
0.0
 10
22.4450776863
 20
15.3619388045
 30
0.0
 10
22.4424294058
 20
15.3604246956
 30
0.0
  0
SPLINE
  5
2E5
100
AcDbEntity
  8
0
100
AcDbSpline
 62
7
  6
BYLAYER
 70
0
 71
3
 72
25
 73
21
 74
0
 42
0.0000001
 43
0.0000001
 44
0.0000000001
 40
0.0
 40
0.0
 40
0.0
 40
0.0
 40
0.1894245222
 40
0.3720038058
 40
0.458635239
 40
0.5411212988
 40
0.6186968291
 40
0.6906672576
 40
0.7563765442
 40
0.8152396392
 40
0.8667147371
 40
0.910346819
 40
0.9457393816
 40
0.9602476451
 40
0.9725912691
 40
0.9827431699
 40
0.9906852984
 40
0.9964224274
 40
0.9984751052
 40
1.0
 40
1.0
 40
1.0
 40
1.0
 10
28.4359726285
 20
12.461465512
 30
0.0
 10
28.8147770246
 20
12.4714354909
 30
0.0
 10
29.5586899835
 20
12.491278049
 30
0.0
 10
30.4758251293
 20
12.5164451805
 30
0.0
 10
31.1790818559
 20
12.5369095115
 30
0.0
 10
31.6723504125
 20
12.5519878893
 30
0.0
 10
32.1362763506
 20
12.5670503506
 30
0.0
 10
32.5666229962
 20
12.5820904816
 30
0.0
 10
32.9595122302
 20
12.5971140201
 30
0.0
 10
33.3113697693
 20
12.6121040047
 30
0.0
 10
33.6190213049
 20
12.6270380394
 30
0.0
 10
33.8796602398
 20
12.6418982134
 30
0.0
 10
34.066329207
 20
12.6548595739
 30
0.0
 10
34.1903892279
 20
12.6655732285
 30
0.0
 10
34.2640370844
 20
12.6730401811
 30
0.0
 10
34.3244895321
 20
12.6804335856
 30
0.0
 10
34.3715876197
 20
12.6877815858
 30
0.0
 10
34.4024540579
 20
12.6942122512
 30
0.0
 10
34.4202492723
 20
12.699755696
 30
0.0
 10
34.426867456
 20
12.7025731055
 30
0.0
 10
34.4295157449
 20
12.7040870514
 30
0.0
  0
SPLINE
  5
2E6
100
AcDbEntity
  8
0
100
AcDbSpline
 62
7
  6
BYLAYER
 70
0
 71
3
 72
24
 73
20
 74
0
 42
0.0000001
 43
0.0000001
 44
0.0000000001
 40
0.0
 40
0.0
 40
0.0
 40
0.0
 40
0.1893858665
 40
0.3719306094
 40
0.5410232873
 40
0.6185907966
 40
0.6905566602
 40
0.7562651351
 40
0.8151314882
 40
0.8666140069
 40
0.9102578537
 40
0.9456665533
 40
0.9601845175
 40
0.9725389222
 40
0.9827026698
 40
0.9906576322
 40
0.9964084426
 40
0.9984681535
 40
1.0
 40
1.0
 40
1.0
 40
1.0
 10
28.4359726295
 20
14.4614655121
 30
0.0
 10
28.814690828
 20
14.4715123716
 30
0.0
 10
29.5584471637
 20
14.4912355773
 30
0.0
 10
30.6403129723
 20
14.5209747206
 30
0.0
 10
31.4985299479
 20
14.546347312
 30
0.0
 10
32.1355811895
 20
14.567023856
 30
0.0
 10
32.5658932371
 20
14.5820651352
 30
0.0
 10
32.9587712648
 20
14.5970857304
 30
0.0
 10
33.310642431
 20
14.612070864
 30
0.0
 10
33.6183335211
 20
14.6270019067
 30
0.0
 10
33.8790386147
 20
14.6418604884
 30
0.0
 10
34.0657798134
 20
14.654818541
 30
0.0
 10
34.1899114309
 20
14.665528141
 30
0.0
 10
34.2636231898
 20
14.6729930468
 30
0.0
 10
34.324146009
 20
14.6803852446
 30
0.0
 10
34.3713211901
 20
14.6877327657
 30
0.0
 10
34.4022548782
 20
14.6941637542
 30
0.0
 10
34.4201083615
 20
14.6997053635
 30
0.0
 10
34.4267566644
 20
14.70252162
 30
0.0
 10
34.4294216339
 20
14.7040342675
 30
0.0
  0
SPLINE
  5
2E7
100
AcDbEntity
  8
0
100
AcDbSpline
 62
7
  6
BYLAYER
 70
0
 71
3
 72
24
 73
20
 74
0
 42
0.0000001
 43
0.0000001
 44
0.0000000001
 40
0.0
 40
0.0
 40
0.0
 40
0.0
 40
0.1894000948
 40
0.3719581783
 40
0.5410598761
 40
0.6186301491
 40
0.6905974136
 40
0.7563060039
 40
0.8151710047
 40
0.8666507253
 40
0.9102901842
 40
0.9456929994
 40
0.9602074453
 40
0.9725579395
 40
0.9827173817
 40
0.9906676776
 40
0.9964135161
 40
0.9984706733
 40
1.0
 40
1.0
 40
1.0
 40
1.0
 10
28.4359726295
 20
14.603052134
 30
0.0
 10
28.057222289
 20
14.5930534384
 30
0.0
 10
27.3134081081
 20
14.5732536059
 30
0.0
 10
26.2314615096
 20
14.5435423491
 30
0.0
 10
25.3731888356
 20
14.5181682419
 30
0.0
 10
24.7361075057
 20
14.4974815055
 30
0.0
 10
24.3057843633
 20
14.4824347878
 30
0.0
 10
23.9129034289
 20
14.4674168731
 30
0.0
 10
23.561037849
 20
14.4524378971
 30
0.0
 10
23.2533619256
 20
14.4375061194
 30
0.0
 10
22.9926817124
 20
14.4226412504
 30
0.0
 10
22.8059672639
 20
14.4096792941
 30
0.0
 10
22.6818616771
 20
14.3989685824
 30
0.0
 10
22.6081730389
 20
14.3915038489
 30
0.0
 10
22.547675634
 20
14.384112593
 30
0.0
 10
22.500528242
 20
14.3767664972
 30
0.0
 10
22.46961873
 20
14.3703369457
 30
0.0
 10
22.4517861638
 20
14.3647954485
 30
0.0
 10
22.4451486747
 20
14.3619790287
 30
0.0
 10
22.4424897033
 20
14.3604659897
 30
0.0
  0
SPLINE
  5
2E8
100
AcDbEntity
  8
0
100
AcDbSpline
 62
7
  6
BYLAYER
 70
0
 71
3
 72
24
 73
20
 74
0
 42
0.0000001
 43
0.0000001
 44
0.0000000001
 40
0.0
 40
0.0
 40
0.0
 40
0.0
 40
0.1893862851
 40
0.3719319243
 40
0.541024449
 40
0.6185917968
 40
0.6905574078
 40
0.7562656484
 40
0.815131744
 40
0.8666141344
 40
0.9102578831
 40
0.9456665243
 40
0.9601844399
 40
0.9725388091
 40
0.98270256
 40
0.9906575528
 40
0.996408404
 40
0.9984681366
 40
1.0
 40
1.0
 40
1.0
 40
1.0
 10
28.4359726288
 20
13.6030492094
 30
0.0
 10
28.0572535002
 20
13.5930034824
 30
0.0
 10
27.3134942566
 20
13.5732860975
 30
0.0
 10
26.231626055
 20
13.5435425783
 30
0.0
 10
25.3734080179
 20
13.518162109
 30
0.0
 10
24.7363576286
 20
13.4974912426
 30
0.0
 10
24.3060466119
 20
13.4824554841
 30
0.0
 10
23.9131700637
 20
13.467433205
 30
0.0
 10
23.5613003179
 20
13.4524425312
 30
0.0
 10
23.2536101892
 20
13.4375108828
 30
0.0
 10
22.9929054335
 20
13.422655792
 30
0.0
 10
22.8061644548
 20
13.4096998779
 30
0.0
 10
22.6820330916
 20
13.3989903603
 30
0.0
 10
22.6083215331
 20
13.3915249218
 30
0.0
 10
22.5477988356
 20
13.3841316186
 30
0.0
 10
22.5006237371
 20
13.3767824738
 30
0.0
 10
22.4696901565
 20
13.3703500086
 30
0.0
 10
22.4518367793
 20
13.3648075046
 30
0.0
 10
22.4451885241
 20
13.3619909537
 30
0.0
 10
22.4425235646
 20
13.3604782186
 30
0.0
  0
SPLINE
  5
2E9
100
AcDbEntity
  8
0
100
AcDbSpline
 62
7
  6
BYLAYER
 70
0
 71
3
 72
25
 73
21
 74
0
 42
0.0000001
 43
0.0000001
 44
0.0000000001
 40
0.0
 40
0.0
 40
0.0
 40
0.0
 40
0.189399805
 40
0.371957028
 40
0.4585796136
 40
0.5410585811
 40
0.6186289679
 40
0.6905964855
 40
0.7563052554
 40
0.8151704248
 40
0.8666502682
 40
0.910289876
 40
0.9456927738
 40
0.9602072485
 40
0.9725577754
 40
0.9827172622
 40
0.9906676051
 40
0.9964134861
 40
0.9984706613
 40
1.0
 40
1.0
 40
1.0
 40
1.0
 10
28.4359726288
 20
13.461465512
 30
0.0
 10
28.8147224747
 20
13.4714631595
 30
0.0
 10
29.558534426
 20
13.4912616283
 30
0.0
 10
30.4755474732
 20
13.516437788
 30
0.0
 10
31.1787200955
 20
13.5369005886
 30
0.0
 10
31.6719409191
 20
13.5519743964
 30
0.0
 10
32.1358312821
 20
13.5670344146
 30
0.0
 10
32.5661558548
 20
13.5820734604
 30
0.0
 10
32.9590379178
 20
13.5970953215
 30
0.0
 10
33.3109041168
 20
13.6120830984
 30
0.0
 10
33.6185809277
 20
13.6270152399
 30
0.0
 10
33.8792622418
 20
13.6418737446
 30
0.0
 10
34.0659774516
 20
13.6548330509
 30
0.0
 10
34.1900832889
 20
13.6655444999
 30
0.0
 10
34.2637720402
 20
13.6730103766
 30
0.0
 10
34.32426953
 20
13.6804030895
 30
0.0
 10
34.3714169856
 20
13.6877506031
 30
0.0
 10
34.4023265002
 20
13.6941812029
 30
0.0
 10
34.4201590532
 20
13.6997232413
 30
0.0
 10
34.4267965388
 20
13.7025398083
 30
0.0
 10
34.4294555213
 20
13.7040528777
 30
0.0
  0
ENDSEC
  0
SECTION
  2
OBJECTS
  0
DICTIONARY
  5
C
100
AcDbDictionary
280
0
281
1
  3
ACAD_GROUP
350
D
  3
ACAD_MLINESTYLE
350
17
  3
ACAD_LAYOUT
350
1A
  3
ACAD_PLOTSETTINGS
350
19
  3
ACAD_PLOTSTYLENAME
350
E
  0
DICTIONARY
  5
D
102
{ACAD_REACTORS
330
C
102
}
100
AcDbDictionary
280
0
281
1
  0
ACDBDICTIONARYWDFLT
  5
E
102
{ACAD_REACTORS
330
C
102
}
100
AcDbDictionary
281
1
  3
Normal
350
F
100
AcDbDictionaryWithDefault
340
F
  0
DICTIONARY
  5
17
102
{ACAD_REACTORS
330
C
102
}
100
AcDbDictionary
280
0
281
1
  3
Standard
350
18
  0
DICTIONARY
  5
19
102
{ACAD_REACTORS
330
C
102
}
100
AcDbDictionary
281
1
  0
DICTIONARY
  5
1A
102
{ACAD_REACTORS
330
C
102
}
100
AcDbDictionary
281
1
  3
Model
350
2EA
  3
Layout1
350
2EB
  0
ACDBPLACEHOLDER
  5
F
102
{ACAD_REACTORS
330
E
102
}
  0
MLINESTYLE
  5
18
102
{ACAD_REACTORS
330
17
102
}
100
AcDbMlineStyle
  2
STANDARD
 70
0
  3

 62
256
 51
90.0
 52
90.0
 71
2
 49
0.5
 62
256
  6
BYLAYER
 49
-0.5
 62
256
  6
BYLAYER
  0
LAYOUT
  5
2EA
102
{ACAD_REACTORS
330
1A
102
}
100
AcDbPlotSettings
  1

  2
none_device
  4

  6

 40
0.0
 41
0.0
 42
0.0
 43
0.0
 44
210.0
 45
297.0
 46
0.0
 47
0.0
 48
0.0
 49
0.0
140
0.0
141
0.0
142
1.0
143
1.0
 70
1024
 72
1
 73
0
 74
0
  7

 75
0
147
1.0
148
0.0
149
0.0
100
AcDbLayout
  1
Model
 70
0
 71
0
 10
0.0
 20
0.0
 11
210.0
 21
297.0
 12
0.0
 22
0.0
 32
0.0
 14
0.0
 24
0.0
 34
0.0
 15
0.0
 25
0.0
 35
0.0
146
0.0
 13
0.0
 23
0.0
 33
0.0
 16
1.0
 26
0.0
 36
0.0
 17
0.0
 27
1.0
 37
0.0
 76
0
330
210
345
0
346
0
  0
LAYOUT
  5
2EB
102
{ACAD_REACTORS
330
1A
102
}
100
AcDbPlotSettings
  1

  2
none_device
  4

  6

 40
0.0
 41
0.0
 42
0.0
 43
0.0
 44
210.0
 45
297.0
 46
0.0
 47
0.0
 48
0.0
 49
0.0
140
0.0
141
0.0
142
1.0
143
1.0
 70
0
 72
1
 73
0
 74
0
  7

 75
0
147
1.0
148
0.0
149
0.0
100
AcDbLayout
  1
Layout1
 70
0
 71
1
 10
0.0
 20
0.0
 11
210.0
 21
297.0
 12
0.0
 22
0.0
 32
0.0
 14
0.0
 24
0.0
 34
0.0
 15
0.0
 25
0.0
 35
0.0
146
0.0
 13
0.0
 23
0.0
 33
0.0
 16
1.0
 26
0.0
 36
0.0
 17
0.0
 27
1.0
 37
0.0
 76
0
330
211
345
0
346
0
  0
ENDSEC
  0
EOF
