999
DXF file: C:\Users\sesa63760\Dev\_Creo\CAD\MCADID0004759_3D-CAD\drw0001_1.dxf
999
Pro/ENGINEER 2019471 by Parametric Technology Corporation
  0
SECTION
  2
HEADER
  9
$ACADVER
  1
AC1024
  9
$DWGCODEPAGE
  3
ANSI_1252
  9
$EXTMAX
 10
43.4318072481
 20
61.4249845366
 30
0.0
  9
$EXTMIN
 10
0.0
 20
0.0
 30
0.0
  9
$LIMMIN
 10
0.0
 20
0.0
  9
$LIMMAX
 10
43.4318072481
 20
61.4249845366
  9
$VIEWCTR
 10
21.7159036241
 20
30.7124922683
  9
$VIEWSIZE
 40
61.4249845366
  9
$CLAYER
  8
0
  9
$LTSCALE
 40
4.003998992
  9
$CELTYPE
  6
BYLAYER
  9
$DIMSCALE
 40
1.0
  9
$DIMASZ
 40
0.5170453244
  9
$DIMEXO
 40
1.0
  9
$DIMDLI
 40
2.7663993036
  9
$DIMEXE
 40
1.0
  9
$DIMCEN
 40
0.6551998351
  9
$DIMLFAC
 40
1.0
  9
$DIMBLK
  1
_FILLED
  9
$DIMALT
 70
0
  9
$DIMALTF
 40
0.0393700787
  9
$DIMTXT
 40
0.7238634541
  9
$DIMTOL
 70
1
  9
$DIMLIM
 70
0
  9
$DIMTFAC
 40
1.0
  9
$DIMTP
 40
0.01
  9
$DIMTM
 40
0.01
  9
$DIMGAP
 40
0.625
  9
$DIMDSEP
 70
46
  9
$AUNITS
 70
0
  9
$PDMODE
 70
3
  9
$PDSIZE
 40
0.3125
  9
$HANDSEED
  5
343
  9
$TILEMODE
 70
1
  9
$MEASUREMENT
 70
1
  9
$INSUNITS
 70
4
  0
ENDSEC
  0
SECTION
  2
CLASSES
  0
CLASS
  1
ACDBDICTIONARYWDFLT
  2
AcDbDictionaryWithDefault
  3
AutoCAD 2000
 90
0
 91
1
280
0
281
0
  0
CLASS
  1
ACDBPLACEHOLDER
  2
AcDbPlaceHolder
  3
AutoCAD 2000
 90
0
 91
1
280
0
281
0
  0
CLASS
  1
LAYOUT
  2
AcDbLayout
  3
AutoCAD 2000
 90
0
 91
0
280
0
281
0
  0
ENDSEC
  0
SECTION
  2
TABLES
  0
TABLE
  2
VPORT
  5
8
100
AcDbSymbolTable
 70
2
  0
VPORT
  5
1F4
100
AcDbSymbolTableRecord
100
AcDbViewportTableRecord
  2
*ACTIVE
 70
0
 10
0.0
 20
0.0
 11
1.0
 21
1.0
 12
21.7159036241
 22
30.7124922683
 13
0.0
 23
0.0
 14
1.0
 24
1.0
 15
0.0
 25
0.0
 16
0.0
 26
0.0
 36
1.0
 17
0.0
 27
0.0
 37
0.0
 40
61.4249845366
 41
0.7070707071
 42
50.0
 43
0.0
 44
0.0
 50
0.0
 51
0.0
 71
0
 72
100
 73
1
 74
1
 75
0
 76
0
 77
0
 78
0
  0
ENDTAB
  0
TABLE
  2
LTYPE
  5
5
100
AcDbSymbolTable
 70
6
  0
LTYPE
  5
14
100
AcDbSymbolTableRecord
100
AcDbLinetypeTableRecord
  2
BYBLOCK
 70
0
  3

 72
65
 73
0
 40
0.0
  0
LTYPE
  5
15
100
AcDbSymbolTableRecord
100
AcDbLinetypeTableRecord
  2
BYLAYER
 70
0
  3

 72
65
 73
0
 40
0.0
  0
LTYPE
  5
16
100
AcDbSymbolTableRecord
100
AcDbLinetypeTableRecord
  2
CONTINUOUS
 70
64
  3
Solid line
 72
65
 73
0
 40
0.0
  0
LTYPE
  5
1F5
100
AcDbSymbolTableRecord
100
AcDbLinetypeTableRecord
  2
CENTER
 70
64
  3
____ _ ____ _ ____ _ ____ _ ____ _ ____ _ ____
 72
65
 73
4
 40
0.6
 49
0.375
 74
0
 49
-0.075
 74
0
 49
0.075
 74
0
 49
-0.075
 74
0
  0
LTYPE
  5
1F6
100
AcDbSymbolTableRecord
100
AcDbLinetypeTableRecord
  2
HIDDEN
 70
64
  3
- - - - - - - - - - - - - - - - - - - -
 72
65
 73
2
 40
0.2
 49
0.1
 74
0
 49
-0.1
 74
0
  0
LTYPE
  5
1F7
100
AcDbSymbolTableRecord
100
AcDbLinetypeTableRecord
  2
PHANTOM
 70
64
  3
_____ _ _ _____ _ _ _____ _ _ _____
 72
65
 73
6
 40
0.8
 49
0.45
 74
0
 49
-0.05
 74
0
 49
0.1
 74
0
 49
-0.05
 74
0
 49
0.1
 74
0
 49
-0.05
 74
0
  0
LTYPE
  5
1F8
100
AcDbSymbolTableRecord
100
AcDbLinetypeTableRecord
  2
DOT
 70
64
  3
. . . . . . . . . . . . . . . . . . . .
 72
65
 73
2
 40
0.2
 49
0.1
 74
0
 49
-0.1
 74
0
  0
LTYPE
  5
1F9
100
AcDbSymbolTableRecord
100
AcDbLinetypeTableRecord
  2
DASHED
 70
64
  3
- - - - - - - - - - - - - - - - - - - -
 72
65
 73
2
 40
0.2
 49
0.1
 74
0
 49
-0.1
 74
0
  0
ENDTAB
  0
TABLE
  2
LAYER
  5
2
100
AcDbSymbolTable
 70
36
  0
LAYER
  5
10
100
AcDbSymbolTableRecord
100
AcDbLayerTableRecord
  2
0
 70
0
 62
7
  6
CONTINUOUS
370
-3
390
F
  0
LAYER
  5
1FA
100
AcDbSymbolTableRecord
100
AcDbLayerTableRecord
  2
DEFAULT_1
 70
0
 62
7
  6
CENTER
370
-3
390
F
  0
LAYER
  5
1FB
100
AcDbSymbolTableRecord
100
AcDbLayerTableRecord
  2
DEFAULT_2
 70
0
 62
7
  6
HIDDEN
370
-3
390
F
  0
LAYER
  5
1FC
100
AcDbSymbolTableRecord
100
AcDbLayerTableRecord
  2
DEFAULT_3
 70
0
 62
7
  6
PHANTOM
370
-3
390
F
  0
LAYER
  5
1FD
100
AcDbSymbolTableRecord
100
AcDbLayerTableRecord
  2
00_COMPONENTS
 70
0
 62
7
  6
CONTINUOUS
370
-3
390
F
  0
LAYER
  5
1FE
100
AcDbSymbolTableRecord
100
AcDbLayerTableRecord
  2
01_1_DEFAULT_DATUMS
 70
0
 62
7
  6
CONTINUOUS
370
-3
390
F
  0
LAYER
  5
1FF
100
AcDbSymbolTableRecord
100
AcDbLayerTableRecord
  2
01_PLANES
 70
0
 62
7
  6
CONTINUOUS
370
-3
390
F
  0
LAYER
  5
200
100
AcDbSymbolTableRecord
100
AcDbLayerTableRecord
  2
02_COORD_SYS
 70
0
 62
7
  6
CONTINUOUS
370
-3
390
F
  0
LAYER
  5
201
100
AcDbSymbolTableRecord
100
AcDbLayerTableRecord
  2
03_AXES
 70
0
 62
7
  6
CONTINUOUS
370
-3
390
F
  0
LAYER
  5
202
100
AcDbSymbolTableRecord
100
AcDbLayerTableRecord
  2
04_POINTS
 70
0
 62
7
  6
CONTINUOUS
370
-3
390
F
  0
LAYER
  5
203
100
AcDbSymbolTableRecord
100
AcDbLayerTableRecord
  2
05_CURVES
 70
0
 62
7
  6
CONTINUOUS
370
-3
390
F
  0
LAYER
  5
204
100
AcDbSymbolTableRecord
100
AcDbLayerTableRecord
  2
06_SURFS
 70
0
 62
7
  6
CONTINUOUS
370
-3
390
F
  0
LAYER
  5
205
100
AcDbSymbolTableRecord
100
AcDbLayerTableRecord
  2
07_COSMETICS
 70
0
 62
7
  6
CONTINUOUS
370
-3
390
F
  0
LAYER
  5
206
100
AcDbSymbolTableRecord
100
AcDbLayerTableRecord
  2
10_NOTES
 70
0
 62
7
  6
CONTINUOUS
370
-3
390
F
  0
LAYER
  5
207
100
AcDbSymbolTableRecord
100
AcDbLayerTableRecord
  2
11_NOTES_PUB
 70
0
 62
7
  6
CONTINUOUS
370
-3
390
F
  0
LAYER
  5
208
100
AcDbSymbolTableRecord
100
AcDbLayerTableRecord
  2
13_REF_GTOL
 70
0
 62
7
  6
CONTINUOUS
370
-3
390
F
  0
LAYER
  5
209
100
AcDbSymbolTableRecord
100
AcDbLayerTableRecord
  2
16_MISC
 70
0
 62
7
  6
CONTINUOUS
370
-3
390
F
  0
LAYER
  5
20A
100
AcDbSymbolTableRecord
100
AcDbLayerTableRecord
  2
17_NO_PRINT
 70
0
 62
7
  6
CONTINUOUS
370
-3
390
F
  0
LAYER
  5
20B
100
AcDbSymbolTableRecord
100
AcDbLayerTableRecord
  2
18_DATUM_CAMS_JOINTS
 70
0
 62
7
  6
CONTINUOUS
370
-3
390
F
  0
LAYER
  5
20C
100
AcDbSymbolTableRecord
100
AcDbLayerTableRecord
  2
19_DATUM_FUNCTIONAL
 70
0
 62
7
  6
CONTINUOUS
370
-3
390
F
  0
LAYER
  5
20D
100
AcDbSymbolTableRecord
100
AcDbLayerTableRecord
  2
20_DATUM_KINEMATIC_SCHEME
 70
0
 62
7
  6
CONTINUOUS
370
-3
390
F
  0
ENDTAB
  0
TABLE
  2
STYLE
  5
3
100
AcDbSymbolTable
 70
1
  0
STYLE
  5
11
100
AcDbSymbolTableRecord
100
AcDbTextStyleTableRecord
  2
STANDARD
 70
0
 40
0.0
 41
1.0
 50
0.0
 71
0
 42
0.2
  3
ARIAL.TTF
  4

  0
STYLE
  5
20E
100
AcDbSymbolTableRecord
100
AcDbTextStyleTableRecord
  2
TEXTSTYLE_1
 70
0
 40
0.0
 41
0.8
 50
0.0
 71
0
 42
0.2
  3
gdt
  4

  0
ENDTAB
  0
TABLE
  2
VIEW
  5
6
100
AcDbSymbolTable
 70
0
  0
ENDTAB
  0
TABLE
  2
UCS
  5
7
100
AcDbSymbolTable
 70
0
  0
ENDTAB
  0
TABLE
  2
APPID
  5
9
100
AcDbSymbolTable
 70
1
  0
APPID
  5
20F
100
AcDbSymbolTableRecord
100
AcDbRegAppTableRecord
  2
ACAD
 70
0
  0
ENDTAB
  0
TABLE
  2
BLOCK_RECORD
  5
1
100
AcDbSymbolTable
 70
0
  0
BLOCK_RECORD
  5
210
100
AcDbSymbolTableRecord
100
AcDbBlockTableRecord
  2
*Model_Space
  0
BLOCK_RECORD
  5
211
100
AcDbSymbolTableRecord
100
AcDbBlockTableRecord
  2
*Paper_Space
  0
BLOCK_RECORD
  5
212
100
AcDbSymbolTableRecord
100
AcDbBlockTableRecord
  2
_FILLED
  0
ENDTAB
  0
TABLE
  2
DIMSTYLE
  5
A
100
AcDbSymbolTable
 70
1
100
AcDbDimStyleTable
 71
0
  0
DIMSTYLE
105
213
100
AcDbSymbolTableRecord
100
AcDbDimStyleTableRecord
  2
STANDARD
 70
0
  3

  4

 40
1.0
 41
0.5170453244
 42
1.0
 43
0.38
 44
1.0
 45
0.0
 46
0.0
 47
0.01
 48
0.01
140
0.7238634541
141
0.09
142
0.0
143
25.4
144
1.0
145
0.0
146
1.0
147
0.625
 71
1
 72
0
 73
0
 74
0
 75
0
 76
0
 77
1
 78
8
 79
2
170
0
171
1
172
0
173
0
174
0
175
0
176
0
177
0
178
0
270
2
179
2
271
2
272
2
273
2
274
2
275
0
280
0
281
0
282
0
283
1
284
8
285
0
286
0
287
3
288
0
340
11
278
46
341
212
342
212
343
212
344
212
  0
ENDTAB
  0
ENDSEC
  0
SECTION
  2
BLOCKS
  0
BLOCK
  5
20
100
AcDbEntity
  8
0
100
AcDbBlockBegin
  2
*Model_Space
 70
0
 10
0.0
 20
0.0
 30
0.0
  3
*Model_Space
  1

  0
ENDBLK
  5
21
100
AcDbEntity
  8
0
100
AcDbBlockEnd
  0
BLOCK
  5
1C
100
AcDbEntity
  8
0
100
AcDbBlockBegin
  2
*Paper_Space
 70
0
 10
0.0
 20
0.0
 30
0.0
  3
*Paper_Space
  1

  0
ENDBLK
  5
1D
100
AcDbEntity
  8
0
100
AcDbBlockEnd
  0
BLOCK
  5
214
100
AcDbEntity
  8
0
100
AcDbBlockBegin
  2
_FILLED
 70
64
 10
0.0
 20
0.0
  3
_FILLED
  1

  0
SOLID
  5
215
100
AcDbEntity
  8
0
  6
BYBLOCK
 62
0
100
AcDbTrace
 10
0.0
 20
0.0
 11
-1.0
 21
0.25
 12
-1.0
 22
-0.25
 13
-1.0
 23
-0.25
  0
ENDBLK
  5
216
100
AcDbEntity
  8
0
  6
BYBLOCK
 62
0
100
AcDbBlockEnd
  0
ENDSEC
  0
SECTION
  2
ENTITIES
  0
LINE
  5
217
100
AcDbEntity
  8
0
100
AcDbLine
 62
7
  6
BYLAYER
 10
5.033706315
 20
21.325170903
 11
5.0337051374
 21
21.4884665248
  0
LINE
  5
218
100
AcDbEntity
  8
0
100
AcDbLine
 62
7
  6
BYLAYER
 10
5.033706315
 20
37.6552192456
 11
5.0337051374
 21
37.8185148674
  0
LINE
  5
219
100
AcDbEntity
  8
0
100
AcDbLine
 62
7
  6
BYLAYER
 10
12.528994036
 20
46.6366413738
 11
9.3470267686
 21
44.7995426813
  0
LINE
  5
21A
100
AcDbEntity
  8
0
100
AcDbLine
 62
7
  6
BYLAYER
 10
19.1379053202
 20
50.2131293516
 11
18.430801483
 21
49.8048851977
  0
LINE
  5
21B
100
AcDbEntity
  8
0
100
AcDbLine
 62
7
  6
BYLAYER
 10
18.6808003637
 20
49.7801230582
 11
19.387904201
 21
50.1883672121
  0
LINE
  5
21C
100
AcDbEntity
  8
0
100
AcDbLine
 62
7
  6
BYLAYER
 10
12.8896588255
 20
46.4284161711
 11
18.5075793619
 21
49.6719047441
  0
LINE
  5
21D
100
AcDbEntity
  8
0
100
AcDbLine
 62
7
  6
BYLAYER
 10
13.0946824271
 20
46.3100484174
 11
18.857577795
 21
49.6372377488
  0
LINE
  5
21E
100
AcDbEntity
  8
0
100
AcDbLine
 62
7
  6
BYLAYER
 10
10.0970298911
 20
44.3665379725
 11
7.9328190941
 21
43.1170227796
  0
LINE
  5
21F
100
AcDbEntity
  8
0
100
AcDbLine
 62
7
  6
BYLAYER
 10
21.3961694918
 20
49.3240239037
 11
21.1068232422
 21
49.1959712919
  0
LINE
  5
220
100
AcDbEntity
  8
0
100
AcDbLine
 62
7
  6
BYLAYER
 10
5.9529489577
 20
19.7330136186
 11
6.0943697251
 21
19.6513619659
  0
LINE
  5
221
100
AcDbEntity
  8
0
100
AcDbLine
 62
7
  6
BYLAYER
 10
20.0951434606
 20
11.5681985282
 11
20.2365642281
 21
11.4865468755
  0
LWPOLYLINE
  5
222
100
AcDbEntity
  8
0
100
AcDbPolyline
 62
7
  6
BYLAYER
 90
4
 70
0
 10
5.599001933
 20
29.1528112087
 10
5.5235671602
 20
28.8069826956
 10
5.523055662
 20
27.6564196247
 10
5.7622241968
 20
26.304725993
  0
LINE
  5
223
100
AcDbEntity
  8
0
100
AcDbLine
 62
7
  6
BYLAYER
 10
9.855676023
 20
41.5186185594
 11
9.4314137206
 21
41.273672067
  0
LINE
  5
224
100
AcDbEntity
  8
0
100
AcDbLine
 62
7
  6
BYLAYER
 10
8.6814105981
 20
40.8406451818
 11
9.1056729004
 21
41.0855916742
  0
LINE
  5
225
100
AcDbEntity
  8
0
100
AcDbLine
 62
7
  6
BYLAYER
 10
14.7036253546
 20
15.7970033455
 11
15.8348843565
 21
15.6428116062
  0
LINE
  5
226
100
AcDbEntity
  8
0
100
AcDbLine
 62
7
  6
BYLAYER
 10
12.1755216045
 20
16.6843273413
 11
12.9864833581
 21
16.3573890706
  0
LINE
  5
227
100
AcDbEntity
  8
0
100
AcDbLine
 62
7
  6
BYLAYER
 10
7.9328190941
 20
43.1170227796
 11
7.9328190941
 21
39.9996350593
  0
LINE
  5
228
100
AcDbEntity
  8
0
100
AcDbLine
 62
7
  6
BYLAYER
 10
7.9328190941
 20
36.5355386136
 11
7.9328190941
 21
33.8099998627
  0
LINE
  5
229
100
AcDbEntity
  8
0
100
AcDbLine
 62
7
  6
BYLAYER
 10
6.0002881561
 20
30.871721274
 11
6.4323877872
 21
31.9285105942
  0
LINE
  5
22A
100
AcDbEntity
  8
0
100
AcDbLine
 62
7
  6
BYLAYER
 10
8.7384715014
 20
40.464775917
 11
5.3443730828
 21
38.5052039784
  0
LINE
  5
22B
100
AcDbEntity
  8
0
100
AcDbLine
 62
7
  6
BYLAYER
 10
9.6235988889
 20
40.9407994388
 11
8.8863807676
 21
40.5151688987
  0
LINE
  5
22C
100
AcDbEntity
  8
0
100
AcDbLine
 62
7
  6
BYLAYER
 10
9.8076067412
 20
40.8510979879
 11
9.1922579588
 21
40.4958283234
  0
LINE
  5
22D
100
AcDbEntity
  8
0
100
AcDbLine
 62
7
  6
BYLAYER
 10
10.3494677575
 20
40.8175473598
 11
10.7737300598
 21
41.0624938522
  0
LWPOLYLINE
  5
22E
100
AcDbEntity
  8
0
100
AcDbPolyline
 62
7
  6
BYLAYER
 90
3
 70
0
 10
21.3908293991
 20
16.3122484987
 10
20.3247100361
 20
16.4022989234
 10
19.4576918268
 20
16.698130447
  0
LWPOLYLINE
  5
22F
100
AcDbEntity
  8
0
100
AcDbPolyline
 62
7
  6
BYLAYER
 90
4
 70
0
 10
19.81509707
 20
16.9044772286
 10
21.4133868588
 20
16.5231476999
 10
23.4767114289
 20
16.861227184
 10
23.5338436324
 20
16.8896313744
  0
LINE
  5
230
100
AcDbEntity
  8
0
100
AcDbLine
 62
7
  6
BYLAYER
 10
18.2010475473
 20
16.0092587641
 11
20.5749516241
 21
14.6387156121
  0
LINE
  5
231
100
AcDbEntity
  8
0
100
AcDbLine
 62
7
  6
BYLAYER
 10
23.5749900353
 20
12.9066818116
 11
26.2747785505
 21
11.3479934479
  0
LINE
  5
232
100
AcDbEntity
  8
0
100
AcDbLine
 62
7
  6
BYLAYER
 10
5.0862183426
 20
30.0409735101
 11
6.3993912118
 21
27.7665040076
  0
LINE
  5
233
100
AcDbEntity
  8
0
100
AcDbLine
 62
7
  6
BYLAYER
 10
12.2140521245
 20
17.6952717858
 11
13.5272249937
 21
15.4208022833
  0
LINE
  5
234
100
AcDbEntity
  8
0
100
AcDbLine
 62
7
  6
BYLAYER
 10
14.5272291571
 20
15.9981714635
 11
13.2140562878
 21
18.2726409661
  0
LINE
  5
235
100
AcDbEntity
  8
0
100
AcDbLine
 62
7
  6
BYLAYER
 10
7.3993953752
 20
28.3438731878
 11
6.086222506
 21
30.6183426904
  0
LINE
  5
236
100
AcDbEntity
  8
0
100
AcDbLine
 62
7
  6
BYLAYER
 10
9.3470267686
 20
44.7995426813
 11
9.3470267686
 21
43.9335110873
  0
LWPOLYLINE
  5
237
100
AcDbEntity
  8
0
100
AcDbPolyline
 62
7
  6
BYLAYER
 90
4
 70
0
 10
11.4707589575
 20
37.995103773
 10
10.5796669341
 20
37.2341223988
 10
9.5571909742
 20
35.2455079622
 10
9.4876292656
 20
34.7287420971
  0
LINE
  5
238
100
AcDbEntity
  8
0
100
AcDbLine
 62
7
  6
BYLAYER
 10
11.1106833772
 20
38.601208224
 11
10.4786890227
 21
38.2363282914
  0
LINE
  5
239
100
AcDbEntity
  8
0
100
AcDbLine
 62
7
  6
BYLAYER
 10
10.2384647861
 20
37.8666958286
 11
6.8443663675
 21
35.90712389
  0
LINE
  5
23A
100
AcDbEntity
  8
0
100
AcDbLine
 62
7
  6
BYLAYER
 10
27.688986225
 20
12.1644817556
 11
28.4389893475
 21
11.7314770468
  0
LINE
  5
23B
100
AcDbEntity
  8
0
100
AcDbLine
 62
7
  6
BYLAYER
 10
23.6306626467
 20
15.8956260655
 11
23.7720834141
 21
15.8139744128
  0
LINE
  5
23C
100
AcDbEntity
  8
0
100
AcDbLine
 62
7
  6
BYLAYER
 10
10.5491315539
 20
38.7166805614
 11
10.5491327314
 21
38.5533849396
  0
LINE
  5
23D
100
AcDbEntity
  8
0
100
AcDbLine
 62
7
  6
BYLAYER
 10
13.5667713681
 20
38.5857946139
 11
13.1425090657
 21
38.3408481216
  0
LINE
  5
23E
100
AcDbEntity
  8
0
100
AcDbLine
 62
7
  6
BYLAYER
 10
9.3658029017
 20
36.1603034581
 11
9.790065204
 21
36.4052499504
  0
LINE
  5
23F
100
AcDbEntity
  8
0
100
AcDbLine
 62
7
  6
BYLAYER
 10
20.9665670968
 20
16.0673020064
 11
21.7878907211
 21
15.3390021461
  0
LINE
  5
240
100
AcDbEntity
  8
0
100
AcDbLine
 62
7
  6
BYLAYER
 10
8.1577415313
 20
32.5008597839
 11
9.2567559622
 21
30.5973215184
  0
LINE
  5
241
100
AcDbEntity
  8
0
100
AcDbLine
 62
7
  6
BYLAYER
 10
16.0942910212
 20
18.7544291403
 11
17.1933058411
 21
16.8508902009
  0
LINE
  5
242
100
AcDbEntity
  8
0
100
AcDbLine
 62
7
  6
BYLAYER
 10
9.1457183039
 20
37.2358021188
 11
9.3658029017
 21
36.1603034581
  0
LINE
  5
243
100
AcDbEntity
  8
0
100
AcDbLine
 62
7
  6
BYLAYER
 10
12.6823753581
 20
36.5732186035
 11
8.0862004163
 21
33.9196316034
  0
LINE
  5
244
100
AcDbEntity
  8
0
100
AcDbLine
 62
7
  6
BYLAYER
 10
24.6776624419
 20
13.1344780609
 11
24.4854837538
 21
13.4673394652
  0
LINE
  5
245
100
AcDbEntity
  8
0
100
AcDbLine
 62
7
  6
BYLAYER
 10
8.8686792495
 20
40.5162881634
 11
8.6814105981
 21
40.8406451818
  0
LINE
  5
246
100
AcDbEntity
  8
0
100
AcDbLine
 62
7
  6
BYLAYER
 10
26.2747785505
 20
11.3479934479
 11
25.1019247443
 21
13.3794245533
  0
LINE
  5
247
100
AcDbEntity
  8
0
100
AcDbLine
 62
7
  6
BYLAYER
 10
9.1056729004
 20
41.0855916742
 11
7.9328190941
 21
43.1170227796
  0
LINE
  5
248
100
AcDbEntity
  8
0
100
AcDbLine
 62
7
  6
BYLAYER
 10
9.4314137206
 20
41.273672067
 11
9.6235924088
 21
40.9408106628
  0
LINE
  5
249
100
AcDbEntity
  8
0
100
AcDbLine
 62
7
  6
BYLAYER
 10
25.2354868763
 20
13.9003663504
 11
25.4276655645
 21
13.5675049461
  0
LINE
  5
24A
100
AcDbEntity
  8
0
100
AcDbLine
 62
7
  6
BYLAYER
 10
8.6828222167
 20
43.5500496648
 11
9.855676023
 21
41.5186185594
  0
LINE
  5
24B
100
AcDbEntity
  8
0
100
AcDbLine
 62
7
  6
BYLAYER
 10
25.8519278668
 20
13.8124514385
 11
27.0247816731
 21
11.7810203331
  0
LINE
  5
24C
100
AcDbEntity
  8
0
100
AcDbLine
 62
7
  6
BYLAYER
 10
18.3272455012
 20
49.5677895625
 11
18.3272455012
 21
49.5759922269
  0
LINE
  5
24D
100
AcDbEntity
  8
0
100
AcDbLine
 62
7
  6
BYLAYER
 10
35.5383639948
 20
41.1592088133
 11
35.2490177451
 21
41.0311562015
  0
LINE
  5
24E
100
AcDbEntity
  8
0
100
AcDbLine
 62
7
  6
BYLAYER
 10
37.0656532176
 20
17.1202981782
 11
37.0585432906
 21
17.1244030036
  0
LINE
  5
24F
100
AcDbEntity
  8
0
100
AcDbLine
 62
7
  6
BYLAYER
 10
5.9529489577
 20
36.0630619612
 11
6.0943697251
 21
35.9814103085
  0
LINE
  5
250
100
AcDbEntity
  8
0
100
AcDbLine
 62
7
  6
BYLAYER
 10
20.0951434606
 20
27.8982468708
 11
20.2365642281
 21
27.8165952181
  0
LINE
  5
251
100
AcDbEntity
  8
0
100
AcDbLine
 62
7
  6
BYLAYER
 10
19.175900818
 20
13.1603558126
 11
19.1758996404
 21
13.3236514344
  0
LINE
  5
252
100
AcDbEntity
  8
0
100
AcDbLine
 62
7
  6
BYLAYER
 10
19.175900818
 20
29.4904041551
 11
19.1758996404
 21
29.653699777
  0
LINE
  5
253
100
AcDbEntity
  8
0
100
AcDbLine
 62
7
  6
BYLAYER
 10
20.9665670968
 20
33.8237283021
 11
21.3908293991
 21
34.0686747945
  0
LINE
  5
254
100
AcDbEntity
  8
0
100
AcDbLine
 62
7
  6
BYLAYER
 10
24.1838707074
 20
33.3203206908
 11
23.7596084051
 21
33.0753741985
  0
LINE
  5
255
100
AcDbEntity
  8
0
100
AcDbLine
 62
7
  6
BYLAYER
 10
22.8806660044
 20
32.2999608266
 11
19.4865675857
 21
30.340388888
  0
LINE
  5
256
100
AcDbEntity
  8
0
100
AcDbLine
 62
7
  6
BYLAYER
 10
6.2334256063
 20
22.6884472857
 11
5.3443730828
 21
22.1751556358
  0
LINE
  5
257
100
AcDbEntity
  8
0
100
AcDbLine
 62
7
  6
BYLAYER
 10
23.9751837169
 20
32.7009373875
 11
23.3344524617
 21
32.331013233
  0
LINE
  5
258
100
AcDbEntity
  8
0
100
AcDbLine
 62
7
  6
BYLAYER
 10
6.3993912118
 20
22.207000675
 11
5.0862183426
 21
21.4488182886
  0
LINE
  5
259
100
AcDbEntity
  8
0
100
AcDbLine
 62
7
  6
BYLAYER
 10
16.1933016777
 20
27.8616319237
 11
12.2140521245
 21
25.5641927024
  0
LINE
  5
25A
100
AcDbEntity
  8
0
100
AcDbLine
 62
7
  6
BYLAYER
 10
24.4854837538
 20
32.360487807
 11
27.688986225
 21
34.2100470181
  0
LINE
  5
25B
100
AcDbEntity
  8
0
100
AcDbLine
 62
7
  6
BYLAYER
 10
36.8888757863
 20
39.2270985085
 11
31.1259804183
 21
35.8999091771
  0
LINE
  5
25C
100
AcDbEntity
  8
0
100
AcDbLine
 62
7
  6
BYLAYER
 10
13.1425090657
 20
38.3408481216
 11
10.3494677575
 21
40.8175473598
  0
LINE
  5
25D
100
AcDbEntity
  8
0
100
AcDbLine
 62
7
  6
BYLAYER
 10
10.7737300598
 20
41.0624938522
 11
13.5667713681
 21
38.5857946139
  0
LINE
  5
25E
100
AcDbEntity
  8
0
100
AcDbLine
 62
7
  6
BYLAYER
 10
25.4916664238
 20
14.5906355231
 11
24.7432732609
 21
18.2478466699
  0
LINE
  5
25F
100
AcDbEntity
  8
0
100
AcDbLine
 62
7
  6
BYLAYER
 10
37.7727570548
 20
39.5741075946
 11
37.0656532176
 21
39.1658634407
  0
LINE
  5
260
100
AcDbEntity
  8
0
100
AcDbLine
 62
7
  6
BYLAYER
 10
31.620956615
 20
35.6141410017
 11
28.4389893475
 21
33.7770423093
  0
LINE
  5
261
100
AcDbEntity
  8
0
100
AcDbLine
 62
7
  6
BYLAYER
 10
37.4192080801
 20
38.5534918549
 11
38.1263119173
 21
38.9617360088
  0
LINE
  5
262
100
AcDbEntity
  8
0
100
AcDbLine
 62
7
  6
BYLAYER
 10
31.620956615
 20
35.0425886042
 11
37.3838525939
 21
38.3697782883
  0
LINE
  5
263
100
AcDbEntity
  8
0
100
AcDbLine
 62
7
  6
BYLAYER
 10
28.4389893475
 20
32.9110107153
 11
25.2354868763
 21
31.0614515041
  0
LINE
  5
264
100
AcDbEntity
  8
0
100
AcDbLine
 62
7
  6
BYLAYER
 10
6.086222506
 20
19.7167698848
 11
7.3993953752
 21
20.4749522713
  0
LINE
  5
265
100
AcDbEntity
  8
0
100
AcDbLine
 62
7
  6
BYLAYER
 10
13.2140562878
 20
23.8321442986
 11
17.1933058411
 21
26.1295835199
  0
LINE
  5
266
100
AcDbEntity
  8
0
100
AcDbLine
 62
7
  6
BYLAYER
 10
25.2528778801
 20
30.4363931336
 11
24.6208835256
 21
30.071513201
  0
LINE
  5
267
100
AcDbEntity
  8
0
100
AcDbLine
 62
7
  6
BYLAYER
 10
25.1675355632
 20
18.4927931622
 11
25.9159287261
 21
14.8355820154
  0
LINE
  5
268
100
AcDbEntity
  8
0
100
AcDbLine
 62
7
  6
BYLAYER
 10
24.6913260568
 20
14.2218171284
 11
24.6913272344
 21
14.0585215066
  0
LINE
  5
269
100
AcDbEntity
  8
0
100
AcDbLine
 62
7
  6
BYLAYER
 10
24.6913260568
 20
30.551865471
 11
24.6913272344
 21
30.3885698491
  0
LINE
  5
26A
100
AcDbEntity
  8
0
100
AcDbLine
 62
7
  6
BYLAYER
 10
24.7432732609
 20
27.2823176536
 11
25.4916664238
 21
30.075378362
  0
LINE
  5
26B
100
AcDbEntity
  8
0
100
AcDbLine
 62
7
  6
BYLAYER
 10
24.380659289
 20
29.7018807382
 11
20.9865608704
 21
27.7423087996
  0
LINE
  5
26C
100
AcDbEntity
  8
0
100
AcDbLine
 62
7
  6
BYLAYER
 10
7.7334285019
 20
20.0903727461
 11
6.8443663675
 21
19.5770755474
  0
LINE
  5
26D
100
AcDbEntity
  8
0
100
AcDbLine
 62
7
  6
BYLAYER
 10
25.4916664238
 20
30.075378362
 11
25.9159287262
 21
30.3203248543
  0
LINE
  5
26E
100
AcDbEntity
  8
0
100
AcDbLine
 62
7
  6
BYLAYER
 10
23.759608405
 20
33.0753741985
 11
20.9665670968
 21
33.8237283021
  0
LINE
  5
26F
100
AcDbEntity
  8
0
100
AcDbLine
 62
7
  6
BYLAYER
 10
21.3908293991
 20
34.0686747945
 11
24.1838707074
 21
33.3203206908
  0
LINE
  5
270
100
AcDbEntity
  8
0
100
AcDbLine
 62
7
  6
BYLAYER
 10
9.4884681438
 20
40.3904894985
 11
9.6298889112
 21
40.3088378458
  0
LINE
  5
271
100
AcDbEntity
  8
0
100
AcDbLine
 62
7
  6
BYLAYER
 10
23.6306626467
 20
32.2256744081
 11
23.7720834141
 21
32.1440227554
  0
LWPOLYLINE
  5
272
100
AcDbEntity
  8
0
100
AcDbPolyline
 62
7
  6
BYLAYER
 90
3
 70
0
 10
18.058416419
 20
37.0532041641
 10
20.3247100361
 20
35.2096451228
 10
21.3908293991
 20
34.0686747945
  0
LINE
  5
273
100
AcDbEntity
  8
0
100
AcDbLine
 62
7
  6
BYLAYER
 10
27.0247816731
 20
11.7810203331
 11
27.0247816731
 21
32.0945224075
  0
LINE
  5
274
100
AcDbEntity
  8
0
100
AcDbLine
 62
7
  6
BYLAYER
 10
25.9159287262
 20
30.3203248543
 11
25.1675355632
 21
27.5272641459
  0
LINE
  5
275
100
AcDbEntity
  8
0
100
AcDbLine
 62
7
  6
BYLAYER
 10
38.3818758672
 20
36.2340723794
 11
38.1263119173
 21
36.04752388
  0
LINE
  5
276
100
AcDbEntity
  8
0
100
AcDbLine
 62
7
  6
BYLAYER
 10
25.1675355632
 20
27.5272641459
 11
24.7432732609
 21
27.2823176536
  0
LINE
  5
277
100
AcDbEntity
  8
0
100
AcDbLine
 62
7
  6
BYLAYER
 10
26.2747785505
 20
33.3935587104
 11
8.6828222167
 21
43.5500496648
  0
LINE
  5
278
100
AcDbEntity
  8
0
100
AcDbLine
 62
7
  6
BYLAYER
 10
28.4389893475
 20
11.7314770468
 11
28.4389893475
 21
12.5975086408
  0
LINE
  5
279
100
AcDbEntity
  8
0
100
AcDbLine
 62
7
  6
BYLAYER
 10
28.4389893475
 20
32.9110107153
 11
28.4389893475
 21
33.7770423093
  0
LWPOLYLINE
  5
27A
100
AcDbEntity
  8
0
100
AcDbPolyline
 62
7
  6
BYLAYER
 90
4
 70
0
 10
13.5667713681
 20
38.5857946139
 10
14.6328907312
 20
38.4957441892
 10
16.8991843482
 20
37.7224719714
 10
18.058416419
 20
37.0532041641
  0
LINE
  5
27B
100
AcDbEntity
  8
0
100
AcDbLine
 62
7
  6
BYLAYER
 10
28.4389893475
 20
33.7770423093
 11
27.688986225
 21
34.2100470181
  0
LINE
  5
27C
100
AcDbEntity
  8
0
100
AcDbLine
 62
7
  6
BYLAYER
 10
10.0970298911
 20
44.3665379725
 11
9.3470267686
 21
44.7995426813
  0
LINE
  5
27D
100
AcDbEntity
  8
0
100
AcDbLine
 62
7
  6
BYLAYER
 10
31.620956615
 20
13.5685757392
 11
31.620956615
 21
35.6141410017
  0
LINE
  5
27E
100
AcDbEntity
  8
0
100
AcDbLine
 62
7
  6
BYLAYER
 10
31.620956615
 20
35.6141410017
 11
12.528994036
 21
46.6366413738
  0
LINE
  5
27F
100
AcDbEntity
  8
0
100
AcDbLine
 62
7
  6
BYLAYER
 10
22.9823292463
 20
18.733068663
 11
18.3861543044
 21
16.0794816628
  0
LINE
  5
280
100
AcDbEntity
  8
0
100
AcDbLine
 62
7
  6
BYLAYER
 10
24.7432732609
 20
18.2478466699
 11
25.1675355632
 21
18.4927931622
  0
LINE
  5
281
100
AcDbEntity
  8
0
100
AcDbLine
 62
7
  6
BYLAYER
 10
21.3908293991
 20
16.3122484987
 11
20.9665670968
 21
16.0673020064
  0
LINE
  5
282
100
AcDbEntity
  8
0
100
AcDbLine
 62
7
  6
BYLAYER
 10
22.8806660044
 20
15.969912484
 11
19.4865675857
 21
14.0103405454
  0
LINE
  5
283
100
AcDbEntity
  8
0
100
AcDbLine
 62
7
  6
BYLAYER
 10
23.9626542964
 20
16.3636552238
 11
23.3344524617
 21
16.0009648904
  0
LINE
  5
284
100
AcDbEntity
  8
0
100
AcDbLine
 62
7
  6
BYLAYER
 10
37.3838525939
 20
17.5489666515
 11
37.3838525939
 21
38.3697782883
  0
LINE
  5
285
100
AcDbEntity
  8
0
100
AcDbLine
 62
7
  6
BYLAYER
 10
37.4192080801
 20
38.5534918549
 11
37.4192080801
 21
17.3244290095
  0
LINE
  5
286
100
AcDbEntity
  8
0
100
AcDbLine
 62
7
  6
BYLAYER
 10
36.8888757863
 20
39.2270985085
 11
18.857577795
 21
49.6372377488
  0
LINE
  5
287
100
AcDbEntity
  8
0
100
AcDbLine
 62
7
  6
BYLAYER
 10
18.6808003637
 20
49.7801230582
 11
37.0656532176
 21
39.1658634407
  0
LINE
  5
288
100
AcDbEntity
  8
0
100
AcDbLine
 62
7
  6
BYLAYER
 10
19.387904201
 20
50.1883672121
 11
37.7727570548
 21
39.5741075946
  0
LINE
  5
289
100
AcDbEntity
  8
0
100
AcDbLine
 62
7
  6
BYLAYER
 10
38.1263119173
 20
38.9617360088
 11
38.1263119173
 21
17.7326731634
  0
LWPOLYLINE
  5
28A
100
AcDbEntity
  8
0
100
AcDbPolyline
 62
7
  6
BYLAYER
 90
3
 70
0
 10
38.8382045604
 20
32.9240063658
 10
38.5976638203
 20
31.1310624956
 10
38.1263119173
 20
30.2114022222
  0
LINE
  5
28B
100
AcDbEntity
  8
0
100
AcDbLine
 62
7
  6
BYLAYER
 10
25.9159287262
 20
14.8355820154
 11
25.4916664238
 21
14.5906355231
  0
LINE
  5
28C
100
AcDbEntity
  8
0
100
AcDbLine
 62
7
  6
BYLAYER
 10
25.2826331486
 20
14.1235239007
 11
24.6208835256
 21
13.7414648584
  0
LINE
  5
28D
100
AcDbEntity
  8
0
100
AcDbLine
 62
7
  6
BYLAYER
 10
24.4854837538
 20
13.4673394652
 11
25.2354933564
 21
13.9003551264
  0
LINE
  5
28E
100
AcDbEntity
  8
0
100
AcDbLine
 62
7
  6
BYLAYER
 10
24.380659289
 20
13.3718323956
 11
20.9865608704
 21
11.412260457
  0
LINE
  5
28F
100
AcDbEntity
  8
0
100
AcDbLine
 62
7
  6
BYLAYER
 10
25.4276655645
 20
13.5675049461
 11
25.8519278668
 21
13.8124514385
  0
LINE
  5
290
100
AcDbEntity
  8
0
100
AcDbLine
 62
7
  6
BYLAYER
 10
25.1019247443
 20
13.3794245533
 11
24.6776624419
 21
13.1344780609
  0
LWPOLYLINE
  5
291
100
AcDbEntity
  8
0
100
AcDbPolyline
 62
7
  6
BYLAYER
 90
3
 70
0
 10
38.2334858718
 20
36.1257553379
 10
38.5976638203
 20
34.9946964746
 10
38.8382045604
 20
32.9240063658
  0
LINE
  5
292
100
AcDbEntity
  8
0
100
AcDbLine
 62
7
  6
BYLAYER
 10
38.3818758672
 20
19.9040240368
 11
38.1263119173
 21
19.7174755374
  0
LINE
  5
293
100
AcDbEntity
  8
0
100
AcDbLine
 62
7
  6
BYLAYER
 10
28.4389893475
 20
12.5975086408
 11
26.2747785505
 21
11.3479934479
  0
LINE
  5
294
100
AcDbEntity
  8
0
100
AcDbLine
 62
7
  6
BYLAYER
 10
37.3838525939
 20
17.5489666515
 11
31.620956615
 21
14.2217769674
  0
LINE
  5
295
100
AcDbEntity
  8
0
100
AcDbLine
 62
7
  6
BYLAYER
 10
31.620956615
 20
13.9850296122
 11
37.2388742194
 21
17.2285164924
  0
LINE
  5
296
100
AcDbEntity
  8
0
100
AcDbLine
 62
7
  6
BYLAYER
 10
38.1263119173
 20
17.7326731634
 11
37.4192080801
 21
17.3244290095
  0
LINE
  5
297
100
AcDbEntity
  8
0
100
AcDbLine
 62
7
  6
BYLAYER
 10
38.0227559356
 20
17.5037801926
 11
37.3156520983
 21
17.0955360387
  0
LINE
  5
298
100
AcDbEntity
  8
0
100
AcDbLine
 62
7
  6
BYLAYER
 10
31.620956615
 20
13.5685757392
 11
28.4389893475
 21
11.7314770468
  0
ARC
  5
299
100
AcDbEntity
  8
0
100
AcDbCircle
 62
7
  6
BYLAYER
 10
5.7735634845
 20
20.59960646
 40
20.1123971196
100
AcDbArc
 50
19.4065075904
 51
25.9241420135
  0
ARC
  5
29A
100
AcDbEntity
  8
0
100
AcDbCircle
 62
7
  6
BYLAYER
 10
5.694510725
 20
20.736857257
 40
20.1122325856
100
AcDbArc
 50
34.0762384077
 51
40.5938042986
  0
ARC
  5
29B
100
AcDbEntity
  8
0
100
AcDbCircle
 62
7
  6
BYLAYER
 10
3.1127201821
 20
19.1548106118
 40
15.7133812281
100
AcDbArc
 50
26.3513670054
 51
33.648908444
  0
ARC
  5
29C
100
AcDbEntity
  8
0
100
AcDbCircle
 62
7
  6
BYLAYER
 10
18.2769043292
 20
27.9098045291
 40
14.6880407133
100
AcDbArc
 50
206.0962722263
 51
213.9040032231
  0
ARC
  5
29D
100
AcDbEntity
  8
0
100
AcDbCircle
 62
7
  6
BYLAYER
 10
1.3365431705
 20
18.1293404445
 40
14.6880407133
100
AcDbArc
 50
26.0962722263
 51
33.9040032231
  0
ARC
  5
29E
100
AcDbEntity
  8
0
100
AcDbCircle
 62
7
  6
BYLAYER
 10
8.4627340435
 20
21.9345331838
 40
3.1153513709
100
AcDbArc
 50
9.4862653818
 51
9.7972738411
  0
ARC
  5
29F
100
AcDbEntity
  8
0
100
AcDbCircle
 62
7
  6
BYLAYER
 10
9.154531853
 20
29.6197288244
 40
3.0486637402
100
AcDbArc
 50
109.0841816505
 51
130.9172370345
  0
ARC
  5
2A0
100
AcDbEntity
  8
0
100
AcDbCircle
 62
7
  6
BYLAYER
 10
15.1965113608
 20
19.1546519718
 40
3.0486637402
100
AcDbArc
 50
289.0841816161
 51
310.9172370689
  0
ARC
  5
2A1
100
AcDbEntity
  8
0
100
AcDbCircle
 62
7
  6
BYLAYER
 10
6.9832746451
 20
27.9099583915
 40
2.8530456734
100
AcDbArc
 50
108.3255427858
 51
131.6758758992
  0
ARC
  5
2A2
100
AcDbEntity
  8
0
100
AcDbCircle
 62
7
  6
BYLAYER
 10
12.6301728614
 20
18.1291865704
 40
2.8530456734
100
AcDbArc
 50
288.3255427306
 51
311.6758759544
  0
ARC
  5
2A3
100
AcDbEntity
  8
0
100
AcDbCircle
 62
7
  6
BYLAYER
 10
21.356923338
 20
46.7593334577
 40
2.7453633819
100
AcDbArc
 50
58.0552857949
 51
59.9953411765
  0
ARC
  5
2A4
100
AcDbEntity
  8
0
100
AcDbCircle
 62
7
  6
BYLAYER
 10
35.4991178409
 20
38.5945183672
 40
2.745363382
100
AcDbArc
 50
58.0552857949
 51
59.9953411765
  0
ARC
  5
2A5
100
AcDbEntity
  8
0
100
AcDbCircle
 62
7
  6
BYLAYER
 10
5.3559697328
 20
20.8232691378
 40
1.4756342744
100
AcDbArc
 50
57.4720726408
 51
59.9738644836
  0
ARC
  5
2A6
100
AcDbEntity
  8
0
100
AcDbCircle
 62
7
  6
BYLAYER
 10
6.4566279894
 20
20.5747621746
 40
0.9801505554
100
AcDbArc
 50
246.7706820541
 51
248.7530635842
  0
ARC
  5
2A7
100
AcDbEntity
  8
0
100
AcDbCircle
 62
7
  6
BYLAYER
 10
5.9967544623
 20
21.3428362895
 40
0.9622395405
100
AcDbArc
 50
171.3038844726
 51
172.6531638337
  0
ARC
  5
2A8
100
AcDbEntity
  8
0
100
AcDbCircle
 62
7
  6
BYLAYER
 10
6.4322304293
 20
20.5122191357
 40
0.913017354
100
AcDbArc
 50
248.7577281889
 51
251.6265464535
  0
ARC
  5
2A9
100
AcDbEntity
  8
0
100
AcDbCircle
 62
7
  6
BYLAYER
 10
6.4322304293
 20
36.8422674783
 40
0.9130173541
100
AcDbArc
 50
248.7577281889
 51
251.6265464535
  0
ARC
  5
2AA
100
AcDbEntity
  8
0
100
AcDbCircle
 62
7
  6
BYLAYER
 10
20.5744249323
 20
12.3474040453
 40
0.913017354
100
AcDbArc
 50
248.7577281889
 51
251.6265464535
  0
ARC
  5
2AB
100
AcDbEntity
  8
0
100
AcDbCircle
 62
7
  6
BYLAYER
 10
20.5744249323
 20
28.6774523879
 40
0.9130173541
100
AcDbArc
 50
248.7577281889
 51
251.6265464535
  0
SPLINE
  5
2AC
100
AcDbEntity
  8
0
100
AcDbSpline
 62
7
  6
BYLAYER
 70
0
 71
3
 72
14
 73
10
 74
0
 42
0.0000001
 43
0.0000001
 44
0.0000000001
 40
0.0
 40
0.0
 40
0.0
 40
0.0
 40
0.1080459323
 40
0.2181313488
 40
0.3321039321
 40
0.4515028882
 40
0.5774599497
 40
0.7107294907
 40
1.0
 40
1.0
 40
1.0
 40
1.0
 10
5.3443748902
 20
22.1751525049
 30
0.0
 10
5.319779987
 20
22.1609563545
 30
0.0
 10
5.2724969363
 20
22.1279580911
 30
0.0
 10
5.2100228552
 20
22.0664683154
 30
0.0
 10
5.1562813108
 20
21.9934942774
 30
0.0
 10
5.1118020161
 20
21.9098429166
 30
0.0
 10
5.0768852908
 20
21.8163721844
 30
0.0
 10
5.0425916639
 20
21.676094035
 30
0.0
 10
5.0337099507
 20
21.564492864
 30
0.0
 10
5.033710498
 20
21.48846343
 30
0.0
  0
SPLINE
  5
2AD
100
AcDbEntity
  8
0
100
AcDbSpline
 62
7
  6
BYLAYER
 70
0
 71
3
 72
16
 73
12
 74
0
 42
0.0000001
 43
0.0000001
 44
0.0000000001
 40
0.0
 40
0.0
 40
0.0
 40
0.0
 40
0.1141443636
 40
0.2373042664
 40
0.3669417896
 40
0.4999517561
 40
0.6329636082
 40
0.7626014919
 40
0.8857719151
 40
0.9441696317
 40
1.0
 40
1.0
 40
1.0
 40
1.0
 10
5.0337132142
 20
21.3251669216
 30
0.0
 10
5.0337135696
 20
21.2525035392
 30
0.0
 10
5.0470236232
 20
21.1012965439
 30
0.0
 10
5.1000799921
 20
20.8731837819
 30
0.0
 10
5.1850754564
 20
20.6421238007
 30
0.0
 10
5.2988260486
 20
20.4168058695
 30
0.0
 10
5.4370921698
 20
20.2056228828
 30
0.0
 10
5.5946659704
 20
20.0165105762
 30
0.0
 10
5.7398099457
 20
19.8807085284
 30
0.0
 10
5.860756199
 20
19.7899025951
 30
0.0
 10
5.9221692338
 20
19.7507838984
 30
0.0
 10
5.9529489577
 20
19.7330136186
 30
0.0
  0
SPLINE
  5
2AE
100
AcDbEntity
  8
0
100
AcDbSpline
 62
7
  6
BYLAYER
 70
0
 71
3
 72
14
 73
10
 74
0
 42
0.0000001
 43
0.0000001
 44
0.0000000001
 40
0.0
 40
0.0
 40
0.0
 40
0.0
 40
0.1485710107
 40
0.289617274
 40
0.5484438768
 40
0.6678416081
 40
0.7818365524
 40
0.8919377329
 40
1.0
 40
1.0
 40
1.0
 40
1.0
 10
6.0943697251
 20
19.6513619659
 30
0.0
 10
6.1281816962
 20
19.6318410569
 30
0.0
 10
6.1957437996
 20
19.5964959393
 30
0.0
 10
6.3291975503
 20
19.5418333808
 30
0.0
 10
6.4633542198
 20
19.5095193608
 30
0.0
 10
6.5929994374
 20
19.5050305367
 30
0.0
 10
6.6830692185
 20
19.5150643097
 30
0.0
 10
6.7675565252
 20
19.5384280272
 30
0.0
 10
6.8197701449
 20
19.5628828096
 30
0.0
 10
6.84436456
 20
19.5770786783
 30
0.0
  0
SPLINE
  5
2AF
100
AcDbEntity
  8
0
100
AcDbSpline
 62
7
  6
BYLAYER
 70
0
 71
3
 72
9
 73
5
 74
0
 42
0.0000001
 43
0.0000001
 44
0.0000000001
 40
0.0
 40
0.0
 40
0.0
 40
0.0
 40
0.2561229679
 40
1.0
 40
1.0
 40
1.0
 40
1.0
 10
5.9529489577
 20
19.7330136186
 30
0.0
 10
5.962644813
 20
19.7274158405
 30
0.0
 10
6.0007997823
 20
19.7060844532
 30
0.0
 10
6.0401629543
 20
19.6868912781
 30
0.0
 10
6.0700446773
 20
19.6740688561
 30
0.0
  0
SPLINE
  5
2B0
100
AcDbEntity
  8
0
100
AcDbSpline
 62
7
  6
BYLAYER
 70
0
 71
3
 72
18
 73
14
 74
0
 42
0.0000001
 43
0.0000001
 44
0.0000000001
 40
0.0
 40
0.0
 40
0.0
 40
0.0
 40
0.1352527363
 40
0.259136499
 40
0.3178657516
 40
0.3750797008
 40
0.4314174765
 40
0.4875676256
 40
0.5442321966
 40
0.6020772923
 40
0.7234102582
 40
0.8554215158
 40
1.0
 40
1.0
 40
1.0
 40
1.0
 10
6.1444388071
 20
19.6457454368
 30
0.0
 10
6.189747733
 20
19.6307244033
 30
0.0
 10
6.2791849755
 20
19.6089505488
 30
0.0
 10
6.3923455308
 20
19.6053405093
 30
0.0
 10
6.4761975047
 20
19.618305225
 30
0.0
 10
6.5347560171
 20
19.6353317973
 30
0.0
 10
6.5896583011
 20
19.6597258478
 30
0.0
 10
6.6405362995
 20
19.6913149231
 30
0.0
 10
6.6870147156
 20
19.729915387
 30
0.0
 10
6.7436228476
 20
19.7912248962
 30
0.0
 10
6.8018933244
 20
19.8856599721
 30
0.0
 10
6.8484904498
 20
20.0190292178
 30
0.0
 10
6.86382028
 20
20.1159547179
 30
0.0
 10
6.8681588424
 20
20.1667951678
 30
0.0
  0
SPLINE
  5
2B1
100
AcDbEntity
  8
0
100
AcDbSpline
 62
7
  6
BYLAYER
 70
0
 71
3
 72
19
 73
15
 74
0
 42
0.0000001
 43
0.0000001
 44
0.0000000001
 40
0.0
 40
0.0
 40
0.0
 40
0.0
 40
0.1432819079
 40
0.2736216368
 40
0.3932861457
 40
0.450441546
 40
0.5065863632
 40
0.5624491054
 40
0.6187774686
 40
0.6762850205
 40
0.735613963
 40
0.7973059552
 40
0.8617759892
 40
1.0
 40
1.0
 40
1.0
 40
1.0
 10
5.8621218531
 20
21.9031516546
 30
0.0
 10
5.8144148887
 20
21.9252221748
 30
0.0
 10
5.7199005606
 20
21.9607095353
 30
0.0
 10
5.5767814834
 20
21.9854428055
 30
0.0
 10
5.462991072
 20
21.9789005233
 30
0.0
 10
5.3801592656
 20
21.95688495
 30
0.0
 10
5.3227762282
 20
21.9327050768
 30
0.0
 10
5.2696588875
 20
21.9007952243
 30
0.0
 10
5.2212220096
 20
21.8613589412
 30
0.0
 10
5.1777836286
 20
21.8147418628
 30
0.0
 10
5.1396526322
 20
21.7612783107
 30
0.0
 10
5.1070694646
 20
21.7013552199
 30
0.0
 10
5.0704142905
 20
21.611392285
 30
0.0
 10
5.0532454742
 20
21.5384469986
 30
0.0
 10
5.0455766934
 20
21.4883209452
 30
0.0
  0
SPLINE
  5
2B2
100
AcDbEntity
  8
0
100
AcDbSpline
 62
7
  6
BYLAYER
 70
0
 71
3
 72
9
 73
5
 74
0
 42
0.0000001
 43
0.0000001
 44
0.0000000001
 40
0.0
 40
0.0
 40
0.0
 40
0.0
 40
0.243174914
 40
1.0
 40
1.0
 40
1.0
 40
1.0
 10
5.0424146748
 20
21.4658830417
 30
0.0
 10
5.0409515001
 20
21.4545445727
 30
0.0
 10
5.0357483969
 20
21.4078143538
 30
0.0
 10
5.0337130402
 20
21.3607478656
 30
0.0
 10
5.0337132142
 20
21.3251669216
 30
0.0
  0
SPLINE
  5
2B3
100
AcDbEntity
  8
0
100
AcDbSpline
 62
7
  6
BYLAYER
 70
0
 71
3
 72
14
 73
10
 74
0
 42
0.0000001
 43
0.0000001
 44
0.0000000001
 40
0.0
 40
0.0
 40
0.0
 40
0.0
 40
0.1485710107
 40
0.289617274
 40
0.5484438768
 40
0.6678416081
 40
0.7818365524
 40
0.8919377329
 40
1.0
 40
1.0
 40
1.0
 40
1.0
 10
6.0943697251
 20
22.1008692173
 30
0.0
 10
6.060557754
 20
22.1203901263
 30
0.0
 10
5.9929956506
 20
22.1557352439
 30
0.0
 10
5.8595419
 20
22.2103978024
 30
0.0
 10
5.7253852305
 20
22.2427118224
 30
0.0
 10
5.5957400128
 20
22.2472006465
 30
0.0
 10
5.5056702317
 20
22.2371668735
 30
0.0
 10
5.4211829251
 20
22.213803156
 30
0.0
 10
5.3689693053
 20
22.1893483736
 30
0.0
 10
5.3443748902
 20
22.1751525049
 30
0.0
  0
SPLINE
  5
2B4
100
AcDbEntity
  8
0
100
AcDbSpline
 62
7
  6
BYLAYER
 70
0
 71
3
 72
14
 73
10
 74
0
 42
0.0000001
 43
0.0000001
 44
0.0000000001
 40
0.0
 40
0.0
 40
0.0
 40
0.0
 40
0.1065330299
 40
0.2153443989
 40
0.3284753281
 40
0.447575618
 40
0.5738167795
 40
0.7079043587
 40
1.0
 40
1.0
 40
1.0
 40
1.0
 10
6.84436456
 20
19.5770786783
 30
0.0
 10
6.8705948866
 20
19.5922187931
 30
0.0
 10
6.9209180784
 20
19.6277745997
 30
0.0
 10
6.9866922801
 20
19.6946899465
 30
0.0
 10
7.0424063837
 20
19.7745540264
 30
0.0
 10
7.0874901886
 20
19.8663378733
 30
0.0
 10
7.1215688698
 20
19.9690016096
 30
0.0
 10
7.1528129639
 20
20.1231978366
 30
0.0
 10
7.1572371845
 20
20.2452893184
 30
0.0
 10
7.1535972815
 20
20.3282491332
 30
0.0
  0
SPLINE
  5
2B5
100
AcDbEntity
  8
0
100
AcDbSpline
 62
7
  6
BYLAYER
 70
0
 71
3
 72
14
 73
10
 74
0
 42
0.0000001
 43
0.0000001
 44
0.0000000001
 40
0.0
 40
0.0
 40
0.0
 40
0.0
 40
0.1080459323
 40
0.2181313488
 40
0.3321039321
 40
0.4515028882
 40
0.5774599497
 40
0.7107294907
 40
1.0
 40
1.0
 40
1.0
 40
1.0
 10
5.3443748902
 20
38.5052008475
 30
0.0
 10
5.319779987
 20
38.4910046971
 30
0.0
 10
5.2724969363
 20
38.4580064337
 30
0.0
 10
5.2100228552
 20
38.396516658
 30
0.0
 10
5.1562813108
 20
38.32354262
 30
0.0
 10
5.1118020161
 20
38.2398912592
 30
0.0
 10
5.0768852908
 20
38.146420527
 30
0.0
 10
5.0425916639
 20
38.0061423776
 30
0.0
 10
5.0337099507
 20
37.8945412066
 30
0.0
 10
5.033710498
 20
37.8185117726
 30
0.0
  0
SPLINE
  5
2B6
100
AcDbEntity
  8
0
100
AcDbSpline
 62
7
  6
BYLAYER
 70
0
 71
3
 72
14
 73
10
 74
0
 42
0.0000001
 43
0.0000001
 44
0.0000000001
 40
0.0
 40
0.0
 40
0.0
 40
0.0
 40
0.1080622671
 40
0.2181634476
 40
0.3321583919
 40
0.4515561232
 40
0.710382726
 40
0.8514289893
 40
1.0
 40
1.0
 40
1.0
 40
1.0
 10
8.7384733089
 20
40.4647727861
 30
0.0
 10
8.763067724
 20
40.4789686548
 30
0.0
 10
8.8152813437
 20
40.5034234371
 30
0.0
 10
8.8997686504
 20
40.5267871546
 30
0.0
 10
8.9898384315
 20
40.5368209277
 30
0.0
 10
9.1194836491
 20
40.5323321036
 30
0.0
 10
9.2536403186
 20
40.5000180836
 30
0.0
 10
9.3870940693
 20
40.4453555251
 30
0.0
 10
9.4546561727
 20
40.4100104075
 30
0.0
 10
9.4884681438
 20
40.3904894985
 30
0.0
  0
SPLINE
  5
2B7
100
AcDbEntity
  8
0
100
AcDbSpline
 62
7
  6
BYLAYER
 70
0
 71
3
 72
16
 73
12
 74
0
 42
0.0000001
 43
0.0000001
 44
0.0000000001
 40
0.0
 40
0.0
 40
0.0
 40
0.0
 40
0.1141443636
 40
0.2373042664
 40
0.3669417896
 40
0.4999517561
 40
0.6329636082
 40
0.7626014919
 40
0.8857719151
 40
0.9441696317
 40
1.0
 40
1.0
 40
1.0
 40
1.0
 10
5.0337132142
 20
37.6552152642
 30
0.0
 10
5.0337135696
 20
37.5825518817
 30
0.0
 10
5.0470236232
 20
37.4313448865
 30
0.0
 10
5.1000799921
 20
37.2032321245
 30
0.0
 10
5.1850754564
 20
36.9721721433
 30
0.0
 10
5.2988260486
 20
36.7468542121
 30
0.0
 10
5.4370921698
 20
36.5356712254
 30
0.0
 10
5.5946659704
 20
36.3465589188
 30
0.0
 10
5.7398099457
 20
36.2107568709
 30
0.0
 10
5.860756199
 20
36.1199509377
 30
0.0
 10
5.9221692338
 20
36.080832241
 30
0.0
 10
5.9529489577
 20
36.0630619612
 30
0.0
  0
SPLINE
  5
2B8
100
AcDbEntity
  8
0
100
AcDbSpline
 62
7
  6
BYLAYER
 70
0
 71
3
 72
14
 73
10
 74
0
 42
0.0000001
 43
0.0000001
 44
0.0000000001
 40
0.0
 40
0.0
 40
0.0
 40
0.0
 40
0.1485710107
 40
0.289617274
 40
0.5484438768
 40
0.6678416081
 40
0.7818365524
 40
0.8919377329
 40
1.0
 40
1.0
 40
1.0
 40
1.0
 10
6.0943697251
 20
35.9814103085
 30
0.0
 10
6.1281816962
 20
35.9618893995
 30
0.0
 10
6.1957437996
 20
35.9265442819
 30
0.0
 10
6.3291975503
 20
35.8718817234
 30
0.0
 10
6.4633542198
 20
35.8395677034
 30
0.0
 10
6.5929994374
 20
35.8350788793
 30
0.0
 10
6.6830692185
 20
35.8451126523
 30
0.0
 10
6.7675565252
 20
35.8684763698
 30
0.0
 10
6.8197701449
 20
35.8929311522
 30
0.0
 10
6.84436456
 20
35.9071270209
 30
0.0
  0
SPLINE
  5
2B9
100
AcDbEntity
  8
0
100
AcDbSpline
 62
7
  6
BYLAYER
 70
0
 71
3
 72
14
 73
10
 74
0
 42
0.0000001
 43
0.0000001
 44
0.0000000001
 40
0.0
 40
0.0
 40
0.0
 40
0.0
 40
0.2892705093
 40
0.4225400503
 40
0.5484971118
 40
0.6678960679
 40
0.7818686512
 40
0.8919540677
 40
1.0
 40
1.0
 40
1.0
 40
1.0
 10
10.5491273709
 20
38.5533880343
 30
0.0
 10
10.5491279182
 20
38.4773586003
 30
0.0
 10
10.540246205
 20
38.3657574294
 30
0.0
 10
10.5059525781
 20
38.22547928
 30
0.0
 10
10.4710358527
 20
38.1320085478
 30
0.0
 10
10.4265565581
 20
38.048357187
 30
0.0
 10
10.3728150137
 20
37.975383149
 30
0.0
 10
10.3103409326
 20
37.9138933733
 30
0.0
 10
10.2630578819
 20
37.8808951099
 30
0.0
 10
10.2384629787
 20
37.8666989594
 30
0.0
  0
SPLINE
  5
2BA
100
AcDbEntity
  8
0
100
AcDbSpline
 62
7
  6
BYLAYER
 70
0
 71
3
 72
15
 73
11
 74
0
 42
0.0000001
 43
0.0000001
 44
0.0000000001
 40
0.0
 40
0.0
 40
0.0
 40
0.0
 40
0.1157538298
 40
0.2325763145
 40
0.3514802134
 40
0.4731166248
 40
0.5982322922
 40
0.7274752676
 40
0.86137072
 40
1.0
 40
1.0
 40
1.0
 40
1.0
 10
21.3961694918
 20
49.3240239037
 30
0.0
 10
21.4502156117
 20
49.3479424678
 30
0.0
 10
21.562670642
 20
49.3877302513
 30
0.0
 10
21.7394170623
 20
49.4220509761
 30
0.0
 10
21.9221829281
 20
49.4317073162
 30
0.0
 10
22.1088083618
 20
49.4174343105
 30
0.0
 10
22.2975805258
 20
49.380364187
 30
0.0
 10
22.4872628778
 20
49.3215912141
 30
0.0
 10
22.6766975831
 20
49.2421599562
 30
0.0
 10
22.8000078449
 20
49.1772829839
 30
0.0
 10
22.8613073546
 20
49.1418924961
 30
0.0
  0
SPLINE
  5
2BB
100
AcDbEntity
  8
0
100
AcDbSpline
 62
7
  6
BYLAYER
 70
0
 71
3
 72
15
 73
11
 74
0
 42
0.0000001
 43
0.0000001
 44
0.0000000001
 40
0.0
 40
0.0
 40
0.0
 40
0.0
 40
0.1132997333
 40
0.2314180327
 40
0.353719562
 40
0.4795990454
 40
0.6081898093
 40
0.738496149
 40
0.8694623847
 40
1.0
 40
1.0
 40
1.0
 40
1.0
 10
22.8613073546
 20
49.1418924961
 30
0.0
 10
22.9425194782
 20
49.0950057154
 30
0.0
 10
23.103499469
 20
48.9905623334
 30
0.0
 10
23.3338621017
 20
48.8093303148
 30
0.0
 10
23.5559206928
 20
48.6024309322
 30
0.0
 10
23.767160957
 20
48.3726367054
 30
0.0
 10
23.9651641456
 20
48.1228558466
 30
0.0
 10
24.1474790476
 20
47.8562970317
 30
0.0
 10
24.3117894966
 20
47.5764332626
 30
0.0
 10
24.4083779742
 20
47.3825104165
 30
0.0
 10
24.4531101749
 20
47.2841630279
 30
0.0
  0
SPLINE
  5
2BC
100
AcDbEntity
  8
0
100
AcDbSpline
 62
7
  6
BYLAYER
 70
0
 71
3
 72
9
 73
5
 74
0
 42
0.0000001
 43
0.0000001
 44
0.0000000001
 40
0.0
 40
0.0
 40
0.0
 40
0.0
 40
0.2579356184
 40
1.0
 40
1.0
 40
1.0
 40
1.0
 10
5.9529489577
 20
36.0630619612
 30
0.0
 10
5.9652357134
 20
36.0559683599
 30
0.0
 10
6.0133448147
 20
36.0293045883
 30
0.0
 10
6.063387163
 20
36.006064944
 30
0.0
 10
6.1014329903
 20
35.9912834931
 30
0.0
  0
SPLINE
  5
2BD
100
AcDbEntity
  8
0
100
AcDbSpline
 62
7
  6
BYLAYER
 70
0
 71
3
 72
29
 73
25
 74
0
 42
0.0000001
 43
0.0000001
 44
0.0000000001
 40
0.0
 40
0.0
 40
0.0
 40
0.0
 40
0.0275606179
 40
0.0537021813
 40
0.0785703843
 40
0.1023734687
 40
0.1253782002
 40
0.1479118038
 40
0.1703395281
 40
0.1930355278
 40
0.2163499607
 40
0.2405892706
 40
0.2659945661
 40
0.292741788
 40
0.3505680067
 40
0.414333732
 40
0.4834798288
 40
0.5569249786
 40
0.6332382631
 40
0.7107784591
 40
0.7878264283
 40
0.862685387
 40
0.9338354483
 40
1.0
 40
1.0
 40
1.0
 40
1.0
 10
6.1444388071
 20
35.9757937794
 30
0.0
 10
6.1711752089
 20
35.9669299986
 30
0.0
 10
6.2241616607
 20
35.9521773446
 30
0.0
 10
6.3035941765
 20
35.9392641049
 30
0.0
 10
6.3802116976
 20
35.9363370217
 30
0.0
 10
6.4533635161
 20
35.943439434
 30
0.0
 10
6.5224062951
 20
35.9605857349
 30
0.0
 10
6.5866783486
 20
35.9876847712
 30
0.0
 10
6.6455756912
 20
36.0244705969
 30
0.0
 10
6.6985082679
 20
36.0706231816
 30
0.0
 10
6.7450469718
 20
36.125634081
 30
0.0
 10
6.7847650974
 20
36.1890117546
 30
0.0
 10
6.8174188546
 20
36.260149373
 30
0.0
 10
6.852067488
 20
36.3673042898
 30
0.0
 10
6.8750824756
 20
36.5181982979
 30
0.0
 10
6.8714522959
 20
36.7138205333
 30
0.0
 10
6.8377091622
 20
36.9226328242
 30
0.0
 10
6.7749965166
 20
37.1379126298
 30
0.0
 10
6.6853753255
 20
37.352725076
 30
0.0
 10
6.571776561
 20
37.5600647229
 30
0.0
 10
6.4379111921
 20
37.7531330819
 30
0.0
 10
6.2881478404
 20
37.9256613016
 30
0.0
 10
6.1273894953
 20
38.0719475008
 30
0.0
 10
6.0115109846
 20
38.1521582086
 30
0.0
 10
5.9529489577
 20
38.1859682457
 30
0.0
  0
SPLINE
  5
2BE
100
AcDbEntity
  8
0
100
AcDbSpline
 62
7
  6
BYLAYER
 70
0
 71
3
 72
21
 73
17
 74
0
 42
0.0000001
 43
0.0000001
 44
0.0000000001
 40
0.0
 40
0.0
 40
0.0
 40
0.0
 40
0.1482910418
 40
0.2172492843
 40
0.2827604058
 40
0.3450999345
 40
0.404673568
 40
0.4620210576
 40
0.5178103414
 40
0.5728310554
 40
0.6279260904
 40
0.6839344519
 40
0.7416225798
 40
0.8016511936
 40
0.8645292501
 40
1.0
 40
1.0
 40
1.0
 40
1.0
 10
5.9529489577
 20
38.1859682457
 30
0.0
 10
5.9014392632
 20
38.2157067089
 30
0.0
 10
5.8225410094
 20
38.2539731569
 30
0.0
 10
5.7144383341
 20
38.2887452044
 30
0.0
 10
5.6370667501
 20
38.3051645363
 30
0.0
 10
5.5620681885
 20
38.3124196296
 30
0.0
 10
5.4899951939
 20
38.3103929135
 30
0.0
 10
5.4214177944
 20
38.2991031233
 30
0.0
 10
5.3569232896
 20
38.2785314854
 30
0.0
 10
5.2970676707
 20
38.2488687614
 30
0.0
 10
5.2423880807
 20
38.210339546
 30
0.0
 10
5.1933568418
 20
38.1633011323
 30
0.0
 10
5.1503459354
 20
38.1081981588
 30
0.0
 10
5.1137058544
 20
38.0454763965
 30
0.0
 10
5.0726240966
 20
37.9501233501
 30
0.0
 10
5.0537939218
 20
37.8720802019
 30
0.0
 10
5.0455766934
 20
37.8183692878
 30
0.0
  0
SPLINE
  5
2BF
100
AcDbEntity
  8
0
100
AcDbSpline
 62
7
  6
BYLAYER
 70
0
 71
3
 72
9
 73
5
 74
0
 42
0.0000001
 43
0.0000001
 44
0.0000000001
 40
0.0
 40
0.0
 40
0.0
 40
0.0
 40
0.2419772693
 40
1.0
 40
1.0
 40
1.0
 40
1.0
 10
5.0455766934
 20
37.8183692878
 30
0.0
 10
5.0435801699
 20
37.8053192551
 30
0.0
 10
5.0364567991
 20
37.751218182
 30
0.0
 10
5.033713012
 20
37.6965717109
 30
0.0
 10
5.0337132142
 20
37.6552152642
 30
0.0
  0
SPLINE
  5
2C0
100
AcDbEntity
  8
0
100
AcDbSpline
 62
7
  6
BYLAYER
 70
0
 71
3
 72
14
 73
10
 74
0
 42
0.0000001
 43
0.0000001
 44
0.0000000001
 40
0.0
 40
0.0
 40
0.0
 40
0.0
 40
0.1485710107
 40
0.289617274
 40
0.5484438768
 40
0.6678416081
 40
0.7818365524
 40
0.8919377329
 40
1.0
 40
1.0
 40
1.0
 40
1.0
 10
6.0943697251
 20
38.4309175599
 30
0.0
 10
6.060557754
 20
38.4504384689
 30
0.0
 10
5.9929956506
 20
38.4857835865
 30
0.0
 10
5.8595419
 20
38.540446145
 30
0.0
 10
5.7253852305
 20
38.572760165
 30
0.0
 10
5.5957400128
 20
38.5772489891
 30
0.0
 10
5.5056702317
 20
38.5672152161
 30
0.0
 10
5.4211829251
 20
38.5438514986
 30
0.0
 10
5.3689693053
 20
38.5193967162
 30
0.0
 10
5.3443748902
 20
38.5052008475
 30
0.0
  0
SPLINE
  5
2C1
100
AcDbEntity
  8
0
100
AcDbSpline
 62
7
  6
BYLAYER
 70
0
 71
3
 72
25
 73
21
 74
0
 42
0.0000001
 43
0.0000001
 44
0.0000000001
 40
0.0
 40
0.0
 40
0.0
 40
0.0
 40
0.0213318983
 40
0.0428928102
 40
0.0648981603
 40
0.087542819
 40
0.135318404
 40
0.1872201929
 40
0.2436573173
 40
0.304604889
 40
0.3696935311
 40
0.4382905898
 40
0.5095767823
 40
0.5826015838
 40
0.6563322964
 40
0.7297102087
 40
0.8016872329
 40
0.8712712011
 40
0.9376317001
 40
1.0
 40
1.0
 40
1.0
 40
1.0
 10
6.84436456
 20
35.9071270209
 30
0.0
 10
6.8627942457
 20
35.9177646146
 30
0.0
 10
6.8985208139
 20
35.9415591791
 30
0.0
 10
6.9475423081
 20
35.9840867632
 30
0.0
 10
6.9918883234
 20
36.0332528473
 30
0.0
 10
7.0453487604
 20
36.1085893885
 30
0.0
 10
7.0988705305
 20
36.2192894493
 30
0.0
 10
7.1396575115
 20
36.3703256033
 30
0.0
 10
7.1578423996
 20
36.5388057686
 30
0.0
 10
7.1532021997
 20
36.7212287839
 30
0.0
 10
7.1259312804
 20
36.9138409925
 30
0.0
 10
7.076655728
 20
37.1126150347
 30
0.0
 10
7.006431245
 20
37.3133598027
 30
0.0
 10
6.916738206
 20
37.5118061731
 30
0.0
 10
6.8094997878
 20
37.703731414
 30
0.0
 10
6.6870048491
 20
37.8850433324
 30
0.0
 10
6.5518653662
 20
38.0518618594
 30
0.0
 10
6.4069346922
 20
38.2006781723
 30
0.0
 10
6.2553080577
 20
38.3282491776
 30
0.0
 10
6.1482495676
 20
38.3998107221
 30
0.0
 10
6.0943697251
 20
38.4309175599
 30
0.0
  0
SPLINE
  5
2C2
100
AcDbEntity
  8
0
100
AcDbSpline
 62
7
  6
BYLAYER
 70
0
 71
3
 72
14
 73
10
 74
0
 42
0.0000001
 43
0.0000001
 44
0.0000000001
 40
0.0
 40
0.0
 40
0.0
 40
0.0
 40
0.1124388962
 40
0.2299739354
 40
0.3519493606
 40
0.4776652989
 40
0.6062732113
 40
0.7368587485
 40
1.0
 40
1.0
 40
1.0
 40
1.0
 10
22.8094970796
 20
49.0889363475
 30
0.0
 10
22.8822691255
 20
49.043587656
 30
0.0
 10
23.027002048
 20
48.9441102119
 30
0.0
 10
23.2355428568
 20
48.7747651032
 30
0.0
 10
23.4384365224
 20
48.583607075
 30
0.0
 10
23.6334169864
 20
48.372773923
 30
0.0
 10
23.8183828597
 20
48.1445746137
 30
0.0
 10
24.0493587172
 20
47.819838192
 30
0.0
 10
24.2006886293
 20
47.5593585662
 30
0.0
 10
24.2906964178
 20
47.3800064283
 30
0.0
  0
SPLINE
  5
2C3
100
AcDbEntity
  8
0
100
AcDbSpline
 62
7
  6
BYLAYER
 70
0
 71
3
 72
16
 73
12
 74
0
 42
0.0000001
 43
0.0000001
 44
0.0000000001
 40
0.0
 40
0.0
 40
0.0
 40
0.0
 40
0.1141450816
 40
0.2373060943
 40
0.3669448688
 40
0.4999573263
 40
0.6329713342
 40
0.7626070299
 40
0.8857738914
 40
0.9441700594
 40
1.0
 40
1.0
 40
1.0
 40
1.0
 10
10.5491269081
 20
38.7166832436
 30
0.0
 10
10.549126385
 20
38.7893471817
 30
0.0
 10
10.5358164434
 20
38.9405555607
 30
0.0
 10
10.4827589326
 20
39.1686704247
 30
0.0
 10
10.3977619662
 20
39.3997335336
 30
0.0
 10
10.2840079714
 20
39.6250543345
 30
0.0
 10
10.1457403977
 20
39.8362387049
 30
0.0
 10
9.9881655701
 20
40.0253476302
 30
0.0
 10
9.8430244384
 20
40.1611461565
 30
0.0
 10
9.7220807117
 20
40.2519499525
 30
0.0
 10
9.6606684411
 20
40.291067678
 30
0.0
 10
9.6298889112
 20
40.3088378458
 30
0.0
  0
SPLINE
  5
2C4
100
AcDbEntity
  8
0
100
AcDbSpline
 62
7
  6
BYLAYER
 70
0
 71
3
 72
15
 73
11
 74
0
 42
0.0000001
 43
0.0000001
 44
0.0000000001
 40
0.0
 40
0.0
 40
0.0
 40
0.0
 40
0.1077062963
 40
0.2182287649
 40
0.332999607
 40
0.4531532663
 40
0.5795237917
 40
0.7126762496
 40
0.8528918381
 40
1.0
 40
1.0
 40
1.0
 40
1.0
 10
21.3961704032
 20
49.3240221862
 30
0.0
 10
21.4420116482
 20
49.3443135469
 30
0.0
 10
21.5382876744
 20
49.3781457616
 30
0.0
 10
21.6910756706
 20
49.4071395678
 30
0.0
 10
21.852184832
 20
49.4146427122
 30
0.0
 10
22.0201967204
 20
49.4007666705
 30
0.0
 10
22.19376705
 20
49.3656780419
 30
0.0
 10
22.3715482249
 20
49.309758041
 30
0.0
 10
22.5520553552
 20
49.233476244
 30
0.0
 10
22.6705005242
 20
49.1710111058
 30
0.0
 10
22.7297983477
 20
49.136776266
 30
0.0
  0
SPLINE
  5
2C5
100
AcDbEntity
  8
0
100
AcDbSpline
 62
7
  6
BYLAYER
 70
0
 71
3
 72
16
 73
12
 74
0
 42
0.0000001
 43
0.0000001
 44
0.0000000001
 40
0.0
 40
0.0
 40
0.0
 40
0.0
 40
0.0558299406
 40
0.1142261086
 40
0.2373929701
 40
0.3670286658
 40
0.5000426737
 40
0.6330551312
 40
0.7626939057
 40
0.8858549184
 40
1.0
 40
1.0
 40
1.0
 40
1.0
 10
9.4884681438
 20
40.3904894985
 30
0.0
 10
9.5239829859
 20
40.3699854587
 30
0.0
 10
9.5948432982
 20
40.3248496216
 30
0.0
 10
9.734393752
 20
40.2200760108
 30
0.0
 10
9.9018642887
 20
40.0633854036
 30
0.0
 10
10.0836813974
 20
39.8451827974
 30
0.0
 10
10.2432209055
 20
39.6015085239
 30
0.0
 10
10.3744755149
 20
39.3415229843
 30
0.0
 10
10.4725489377
 20
39.0749117049
 30
0.0
 10
10.5337691424
 20
38.8117022464
 30
0.0
 10
10.5491267674
 20
38.6372310398
 30
0.0
 10
10.5491273709
 20
38.5533880343
 30
0.0
  0
SPLINE
  5
2C6
100
AcDbEntity
  8
0
100
AcDbSpline
 62
7
  6
BYLAYER
 70
0
 71
3
 72
14
 73
10
 74
0
 42
0.0000001
 43
0.0000001
 44
0.0000000001
 40
0.0
 40
0.0
 40
0.0
 40
0.0
 40
0.1080459323
 40
0.2181313488
 40
0.3321039321
 40
0.4515028882
 40
0.5774599497
 40
0.7107294907
 40
1.0
 40
1.0
 40
1.0
 40
1.0
 10
19.4865693932
 20
14.0103374145
 30
0.0
 10
19.4619744899
 20
13.9961412641
 30
0.0
 10
19.4146914392
 20
13.9631430007
 30
0.0
 10
19.3522173581
 20
13.901653225
 30
0.0
 10
19.2984758138
 20
13.828679187
 30
0.0
 10
19.2539965191
 20
13.7450278262
 30
0.0
 10
19.2190797937
 20
13.651557094
 30
0.0
 10
19.1847861668
 20
13.5112789446
 30
0.0
 10
19.1759044537
 20
13.3996777736
 30
0.0
 10
19.1759050009
 20
13.3236483396
 30
0.0
  0
SPLINE
  5
2C7
100
AcDbEntity
  8
0
100
AcDbSpline
 62
7
  6
BYLAYER
 70
0
 71
3
 72
14
 73
10
 74
0
 42
0.0000001
 43
0.0000001
 44
0.0000000001
 40
0.0
 40
0.0
 40
0.0
 40
0.0
 40
0.1080622671
 40
0.2181634476
 40
0.3321583919
 40
0.4515561232
 40
0.710382726
 40
0.8514289893
 40
1.0
 40
1.0
 40
1.0
 40
1.0
 10
22.8806678118
 20
15.9699093531
 30
0.0
 10
22.9052622269
 20
15.9841052218
 30
0.0
 10
22.9574758466
 20
16.0085600041
 30
0.0
 10
23.0419631533
 20
16.0319237216
 30
0.0
 10
23.1320329344
 20
16.0419574947
 30
0.0
 10
23.261678152
 20
16.0374686706
 30
0.0
 10
23.3958348215
 20
16.0051546506
 30
0.0
 10
23.5292885722
 20
15.9504920921
 30
0.0
 10
23.5968506756
 20
15.9151469745
 30
0.0
 10
23.6306626467
 20
15.8956260655
 30
0.0
  0
SPLINE
  5
2C8
100
AcDbEntity
  8
0
100
AcDbSpline
 62
7
  6
BYLAYER
 70
0
 71
3
 72
16
 73
12
 74
0
 42
0.0000001
 43
0.0000001
 44
0.0000000001
 40
0.0
 40
0.0
 40
0.0
 40
0.0
 40
0.1141443636
 40
0.2373042664
 40
0.3669417896
 40
0.4999517561
 40
0.6329636082
 40
0.7626014919
 40
0.8857719151
 40
0.9441696317
 40
1.0
 40
1.0
 40
1.0
 40
1.0
 10
19.1759077172
 20
13.1603518312
 30
0.0
 10
19.1759080726
 20
13.0876884487
 30
0.0
 10
19.1892181261
 20
12.9364814535
 30
0.0
 10
19.2422744951
 20
12.7083686915
 30
0.0
 10
19.3272699593
 20
12.4773087103
 30
0.0
 10
19.4410205516
 20
12.2519907791
 30
0.0
 10
19.5792866727
 20
12.0408077924
 30
0.0
 10
19.7368604734
 20
11.8516954858
 30
0.0
 10
19.8820044487
 20
11.7158934379
 30
0.0
 10
20.0029507019
 20
11.6250875047
 30
0.0
 10
20.0643637367
 20
11.585968808
 30
0.0
 10
20.0951434606
 20
11.5681985282
 30
0.0
  0
SPLINE
  5
2C9
100
AcDbEntity
  8
0
100
AcDbSpline
 62
7
  6
BYLAYER
 70
0
 71
3
 72
14
 73
10
 74
0
 42
0.0000001
 43
0.0000001
 44
0.0000000001
 40
0.0
 40
0.0
 40
0.0
 40
0.0
 40
0.1485710107
 40
0.289617274
 40
0.5484438768
 40
0.6678416081
 40
0.7818365524
 40
0.8919377329
 40
1.0
 40
1.0
 40
1.0
 40
1.0
 10
20.2365642281
 20
11.4865468755
 30
0.0
 10
20.2703761992
 20
11.4670259665
 30
0.0
 10
20.3379383026
 20
11.4316808489
 30
0.0
 10
20.4713920532
 20
11.3770182904
 30
0.0
 10
20.6055487227
 20
11.3447042704
 30
0.0
 10
20.7351939404
 20
11.3402154463
 30
0.0
 10
20.8252637215
 20
11.3502492193
 30
0.0
 10
20.9097510281
 20
11.3736129368
 30
0.0
 10
20.9619646479
 20
11.3980677192
 30
0.0
 10
20.986559063
 20
11.4122635879
 30
0.0
  0
SPLINE
  5
2CA
100
AcDbEntity
  8
0
100
AcDbSpline
 62
7
  6
BYLAYER
 70
0
 71
3
 72
14
 73
10
 74
0
 42
0.0000001
 43
0.0000001
 44
0.0000000001
 40
0.0
 40
0.0
 40
0.0
 40
0.0
 40
0.2892705093
 40
0.4225400503
 40
0.5484971118
 40
0.6678960679
 40
0.7818686512
 40
0.8919540677
 40
1.0
 40
1.0
 40
1.0
 40
1.0
 10
24.6913218738
 20
14.0585246013
 30
0.0
 10
24.6913224211
 20
13.9824951674
 30
0.0
 10
24.682440708
 20
13.8708939964
 30
0.0
 10
24.648147081
 20
13.730615847
 30
0.0
 10
24.6132303557
 20
13.6371451148
 30
0.0
 10
24.568751061
 20
13.553493754
 30
0.0
 10
24.5150095166
 20
13.480519716
 30
0.0
 10
24.4525354355
 20
13.4190299403
 30
0.0
 10
24.4052523849
 20
13.3860316769
 30
0.0
 10
24.3806574816
 20
13.3718355264
 30
0.0
  0
SPLINE
  5
2CB
100
AcDbEntity
  8
0
100
AcDbSpline
 62
7
  6
BYLAYER
 70
0
 71
3
 72
21
 73
17
 74
0
 42
0.0000001
 43
0.0000001
 44
0.0000000001
 40
0.0
 40
0.0
 40
0.0
 40
0.0
 40
0.1442753478
 40
0.2877330954
 40
0.358028839
 40
0.4267884503
 40
0.4936571267
 40
0.55836151
 40
0.6207142905
 40
0.6806451781
 40
0.7381982632
 40
0.7935514479
 40
0.8470045341
 40
0.8989535221
 40
0.9497615651
 40
1.0
 40
1.0
 40
1.0
 40
1.0
 10
38.1420272795
 20
23.5738145246
 30
0.0
 10
38.2544271901
 20
23.4166879275
 30
0.0
 10
38.4591319343
 20
23.0889665226
 30
0.0
 10
38.6622969861
 20
22.6532931956
 30
0.0
 10
38.788521557
 20
22.2964246336
 30
0.0
 10
38.8629352158
 20
22.0306828907
 30
0.0
 10
38.9168421023
 20
21.767658845
 30
0.0
 10
38.9495540109
 20
21.5097797787
 30
0.0
 10
38.960445059
 20
21.259319871
 30
0.0
 10
38.948992802
 20
21.0184154936
 30
0.0
 10
38.9146478461
 20
20.7890990978
 30
0.0
 10
38.8568889151
 20
20.5734048118
 30
0.0
 10
38.7750776022
 20
20.3736057015
 30
0.0
 10
38.6689168709
 20
20.1924716319
 30
0.0
 10
38.5387238525
 20
20.0331989871
 30
0.0
 10
38.4362113005
 20
19.9436861001
 30
0.0
 10
38.3818758672
 20
19.9040240368
 30
0.0
  0
SPLINE
  5
2CC
100
AcDbEntity
  8
0
100
AcDbSpline
 62
7
  6
BYLAYER
 70
0
 71
3
 72
9
 73
5
 74
0
 42
0.0000001
 43
0.0000001
 44
0.0000000001
 40
0.0
 40
0.0
 40
0.0
 40
0.0
 40
0.2579356184
 40
1.0
 40
1.0
 40
1.0
 40
1.0
 10
20.0951434606
 20
11.5681985282
 30
0.0
 10
20.1074302164
 20
11.5611049269
 30
0.0
 10
20.1555393177
 20
11.5344411553
 30
0.0
 10
20.205581666
 20
11.511201511
 30
0.0
 10
20.2436274932
 20
11.4964200601
 30
0.0
  0
SPLINE
  5
2CD
100
AcDbEntity
  8
0
100
AcDbSpline
 62
7
  6
BYLAYER
 70
0
 71
3
 72
29
 73
25
 74
0
 42
0.0000001
 43
0.0000001
 44
0.0000000001
 40
0.0
 40
0.0
 40
0.0
 40
0.0
 40
0.0275606179
 40
0.0537021813
 40
0.0785703843
 40
0.1023734687
 40
0.1253782002
 40
0.1479118038
 40
0.1703395281
 40
0.1930355278
 40
0.2163499607
 40
0.2405892706
 40
0.2659945661
 40
0.292741788
 40
0.3505680067
 40
0.414333732
 40
0.4834798288
 40
0.5569249786
 40
0.6332382631
 40
0.7107784591
 40
0.7878264283
 40
0.862685387
 40
0.9338354483
 40
1.0
 40
1.0
 40
1.0
 40
1.0
 10
20.28663331
 20
11.4809303464
 30
0.0
 10
20.3133697118
 20
11.4720665656
 30
0.0
 10
20.3663561636
 20
11.4573139116
 30
0.0
 10
20.4457886794
 20
11.4444006719
 30
0.0
 10
20.5224062005
 20
11.4414735887
 30
0.0
 10
20.5955580191
 20
11.448576001
 30
0.0
 10
20.664600798
 20
11.4657223019
 30
0.0
 10
20.7288728515
 20
11.4928213382
 30
0.0
 10
20.7877701941
 20
11.5296071639
 30
0.0
 10
20.8407027708
 20
11.5757597486
 30
0.0
 10
20.8872414747
 20
11.630770648
 30
0.0
 10
20.9269596003
 20
11.6941483216
 30
0.0
 10
20.9596133576
 20
11.76528594
 30
0.0
 10
20.994261991
 20
11.8724408568
 30
0.0
 10
21.0172769786
 20
12.0233348649
 30
0.0
 10
21.0136467988
 20
12.2189571003
 30
0.0
 10
20.9799036651
 20
12.4277693913
 30
0.0
 10
20.9171910195
 20
12.6430491968
 30
0.0
 10
20.8275698285
 20
12.857861643
 30
0.0
 10
20.7139710639
 20
13.0652012899
 30
0.0
 10
20.580105695
 20
13.2582696489
 30
0.0
 10
20.4303423434
 20
13.4307978686
 30
0.0
 10
20.2695839983
 20
13.5770840678
 30
0.0
 10
20.1537054876
 20
13.6572947756
 30
0.0
 10
20.0951434606
 20
13.6911048127
 30
0.0
  0
SPLINE
  5
2CE
100
AcDbEntity
  8
0
100
AcDbSpline
 62
7
  6
BYLAYER
 70
0
 71
3
 72
21
 73
17
 74
0
 42
0.0000001
 43
0.0000001
 44
0.0000000001
 40
0.0
 40
0.0
 40
0.0
 40
0.0
 40
0.1482910418
 40
0.2172492843
 40
0.2827604058
 40
0.3450999345
 40
0.404673568
 40
0.4620210576
 40
0.5178103414
 40
0.5728310554
 40
0.6279260904
 40
0.6839344519
 40
0.7416225798
 40
0.8016511936
 40
0.8645292501
 40
1.0
 40
1.0
 40
1.0
 40
1.0
 10
20.0951434606
 20
13.6911048127
 30
0.0
 10
20.0436337661
 20
13.7208432759
 30
0.0
 10
19.9647355124
 20
13.7591097239
 30
0.0
 10
19.8566328371
 20
13.7938817714
 30
0.0
 10
19.779261253
 20
13.8103011033
 30
0.0
 10
19.7042626914
 20
13.8175561966
 30
0.0
 10
19.6321896969
 20
13.8155294805
 30
0.0
 10
19.5636122973
 20
13.8042396903
 30
0.0
 10
19.4991177925
 20
13.7836680524
 30
0.0
 10
19.4392621736
 20
13.7540053284
 30
0.0
 10
19.3845825836
 20
13.715476113
 30
0.0
 10
19.3355513448
 20
13.6684376993
 30
0.0
 10
19.2925404383
 20
13.6133347258
 30
0.0
 10
19.2559003573
 20
13.5506129635
 30
0.0
 10
19.2148185995
 20
13.4552599171
 30
0.0
 10
19.1959884247
 20
13.3772167689
 30
0.0
 10
19.1877711963
 20
13.3235058548
 30
0.0
  0
SPLINE
  5
2CF
100
AcDbEntity
  8
0
100
AcDbSpline
 62
7
  6
BYLAYER
 70
0
 71
3
 72
9
 73
5
 74
0
 42
0.0000001
 43
0.0000001
 44
0.0000000001
 40
0.0
 40
0.0
 40
0.0
 40
0.0
 40
0.2419772693
 40
1.0
 40
1.0
 40
1.0
 40
1.0
 10
19.1877711963
 20
13.3235058548
 30
0.0
 10
19.1857746729
 20
13.3104558221
 30
0.0
 10
19.178651302
 20
13.256354749
 30
0.0
 10
19.1759075149
 20
13.2017082779
 30
0.0
 10
19.1759077172
 20
13.1603518312
 30
0.0
  0
SPLINE
  5
2D0
100
AcDbEntity
  8
0
100
AcDbSpline
 62
7
  6
BYLAYER
 70
0
 71
3
 72
14
 73
10
 74
0
 42
0.0000001
 43
0.0000001
 44
0.0000000001
 40
0.0
 40
0.0
 40
0.0
 40
0.0
 40
0.1485710107
 40
0.289617274
 40
0.5484438768
 40
0.6678416081
 40
0.7818365524
 40
0.8919377329
 40
1.0
 40
1.0
 40
1.0
 40
1.0
 10
20.2365642281
 20
13.9360541269
 30
0.0
 10
20.202752257
 20
13.9555750359
 30
0.0
 10
20.1351901536
 20
13.9909201535
 30
0.0
 10
20.0017364029
 20
14.045582712
 30
0.0
 10
19.8675797334
 20
14.077896732
 30
0.0
 10
19.7379345158
 20
14.0823855561
 30
0.0
 10
19.6478647347
 20
14.0723517831
 30
0.0
 10
19.563377428
 20
14.0489880656
 30
0.0
 10
19.5111638083
 20
14.0245332832
 30
0.0
 10
19.4865693932
 20
14.0103374145
 30
0.0
  0
SPLINE
  5
2D1
100
AcDbEntity
  8
0
100
AcDbSpline
 62
7
  6
BYLAYER
 70
0
 71
3
 72
25
 73
21
 74
0
 42
0.0000001
 43
0.0000001
 44
0.0000000001
 40
0.0
 40
0.0
 40
0.0
 40
0.0
 40
0.0213318983
 40
0.0428928102
 40
0.0648981603
 40
0.087542819
 40
0.135318404
 40
0.1872201929
 40
0.2436573173
 40
0.304604889
 40
0.3696935311
 40
0.4382905898
 40
0.5095767823
 40
0.5826015838
 40
0.6563322964
 40
0.7297102087
 40
0.8016872329
 40
0.8712712011
 40
0.9376317001
 40
1.0
 40
1.0
 40
1.0
 40
1.0
 10
20.986559063
 20
11.4122635879
 30
0.0
 10
21.0049887487
 20
11.4229011817
 30
0.0
 10
21.0407153169
 20
11.4466957461
 30
0.0
 10
21.089736811
 20
11.4892233302
 30
0.0
 10
21.1340828264
 20
11.5383894143
 30
0.0
 10
21.1875432633
 20
11.6137259555
 30
0.0
 10
21.2410650335
 20
11.7244260163
 30
0.0
 10
21.2818520144
 20
11.8754621703
 30
0.0
 10
21.3000369025
 20
12.0439423356
 30
0.0
 10
21.2953967027
 20
12.2263653509
 30
0.0
 10
21.2681257833
 20
12.4189775595
 30
0.0
 10
21.2188502309
 20
12.6177516017
 30
0.0
 10
21.1486257479
 20
12.8184963697
 30
0.0
 10
21.058932709
 20
13.0169427401
 30
0.0
 10
20.9516942908
 20
13.208867981
 30
0.0
 10
20.8291993521
 20
13.3901798994
 30
0.0
 10
20.6940598691
 20
13.5569984264
 30
0.0
 10
20.5491291951
 20
13.7058147393
 30
0.0
 10
20.3975025606
 20
13.8333857446
 30
0.0
 10
20.2904440706
 20
13.9049472891
 30
0.0
 10
20.2365642281
 20
13.9360541269
 30
0.0
  0
SPLINE
  5
2D2
100
AcDbEntity
  8
0
100
AcDbSpline
 62
7
  6
BYLAYER
 70
0
 71
3
 72
22
 73
18
 74
0
 42
0.0000001
 43
0.0000001
 44
0.0000000001
 40
0.0
 40
0.0
 40
0.0
 40
0.0
 40
0.151351706
 40
0.2266139171
 40
0.3009011133
 40
0.3737281573
 40
0.4446409265
 40
0.5132313053
 40
0.579144711
 40
0.6421030092
 40
0.7019117627
 40
0.7584877422
 40
0.8118747637
 40
0.8622663268
 40
0.9100286745
 40
0.9557027641
 40
1.0
 40
1.0
 40
1.0
 40
1.0
 10
38.1310676435
 20
23.4047034092
 30
0.0
 10
38.237414244
 20
23.2449961038
 30
0.0
 10
38.3827929255
 20
22.99619999
 30
0.0
 10
38.5457170265
 20
22.6511141129
 30
0.0
 10
38.6507227832
 20
22.3892820239
 30
0.0
 10
38.7376404428
 20
22.1267124104
 30
0.0
 10
38.8055983487
 20
21.8660464415
 30
0.0
 10
38.8539187621
 20
21.6099305048
 30
0.0
 10
38.8820740425
 20
21.3609398063
 30
0.0
 10
38.8898095587
 20
21.1215838348
 30
0.0
 10
38.8769782316
 20
20.8942546517
 30
0.0
 10
38.8436944923
 20
20.6812228831
 30
0.0
 10
38.7902032457
 20
20.4846141026
 30
0.0
 10
38.7169154267
 20
20.3064298156
 30
0.0
 10
38.6244411274
 20
20.1485056307
 30
0.0
 10
38.513576568
 20
20.0126774355
 30
0.0
 10
38.427236029
 20
19.9371319623
 30
0.0
 10
38.3818749007
 20
19.9040255807
 30
0.0
  0
SPLINE
  5
2D3
100
AcDbEntity
  8
0
100
AcDbSpline
 62
7
  6
BYLAYER
 70
0
 71
3
 72
16
 73
12
 74
0
 42
0.0000001
 43
0.0000001
 44
0.0000000001
 40
0.0
 40
0.0
 40
0.0
 40
0.0
 40
0.1141450816
 40
0.2373060943
 40
0.3669448688
 40
0.4999573263
 40
0.6329713342
 40
0.7626070299
 40
0.8857738914
 40
0.9441700594
 40
1.0
 40
1.0
 40
1.0
 40
1.0
 10
24.691321411
 20
14.2218198106
 30
0.0
 10
24.691320888
 20
14.2944837487
 30
0.0
 10
24.6780109463
 20
14.4456921277
 30
0.0
 10
24.6249534356
 20
14.6738069917
 30
0.0
 10
24.5399564692
 20
14.9048701006
 30
0.0
 10
24.4262024743
 20
15.1301909015
 30
0.0
 10
24.2879349006
 20
15.3413752719
 30
0.0
 10
24.1303600731
 20
15.5304841972
 30
0.0
 10
23.9852189413
 20
15.6662827235
 30
0.0
 10
23.8642752146
 20
15.7570865195
 30
0.0
 10
23.802862944
 20
15.796204245
 30
0.0
 10
23.7720834141
 20
15.8139744128
 30
0.0
  0
SPLINE
  5
2D4
100
AcDbEntity
  8
0
100
AcDbSpline
 62
7
  6
BYLAYER
 70
0
 71
3
 72
16
 73
12
 74
0
 42
0.0000001
 43
0.0000001
 44
0.0000000001
 40
0.0
 40
0.0
 40
0.0
 40
0.0
 40
0.0558299406
 40
0.1142261086
 40
0.2373929701
 40
0.3670286658
 40
0.5000426737
 40
0.6330551312
 40
0.7626939057
 40
0.8858549184
 40
1.0
 40
1.0
 40
1.0
 40
1.0
 10
23.6306626467
 20
15.8956260655
 30
0.0
 10
23.6661774888
 20
15.8751220257
 30
0.0
 10
23.7370378011
 20
15.8299861886
 30
0.0
 10
23.8765882549
 20
15.7252125779
 30
0.0
 10
24.0440587916
 20
15.5685219706
 30
0.0
 10
24.2258759003
 20
15.3503193644
 30
0.0
 10
24.3854154085
 20
15.1066450909
 30
0.0
 10
24.5166700179
 20
14.8466595513
 30
0.0
 10
24.6147434406
 20
14.5800482719
 30
0.0
 10
24.6759636454
 20
14.3168388134
 30
0.0
 10
24.6913212703
 20
14.1423676068
 30
0.0
 10
24.6913218738
 20
14.0585246013
 30
0.0
  0
SPLINE
  5
2D5
100
AcDbEntity
  8
0
100
AcDbSpline
 62
7
  6
BYLAYER
 70
0
 71
3
 72
14
 73
10
 74
0
 42
0.0000001
 43
0.0000001
 44
0.0000000001
 40
0.0
 40
0.0
 40
0.0
 40
0.0
 40
0.1080459323
 40
0.2181313488
 40
0.3321039321
 40
0.4515028882
 40
0.5774599497
 40
0.7107294907
 40
1.0
 40
1.0
 40
1.0
 40
1.0
 10
19.4865693932
 20
30.3403857571
 30
0.0
 10
19.4619744899
 20
30.3261896067
 30
0.0
 10
19.4146914392
 20
30.2931913433
 30
0.0
 10
19.3522173581
 20
30.2317015676
 30
0.0
 10
19.2984758138
 20
30.1587275296
 30
0.0
 10
19.2539965191
 20
30.0750761688
 30
0.0
 10
19.2190797937
 20
29.9816054366
 30
0.0
 10
19.1847861668
 20
29.8413272872
 30
0.0
 10
19.1759044537
 20
29.7297261162
 30
0.0
 10
19.1759050009
 20
29.6536966822
 30
0.0
  0
SPLINE
  5
2D6
100
AcDbEntity
  8
0
100
AcDbSpline
 62
7
  6
BYLAYER
 70
0
 71
3
 72
14
 73
10
 74
0
 42
0.0000001
 43
0.0000001
 44
0.0000000001
 40
0.0
 40
0.0
 40
0.0
 40
0.0
 40
0.1080622671
 40
0.2181634476
 40
0.3321583919
 40
0.4515561232
 40
0.710382726
 40
0.8514289893
 40
1.0
 40
1.0
 40
1.0
 40
1.0
 10
22.8806678118
 20
32.2999576957
 30
0.0
 10
22.9052622269
 20
32.3141535644
 30
0.0
 10
22.9574758466
 20
32.3386083467
 30
0.0
 10
23.0419631533
 20
32.3619720642
 30
0.0
 10
23.1320329344
 20
32.3720058373
 30
0.0
 10
23.261678152
 20
32.3675170132
 30
0.0
 10
23.3958348215
 20
32.3352029932
 30
0.0
 10
23.5292885722
 20
32.2805404347
 30
0.0
 10
23.5968506756
 20
32.2451953171
 30
0.0
 10
23.6306626467
 20
32.2256744081
 30
0.0
  0
SPLINE
  5
2D7
100
AcDbEntity
  8
0
100
AcDbSpline
 62
7
  6
BYLAYER
 70
0
 71
3
 72
16
 73
12
 74
0
 42
0.0000001
 43
0.0000001
 44
0.0000000001
 40
0.0
 40
0.0
 40
0.0
 40
0.0
 40
0.1141443636
 40
0.2373042664
 40
0.3669417896
 40
0.4999517561
 40
0.6329636082
 40
0.7626014919
 40
0.8857719151
 40
0.9441696317
 40
1.0
 40
1.0
 40
1.0
 40
1.0
 10
19.1759077172
 20
29.4904001738
 30
0.0
 10
19.1759080726
 20
29.4177367913
 30
0.0
 10
19.1892181261
 20
29.2665297961
 30
0.0
 10
19.2422744951
 20
29.0384170341
 30
0.0
 10
19.3272699593
 20
28.8073570529
 30
0.0
 10
19.4410205516
 20
28.5820391217
 30
0.0
 10
19.5792866727
 20
28.370856135
 30
0.0
 10
19.7368604734
 20
28.1817438284
 30
0.0
 10
19.8820044487
 20
28.0459417805
 30
0.0
 10
20.0029507019
 20
27.9551358473
 30
0.0
 10
20.0643637367
 20
27.9160171506
 30
0.0
 10
20.0951434606
 20
27.8982468708
 30
0.0
  0
SPLINE
  5
2D8
100
AcDbEntity
  8
0
100
AcDbSpline
 62
7
  6
BYLAYER
 70
0
 71
3
 72
14
 73
10
 74
0
 42
0.0000001
 43
0.0000001
 44
0.0000000001
 40
0.0
 40
0.0
 40
0.0
 40
0.0
 40
0.1485710107
 40
0.289617274
 40
0.5484438768
 40
0.6678416081
 40
0.7818365524
 40
0.8919377329
 40
1.0
 40
1.0
 40
1.0
 40
1.0
 10
20.2365642281
 20
27.8165952181
 30
0.0
 10
20.2703761992
 20
27.7970743091
 30
0.0
 10
20.3379383026
 20
27.7617291915
 30
0.0
 10
20.4713920532
 20
27.707066633
 30
0.0
 10
20.6055487227
 20
27.674752613
 30
0.0
 10
20.7351939404
 20
27.6702637889
 30
0.0
 10
20.8252637215
 20
27.6802975619
 30
0.0
 10
20.9097510281
 20
27.7036612794
 30
0.0
 10
20.9619646479
 20
27.7281160618
 30
0.0
 10
20.986559063
 20
27.7423119305
 30
0.0
  0
SPLINE
  5
2D9
100
AcDbEntity
  8
0
100
AcDbSpline
 62
7
  6
BYLAYER
 70
0
 71
3
 72
14
 73
10
 74
0
 42
0.0000001
 43
0.0000001
 44
0.0000000001
 40
0.0
 40
0.0
 40
0.0
 40
0.0
 40
0.2892705093
 40
0.4225400503
 40
0.5484971118
 40
0.6678960679
 40
0.7818686512
 40
0.8919540677
 40
1.0
 40
1.0
 40
1.0
 40
1.0
 10
24.6913218738
 20
30.3885729439
 30
0.0
 10
24.6913224211
 20
30.3125435099
 30
0.0
 10
24.682440708
 20
30.200942339
 30
0.0
 10
24.648147081
 20
30.0606641896
 30
0.0
 10
24.6132303557
 20
29.9671934574
 30
0.0
 10
24.568751061
 20
29.8835420966
 30
0.0
 10
24.5150095166
 20
29.8105680586
 30
0.0
 10
24.4525354355
 20
29.7490782829
 30
0.0
 10
24.4052523849
 20
29.7160800195
 30
0.0
 10
24.3806574816
 20
29.701883869
 30
0.0
  0
SPLINE
  5
2DA
100
AcDbEntity
  8
0
100
AcDbSpline
 62
7
  6
BYLAYER
 70
0
 71
3
 72
15
 73
11
 74
0
 42
0.0000001
 43
0.0000001
 44
0.0000000001
 40
0.0
 40
0.0
 40
0.0
 40
0.0
 40
0.1157538298
 40
0.2325763145
 40
0.3514802134
 40
0.4731166248
 40
0.5982322922
 40
0.7274752676
 40
0.86137072
 40
1.0
 40
1.0
 40
1.0
 40
1.0
 10
35.5383639948
 20
41.1592088133
 30
0.0
 10
35.5924101147
 20
41.1831273773
 30
0.0
 10
35.704865145
 20
41.2229151609
 30
0.0
 10
35.8816115652
 20
41.2572358857
 30
0.0
 10
36.0643774311
 20
41.2668922258
 30
0.0
 10
36.2510028647
 20
41.2526192201
 30
0.0
 10
36.4397750287
 20
41.2155490966
 30
0.0
 10
36.6294573808
 20
41.1567761237
 30
0.0
 10
36.818892086
 20
41.0773448658
 30
0.0
 10
36.9422023478
 20
41.0124678935
 30
0.0
 10
37.0035018575
 20
40.9770774056
 30
0.0
  0
SPLINE
  5
2DB
100
AcDbEntity
  8
0
100
AcDbSpline
 62
7
  6
BYLAYER
 70
0
 71
3
 72
26
 73
22
 74
0
 42
0.0000001
 43
0.0000001
 44
0.0000000001
 40
0.0
 40
0.0
 40
0.0
 40
0.0
 40
0.0615668955
 40
0.126214169
 40
0.1934547703
 40
0.2626910732
 40
0.3331423363
 40
0.4039625917
 40
0.4742793613
 40
0.5432528985
 40
0.6101322943
 40
0.6743120608
 40
0.7353924682
 40
0.7932409911
 40
0.8480258987
 40
0.8744336486
 40
0.9002885058
 40
0.925674154
 40
0.9506693359
 40
0.9753922379
 40
1.0
 40
1.0
 40
1.0
 40
1.0
 10
37.0035018575
 20
40.9770774056
 30
0.0
 10
37.102904816
 20
40.9196883792
 30
0.0
 10
37.299348858
 20
40.7890145318
 30
0.0
 10
37.5766874635
 20
40.5575341532
 30
0.0
 10
37.8400542992
 20
40.2898505024
 30
0.0
 10
38.0850003387
 20
39.991175004
 30
0.0
 10
38.3071586628
 20
39.6670858326
 30
0.0
 10
38.5024034024
 20
39.323798036
 30
0.0
 10
38.6670153553
 20
38.9678334476
 30
0.0
 10
38.7977914766
 20
38.6058653377
 30
0.0
 10
38.8920951058
 20
38.2444819401
 30
0.0
 10
38.9478320805
 20
37.8899815642
 30
0.0
 10
38.9633307025
 20
37.5481609301
 30
0.0
 10
38.9371446519
 20
37.2244224802
 30
0.0
 10
38.8785242331
 20
36.9706721631
 30
0.0
 10
38.8087288223
 20
36.7834496542
 30
0.0
 10
38.745734116
 20
36.652862666
 30
0.0
 10
38.6715222983
 20
36.5313632642
 30
0.0
 10
38.5862198282
 20
36.4199782996
 30
0.0
 10
38.4900528521
 20
36.319821909
 30
0.0
 10
38.4189306989
 20
36.261120495
 30
0.0
 10
38.3818758672
 20
36.2340723794
 30
0.0
  0
SPLINE
  5
2DC
100
AcDbEntity
  8
0
100
AcDbSpline
 62
7
  6
BYLAYER
 70
0
 71
3
 72
9
 73
5
 74
0
 42
0.0000001
 43
0.0000001
 44
0.0000000001
 40
0.0
 40
0.0
 40
0.0
 40
0.0
 40
0.2579356184
 40
1.0
 40
1.0
 40
1.0
 40
1.0
 10
20.0951434606
 20
27.8982468708
 30
0.0
 10
20.1074302164
 20
27.8911532695
 30
0.0
 10
20.1555393177
 20
27.8644894979
 30
0.0
 10
20.205581666
 20
27.8412498536
 30
0.0
 10
20.2436274932
 20
27.8264684027
 30
0.0
  0
SPLINE
  5
2DD
100
AcDbEntity
  8
0
100
AcDbSpline
 62
7
  6
BYLAYER
 70
0
 71
3
 72
29
 73
25
 74
0
 42
0.0000001
 43
0.0000001
 44
0.0000000001
 40
0.0
 40
0.0
 40
0.0
 40
0.0
 40
0.0275606179
 40
0.0537021813
 40
0.0785703843
 40
0.1023734687
 40
0.1253782002
 40
0.1479118038
 40
0.1703395281
 40
0.1930355278
 40
0.2163499607
 40
0.2405892706
 40
0.2659945661
 40
0.292741788
 40
0.3505680067
 40
0.414333732
 40
0.4834798288
 40
0.5569249786
 40
0.6332382631
 40
0.7107784591
 40
0.7878264283
 40
0.862685387
 40
0.9338354483
 40
1.0
 40
1.0
 40
1.0
 40
1.0
 10
20.28663331
 20
27.810978689
 30
0.0
 10
20.3133697118
 20
27.8021149082
 30
0.0
 10
20.3663561636
 20
27.7873622542
 30
0.0
 10
20.4457886794
 20
27.7744490145
 30
0.0
 10
20.5224062005
 20
27.7715219313
 30
0.0
 10
20.5955580191
 20
27.7786243436
 30
0.0
 10
20.664600798
 20
27.7957706445
 30
0.0
 10
20.7288728515
 20
27.8228696808
 30
0.0
 10
20.7877701941
 20
27.8596555065
 30
0.0
 10
20.8407027708
 20
27.9058080911
 30
0.0
 10
20.8872414747
 20
27.9608189906
 30
0.0
 10
20.9269596003
 20
28.0241966642
 30
0.0
 10
20.9596133576
 20
28.0953342826
 30
0.0
 10
20.994261991
 20
28.2024891994
 30
0.0
 10
21.0172769786
 20
28.3533832075
 30
0.0
 10
21.0136467988
 20
28.5490054429
 30
0.0
 10
20.9799036651
 20
28.7578177338
 30
0.0
 10
20.9171910195
 20
28.9730975394
 30
0.0
 10
20.8275698285
 20
29.1879099856
 30
0.0
 10
20.7139710639
 20
29.3952496325
 30
0.0
 10
20.580105695
 20
29.5883179915
 30
0.0
 10
20.4303423434
 20
29.7608462112
 30
0.0
 10
20.2695839983
 20
29.9071324104
 30
0.0
 10
20.1537054876
 20
29.9873431181
 30
0.0
 10
20.0951434606
 20
30.0211531553
 30
0.0
  0
SPLINE
  5
2DE
100
AcDbEntity
  8
0
100
AcDbSpline
 62
7
  6
BYLAYER
 70
0
 71
3
 72
21
 73
17
 74
0
 42
0.0000001
 43
0.0000001
 44
0.0000000001
 40
0.0
 40
0.0
 40
0.0
 40
0.0
 40
0.1482910418
 40
0.2172492843
 40
0.2827604058
 40
0.3450999345
 40
0.404673568
 40
0.4620210576
 40
0.5178103414
 40
0.5728310554
 40
0.6279260904
 40
0.6839344519
 40
0.7416225798
 40
0.8016511936
 40
0.8645292501
 40
1.0
 40
1.0
 40
1.0
 40
1.0
 10
20.0951434606
 20
30.0211531553
 30
0.0
 10
20.0436337661
 20
30.0508916185
 30
0.0
 10
19.9647355124
 20
30.0891580665
 30
0.0
 10
19.8566328371
 20
30.123930114
 30
0.0
 10
19.779261253
 20
30.1403494459
 30
0.0
 10
19.7042626914
 20
30.1476045392
 30
0.0
 10
19.6321896969
 20
30.1455778231
 30
0.0
 10
19.5636122973
 20
30.1342880329
 30
0.0
 10
19.4991177925
 20
30.113716395
 30
0.0
 10
19.4392621736
 20
30.084053671
 30
0.0
 10
19.3845825836
 20
30.0455244555
 30
0.0
 10
19.3355513448
 20
29.9984860419
 30
0.0
 10
19.2925404383
 20
29.9433830684
 30
0.0
 10
19.2559003573
 20
29.8806613061
 30
0.0
 10
19.2148185995
 20
29.7853082596
 30
0.0
 10
19.1959884247
 20
29.7072651114
 30
0.0
 10
19.1877711963
 20
29.6535541974
 30
0.0
  0
SPLINE
  5
2DF
100
AcDbEntity
  8
0
100
AcDbSpline
 62
7
  6
BYLAYER
 70
0
 71
3
 72
9
 73
5
 74
0
 42
0.0000001
 43
0.0000001
 44
0.0000000001
 40
0.0
 40
0.0
 40
0.0
 40
0.0
 40
0.2419772693
 40
1.0
 40
1.0
 40
1.0
 40
1.0
 10
19.1877711963
 20
29.6535541974
 30
0.0
 10
19.1857746729
 20
29.6405041647
 30
0.0
 10
19.178651302
 20
29.5864030916
 30
0.0
 10
19.1759075149
 20
29.5317566204
 30
0.0
 10
19.1759077172
 20
29.4904001738
 30
0.0
  0
SPLINE
  5
2E0
100
AcDbEntity
  8
0
100
AcDbSpline
 62
7
  6
BYLAYER
 70
0
 71
3
 72
14
 73
10
 74
0
 42
0.0000001
 43
0.0000001
 44
0.0000000001
 40
0.0
 40
0.0
 40
0.0
 40
0.0
 40
0.1485710107
 40
0.289617274
 40
0.5484438768
 40
0.6678416081
 40
0.7818365524
 40
0.8919377329
 40
1.0
 40
1.0
 40
1.0
 40
1.0
 10
20.2365642281
 20
30.2661024695
 30
0.0
 10
20.202752257
 20
30.2856233785
 30
0.0
 10
20.1351901536
 20
30.3209684961
 30
0.0
 10
20.0017364029
 20
30.3756310546
 30
0.0
 10
19.8675797334
 20
30.4079450746
 30
0.0
 10
19.7379345158
 20
30.4124338987
 30
0.0
 10
19.6478647347
 20
30.4024001257
 30
0.0
 10
19.563377428
 20
30.3790364082
 30
0.0
 10
19.5111638083
 20
30.3545816258
 30
0.0
 10
19.4865693932
 20
30.3403857571
 30
0.0
  0
SPLINE
  5
2E1
100
AcDbEntity
  8
0
100
AcDbSpline
 62
7
  6
BYLAYER
 70
0
 71
3
 72
25
 73
21
 74
0
 42
0.0000001
 43
0.0000001
 44
0.0000000001
 40
0.0
 40
0.0
 40
0.0
 40
0.0
 40
0.0213318983
 40
0.0428928102
 40
0.0648981603
 40
0.087542819
 40
0.135318404
 40
0.1872201929
 40
0.2436573173
 40
0.304604889
 40
0.3696935311
 40
0.4382905898
 40
0.5095767823
 40
0.5826015838
 40
0.6563322964
 40
0.7297102087
 40
0.8016872329
 40
0.8712712011
 40
0.9376317001
 40
1.0
 40
1.0
 40
1.0
 40
1.0
 10
20.986559063
 20
27.7423119305
 30
0.0
 10
21.0049887487
 20
27.7529495242
 30
0.0
 10
21.0407153169
 20
27.7767440887
 30
0.0
 10
21.089736811
 20
27.8192716728
 30
0.0
 10
21.1340828264
 20
27.8684377569
 30
0.0
 10
21.1875432633
 20
27.9437742981
 30
0.0
 10
21.2410650335
 20
28.0544743588
 30
0.0
 10
21.2818520144
 20
28.2055105129
 30
0.0
 10
21.3000369025
 20
28.3739906782
 30
0.0
 10
21.2953967027
 20
28.5564136935
 30
0.0
 10
21.2681257833
 20
28.7490259021
 30
0.0
 10
21.2188502309
 20
28.9477999443
 30
0.0
 10
21.1486257479
 20
29.1485447123
 30
0.0
 10
21.058932709
 20
29.3469910827
 30
0.0
 10
20.9516942908
 20
29.5389163236
 30
0.0
 10
20.8291993521
 20
29.720228242
 30
0.0
 10
20.6940598691
 20
29.887046769
 30
0.0
 10
20.5491291951
 20
30.0358630819
 30
0.0
 10
20.3975025606
 20
30.1634340872
 30
0.0
 10
20.2904440706
 20
30.2349956317
 30
0.0
 10
20.2365642281
 20
30.2661024695
 30
0.0
  0
SPLINE
  5
2E2
100
AcDbEntity
  8
0
100
AcDbSpline
 62
7
  6
BYLAYER
 70
0
 71
3
 72
25
 73
21
 74
0
 42
0.0000001
 43
0.0000001
 44
0.0000000001
 40
0.0
 40
0.0
 40
0.0
 40
0.0
 40
0.0628514343
 40
0.1293071004
 40
0.1987058586
 40
0.270243274
 40
0.3430136335
 40
0.4160668911
 40
0.4884390491
 40
0.5591939306
 40
0.6274630572
 40
0.6924882258
 40
0.7536693941
 40
0.8106209962
 40
0.8632402013
 40
0.9117844544
 40
0.9347565495
 40
0.9570069967
 40
0.9786944435
 40
1.0
 40
1.0
 40
1.0
 40
1.0
 10
36.9516915825
 20
40.9241212571
 30
0.0
 10
37.0492989379
 20
40.8632961725
 30
0.0
 10
37.2427060156
 20
40.7260036759
 30
0.0
 10
37.5163720273
 20
40.4857912508
 30
0.0
 10
37.7773958946
 20
40.2096082769
 30
0.0
 10
38.0206815464
 20
39.9028630598
 30
0.0
 10
38.2414906692
 20
39.5715173824
 30
0.0
 10
38.4355074747
 20
39.2220636651
 30
0.0
 10
38.5989303315
 20
38.8613299231
 30
0.0
 10
38.7285658182
 20
38.496368078
 30
0.0
 10
38.8218857514
 20
38.1342899365
 30
0.0
 10
38.8770593844
 20
37.7821093959
 30
0.0
 10
38.8929761546
 20
37.4466027785
 30
0.0
 10
38.8691812313
 20
37.13412709
 30
0.0
 10
38.8059183482
 20
36.8506652107
 30
0.0
 10
38.7191615761
 20
36.6391745139
 30
0.0
 10
38.6306589943
 20
36.4918599864
 30
0.0
 10
38.5566228823
 20
36.3940253235
 30
0.0
 10
38.4741303105
 20
36.3073770211
 30
0.0
 10
38.4133656223
 20
36.2570571225
 30
0.0
 10
38.3818749007
 20
36.2340739233
 30
0.0
  0
SPLINE
  5
2E3
100
AcDbEntity
  8
0
100
AcDbSpline
 62
7
  6
BYLAYER
 70
0
 71
3
 72
16
 73
12
 74
0
 42
0.0000001
 43
0.0000001
 44
0.0000000001
 40
0.0
 40
0.0
 40
0.0
 40
0.0
 40
0.1141450816
 40
0.2373060943
 40
0.3669448688
 40
0.4999573263
 40
0.6329713342
 40
0.7626070299
 40
0.8857738914
 40
0.9441700594
 40
1.0
 40
1.0
 40
1.0
 40
1.0
 10
24.691321411
 20
30.5518681532
 30
0.0
 10
24.691320888
 20
30.6245320913
 30
0.0
 10
24.6780109463
 20
30.7757404703
 30
0.0
 10
24.6249534356
 20
31.0038553343
 30
0.0
 10
24.5399564692
 20
31.2349184432
 30
0.0
 10
24.4262024743
 20
31.4602392441
 30
0.0
 10
24.2879349006
 20
31.6714236145
 30
0.0
 10
24.1303600731
 20
31.8605325398
 30
0.0
 10
23.9852189413
 20
31.9963310661
 30
0.0
 10
23.8642752146
 20
32.0871348621
 30
0.0
 10
23.802862944
 20
32.1262525876
 30
0.0
 10
23.7720834141
 20
32.1440227554
 30
0.0
  0
SPLINE
  5
2E4
100
AcDbEntity
  8
0
100
AcDbSpline
 62
7
  6
BYLAYER
 70
0
 71
3
 72
15
 73
11
 74
0
 42
0.0000001
 43
0.0000001
 44
0.0000000001
 40
0.0
 40
0.0
 40
0.0
 40
0.0
 40
0.1077062963
 40
0.2182287649
 40
0.332999607
 40
0.4531532663
 40
0.5795237917
 40
0.7126762496
 40
0.8528918381
 40
1.0
 40
1.0
 40
1.0
 40
1.0
 10
35.5383649062
 20
41.1592070958
 30
0.0
 10
35.5842061511
 20
41.1794984565
 30
0.0
 10
35.6804821773
 20
41.2133306712
 30
0.0
 10
35.8332701736
 20
41.2423244774
 30
0.0
 10
35.9943793349
 20
41.2498276218
 30
0.0
 10
36.1623912233
 20
41.2359515801
 30
0.0
 10
36.3359615529
 20
41.2008629515
 30
0.0
 10
36.5137427278
 20
41.1449429506
 30
0.0
 10
36.6942498581
 20
41.0686611536
 30
0.0
 10
36.8126950271
 20
41.0061960154
 30
0.0
 10
36.8719928506
 20
40.9719611756
 30
0.0
  0
SPLINE
  5
2E5
100
AcDbEntity
  8
0
100
AcDbSpline
 62
7
  6
BYLAYER
 70
0
 71
3
 72
16
 73
12
 74
0
 42
0.0000001
 43
0.0000001
 44
0.0000000001
 40
0.0
 40
0.0
 40
0.0
 40
0.0
 40
0.0558299406
 40
0.1142261086
 40
0.2373929701
 40
0.3670286658
 40
0.5000426737
 40
0.6330551312
 40
0.7626939057
 40
0.8858549184
 40
1.0
 40
1.0
 40
1.0
 40
1.0
 10
23.6306626467
 20
32.2256744081
 30
0.0
 10
23.6661774888
 20
32.2051703683
 30
0.0
 10
23.7370378011
 20
32.1600345312
 30
0.0
 10
23.8765882549
 20
32.0552609204
 30
0.0
 10
24.0440587916
 20
31.8985703132
 30
0.0
 10
24.2258759003
 20
31.680367707
 30
0.0
 10
24.3854154085
 20
31.4366934335
 30
0.0
 10
24.5166700179
 20
31.1767078939
 30
0.0
 10
24.6147434406
 20
30.9100966145
 30
0.0
 10
24.6759636454
 20
30.646887156
 30
0.0
 10
24.6913212703
 20
30.4724159494
 30
0.0
 10
24.6913218738
 20
30.3885729439
 30
0.0
  0
SPLINE
  5
2E6
100
AcDbEntity
  8
0
100
AcDbSpline
 62
7
  6
BYLAYER
 70
0
 71
3
 72
13
 73
9
 74
0
 42
0.0000001
 43
0.0000001
 44
0.0000000001
 40
0.0
 40
0.0
 40
0.0
 40
0.0
 40
0.116698545
 40
0.2351492863
 40
0.3557011955
 40
0.4786990728
 40
0.7330802995
 40
1.0
 40
1.0
 40
1.0
 40
1.0
 10
38.1772776526
 20
30.1058735369
 30
0.0
 10
38.2508439772
 20
30.2123838287
 30
0.0
 10
38.3887479053
 20
30.4343239998
 30
0.0
 10
38.5657197842
 20
30.7875109326
 30
0.0
 10
38.7142930169
 20
31.1610729619
 30
0.0
 10
38.8768446633
 20
31.6894607176
 30
0.0
 10
39.0088349184
 20
32.3944133873
 30
0.0
 10
39.0409191269
 20
32.9733362933
 30
0.0
 10
39.0409191269
 20
33.2694143002
 30
0.0
  0
SPLINE
  5
2E7
100
AcDbEntity
  8
0
100
AcDbSpline
 62
7
  6
BYLAYER
 70
0
 71
3
 72
11
 73
7
 74
0
 42
0.0000001
 43
0.0000001
 44
0.0000000001
 40
0.0
 40
0.0
 40
0.0
 40
0.0
 40
0.2375540771
 40
0.4840273154
 40
0.7384823004
 40
1.0
 40
1.0
 40
1.0
 40
1.0
 10
39.0409191269
 20
33.2694143002
 30
0.0
 10
39.0409191269
 20
33.5192617835
 30
0.0
 10
39.0170244025
 20
34.028555567
 30
0.0
 10
38.9160444711
 20
34.799446762
 30
0.0
 10
38.7510030764
 20
35.5849152095
 30
0.0
 10
38.6016092749
 20
36.1071500171
 30
0.0
 10
38.5171709658
 20
36.3689196609
 30
0.0
  0
SPLINE
  5
2E8
100
AcDbEntity
  8
0
100
AcDbSpline
 62
7
  6
BYLAYER
 70
0
 71
3
 72
15
 73
11
 74
0
 42
0.0000001
 43
0.0000001
 44
0.0000000001
 40
0.0
 40
0.0
 40
0.0
 40
0.0
 40
0.1423263911
 40
0.2802451745
 40
0.4130693991
 40
0.5404147243
 40
0.6622519583
 40
0.7789285527
 40
0.891168802
 40
1.0
 40
1.0
 40
1.0
 40
1.0
 10
35.7249561419
 20
41.2064857248
 30
0.0
 10
35.5175105563
 20
41.4360158069
 30
0.0
 10
35.0918493334
 20
41.8728384068
 30
0.0
 10
34.4143387733
 20
42.463653427
 30
0.0
 10
33.7136244301
 20
42.9735253551
 30
0.0
 10
32.9966435058
 20
43.3953189558
 30
0.0
 10
32.2697672045
 20
43.7223381373
 30
0.0
 10
31.5390659126
 20
43.9477917998
 30
0.0
 10
30.8116107577
 20
44.0644242467
 30
0.0
 10
30.3283375739
 20
44.0640823027
 30
0.0
 10
30.0927217183
 20
44.0428292445
 30
0.0
  0
SPLINE
  5
2E9
100
AcDbEntity
  8
0
100
AcDbSpline
 62
7
  6
BYLAYER
 70
0
 71
3
 72
15
 73
11
 74
0
 42
0.0000001
 43
0.0000001
 44
0.0000000001
 40
0.0
 40
0.0
 40
0.0
 40
0.0
 40
0.100503451
 40
0.2076440458
 40
0.3221286088
 40
0.4441851727
 40
0.5736361007
 40
0.7099727151
 40
0.8524213917
 40
1.0
 40
1.0
 40
1.0
 40
1.0
 10
30.1377135221
 20
44.0170369508
 30
0.0
 10
30.3453981631
 20
44.0231527054
 30
0.0
 10
30.7761462268
 20
43.9982224367
 30
0.0
 10
31.4297201219
 20
43.8602694301
 30
0.0
 10
32.1014740568
 20
43.6232944489
 30
0.0
 10
32.782724695
 20
43.2907505466
 30
0.0
 10
33.4649497684
 20
42.8671585049
 30
0.0
 10
34.1394253264
 20
42.3580965659
 30
0.0
 10
34.7974177761
 20
41.7702697731
 30
0.0
 10
35.2132327064
 20
41.3374064229
 30
0.0
 10
35.4166673052
 20
41.1100360238
 30
0.0
  0
SPLINE
  5
2EA
100
AcDbEntity
  8
0
100
AcDbSpline
 62
7
  6
BYLAYER
 70
0
 71
3
 72
10
 73
6
 74
0
 42
0.0000001
 43
0.0000001
 44
0.0000000001
 40
0.0
 40
0.0
 40
0.0
 40
0.0
 40
0.2653828353
 40
0.5207184793
 40
1.0
 40
1.0
 40
1.0
 40
1.0
 10
39.0678059062
 20
35.8380680381
 30
0.0
 10
39.0678059062
 20
35.7396558679
 30
0.0
 10
39.0617261975
 20
35.5464558529
 30
0.0
 10
39.0246576744
 20
35.1773566856
 30
0.0
 10
38.9676233393
 20
34.9093559027
 30
0.0
 10
38.9148549784
 20
34.7396375637
 30
0.0
  0
SPLINE
  5
2EB
100
AcDbEntity
  8
0
100
AcDbSpline
 62
7
  6
BYLAYER
 70
0
 71
3
 72
11
 73
7
 74
0
 42
0.0000001
 43
0.0000001
 44
0.0000000001
 40
0.0
 40
0.0
 40
0.0
 40
0.0
 40
0.2216225454
 40
0.4627278004
 40
0.7228258332
 40
1.0
 40
1.0
 40
1.0
 40
1.0
 10
34.4487620866
 20
42.3810675424
 30
0.0
 10
34.6236944276
 20
42.3456458137
 30
0.0
 10
34.9822775124
 20
42.2366716158
 30
0.0
 10
35.5083860191
 20
41.9834123628
 30
0.0
 10
36.0343799676
 20
41.6396080692
 30
0.0
 10
36.3681623456
 20
41.3627738756
 30
0.0
 10
36.532730967
 20
41.2119604876
 30
0.0
  0
SPLINE
  5
2EC
100
AcDbEntity
  8
0
100
AcDbSpline
 62
7
  6
BYLAYER
 70
0
 71
3
 72
10
 73
6
 74
0
 42
0.0000001
 43
0.0000001
 44
0.0000000001
 40
0.0
 40
0.0
 40
0.0
 40
0.0
 40
0.5152567608
 40
0.7618180793
 40
1.0
 40
1.0
 40
1.0
 40
1.0
 10
38.9163738228
 20
37.1064528597
 30
0.0
 10
38.9651745286
 20
36.8921571612
 30
0.0
 10
39.0221288699
 20
36.5714144106
 30
0.0
 10
39.0610946422
 20
36.1464851806
 30
0.0
 10
39.0678059062
 20
35.939664209
 30
0.0
 10
39.0678059062
 20
35.8380680381
 30
0.0
  0
SPLINE
  5
2ED
100
AcDbEntity
  8
0
100
AcDbSpline
 62
7
  6
BYLAYER
 70
0
 71
3
 72
15
 73
11
 74
0
 42
0.0000001
 43
0.0000001
 44
0.0000000001
 40
0.0
 40
0.0
 40
0.0
 40
0.0
 40
0.1140738571
 40
0.2373573965
 40
0.3669860904
 40
0.4999990849
 40
0.6330122274
 40
0.7626412732
 40
0.8859253446
 40
1.0
 40
1.0
 40
1.0
 40
1.0
 10
37.7727570548
 20
39.5741075946
 30
0.0
 10
37.7969433488
 20
39.5601439471
 30
0.0
 10
37.8447368144
 20
39.5266031189
 30
0.0
 10
37.9105483853
 20
39.4650964644
 30
0.0
 10
37.9711739839
 20
39.3923270127
 30
0.0
 10
38.024319879
 20
39.3111001971
 30
0.0
 10
38.0680918461
 20
39.2244612134
 30
0.0
 10
38.1007997585
 20
39.135573105
 30
0.0
 10
38.1211609633
 20
39.0478250201
 30
0.0
 10
38.1263119173
 20
38.989663973
 30
0.0
 10
38.1263119173
 20
38.9617360088
 30
0.0
  0
SPLINE
  5
2EE
100
AcDbEntity
  8
0
100
AcDbSpline
 62
7
  6
BYLAYER
 70
0
 71
3
 72
12
 73
8
 74
0
 42
0.0000001
 43
0.0000001
 44
0.0000000001
 40
0.0
 40
0.0
 40
0.0
 40
0.0
 40
0.2893210862
 40
0.5487016029
 40
0.7816630889
 40
0.8918340248
 40
1.0
 40
1.0
 40
1.0
 40
1.0
 10
38.1263119173
 20
17.7326731634
 30
0.0
 10
38.1263119173
 20
17.7073538518
 30
0.0
 10
38.1224331298
 20
17.6591699103
 30
0.0
 10
38.1030073759
 20
17.5929870981
 30
0.0
 10
38.0749886905
 20
17.54731673
 30
0.0
 10
38.0467058405
 20
17.5195245374
 30
0.0
 10
38.0309396811
 20
17.5085373546
 30
0.0
 10
38.0227419475
 20
17.503804421
 30
0.0
  0
SPLINE
  5
2EF
100
AcDbEntity
  8
0
100
AcDbSpline
 62
7
  6
BYLAYER
 70
0
 71
3
 72
12
 73
8
 74
0
 42
0.0000001
 43
0.0000001
 44
0.0000000001
 40
0.0
 40
0.0
 40
0.0
 40
0.0
 40
0.2893200915
 40
0.548700262
 40
0.7816621626
 40
0.8918335229
 40
1.0
 40
1.0
 40
1.0
 40
1.0
 10
37.0656532176
 20
17.1202981782
 30
0.0
 10
37.0875798465
 20
17.1076391195
 30
0.0
 10
37.131246677
 20
17.0869073012
 30
0.0
 10
37.1982738029
 20
17.0706400964
 30
0.0
 10
37.2518334196
 20
17.0720700464
 30
0.0
 10
37.2900426717
 20
17.0826673698
 30
0.0
 10
37.3074405602
 20
17.0908274338
 30
0.0
 10
37.31563811
 20
17.095560267
 30
0.0
  0
SPLINE
  5
2F0
100
AcDbEntity
  8
0
100
AcDbSpline
 62
7
  6
BYLAYER
 70
0
 71
3
 72
12
 73
8
 74
0
 42
0.0000001
 43
0.0000001
 44
0.0000000001
 40
0.0
 40
0.0
 40
0.0
 40
0.0
 40
0.1081665502
 40
0.2183379719
 40
0.4512998972
 40
0.7106798711
 40
1.0
 40
1.0
 40
1.0
 40
1.0
 10
19.1379193082
 20
50.2131051232
 30
0.0
 10
19.1461168661
 20
50.2178379552
 30
0.0
 10
19.1635147698
 20
50.2259980122
 30
0.0
 10
19.2017240295
 20
50.2365953634
 30
0.0
 10
19.2552836397
 20
50.2380252766
 30
0.0
 10
19.3223107608
 20
50.2217581138
 30
0.0
 10
19.365977569
 20
50.2010262726
 30
0.0
 10
19.387904201
 20
50.1883672121
 30
0.0
  0
SPLINE
  5
2F1
100
AcDbEntity
  8
0
100
AcDbSpline
 62
7
  6
BYLAYER
 70
0
 71
3
 72
12
 73
8
 74
0
 42
0.0000001
 43
0.0000001
 44
0.0000000001
 40
0.0
 40
0.0
 40
0.0
 40
0.0
 40
0.1081660482
 40
0.2183370456
 40
0.4512985564
 40
0.7106788764
 40
1.0
 40
1.0
 40
1.0
 40
1.0
 10
18.4308154713
 20
49.8048609695
 30
0.0
 10
18.4226177346
 20
49.8001280283
 30
0.0
 10
18.4068515737
 20
49.7891408288
 30
0.0
 10
18.3785686959
 20
49.7613486436
 30
0.0
 10
18.3505500456
 20
49.7156782628
 30
0.0
 10
18.3311242577
 20
49.6494954756
 30
0.0
 10
18.3272455012
 20
49.6013115421
 30
0.0
 10
18.3272455012
 20
49.5759922269
 30
0.0
  0
SPLINE
  5
2F2
100
AcDbEntity
  8
0
100
AcDbSpline
 62
7
  6
BYLAYER
 70
0
 71
3
 72
12
 73
8
 74
0
 42
0.0000001
 43
0.0000001
 44
0.0000000001
 40
0.0
 40
0.0
 40
0.0
 40
0.0
 40
0.2893200915
 40
0.548700262
 40
0.7816621626
 40
0.8918335229
 40
1.0
 40
1.0
 40
1.0
 40
1.0
 10
18.6808003637
 20
49.7801230582
 30
0.0
 10
18.6588737348
 20
49.792782117
 30
0.0
 10
18.6152069043
 20
49.8135139353
 30
0.0
 10
18.5481797784
 20
49.82978114
 30
0.0
 10
18.4946201617
 20
49.8283511901
 30
0.0
 10
18.4564109096
 20
49.8177538667
 30
0.0
 10
18.4390130211
 20
49.8095938027
 30
0.0
 10
18.4308154713
 20
49.8048609695
 30
0.0
  0
SPLINE
  5
2F3
100
AcDbEntity
  8
0
100
AcDbSpline
 62
7
  6
BYLAYER
 70
0
 71
3
 72
15
 73
11
 74
0
 42
0.0000001
 43
0.0000001
 44
0.0000000001
 40
0.0
 40
0.0
 40
0.0
 40
0.0
 40
0.1140747376
 40
0.2373589707
 40
0.366988104
 40
0.5000012485
 40
0.6330142409
 40
0.7626428473
 40
0.8859262251
 40
1.0
 40
1.0
 40
1.0
 40
1.0
 10
37.4192080801
 20
38.5534918549
 30
0.0
 10
37.4192080801
 20
38.5814198392
 30
0.0
 10
37.4140570929
 20
38.6395809435
 30
0.0
 10
37.3936958849
 20
38.7273291104
 30
0.0
 10
37.360987916
 20
38.8162172656
 30
0.0
 10
37.3172159186
 20
38.9028562566
 30
0.0
 10
37.2640700147
 20
38.9840830422
 30
0.0
 10
37.2034444284
 20
39.0568524217
 30
0.0
 10
37.1376329269
 20
39.1183590323
 30
0.0
 10
37.0898394942
 20
39.1518998033
 30
0.0
 10
37.0656532176
 20
39.1658634407
 30
0.0
  0
SPLINE
  5
2F4
100
AcDbEntity
  8
0
100
AcDbSpline
 62
7
  6
BYLAYER
 70
0
 71
3
 72
12
 73
8
 74
0
 42
0.0000001
 43
0.0000001
 44
0.0000000001
 40
0.0
 40
0.0
 40
0.0
 40
0.0
 40
0.1081660482
 40
0.2183370456
 40
0.4512985564
 40
0.7106788764
 40
1.0
 40
1.0
 40
1.0
 40
1.0
 10
37.31563811
 20
17.095560267
 30
0.0
 10
37.3238358467
 20
17.1002932081
 30
0.0
 10
37.3396020076
 20
17.1112804076
 30
0.0
 10
37.3678848854
 20
17.1390725929
 30
0.0
 10
37.3959035357
 20
17.1847429737
 30
0.0
 10
37.4153293236
 20
17.2509257608
 30
0.0
 10
37.4192080801
 20
17.2991096944
 30
0.0
 10
37.4192080801
 20
17.3244290095
 30
0.0
  0
SPLINE
  5
2F5
100
AcDbEntity
  8
0
100
AcDbSpline
 62
7
  6
BYLAYER
 70
0
 71
3
 72
15
 73
11
 74
0
 42
0.0000001
 43
0.0000001
 44
0.0000000001
 40
0.0
 40
0.0
 40
0.0
 40
0.0
 40
0.1141232787
 40
0.2373467935
 40
0.3669716251
 40
0.4999988493
 40
0.6330262331
 40
0.7626515288
 40
0.885875802
 40
1.0
 40
1.0
 40
1.0
 40
1.0
 10
36.8888757863
 20
39.2270985085
 30
0.0
 10
36.922751451
 20
39.2075408268
 30
0.0
 10
36.9896769747
 20
39.1606087763
 30
0.0
 10
37.0817820841
 20
39.0744691803
 30
0.0
 10
37.166642932
 20
38.9726058341
 30
0.0
 10
37.2410968873
 20
38.8589075675
 30
0.0
 10
37.3023361578
 20
38.737579574
 30
0.0
 10
37.3481228102
 20
38.6131560545
 30
0.0
 10
37.3766702771
 20
38.4903203629
 30
0.0
 10
37.3838525939
 20
38.4088946304
 30
0.0
 10
37.3838525939
 20
38.3697782883
 30
0.0
  0
SPLINE
  5
2F6
100
AcDbEntity
  8
0
100
AcDbSpline
 62
7
  6
BYLAYER
 70
0
 71
3
 72
12
 73
8
 74
0
 42
0.0000001
 43
0.0000001
 44
0.0000000001
 40
0.0
 40
0.0
 40
0.0
 40
0.0
 40
0.2894847231
 40
0.5486751865
 40
0.7816263484
 40
0.8918293154
 40
1.0
 40
1.0
 40
1.0
 40
1.0
 10
37.3838525939
 20
17.5489666515
 30
0.0
 10
37.3838525939
 20
17.5134989505
 30
0.0
 10
37.3784580904
 20
17.4460376743
 30
0.0
 10
37.3512087143
 20
17.3533987693
 30
0.0
 10
37.3119942031
 20
17.2894804881
 30
0.0
 10
37.2724082538
 20
17.2505588785
 30
0.0
 10
37.2503500001
 20
17.2351460261
 30
0.0
 10
37.2388724729
 20
17.2285195173
 30
0.0
  0
SPLINE
  5
2F7
100
AcDbEntity
  8
0
100
AcDbSpline
 62
7
  6
BYLAYER
 70
0
 71
3
 72
12
 73
8
 74
0
 42
0.0000001
 43
0.0000001
 44
0.0000000001
 40
0.0
 40
0.0
 40
0.0
 40
0.0
 40
0.1081711684
 40
0.2183745344
 40
0.4513260781
 40
0.710516265
 40
1.0
 40
1.0
 40
1.0
 40
1.0
 10
18.5075811084
 20
49.6719017191
 30
0.0
 10
18.5190583797
 20
49.6785280802
 30
0.0
 10
18.5434349036
 20
49.6899243208
 30
0.0
 10
18.596933679
 20
49.7047456351
 30
0.0
 10
18.6718938005
 20
49.7067475832
 30
0.0
 10
18.7657436872
 20
49.6840281855
 30
0.0
 10
18.8268626182
 20
49.6549707632
 30
0.0
 10
18.857577795
 20
49.6372377488
 30
0.0
  0
SPLINE
  5
2F8
100
AcDbEntity
  8
0
100
AcDbSpline
 62
7
  6
BYLAYER
 70
0
 71
3
 72
12
 73
8
 74
0
 42
0.0000001
 43
0.0000001
 44
0.0000000001
 40
0.0
 40
0.0
 40
0.0
 40
0.0
 40
0.2751616427
 40
0.5330991834
 40
0.655743452
 40
0.7743218558
 40
1.0
 40
1.0
 40
1.0
 40
1.0
 10
26.1055390304
 20
22.4684843512
 30
0.0
 10
26.1055390304
 20
22.0896405455
 30
0.0
 10
26.0694197423
 20
21.3549727626
 30
0.0
 10
25.9217290943
 20
20.4618303319
 30
0.0
 10
25.7422109526
 20
19.797864644
 30
0.0
 10
25.5311109825
 20
19.1903644569
 30
0.0
 10
25.32561769
 20
18.7602883312
 30
0.0
 10
25.1675355632
 20
18.4927931622
 30
0.0
  0
SPLINE
  5
2F9
100
AcDbEntity
  8
0
100
AcDbSpline
 62
7
  6
BYLAYER
 70
0
 71
3
 72
11
 73
7
 74
0
 42
0.0000001
 43
0.0000001
 44
0.0000000001
 40
0.0
 40
0.0
 40
0.0
 40
0.0
 40
0.265026672
 40
0.5212464235
 40
0.7667498978
 40
1.0
 40
1.0
 40
1.0
 40
1.0
 10
25.1675355632
 20
27.5272641459
 30
0.0
 10
25.3188310468
 20
27.0965558205
 30
0.0
 10
25.5862822485
 20
26.2384577046
 30
0.0
 10
25.8819410088
 20
24.9498524947
 30
0.0
 10
26.0624787163
 20
23.6953082931
 30
0.0
 10
26.1055390304
 20
22.870257678
 30
0.0
 10
26.1055390304
 20
22.4684843512
 30
0.0
  0
SPLINE
  5
2FA
100
AcDbEntity
  8
0
100
AcDbSpline
 62
7
  6
BYLAYER
 70
0
 71
3
 72
15
 73
11
 74
0
 42
0.0000001
 43
0.0000001
 44
0.0000000001
 40
0.0
 40
0.0
 40
0.0
 40
0.0
 40
0.1484804816
 40
0.2894742717
 40
0.4227545035
 40
0.5486619219
 40
0.6679993775
 40
0.7819365174
 40
0.8919905979
 40
1.0
 40
1.0
 40
1.0
 40
1.0
 10
25.2923663792
 20
30.6130944451
 30
0.0
 10
25.2923663792
 20
30.570153592
 30
0.0
 10
25.2888797821
 20
30.4863807003
 30
0.0
 10
25.272411971
 20
30.3650401342
 30
0.0
 10
25.2448606698
 20
30.2523874242
 30
0.0
 10
25.2064627933
 20
30.1495720841
 30
0.0
 10
25.1575204034
 20
30.0575722143
 30
0.0
 10
25.0984053034
 20
29.9773130863
 30
0.0
 10
25.0297016073
 20
29.9096548541
 30
0.0
 10
24.9776778334
 20
29.8733753302
 30
0.0
 10
24.9506260385
 20
29.8577573419
 30
0.0
  0
SPLINE
  5
2FB
100
AcDbEntity
  8
0
100
AcDbSpline
 62
7
  6
BYLAYER
 70
0
 71
3
 72
9
 73
5
 74
0
 42
0.0000001
 43
0.0000001
 44
0.0000000001
 40
0.0
 40
0.0
 40
0.0
 40
0.0
 40
0.516127064
 40
1.0
 40
1.0
 40
1.0
 40
1.0
 10
25.2354868763
 20
31.0614515041
 30
0.0
 10
25.2537803113
 20
30.9857405044
 30
0.0
 10
25.2818092274
 20
30.8371232726
 30
0.0
 10
25.2923663792
 20
30.6861166137
 30
0.0
 10
25.2923663792
 20
30.6130944451
 30
0.0
  0
SPLINE
  5
2FC
100
AcDbEntity
  8
0
100
AcDbSpline
 62
7
  6
BYLAYER
 70
0
 71
3
 72
24
 73
20
 74
0
 42
0.0000001
 43
0.0000001
 44
0.0000000001
 40
0.0
 40
0.0
 40
0.0
 40
0.0
 40
0.0213326054
 40
0.0428937597
 40
0.0874715864
 40
0.1352508473
 40
0.1871545157
 40
0.2435969674
 40
0.3045494909
 40
0.3696404451
 40
0.4382428978
 40
0.5095338828
 40
0.5825616851
 40
0.6562967127
 40
0.7296810414
 40
0.8016634254
 40
0.8712555614
 40
0.9376317381
 40
1.0
 40
1.0
 40
1.0
 40
1.0
 10
23.300644627
 20
16.3855776957
 30
0.0
 10
23.3209150229
 20
16.3972805348
 30
0.0
 10
23.3632309104
 20
16.4182297843
 30
0.0
 10
23.4541350261
 20
16.4496653985
 30
0.0
 10
23.5790482498
 20
16.468061732
 30
0.0
 10
23.7379385489
 20
16.4563110057
 30
0.0
 10
23.904310484
 20
16.4121410316
 30
0.0
 10
24.0747905644
 20
16.3367864325
 30
0.0
 10
24.2460144648
 20
16.2320272318
 30
0.0
 10
24.4145116783
 20
16.1001309082
 30
0.0
 10
24.5767622159
 20
15.9438640227
 30
0.0
 10
24.7293611296
 20
15.766553733
 30
0.0
 10
24.8690858899
 20
15.5719806728
 30
0.0
 10
24.9929368994
 20
15.3642681075
 30
0.0
 10
25.0982751085
 20
15.1478521088
 30
0.0
 10
25.1828836786
 20
14.9273701037
 30
0.0
 10
25.2449427755
 20
14.7074431952
 30
0.0
 10
25.2830664794
 20
14.4928265009
 30
0.0
 10
25.2923663792
 20
14.3514764505
 30
0.0
 10
25.2923663792
 20
14.2830461025
 30
0.0
  0
SPLINE
  5
2FD
100
AcDbEntity
  8
0
100
AcDbSpline
 62
7
  6
BYLAYER
 70
0
 71
3
 72
9
 73
5
 74
0
 42
0.0000001
 43
0.0000001
 44
0.0000000001
 40
0.0
 40
0.0
 40
0.0
 40
0.0
 40
0.2327694986
 40
1.0
 40
1.0
 40
1.0
 40
1.0
 10
8.6814105981
 20
40.8406451818
 30
0.0
 10
8.6656084765
 20
40.8067308652
 30
0.0
 10
8.6061962982
 20
40.6570766187
 30
0.0
 10
8.5794298318
 20
40.4957800087
 30
0.0
 10
8.5722304804
 20
40.3726666641
 30
0.0
  0
SPLINE
  5
2FE
100
AcDbEntity
  8
0
100
AcDbSpline
 62
7
  6
BYLAYER
 70
0
 71
3
 72
15
 73
11
 74
0
 42
0.0000001
 43
0.0000001
 44
0.0000000001
 40
0.0
 40
0.0
 40
0.0
 40
0.0
 40
0.1484804816
 40
0.2894742717
 40
0.4227545035
 40
0.5486619219
 40
0.6679993775
 40
0.7819365174
 40
0.8919905979
 40
1.0
 40
1.0
 40
1.0
 40
1.0
 10
11.1501718763
 20
38.7779095355
 30
0.0
 10
11.1501718763
 20
38.7349686824
 30
0.0
 10
11.1466852791
 20
38.6511957907
 30
0.0
 10
11.1302174681
 20
38.5298552246
 30
0.0
 10
11.1026661669
 20
38.4172025146
 30
0.0
 10
11.0642682904
 20
38.3143871745
 30
0.0
 10
11.0153259005
 20
38.2223873047
 30
0.0
 10
10.9562108005
 20
38.1421281767
 30
0.0
 10
10.8875071044
 20
38.0744699445
 30
0.0
 10
10.8354833305
 20
38.0381904206
 30
0.0
 10
10.8084315355
 20
38.0225724323
 30
0.0
  0
SPLINE
  5
2FF
100
AcDbEntity
  8
0
100
AcDbSpline
 62
7
  6
BYLAYER
 70
0
 71
3
 72
21
 73
17
 74
0
 42
0.0000001
 43
0.0000001
 44
0.0000000001
 40
0.0
 40
0.0
 40
0.0
 40
0.0
 40
0.0489933168
 40
0.1014537148
 40
0.1573003493
 40
0.2163649544
 40
0.2783713107
 40
0.342894134
 40
0.4094309747
 40
0.4774135564
 40
0.6151969567
 40
0.7512873345
 40
0.8171921569
 40
0.8809305948
 40
0.94202944
 40
1.0
 40
1.0
 40
1.0
 40
1.0
 10
9.6235924088
 20
40.9408106628
 30
0.0
 10
9.6686093964
 20
40.9316746349
 30
0.0
 10
9.7604880064
 20
40.9057545351
 30
0.0
 10
9.8966310924
 20
40.8482478805
 30
0.0
 10
10.0338276317
 20
40.7714857452
 30
0.0
 10
10.1702157176
 20
40.6766737052
 30
0.0
 10
10.3039623796
 20
40.5650419343
 30
0.0
 10
10.4333304523
 20
40.4381778273
 30
0.0
 10
10.5564817272
 20
40.2977374169
 30
0.0
 10
10.7108630156
 20
40.0941769411
 30
0.0
 10
10.877738975
 20
39.8193188556
 30
0.0
 10
11.0055510253
 20
39.5263127614
 30
0.0
 10
11.0798097976
 20
39.2882835036
 30
0.0
 10
11.1198932917
 20
39.1137950739
 30
0.0
 10
11.1443034456
 20
38.9439489387
 30
0.0
 10
11.1501718763
 20
38.8322610298
 30
0.0
 10
11.1501718763
 20
38.7779095355
 30
0.0
  0
SPLINE
  5
300
100
AcDbEntity
  8
0
100
AcDbSpline
 62
7
  6
BYLAYER
 70
0
 71
3
 72
14
 73
10
 74
0
 42
0.0000001
 43
0.0000001
 44
0.0000000001
 40
0.0
 40
0.0
 40
0.0
 40
0.0
 40
0.1085372199
 40
0.2190403144
 40
0.3332967774
 40
0.4528000083
 40
0.5786811919
 40
0.7116785178
 40
1.0
 40
1.0
 40
1.0
 40
1.0
 10
9.2456416666
 20
24.8895461432
 30
0.0
 10
9.2761247747
 20
24.9071451537
 30
0.0
 10
9.3407429747
 20
24.9375715712
 30
0.0
 10
9.4451998562
 20
24.9670306636
 30
0.0
 10
9.5564684364
 20
24.980393215
 30
0.0
 10
9.673425998
 20
24.9775572618
 30
0.0
 10
9.794995759
 20
24.9586681945
 30
0.0
 10
9.9662930021
 20
24.9111912821
 30
0.0
 10
10.0914846722
 20
24.8537822826
 30
0.0
 10
10.1731378386
 20
24.8082243798
 30
0.0
  0
SPLINE
  5
301
100
AcDbEntity
  8
0
100
AcDbSpline
 62
7
  6
BYLAYER
 70
0
 71
3
 72
24
 73
20
 74
0
 42
0.0000001
 43
0.0000001
 44
0.0000000001
 40
0.0
 40
0.0
 40
0.0
 40
0.0
 40
0.021356812
 40
0.0429031989
 40
0.0872049756
 40
0.134211717
 40
0.1847855683
 40
0.2393978103
 40
0.2981680778
 40
0.3609214968
 40
0.4272615021
 40
0.4966134158
 40
0.5682720781
 40
0.6414439363
 40
0.7152737082
 40
0.788889722
 40
0.8614250349
 40
0.9320401289
 40
1.0
 40
1.0
 40
1.0
 40
1.0
 10
8.5567336914
 20
25.1846317012
 30
0.0
 10
8.5845980302
 20
25.2007228595
 30
0.0
 10
8.6425155907
 20
25.229819592
 30
0.0
 10
8.7661424553
 20
25.2749949734
 30
0.0
 10
8.9348519508
 20
25.3057621169
 30
0.0
 10
9.1498054916
 20
25.3004750004
 30
0.0
 10
9.3754769243
 20
25.2543890588
 30
0.0
 10
9.6080196006
 20
25.1687055564
 30
0.0
 10
9.843589898
 20
25.0451264609
 30
0.0
 10
10.0782615548
 20
24.8859377918
 30
0.0
 10
10.3080156422
 20
24.6939128646
 30
0.0
 10
10.5288689012
 20
24.472408991
 30
0.0
 10
10.7369968544
 20
24.2253367206
 30
0.0
 10
10.9287128134
 20
23.9570128157
 30
0.0
 10
11.1006579055
 20
23.6721705513
 30
0.0
 10
11.2498193451
 20
23.3758347892
 30
0.0
 10
11.373522137
 20
23.0732021771
 30
0.0
 10
11.4696487819
 20
22.7696459911
 30
0.0
 10
11.515228528
 20
22.5655466758
 30
0.0
 10
11.5326511176
 20
22.4646495129
 30
0.0
  0
SPLINE
  5
302
100
AcDbEntity
  8
0
100
AcDbSpline
 62
7
  6
BYLAYER
 70
0
 71
3
 72
9
 73
5
 74
0
 42
0.0000001
 43
0.0000001
 44
0.0000000001
 40
0.0
 40
0.0
 40
0.0
 40
0.0
 40
0.5119039765
 40
1.0
 40
1.0
 40
1.0
 40
1.0
 10
11.5354834127
 20
22.4479779018
 30
0.0
 10
11.5481686466
 20
22.3720601951
 30
0.0
 10
11.5674598864
 20
22.2227732101
 30
0.0
 10
11.5744980627
 20
22.0723610321
 30
0.0
 10
11.5744980627
 20
21.9989706005
 30
0.0
  0
SPLINE
  5
303
100
AcDbEntity
  8
0
100
AcDbSpline
 62
7
  6
BYLAYER
 70
0
 71
3
 72
14
 73
10
 74
0
 42
0.0000001
 43
0.0000001
 44
0.0000000001
 40
0.0
 40
0.0
 40
0.0
 40
0.0
 40
0.1186823639
 40
0.2380157318
 40
0.35863566
 40
0.4811414581
 40
0.6060844578
 40
0.7339635132
 40
1.0
 40
1.0
 40
1.0
 40
1.0
 10
8.086204106
 20
33.9196252128
 30
0.0
 10
7.9959119945
 20
33.8674899183
 30
0.0
 10
7.8194996666
 20
33.7546038674
 30
0.0
 10
7.5702644038
 20
33.5612076126
 30
0.0
 10
7.3368197239
 20
33.3440349974
 30
0.0
 10
7.119814971
 20
33.1037984905
 30
0.0
 10
6.9198134395
 20
32.8411620331
 30
0.0
 10
6.6734701944
 20
32.4572179705
 30
0.0
 10
6.5208369576
 20
32.1448410966
 30
0.0
 10
6.4323882571
 20
31.9285101156
 30
0.0
  0
SPLINE
  5
304
100
AcDbEntity
  8
0
100
AcDbSpline
 62
7
  6
BYLAYER
 70
0
 71
3
 72
9
 73
5
 74
0
 42
0.0000001
 43
0.0000001
 44
0.0000000001
 40
0.0
 40
0.0
 40
0.0
 40
0.0
 40
0.5133885164
 40
1.0
 40
1.0
 40
1.0
 40
1.0
 10
10.5409496273
 20
17.8628487025
 30
0.0
 10
10.8015220854
 20
17.6363672084
 30
0.0
 10
11.327966239
 20
17.2163528245
 30
0.0
 10
11.8921263237
 20
16.8479419815
 30
0.0
 10
12.1755216045
 20
16.6843273413
 30
0.0
  0
SPLINE
  5
305
100
AcDbEntity
  8
0
100
AcDbSpline
 62
7
  6
BYLAYER
 70
0
 71
3
 72
13
 73
9
 74
0
 42
0.0000001
 43
0.0000001
 44
0.0000000001
 40
0.0
 40
0.0
 40
0.0
 40
0.0
 40
0.2660968121
 40
0.5187650867
 40
0.6412937638
 40
0.7619367541
 40
0.881294677
 40
1.0
 40
1.0
 40
1.0
 40
1.0
 10
15.8348795019
 20
15.642829085
 30
0.0
 10
16.0664587819
 20
15.6112669565
 30
0.0
 10
16.5227863452
 20
15.5795415984
 30
0.0
 10
17.0866718399
 20
15.6269503405
 30
0.0
 10
17.5129802068
 20
15.7182946348
 30
0.0
 10
17.8177753651
 20
15.8119096569
 30
0.0
 10
18.1098939025
 20
15.9310082741
 30
0.0
 10
18.2958591421
 20
16.0273531278
 30
0.0
 10
18.3861506147
 20
16.0794880534
 30
0.0
  0
SPLINE
  5
306
100
AcDbEntity
  8
0
100
AcDbSpline
 62
7
  6
BYLAYER
 70
0
 71
3
 72
13
 73
9
 74
0
 42
0.0000001
 43
0.0000001
 44
0.0000000001
 40
0.0
 40
0.0
 40
0.0
 40
0.0
 40
0.1209341756
 40
0.2454494242
 40
0.4999993288
 40
0.7545495793
 40
0.8790652509
 40
1.0
 40
1.0
 40
1.0
 40
1.0
 10
26.3239537305
 20
33.421922607
 30
0.0
 10
26.3683006715
 20
33.3797163733
 30
0.0
 10
26.4548910029
 20
33.2903964812
 30
0.0
 10
26.617398963
 20
33.096105379
 30
0.0
 10
26.7965951082
 20
32.8287781372
 30
0.0
 10
26.93851067
 20
32.5399265856
 30
0.0
 10
27.0255192253
 20
32.3020448421
 30
0.0
 10
27.0595782038
 20
32.1823951886
 30
0.0
 10
27.0739568531
 20
32.1228863042
 30
0.0
  0
SPLINE
  5
307
100
AcDbEntity
  8
0
100
AcDbSpline
 62
7
  6
BYLAYER
 70
0
 71
3
 72
15
 73
11
 74
0
 42
0.0000001
 43
0.0000001
 44
0.0000000001
 40
0.0
 40
0.0
 40
0.0
 40
0.0
 40
0.0995386663
 40
0.2026762359
 40
0.3124069779
 40
0.4307972174
 40
0.5588706214
 40
0.6968677772
 40
0.84437154
 40
1.0
 40
1.0
 40
1.0
 40
1.0
 10
23.3006462201
 20
32.715623211
 30
0.0
 10
23.3385723763
 20
32.7375124828
 30
0.0
 10
23.421498102
 20
32.7728835051
 30
0.0
 10
23.5580041098
 20
32.7963299252
 30
0.0
 10
23.7045554364
 20
32.790801214
 30
0.0
 10
23.8582439165
 20
32.7567615186
 30
0.0
 10
24.0164155098
 20
32.6953032125
 30
0.0
 10
24.1763435699
 20
32.6076038076
 30
0.0
 10
24.3350790548
 20
32.4953490188
 30
0.0
 10
24.4358894771
 20
32.407688078
 30
0.0
 10
24.4854837538
 20
32.360487807
 30
0.0
  0
SPLINE
  5
308
100
AcDbEntity
  8
0
100
AcDbSpline
 62
7
  6
BYLAYER
 70
0
 71
3
 72
11
 73
7
 74
0
 42
0.0000001
 43
0.0000001
 44
0.0000000001
 40
0.0
 40
0.0
 40
0.0
 40
0.0
 40
0.2428439014
 40
0.4886464695
 40
0.7402546647
 40
1.0
 40
1.0
 40
1.0
 40
1.0
 10
10.9545744868
 20
37.7695850012
 30
0.0
 10
11.1147667385
 20
37.862071492
 30
0.0
 10
11.4502876056
 20
38.0263048726
 30
0.0
 10
11.9870708387
 20
38.2040743942
 30
0.0
 10
12.5549663898
 20
38.312936417
 30
0.0
 10
12.9446717095
 20
38.3388348767
 30
0.0
 10
13.1425090657
 20
38.3408481216
 30
0.0
  0
SPLINE
  5
309
100
AcDbEntity
  8
0
100
AcDbSpline
 62
7
  6
BYLAYER
 70
0
 71
3
 72
14
 73
10
 74
0
 42
0.0000001
 43
0.0000001
 44
0.0000000001
 40
0.0
 40
0.0
 40
0.0
 40
0.0
 40
0.1441982467
 40
0.2826813265
 40
0.5418901598
 40
0.6632650308
 40
0.7796410936
 40
0.8916425448
 40
1.0
 40
1.0
 40
1.0
 40
1.0
 10
9.8067237498
 20
18.2022082257
 30
0.0
 10
9.9115108128
 20
18.1417107554
 30
0.0
 10
10.1209234529
 20
18.0297656066
 30
0.0
 10
10.5364417869
 20
17.8446163907
 30
0.0
 10
10.9544080702
 20
17.7132146298
 30
0.0
 10
11.3665291532
 20
17.6459235454
 30
0.0
 10
11.6600594793
 20
17.6283276817
 30
0.0
 10
11.9428274859
 20
17.6427964205
 30
0.0
 10
12.1256093599
 20
17.6741801851
 30
0.0
 10
12.2140521245
 20
17.6952717858
 30
0.0
  0
SPLINE
  5
30A
100
AcDbEntity
  8
0
100
AcDbSpline
 62
7
  6
BYLAYER
 70
0
 71
3
 72
11
 73
7
 74
0
 42
0.0000001
 43
0.0000001
 44
0.0000000001
 40
0.0
 40
0.0
 40
0.0
 40
0.0
 40
0.2664285877
 40
0.5241614711
 40
0.7696414114
 40
1.0
 40
1.0
 40
1.0
 40
1.0
 10
7.3993953752
 20
20.4749522713
 30
0.0
 10
7.5720163201
 20
20.234465088
 30
0.0
 10
7.9329455142
 20
19.7761730522
 30
0.0
 10
8.5240295233
 20
19.1563349091
 30
0.0
 10
9.1450109338
 20
18.6261329084
 30
0.0
 10
9.5850632929
 20
18.3301810551
 30
0.0
 10
9.8067237498
 20
18.2022082257
 30
0.0
  0
SPLINE
  5
30B
100
AcDbEntity
  8
0
100
AcDbSpline
 62
7
  6
BYLAYER
 70
0
 71
3
 72
20
 73
16
 74
0
 42
0.0000001
 43
0.0000001
 44
0.0000000001
 40
0.0
 40
0.0
 40
0.0
 40
0.0
 40
0.0466150093
 40
0.0947973369
 40
0.1448606237
 40
0.1970768636
 40
0.2516491214
 40
0.3086896547
 40
0.3682450455
 40
0.4302979166
 40
0.4947824853
 40
0.5615820324
 40
0.7014169455
 40
0.8482317734
 40
1.0
 40
1.0
 40
1.0
 40
1.0
 10
6.3993912118
 20
27.7665040076
 30
0.0
 10
6.3369047442
 20
27.7004538873
 30
0.0
 10
6.2183383206
 20
27.5578479318
 30
0.0
 10
6.0644258254
 20
27.3201923329
 30
0.0
 10
5.93290521
 20
27.0572001246
 30
0.0
 10
5.8244555475
 20
26.7706057971
 30
0.0
 10
5.7396628848
 20
26.4620659241
 30
0.0
 10
5.6788837561
 20
26.1333986194
 30
0.0
 10
5.6425207066
 20
25.7865121347
 30
0.0
 10
5.6306749987
 20
25.4234393125
 30
0.0
 10
5.643459648
 20
25.0462819972
 30
0.0
 10
5.6939365522
 20
24.5195926972
 30
0.0
 10
5.819755437
 20
23.8402006405
 30
0.0
 10
6.0609946309
 20
23.0184830118
 30
0.0
 10
6.2774317204
 20
22.4767391172
 30
0.0
 10
6.3993912118
 20
22.207000675
 30
0.0
  0
SPLINE
  5
30C
100
AcDbEntity
  8
0
100
AcDbSpline
 62
7
  6
BYLAYER
 70
0
 71
3
 72
14
 73
10
 74
0
 42
0.0000001
 43
0.0000001
 44
0.0000000001
 40
0.0
 40
0.0
 40
0.0
 40
0.0
 40
0.148572052
 40
0.2896192942
 40
0.5484479394
 40
0.6678463187
 40
0.7818411395
 40
0.8919405609
 40
1.0
 40
1.0
 40
1.0
 40
1.0
 10
11.5744980627
 20
21.9989706005
 30
0.0
 10
11.5744980627
 20
21.9338976772
 30
0.0
 10
11.5692135969
 20
21.8069217186
 30
0.0
 10
11.5369014561
 20
21.5687375933
 30
0.0
 10
11.4717446119
 20
21.3481630498
 30
0.0
 10
11.3701822946
 20
21.1572899222
 30
0.0
 10
11.2806386522
 20
21.0356449879
 30
0.0
 10
11.1765090547
 20
20.933166401
 30
0.0
 10
11.0976994494
 20
20.8781817487
 30
0.0
 10
11.0567138083
 20
20.8545132724
 30
0.0
  0
LINE
  5
30D
100
AcDbEntity
  8
0
100
AcDbLine
 62
7
  6
BYLAYER
 10
7.1577373679
 20
31.9234906036
 11
5.0862183426
 21
30.0409735101
  0
LINE
  5
30E
100
AcDbEntity
  8
0
100
AcDbLine
 62
7
  6
BYLAYER
 10
13.5272249937
 20
15.4208022833
 11
16.1933016777
 21
16.2735210207
  0
SPLINE
  5
30F
100
AcDbEntity
  8
0
100
AcDbSpline
 62
7
  6
BYLAYER
 70
0
 71
3
 72
11
 73
7
 74
0
 42
0.0000001
 43
0.0000001
 44
0.0000000001
 40
0.0
 40
0.0
 40
0.0
 40
0.0
 40
0.2597463093
 40
0.5113546722
 40
0.7571568223
 40
1.0
 40
1.0
 40
1.0
 40
1.0
 10
24.7432732609
 20
18.2478466699
 30
0.0
 10
24.6426082393
 20
18.0775085837
 30
0.0
 10
24.4253195337
 20
17.7529395749
 30
0.0
 10
24.0470775229
 20
17.3155279869
 30
0.0
 10
23.624711142
 20
16.9395208771
 30
0.0
 10
23.3147027476
 20
16.7310567098
 30
0.0
 10
23.1545016758
 20
16.6385651268
 30
0.0
  0
SPLINE
  5
310
100
AcDbEntity
  8
0
100
AcDbSpline
 62
7
  6
BYLAYER
 70
0
 71
3
 72
15
 73
11
 74
0
 42
0.0000001
 43
0.0000001
 44
0.0000000001
 40
0.0
 40
0.0
 40
0.0
 40
0.0
 40
0.1480799051
 40
0.288731593
 40
0.4217785103
 40
0.5476109299
 40
0.6670316854
 40
0.7811964327
 40
0.8915892679
 40
1.0
 40
1.0
 40
1.0
 40
1.0
 10
11.539012163
 20
22.447257525
 30
0.0
 10
11.5384310874
 20
22.3989918974
 30
0.0
 10
11.5334015626
 20
22.3048659844
 30
0.0
 10
11.5133337074
 20
22.1686365771
 30
0.0
 10
11.4809513769
 20
22.0422182189
 30
0.0
 10
11.4365544997
 20
21.9268407937
 30
0.0
 10
11.3804602157
 20
21.8235672902
 30
0.0
 10
11.313100134
 20
21.7333973388
 30
0.0
 10
11.2351110134
 20
21.6572690488
 30
0.0
 10
11.1762240969
 20
21.6163362303
 30
0.0
 10
11.145620054
 20
21.5986673996
 30
0.0
  0
SPLINE
  5
311
100
AcDbEntity
  8
0
100
AcDbSpline
 62
7
  6
BYLAYER
 70
0
 71
3
 72
9
 73
5
 74
0
 42
0.0000001
 43
0.0000001
 44
0.0000000001
 40
0.0
 40
0.0
 40
0.0
 40
0.0
 40
0.5237943556
 40
1.0
 40
1.0
 40
1.0
 40
1.0
 10
24.2240420492
 20
13.2707763971
 30
0.0
 10
24.2984247973
 20
13.2338235213
 30
0.0
 10
24.4459061877
 20
13.1735043654
 30
0.0
 10
24.602441542
 20
13.1410803959
 30
0.0
 10
24.6776624419
 20
13.1344780609
 30
0.0
  0
SPLINE
  5
312
100
AcDbEntity
  8
0
100
AcDbSpline
 62
7
  6
BYLAYER
 70
0
 71
3
 72
9
 73
5
 74
0
 42
0.0000001
 43
0.0000001
 44
0.0000000001
 40
0.0
 40
0.0
 40
0.0
 40
0.0
 40
0.5219423385
 40
1.0
 40
1.0
 40
1.0
 40
1.0
 10
25.2923663792
 20
14.2830461025
 30
0.0
 10
25.2923663792
 20
14.2155179989
 30
0.0
 10
25.2840183725
 20
14.0859247813
 30
0.0
 10
25.255139852
 20
13.9590112901
 30
0.0
 10
25.2354868763
 20
13.9003663504
 30
0.0
  0
SPLINE
  5
313
100
AcDbEntity
  8
0
100
AcDbSpline
 62
7
  6
BYLAYER
 70
0
 71
3
 72
11
 73
7
 74
0
 42
0.0000001
 43
0.0000001
 44
0.0000000001
 40
0.0
 40
0.0
 40
0.0
 40
0.0
 40
0.2207831639
 40
0.4623383968
 40
0.7231499805
 40
1.0
 40
1.0
 40
1.0
 40
1.0
 10
24.1838707074
 20
33.3203206908
 30
0.0
 10
24.2628924115
 20
33.2991479941
 30
0.0
 10
24.4241169954
 20
33.238223299
 30
0.0
 10
24.6576549291
 20
33.105139529
 30
0.0
 10
24.8879215984
 20
32.9297368472
 30
0.0
 10
25.0317715471
 20
32.7912384615
 30
0.0
 10
25.1019247443
 20
32.716391889
 30
0.0
  0
SPLINE
  5
314
100
AcDbEntity
  8
0
100
AcDbSpline
 62
7
  6
BYLAYER
 70
0
 71
3
 72
11
 73
7
 74
0
 42
0.0000001
 43
0.0000001
 44
0.0000000001
 40
0.0
 40
0.0
 40
0.0
 40
0.0
 40
0.2768500195
 40
0.5376616032
 40
0.7792168361
 40
1.0
 40
1.0
 40
1.0
 40
1.0
 10
24.6776624419
 20
32.4714453966
 30
0.0
 10
24.6075092447
 20
32.5462919692
 30
0.0
 10
24.4636592961
 20
32.6847903549
 30
0.0
 10
24.2333926268
 20
32.8601930367
 30
0.0
 10
23.9998546931
 20
32.9932768067
 30
0.0
 10
23.8386301091
 20
33.0542015018
 30
0.0
 10
23.759608405
 20
33.0753741985
 30
0.0
  0
SPLINE
  5
315
100
AcDbEntity
  8
0
100
AcDbSpline
 62
7
  6
BYLAYER
 70
0
 71
3
 72
11
 73
7
 74
0
 42
0.0000001
 43
0.0000001
 44
0.0000000001
 40
0.0
 40
0.0
 40
0.0
 40
0.0
 40
0.2814383853
 40
0.5428974724
 40
0.7823263991
 40
1.0
 40
1.0
 40
1.0
 40
1.0
 10
10.3494677575
 20
40.8175473598
 30
0.0
 10
10.276411443
 20
40.8823292584
 30
0.0
 10
10.1283806271
 20
40.9996420895
 30
0.0
 10
9.8949522907
 20
41.1398612327
 30
0.0
 10
9.6632271099
 20
41.2346228431
 30
0.0
 10
9.5066438265
 20
41.267068924
 30
0.0
 10
9.4314137206
 20
41.273672067
 30
0.0
  0
SPLINE
  5
316
100
AcDbEntity
  8
0
100
AcDbSpline
 62
7
  6
BYLAYER
 70
0
 71
3
 72
11
 73
7
 74
0
 42
0.0000001
 43
0.0000001
 44
0.0000000001
 40
0.0
 40
0.0
 40
0.0
 40
0.0
 40
0.2597463093
 40
0.5113546722
 40
0.7571568223
 40
1.0
 40
1.0
 40
1.0
 40
1.0
 10
9.3658029017
 20
36.1603034581
 30
0.0
 10
9.4664679232
 20
36.3306415443
 30
0.0
 10
9.6837566289
 20
36.6552105531
 30
0.0
 10
10.0619986397
 20
37.0926221411
 30
0.0
 10
10.4843650206
 20
37.4686292509
 30
0.0
 10
10.794373415
 20
37.6770934182
 30
0.0
 10
10.9545744868
 20
37.7695850012
 30
0.0
  0
SPLINE
  5
317
100
AcDbEntity
  8
0
100
AcDbSpline
 62
7
  6
BYLAYER
 70
0
 71
3
 72
11
 73
7
 74
0
 42
0.0000001
 43
0.0000001
 44
0.0000000001
 40
0.0
 40
0.0
 40
0.0
 40
0.0
 40
0.2676805688
 40
0.5207614895
 40
0.7632163902
 40
1.0
 40
1.0
 40
1.0
 40
1.0
 10
23.0264641018
 20
32.3730682236
 30
0.0
 10
23.0404757706
 20
32.4104270907
 30
0.0
 10
23.0727203387
 20
32.481405209
 30
0.0
 10
23.1358735634
 20
32.5766553953
 30
0.0
 10
23.211533148
 20
32.6561475689
 30
0.0
 10
23.2700776391
 20
32.6979804008
 30
0.0
 10
23.3006462201
 20
32.715623211
 30
0.0
  0
SPLINE
  5
318
100
AcDbEntity
  8
0
100
AcDbSpline
 62
7
  6
BYLAYER
 70
0
 71
3
 72
11
 73
7
 74
0
 42
0.0000001
 43
0.0000001
 44
0.0000000001
 40
0.0
 40
0.0
 40
0.0
 40
0.0
 40
0.2428439014
 40
0.4886464695
 40
0.7402546647
 40
1.0
 40
1.0
 40
1.0
 40
1.0
 10
23.1545016758
 20
16.6385651268
 30
0.0
 10
22.9943094241
 20
16.546078636
 30
0.0
 10
22.658788557
 20
16.3818452554
 30
0.0
 10
22.1220053239
 20
16.2040757338
 30
0.0
 10
21.5541097728
 20
16.095213711
 30
0.0
 10
21.164404453
 20
16.0693152513
 30
0.0
 10
20.9665670968
 20
16.0673020064
 30
0.0
  0
SPLINE
  5
319
100
AcDbEntity
  8
0
100
AcDbSpline
 62
7
  6
BYLAYER
 70
0
 71
3
 72
10
 73
6
 74
0
 42
0.0000001
 43
0.0000001
 44
0.0000000001
 40
0.0
 40
0.0
 40
0.0
 40
0.0
 40
0.2715385198
 40
0.5287219769
 40
1.0
 40
1.0
 40
1.0
 40
1.0
 10
25.9641170854
 20
14.3851083308
 30
0.0
 10
25.9641170854
 20
14.3319480423
 30
0.0
 10
25.9597351374
 20
14.2283229659
 30
0.0
 10
25.9327958426
 20
14.0343117753
 30
0.0
 10
25.8908953035
 20
13.8960828657
 30
0.0
 10
25.8519278668
 20
13.8124514385
 30
0.0
  0
SPLINE
  5
31A
100
AcDbEntity
  8
0
100
AcDbSpline
 62
7
  6
BYLAYER
 70
0
 71
3
 72
11
 73
7
 74
0
 42
0.0000001
 43
0.0000001
 44
0.0000000001
 40
0.0
 40
0.0
 40
0.0
 40
0.0
 40
0.2367029256
 40
0.4791007243
 40
0.7322094001
 40
1.0
 40
1.0
 40
1.0
 40
1.0
 10
24.9506260385
 20
29.8577573419
 30
0.0
 10
24.9199897251
 20
29.8400698803
 30
0.0
 10
24.8543321349
 20
29.810219104
 30
0.0
 10
24.7473738576
 20
29.7844484471
 30
0.0
 10
24.6329858396
 20
29.777484729
 30
0.0
 10
24.5551791149
 20
29.7851773384
 30
0.0
 10
24.515708743
 20
29.7917971693
 30
0.0
  0
SPLINE
  5
31B
100
AcDbEntity
  8
0
100
AcDbSpline
 62
7
  6
BYLAYER
 70
0
 71
3
 72
24
 73
20
 74
0
 42
0.0000001
 43
0.0000001
 44
0.0000000001
 40
0.0
 40
0.0
 40
0.0
 40
0.0
 40
0.0213328762
 40
0.0428943101
 40
0.0874726889
 40
0.1352522068
 40
0.1871558519
 40
0.2435980473
 40
0.3045501415
 40
0.3696407362
 40
0.4382430419
 40
0.5095342485
 40
0.582562532
 40
0.6562979855
 40
0.7296823131
 40
0.8016645464
 40
0.8712565817
 40
0.9376321666
 40
1.0
 40
1.0
 40
1.0
 40
1.0
 10
11.145620054
 20
21.5986673996
 30
0.0
 10
11.12227809
 20
21.5851912322
 30
0.0
 10
11.0735501003
 20
21.5610675097
 30
0.0
 10
10.9688712622
 20
21.5248685395
 30
0.0
 10
10.8250302156
 20
21.5036858954
 30
0.0
 10
10.6420647332
 20
21.5172175417
 30
0.0
 10
10.4504851154
 20
21.568080688
 30
0.0
 10
10.2541759759
 20
21.6548531749
 30
0.0
 10
10.0570102294
 20
21.7754843179
 30
0.0
 10
9.8629843224
 20
21.9273645311
 30
0.0
 10
9.6761506332
 20
22.1073079547
 30
0.0
 10
9.5004304022
 20
22.3114841292
 30
0.0
 10
9.3395343615
 20
22.5355391027
 30
0.0
 10
9.1969180599
 20
22.7747246017
 30
0.0
 10
9.0756192356
 20
23.0239311416
 30
0.0
 10
8.9781919907
 20
23.2778195057
 30
0.0
 10
8.9067309461
 20
23.5310677841
 30
0.0
 10
8.8628306716
 20
23.7782006869
 30
0.0
 10
8.8521223825
 20
23.9409661651
 30
0.0
 10
8.8521223825
 20
24.019764205
 30
0.0
  0
SPLINE
  5
31C
100
AcDbEntity
  8
0
100
AcDbSpline
 62
7
  6
BYLAYER
 70
0
 71
3
 72
25
 73
21
 74
0
 42
0.0000001
 43
0.0000001
 44
0.0000000001
 40
0.0
 40
0.0
 40
0.0
 40
0.0
 40
0.0213315375
 40
0.0428923892
 40
0.0648978231
 40
0.0875426257
 40
0.1353183409
 40
0.1872199306
 40
0.2436563893
 40
0.3046028565
 40
0.3696902548
 40
0.4382861889
 40
0.5095715849
 40
0.5825959563
 40
0.6563254973
 40
0.7297029772
 40
0.8016815617
 40
0.8712676672
 40
0.9376305901
 40
1.0
 40
1.0
 40
1.0
 40
1.0
 10
11.0567138083
 20
20.8545132724
 30
0.0
 10
11.0260022118
 20
20.8367778736
 30
0.0
 10
10.9618860508
 20
20.805041832
 30
0.0
 10
10.8596528218
 20
20.769726073
 30
0.0
 10
10.7517333416
 20
20.7466897588
 30
0.0
 10
10.5984446312
 20
20.7323078601
 30
0.0
 10
10.3940630654
 20
20.7473060201
 30
0.0
 10
10.1420754731
 20
20.8142983396
 30
0.0
 10
9.8837464776
 20
20.928448589
 30
0.0
 10
9.6243145972
 20
21.0871608928
 30
0.0
 10
9.3690343758
 20
21.2870267974
 30
0.0
 10
9.1231967814
 20
21.5237884803
 30
0.0
 10
8.8919702949
 20
21.7924297264
 30
0.0
 10
8.6802837012
 20
22.0872550446
 30
0.0
 10
8.4926288919
 20
22.4019706422
 30
0.0
 10
8.333007451
 20
22.7298668623
 30
0.0
 10
8.2048352095
 20
23.0639393111
 30
0.0
 10
8.1108081355
 20
23.3971486286
 30
0.0
 10
8.0530272177
 20
23.7223180629
 30
0.0
 10
8.038949437
 20
23.9364821849
 30
0.0
 10
8.038949437
 20
24.0401743731
 30
0.0
  0
SPLINE
  5
31D
100
AcDbEntity
  8
0
100
AcDbSpline
 62
7
  6
BYLAYER
 70
0
 71
3
 72
11
 73
7
 74
0
 42
0.0000001
 43
0.0000001
 44
0.0000000001
 40
0.0
 40
0.0
 40
0.0
 40
0.0
 40
0.2367029256
 40
0.4791007243
 40
0.7322094001
 40
1.0
 40
1.0
 40
1.0
 40
1.0
 10
10.8084315355
 20
38.0225724323
 30
0.0
 10
10.7777952221
 20
38.0048849707
 30
0.0
 10
10.712137632
 20
37.9750341944
 30
0.0
 10
10.6051793546
 20
37.9492635376
 30
0.0
 10
10.4907913367
 20
37.9422998194
 30
0.0
 10
10.412984612
 20
37.9499924288
 30
0.0
 10
10.3735142401
 20
37.9566122597
 30
0.0
  0
SPLINE
  5
31E
100
AcDbEntity
  8
0
100
AcDbSpline
 62
7
  6
BYLAYER
 70
0
 71
3
 72
9
 73
5
 74
0
 42
0.0000001
 43
0.0000001
 44
0.0000000001
 40
0.0
 40
0.0
 40
0.0
 40
0.0
 40
0.5139784425
 40
1.0
 40
1.0
 40
1.0
 40
1.0
 10
25.9159287261
 20
14.8355820154
 30
0.0
 10
25.9315093173
 20
14.759443544
 30
0.0
 10
25.9553178288
 20
14.6098774923
 30
0.0
 10
25.9641170854
 20
14.4585973898
 30
0.0
 10
25.9641170854
 20
14.3851083308
 30
0.0
  0
SPLINE
  5
31F
100
AcDbEntity
  8
0
100
AcDbSpline
 62
7
  6
BYLAYER
 70
0
 71
3
 72
9
 73
5
 74
0
 42
0.0000001
 43
0.0000001
 44
0.0000000001
 40
0.0
 40
0.0
 40
0.0
 40
0.0
 40
0.4807312264
 40
1.0
 40
1.0
 40
1.0
 40
1.0
 10
25.539854783
 20
30.470210181
 30
0.0
 10
25.539854783
 20
30.5844629834
 30
0.0
 10
25.5184783328
 20
30.8223215429
 30
0.0
 10
25.4634473429
 20
31.0542983826
 30
0.0
 10
25.4276655645
 20
31.1724090938
 30
0.0
  0
SPLINE
  5
320
100
AcDbEntity
  8
0
100
AcDbSpline
 62
7
  6
BYLAYER
 70
0
 71
3
 72
11
 73
7
 74
0
 42
0.0000001
 43
0.0000001
 44
0.0000000001
 40
0.0
 40
0.0
 40
0.0
 40
0.0
 40
0.2202187743
 40
0.4578791073
 40
0.7174040063
 40
1.0
 40
1.0
 40
1.0
 40
1.0
 10
8.7501528055
 20
25.2537159686
 30
0.0
 10
8.6966756755
 20
25.1968652133
 30
0.0
 10
8.6006255188
 20
25.0638070241
 30
0.0
 10
8.5001451085
 20
24.8284632775
 30
0.0
 10
8.4400504327
 20
24.5573671198
 30
0.0
 10
8.4278565474
 20
24.364866486
 30
0.0
 10
8.4278565474
 20
24.2647086577
 30
0.0
  0
SPLINE
  5
321
100
AcDbEntity
  8
0
100
AcDbSpline
 62
7
  6
BYLAYER
 70
0
 71
3
 72
9
 73
5
 74
0
 42
0.0000001
 43
0.0000001
 44
0.0000000001
 40
0.0
 40
0.0
 40
0.0
 40
0.0
 40
0.2366982813
 40
1.0
 40
1.0
 40
1.0
 40
1.0
 10
25.4916664238
 20
30.075378362
 30
0.0
 10
25.4998023631
 20
30.1057423116
 30
0.0
 10
25.5292302517
 20
30.235341643
 30
0.0
 10
25.539854783
 20
30.3688387873
 30
0.0
 10
25.539854783
 20
30.470210181
 30
0.0
  0
SPLINE
  5
322
100
AcDbEntity
  8
0
100
AcDbSpline
 62
7
  6
BYLAYER
 70
0
 71
3
 72
17
 73
13
 74
0
 42
0.0000001
 43
0.0000001
 44
0.0000000001
 40
0.0
 40
0.0
 40
0.0
 40
0.0
 40
0.0539154428
 40
0.1080896249
 40
0.1627740957
 40
0.218209011
 40
0.332125085
 40
0.4514631281
 40
0.5773563263
 40
0.7105465525
 40
0.8514492223
 40
1.0
 40
1.0
 40
1.0
 40
1.0
 10
12.6823809429
 20
36.5732089446
 30
0.0
 10
12.7666873178
 20
36.6218881641
 30
0.0
 10
12.9399552131
 20
36.7123229201
 30
0.0
 10
13.2114053401
 20
36.8258581121
 30
0.0
 10
13.4940092727
 20
36.9172197247
 30
0.0
 10
13.8881482008
 20
37.0099633278
 30
0.0
 10
14.4084195629
 20
37.0680286458
 30
0.0
 10
15.058515228
 20
37.0453764882
 30
0.0
 10
15.7341395632
 20
36.9320740045
 30
0.0
 10
16.4289282958
 20
36.7295265495
 30
0.0
 10
17.1363032614
 20
36.4399871995
 30
0.0
 10
17.6000595921
 20
36.1972297544
 30
0.0
 10
17.8323523022
 20
36.0631185297
 30
0.0
  0
SPLINE
  5
323
100
AcDbEntity
  8
0
100
AcDbSpline
 62
7
  6
BYLAYER
 70
0
 71
3
 72
14
 73
10
 74
0
 42
0.0000001
 43
0.0000001
 44
0.0000000001
 40
0.0
 40
0.0
 40
0.0
 40
0.0
 40
0.1128936454
 40
0.2300429697
 40
0.3510635028
 40
0.4756038476
 40
0.6032659394
 40
0.7335742869
 40
1.0
 40
1.0
 40
1.0
 40
1.0
 10
17.8323523022
 20
36.0631185297
 30
0.0
 10
18.0298300608
 20
35.9491072719
 30
0.0
 10
18.424142858
 20
35.7025416344
 30
0.0
 10
19.0005522101
 20
35.2888320091
 30
0.0
 10
19.5695099862
 20
34.8266387925
 30
0.0
 10
20.127364675
 20
34.3190613001
 30
0.0
 10
20.6706593068
 20
33.7692170149
 30
0.0
 10
21.3761367057
 20
32.9787401446
 30
0.0
 10
21.8651646582
 20
32.3418787475
 30
0.0
 10
22.1729256718
 20
31.9004344064
 30
0.0
  0
SPLINE
  5
324
100
AcDbEntity
  8
0
100
AcDbSpline
 62
7
  6
BYLAYER
 70
0
 71
3
 72
23
 73
19
 74
0
 42
0.0000001
 43
0.0000001
 44
0.0000000001
 40
0.0
 40
0.0
 40
0.0
 40
0.0
 40
0.1566005311
 40
0.2328981402
 40
0.3073501685
 40
0.3796284933
 40
0.4494452538
 40
0.5165631329
 40
0.5808075985
 40
0.6420738384
 40
0.7003459197
 40
0.7557049242
 40
0.7823594546
 40
0.8083687761
 40
0.8586113801
 40
0.9069021328
 40
0.9538102804
 40
1.0
 40
1.0
 40
1.0
 40
1.0
 10
23.6803855958
 20
29.2896321625
 30
0.0
 10
23.9347071815
 20
28.7471802897
 30
0.0
 10
24.2720595192
 20
27.9200747622
 30
0.0
 10
24.6245861296
 20
26.7978588436
 30
0.0
 10
24.8332343039
 20
25.9699758254
 30
0.0
 10
24.9867772959
 20
25.1553391334
 30
0.0
 10
25.0839766235
 20
24.3602662841
 30
0.0
 10
25.1240353379
 20
23.590979924
 30
0.0
 10
25.1066530956
 20
22.8534755424
 30
0.0
 10
25.031801744
 20
22.1534676228
 30
0.0
 10
24.9000634273
 20
21.4964438728
 30
0.0
 10
24.7415035294
 20
20.9825241208
 30
0.0
 10
24.586396995
 20
20.5992345196
 30
0.0
 10
24.417309835
 20
20.2434965505
 30
0.0
 10
24.1734465915
 20
19.8325093245
 30
0.0
 10
23.8261915129
 20
19.3953963351
 30
0.0
 10
23.4304702553
 20
19.0238040332
 30
0.0
 10
23.1353544341
 20
18.8214395943
 30
0.0
 10
22.9823236616
 20
18.7330783219
 30
0.0
  0
SPLINE
  5
325
100
AcDbEntity
  8
0
100
AcDbSpline
 62
7
  6
BYLAYER
 70
0
 71
3
 72
9
 73
5
 74
0
 42
0.0000001
 43
0.0000001
 44
0.0000000001
 40
0.0
 40
0.0
 40
0.0
 40
0.0
 40
0.5174672666
 40
1.0
 40
1.0
 40
1.0
 40
1.0
 10
9.0640080148
 20
34.5016957232
 30
0.0
 10
9.1399089646
 20
34.8459438585
 30
0.0
 10
9.3306170511
 20
35.5026711048
 30
0.0
 10
9.6228237035
 20
36.12225595
 30
0.0
 10
9.790065204
 20
36.4052499504
 30
0.0
  0
SPLINE
  5
326
100
AcDbEntity
  8
0
100
AcDbSpline
 62
7
  6
BYLAYER
 70
0
 71
3
 72
23
 73
19
 74
0
 42
0.0000001
 43
0.0000001
 44
0.0000000001
 40
0.0
 40
0.0
 40
0.0
 40
0.0
 40
0.0772686189
 40
0.1516411135
 40
0.2230303879
 40
0.2914837035
 40
0.3571294364
 40
0.4201631707
 40
0.4808546862
 40
0.5395680965
 40
0.5967467541
 40
0.6529053937
 40
0.7086065905
 40
0.7644380136
 40
0.8209801777
 40
0.8787774459
 40
0.9383146439
 40
1.0
 40
1.0
 40
1.0
 40
1.0
 10
12.1755216045
 20
32.0900534632
 30
0.0
 10
12.0165670693
 20
32.1818238308
 30
0.0
 10
11.6989201616
 20
32.3523127167
 30
0.0
 10
11.2158543726
 20
32.5708736513
 30
0.0
 10
10.7376009881
 20
32.7461156148
 30
0.0
 10
10.2668034595
 20
32.8771070005
 30
0.0
 10
9.8058364884
 20
32.9630466875
 30
0.0
 10
9.3570997328
 20
33.0035143067
 30
0.0
 10
8.9229538773
 20
32.9980456537
 30
0.0
 10
8.5057477813
 20
32.9466453781
 30
0.0
 10
8.1077967512
 20
32.8493584803
 30
0.0
 10
7.7313424248
 20
32.7067171892
 30
0.0
 10
7.3786097271
 20
32.5193687252
 30
0.0
 10
7.0516146568
 20
32.2884654294
 30
0.0
 10
6.7522677125
 20
32.0153176906
 30
0.0
 10
6.4821531911
 20
31.7015977534
 30
0.0
 10
6.2427394496
 20
31.3491460411
 30
0.0
 10
6.1069592971
 20
31.0945439988
 30
0.0
 10
6.0443493132
 20
30.9620666014
 30
0.0
  0
SPLINE
  5
327
100
AcDbEntity
  8
0
100
AcDbSpline
 62
7
  6
BYLAYER
 70
0
 71
3
 72
21
 73
17
 74
0
 42
0.0000001
 43
0.0000001
 44
0.0000000001
 40
0.0
 40
0.0
 40
0.0
 40
0.0
 40
0.0462561912
 40
0.0940264604
 40
0.1436732006
 40
0.1955109348
 40
0.2497754031
 40
0.3065995559
 40
0.3660413706
 40
0.4280858087
 40
0.4926628253
 40
0.5596448954
 40
0.6288633787
 40
0.7001012451
 40
0.8476111396
 40
1.0
 40
1.0
 40
1.0
 40
1.0
 10
9.2567559622
 20
30.5973215184
 30
0.0
 10
9.3625166487
 20
30.627220668
 30
0.0
 10
9.5818484092
 20
30.6734776756
 30
0.0
 10
9.9228735764
 20
30.7014339795
 30
0.0
 10
10.2780435065
 20
30.6886611131
 30
0.0
 10
10.6449268744
 20
30.6354886354
 30
0.0
 10
11.0212518921
 20
30.5423082684
 30
0.0
 10
11.4047142897
 20
30.4098940333
 30
0.0
 10
11.7928731158
 20
30.2390221049
 30
0.0
 10
12.1833487896
 20
30.0309119398
 30
0.0
 10
12.5736500572
 20
29.7868158258
 30
0.0
 10
12.9613762996
 20
29.5083652172
 30
0.0
 10
13.344024184
 20
29.1972576714
 30
0.0
 10
13.8501030587
 20
28.7363342976
 30
0.0
 10
14.4532748079
 20
28.0908276115
 30
0.0
 10
14.8875046238
 20
27.5243221918
 30
0.0
 10
15.0942869769
 20
27.2270973486
 30
0.0
  0
SPLINE
  5
328
100
AcDbEntity
  8
0
100
AcDbSpline
 62
7
  6
BYLAYER
 70
0
 71
3
 72
21
 73
17
 74
0
 42
0.0000001
 43
0.0000001
 44
0.0000000001
 40
0.0
 40
0.0
 40
0.0
 40
0.0
 40
0.1523882365
 40
0.2998977956
 40
0.3711355941
 40
0.4403540723
 40
0.5073361933
 40
0.5719133091
 40
0.6339578853
 40
0.6933998634
 40
0.7502241907
 40
0.8044888349
 40
0.8563267271
 40
0.9059735681
 40
0.9537438592
 40
1.0
 40
1.0
 40
1.0
 40
1.0
 10
16.0942910673
 20
25.4950489027
 30
0.0
 10
16.2483061828
 20
25.1673576094
 30
0.0
 10
16.5218037625
 20
24.5080499593
 30
0.0
 10
16.7792488945
 20
23.6629327014
 30
0.0
 10
16.9253859991
 20
22.9941912759
 30
0.0
 10
17.0034931765
 20
22.5072520696
 30
0.0
 10
17.0507795812
 20
22.0322428457
 30
0.0
 10
17.0670267318
 20
21.5721803563
 30
0.0
 10
17.0520220407
 20
21.1299593513
 30
0.0
 10
17.0059265837
 20
20.7083634953
 30
0.0
 10
16.9288740246
 20
20.3100633146
 30
0.0
 10
16.8214126787
 20
19.9375608333
 30
0.0
 10
16.6840244363
 20
19.5932386237
 30
0.0
 10
16.5175056854
 20
19.2792601263
 30
0.0
 10
16.3227863697
 20
18.9978959609
 30
0.0
 10
16.1730634258
 20
18.8310732951
 30
0.0
 10
16.0942910212
 20
18.7544291403
 30
0.0
  0
SPLINE
  5
329
100
AcDbEntity
  8
0
100
AcDbSpline
 62
7
  6
BYLAYER
 70
0
 71
3
 72
17
 73
13
 74
0
 42
0.0000001
 43
0.0000001
 44
0.0000000001
 40
0.0
 40
0.0
 40
0.0
 40
0.0
 40
0.1485507398
 40
0.2894524442
 40
0.4226420671
 40
0.5485351644
 40
0.6678734269
 40
0.7817902828
 40
0.8372254503
 40
0.8919100905
 40
0.9460843932
 40
1.0
 40
1.0
 40
1.0
 40
1.0
 10
13.2361773603
 20
33.4095315295
 30
0.0
 10
13.0038846205
 20
33.5436427714
 30
0.0
 10
12.5401300137
 20
33.7864000241
 30
0.0
 10
11.832757376
 20
34.0759382734
 30
0.0
 10
11.1379716156
 20
34.2784855722
 30
0.0
 10
10.4623483579
 20
34.3917914829
 30
0.0
 10
9.8122508451
 20
34.4144427043
 30
0.0
 10
9.2919766693
 20
34.356380268
 30
0.0
 10
8.8978355114
 20
34.2636358889
 30
0.0
 10
8.6152301302
 20
34.1722753058
 30
0.0
 10
8.3437789024
 20
34.0587401588
 30
0.0
 10
8.1705108264
 20
33.9683045008
 30
0.0
 10
8.086204106
 20
33.9196252128
 30
0.0
  0
SPLINE
  5
32A
100
AcDbEntity
  8
0
100
AcDbSpline
 62
7
  6
BYLAYER
 70
0
 71
3
 72
8
 73
4
 74
0
 42
0.0000001
 43
0.0000001
 44
0.0000000001
 40
0.0
 40
0.0
 40
0.0
 40
0.0
 40
1.0
 40
1.0
 40
1.0
 40
1.0
 10
9.213624813
 20
29.9973196329
 30
0.0
 10
8.608755832
 20
29.446308921
 30
0.0
 10
8.0040013068
 20
28.8951725224
 30
0.0
 10
7.3993953752
 20
28.3438731878
 30
0.0
  0
SPLINE
  5
32B
100
AcDbEntity
  8
0
100
AcDbSpline
 62
7
  6
BYLAYER
 70
0
 71
3
 72
9
 73
5
 74
0
 42
0.0000001
 43
0.0000001
 44
0.0000000001
 40
0.0
 40
0.0
 40
0.0
 40
0.0
 40
0.2638117592
 40
1.0
 40
1.0
 40
1.0
 40
1.0
 10
25.9641170854
 20
30.7151566734
 30
0.0
 10
25.9641170854
 20
30.6801248205
 30
0.0
 10
25.9604217622
 20
30.547408356
 30
0.0
 10
25.9412305164
 20
30.4147530768
 30
0.0
 10
25.9159287262
 20
30.3203248543
 30
0.0
  0
SPLINE
  5
32C
100
AcDbEntity
  8
0
100
AcDbSpline
 62
7
  6
BYLAYER
 70
0
 71
3
 72
14
 73
10
 74
0
 42
0.0000001
 43
0.0000001
 44
0.0000000001
 40
0.0
 40
0.0
 40
0.0
 40
0.0
 40
0.1441982467
 40
0.2826813265
 40
0.5418901598
 40
0.6632650308
 40
0.7796410936
 40
0.8916425448
 40
1.0
 40
1.0
 40
1.0
 40
1.0
 10
9.8067237498
 20
27.8369367479
 30
0.0
 10
9.7019366869
 20
27.8974342182
 30
0.0
 10
9.4925240467
 20
28.009379367
 30
0.0
 10
9.0770057128
 20
28.194528583
 30
0.0
 10
8.6590394295
 20
28.3259303438
 30
0.0
 10
8.2469183464
 20
28.3932214282
 30
0.0
 10
7.9533880204
 20
28.4108172919
 30
0.0
 10
7.6706200138
 20
28.3963485531
 30
0.0
 10
7.4878381398
 20
28.3649647885
 30
0.0
 10
7.3993953752
 20
28.3438731878
 30
0.0
  0
SPLINE
  5
32D
100
AcDbEntity
  8
0
100
AcDbSpline
 62
7
  6
BYLAYER
 70
0
 71
3
 72
11
 73
7
 74
0
 42
0.0000001
 43
0.0000001
 44
0.0000000001
 40
0.0
 40
0.0
 40
0.0
 40
0.0
 40
0.2664285877
 40
0.5241614711
 40
0.7696414114
 40
1.0
 40
1.0
 40
1.0
 40
1.0
 10
12.2140521245
 20
25.5641927024
 30
0.0
 10
12.0414311795
 20
25.8046798856
 30
0.0
 10
11.6805019855
 20
26.2629719214
 30
0.0
 10
11.0894179764
 20
26.8828100645
 30
0.0
 10
10.4684365659
 20
27.4130120652
 30
0.0
 10
10.0283842068
 20
27.7089639185
 30
0.0
 10
9.8067237498
 20
27.8369367479
 30
0.0
  0
SPLINE
  5
32E
100
AcDbEntity
  8
0
100
AcDbSpline
 62
7
  6
BYLAYER
 70
0
 71
3
 72
37
 73
33
 74
0
 42
0.0000001
 43
0.0000001
 44
0.0000000001
 40
0.0
 40
0.0
 40
0.0
 40
0.0
 40
0.0245175308
 40
0.0480571766
 40
0.0708544153
 40
0.0931906627
 40
0.1153777639
 40
0.1377385363
 40
0.1605837421
 40
0.1841909899
 40
0.2087915256
 40
0.2345628083
 40
0.2616268681
 40
0.2900552544
 40
0.3198710399
 40
0.3510580074
 40
0.3835631424
 40
0.4173040466
 40
0.4521727161
 40
0.4880393473
 40
0.5247575289
 40
0.5621656876
 40
0.6000923413
 40
0.638357282
 40
0.7151373699
 40
0.7910382809
 40
0.8282184324
 40
0.8646493451
 40
0.9001721293
 40
0.9346499445
 40
0.9679671417
 40
1.0
 40
1.0
 40
1.0
 40
1.0
 10
14.7957529166
 20
15.7906690969
 30
0.0
 10
14.966756626
 20
15.7762728597
 30
0.0
 10
15.3039694372
 20
15.7670656552
 30
0.0
 10
15.7988352181
 20
15.8164748439
 30
0.0
 10
16.2677081218
 20
15.9293837356
 30
0.0
 10
16.706760879
 20
16.1050779767
 30
0.0
 10
17.112322321
 20
16.3423833679
 30
0.0
 10
17.4810983484
 20
16.6392265036
 30
0.0
 10
17.8101343437
 20
16.993136233
 30
0.0
 10
18.0970765503
 20
17.4010821602
 30
0.0
 10
18.3399907595
 20
17.85979973
 30
0.0
 10
18.5372996048
 20
18.3657819985
 30
0.0
 10
18.6878565675
 20
18.9152633105
 30
0.0
 10
18.7906485517
 20
19.5042753721
 30
0.0
 10
18.8451478395
 20
20.1285641902
 30
0.0
 10
18.8509633814
 20
20.7836497126
 30
0.0
 10
18.8081473537
 20
21.4648178305
 30
0.0
 10
18.7170318397
 20
22.1671587735
 30
0.0
 10
18.5782650476
 20
22.8855893174
 30
0.0
 10
18.3929186093
 20
23.6149199471
 30
0.0
 10
18.1622724506
 20
24.3498395802
 30
0.0
 10
17.8880755021
 20
25.0850277258
 30
0.0
 10
17.5722636827
 20
25.8151387659
 30
0.0
 10
17.0983378517
 20
26.7756687031
 30
0.0
 10
16.4187684688
 20
27.929170047
 30
0.0
 10
15.6333199356
 20
29.0041289391
 30
0.0
 10
14.95174269
 20
29.7987906229
 30
0.0
 10
14.4237495134
 20
30.3513597248
 30
0.0
 10
13.8794008767
 20
30.8605298631
 30
0.0
 10
13.3225462302
 20
31.3226444316
 30
0.0
 10
12.7572928632
 20
31.7341977844
 30
0.0
 10
12.3696956423
 20
31.9779495664
 30
0.0
 10
12.1755216045
 20
32.0900534632
 30
0.0
  0
SPLINE
  5
32F
100
AcDbEntity
  8
0
100
AcDbSpline
 62
7
  6
BYLAYER
 70
0
 71
3
 72
9
 73
5
 74
0
 42
0.0000001
 43
0.0000001
 44
0.0000000001
 40
0.0
 40
0.0
 40
0.0
 40
0.0
 40
0.5192687736
 40
1.0
 40
1.0
 40
1.0
 40
1.0
 10
25.8519278668
 20
31.4173555861
 30
0.0
 10
25.8877096452
 20
31.299244875
 30
0.0
 10
25.9427406352
 20
31.0672680352
 30
0.0
 10
25.9641170854
 20
30.8294094757
 30
0.0
 10
25.9641170854
 20
30.7151566734
 30
0.0
  0
SPLINE
  5
330
100
AcDbEntity
  8
0
100
AcDbSpline
 62
7
  6
BYLAYER
 70
0
 71
3
 72
20
 73
16
 74
0
 42
0.0000001
 43
0.0000001
 44
0.0000000001
 40
0.0
 40
0.0
 40
0.0
 40
0.0
 40
0.0466150093
 40
0.0947973369
 40
0.1448606237
 40
0.1970768636
 40
0.2516491214
 40
0.3086896547
 40
0.3682450455
 40
0.4302979166
 40
0.4947824853
 40
0.5615820324
 40
0.7014169455
 40
0.8482317734
 40
1.0
 40
1.0
 40
1.0
 40
1.0
 10
13.2140562878
 20
18.2726409661
 30
0.0
 10
13.2765427555
 20
18.3386910864
 30
0.0
 10
13.3951091791
 20
18.4812970418
 30
0.0
 10
13.5490216743
 20
18.7189526408
 30
0.0
 10
13.6805422896
 20
18.981944849
 30
0.0
 10
13.7889919521
 20
19.2685391765
 30
0.0
 10
13.8737846149
 20
19.5770790495
 30
0.0
 10
13.9345637435
 20
19.9057463542
 30
0.0
 10
13.9709267931
 20
20.2526328389
 30
0.0
 10
13.9827725009
 20
20.6157056611
 30
0.0
 10
13.9699878517
 20
20.9928629764
 30
0.0
 10
13.9195109474
 20
21.5195522764
 30
0.0
 10
13.7936920626
 20
22.1989443331
 30
0.0
 10
13.5524528688
 20
23.0206619618
 30
0.0
 10
13.3360157792
 20
23.5624058564
 30
0.0
 10
13.2140562878
 20
23.8321442986
 30
0.0
  0
SPLINE
  5
331
100
AcDbEntity
  8
0
100
AcDbSpline
 62
7
  6
BYLAYER
 70
0
 71
3
 72
14
 73
10
 74
0
 42
0.0000001
 43
0.0000001
 44
0.0000000001
 40
0.0
 40
0.0
 40
0.0
 40
0.0
 40
0.148572052
 40
0.2896192942
 40
0.5484479394
 40
0.6678463187
 40
0.7818411395
 40
0.8919405609
 40
1.0
 40
1.0
 40
1.0
 40
1.0
 10
8.038949437
 20
24.0401743731
 30
0.0
 10
8.038949437
 20
24.1052472964
 30
0.0
 10
8.0442339028
 20
24.232223255
 30
0.0
 10
8.0765460436
 20
24.4704073803
 30
0.0
 10
8.1417028877
 20
24.6909819239
 30
0.0
 10
8.2432652051
 20
24.8818550514
 30
0.0
 10
8.3328088475
 20
25.0034999857
 30
0.0
 10
8.436938445
 20
25.1059785727
 30
0.0
 10
8.5157480503
 20
25.1609632249
 30
0.0
 10
8.5567336914
 20
25.1846317012
 30
0.0
  0
SPLINE
  5
332
100
AcDbEntity
  8
0
100
AcDbSpline
 62
7
  6
BYLAYER
 70
0
 71
3
 72
34
 73
30
 74
0
 42
0.0000001
 43
0.0000001
 44
0.0000000001
 40
0.0
 40
0.0
 40
0.0
 40
0.0
 40
0.0213260486
 40
0.0428803654
 40
0.0648795453
 40
0.0875177897
 40
0.1109607199
 40
0.1353405563
 40
0.1607565244
 40
0.1872743638
 40
0.2149305214
 40
0.2437329001
 40
0.2736662698
 40
0.3046926517
 40
0.3367567717
 40
0.3697857754
 40
0.4036943258
 40
0.4383838915
 40
0.5096497104
 40
0.5826527703
 40
0.656362809
 40
0.7297184186
 40
0.8016738686
 40
0.8368255093
 40
0.8712655769
 40
0.9048885963
 40
0.9376077142
 40
0.9693415411
 40
1.0
 40
1.0
 40
1.0
 40
1.0
 10
18.3861506147
 20
16.0794880534
 30
0.0
 10
18.5126920553
 20
16.1525539632
 30
0.0
 10
18.7580036328
 20
16.3159499456
 30
0.0
 10
19.0946835993
 20
16.6079130705
 30
0.0
 10
19.3991318878
 20
16.9455527308
 30
0.0
 10
19.669646745
 20
17.3267883392
 30
0.0
 10
19.9048512707
 20
17.7494231789
 30
0.0
 10
20.1036105014
 20
18.2110576328
 30
0.0
 10
20.2649367186
 20
18.7091633222
 30
0.0
 10
20.3880992829
 20
19.2410331468
 30
0.0
 10
20.4724695784
 20
19.8038177718
 30
0.0
 10
20.5176981974
 20
20.3945026372
 30
0.0
 10
20.5235292338
 20
21.0099289687
 30
0.0
 10
20.4900111378
 20
21.6468065439
 30
0.0
 10
20.4172837204
 20
22.3017154526
 30
0.0
 10
20.3058065636
 20
22.9711469366
 30
0.0
 10
20.1561273563
 20
23.6515044229
 30
0.0
 10
19.9045250774
 20
24.5765285934
 30
0.0
 10
19.4989674972
 20
25.7356760982
 30
0.0
 10
18.8831293773
 20
27.0982954715
 30
0.0
 10
18.1467530377
 20
28.4162189622
 30
0.0
 10
17.3056441937
 20
29.6611534835
 30
0.0
 10
16.5262054181
 20
30.623365396
 30
0.0
 10
15.8648449651
 20
31.3331481934
 30
0.0
 10
15.3584586227
 20
31.8272319133
 30
0.0
 10
14.8405693023
 20
32.2844394446
 30
0.0
 10
14.3139409239
 20
32.7023935709
 30
0.0
 10
13.7814622212
 20
33.0786782619
 30
0.0
 10
13.4180996101
 20
33.3045010457
 30
0.0
 10
13.2361773603
 20
33.4095315295
 30
0.0
  0
LINE
  5
333
100
AcDbEntity
  8
0
100
AcDbLine
 62
7
  6
BYLAYER
 10
6.086222506
 20
30.6183426904
 11
8.1577415313
 21
32.5008597839
  0
SPLINE
  5
334
100
AcDbEntity
  8
0
100
AcDbSpline
 62
7
  6
BYLAYER
 70
0
 71
3
 72
13
 73
9
 74
0
 42
0.0000001
 43
0.0000001
 44
0.0000000001
 40
0.0
 40
0.0
 40
0.0
 40
0.0
 40
0.1129950481
 40
0.230203311
 40
0.3512439955
 40
0.4757602979
 40
0.7335756903
 40
1.0
 40
1.0
 40
1.0
 40
1.0
 10
11.8833633323
 20
29.4586967062
 30
0.0
 10
12.0045325664
 20
29.3887411989
 30
0.0
 10
12.2465009924
 20
29.2376126786
 30
0.0
 10
12.6003950235
 20
28.9843723366
 30
0.0
 10
12.9498528524
 20
28.7017497337
 30
0.0
 10
13.4122664514
 20
28.2834240474
 30
0.0
 10
13.9643532787
 20
27.6979161085
 30
0.0
 10
14.3629221635
 20
27.1841986245
 30
0.0
 10
14.5531018515
 20
26.9146408669
 30
0.0
  0
SPLINE
  5
335
100
AcDbEntity
  8
0
100
AcDbSpline
 62
7
  6
BYLAYER
 70
0
 71
3
 72
15
 73
11
 74
0
 42
0.0000001
 43
0.0000001
 44
0.0000000001
 40
0.0
 40
0.0
 40
0.0
 40
0.0
 40
0.1081691121
 40
0.2199277063
 40
0.3360701335
 40
0.4572755536
 40
0.5840552168
 40
0.7167306004
 40
0.8554346637
 40
1.0
 40
1.0
 40
1.0
 40
1.0
 10
9.213624813
 20
29.9973196329
 30
0.0
 10
9.3109735012
 20
30.0228941229
 30
0.0
 10
9.512541021
 20
30.0618384264
 30
0.0
 10
9.825226051
 20
30.0831325282
 30
0.0
 10
10.1503832754
 20
30.0679292862
 30
0.0
 10
10.4858638155
 20
30.0165535662
 30
0.0
 10
10.829686188
 20
29.9293605234
 30
0.0
 10
11.1798466588
 20
29.8069852231
 30
0.0
 10
11.5340963607
 20
29.6501725722
 30
0.0
 10
11.7668659067
 20
29.5259550046
 30
0.0
 10
11.8833633323
 20
29.4586967062
 30
0.0
  0
SPLINE
  5
336
100
AcDbEntity
  8
0
100
AcDbSpline
 62
7
  6
BYLAYER
 70
0
 71
3
 72
14
 73
10
 74
0
 42
0.0000001
 43
0.0000001
 44
0.0000000001
 40
0.0
 40
0.0
 40
0.0
 40
0.0
 40
0.2687616092
 40
0.4002888355
 40
0.5283227534
 40
0.6522343922
 40
0.7718220481
 40
0.8875273806
 40
1.0
 40
1.0
 40
1.0
 40
1.0
 10
9.2567697441
 20
30.5972976475
 30
0.0
 10
9.2857579868
 20
30.5470888171
 30
0.0
 10
9.3188111981
 20
30.4656471144
 30
0.0
 10
9.3377630318
 20
30.3529554294
 30
0.0
 10
9.3388756633
 20
30.2698751618
 30
0.0
 10
9.3268548872
 20
30.1902541743
 30
0.0
 10
9.3018322409
 20
30.1164446368
 30
0.0
 10
9.2644128749
 20
30.0508884121
 30
0.0
 10
9.2315606808
 20
30.0136584692
 30
0.0
 10
9.213624813
 20
29.9973196329
 30
0.0
  0
LINE
  5
337
100
AcDbEntity
  8
0
100
AcDbLine
 62
7
  6
BYLAYER
 10
17.1933058411
 20
16.8508902009
 11
14.5272291571
 21
15.9981714635
  0
SPLINE
  5
338
100
AcDbEntity
  8
0
100
AcDbSpline
 62
7
  6
BYLAYER
 70
0
 71
3
 72
9
 73
5
 74
0
 42
0.0000001
 43
0.0000001
 44
0.0000000001
 40
0.0
 40
0.0
 40
0.0
 40
0.0
 40
0.4860215575
 40
1.0
 40
1.0
 40
1.0
 40
1.0
 10
25.539854783
 20
14.1401618385
 30
0.0
 10
25.539854783
 20
14.2136508974
 30
0.0
 10
25.5310555265
 20
14.364931
 30
0.0
 10
25.5072470149
 20
14.5144970517
 30
0.0
 10
25.4916664238
 20
14.5906355231
 30
0.0
  0
SPLINE
  5
339
100
AcDbEntity
  8
0
100
AcDbSpline
 62
7
  6
BYLAYER
 70
0
 71
3
 72
8
 73
4
 74
0
 42
0.0000001
 43
0.0000001
 44
0.0000000001
 40
0.0
 40
0.0
 40
0.0
 40
0.0
 40
1.0
 40
1.0
 40
1.0
 40
1.0
 10
13.2140562878
 20
18.2726409661
 30
0.0
 10
13.9938012758
 20
18.520592237
 30
0.0
 10
14.7734794549
 20
18.7687536618
 30
0.0
 10
15.5531060149
 20
19.0170770514
 30
0.0
  0
SPLINE
  5
33A
100
AcDbEntity
  8
0
100
AcDbSpline
 62
7
  6
BYLAYER
 70
0
 71
3
 72
14
 73
10
 74
0
 42
0.0000001
 43
0.0000001
 44
0.0000000001
 40
0.0
 40
0.0
 40
0.0
 40
0.0
 40
0.1124734652
 40
0.2281797744
 40
0.347766013
 40
0.4716756437
 40
0.5997075186
 40
0.731233906
 40
1.0
 40
1.0
 40
1.0
 40
1.0
 10
15.5531060149
 20
19.0170770514
 30
0.0
 10
15.5762248602
 20
19.0244407693
 30
0.0
 10
15.6248954165
 20
19.034276105
 30
0.0
 10
15.7003813332
 20
19.0339038653
 30
0.0
 10
15.7768156089
 20
19.0186671553
 30
0.0
 10
15.8517809628
 20
18.9892650815
 30
0.0
 10
15.9231752488
 20
18.9467592043
 30
0.0
 10
16.0112963377
 20
18.8739968912
 30
0.0
 10
16.0652987414
 20
18.8046449631
 30
0.0
 10
16.0942885406
 20
18.7544334367
 30
0.0
  0
SPLINE
  5
33B
100
AcDbEntity
  8
0
100
AcDbSpline
 62
7
  6
BYLAYER
 70
0
 71
3
 72
21
 73
17
 74
0
 42
0.0000001
 43
0.0000001
 44
0.0000000001
 40
0.0
 40
0.0
 40
0.0
 40
0.0
 40
0.1521129124
 40
0.2993108948
 40
0.3704080888
 40
0.4395102126
 40
0.5064093586
 40
0.5709437901
 40
0.6329908563
 40
0.6924824154
 40
0.7494022903
 40
0.8038032002
 40
0.8558085129
 40
0.9056388659
 40
0.9535892891
 40
1.0
 40
1.0
 40
1.0
 40
1.0
 10
15.5531060149
 20
25.1825924631
 30
0.0
 10
15.6914619003
 20
24.8831130203
 30
0.0
 10
15.9370715889
 20
24.281081881
 30
0.0
 10
16.1681096394
 20
23.5101964221
 30
0.0
 10
16.2991717173
 20
22.9005641265
 30
0.0
 10
16.3692048921
 20
22.4566610956
 30
0.0
 10
16.4115938009
 20
22.0235531843
 30
0.0
 10
16.4261496447
 20
21.6038961013
 30
0.0
 10
16.4126883606
 20
21.2002399811
 30
0.0
 10
16.3713502857
 20
20.8150389334
 30
0.0
 10
16.3022522453
 20
20.4506490259
 30
0.0
 10
16.2058710502
 20
20.1092812466
 30
0.0
 10
16.0826268649
 20
19.7930411005
 30
0.0
 10
15.9332126785
 20
19.5038431889
 30
0.0
 10
15.7584341874
 20
19.2436944214
 30
0.0
 10
15.6239276106
 20
19.0885986717
 30
0.0
 10
15.5531060149
 20
19.0170770514
 30
0.0
  0
SPLINE
  5
33C
100
AcDbEntity
  8
0
100
AcDbSpline
 62
7
  6
BYLAYER
 70
0
 71
3
 72
23
 73
19
 74
0
 42
0.0000001
 43
0.0000001
 44
0.0000000001
 40
0.0
 40
0.0
 40
0.0
 40
0.0
 40
0.0610304344
 40
0.1257842713
 40
0.1935935871
 40
0.2637604292
 40
0.3354432963
 40
0.4077419166
 40
0.4797391612
 40
0.5505248194
 40
0.6192374195
 40
0.6850993038
 40
0.7474653025
 40
0.8058652757
 40
0.860060188
 40
0.9101179755
 40
0.956476884
 40
1.0
 40
1.0
 40
1.0
 40
1.0
 10
8.4278565474
 20
24.2647086577
 30
0.0
 10
8.4278565474
 20
24.1673939363
 30
0.0
 10
8.4402509787
 20
23.9667067697
 30
0.0
 10
8.4913785056
 20
23.6618082032
 30
0.0
 10
8.5747806079
 20
23.3490261898
 30
0.0
 10
8.6888074861
 20
23.0343478359
 30
0.0
 10
8.8312966173
 20
22.723621603
 30
0.0
 10
8.9995796671
 20
22.4227359705
 30
0.0
 10
9.1904877949
 20
22.1373869432
 30
0.0
 10
9.4003886452
 20
21.8729435685
 30
0.0
 10
9.6253328019
 20
21.6344009885
 30
0.0
 10
9.8611218323
 20
21.4262716827
 30
0.0
 10
10.1033423223
 20
21.2524336105
 30
0.0
 10
10.3475657047
 20
21.1161657636
 30
0.0
 10
10.5893998436
 20
21.0201224968
 30
0.0
 10
10.8245949833
 20
20.9663023248
 30
0.0
 10
11.0488264634
 20
20.9561724366
 30
0.0
 10
11.1915824508
 20
20.9799192128
 30
0.0
 10
11.2582156633
 20
20.9993153641
 30
0.0
  0
SPLINE
  5
33D
100
AcDbEntity
  8
0
100
AcDbSpline
 62
7
  6
BYLAYER
 70
0
 71
3
 72
15
 73
11
 74
0
 42
0.0000001
 43
0.0000001
 44
0.0000000001
 40
0.0
 40
0.0
 40
0.0
 40
0.0
 40
0.1484798913
 40
0.2894722135
 40
0.4227513737
 40
0.5486592227
 40
0.6679973172
 40
0.7819348841
 40
0.8919894967
 40
1.0
 40
1.0
 40
1.0
 40
1.0
 10
8.8521223825
 20
24.019764205
 30
0.0
 10
8.8521223825
 20
24.0692110539
 30
0.0
 10
8.8561369312
 20
24.1656761247
 30
0.0
 10
8.8750994072
 20
24.3054006761
 30
0.0
 10
8.9068254849
 20
24.4351211581
 30
0.0
 10
8.9510405567
 20
24.5535148162
 30
0.0
 10
9.0073984363
 20
24.6594546472
 30
0.0
 10
9.0754701725
 20
24.7518750727
 30
0.0
 10
9.1545841058
 20
24.8297849965
 30
0.0
 10
9.2144907958
 20
24.8715616089
 30
0.0
 10
9.2456416666
 20
24.8895461432
 30
0.0
  0
SPLINE
  5
33E
100
AcDbEntity
  8
0
100
AcDbSpline
 62
7
  6
BYLAYER
 70
0
 71
3
 72
10
 73
6
 74
0
 42
0.0000001
 43
0.0000001
 44
0.0000000001
 40
0.0
 40
0.0
 40
0.0
 40
0.0
 40
0.4712780231
 40
0.7284614802
 40
1.0
 40
1.0
 40
1.0
 40
1.0
 10
25.4276655645
 20
13.5675049461
 30
0.0
 10
25.4666330011
 20
13.6511363734
 30
0.0
 10
25.5085335403
 20
13.789365283
 30
0.0
 10
25.5354728351
 20
13.9833764736
 30
0.0
 10
25.539854783
 20
14.0870015499
 30
0.0
 10
25.539854783
 20
14.1401618385
 30
0.0
  0
SPLINE
  5
33F
100
AcDbEntity
  8
0
100
AcDbSpline
 62
7
  6
BYLAYER
 70
0
 71
3
 72
11
 73
7
 74
0
 42
0.0000001
 43
0.0000001
 44
0.0000000001
 40
0.0
 40
0.0
 40
0.0
 40
0.0
 40
0.2176736009
 40
0.4571025276
 40
0.7185616147
 40
1.0
 40
1.0
 40
1.0
 40
1.0
 10
9.855676023
 20
41.5186185594
 30
0.0
 10
9.9309061288
 20
41.5120154164
 30
0.0
 10
10.0874894123
 20
41.4795693354
 30
0.0
 10
10.319214593
 20
41.384807725
 30
0.0
 10
10.5526429294
 20
41.2445885818
 30
0.0
 10
10.7006737453
 20
41.1272757507
 30
0.0
 10
10.7737300598
 20
41.0624938522
 30
0.0
  0
SPLINE
  5
340
100
AcDbEntity
  8
0
100
AcDbSpline
 62
7
  6
BYLAYER
 70
0
 71
3
 72
11
 73
7
 74
0
 42
0.0000001
 43
0.0000001
 44
0.0000000001
 40
0.0
 40
0.0
 40
0.0
 40
0.0
 40
0.2678982007
 40
0.5210390816
 40
0.7633982937
 40
1.0
 40
1.0
 40
1.0
 40
1.0
 10
23.0251689419
 20
16.0395467525
 30
0.0
 10
23.039148626
 20
16.0773045527
 30
0.0
 10
23.0713961766
 20
16.1490380113
 30
0.0
 10
23.1347784157
 20
16.2453083693
 30
0.0
 10
23.2108721981
 20
16.3256076704
 30
0.0
 10
23.2698493631
 20
16.3677984662
 30
0.0
 10
23.300644627
 20
16.3855776957
 30
0.0
  0
ENDSEC
  0
SECTION
  2
OBJECTS
  0
DICTIONARY
  5
C
100
AcDbDictionary
280
0
281
1
  3
ACAD_GROUP
350
D
  3
ACAD_MLINESTYLE
350
17
  3
ACAD_LAYOUT
350
1A
  3
ACAD_PLOTSETTINGS
350
19
  3
ACAD_PLOTSTYLENAME
350
E
  0
DICTIONARY
  5
D
102
{ACAD_REACTORS
330
C
102
}
100
AcDbDictionary
280
0
281
1
  0
ACDBDICTIONARYWDFLT
  5
E
102
{ACAD_REACTORS
330
C
102
}
100
AcDbDictionary
281
1
  3
Normal
350
F
100
AcDbDictionaryWithDefault
340
F
  0
DICTIONARY
  5
17
102
{ACAD_REACTORS
330
C
102
}
100
AcDbDictionary
280
0
281
1
  3
Standard
350
18
  0
DICTIONARY
  5
19
102
{ACAD_REACTORS
330
C
102
}
100
AcDbDictionary
281
1
  0
DICTIONARY
  5
1A
102
{ACAD_REACTORS
330
C
102
}
100
AcDbDictionary
281
1
  3
Model
350
341
  3
Layout1
350
342
  0
ACDBPLACEHOLDER
  5
F
102
{ACAD_REACTORS
330
E
102
}
  0
MLINESTYLE
  5
18
102
{ACAD_REACTORS
330
17
102
}
100
AcDbMlineStyle
  2
STANDARD
 70
0
  3

 62
256
 51
90.0
 52
90.0
 71
2
 49
0.5
 62
256
  6
BYLAYER
 49
-0.5
 62
256
  6
BYLAYER
  0
LAYOUT
  5
341
102
{ACAD_REACTORS
330
1A
102
}
100
AcDbPlotSettings
  1

  2
none_device
  4

  6

 40
0.0
 41
0.0
 42
0.0
 43
0.0
 44
210.0
 45
297.0
 46
0.0
 47
0.0
 48
0.0
 49
0.0
140
0.0
141
0.0
142
1.0
143
1.0
 70
1024
 72
1
 73
0
 74
0
  7

 75
0
147
1.0
148
0.0
149
0.0
100
AcDbLayout
  1
Model
 70
0
 71
0
 10
0.0
 20
0.0
 11
210.0
 21
297.0
 12
0.0
 22
0.0
 32
0.0
 14
0.0
 24
0.0
 34
0.0
 15
0.0
 25
0.0
 35
0.0
146
0.0
 13
0.0
 23
0.0
 33
0.0
 16
1.0
 26
0.0
 36
0.0
 17
0.0
 27
1.0
 37
0.0
 76
0
330
210
345
0
346
0
  0
LAYOUT
  5
342
102
{ACAD_REACTORS
330
1A
102
}
100
AcDbPlotSettings
  1

  2
none_device
  4

  6

 40
0.0
 41
0.0
 42
0.0
 43
0.0
 44
210.0
 45
297.0
 46
0.0
 47
0.0
 48
0.0
 49
0.0
140
0.0
141
0.0
142
1.0
143
1.0
 70
0
 72
1
 73
0
 74
0
  7

 75
0
147
1.0
148
0.0
149
0.0
100
AcDbLayout
  1
Layout1
 70
0
 71
1
 10
0.0
 20
0.0
 11
210.0
 21
297.0
 12
0.0
 22
0.0
 32
0.0
 14
0.0
 24
0.0
 34
0.0
 15
0.0
 25
0.0
 35
0.0
146
0.0
 13
0.0
 23
0.0
 33
0.0
 16
1.0
 26
0.0
 36
0.0
 17
0.0
 27
1.0
 37
0.0
 76
0
330
211
345
0
346
0
  0
ENDSEC
  0
EOF
