999
DXF file: C:\Users\sesa63760\Dev\_Creo\CAD\MCADID0004749_3D-CAD\drw0001_1.dxf
999
Pro/ENGINEER 2019471 by Parametric Technology Corporation
  0
SECTION
  2
HEADER
  9
$ACADVER
  1
AC1024
  9
$DWGCODEPAGE
  3
ANSI_1252
  9
$EXTMAX
 10
29.9231687844
 20
42.3199101379
 30
0.0
  9
$EXTMIN
 10
0.0
 20
0.0
 30
0.0
  9
$LIMMIN
 10
0.0
 20
0.0
  9
$LIMMAX
 10
29.9231687844
 20
42.3199101379
  9
$VIEWCTR
 10
14.9615843922
 20
21.1599550689
  9
$VIEWSIZE
 40
42.3199101379
  9
$CLAYER
  8
0
  9
$LTSCALE
 40
2.7586311794
  9
$CELTYPE
  6
BYLAYER
  9
$DIMSCALE
 40
1.0
  9
$DIMASZ
 40
0.3562281998
  9
$DIMEXO
 40
1.0
  9
$DIMDLI
 40
1.9059633603
  9
$DIMEXE
 40
1.0
  9
$DIMCEN
 40
0.4514123748
  9
$DIMLFAC
 40
1.0
  9
$DIMBLK
  1
_FILLED
  9
$DIMALT
 70
0
  9
$DIMALTF
 40
0.0393700787
  9
$DIMTXT
 40
0.4987194797
  9
$DIMTOL
 70
1
  9
$DIMLIM
 70
0
  9
$DIMTFAC
 40
1.0
  9
$DIMTP
 40
0.01
  9
$DIMTM
 40
0.01
  9
$DIMGAP
 40
0.625
  9
$DIMDSEP
 70
46
  9
$AUNITS
 70
0
  9
$PDMODE
 70
3
  9
$PDSIZE
 40
0.3125
  9
$HANDSEED
  5
304
  9
$TILEMODE
 70
1
  9
$MEASUREMENT
 70
1
  9
$INSUNITS
 70
4
  0
ENDSEC
  0
SECTION
  2
CLASSES
  0
CLASS
  1
ACDBDICTIONARYWDFLT
  2
AcDbDictionaryWithDefault
  3
AutoCAD 2000
 90
0
 91
1
280
0
281
0
  0
CLASS
  1
ACDBPLACEHOLDER
  2
AcDbPlaceHolder
  3
AutoCAD 2000
 90
0
 91
1
280
0
281
0
  0
CLASS
  1
LAYOUT
  2
AcDbLayout
  3
AutoCAD 2000
 90
0
 91
0
280
0
281
0
  0
ENDSEC
  0
SECTION
  2
TABLES
  0
TABLE
  2
VPORT
  5
8
100
AcDbSymbolTable
 70
2
  0
VPORT
  5
1F4
100
AcDbSymbolTableRecord
100
AcDbViewportTableRecord
  2
*ACTIVE
 70
0
 10
0.0
 20
0.0
 11
1.0
 21
1.0
 12
14.9615843922
 22
21.1599550689
 13
0.0
 23
0.0
 14
1.0
 24
1.0
 15
0.0
 25
0.0
 16
0.0
 26
0.0
 36
1.0
 17
0.0
 27
0.0
 37
0.0
 40
42.3199101379
 41
0.7070707071
 42
50.0
 43
0.0
 44
0.0
 50
0.0
 51
0.0
 71
0
 72
100
 73
1
 74
1
 75
0
 76
0
 77
0
 78
0
  0
ENDTAB
  0
TABLE
  2
LTYPE
  5
5
100
AcDbSymbolTable
 70
6
  0
LTYPE
  5
14
100
AcDbSymbolTableRecord
100
AcDbLinetypeTableRecord
  2
BYBLOCK
 70
0
  3

 72
65
 73
0
 40
0.0
  0
LTYPE
  5
15
100
AcDbSymbolTableRecord
100
AcDbLinetypeTableRecord
  2
BYLAYER
 70
0
  3

 72
65
 73
0
 40
0.0
  0
LTYPE
  5
16
100
AcDbSymbolTableRecord
100
AcDbLinetypeTableRecord
  2
CONTINUOUS
 70
64
  3
Solid line
 72
65
 73
0
 40
0.0
  0
LTYPE
  5
1F5
100
AcDbSymbolTableRecord
100
AcDbLinetypeTableRecord
  2
CENTER
 70
64
  3
____ _ ____ _ ____ _ ____ _ ____ _ ____ _ ____
 72
65
 73
4
 40
0.6
 49
0.375
 74
0
 49
-0.075
 74
0
 49
0.075
 74
0
 49
-0.075
 74
0
  0
LTYPE
  5
1F6
100
AcDbSymbolTableRecord
100
AcDbLinetypeTableRecord
  2
HIDDEN
 70
64
  3
- - - - - - - - - - - - - - - - - - - -
 72
65
 73
2
 40
0.2
 49
0.1
 74
0
 49
-0.1
 74
0
  0
LTYPE
  5
1F7
100
AcDbSymbolTableRecord
100
AcDbLinetypeTableRecord
  2
PHANTOM
 70
64
  3
_____ _ _ _____ _ _ _____ _ _ _____
 72
65
 73
6
 40
0.8
 49
0.45
 74
0
 49
-0.05
 74
0
 49
0.1
 74
0
 49
-0.05
 74
0
 49
0.1
 74
0
 49
-0.05
 74
0
  0
LTYPE
  5
1F8
100
AcDbSymbolTableRecord
100
AcDbLinetypeTableRecord
  2
DOT
 70
64
  3
. . . . . . . . . . . . . . . . . . . .
 72
65
 73
2
 40
0.2
 49
0.1
 74
0
 49
-0.1
 74
0
  0
LTYPE
  5
1F9
100
AcDbSymbolTableRecord
100
AcDbLinetypeTableRecord
  2
DASHED
 70
64
  3
- - - - - - - - - - - - - - - - - - - -
 72
65
 73
2
 40
0.2
 49
0.1
 74
0
 49
-0.1
 74
0
  0
ENDTAB
  0
TABLE
  2
LAYER
  5
2
100
AcDbSymbolTable
 70
36
  0
LAYER
  5
10
100
AcDbSymbolTableRecord
100
AcDbLayerTableRecord
  2
0
 70
0
 62
7
  6
CONTINUOUS
370
-3
390
F
  0
LAYER
  5
1FA
100
AcDbSymbolTableRecord
100
AcDbLayerTableRecord
  2
DEFAULT_1
 70
0
 62
7
  6
CENTER
370
-3
390
F
  0
LAYER
  5
1FB
100
AcDbSymbolTableRecord
100
AcDbLayerTableRecord
  2
DEFAULT_2
 70
0
 62
7
  6
HIDDEN
370
-3
390
F
  0
LAYER
  5
1FC
100
AcDbSymbolTableRecord
100
AcDbLayerTableRecord
  2
DEFAULT_3
 70
0
 62
7
  6
PHANTOM
370
-3
390
F
  0
LAYER
  5
1FD
100
AcDbSymbolTableRecord
100
AcDbLayerTableRecord
  2
00_COMPONENTS
 70
0
 62
7
  6
CONTINUOUS
370
-3
390
F
  0
LAYER
  5
1FE
100
AcDbSymbolTableRecord
100
AcDbLayerTableRecord
  2
01_1_DEFAULT_DATUMS
 70
0
 62
7
  6
CONTINUOUS
370
-3
390
F
  0
LAYER
  5
1FF
100
AcDbSymbolTableRecord
100
AcDbLayerTableRecord
  2
01_PLANES
 70
0
 62
7
  6
CONTINUOUS
370
-3
390
F
  0
LAYER
  5
200
100
AcDbSymbolTableRecord
100
AcDbLayerTableRecord
  2
02_COORD_SYS
 70
0
 62
7
  6
CONTINUOUS
370
-3
390
F
  0
LAYER
  5
201
100
AcDbSymbolTableRecord
100
AcDbLayerTableRecord
  2
03_AXES
 70
0
 62
7
  6
CONTINUOUS
370
-3
390
F
  0
LAYER
  5
202
100
AcDbSymbolTableRecord
100
AcDbLayerTableRecord
  2
04_POINTS
 70
0
 62
7
  6
CONTINUOUS
370
-3
390
F
  0
LAYER
  5
203
100
AcDbSymbolTableRecord
100
AcDbLayerTableRecord
  2
05_CURVES
 70
0
 62
7
  6
CONTINUOUS
370
-3
390
F
  0
LAYER
  5
204
100
AcDbSymbolTableRecord
100
AcDbLayerTableRecord
  2
06_SURFS
 70
0
 62
7
  6
CONTINUOUS
370
-3
390
F
  0
LAYER
  5
205
100
AcDbSymbolTableRecord
100
AcDbLayerTableRecord
  2
07_COSMETICS
 70
0
 62
7
  6
CONTINUOUS
370
-3
390
F
  0
LAYER
  5
206
100
AcDbSymbolTableRecord
100
AcDbLayerTableRecord
  2
10_NOTES
 70
0
 62
7
  6
CONTINUOUS
370
-3
390
F
  0
LAYER
  5
207
100
AcDbSymbolTableRecord
100
AcDbLayerTableRecord
  2
11_NOTES_PUB
 70
0
 62
7
  6
CONTINUOUS
370
-3
390
F
  0
LAYER
  5
208
100
AcDbSymbolTableRecord
100
AcDbLayerTableRecord
  2
13_REF_GTOL
 70
0
 62
7
  6
CONTINUOUS
370
-3
390
F
  0
LAYER
  5
209
100
AcDbSymbolTableRecord
100
AcDbLayerTableRecord
  2
16_MISC
 70
0
 62
7
  6
CONTINUOUS
370
-3
390
F
  0
LAYER
  5
20A
100
AcDbSymbolTableRecord
100
AcDbLayerTableRecord
  2
17_NO_PRINT
 70
0
 62
7
  6
CONTINUOUS
370
-3
390
F
  0
LAYER
  5
20B
100
AcDbSymbolTableRecord
100
AcDbLayerTableRecord
  2
18_DATUM_CAMS_JOINTS
 70
0
 62
7
  6
CONTINUOUS
370
-3
390
F
  0
LAYER
  5
20C
100
AcDbSymbolTableRecord
100
AcDbLayerTableRecord
  2
19_DATUM_FUNCTIONAL
 70
0
 62
7
  6
CONTINUOUS
370
-3
390
F
  0
LAYER
  5
20D
100
AcDbSymbolTableRecord
100
AcDbLayerTableRecord
  2
20_DATUM_KINEMATIC_SCHEME
 70
0
 62
7
  6
CONTINUOUS
370
-3
390
F
  0
ENDTAB
  0
TABLE
  2
STYLE
  5
3
100
AcDbSymbolTable
 70
1
  0
STYLE
  5
11
100
AcDbSymbolTableRecord
100
AcDbTextStyleTableRecord
  2
STANDARD
 70
0
 40
0.0
 41
1.0
 50
0.0
 71
0
 42
0.2
  3
ARIAL.TTF
  4

  0
STYLE
  5
20E
100
AcDbSymbolTableRecord
100
AcDbTextStyleTableRecord
  2
TEXTSTYLE_1
 70
0
 40
0.0
 41
0.8
 50
0.0
 71
0
 42
0.2
  3
gdt
  4

  0
ENDTAB
  0
TABLE
  2
VIEW
  5
6
100
AcDbSymbolTable
 70
0
  0
ENDTAB
  0
TABLE
  2
UCS
  5
7
100
AcDbSymbolTable
 70
0
  0
ENDTAB
  0
TABLE
  2
APPID
  5
9
100
AcDbSymbolTable
 70
1
  0
APPID
  5
20F
100
AcDbSymbolTableRecord
100
AcDbRegAppTableRecord
  2
ACAD
 70
0
  0
ENDTAB
  0
TABLE
  2
BLOCK_RECORD
  5
1
100
AcDbSymbolTable
 70
0
  0
BLOCK_RECORD
  5
210
100
AcDbSymbolTableRecord
100
AcDbBlockTableRecord
  2
*Model_Space
  0
BLOCK_RECORD
  5
211
100
AcDbSymbolTableRecord
100
AcDbBlockTableRecord
  2
*Paper_Space
  0
BLOCK_RECORD
  5
212
100
AcDbSymbolTableRecord
100
AcDbBlockTableRecord
  2
_FILLED
  0
ENDTAB
  0
TABLE
  2
DIMSTYLE
  5
A
100
AcDbSymbolTable
 70
1
100
AcDbDimStyleTable
 71
0
  0
DIMSTYLE
105
213
100
AcDbSymbolTableRecord
100
AcDbDimStyleTableRecord
  2
STANDARD
 70
0
  3

  4

 40
1.0
 41
0.3562281998
 42
1.0
 43
0.38
 44
1.0
 45
0.0
 46
0.0
 47
0.01
 48
0.01
140
0.4987194797
141
0.09
142
0.0
143
25.4
144
1.0
145
0.0
146
1.0
147
0.625
 71
1
 72
0
 73
0
 74
0
 75
0
 76
0
 77
1
 78
8
 79
2
170
0
171
1
172
0
173
0
174
0
175
0
176
0
177
0
178
0
270
2
179
2
271
2
272
2
273
2
274
2
275
0
280
0
281
0
282
0
283
1
284
8
285
0
286
0
287
3
288
0
340
11
278
46
341
212
342
212
343
212
344
212
  0
ENDTAB
  0
ENDSEC
  0
SECTION
  2
BLOCKS
  0
BLOCK
  5
20
100
AcDbEntity
  8
0
100
AcDbBlockBegin
  2
*Model_Space
 70
0
 10
0.0
 20
0.0
 30
0.0
  3
*Model_Space
  1

  0
ENDBLK
  5
21
100
AcDbEntity
  8
0
100
AcDbBlockEnd
  0
BLOCK
  5
1C
100
AcDbEntity
  8
0
100
AcDbBlockBegin
  2
*Paper_Space
 70
0
 10
0.0
 20
0.0
 30
0.0
  3
*Paper_Space
  1

  0
ENDBLK
  5
1D
100
AcDbEntity
  8
0
100
AcDbBlockEnd
  0
BLOCK
  5
214
100
AcDbEntity
  8
0
100
AcDbBlockBegin
  2
_FILLED
 70
64
 10
0.0
 20
0.0
  3
_FILLED
  1

  0
SOLID
  5
215
100
AcDbEntity
  8
0
  6
BYBLOCK
 62
0
100
AcDbTrace
 10
0.0
 20
0.0
 11
-1.0
 21
0.25
 12
-1.0
 22
-0.25
 13
-1.0
 23
-0.25
  0
ENDBLK
  5
216
100
AcDbEntity
  8
0
  6
BYBLOCK
 62
0
100
AcDbBlockEnd
  0
ENDSEC
  0
SECTION
  2
ENTITIES
  0
LINE
  5
217
100
AcDbEntity
  8
0
100
AcDbLine
 62
7
  6
BYLAYER
 10
11.2510043228
 20
37.6885421264
 11
13.3369606425
 21
38.8928623803
  0
LINE
  5
218
100
AcDbEntity
  8
0
100
AcDbLine
 62
7
  6
BYLAYER
 10
17.6932692033
 20
5.7054685825
 11
16.0960371959
 21
5.410490518
  0
LINE
  5
219
100
AcDbEntity
  8
0
100
AcDbLine
 62
7
  6
BYLAYER
 10
16.0960371959
 20
5.410490518
 11
14.2560991161
 21
5.4137527018
  0
LINE
  5
21A
100
AcDbEntity
  8
0
100
AcDbLine
 62
7
  6
BYLAYER
 10
14.2560991161
 20
5.4137527018
 11
12.9832272786
 21
5.6535091146
  0
LINE
  5
21B
100
AcDbEntity
  8
0
100
AcDbLine
 62
7
  6
BYLAYER
 10
11.9030293685
 20
35.5604382252
 11
12.1887634717
 21
35.7254059019
  0
LINE
  5
21C
100
AcDbEntity
  8
0
100
AcDbLine
 62
7
  6
BYLAYER
 10
12.1354145796
 20
8.1015313372
 11
11.3064216314
 21
8.4509952881
  0
LWPOLYLINE
  5
21D
100
AcDbEntity
  8
0
100
AcDbPolyline
 62
7
  6
BYLAYER
 90
3
 70
0
 10
9.563140273
 20
9.0773700025
 10
10.1099018535
 20
8.4990000913
 10
10.7038601334
 20
8.1031877171
  0
LINE
  5
21E
100
AcDbEntity
  8
0
100
AcDbLine
 62
7
  6
BYLAYER
 10
15.4385955329
 20
33.5192445785
 11
15.7243120975
 21
33.6842021293
  0
LINE
  5
21F
100
AcDbEntity
  8
0
100
AcDbLine
 62
7
  6
BYLAYER
 10
10.1300420691
 20
9.1697070462
 11
9.5873351863
 21
9.1002426464
  0
LINE
  5
220
100
AcDbEntity
  8
0
100
AcDbLine
 62
7
  6
BYLAYER
 10
9.1280855284
 20
10.0156675198
 11
8.5727304505
 21
10.0296651826
  0
LINE
  5
221
100
AcDbEntity
  8
0
100
AcDbLine
 62
7
  6
BYLAYER
 10
13.6993884137
 20
31.5821520034
 11
13.9886756617
 21
31.749171077
  0
LWPOLYLINE
  5
222
100
AcDbEntity
  8
0
100
AcDbPolyline
 62
7
  6
BYLAYER
 90
12
 70
0
 10
9.8906907206
 20
12.8021672405
 10
11.600691546
 20
12.0632481496
 10
13.5987159785
 20
11.6330170703
 10
15.7290090678
 20
11.5449671311
 10
17.813481333
 20
11.8066309223
 10
19.6864393292
 20
12.3966928958
 10
21.1965022938
 20
13.2679141536
 10
22.2197548117
 20
14.3487328238
 10
22.6743949533
 20
15.5513830678
 10
22.524245648
 20
16.7799595563
 10
21.7796550465
 20
17.935903239
 10
21.281229174
 20
18.3206523662
  0
LINE
  5
223
100
AcDbEntity
  8
0
100
AcDbLine
 62
7
  6
BYLAYER
 10
9.0166605916
 20
10.0184759729
 11
9.2207706147
 21
9.476416107
  0
LINE
  5
224
100
AcDbEntity
  8
0
100
AcDbLine
 62
7
  6
BYLAYER
 10
8.3181250744
 20
10.2103530189
 11
8.303970039
 21
10.2530367505
  0
LINE
  5
225
100
AcDbEntity
  8
0
100
AcDbLine
 62
7
  6
BYLAYER
 10
7.1939694997
 20
15.455747186
 11
7.1939694997
 21
13.5124714332
  0
LWPOLYLINE
  5
226
100
AcDbEntity
  8
0
100
AcDbPolyline
 62
7
  6
BYLAYER
 90
7
 70
0
 10
11.057412052
 20
14.0881469073
 10
12.4604695577
 20
13.4903124022
 10
14.1064105291
 20
13.1578026815
 10
15.8489858876
 20
13.1201626931
 10
17.5333601656
 20
13.380736915
 10
19.0098693167
 20
13.9163721842
 10
19.6281199671
 20
14.273317233
  0
LINE
  5
227
100
AcDbEntity
  8
0
100
AcDbLine
 62
7
  6
BYLAYER
 10
10.0219058285
 20
14.8981859774
 11
11.057412052
 21
14.0881469073
  0
LINE
  5
228
100
AcDbEntity
  8
0
100
AcDbLine
 62
7
  6
BYLAYER
 10
9.9914839679
 20
14.9483798159
 11
10.0219058285
 21
14.8981859774
  0
LINE
  5
229
100
AcDbEntity
  8
0
100
AcDbLine
 62
7
  6
BYLAYER
 10
8.3039587076
 20
11.2580362405
 11
8.3039587076
 21
10.2530367571
  0
LINE
  5
22A
100
AcDbEntity
  8
0
100
AcDbLine
 62
7
  6
BYLAYER
 10
8.3181250765
 20
11.2430662466
 11
8.3181250765
 21
10.2103530158
  0
LINE
  5
22B
100
AcDbEntity
  8
0
100
AcDbLine
 62
7
  6
BYLAYER
 10
8.397772496
 20
11.1589006154
 11
8.397772496
 21
10.0993396056
  0
LINE
  5
22C
100
AcDbEntity
  8
0
100
AcDbLine
 62
7
  6
BYLAYER
 10
8.5727304505
 20
10.0296651826
 11
8.5727304505
 21
10.9740177056
  0
LINE
  5
22D
100
AcDbEntity
  8
0
100
AcDbLine
 62
7
  6
BYLAYER
 10
12.3895972198
 20
32.7672190811
 11
12.5198884734
 21
33.0858733809
  0
LINE
  5
22E
100
AcDbEntity
  8
0
100
AcDbLine
 62
7
  6
BYLAYER
 10
11.6939694997
 20
27.5970620624
 11
9.4150870928
 21
25.1355550605
  0
LINE
  5
22F
100
AcDbEntity
  8
0
100
AcDbLine
 62
7
  6
BYLAYER
 10
11.057412052
 20
15.3945507747
 11
11.5109635525
 21
15.1326852068
  0
LINE
  5
230
100
AcDbEntity
  8
0
100
AcDbLine
 62
7
  6
BYLAYER
 10
11.4686557138
 20
15.0785651554
 11
11.0600808505
 21
15.3979646932
  0
LINE
  5
231
100
AcDbEntity
  8
0
100
AcDbLine
 62
7
  6
BYLAYER
 10
11.0736694182
 20
15.4153478164
 11
11.4822501831
 21
15.0959539717
  0
LWPOLYLINE
  5
232
100
AcDbEntity
  8
0
100
AcDbPolyline
 62
7
  6
BYLAYER
 90
3
 70
0
 10
10.3975197612
 20
15.9107606491
 10
10.5905524412
 20
15.5932481982
 10
11.5109635525
 20
14.8737255109
  0
LINE
  5
233
100
AcDbEntity
  8
0
100
AcDbLine
 62
7
  6
BYLAYER
 10
8.8439694997
 20
7.1437525796
 11
8.8439694997
 21
8.3685062053
  0
LINE
  5
234
100
AcDbEntity
  8
0
100
AcDbLine
 62
7
  6
BYLAYER
 10
8.8439694997
 20
9.7565603145
 11
8.8439694997
 21
10.0228286326
  0
LINE
  5
235
100
AcDbEntity
  8
0
100
AcDbLine
 62
7
  6
BYLAYER
 10
9.1280855284
 20
10.5491045009
 11
9.1280855284
 21
10.0156675198
  0
LINE
  5
236
100
AcDbEntity
  8
0
100
AcDbLine
 62
7
  6
BYLAYER
 10
9.2207706147
 20
10.4956187006
 11
9.2207706147
 21
9.3057266563
  0
LINE
  5
237
100
AcDbEntity
  8
0
100
AcDbLine
 62
7
  6
BYLAYER
 10
9.2604039824
 20
10.4727474657
 11
9.2604039824
 21
9.236728746
  0
LINE
  5
238
100
AcDbEntity
  8
0
100
AcDbLine
 62
7
  6
BYLAYER
 10
9.3439694997
 20
17.7827790748
 11
9.3439694997
 21
18.515424735
  0
LINE
  5
239
100
AcDbEntity
  8
0
100
AcDbLine
 62
7
  6
BYLAYER
 10
9.3871041437
 20
10.3996325797
 11
9.3871041437
 21
9.1413995096
  0
LINE
  5
23A
100
AcDbEntity
  8
0
100
AcDbLine
 62
7
  6
BYLAYER
 10
9.5873351863
 20
9.1002426464
 11
9.5873351863
 21
10.2840852142
  0
LINE
  5
23B
100
AcDbEntity
  8
0
100
AcDbLine
 62
7
  6
BYLAYER
 10
10.1300420691
 20
9.970905251
 11
10.1300420691
 21
9.1697070462
  0
LWPOLYLINE
  5
23C
100
AcDbEntity
  8
0
100
AcDbPolyline
 62
7
  6
BYLAYER
 90
5
 70
0
 10
11.057412052
 20
16.3743536752
 10
12.4604695577
 20
15.7765191702
 10
14.1064105291
 20
15.4440094495
 10
15.8489858876
 20
15.406369461
 10
17.5333601656
 20
15.666943683
  0
LINE
  5
23D
100
AcDbEntity
  8
0
100
AcDbLine
 62
7
  6
BYLAYER
 10
9.4062905818
 20
18.2709005043
 11
8.492424283
 21
21.8565643929
  0
LINE
  5
23E
100
AcDbEntity
  8
0
100
AcDbLine
 62
7
  6
BYLAYER
 10
12.1455956203
 20
7.9669171807
 11
12.1213459862
 21
8.2875468841
  0
LINE
  5
23F
100
AcDbEntity
  8
0
100
AcDbLine
 62
7
  6
BYLAYER
 10
10.3188562801
 20
9.1361839695
 11
10.3188562801
 21
9.8619461986
  0
LINE
  5
240
100
AcDbEntity
  8
0
100
AcDbLine
 62
7
  6
BYLAYER
 10
10.5310164852
 20
9.7734074317
 11
10.5310164852
 21
8.5276919174
  0
LINE
  5
241
100
AcDbEntity
  8
0
100
AcDbLine
 62
7
  6
BYLAYER
 10
10.6070455726
 20
9.749456621
 11
10.6070455726
 21
8.4370819316
  0
LINE
  5
242
100
AcDbEntity
  8
0
100
AcDbLine
 62
7
  6
BYLAYER
 10
10.7721640691
 20
9.6974407152
 11
10.7721640691
 21
8.363933399
  0
LINE
  5
243
100
AcDbEntity
  8
0
100
AcDbLine
 62
7
  6
BYLAYER
 10
10.9840227852
 20
8.3540988677
 11
10.9840227852
 21
9.6307006268
  0
LINE
  5
244
100
AcDbEntity
  8
0
100
AcDbLine
 62
7
  6
BYLAYER
 10
9.3439694997
 20
18.7581242426
 11
9.3458266912
 21
18.7615854584
  0
LINE
  5
245
100
AcDbEntity
  8
0
100
AcDbLine
 62
7
  6
BYLAYER
 10
17.0509783569
 20
27.6426324511
 11
19.1369346766
 21
28.846952705
  0
LINE
  5
246
100
AcDbEntity
  8
0
100
AcDbLine
 62
7
  6
BYLAYER
 10
16.0778640161
 20
26.6786078629
 11
17.8456236091
 21
27.6992182476
  0
LINE
  5
247
100
AcDbEntity
  8
0
100
AcDbLine
 62
7
  6
BYLAYER
 10
11.4770968957
 20
9.475371593
 11
11.4770968957
 21
8.5022914461
  0
LINE
  5
248
100
AcDbEntity
  8
0
100
AcDbLine
 62
7
  6
BYLAYER
 10
11.6745056736
 20
8.4981245822
 11
11.6745056736
 21
9.4131835484
  0
LINE
  5
249
100
AcDbEntity
  8
0
100
AcDbLine
 62
7
  6
BYLAYER
 10
11.6939694997
 20
35.2559308014
 11
11.6939694997
 21
27.3766824761
  0
LINE
  5
24A
100
AcDbEntity
  8
0
100
AcDbLine
 62
7
  6
BYLAYER
 10
12.0163898167
 20
9.3054826319
 11
12.0163898167
 21
8.384165926
  0
LINE
  5
24B
100
AcDbEntity
  8
0
100
AcDbLine
 62
7
  6
BYLAYER
 10
12.1213459862
 20
8.2875468841
 11
12.1213459862
 21
9.2724191632
  0
LINE
  5
24C
100
AcDbEntity
  8
0
100
AcDbLine
 62
7
  6
BYLAYER
 10
12.1455956203
 20
9.2647800028
 11
12.1455956203
 21
7.9669171807
  0
LINE
  5
24D
100
AcDbEntity
  8
0
100
AcDbLine
 62
7
  6
BYLAYER
 10
12.2662784482
 20
9.2267622958
 11
12.2662784482
 21
7.8659071814
  0
LINE
  5
24E
100
AcDbEntity
  8
0
100
AcDbLine
 62
7
  6
BYLAYER
 10
12.4585627272
 20
9.1771702372
 11
12.4585627272
 21
7.8199243042
  0
LINE
  5
24F
100
AcDbEntity
  8
0
100
AcDbLine
 62
7
  6
BYLAYER
 10
12.6676112954
 20
7.842082312
 11
12.6676112954
 21
9.1509381353
  0
LINE
  5
250
100
AcDbEntity
  8
0
100
AcDbLine
 62
7
  6
BYLAYER
 10
11.6941515905
 20
35.2765428202
 11
11.6939694997
 21
35.2559308014
  0
LINE
  5
251
100
AcDbEntity
  8
0
100
AcDbLine
 62
7
  6
BYLAYER
 10
9.3197683863
 20
18.766474576
 11
9.3221577935
 21
18.7697689405
  0
LINE
  5
252
100
AcDbEntity
  8
0
100
AcDbLine
 62
7
  6
BYLAYER
 10
18.6937874089
 20
27.3560704573
 11
15.2297002162
 21
25.3560907223
  0
LINE
  5
253
100
AcDbEntity
  8
0
100
AcDbLine
 62
7
  6
BYLAYER
 10
13.0774504478
 20
9.0995101707
 11
13.0774504478
 21
8.0589039897
  0
LINE
  5
254
100
AcDbEntity
  8
0
100
AcDbLine
 62
7
  6
BYLAYER
 10
13.2699628975
 20
8.0843838657
 11
13.2699628975
 21
9.0753530754
  0
LINE
  5
255
100
AcDbEntity
  8
0
100
AcDbLine
 62
7
  6
BYLAYER
 10
15.2297002162
 20
25.3560907223
 11
15.2297002162
 21
33.2353252774
  0
LINE
  5
256
100
AcDbEntity
  8
0
100
AcDbLine
 62
7
  6
BYLAYER
 10
15.7243120975
 20
33.6842021293
 11
15.7243120975
 21
26.8827369946
  0
LINE
  5
257
100
AcDbEntity
  8
0
100
AcDbLine
 62
7
  6
BYLAYER
 10
20.9011015644
 20
17.171740835
 11
20.8999684048
 21
17.1736104652
  0
LINE
  5
258
100
AcDbEntity
  8
0
100
AcDbLine
 62
7
  6
BYLAYER
 10
18.6937874089
 20
28.5911030379
 11
18.6937874089
 21
27.3560704573
  0
LINE
  5
259
100
AcDbEntity
  8
0
100
AcDbLine
 62
7
  6
BYLAYER
 10
20.9178923526
 20
17.1737868631
 11
20.9171865931
 21
17.1757146352
  0
LINE
  5
25A
100
AcDbEntity
  8
0
100
AcDbLine
 62
7
  6
BYLAYER
 10
16.0778640161
 20
26.6786078629
 11
15.7243075708
 21
26.882729154
  0
LINE
  5
25B
100
AcDbEntity
  8
0
100
AcDbLine
 62
7
  6
BYLAYER
 10
21.0439694997
 20
17.7827790748
 11
21.0439694997
 21
18.515424735
  0
LINE
  5
25C
100
AcDbEntity
  8
0
100
AcDbLine
 62
7
  6
BYLAYER
 10
21.5439694997
 20
7.1437525796
 11
21.5439694997
 21
8.3685062053
  0
LINE
  5
25D
100
AcDbEntity
  8
0
100
AcDbLine
 62
7
  6
BYLAYER
 10
21.5439694997
 20
9.7565603145
 11
21.5439694997
 21
10.6328007882
  0
LINE
  5
25E
100
AcDbEntity
  8
0
100
AcDbLine
 62
7
  6
BYLAYER
 10
20.9816484176
 20
18.2709005043
 11
21.8955147164
 21
21.8565643929
  0
LWPOLYLINE
  5
25F
100
AcDbEntity
  8
0
100
AcDbPolyline
 62
7
  6
BYLAYER
 90
5
 70
0
 10
17.5333601656
 20
15.666943683
 10
19.0098693167
 20
16.2025789522
 10
19.6281199671
 20
16.5595240009
 10
20.5558684362
 20
17.4119792302
 10
20.9816484176
 20
18.2709005043
  0
LINE
  5
260
100
AcDbEntity
  8
0
100
AcDbLine
 62
7
  6
BYLAYER
 10
23.1939694997
 20
15.455747186
 11
23.1939694997
 21
13.5124714332
  0
LINE
  5
261
100
AcDbEntity
  8
0
100
AcDbLine
 62
7
  6
BYLAYER
 10
18.8770697563
 20
15.1327396565
 11
19.3306328707
 21
15.3946119297
  0
LWPOLYLINE
  5
262
100
AcDbEntity
  8
0
100
AcDbPolyline
 62
7
  6
BYLAYER
 90
5
 70
0
 10
18.1222836582
 20
14.5509626071
 10
18.605341032
 20
14.727698205
 10
19.1527821685
 20
15.0458910441
 10
19.9732770541
 20
15.8046352865
 10
20.0467493691
 20
15.9643758152
  0
LINE
  5
263
100
AcDbEntity
  8
0
100
AcDbLine
 62
7
  6
BYLAYER
 10
17.4973031124
 20
27.9003166307
 11
17.8456236091
 21
27.6992182476
  0
LINE
  5
264
100
AcDbEntity
  8
0
100
AcDbLine
 62
7
  6
BYLAYER
 10
13.7927433174
 20
31.5092471752
 11
13.6993884137
 21
31.5821520034
  0
LINE
  5
265
100
AcDbEntity
  8
0
100
AcDbLine
 62
7
  6
BYLAYER
 10
18.6939694997
 20
27.5970620624
 11
20.9728519066
 21
25.1355550605
  0
LINE
  5
266
100
AcDbEntity
  8
0
100
AcDbLine
 62
7
  6
BYLAYER
 10
19.6281199671
 20
14.273317233
 11
20.2384054503
 21
14.8340738053
  0
LINE
  5
267
100
AcDbEntity
  8
0
100
AcDbLine
 62
7
  6
BYLAYER
 10
13.0774504478
 20
8.0589039897
 11
12.6676112954
 21
7.842082312
  0
LINE
  5
268
100
AcDbEntity
  8
0
100
AcDbLine
 62
7
  6
BYLAYER
 10
13.9673755473
 20
31.8430928558
 11
13.7927433174
 21
31.802473795
  0
LINE
  5
269
100
AcDbEntity
  8
0
100
AcDbLine
 62
7
  6
BYLAYER
 10
13.7927433174
 20
31.5092471752
 11
14.0292827063
 21
31.5293508946
  0
LINE
  5
26A
100
AcDbEntity
  8
0
100
AcDbLine
 62
7
  6
BYLAYER
 10
13.3335530052
 20
31.1322299411
 11
13.6746611103
 21
31.0857365634
  0
LINE
  5
26B
100
AcDbEntity
  8
0
100
AcDbLine
 62
7
  6
BYLAYER
 10
13.6993884137
 20
31.8373634857
 11
13.7927433174
 21
31.802473795
  0
LINE
  5
26C
100
AcDbEntity
  8
0
100
AcDbLine
 62
7
  6
BYLAYER
 10
11.4770968957
 20
8.5022914461
 11
10.9840227852
 21
8.3540988677
  0
LINE
  5
26D
100
AcDbEntity
  8
0
100
AcDbLine
 62
7
  6
BYLAYER
 10
12.1887634717
 20
35.7254059019
 11
15.7243120975
 21
33.6842021293
  0
LINE
  5
26E
100
AcDbEntity
  8
0
100
AcDbLine
 62
7
  6
BYLAYER
 10
19.7326372882
 20
8.9669763587
 11
19.083072988
 21
8.4502139443
  0
ARC
  5
26F
100
AcDbEntity
  8
0
100
AcDbCircle
 62
7
  6
BYLAYER
 10
26.8781705824
 20
24.3235225104
 40
18.7222628372
100
AcDbArc
 50
143.1164906095
 51
144.1951260524
  0
ARC
  5
270
100
AcDbEntity
  8
0
100
AcDbCircle
 62
7
  6
BYLAYER
 10
29.9804379018
 20
22.6011064861
 40
18.1843579845
100
AcDbArc
 50
143.1004529392
 51
144.2111133353
  0
ARC
  5
271
100
AcDbEntity
  8
0
100
AcDbCircle
 62
7
  6
BYLAYER
 10
14.9222682143
 20
18.5473014876
 40
11.0066555303
100
AcDbArc
 50
256.0362704214
 51
257.0654543452
  0
ARC
  5
272
100
AcDbEntity
  8
0
100
AcDbCircle
 62
7
  6
BYLAYER
 10
14.6503137931
 20
16.8559459791
 40
8.8717874535
100
AcDbArc
 50
250.4016819637
 51
252.7292389328
  0
ARC
  5
273
100
AcDbEntity
  8
0
100
AcDbCircle
 62
7
  6
BYLAYER
 10
14.0913454857
 20
16.0792714621
 40
8.3990122458
100
AcDbArc
 50
245.4903566379
 51
246.7223555583
  0
ARC
  5
274
100
AcDbEntity
  8
0
100
AcDbCircle
 62
7
  6
BYLAYER
 10
13.0247588954
 20
12.6582585269
 40
6.9947448927
100
AcDbArc
 50
122.0302719461
 51
123.2363411949
  0
ARC
  5
275
100
AcDbEntity
  8
0
100
AcDbCircle
 62
7
  6
BYLAYER
 10
17.4033215478
 20
12.7209742647
 40
6.9202868302
100
AcDbArc
 50
56.4778936327
 51
57.976077322
  0
ARC
  5
276
100
AcDbEntity
  8
0
100
AcDbCircle
 62
7
  6
BYLAYER
 10
13.5779057419
 20
25.1577038932
 40
6.3474952734
100
AcDbArc
 50
239.6540184408
 51
240.0010150576
  0
ARC
  5
277
100
AcDbEntity
  8
0
100
AcDbCircle
 62
7
  6
BYLAYER
 10
13.600088137
 20
14.4981920776
 40
6.2863036515
100
AcDbArc
 50
238.5358169628
 51
240.7746832926
  0
ARC
  5
278
100
AcDbEntity
  8
0
100
AcDbCircle
 62
7
  6
BYLAYER
 10
13.6360534395
 20
26.0041574562
 40
6.1510327
100
AcDbArc
 50
239.6543212366
 51
240.0007122619
  0
ARC
  5
279
100
AcDbEntity
  8
0
100
AcDbCircle
 62
7
  6
BYLAYER
 10
12.4623077566
 20
15.5066181337
 40
6.0137834707
100
AcDbArc
 50
232.3690951505
 51
232.5456216144
  0
ARC
  5
27A
100
AcDbEntity
  8
0
100
AcDbCircle
 62
7
  6
BYLAYER
 10
12.7440262127
 20
13.7348787105
 40
5.6893740382
100
AcDbArc
 50
232.2437698417
 51
233.8406046168
  0
ARC
  5
27B
100
AcDbEntity
  8
0
100
AcDbCircle
 62
7
  6
BYLAYER
 10
14.7039803389
 20
31.5011030517
 40
5.6342000893
100
AcDbArc
 50
0.0106747527
 51
1.6572258979
  0
ARC
  5
27C
100
AcDbEntity
  8
0
100
AcDbCircle
 62
7
  6
BYLAYER
 10
13.4498272278
 20
33.778784055
 40
5.5737241249
100
AcDbArc
 50
58.3625623551
 51
59.9969331378
  0
ARC
  5
27D
100
AcDbEntity
  8
0
100
AcDbCircle
 62
7
  6
BYLAYER
 10
15.165279396
 20
34.8712251354
 40
5.1155179474
100
AcDbArc
 50
178.1695771115
 51
180.0132129331
  0
ARC
  5
27E
100
AcDbEntity
  8
0
100
AcDbCircle
 62
7
  6
BYLAYER
 10
13.9792379547
 20
19.4080112453
 40
4.9366781605
100
AcDbArc
 50
240.0008667866
 51
240.3488898413
  0
ARC
  5
27F
100
AcDbEntity
  8
0
100
AcDbCircle
 62
7
  6
BYLAYER
 10
13.9786431563
 20
19.1480165729
 40
4.9354844453
100
AcDbArc
 50
240.000839393
 51
240.3329035951
  0
ARC
  5
280
100
AcDbEntity
  8
0
100
AcDbCircle
 62
7
  6
BYLAYER
 10
13.9928995187
 20
19.2683719991
 40
4.8811574626
100
AcDbArc
 50
240.0008667866
 51
240.3488898413
  0
ARC
  5
281
100
AcDbEntity
  8
0
100
AcDbCircle
 62
7
  6
BYLAYER
 10
13.9923114098
 20
19.2393307291
 40
4.8799771726
100
AcDbArc
 50
240.000839393
 51
240.3329035951
  0
ARC
  5
282
100
AcDbEntity
  8
0
100
AcDbCircle
 62
7
  6
BYLAYER
 10
13.9332507761
 20
19.1373420162
 40
4.7621220443
100
AcDbArc
 50
238.6376966366
 51
240.0027088482
  0
ARC
  5
283
100
AcDbEntity
  8
0
100
AcDbCircle
 62
7
  6
BYLAYER
 10
13.926618243
 20
19.1542667485
 40
4.7491987972
100
AcDbArc
 50
238.8580098641
 51
240.0050970083
  0
ARC
  5
284
100
AcDbEntity
  8
0
100
AcDbCircle
 62
7
  6
BYLAYER
 10
11.3152013212
 20
12.2765497387
 40
3.6402795104
100
AcDbArc
 50
214.5825397348
 51
216.7331349858
  0
ARC
  5
285
100
AcDbEntity
  8
0
100
AcDbCircle
 62
7
  6
BYLAYER
 10
18.3842573836
 20
16.8222259467
 40
3.3141372461
100
AcDbArc
 50
34.9752085059
 51
36.0579807033
  0
ARC
  5
286
100
AcDbEntity
  8
0
100
AcDbCircle
 62
7
  6
BYLAYER
 10
18.6972204018
 20
22.6746731813
 40
3.3012707421
100
AcDbArc
 50
345.6516690297
 51
359.9684757731
  0
ARC
  5
287
100
AcDbEntity
  8
0
100
AcDbCircle
 62
7
  6
BYLAYER
 10
11.6907180041
 20
22.6746731064
 40
3.3012701485
100
AcDbArc
 50
180.031522933
 51
194.3483322642
  0
ARC
  5
288
100
AcDbEntity
  8
0
100
AcDbCircle
 62
7
  6
BYLAYER
 10
11.9755263721
 20
16.8422956085
 40
3.2795602111
100
AcDbArc
 50
144.075505945
 51
145.6772317819
  0
ARC
  5
289
100
AcDbEntity
  8
0
100
AcDbCircle
 62
7
  6
BYLAYER
 10
14.3659825699
 20
28.5357612432
 40
3.2209852748
100
AcDbArc
 50
239.4696668685
 51
240.001626254
  0
ARC
  5
28A
100
AcDbEntity
  8
0
100
AcDbCircle
 62
7
  6
BYLAYER
 10
13.2030858812
 20
31.5765500965
 40
0.8322948679
100
AcDbArc
 50
347.4312654323
 51
348.2192207738
  0
SPLINE
  5
28B
100
AcDbEntity
  8
0
100
AcDbSpline
 62
7
  6
BYLAYER
 70
0
 71
3
 72
11
 73
7
 74
0
 42
0.0000001
 43
0.0000001
 44
0.0000000001
 40
0.0
 40
0.0
 40
0.0
 40
0.0
 40
0.2393258728
 40
0.4848769456
 40
0.7380522627
 40
1.0
 40
1.0
 40
1.0
 40
1.0
 10
12.629893426
 20
33.2578146362
 30
0.0
 10
12.6184526387
 20
33.2460939673
 30
0.0
 10
12.5965464955
 20
33.2210726243
 30
0.0
 10
12.5672831157
 20
33.1798053592
 30
0.0
 10
12.5413766794
 20
33.1345648005
 30
0.0
 10
12.5266747803
 20
33.1024656295
 30
0.0
 10
12.519889491
 20
33.0858723446
 30
0.0
  0
SPLINE
  5
28C
100
AcDbEntity
  8
0
100
AcDbSpline
 62
7
  6
BYLAYER
 70
0
 71
3
 72
13
 73
9
 74
0
 42
0.0000001
 43
0.0000001
 44
0.0000000001
 40
0.0
 40
0.0
 40
0.0
 40
0.0
 40
0.2230451172
 40
0.3413170636
 40
0.4641601381
 40
0.7234088908
 40
0.8596979496
 40
1.0
 40
1.0
 40
1.0
 40
1.0
 10
12.3895984582
 20
32.7672178182
 30
0.0
 10
12.3774207776
 20
32.7374366878
 30
0.0
 10
12.3629025646
 20
32.6900951548
 30
0.0
 10
12.350411596
 20
32.6242852387
 30
0.0
 10
12.3418944993
 20
32.5525563982
 30
0.0
 10
12.3403791945
 20
32.4775800721
 30
0.0
 10
12.3451875141
 20
32.4004130219
 30
0.0
 10
12.3497600713
 20
32.3607537491
 30
0.0
 10
12.3525726587
 20
32.3407112824
 30
0.0
  0
SPLINE
  5
28D
100
AcDbEntity
  8
0
100
AcDbSpline
 62
7
  6
BYLAYER
 70
0
 71
3
 72
15
 73
11
 74
0
 42
0.0000001
 43
0.0000001
 44
0.0000000001
 40
0.0
 40
0.0
 40
0.0
 40
0.0
 40
0.1423699604
 40
0.2787348632
 40
0.4092781079
 40
0.5345070348
 40
0.6551828603
 40
0.7722426475
 40
0.8867742971
 40
1.0
 40
1.0
 40
1.0
 40
1.0
 10
13.6993884137
 20
31.5821520034
 30
0.0
 10
13.696638303
 20
31.565730228
 30
0.0
 10
13.6899923892
 20
31.5337714533
 30
0.0
 10
13.6762114315
 20
31.487866369
 30
0.0
 10
13.6588863691
 20
31.4453215015
 30
0.0
 10
13.6381156861
 20
31.406406125
 30
0.0
 10
13.6140087582
 20
31.3713502128
 30
0.0
 10
13.5866914322
 20
31.3403689397
 30
0.0
 10
13.5563343569
 20
31.3136598156
 30
0.0
 10
13.5341224826
 20
31.298791894
 30
0.0
 10
13.5226545344
 20
31.292171005
 30
0.0
  0
SPLINE
  5
28E
100
AcDbEntity
  8
0
100
AcDbSpline
 62
7
  6
BYLAYER
 70
0
 71
3
 72
10
 73
6
 74
0
 42
0.0000001
 43
0.0000001
 44
0.0000000001
 40
0.0
 40
0.0
 40
0.0
 40
0.0
 40
0.269410973
 40
0.526013726
 40
1.0
 40
1.0
 40
1.0
 40
1.0
 10
13.0726579881
 20
31.2272801371
 30
0.0
 10
13.0943642271
 20
31.2147483177
 30
0.0
 10
13.1377275432
 20
31.1918969572
 30
0.0
 10
13.2235011743
 20
31.1557609997
 30
0.0
 10
13.2898598964
 20
31.1381859715
 30
0.0
 10
13.3335523912
 20
31.1322321473
 30
0.0
  0
SPLINE
  5
28F
100
AcDbEntity
  8
0
100
AcDbSpline
 62
7
  6
BYLAYER
 70
0
 71
3
 72
20
 73
16
 74
0
 42
0.0000001
 43
0.0000001
 44
0.0000000001
 40
0.0
 40
0.0
 40
0.0
 40
0.0
 40
0.059324642
 40
0.1205021496
 40
0.1832291703
 40
0.2472363409
 40
0.3778441231
 40
0.5097827397
 40
0.640388429
 40
0.7044001803
 40
0.767126989
 40
0.8282827277
 40
0.8876220982
 40
0.9449358857
 40
1.0
 40
1.0
 40
1.0
 40
1.0
 10
12.3525726587
 20
32.3407112824
 30
0.0
 10
12.3563269793
 20
32.3139580356
 30
0.0
 10
12.3657385037
 20
32.2598535339
 30
0.0
 10
12.3849643894
 20
32.1786139075
 30
0.0
 10
12.4094073648
 20
32.0965585947
 30
0.0
 10
12.448950211
 20
31.9861928796
 30
0.0
 10
12.5101390033
 20
31.8503407907
 30
0.0
 10
12.5997974199
 20
31.6950510352
 30
0.0
 10
12.6868541346
 20
31.5741325957
 30
0.0
 10
12.7626643913
 20
31.4847046327
 30
0.0
 10
12.8215012418
 20
31.4225173707
 30
0.0
 10
12.8822386625
 20
31.3652429723
 30
0.0
 10
12.944429593
 20
31.3133077602
 30
0.0
 10
13.0075975205
 20
31.2671228263
 30
0.0
 10
13.050942089
 20
31.2398175337
 30
0.0
 10
13.0726579881
 20
31.2272801371
 30
0.0
  0
SPLINE
  5
290
100
AcDbEntity
  8
0
100
AcDbSpline
 62
7
  6
BYLAYER
 70
0
 71
3
 72
23
 73
19
 74
0
 42
0.0000001
 43
0.0000001
 44
0.0000000001
 40
0.0
 40
0.0
 40
0.0
 40
0.0
 40
0.0550496132
 40
0.1123609838
 40
0.1716986592
 40
0.2328442272
 40
0.2955612074
 40
0.3595651181
 40
0.4245504339
 40
0.4901974932
 40
0.5561788968
 40
0.6221613836
 40
0.6878107133
 40
0.7527941241
 40
0.816790741
 40
0.8795159903
 40
0.9406910905
 40
1.0
 40
1.0
 40
1.0
 40
1.0
 10
13.0726579881
 20
32.8064447141
 30
0.0
 10
13.0915559893
 20
32.7955341948
 30
0.0
 10
13.1292792107
 20
32.7717677081
 30
0.0
 10
13.1842606105
 20
32.731571977
 30
0.0
 10
13.23839067
 20
32.6863669387
 30
0.0
 10
13.2912564588
 20
32.6365189405
 30
0.0
 10
13.3424593167
 20
32.5823922532
 30
0.0
 10
13.3916268596
 20
32.5244029642
 30
0.0
 10
13.4383720703
 20
32.4629797699
 30
0.0
 10
13.4823534971
 20
32.3985979896
 30
0.0
 10
13.523226779
 20
32.3317363984
 30
0.0
 10
13.5606950582
 20
32.262907836
 30
0.0
 10
13.5944601271
 20
32.1926270511
 30
0.0
 10
13.6242813082
 20
32.121435804
 30
0.0
 10
13.6499212507
 20
32.0498626478
 30
0.0
 10
13.6711971763
 20
31.9784435633
 30
0.0
 10
13.6879282171
 20
31.907733799
 30
0.0
 10
13.6961212671
 20
31.8606451356
 30
0.0
 10
13.6993884137
 20
31.8373634857
 30
0.0
  0
SPLINE
  5
291
100
AcDbEntity
  8
0
100
AcDbSpline
 62
7
  6
BYLAYER
 70
0
 71
3
 72
15
 73
11
 74
0
 42
0.0000001
 43
0.0000001
 44
0.0000000001
 40
0.0
 40
0.0
 40
0.0
 40
0.0
 40
0.108012225
 40
0.2180618414
 40
0.3320013047
 40
0.4513621277
 40
0.5772691744
 40
0.7104919983
 40
0.8514460176
 40
1.0
 40
1.0
 40
1.0
 40
1.0
 10
12.6226614418
 20
32.8510140724
 30
0.0
 10
12.637417013
 20
32.859533033
 30
0.0
 10
12.6687444061
 20
32.8742069304
 30
0.0
 10
12.7194373538
 20
32.8882206378
 30
0.0
 10
12.7734760172
 20
32.8942504915
 30
0.0
 10
12.8302847233
 20
32.8922723674
 30
0.0
 10
12.8893178057
 20
32.8823724109
 30
0.0
 10
12.9500319927
 20
32.8646750445
 30
0.0
 10
13.0118401722
 20
32.839369914
 30
0.0
 10
13.0523639873
 20
32.8181611958
 30
0.0
 10
13.0726579881
 20
32.8064447141
 30
0.0
  0
SPLINE
  5
292
100
AcDbEntity
  8
0
100
AcDbSpline
 62
7
  6
BYLAYER
 70
0
 71
3
 72
15
 73
11
 74
0
 42
0.0000001
 43
0.0000001
 44
0.0000000001
 40
0.0
 40
0.0
 40
0.0
 40
0.0
 40
0.1423699604
 40
0.2787348632
 40
0.4092781079
 40
0.5345070348
 40
0.6551828603
 40
0.7722426475
 40
0.8867742971
 40
1.0
 40
1.0
 40
1.0
 40
1.0
 10
12.4459275625
 20
32.5610330739
 30
0.0
 10
12.4486776731
 20
32.5774548494
 30
0.0
 10
12.4553235869
 20
32.6094136241
 30
0.0
 10
12.4691045447
 20
32.6553187083
 30
0.0
 10
12.4864296071
 20
32.6978635759
 30
0.0
 10
12.50720029
 20
32.7367789524
 30
0.0
 10
12.5313072179
 20
32.7718348646
 30
0.0
 10
12.5586245439
 20
32.8028161376
 30
0.0
 10
12.5889816192
 20
32.8295252618
 30
0.0
 10
12.6111934935
 20
32.8443931834
 30
0.0
 10
12.6226614418
 20
32.8510140724
 30
0.0
  0
SPLINE
  5
293
100
AcDbEntity
  8
0
100
AcDbSpline
 62
7
  6
BYLAYER
 70
0
 71
3
 72
23
 73
19
 74
0
 42
0.0000001
 43
0.0000001
 44
0.0000000001
 40
0.0
 40
0.0
 40
0.0
 40
0.0
 40
0.0569141595
 40
0.1166609386
 40
0.1788723729
 40
0.2431827077
 40
0.3091471064
 40
0.3762713704
 40
0.4440369353
 40
0.5119107063
 40
0.5793549984
 40
0.6458430021
 40
0.7108725399
 40
0.7739775856
 40
0.8347408606
 40
0.892818083
 40
0.9479712778
 40
1.0
 40
1.0
 40
1.0
 40
1.0
 10
13.0726579881
 20
31.3367403633
 30
0.0
 10
13.048913793
 20
31.3504487706
 30
0.0
 10
13.0015839074
 20
31.3809171233
 30
0.0
 10
12.9332645515
 20
31.4335718562
 30
0.0
 10
12.8665979735
 20
31.4937600307
 30
0.0
 10
12.8023782318
 20
31.5607518902
 30
0.0
 10
12.7413412735
 20
31.633762459
 30
0.0
 10
12.6842164125
 20
31.7119396929
 30
0.0
 10
12.6316728849
 20
31.7943573804
 30
0.0
 10
12.5843268316
 20
31.8800427178
 30
0.0
 10
12.5427445541
 20
31.9679896239
 30
0.0
 10
12.5074081683
 20
32.0571574248
 30
0.0
 10
12.4787366469
 20
32.1464982837
 30
0.0
 10
12.4570745325
 20
32.2349626554
 30
0.0
 10
12.4426643432
 20
32.3215084117
 30
0.0
 10
12.4356877096
 20
32.4051411909
 30
0.0
 10
12.4362430216
 20
32.4848602695
 30
0.0
 10
12.441787841
 20
32.5363134949
 30
0.0
 10
12.4459275625
 20
32.5610330739
 30
0.0
  0
SPLINE
  5
294
100
AcDbEntity
  8
0
100
AcDbSpline
 62
7
  6
BYLAYER
 70
0
 71
3
 72
21
 73
17
 74
0
 42
0.0000001
 43
0.0000001
 44
0.0000000001
 40
0.0
 40
0.0
 40
0.0
 40
0.0
 40
0.1284574191
 40
0.1897687311
 40
0.2495290565
 40
0.3081330964
 40
0.3660206774
 40
0.4236577227
 40
0.4815224364
 40
0.5400831046
 40
0.5997812005
 40
0.6610094576
 40
0.7241118851
 40
0.8569381608
 40
0.9271670562
 40
1.0
 40
1.0
 40
1.0
 40
1.0
 10
13.3335523912
 20
31.1322321473
 30
0.0
 10
13.3618771567
 20
31.1283724301
 30
0.0
 10
13.4043493113
 20
31.1260432954
 30
0.0
 10
13.4597172096
 20
31.1311241469
 30
0.0
 10
13.4990351486
 20
31.1388004177
 30
0.0
 10
13.5365855027
 20
31.1503907053
 30
0.0
 10
13.5722114368
 20
31.1658357471
 30
0.0
 10
13.6057483847
 20
31.1850806168
 30
0.0
 10
13.6370483381
 20
31.2080351655
 30
0.0
 10
13.6659765334
 20
31.2345941782
 30
0.0
 10
13.6924024495
 20
31.2646411396
 30
0.0
 10
13.7162296142
 20
31.2980340021
 30
0.0
 10
13.7448744773
 20
31.34765852
 30
0.0
 10
13.7673077348
 20
31.4028396528
 30
0.0
 10
13.7837634416
 20
31.4620200404
 30
0.0
 10
13.7900662824
 20
31.493261757
 30
0.0
 10
13.7927433174
 20
31.5092471752
 30
0.0
  0
SPLINE
  5
295
100
AcDbEntity
  8
0
100
AcDbSpline
 62
7
  6
BYLAYER
 70
0
 71
3
 72
15
 73
11
 74
0
 42
0.0000001
 43
0.0000001
 44
0.0000000001
 40
0.0
 40
0.0
 40
0.0
 40
0.0
 40
0.108012225
 40
0.2180618414
 40
0.3320013047
 40
0.4513621277
 40
0.5772691744
 40
0.7104919983
 40
0.8514460176
 40
1.0
 40
1.0
 40
1.0
 40
1.0
 10
13.5226545344
 20
31.292171005
 30
0.0
 10
13.5078989631
 20
31.2836520444
 30
0.0
 10
13.4765715701
 20
31.268978147
 30
0.0
 10
13.4258786223
 20
31.2549644396
 30
0.0
 10
13.371839959
 20
31.2489345859
 30
0.0
 10
13.3150312528
 20
31.2509127099
 30
0.0
 10
13.2559981704
 20
31.2608126665
 30
0.0
 10
13.1952839835
 20
31.2785100329
 30
0.0
 10
13.1334758039
 20
31.3038151633
 30
0.0
 10
13.0929519888
 20
31.3250238815
 30
0.0
 10
13.0726579881
 20
31.3367403633
 30
0.0
  0
SPLINE
  5
296
100
AcDbEntity
  8
0
100
AcDbSpline
 62
7
  6
BYLAYER
 70
0
 71
3
 72
23
 73
19
 74
0
 42
0.0000001
 43
0.0000001
 44
0.0000000001
 40
0.0
 40
0.0
 40
0.0
 40
0.0
 40
0.0771715093
 40
0.1513525358
 40
0.2224504802
 40
0.2905194811
 40
0.3557076243
 40
0.4182394904
 40
0.478421049
 40
0.5366604852
 40
0.5934529899
 40
0.6493669911
 40
0.7050160657
 40
0.7610298001
 40
0.8180166022
 40
0.8765347183
 40
0.9370642685
 40
1.0
 40
1.0
 40
1.0
 40
1.0
 10
13.0726579881
 20
32.9159049402
 30
0.0
 10
13.05464795
 20
32.9263028053
 30
0.0
 10
13.0186583334
 20
32.9455703598
 30
0.0
 10
12.9639084723
 20
32.9701085367
 30
0.0
 10
12.9097401637
 20
32.989558357
 30
0.0
 10
12.8564744326
 20
33.0038080178
 30
0.0
 10
12.8043986015
 20
33.0127633652
 30
0.0
 10
12.7538018691
 20
33.0163759459
 30
0.0
 10
12.7049698571
 20
33.0145961674
 30
0.0
 10
12.6581877428
 20
33.0074248504
 30
0.0
 10
12.6137357317
 20
32.9948815095
 30
0.0
 10
12.5718873353
 20
32.977032802
 30
0.0
 10
12.5329054325
 20
32.9539803966
 30
0.0
 10
12.4970347406
 20
32.9258678427
 30
0.0
 10
12.4644887005
 20
32.892879784
 30
0.0
 10
12.4354585146
 20
32.8552212812
 30
0.0
 10
12.410095637
 20
32.8131366192
 30
0.0
 10
12.3960175241
 20
32.782915967
 30
0.0
 10
12.3895984582
 20
32.7672178182
 30
0.0
  0
SPLINE
  5
297
100
AcDbEntity
  8
0
100
AcDbSpline
 62
7
  6
BYLAYER
 70
0
 71
3
 72
20
 73
16
 74
0
 42
0.0000001
 43
0.0000001
 44
0.0000000001
 40
0.0
 40
0.0
 40
0.0
 40
0.0
 40
0.059324642
 40
0.1205021496
 40
0.1832291703
 40
0.2472363409
 40
0.3778441231
 40
0.5097827397
 40
0.640388429
 40
0.7044001803
 40
0.767126989
 40
0.8282827277
 40
0.8876220982
 40
0.9449358857
 40
1.0
 40
1.0
 40
1.0
 40
1.0
 10
13.7927433174
 20
31.802473795
 30
0.0
 10
13.7889889968
 20
31.8292270418
 30
0.0
 10
13.7795774724
 20
31.8833315434
 30
0.0
 10
13.7603515868
 20
31.9645711699
 30
0.0
 10
13.7359086114
 20
32.0466264827
 30
0.0
 10
13.6963657651
 20
32.1569921978
 30
0.0
 10
13.6351769729
 20
32.2928442867
 30
0.0
 10
13.5455185562
 20
32.4481340422
 30
0.0
 10
13.4584618416
 20
32.5690524816
 30
0.0
 10
13.3826515848
 20
32.6584804447
 30
0.0
 10
13.3238147343
 20
32.7206677066
 30
0.0
 10
13.2630773137
 20
32.7779421051
 30
0.0
 10
13.2008863832
 20
32.8298773172
 30
0.0
 10
13.1377184557
 20
32.8760622511
 30
0.0
 10
13.0943738871
 20
32.9033675437
 30
0.0
 10
13.0726579881
 20
32.9159049402
 30
0.0
  0
SPLINE
  5
298
100
AcDbEntity
  8
0
100
AcDbSpline
 62
7
  6
BYLAYER
 70
0
 71
3
 72
39
 73
35
 74
0
 42
0.0000001
 43
0.0000001
 44
0.0000000001
 40
0.0
 40
0.0
 40
0.0
 40
0.0
 40
0.0305915768
 40
0.0620886184
 40
0.0944181012
 40
0.1275248571
 40
0.161343453
 40
0.1957847503
 40
0.2307505021
 40
0.2661352945
 40
0.3018277135
 40
0.3377103764
 40
0.4095499195
 40
0.4807102963
 40
0.5502718856
 40
0.5842018819
 40
0.6174367858
 40
0.6499012056
 40
0.6815322748
 40
0.712285754
 40
0.7421340783
 40
0.7710716464
 40
0.799113449
 40
0.8262990546
 40
0.8526894963
 40
0.8783680117
 40
0.8909753162
 40
0.9034430228
 40
0.9280136095
 40
0.9522084933
 40
0.9642105876
 40
0.9761666492
 40
0.9880912543
 40
1.0
 40
1.0
 40
1.0
 40
1.0
 10
19.6866267314
 20
6.4658512307
 30
0.0
 10
19.5716283208
 20
6.3994572637
 30
0.0
 10
19.3338097678
 20
6.2722332388
 30
0.0
 10
18.9614136648
 20
6.1005840743
 30
0.0
 10
18.5698597763
 20
5.9459903649
 30
0.0
 10
18.161167372
 20
5.8090557985
 30
0.0
 10
17.7373104947
 20
5.6903057502
 30
0.0
 10
17.3003909731
 20
5.5902217671
 30
0.0
 10
16.8526222758
 20
5.5092724982
 30
0.0
 10
16.3962952507
 20
5.4477998131
 30
0.0
 10
15.9337377285
 20
5.4060911796
 30
0.0
 10
15.3117390993
 20
5.3770844457
 30
0.0
 10
14.5343379116
 20
5.3908882594
 30
0.0
 10
13.6155480235
 20
5.4866483885
 30
0.0
 10
12.8703406403
 20
5.6322646632
 30
0.0
 10
12.2973609355
 20
5.7876994758
 30
0.0
 10
11.885955068
 20
5.9216179428
 30
0.0
 10
11.491406743
 20
6.0732484591
 30
0.0
 10
11.115644624
 20
6.242042314
 30
0.0
 10
10.7604890263
 20
6.427366625
 30
0.0
 10
10.4276722161
 20
6.6286265266
 30
0.0
 10
10.1188322489
 20
6.8451894615
 30
0.0
 10
9.8355616024
 20
7.0764540505
 30
0.0
 10
9.5794294606
 20
7.3218036179
 30
0.0
 10
9.3520425119
 20
7.5805509029
 30
0.0
 10
9.1868672325
 20
7.8081552883
 30
0.0
 10
9.0713097475
 20
7.9958241389
 30
0.0
 10
8.9679700307
 20
8.1850217363
 30
0.0
 10
8.8595196673
 20
8.4283096857
 30
0.0
 10
8.7800987374
 20
8.6805270581
 30
0.0
 10
8.73550962
 20
8.8848442329
 30
0.0
 10
8.7115746947
 20
9.0388527348
 30
0.0
 10
8.6971566738
 20
9.1936258956
 30
0.0
 10
8.6939577148
 20
9.2971088315
 30
0.0
 10
8.6939721468
 20
9.348800994
 30
0.0
  0
SPLINE
  5
299
100
AcDbEntity
  8
0
100
AcDbSpline
 62
7
  6
BYLAYER
 70
0
 71
3
 72
10
 73
6
 74
0
 42
0.0000001
 43
0.0000001
 44
0.0000000001
 40
0.0
 40
0.0
 40
0.0
 40
0.0
 40
0.4982745309
 40
0.7485470074
 40
1.0
 40
1.0
 40
1.0
 40
1.0
 10
8.6939721468
 20
9.348800994
 30
0.0
 10
8.6940041052
 20
9.4632690092
 30
0.0
 10
8.7059463173
 20
9.6355280702
 30
0.0
 10
8.7450346462
 20
9.8620149174
 30
0.0
 10
8.7722372201
 20
9.9741328519
 30
0.0
 10
8.7876825563
 20
10.0297956962
 30
0.0
  0
SPLINE
  5
29A
100
AcDbEntity
  8
0
100
AcDbSpline
 62
7
  6
BYLAYER
 70
0
 71
3
 72
11
 73
7
 74
0
 42
0.0000001
 43
0.0000001
 44
0.0000000001
 40
0.0
 40
0.0
 40
0.0
 40
0.0
 40
0.2517580919
 40
0.5020199767
 40
0.7512686671
 40
1.0
 40
1.0
 40
1.0
 40
1.0
 10
21.5751021698
 20
10.1149500003
 30
0.0
 10
21.5946674765
 20
10.0525635866
 30
0.0
 10
21.6291647314
 20
9.9266878809
 30
0.0
 10
21.6664641323
 20
9.7349946852
 30
0.0
 10
21.6889739755
 20
9.5417972714
 30
0.0
 10
21.6939848874
 20
9.4124136136
 30
0.0
 10
21.6939668527
 20
9.3478172177
 30
0.0
  0
SPLINE
  5
29B
100
AcDbEntity
  8
0
100
AcDbSpline
 62
7
  6
BYLAYER
 70
0
 71
3
 72
21
 73
17
 74
0
 42
0.0000001
 43
0.0000001
 44
0.0000000001
 40
0.0
 40
0.0
 40
0.0
 40
0.0
 40
0.0570525848
 40
0.1142433771
 40
0.171702169
 40
0.2295736488
 40
0.2879952657
 40
0.3470950868
 40
0.4070170334
 40
0.4678843538
 40
0.5298106819
 40
0.5929056898
 40
0.6572563982
 40
0.7229455401
 40
0.8585704829
 40
1.0
 40
1.0
 40
1.0
 40
1.0
 10
21.6939668527
 20
9.3478172177
 30
0.0
 10
21.6939473176
 20
9.2778471065
 30
0.0
 10
21.6880026417
 20
9.1376695026
 30
0.0
 10
21.6615574632
 20
8.9285260235
 30
0.0
 10
21.6177006346
 20
8.7212930722
 30
0.0
 10
21.5568233648
 20
8.5168485328
 30
0.0
 10
21.479419788
 20
8.315924175
 30
0.0
 10
21.3859294469
 20
8.1191887523
 30
0.0
 10
21.2769499426
 20
7.9271533836
 30
0.0
 10
21.1530243826
 20
7.740248996
 30
0.0
 10
21.0146888805
 20
7.5588427519
 30
0.0
 10
20.862499567
 20
7.3832180724
 30
0.0
 10
20.6969614108
 20
7.2136157129
 30
0.0
 10
20.4565569579
 20
6.993487115
 30
0.0
 10
20.1241121263
 20
6.7350019772
 30
0.0
 10
19.8368401032
 20
6.5525764436
 30
0.0
 10
19.6866267314
 20
6.4658512307
 30
0.0
  0
SPLINE
  5
29C
100
AcDbEntity
  8
0
100
AcDbSpline
 62
7
  6
BYLAYER
 70
0
 71
3
 72
12
 73
8
 74
0
 42
0.0000001
 43
0.0000001
 44
0.0000000001
 40
0.0
 40
0.0
 40
0.0
 40
0.0
 40
0.2846042899
 40
0.5425048143
 40
0.7774799326
 40
0.8895943928
 40
1.0
 40
1.0
 40
1.0
 40
1.0
 10
10.9841319674
 20
14.9840511086
 30
0.0
 10
10.9841319674
 20
15.0013376654
 30
0.0
 10
10.9814294393
 20
15.0344034497
 30
0.0
 10
10.9679517522
 20
15.0800628601
 30
0.0
 10
10.948672919
 20
15.1119782016
 30
0.0
 10
10.9292069425
 20
15.1319420815
 30
0.0
 10
10.9183285413
 20
15.1400758089
 30
0.0
 10
10.9126561031
 20
15.1436525072
 30
0.0
  0
SPLINE
  5
29D
100
AcDbEntity
  8
0
100
AcDbSpline
 62
7
  6
BYLAYER
 70
0
 71
3
 72
23
 73
19
 74
0
 42
0.0000001
 43
0.0000001
 44
0.0000000001
 40
0.0
 40
0.0
 40
0.0
 40
0.0
 40
0.0629932725
 40
0.1301790084
 40
0.2006260695
 40
0.2734172482
 40
0.3475721655
 40
0.4219931035
 40
0.4955738298
 40
0.5672546106
 40
0.6360531639
 40
0.7011237666
 40
0.7618023289
 40
0.8177024231
 40
0.8687778781
 40
0.915448051
 40
0.9586780234
 40
1.0
 40
1.0
 40
1.0
 40
1.0
 10
10.8634559449
 20
14.4827287867
 30
0.0
 10
10.8634559449
 20
14.4971223309
 30
0.0
 10
10.865320616
 20
14.5268834827
 30
0.0
 10
10.8728948919
 20
14.5721634777
 30
0.0
 10
10.8852591697
 20
14.6186954996
 30
0.0
 10
10.9021048492
 20
14.6654856878
 30
0.0
 10
10.9231065229
 20
14.7115608181
 30
0.0
 10
10.9477950465
 20
14.755975975
 30
0.0
 10
10.9756880875
 20
14.7977762778
 30
0.0
 10
11.0061697689
 20
14.8361054924
 30
0.0
 10
11.0386305831
 20
14.8701436522
 30
0.0
 10
11.0723737692
 20
14.8992064416
 30
0.0
 10
11.106733468
 20
14.9226660094
 30
0.0
 10
11.1410086281
 20
14.9400581342
 30
0.0
 10
11.1745516017
 20
14.9509698725
 30
0.0
 10
11.2067249269
 20
14.9551206755
 30
0.0
 10
11.2368464482
 20
14.9522425111
 30
0.0
 10
11.2552345792
 20
14.9455004828
 30
0.0
 10
11.2635782833
 20
14.9410811918
 30
0.0
  0
SPLINE
  5
29E
100
AcDbEntity
  8
0
100
AcDbSpline
 62
7
  6
BYLAYER
 70
0
 71
3
 72
21
 73
17
 74
0
 42
0.0000001
 43
0.0000001
 44
0.0000000001
 40
0.0
 40
0.0
 40
0.0
 40
0.0
 40
0.1420015755
 40
0.2780423572
 40
0.3438873879
 40
0.4083547846
 40
0.4715264612
 40
0.5334870825
 40
0.5943399373
 40
0.6542004077
 40
0.7131883859
 40
0.7714439631
 40
0.829108707
 40
0.8863213751
 40
0.9432349805
 40
1.0
 40
1.0
 40
1.0
 40
1.0
 10
10.5395114726
 20
14.551409219
 30
0.0
 10
10.406276452
 20
14.6353543412
 30
0.0
 10
10.1520556965
 20
14.8106375548
 30
0.0
 10
9.8591039602
 20
15.0558337422
 30
0.0
 10
9.6481000047
 20
15.2627134108
 30
0.0
 10
9.5032486117
 20
15.4211641959
 30
0.0
 10
9.3704724149
 20
15.5843533352
 30
0.0
 10
9.2501464989
 20
15.7520316438
 30
0.0
 10
9.1426810677
 20
15.9239264579
 30
0.0
 10
9.0484795209
 20
16.0997138142
 30
0.0
 10
8.9679040195
 20
16.2790080622
 30
0.0
 10
8.9013670088
 20
16.4613941466
 30
0.0
 10
8.8491992915
 20
16.6463600191
 30
0.0
 10
8.8116567011
 20
16.8333334874
 30
0.0
 10
8.789053606
 20
17.021683345
 30
0.0
 10
8.784000127
 20
17.1478048463
 30
0.0
 10
8.7839833455
 20
17.2107553259
 30
0.0
  0
SPLINE
  5
29F
100
AcDbEntity
  8
0
100
AcDbSpline
 62
7
  6
BYLAYER
 70
0
 71
3
 72
23
 73
19
 74
0
 42
0.0000001
 43
0.0000001
 44
0.0000000001
 40
0.0
 40
0.0
 40
0.0
 40
0.0
 40
0.0442152156
 40
0.0900725005
 40
0.1389135722
 40
0.1916258885
 40
0.2486056679
 40
0.3098394956
 40
0.3749760427
 40
0.443408816
 40
0.5143430181
 40
0.5868585354
 40
0.6599577772
 40
0.7326086404
 40
0.8037918605
 40
0.8726194424
 40
0.9382879627
 40
1.0
 40
1.0
 40
1.0
 40
1.0
 10
10.5395156648
 20
14.551415841
 30
0.0
 10
10.5483829881
 20
14.5458246404
 30
0.0
 10
10.5679633775
 20
14.5366773169
 30
0.0
 10
10.6005401214
 20
14.5302256577
 30
0.0
 10
10.6357197624
 20
14.5309197215
 30
0.0
 10
10.6726940003
 20
14.538624757
 30
0.0
 10
10.7107047593
 20
14.5530846466
 30
0.0
 10
10.7489743374
 20
14.5739451268
 30
0.0
 10
10.7867002366
 20
14.6007543424
 30
0.0
 10
10.8230951424
 20
14.6329148654
 30
0.0
 10
10.8573627836
 20
14.6697491716
 30
0.0
 10
10.8887836445
 20
14.7104413494
 30
0.0
 10
10.9166471109
 20
14.7541285694
 30
0.0
 10
10.9403820199
 20
14.7998353131
 30
0.0
 10
10.9594437361
 20
14.8465916735
 30
0.0
 10
10.9734466151
 20
14.8933903248
 30
0.0
 10
10.9820282962
 20
14.9391984748
 30
0.0
 10
10.9841319674
 20
14.9694199373
 30
0.0
 10
10.9841319674
 20
14.9840511086
 30
0.0
  0
SPLINE
  5
2A0
100
AcDbEntity
  8
0
100
AcDbSpline
 62
7
  6
BYLAYER
 70
0
 71
3
 72
36
 73
32
 74
0
 42
0.0000001
 43
0.0000001
 44
0.0000000001
 40
0.0
 40
0.0
 40
0.0
 40
0.0
 40
0.0231269167
 40
0.046399978
 40
0.0699615927
 40
0.0939523493
 40
0.1061532272
 40
0.1185095742
 40
0.1437352246
 40
0.1697363868
 40
0.1965924288
 40
0.2243591947
 40
0.2530706357
 40
0.2827369074
 40
0.3133483141
 40
0.3448744083
 40
0.3772689137
 40
0.410468379
 40
0.4443975168
 40
0.5140658472
 40
0.5854886111
 40
0.6577617368
 40
0.7299356842
 40
0.765696736
 40
0.8010825556
 40
0.8359846189
 40
0.8703000078
 40
0.9039331266
 40
0.9368081034
 40
0.9688579502
 40
1.0
 40
1.0
 40
1.0
 40
1.0
 10
21.6039692477
 20
17.211427519
 30
0.0
 10
21.603980135
 20
17.1143262293
 30
0.0
 10
21.5919331236
 20
16.9193036831
 30
0.0
 10
21.538214911
 20
16.6298231054
 30
0.0
 10
21.4494812649
 20
16.3453013316
 30
0.0
 10
21.3479988999
 20
16.1152683055
 30
0.0
 10
21.2510893107
 20
15.9358575507
 30
0.0
 10
21.1423726453
 20
15.7572396039
 30
0.0
 10
20.986564973
 20
15.5399057712
 30
0.0
 10
20.7715227055
 20
15.2918957247
 30
0.0
 10
20.5285363938
 20
15.0556659272
 30
0.0
 10
20.2590458242
 20
14.8319946001
 30
0.0
 10
19.9644847928
 20
14.6216035612
 30
0.0
 10
19.6463459237
 20
14.425177735
 30
0.0
 10
19.3061736336
 20
14.2434251093
 30
0.0
 10
18.9456168347
 20
14.0769930008
 30
0.0
 10
18.5664041966
 20
13.9265587817
 30
0.0
 10
18.1703712341
 20
13.7927001688
 30
0.0
 10
17.617667644
 20
13.6357679932
 30
0.0
 10
16.8971924089
 20
13.4855804363
 30
0.0
 10
16.0064844175
 20
13.3802976984
 30
0.0
 10
15.0995814972
 20
13.3502557984
 30
0.0
 10
14.342940489
 20
13.3885079371
 30
0.0
 10
13.7449838665
 20
13.4573435087
 30
0.0
 10
13.3051305371
 20
13.5274804034
 30
0.0
 10
12.8747944312
 20
13.6159646173
 30
0.0
 10
12.456113771
 20
13.7223716211
 30
0.0
 10
12.0511473744
 20
13.8462462236
 30
0.0
 10
11.6618389533
 20
13.9870677797
 30
0.0
 10
11.2901717973
 20
14.1442457274
 30
0.0
 10
11.051819309
 20
14.2611925999
 30
0.0
 10
10.9362425014
 20
14.3223364371
 30
0.0
  0
SPLINE
  5
2A1
100
AcDbEntity
  8
0
100
AcDbSpline
 62
7
  6
BYLAYER
 70
0
 71
3
 72
14
 73
10
 74
0
 42
0.0000001
 43
0.0000001
 44
0.0000000001
 40
0.0
 40
0.0
 40
0.0
 40
0.0
 40
0.1055862736
 40
0.2135454494
 40
0.3260223119
 40
0.4447770502
 40
0.7053538515
 40
0.8485955753
 40
1.0
 40
1.0
 40
1.0
 40
1.0
 10
10.9362446031
 20
14.3223403469
 30
0.0
 10
10.9304983248
 20
14.3253838964
 30
0.0
 10
10.9194204012
 20
14.3326293263
 30
0.0
 10
10.9047754918
 20
14.3465055258
 30
0.0
 10
10.8921850181
 20
14.3632901292
 30
0.0
 10
10.8778473344
 20
14.3900776077
 30
0.0
 10
10.8687337179
 20
14.4213312249
 30
0.0
 10
10.8642000606
 20
14.4552405556
 30
0.0
 10
10.8634559449
 20
14.4734045449
 30
0.0
 10
10.8634559449
 20
14.4827287867
 30
0.0
  0
SPLINE
  5
2A2
100
AcDbEntity
  8
0
100
AcDbSpline
 62
7
  6
BYLAYER
 70
0
 71
3
 72
37
 73
33
 74
0
 42
0.0000001
 43
0.0000001
 44
0.0000000001
 40
0.0
 40
0.0
 40
0.0
 40
0.0
 40
0.0190515237
 40
0.0384701989
 40
0.0585328626
 40
0.0794886169
 40
0.1015163394
 40
0.1247548034
 40
0.1492854066
 40
0.1751544405
 40
0.2023695441
 40
0.2309136505
 40
0.2607445827
 40
0.2918031702
 40
0.3240132109
 40
0.357286646
 40
0.3915237765
 40
0.4266163488
 40
0.4624477928
 40
0.4988957346
 40
0.5731099781
 40
0.6482147682
 40
0.6857686849
 40
0.7231364322
 40
0.7601828643
 40
0.7967759523
 40
0.832786824
 40
0.8680909429
 40
0.9025692232
 40
0.9361146997
 40
0.9686268404
 40
1.0
 40
1.0
 40
1.0
 40
1.0
 10
20.9036462061
 20
17.1769139706
 30
0.0
 10
20.9021937875
 20
17.1062988137
 30
0.0
 10
20.8901215311
 20
16.9637404275
 30
0.0
 10
20.8449142599
 20
16.7509696793
 30
0.0
 10
20.7720628041
 20
16.5385261522
 30
0.0
 10
20.6712723062
 20
16.3271167513
 30
0.0
 10
20.5423793943
 20
16.117657044
 30
0.0
 10
20.38537084
 20
15.9114873843
 30
0.0
 10
20.2007118113
 20
15.7099458342
 30
0.0
 10
19.9890222421
 20
15.5145982127
 30
0.0
 10
19.7513544983
 20
15.3268236147
 30
0.0
 10
19.4888786132
 20
15.148086363
 30
0.0
 10
19.2030634965
 20
14.9796055261
 30
0.0
 10
18.8954616851
 20
14.8226154905
 30
0.0
 10
18.5678166065
 20
14.6781224218
 30
0.0
 10
18.22193635
 20
14.5471109855
 30
0.0
 10
17.8597483438
 20
14.4303759122
 30
0.0
 10
17.4832372937
 20
14.3286636016
 30
0.0
 10
17.0944548716
 20
14.2425657327
 30
0.0
 10
16.5593706743
 20
14.1487427984
 30
0.0
 10
15.8738689369
 20
14.0739125153
 30
0.0
 10
15.1804771561
 20
14.0558619645
 30
0.0
 10
14.6245020692
 20
14.0756756539
 30
0.0
 10
14.2105068983
 20
14.1076357035
 30
0.0
 10
13.8017592299
 20
14.1565249527
 30
0.0
 10
13.4004343863
 20
14.2220377022
 30
0.0
 10
13.008698535
 20
14.3038248678
 30
0.0
 10
12.6286656396
 20
14.4013630895
 30
0.0
 10
12.2624072586
 20
14.5141063165
 30
0.0
 10
11.9119012645
 20
14.6413362769
 30
0.0
 10
11.579151803
 20
14.7822867875
 30
0.0
 10
11.3663901938
 20
14.8866954162
 30
0.0
 10
11.2635803851
 20
14.9410851017
 30
0.0
  0
SPLINE
  5
2A3
100
AcDbEntity
  8
0
100
AcDbSpline
 62
7
  6
BYLAYER
 70
0
 71
3
 72
13
 73
9
 74
0
 42
0.0000001
 43
0.0000001
 44
0.0000000001
 40
0.0
 40
0.0
 40
0.0
 40
0.0
 40
0.1216060993
 40
0.2435427396
 40
0.3661518184
 40
0.4897503202
 40
0.741032305
 40
1.0
 40
1.0
 40
1.0
 40
1.0
 10
8.7839833455
 20
17.2107553259
 30
0.0
 10
8.7839662656
 20
17.2748252389
 30
0.0
 10
8.789135922
 20
17.4032024754
 30
0.0
 10
8.8125239103
 20
17.5948900597
 30
0.0
 10
8.8513035182
 20
17.7851500846
 30
0.0
 10
8.9236103653
 20
18.0373282085
 30
0.0
 10
9.0523661525
 20
18.3468570614
 30
0.0
 10
9.1900930724
 20
18.5788040045
 30
0.0
 10
9.2670218946
 20
18.691489669
 30
0.0
  0
SPLINE
  5
2A4
100
AcDbEntity
  8
0
100
AcDbSpline
 62
7
  6
BYLAYER
 70
0
 71
3
 72
14
 73
10
 74
0
 42
0.0000001
 43
0.0000001
 44
0.0000000001
 40
0.0
 40
0.0
 40
0.0
 40
0.0
 40
0.2593013481
 40
0.385879657
 40
0.5107735049
 40
0.6342890944
 40
0.7567692322
 40
0.8785613009
 40
1.0
 40
1.0
 40
1.0
 40
1.0
 10
21.0998619409
 20
18.7219621321
 30
0.0
 10
21.1799812067
 20
18.607422327
 30
0.0
 10
21.2885037487
 20
18.4289439598
 30
0.0
 10
21.4053066893
 20
18.1794016639
 30
0.0
 10
21.4771431303
 20
17.9902326028
 30
0.0
 10
21.5335261933
 20
17.7982033945
 30
0.0
 10
21.5740571197
 20
17.6039043664
 30
0.0
 10
21.5984863716
 20
17.4080708287
 30
0.0
 10
21.6039619078
 20
17.2768907649
 30
0.0
 10
21.6039692477
 20
17.211427519
 30
0.0
  0
SPLINE
  5
2A5
100
AcDbEntity
  8
0
100
AcDbSpline
 62
7
  6
BYLAYER
 70
0
 71
3
 72
17
 73
13
 74
0
 42
0.0000001
 43
0.0000001
 44
0.0000000001
 40
0.0
 40
0.0
 40
0.0
 40
0.0
 40
0.152335475
 40
0.2962611368
 40
0.3650404028
 40
0.4316996235
 40
0.5587413289
 40
0.6779489864
 40
0.7902100074
 40
0.8969303126
 40
0.9487928473
 40
1.0
 40
1.0
 40
1.0
 40
1.0
 10
10.9126602953
 20
15.1436591292
 30
0.0
 10
10.8068710079
 20
15.2103119853
 30
0.0
 10
10.6058912119
 20
15.3477230861
 30
0.0
 10
10.3733482503
 20
15.5373300343
 30
0.0
 10
10.2063213944
 20
15.6945555403
 30
0.0
 10
10.0568236117
 20
15.8497825944
 30
0.0
 10
9.8929547959
 20
16.048240876
 30
0.0
 10
9.7322059826
 20
16.2955508946
 30
0.0
 10
9.6109141048
 20
16.5460857815
 30
0.0
 10
9.5417962791
 20
16.7582238146
 30
0.0
 10
9.5066046842
 20
16.9269110502
 30
0.0
 10
9.4954586383
 20
17.0108682959
 30
0.0
 10
9.4914887936
 20
17.0527108726
 30
0.0
  0
SPLINE
  5
2A6
100
AcDbEntity
  8
0
100
AcDbSpline
 62
7
  6
BYLAYER
 70
0
 71
3
 72
12
 73
8
 74
0
 42
0.0000001
 43
0.0000001
 44
0.0000000001
 40
0.0
 40
0.0
 40
0.0
 40
0.0
 40
0.2846042899
 40
0.5425048143
 40
0.7774799326
 40
0.8895943928
 40
1.0
 40
1.0
 40
1.0
 40
1.0
 10
10.4680398005
 20
14.7110172396
 30
0.0
 10
10.4680398005
 20
14.6937306828
 30
0.0
 10
10.4707423286
 20
14.6606648984
 30
0.0
 10
10.4842200157
 20
14.6150054881
 30
0.0
 10
10.5034988489
 20
14.5830901465
 30
0.0
 10
10.5229648254
 20
14.5631262667
 30
0.0
 10
10.5338432266
 20
14.5549925392
 30
0.0
 10
10.5395156648
 20
14.551415841
 30
0.0
  0
SPLINE
  5
2A7
100
AcDbEntity
  8
0
100
AcDbSpline
 62
7
  6
BYLAYER
 70
0
 71
3
 72
23
 73
19
 74
0
 42
0.0000001
 43
0.0000001
 44
0.0000000001
 40
0.0
 40
0.0
 40
0.0
 40
0.0
 40
0.0442152156
 40
0.0900725005
 40
0.1389135722
 40
0.1916258885
 40
0.2486056679
 40
0.3098394956
 40
0.3749760427
 40
0.443408816
 40
0.5143430181
 40
0.5868585354
 40
0.6599577772
 40
0.7326086404
 40
0.8037918605
 40
0.8726194424
 40
0.9382879627
 40
1.0
 40
1.0
 40
1.0
 40
1.0
 10
10.9126561031
 20
15.1436525072
 30
0.0
 10
10.9037887798
 20
15.1492437077
 30
0.0
 10
10.8842083904
 20
15.1583910312
 30
0.0
 10
10.8516316465
 20
15.1648426905
 30
0.0
 10
10.8164520055
 20
15.1641486266
 30
0.0
 10
10.7794777676
 20
15.1564435911
 30
0.0
 10
10.7414670086
 20
15.1419837015
 30
0.0
 10
10.7031974305
 20
15.1211232213
 30
0.0
 10
10.6654715313
 20
15.0943140057
 30
0.0
 10
10.6290766255
 20
15.0621534827
 30
0.0
 10
10.5948089843
 20
15.0253191765
 30
0.0
 10
10.5633881234
 20
14.9846269987
 30
0.0
 10
10.5355246569
 20
14.9409397788
 30
0.0
 10
10.511789748
 20
14.895233035
 30
0.0
 10
10.4927280318
 20
14.8484766746
 30
0.0
 10
10.4787251528
 20
14.8016780233
 30
0.0
 10
10.4701434717
 20
14.7558698733
 30
0.0
 10
10.4680398005
 20
14.7256484109
 30
0.0
 10
10.4680398005
 20
14.7110172396
 30
0.0
  0
SPLINE
  5
2A8
100
AcDbEntity
  8
0
100
AcDbSpline
 62
7
  6
BYLAYER
 70
0
 71
3
 72
23
 73
19
 74
0
 42
0.0000001
 43
0.0000001
 44
0.0000000001
 40
0.0
 40
0.0
 40
0.0
 40
0.0
 40
0.0558326928
 40
0.1141816028
 40
0.1747819401
 40
0.2373524015
 40
0.3015477134
 40
0.3669909354
 40
0.4332809915
 40
0.499998411
 40
0.5667157148
 40
0.6330057942
 40
0.6984496798
 40
0.7626450451
 40
0.825215617
 40
0.8858199678
 40
0.9441612766
 40
1.0
 40
1.0
 40
1.0
 40
1.0
 10
16.378368427
 20
38.5239699094
 30
0.0
 10
16.5110233771
 20
38.4473832708
 30
0.0
 10
16.7756047394
 20
38.2789134011
 30
0.0
 10
17.1593639322
 20
37.9907286361
 30
0.0
 10
17.535614939
 20
37.6638771562
 30
0.0
 10
17.9007409908
 20
37.301555151
 30
0.0
 10
18.2512871167
 20
36.9071786013
 30
0.0
 10
18.5839056265
 20
36.4845290968
 30
0.0
 10
18.8954221624
 20
36.0376468295
 30
0.0
 10
19.1828473538
 20
35.5707985471
 30
0.0
 10
19.4434373762
 20
35.0884571256
 30
0.0
 10
19.6747026022
 20
34.5952388152
 30
0.0
 10
19.8744253543
 20
34.0958582285
 30
0.0
 10
20.0406921167
 20
33.5950857669
 30
0.0
 10
20.1719216988
 20
33.0977077282
 30
0.0
 10
20.2668580994
 20
32.6084490742
 30
0.0
 10
20.3245751393
 20
32.1320071078
 30
0.0
 10
20.3381763309
 20
31.8186418043
 30
0.0
 10
20.3381774149
 20
31.6654493833
 30
0.0
  0
SPLINE
  5
2A9
100
AcDbEntity
  8
0
100
AcDbSpline
 62
7
  6
BYLAYER
 70
0
 71
3
 72
14
 73
10
 74
0
 42
0.0000001
 43
0.0000001
 44
0.0000000001
 40
0.0
 40
0.0
 40
0.0
 40
0.0
 40
0.2641696658
 40
0.3916847198
 40
0.5166105114
 40
0.6393968334
 40
0.7605344749
 40
0.8805505627
 40
1.0
 40
1.0
 40
1.0
 40
1.0
 10
15.7274237274
 20
27.3835624308
 30
0.0
 10
15.8475320881
 20
27.3719613897
 30
0.0
 10
16.0271132334
 20
27.3661572494
 30
0.0
 10
16.2625418782
 20
27.3844931029
 30
0.0
 10
16.4320992458
 20
27.4107435715
 30
0.0
 10
16.5962264855
 20
27.4495802314
 30
0.0
 10
16.7545421826
 20
27.5009185776
 30
0.0
 10
16.9066252164
 20
27.5646580217
 30
0.0
 10
17.0037237554
 20
27.6153556831
 30
0.0
 10
17.0509768967
 20
27.6426349802
 30
0.0
  0
SPLINE
  5
2AA
100
AcDbEntity
  8
0
100
AcDbSpline
 62
7
  6
BYLAYER
 70
0
 71
3
 72
15
 73
11
 74
0
 42
0.0000001
 43
0.0000001
 44
0.0000000001
 40
0.0
 40
0.0
 40
0.0
 40
0.0
 40
0.110970942
 40
0.2277741303
 40
0.3496774829
 40
0.4757712268
 40
0.6050123799
 40
0.7362642008
 40
0.8683323538
 40
1.0
 40
1.0
 40
1.0
 40
1.0
 10
10.0497615846
 20
34.87004545
 30
0.0
 10
10.0497629381
 20
34.6855215221
 30
0.0
 10
10.0695526831
 20
34.3065918314
 30
0.0
 10
10.1525121175
 20
33.730413094
 30
0.0
 10
10.2883808121
 20
33.1385619251
 30
0.0
 10
10.475288351
 20
32.5391782357
 30
0.0
 10
10.710671086
 20
31.9404271908
 30
0.0
 10
10.9913082811
 20
31.3505033604
 30
0.0
 10
11.3133287279
 20
30.7775259011
 30
0.0
 10
11.5538086819
 20
30.4103140355
 30
0.0
 10
11.6800246296
 20
30.2314183148
 30
0.0
  0
SPLINE
  5
2AB
100
AcDbEntity
  8
0
100
AcDbSpline
 62
7
  6
BYLAYER
 70
0
 71
3
 72
19
 73
15
 74
0
 42
0.0000001
 43
0.0000001
 44
0.0000000001
 40
0.0
 40
0.0
 40
0.0
 40
0.0
 40
0.1485590453
 40
0.2199729026
 40
0.2894530201
 40
0.4226336005
 40
0.5485138125
 40
0.6678348872
 40
0.7254156562
 40
0.7818190806
 40
0.8372473978
 40
0.8919246631
 40
0.9460916196
 40
1.0
 40
1.0
 40
1.0
 40
1.0
 10
20.3381803303
 20
31.5021527572
 30
0.0
 10
20.3381814189
 20
31.3510786695
 30
0.0
 10
20.3289406539
 20
31.1271762033
 30
0.0
 10
20.2958254068
 20
30.8345946176
 30
0.0
 10
20.2507628963
 20
30.5594527745
 30
0.0
 10
20.1711834237
 20
30.2342056523
 30
0.0
 10
20.0362614272
 20
29.8728480031
 30
0.0
 10
19.8911428174
 20
29.6000326619
 30
0.0
 10
19.7571727548
 20
29.4039874553
 30
0.0
 10
19.6493413466
 20
29.2693979631
 30
0.0
 10
19.5332266487
 20
29.1459043123
 30
0.0
 10
19.4091012617
 20
29.0338136427
 30
0.0
 10
19.2772991583
 20
28.9334009365
 30
0.0
 10
19.1844106262
 20
28.8743640016
 30
0.0
 10
19.1369332165
 20
28.8469552341
 30
0.0
  0
SPLINE
  5
2AC
100
AcDbEntity
  8
0
100
AcDbSpline
 62
7
  6
BYLAYER
 70
0
 71
3
 72
19
 73
15
 74
0
 42
0.0000001
 43
0.0000001
 44
0.0000000001
 40
0.0
 40
0.0
 40
0.0
 40
0.0
 40
0.0539083804
 40
0.1080753369
 40
0.1627526022
 40
0.2181809194
 40
0.2745843438
 40
0.3321651128
 40
0.4514861875
 40
0.5773663995
 40
0.7105469799
 40
0.7800270974
 40
0.8514409547
 40
1.0
 40
1.0
 40
1.0
 40
1.0
 10
11.2510057829
 20
37.6885395973
 30
0.0
 10
11.2035283732
 20
37.6611308298
 30
0.0
 10
11.1106398411
 20
37.6020938949
 30
0.0
 10
10.9788377377
 20
37.5016811886
 30
0.0
 10
10.8547123507
 20
37.3895905191
 30
0.0
 10
10.7385976528
 20
37.2660968683
 30
0.0
 10
10.6307662446
 20
37.1315073761
 30
0.0
 10
10.496796182
 20
36.9354621695
 30
0.0
 10
10.3516775722
 20
36.6626468283
 30
0.0
 10
10.2167555757
 20
36.3012891791
 30
0.0
 10
10.1371761031
 20
35.9760420569
 30
0.0
 10
10.0921135926
 20
35.7009002138
 30
0.0
 10
10.0589983455
 20
35.4083186281
 30
0.0
 10
10.0497575805
 20
35.1844161619
 30
0.0
 10
10.0497586691
 20
35.0333420742
 30
0.0
  0
SPLINE
  5
2AD
100
AcDbEntity
  8
0
100
AcDbSpline
 62
7
  6
BYLAYER
 70
0
 71
3
 72
19
 73
15
 74
0
 42
0.0000001
 43
0.0000001
 44
0.0000000001
 40
0.0
 40
0.0
 40
0.0
 40
0.0
 40
0.0539080156
 40
0.1080741658
 40
0.1627511787
 40
0.218179003
 40
0.2745809504
 40
0.3321614421
 40
0.4514805813
 40
0.5135778248
 40
0.5774206537
 40
0.7105910748
 40
0.8514606745
 40
1.0
 40
1.0
 40
1.0
 40
1.0
 10
13.3369621027
 20
38.8928598512
 30
0.0
 10
13.3844380975
 20
38.9202678019
 30
0.0
 10
13.4820082137
 20
38.9711868445
 30
0.0
 10
13.6348572063
 20
39.0351402247
 30
0.0
 10
13.7939938117
 20
39.0865733608
 30
0.0
 10
13.9589919579
 20
39.1253851788
 30
0.0
 10
14.129459533
 20
39.151489328
 30
0.0
 10
14.3662071143
 20
39.1694672503
 30
0.0
 10
14.610031155
 20
39.1610177885
 30
0.0
 10
14.8573734586
 20
39.1281427314
 30
0.0
 10
15.1160650722
 20
39.0772546148
 30
0.0
 10
15.4466872593
 20
38.9808733343
 30
0.0
 10
15.8449884657
 20
38.8178517073
 30
0.0
 10
16.1061333023
 20
38.6811455578
 30
0.0
 10
16.2369476596
 20
38.605621562
 30
0.0
  0
SPLINE
  5
2AE
100
AcDbEntity
  8
0
100
AcDbSpline
 62
7
  6
BYLAYER
 70
0
 71
3
 72
23
 73
19
 74
0
 42
0.0000001
 43
0.0000001
 44
0.0000000001
 40
0.0
 40
0.0
 40
0.0
 40
0.0
 40
0.056361158
 40
0.1150393633
 40
0.1757989117
 40
0.2383691034
 40
0.3024280834
 40
0.3676285454
 40
0.4336026449
 40
0.4999676212
 40
0.5663337462
 40
0.6323116927
 40
0.6975187085
 40
0.7615859657
 40
0.824166477
 40
0.8849418021
 40
0.9436308361
 40
1.0
 40
1.0
 40
1.0
 40
1.0
 10
16.3734814175
 20
38.5241656834
 30
0.0
 10
16.504714474
 20
38.4433457995
 30
0.0
 10
16.7660491448
 20
38.2675903394
 30
0.0
 10
17.1448859845
 20
37.9710545253
 30
0.0
 10
17.515715803
 20
37.6385574514
 30
0.0
 10
17.8752998994
 20
37.2730393629
 30
0.0
 10
18.2204966066
 20
36.877660221
 30
0.0
 10
18.5482882397
 20
36.4559037627
 30
0.0
 10
18.8558071739
 20
36.0114665304
 30
0.0
 10
19.1403446287
 20
35.5482372695
 30
0.0
 10
19.3994119135
 20
35.0702851813
 30
0.0
 10
19.6307418154
 20
34.5818050398
 30
0.0
 10
19.8322945934
 20
34.0870756268
 30
0.0
 10
20.002305561
 20
33.5904334165
 30
0.0
 10
20.1392933721
 20
33.0962324007
 30
0.0
 10
20.2420485185
 20
32.6087783571
 30
0.0
 10
20.3096563689
 20
32.1323648062
 30
0.0
 10
20.3313749158
 20
31.8181251099
 30
0.0
 10
20.3358238049
 20
31.6640442059
 30
0.0
  0
SPLINE
  5
2AF
100
AcDbEntity
  8
0
100
AcDbSpline
 62
7
  6
BYLAYER
 70
0
 71
3
 72
19
 73
15
 74
0
 42
0.0000001
 43
0.0000001
 44
0.0000000001
 40
0.0
 40
0.0
 40
0.0
 40
0.0
 40
0.1485393255
 40
0.2894089252
 40
0.4225793463
 40
0.4864221752
 40
0.5485194187
 40
0.6678385579
 40
0.7254190496
 40
0.781820997
 40
0.8372488213
 40
0.8919258342
 40
0.9460919844
 40
1.0
 40
1.0
 40
1.0
 40
1.0
 10
14.1509913398
 20
37.4013013081
 30
0.0
 10
14.0201769825
 20
37.4768253039
 30
0.0
 10
13.7590321459
 20
37.6135314534
 30
0.0
 10
13.3607309395
 20
37.7765530804
 30
0.0
 10
13.0301087525
 20
37.8729343609
 30
0.0
 10
12.7714171389
 20
37.9238224775
 30
0.0
 10
12.5240748352
 20
37.9566975346
 30
0.0
 10
12.2802507945
 20
37.9651469964
 30
0.0
 10
12.0435032132
 20
37.9471690741
 30
0.0
 10
11.8730356382
 20
37.9210649249
 30
0.0
 10
11.7080374919
 20
37.8822531069
 30
0.0
 10
11.5489008866
 20
37.8308199708
 30
0.0
 10
11.396051894
 20
37.7668665906
 30
0.0
 10
11.2984817777
 20
37.715947548
 30
0.0
 10
11.2510057829
 20
37.6885395973
 30
0.0
  0
SPLINE
  5
2B0
100
AcDbEntity
  8
0
100
AcDbSpline
 62
7
  6
BYLAYER
 70
0
 71
3
 72
30
 73
26
 74
0
 42
0.0000001
 43
0.0000001
 44
0.0000000001
 40
0.0
 40
0.0
 40
0.0
 40
0.0
 40
0.0262958591
 40
0.051936604
 40
0.0770273226
 40
0.1016873073
 40
0.1260466054
 40
0.1502445325
 40
0.1744247452
 40
0.1987317239
 40
0.2233058082
 40
0.248280213
 40
0.2737767907
 40
0.299904097
 40
0.3267563888
 40
0.3544109565
 40
0.4123309717
 40
0.4740190029
 40
0.5395735753
 40
0.6089076239
 40
0.6817807016
 40
0.7578276454
 40
0.8365837587
 40
0.9175074977
 40
1.0
 40
1.0
 40
1.0
 40
1.0
 10
15.7323744298
 20
27.4723210056
 30
0.0
 10
15.7965695991
 20
27.4710782495
 30
0.0
 10
15.9235204924
 20
27.4734991918
 30
0.0
 10
16.1108476645
 20
27.4925522699
 30
0.0
 10
16.2919332647
 20
27.5269603098
 30
0.0
 10
16.4662089775
 20
27.5765976641
 30
0.0
 10
16.6331215172
 20
27.641364423
 30
0.0
 10
16.7921475926
 20
27.7210428195
 30
0.0
 10
16.9427871623
 20
27.8153868959
 30
0.0
 10
17.0845499424
 20
27.92411595
 30
0.0
 10
17.2170216397
 20
28.0468493027
 30
0.0
 10
17.3397713716
 20
28.1832235028
 30
0.0
 10
17.4524522713
 20
28.3327854954
 30
0.0
 10
17.5547341093
 20
28.4950690624
 30
0.0
 10
17.6463079976
 20
28.6695872093
 30
0.0
 10
17.7554824053
 20
28.9216936704
 30
0.0
 10
17.862688051
 20
29.2661395029
 30
0.0
 10
17.942996275
 20
29.7120449884
 30
0.0
 10
17.9762900484
 20
30.1917292219
 30
0.0
 10
17.9622972349
 20
30.699538715
 30
0.0
 10
17.9012651505
 20
31.2295651942
 30
0.0
 10
17.7939509408
 20
31.7755782498
 30
0.0
 10
17.6416434151
 20
32.3311491879
 30
0.0
 10
17.4461660735
 20
32.8896750544
 30
0.0
 10
17.2896808378
 20
33.2570868666
 30
0.0
 10
17.2048916474
 20
33.4397952364
 30
0.0
  0
SPLINE
  5
2B1
100
AcDbEntity
  8
0
100
AcDbSpline
 62
7
  6
BYLAYER
 70
0
 71
3
 72
16
 73
12
 74
0
 42
0.0000001
 43
0.0000001
 44
0.0000000001
 40
0.0
 40
0.0
 40
0.0
 40
0.0
 40
0.1317065934
 40
0.2637865861
 40
0.3950303498
 40
0.5242504595
 40
0.6503206362
 40
0.7721993565
 40
0.8889981676
 40
0.9452767332
 40
1.0
 40
1.0
 40
1.0
 40
1.0
 10
17.2048916474
 20
33.4397952364
 30
0.0
 10
17.1129960651
 20
33.6378168471
 30
0.0
 10
16.9152060844
 20
34.0282007928
 30
0.0
 10
16.5802685977
 20
34.5913686888
 30
0.0
 10
16.2102679112
 20
35.127196652
 30
0.0
 10
15.8102662134
 20
35.6283490835
 30
0.0
 10
15.3856873703
 20
36.0880088142
 30
0.0
 10
14.9423267612
 20
36.4999236734
 30
0.0
 10
14.557424627
 20
36.802475699
 30
0.0
 10
14.2451137964
 20
37.0148805177
 30
0.0
 10
14.0881235333
 20
37.1110004467
 30
0.0
 10
14.0095705724
 20
37.1563519939
 30
0.0
  0
SPLINE
  5
2B2
100
AcDbEntity
  8
0
100
AcDbSpline
 62
7
  6
BYLAYER
 70
0
 71
3
 72
33
 73
29
 74
0
 42
0.0000001
 43
0.0000001
 44
0.0000000001
 40
0.0
 40
0.0
 40
0.0
 40
0.0
 40
0.074676293
 40
0.1455911198
 40
0.1796326462
 40
0.2127457458
 40
0.2449582448
 40
0.2763069455
 40
0.3365776983
 40
0.3656659078
 40
0.3941521347
 40
0.42213138
 40
0.449708329
 40
0.4769955217
 40
0.5041125713
 40
0.5311825226
 40
0.5583296747
 40
0.5856764742
 40
0.6133407418
 40
0.6414340815
 40
0.6700583574
 40
0.6993056209
 40
0.7292572095
 40
0.7915045706
 40
0.8239342811
 40
0.8572728157
 40
0.926739757
 40
1.0
 40
1.0
 40
1.0
 40
1.0
 10
14.0095705724
 20
37.1563519939
 30
0.0
 10
13.8861120146
 20
37.2276292129
 30
0.0
 10
13.6396514021
 20
37.3569404316
 30
0.0
 10
13.3221844055
 20
37.4881016176
 30
0.0
 10
13.0714130122
 20
37.5696088268
 30
0.0
 10
12.8880193088
 20
37.6184575723
 30
0.0
 10
12.7071523141
 20
37.6557301361
 30
0.0
 10
12.4730800306
 20
37.6894618147
 30
0.0
 10
12.2420969651
 20
37.7007532065
 30
0.0
 10
12.0173456889
 20
37.6877344596
 30
0.0
 10
11.855273931
 20
37.6663113419
 30
0.0
 10
11.6981370131
 20
37.6331549116
 30
0.0
 10
11.5462909528
 20
37.5883530357
 30
0.0
 10
11.4001089376
 20
37.5319747623
 30
0.0
 10
11.2599370734
 20
37.4641659228
 30
0.0
 10
11.1261045021
 20
37.3850943662
 30
0.0
 10
10.9989474051
 20
37.2949242659
 30
0.0
 10
10.8787543803
 20
37.1938957936
 30
0.0
 10
10.7658047631
 20
37.0822523786
 30
0.0
 10
10.6603786218
 20
36.9602467656
 30
0.0
 10
10.5626954881
 20
36.828193494
 30
0.0
 10
10.4729778817
 20
36.6863906337
 30
0.0
 10
10.3628728495
 20
36.4821944331
 30
0.0
 10
10.2712192979
 20
36.2618281902
 30
0.0
 10
10.1975481494
 20
36.0287233865
 30
0.0
 10
10.1336592678
 20
35.778455901
 30
0.0
 10
10.0770004199
 20
35.4465406825
 30
0.0
 10
10.056849473
 20
35.1744042282
 30
0.0
 10
10.0523716876
 20
35.0346223097
 30
0.0
  0
SPLINE
  5
2B3
100
AcDbEntity
  8
0
100
AcDbSpline
 62
7
  6
BYLAYER
 70
0
 71
3
 72
37
 73
33
 74
0
 42
0.0000001
 43
0.0000001
 44
0.0000000001
 40
0.0
 40
0.0
 40
0.0
 40
0.0
 40
0.0106535703
 40
0.0213359574
 40
0.0320755484
 40
0.0428999093
 40
0.0648982101
 40
0.0875355626
 40
0.1109776123
 40
0.1353564427
 40
0.1607714827
 40
0.1872882381
 40
0.2149433503
 40
0.2437446148
 40
0.2736767731
 40
0.3047020374
 40
0.3367647764
 40
0.369792657
 40
0.4036996944
 40
0.4383881085
 40
0.5096511087
 40
0.582651269
 40
0.656358351
 40
0.7297111111
 40
0.7659345479
 40
0.8016814267
 40
0.8368316087
 40
0.8712710754
 40
0.904893326
 40
0.9376091126
 40
0.9693402366
 40
1.0
 40
1.0
 40
1.0
 40
1.0
 10
17.0509768967
 20
27.6426349802
 30
0.0
 10
17.0865765073
 20
27.6631866795
 30
0.0
 10
17.1565788729
 20
27.7066343466
 30
0.0
 10
17.2574246247
 20
27.7785116011
 30
0.0
 10
17.3540521812
 20
27.8570278419
 30
0.0
 10
17.4777231748
 20
27.970990465
 30
0.0
 10
17.6213995841
 20
28.1303313923
 30
0.0
 10
17.773723287
 20
28.344993793
 30
0.0
 10
17.9061648896
 20
28.5829888827
 30
0.0
 10
18.0180940089
 20
28.8429345603
 30
0.0
 10
18.1089314282
 20
29.1234237411
 30
0.0
 10
18.1782904539
 20
29.4229219935
 30
0.0
 10
18.2257965035
 20
29.7398306253
 30
0.0
 10
18.2512659405
 20
30.0724490959
 30
0.0
 10
18.2545512025
 20
30.4190002983
 30
0.0
 10
18.235672288
 20
30.7776297732
 30
0.0
 10
18.1947262871
 20
31.1464149194
 30
0.0
 10
18.1319430724
 20
31.5233741718
 30
0.0
 10
18.0476688454
 20
31.906491237
 30
0.0
 10
17.905976371
 20
32.4273754998
 30
0.0
 10
17.6776114089
 20
33.0800993697
 30
0.0
 10
17.3308212703
 20
33.8474072571
 30
0.0
 10
16.9161834918
 20
34.5895059914
 30
0.0
 10
16.5197561716
 20
35.1762746031
 30
0.0
 10
16.1760555242
 20
35.619496105
 30
0.0
 10
15.908379985
 20
35.9346176034
 30
0.0
 10
15.6312133044
 20
36.23208282
 30
0.0
 10
15.3460564419
 20
36.5102965618
 30
0.0
 10
15.0544343676
 20
36.7677563298
 30
0.0
 10
14.7578948476
 20
37.0031008797
 30
0.0
 10
14.4580596368
 20
37.2149931057
 30
0.0
 10
14.2534413735
 20
37.3421530917
 30
0.0
 10
14.1509913398
 20
37.4013013081
 30
0.0
  0
SPLINE
  5
2B4
100
AcDbEntity
  8
0
100
AcDbSpline
 62
7
  6
BYLAYER
 70
0
 71
3
 72
15
 73
11
 74
0
 42
0.0000001
 43
0.0000001
 44
0.0000000001
 40
0.0
 40
0.0
 40
0.0
 40
0.0
 40
0.1240745916
 40
0.2479239992
 40
0.37200645
 40
0.4963907208
 40
0.6211279039
 40
0.7464337075
 40
0.8725648241
 40
1.0
 40
1.0
 40
1.0
 40
1.0
 10
8.3894483552
 20
22.6728568171
 30
0.0
 10
8.3894483552
 20
22.7858039072
 30
0.0
 10
8.4011638518
 20
23.0116676733
 30
0.0
 10
8.453564362
 20
23.3468050976
 30
0.0
 10
8.5397335143
 20
23.6751842097
 30
0.0
 10
8.6579440138
 20
23.9942560585
 30
0.0
 10
8.8065498923
 20
24.3015510102
 30
0.0
 10
8.9831453132
 20
24.5954648686
 30
0.0
 10
9.1858264103
 20
24.8750012095
 30
0.0
 10
9.3362769048
 20
25.0504291984
 30
0.0
 10
9.415087092
 20
25.1355550597
 30
0.0
  0
SPLINE
  5
2B5
100
AcDbEntity
  8
0
100
AcDbSpline
 62
7
  6
BYLAYER
 70
0
 71
3
 72
9
 73
5
 74
0
 42
0.0000001
 43
0.0000001
 44
0.0000000001
 40
0.0
 40
0.0
 40
0.0
 40
0.0
 40
0.4963528117
 40
1.0
 40
1.0
 40
1.0
 40
1.0
 10
21.0439653066
 20
17.7827790749
 30
0.0
 10
21.0439609092
 20
17.685286888
 30
0.0
 10
21.0291398334
 20
17.4885956768
 30
0.0
 10
20.9853623083
 20
17.2963267675
 30
0.0
 10
20.956713846
 20
17.2016409351
 30
0.0
  0
SPLINE
  5
2B6
100
AcDbEntity
  8
0
100
AcDbSpline
 62
7
  6
BYLAYER
 70
0
 71
3
 72
15
 73
11
 74
0
 42
0.0000001
 43
0.0000001
 44
0.0000000001
 40
0.0
 40
0.0
 40
0.0
 40
0.0
 40
0.1083961682
 40
0.2203808585
 40
0.3367543733
 40
0.4581396667
 40
0.5849689311
 40
0.7175100447
 40
0.8558637201
 40
1.0
 40
1.0
 40
1.0
 40
1.0
 10
20.956713846
 20
17.2016409351
 30
0.0
 10
20.9306864227
 20
17.1156178805
 30
0.0
 10
20.8666021961
 20
16.943923101
 30
0.0
 10
20.7384265747
 20
16.6952241745
 30
0.0
 10
20.5777980967
 20
16.453135264
 30
0.0
 10
20.3856944817
 20
16.219123784
 30
0.0
 10
20.1633428376
 20
15.9944343579
 30
0.0
 10
19.9120156963
 20
15.7803762275
 30
0.0
 10
19.6332488225
 20
15.5781027933
 30
0.0
 10
19.4341231927
 20
15.4543700669
 30
0.0
 10
19.3306274445
 20
15.3946150624
 30
0.0
  0
SPLINE
  5
2B7
100
AcDbEntity
  8
0
100
AcDbSpline
 62
7
  6
BYLAYER
 70
0
 71
3
 72
31
 73
27
 74
0
 42
0.0000001
 43
0.0000001
 44
0.0000000001
 40
0.0
 40
0.0
 40
0.0
 40
0.0
 40
0.021354907
 40
0.0431625735
 40
0.0655978652
 40
0.0888095627
 40
0.1129170792
 40
0.1380106167
 40
0.1641507449
 40
0.1913724115
 40
0.2196846968
 40
0.2490766575
 40
0.3109311938
 40
0.3765259683
 40
0.445215293
 40
0.5162043062
 40
0.5885967262
 40
0.6614378982
 40
0.7337545464
 40
0.8045954114
 40
0.8391900196
 40
0.8730880787
 40
0.9061955836
 40
0.9384347477
 40
0.9697305277
 40
1.0
 40
1.0
 40
1.0
 40
1.0
 10
21.0215645669
 20
15.6095431851
 30
0.0
 10
21.0093962493
 20
15.5294719823
 30
0.0
 10
20.9748600974
 20
15.3689856265
 30
0.0
 10
20.8942521731
 20
15.1330758702
 30
0.0
 10
20.784886931
 20
14.9012419912
 30
0.0
 10
20.6474160288
 20
14.6746913289
 30
0.0
 10
20.4825925962
 20
14.4545179859
 30
0.0
 10
20.2912800978
 20
14.2418018542
 30
0.0
 10
20.0744792807
 20
14.0375485879
 30
0.0
 10
19.8332696704
 20
13.842772802
 30
0.0
 10
19.5688793263
 20
13.6583779939
 30
0.0
 10
19.1806084016
 20
13.423655236
 30
0.0
 10
18.6441439006
 20
13.1633995099
 30
0.0
 10
17.9431899887
 20
12.9108611998
 30
0.0
 10
17.1878866653
 20
12.7176686076
 30
0.0
 10
16.3931769114
 20
12.5876264489
 30
0.0
 10
15.5747290037
 20
12.5232797543
 30
0.0
 10
14.7487320605
 20
12.5259058432
 30
0.0
 10
13.9315889981
 20
12.5954466576
 30
0.0
 10
13.2661244566
 20
12.7089132562
 30
0.0
 10
12.7521975593
 20
12.8325544237
 30
0.0
 10
12.3819778097
 20
12.9399312479
 30
0.0
 10
12.0258271488
 20
13.0621769853
 30
0.0
 10
11.6854823491
 20
13.1986740503
 30
0.0
 10
11.3627366034
 20
13.3487515676
 30
0.0
 10
11.156832217
 20
13.4591962548
 30
0.0
 10
11.057412052
 20
13.5165952153
 30
0.0
  0
SPLINE
  5
2B8
100
AcDbEntity
  8
0
100
AcDbSpline
 62
7
  6
BYLAYER
 70
0
 71
3
 72
15
 73
11
 74
0
 42
0.0000001
 43
0.0000001
 44
0.0000000001
 40
0.0
 40
0.0
 40
0.0
 40
0.0
 40
0.1466312261
 40
0.2865466197
 40
0.4196208845
 40
0.5461119074
 40
0.6665103226
 40
0.7815536959
 40
0.892282722
 40
1.0
 40
1.0
 40
1.0
 40
1.0
 10
11.057412052
 20
13.5165952153
 30
0.0
 10
10.9388948902
 20
13.5850195826
 30
0.0
 10
10.7121433433
 20
13.7274297063
 30
0.0
 10
10.3985344687
 20
13.9628021107
 30
0.0
 10
10.1216961191
 20
14.2134065056
 30
0.0
 10
9.8838433675
 20
14.477337364
 30
0.0
 10
9.6868111575
 20
14.752674861
 30
0.0
 10
9.5323244185
 20
15.0374734239
 30
0.0
 10
9.421750471
 20
15.3294487385
 30
0.0
 10
9.3776598937
 20
15.5294066415
 30
0.0
 10
9.3635260769
 20
15.6289407844
 30
0.0
  0
SPLINE
  5
2B9
100
AcDbEntity
  8
0
100
AcDbSpline
 62
7
  6
BYLAYER
 70
0
 71
3
 72
17
 73
13
 74
0
 42
0.0000001
 43
0.0000001
 44
0.0000000001
 40
0.0
 40
0.0
 40
0.0
 40
0.0
 40
0.1485524341
 40
0.2894553588
 40
0.4226456821
 40
0.548538939
 40
0.6678768316
 40
0.7817928497
 40
0.8372274585
 40
0.8919114701
 40
0.9460850954
 40
1.0
 40
1.0
 40
1.0
 40
1.0
 10
11.057412052
 20
15.3945507747
 30
0.0
 10
10.9254767933
 20
15.4707219086
 30
0.0
 10
10.6743681101
 20
15.629887151
 30
0.0
 10
10.3310635044
 20
15.8955946736
 30
0.0
 10
10.0341226718
 20
16.1798151083
 30
0.0
 10
9.7865200413
 20
16.4799531639
 30
0.0
 10
9.5907579697
 20
16.7932802881
 30
0.0
 10
9.4715659086
 20
17.0656733665
 30
0.0
 10
9.405253876
 20
17.2858749602
 30
0.0
 10
9.3699361121
 20
17.4508229112
 30
0.0
 10
9.3486933551
 20
17.6165816162
 30
0.0
 10
9.3439711988
 20
17.7274877681
 30
0.0
 10
9.3439736928
 20
17.7827790748
 30
0.0
  0
SPLINE
  5
2BA
100
AcDbEntity
  8
0
100
AcDbSpline
 62
7
  6
BYLAYER
 70
0
 71
3
 72
15
 73
11
 74
0
 42
0.0000001
 43
0.0000001
 44
0.0000000001
 40
0.0
 40
0.0
 40
0.0
 40
0.0
 40
0.1274355157
 40
0.2535656811
 40
0.3788709907
 40
0.5036079801
 40
0.6279918111
 40
0.7520735776
 40
0.8759249007
 40
1.0
 40
1.0
 40
1.0
 40
1.0
 10
20.9728519074
 20
25.1355550597
 30
0.0
 10
21.0516623051
 20
25.050428971
 30
0.0
 10
21.20211262
 20
24.8750015482
 30
0.0
 10
21.4047928186
 20
24.5954658056
 30
0.0
 10
21.5813878358
 20
24.3015534567
 30
0.0
 10
21.7299932912
 20
23.9942594294
 30
0.0
 10
21.8482040474
 20
23.6751890193
 30
0.0
 10
21.9343748863
 20
23.3468095175
 30
0.0
 10
21.9867736672
 20
23.0116702276
 30
0.0
 10
21.9984906442
 20
22.7858043698
 30
0.0
 10
21.9984906442
 20
22.6728568171
 30
0.0
  0
SPLINE
  5
2BB
100
AcDbEntity
  8
0
100
AcDbSpline
 62
7
  6
BYLAYER
 70
0
 71
3
 72
9
 73
5
 74
0
 42
0.0000001
 43
0.0000001
 44
0.0000000001
 40
0.0
 40
0.0
 40
0.0
 40
0.0
 40
0.2431511155
 40
1.0
 40
1.0
 40
1.0
 40
1.0
 10
19.3706528675
 20
15.3760769616
 30
0.0
 10
19.3361401482
 20
15.3484554022
 30
0.0
 10
19.1922016522
 20
15.2373653697
 30
0.0
 10
19.0406977651
 20
15.1361806741
 30
0.0
 10
18.923028684
 20
15.0648611142
 30
0.0
  0
SPLINE
  5
2BC
100
AcDbEntity
  8
0
100
AcDbSpline
 62
7
  6
BYLAYER
 70
0
 71
3
 72
23
 73
19
 74
0
 42
0.0000001
 43
0.0000001
 44
0.0000000001
 40
0.0
 40
0.0
 40
0.0
 40
0.0
 40
0.0552863491
 40
0.1131551873
 40
0.1733754304
 40
0.2356556015
 40
0.2996552352
 40
0.3649943593
 40
0.4312655997
 40
0.4980423446
 40
0.564887601
 40
0.6313634311
 40
0.6970386123
 40
0.7614998946
 40
0.8243558882
 40
0.8852505576
 40
0.9438941561
 40
1.0
 40
1.0
 40
1.0
 40
1.0
 10
18.923028684
 20
15.0648611142
 30
0.0
 10
18.8025854563
 20
14.9918601362
 30
0.0
 10
18.5492557547
 20
14.8534792318
 30
0.0
 10
18.1456493439
 20
14.6731382133
 30
0.0
 10
17.7132033976
 20
14.5167088044
 30
0.0
 10
17.2561615667
 20
14.3857238947
 30
0.0
 10
16.7789608505
 20
14.2814641654
 30
0.0
 10
16.2862656548
 20
14.2049281846
 30
0.0
 10
15.7828882182
 20
14.1568606275
 30
0.0
 10
15.2737491175
 20
14.1377501405
 30
0.0
 10
14.7638298833
 20
14.1477667683
 30
0.0
 10
14.2581184495
 20
14.1868103081
 30
0.0
 10
13.761559506
 20
14.254516512
 30
0.0
 10
13.2790078229
 20
14.3502143841
 30
0.0
 10
12.8151815
 20
14.4729578986
 30
0.0
 10
12.374556801
 20
14.6215842678
 30
0.0
 10
11.9615205586
 20
14.7946480554
 30
0.0
 10
11.7011102675
 20
14.9282972803
 30
0.0
 10
11.5769191164
 20
14.9990409661
 30
0.0
  0
SPLINE
  5
2BD
100
AcDbEntity
  8
0
100
AcDbSpline
 62
7
  6
BYLAYER
 70
0
 71
3
 72
34
 73
30
 74
0
 42
0.0000001
 43
0.0000001
 44
0.0000000001
 40
0.0
 40
0.0
 40
0.0
 40
0.0
 40
0.0300034226
 40
0.0609981277
 40
0.0929072266
 40
0.125661848
 40
0.1591894819
 40
0.1934019403
 40
0.2282026706
 40
0.2634897072
 40
0.2991571297
 40
0.3350946648
 40
0.4073122283
 40
0.4792417678
 40
0.5499790887
 40
0.6186667916
 40
0.6520052509
 40
0.6845509697
 40
0.716227542
 40
0.7469691836
 40
0.7767229981
 40
0.8054498261
 40
0.8331276618
 40
0.8597520326
 40
0.9098891692
 40
0.9335501008
 40
0.9563714713
 40
0.9784731158
 40
1.0
 40
1.0
 40
1.0
 40
1.0
 10
10.4042554927
 20
19.6605555104
 30
0.0
 10
10.5163581898
 20
19.5958344522
 30
0.0
 10
10.7483188526
 20
19.4711664572
 30
0.0
 10
11.1115730381
 20
19.3012863436
 30
0.0
 10
11.4942600442
 20
19.1462904296
 30
0.0
 10
11.8944731137
 20
19.0068974401
 30
0.0
 10
12.3103536165
 20
18.8837826809
 30
0.0
 10
12.7399342816
 20
18.7774756454
 30
0.0
 10
13.1811827185
 20
18.6885336126
 30
0.0
 10
13.6319882164
 20
18.6173396172
 30
0.0
 10
14.090225021
 20
18.5642629148
 30
0.0
 10
14.7091242105
 20
18.5178841879
 30
0.0
 10
15.4868775812
 20
18.5064342348
 30
0.0
 10
16.4129903484
 20
18.5664334682
 30
0.0
 10
17.3161697844
 20
18.699025417
 30
0.0
 10
18.0428310114
 20
18.8696393319
 30
0.0
 10
18.5977034539
 20
19.0411325439
 30
0.0
 10
18.9935933628
 20
19.1845951372
 30
0.0
 10
19.3714398335
 20
19.343463448
 30
0.0
 10
19.7294512906
 20
19.5170138438
 30
0.0
 10
20.0659462378
 20
19.7044100555
 30
0.0
 10
20.3793037949
 20
19.9047933391
 30
0.0
 10
20.6681052275
 20
20.1172451759
 30
0.0
 10
21.0115104096
 20
20.4093044036
 30
0.0
 10
21.3097526408
 20
20.726847169
 30
0.0
 10
21.5514419561
 20
21.067117116
 30
0.0
 10
21.6989652528
 20
21.3242059744
 30
0.0
 10
21.8154449463
 20
21.5867217573
 30
0.0
 10
21.8725700592
 20
21.7665682141
 30
0.0
 10
21.8955074571
 20
21.8565650131
 30
0.0
  0
SPLINE
  5
2BE
100
AcDbEntity
  8
0
100
AcDbSpline
 62
7
  6
BYLAYER
 70
0
 71
3
 72
21
 73
17
 74
0
 42
0.0000001
 43
0.0000001
 44
0.0000000001
 40
0.0
 40
0.0
 40
0.0
 40
0.0
 40
0.1517059732
 40
0.298461963
 40
0.3693652061
 40
0.4383045851
 40
0.5050898773
 40
0.5695681261
 40
0.6316210564
 40
0.6911837644
 40
0.7482372405
 40
0.8028301424
 40
0.8550741119
 40
0.9051586799
 40
0.95335188
 40
1.0
 40
1.0
 40
1.0
 40
1.0
 10
15.7111908869
 20
25.6107809661
 30
0.0
 10
15.862182696
 20
25.6258711341
 30
0.0
 10
16.1580972098
 20
25.6687936445
 30
0.0
 10
16.5177294579
 20
25.7561701534
 30
0.0
 10
16.79030531
 20
25.845336198
 30
0.0
 10
16.9830754786
 20
25.9201806768
 30
0.0
 10
17.1653742385
 20
26.003339092
 30
0.0
 10
17.3361590529
 20
26.0942970927
 30
0.0
 10
17.4944115769
 20
26.1925778404
 30
0.0
 10
17.6392361833
 20
26.2975727406
 30
0.0
 10
17.7697586832
 20
26.408730326
 30
0.0
 10
17.8852335615
 20
26.5253923753
 30
0.0
 10
17.9849559541
 20
26.64692245
 30
0.0
 10
18.0683149133
 20
26.7726428115
 30
0.0
 10
18.1347889599
 20
26.9018020928
 30
0.0
 10
18.1679825809
 20
26.9909711123
 30
0.0
 10
18.1814518217
 20
27.0356445664
 30
0.0
  0
SPLINE
  5
2BF
100
AcDbEntity
  8
0
100
AcDbSpline
 62
7
  6
BYLAYER
 70
0
 71
3
 72
15
 73
11
 74
0
 42
0.0000001
 43
0.0000001
 44
0.0000000001
 40
0.0
 40
0.0
 40
0.0
 40
0.0
 40
0.1082947267
 40
0.220020294
 40
0.3360976314
 40
0.4572446976
 40
0.5839667869
 40
0.7166031983
 40
0.8553237006
 40
1.0
 40
1.0
 40
1.0
 40
1.0
 10
8.4924317011
 20
21.8565650265
 30
0.0
 10
8.5187235954
 20
21.7534004471
 30
0.0
 10
8.586185279
 20
21.5471484039
 30
0.0
 10
8.7275660922
 20
21.247677784
 30
0.0
 10
8.9093615658
 20
20.9559119329
 30
0.0
 10
9.1303028644
 20
20.6737033652
 30
0.0
 10
9.3889275607
 20
20.4026947528
 30
0.0
 10
9.6836244475
 20
20.144475157
 30
0.0
 10
10.0125035008
 20
19.9006729267
 30
0.0
 10
10.2482805935
 20
19.7517334284
 30
0.0
 10
10.3710218836
 20
19.6798765715
 30
0.0
  0
SPLINE
  5
2C0
100
AcDbEntity
  8
0
100
AcDbSpline
 62
7
  6
BYLAYER
 70
0
 71
3
 72
33
 73
29
 74
0
 42
0.0000001
 43
0.0000001
 44
0.0000000001
 40
0.0
 40
0.0
 40
0.0
 40
0.0
 40
0.030966213
 40
0.063053445
 40
0.0961621672
 40
0.1302008008
 40
0.1650754801
 40
0.2006741767
 40
0.2735178409
 40
0.3476864153
 40
0.4220541968
 40
0.4954849715
 40
0.5668869053
 40
0.6352673923
 40
0.6680694751
 40
0.699821314
 40
0.7304557482
 40
0.7599252789
 40
0.7882041053
 40
0.8152939036
 40
0.8412234485
 40
0.8660568218
 40
0.8898908998
 40
0.9128623305
 40
0.9351421574
 40
0.9569360224
 40
0.9784737498
 40
1.0
 40
1.0
 40
1.0
 40
1.0
 10
12.7555691076
 20
25.7462604597
 30
0.0
 10
12.8183732459
 20
25.7100012939
 30
0.0
 10
12.9487604967
 20
25.6404408278
 30
0.0
 10
13.1536356125
 20
25.5466498058
 30
0.0
 10
13.3702360868
 20
25.4620982618
 30
0.0
 10
13.5972520266
 20
25.3872643495
 30
0.0
 10
13.8334143822
 20
25.3225778455
 30
0.0
 10
14.1611679958
 20
25.2497724945
 30
0.0
 10
14.5848168845
 20
25.1867477572
 30
0.0
 10
15.1030125212
 20
25.1562510096
 30
0.0
 10
15.6232908264
 20
25.1709903123
 30
0.0
 10
16.1338547182
 20
25.2306399361
 30
0.0
 10
16.6231240673
 20
25.3338426223
 30
0.0
 10
17.0092747416
 20
25.4558948625
 30
0.0
 10
17.2974669089
 20
25.5740256267
 30
0.0
 10
17.4985911227
 20
25.6704849173
 30
0.0
 10
17.6865151991
 20
25.7754775625
 30
0.0
 10
17.8601817333
 20
25.8884008767
 30
0.0
 10
18.0185793414
 20
26.0086511096
 30
0.0
 10
18.1608261282
 20
26.1355266997
 30
0.0
 10
18.2860633596
 20
26.2683698307
 30
0.0
 10
18.3935973258
 20
26.406408228
 30
0.0
 10
18.4827262817
 20
26.5489227094
 30
0.0
 10
18.5529384984
 20
26.6950823766
 30
0.0
 10
18.603711659
 20
26.8440745206
 30
0.0
 10
18.6347254216
 20
26.9950034789
 30
0.0
 10
18.6457154847
 20
27.1469158338
 30
0.0
 10
18.6396557774
 20
27.2479278786
 30
0.0
 10
18.6333810432
 20
27.2979480285
 30
0.0
  0
SPLINE
  5
2C1
100
AcDbEntity
  8
0
100
AcDbSpline
 62
7
  6
BYLAYER
 70
0
 71
3
 72
15
 73
11
 74
0
 42
0.0000001
 43
0.0000001
 44
0.0000000001
 40
0.0
 40
0.0
 40
0.0
 40
0.0
 40
0.1080950925
 40
0.2196627
 40
0.3356407479
 40
0.4567513954
 40
0.5835057233
 40
0.7162441661
 40
0.8551265538
 40
1.0
 40
1.0
 40
1.0
 40
1.0
 10
9.4062957675
 20
18.2709009448
 30
0.0
 10
9.4292528211
 20
18.1808099457
 30
0.0
 10
9.488328282
 20
18.0006926289
 30
0.0
 10
9.612377319
 20
17.7392826698
 30
0.0
 10
9.7721060859
 20
17.4847323331
 30
0.0
 10
9.9663261347
 20
17.2386626957
 30
0.0
 10
10.1937628109
 20
17.002559542
 30
0.0
 10
10.4529503467
 20
16.7778172378
 30
0.0
 10
10.7421960692
 20
16.5659016839
 30
0.0
 10
10.9495028279
 20
16.4366536854
 30
0.0
 10
11.057412052
 20
16.3743536752
 30
0.0
  0
SPLINE
  5
2C2
100
AcDbEntity
  8
0
100
AcDbSpline
 62
7
  6
BYLAYER
 70
0
 71
3
 72
23
 73
19
 74
0
 42
0.0000001
 43
0.0000001
 44
0.0000000001
 40
0.0
 40
0.0
 40
0.0
 40
0.0
 40
0.0560937423
 40
0.1147185277
 40
0.175588795
 40
0.2384164081
 40
0.3028473742
 40
0.3684924053
 40
0.43494047
 40
0.5017626365
 40
0.5685231679
 40
0.6347871177
 40
0.7001297462
 40
0.7641451592
 40
0.826454492
 40
0.8867179015
 40
0.9446437233
 40
1.0
 40
1.0
 40
1.0
 40
1.0
 10
11.5781065038
 20
15.0263827406
 30
0.0
 10
11.7020416222
 20
14.9558306147
 30
0.0
 10
11.9618797261
 20
14.8225281791
 30
0.0
 10
12.3739525396
 20
14.6498567402
 30
0.0
 10
12.8134931259
 20
14.5015078759
 30
0.0
 10
13.276145104
 20
14.3789180373
 30
0.0
 10
13.7574640459
 20
14.2832421983
 30
0.0
 10
14.2527658682
 20
14.2154228714
 30
0.0
 10
14.7572301656
 20
14.1761287404
 30
0.0
 10
15.2659471418
 20
14.1657240376
 30
0.0
 10
15.7739635481
 20
14.1843136285
 30
0.0
 10
16.2763316626
 20
14.2317326341
 30
0.0
 10
16.7681634
 20
14.3075001147
 30
0.0
 10
17.2446766315
 20
14.4108840451
 30
0.0
 10
17.7012350763
 20
14.5408978002
 30
0.0
 10
18.1334268743
 20
14.6962745513
 30
0.0
 10
18.5370291101
 20
14.8755013111
 30
0.0
 10
18.7905051089
 20
15.0130699018
 30
0.0
 10
18.9110753524
 20
15.0856584143
 30
0.0
  0
SPLINE
  5
2C3
100
AcDbEntity
  8
0
100
AcDbSpline
 62
7
  6
BYLAYER
 70
0
 71
3
 72
9
 73
5
 74
0
 42
0.0000001
 43
0.0000001
 44
0.0000000001
 40
0.0
 40
0.0
 40
0.0
 40
0.0
 40
0.2557985454
 40
1.0
 40
1.0
 40
1.0
 40
1.0
 10
18.9110753524
 20
15.0856584143
 30
0.0
 10
18.9449270348
 20
15.1060385943
 30
0.0
 10
19.076253249
 20
15.1873711885
 30
0.0
 10
19.2034157567
 20
15.2754858251
 30
0.0
 10
19.2949373285
 20
15.3450474929
 30
0.0
  0
SPLINE
  5
2C4
100
AcDbEntity
  8
0
100
AcDbSpline
 62
7
  6
BYLAYER
 70
0
 71
3
 72
23
 73
19
 74
0
 42
0.0000001
 43
0.0000001
 44
0.0000000001
 40
0.0
 40
0.0
 40
0.0
 40
0.0
 40
0.0767284391
 40
0.15028598
 40
0.2206050704
 40
0.2877773717
 40
0.351985248
 40
0.4135003069
 40
0.472708534
 40
0.5301043382
 40
0.5862781158
 40
0.6418886621
 40
0.6976299206
 40
0.7541880595
 40
0.8121994596
 40
0.8722205091
 40
0.934705782
 40
1.0
 40
1.0
 40
1.0
 40
1.0
 10
10.5284545267
 20
20.6958590213
 30
0.0
 10
10.4092946035
 20
20.7656192262
 30
0.0
 10
10.1804312981
 20
20.9102296378
 30
0.0
 10
9.8612967063
 20
21.1470136516
 30
0.0
 10
9.5754826241
 20
21.3978368409
 30
0.0
 10
9.3248366943
 20
21.6611065093
 30
0.0
 10
9.1109293356
 20
21.935272372
 30
0.0
 10
8.9351971349
 20
22.2187087515
 30
0.0
 10
8.7988552721
 20
22.5096726271
 30
0.0
 10
8.7029616362
 20
22.8063508325
 30
0.0
 10
8.6482244104
 20
23.1067833858
 30
0.0
 10
8.635185683
 20
23.4089330809
 30
0.0
 10
8.6638888173
 20
23.7106856598
 30
0.0
 10
8.7341423702
 20
24.009943979
 30
0.0
 10
8.8453146047
 20
24.3046984949
 30
0.0
 10
8.9965619671
 20
24.5930532951
 30
0.0
 10
9.1867578574
 20
24.873188031
 30
0.0
 10
9.3352635238
 20
25.049330239
 30
0.0
 10
9.4150877819
 20
25.135554848
 30
0.0
  0
SPLINE
  5
2C5
100
AcDbEntity
  8
0
100
AcDbSpline
 62
7
  6
BYLAYER
 70
0
 71
3
 72
10
 73
6
 74
0
 42
0.0000001
 43
0.0000001
 44
0.0000000001
 40
0.0
 40
0.0
 40
0.0
 40
0.0
 40
0.2397494179
 40
0.4866964449
 40
1.0
 40
1.0
 40
1.0
 40
1.0
 10
11.535776997
 20
14.859495658
 30
0.0
 10
11.6142709311
 20
14.8147827283
 30
0.0
 10
11.7761317917
 20
14.7283587877
 30
0.0
 10
12.1171410249
 20
14.5678453333
 30
0.0
 10
12.3849904186
 20
14.4647863685
 30
0.0
 10
12.5682714743
 20
14.4030204907
 30
0.0
  0
SPLINE
  5
2C6
100
AcDbEntity
  8
0
100
AcDbSpline
 62
7
  6
BYLAYER
 70
0
 71
3
 72
45
 73
41
 74
0
 42
0.0000001
 43
0.0000001
 44
0.0000000001
 40
0.0
 40
0.0
 40
0.0
 40
0.0
 40
0.0261640361
 40
0.0510797521
 40
0.0749304309
 40
0.0865384426
 40
0.0979774005
 40
0.1092863827
 40
0.1205066484
 40
0.131681385
 40
0.1428546077
 40
0.1540703091
 40
0.165371815
 40
0.1768005672
 40
0.1883957443
 40
0.2122139146
 40
0.2370890064
 40
0.2499892676
 40
0.2632183508
 40
0.290706488
 40
0.3196305359
 40
0.3500067569
 40
0.3818056328
 40
0.4149595017
 40
0.4493689137
 40
0.4849063065
 40
0.5214226258
 40
0.5587504374
 40
0.596707897
 40
0.6351030966
 40
0.6737364853
 40
0.7124051226
 40
0.7509052422
 40
0.7890357175
 40
0.826601858
 40
0.8634181731
 40
0.8993102823
 40
0.9341229182
 40
0.9677296496
 40
1.0
 40
1.0
 40
1.0
 40
1.0
 10
20.9728516244
 20
25.1355549735
 30
0.0
 10
21.0621221635
 20
25.0391257531
 30
0.0
 10
21.2268130006
 20
24.8415956724
 30
0.0
 10
21.432633556
 20
24.5254679561
 30
0.0
 10
21.5642410158
 20
24.2511445759
 30
0.0
 10
21.643059828
 20
24.0289992989
 30
0.0
 10
21.6888685353
 20
23.8624741939
 30
0.0
 10
21.7218013326
 20
23.6949174419
 30
0.0
 10
21.7417671833
 20
23.5266561778
 30
0.0
 10
21.7487162089
 20
23.3580383256
 30
0.0
 10
21.7426602039
 20
23.1894091663
 30
0.0
 10
21.723596483
 20
23.0211116916
 30
0.0
 10
21.6915525916
 20
22.853495673
 30
0.0
 10
21.6466246785
 20
22.6868898059
 30
0.0
 10
21.5689980538
 20
22.4646171081
 30
0.0
 10
21.4388601548
 20
22.1900914118
 30
0.0
 10
21.2707466269
 20
21.9294332291
 30
0.0
 10
21.1135105915
 20
21.7270573807
 30
0.0
 10
20.9365191585
 20
21.5239313465
 30
0.0
 10
20.6856092618
 20
21.279289423
 30
0.0
 10
20.3452432274
 20
21.0060496795
 30
0.0
 10
19.9644277806
 20
20.7514739761
 30
0.0
 10
19.5461857736
 20
20.5175019301
 30
0.0
 10
19.0937818287
 20
20.3059011145
 30
0.0
 10
18.6107432223
 20
20.1183339628
 30
0.0
 10
18.1008613528
 20
19.9562252127
 30
0.0
 10
17.568128675
 20
19.8208500251
 30
0.0
 10
17.0167242703
 20
19.7132792762
 30
0.0
 10
16.4509846291
 20
19.6343291316
 30
0.0
 10
15.8753543323
 20
19.5846464295
 30
0.0
 10
15.2943626985
 20
19.5646107661
 30
0.0
 10
14.7125809156
 20
19.5743682638
 30
0.0
 10
14.1345881441
 20
19.6138706801
 30
0.0
 10
13.5649295698
 20
19.682778019
 30
0.0
 10
13.008082908
 20
19.7805602478
 30
0.0
 10
12.4684341896
 20
19.9064683276
 30
0.0
 10
11.9502160135
 20
20.0594713195
 30
0.0
 10
11.4574504656
 20
20.2384248139
 30
0.0
 10
10.9940986938
 20
20.4419228947
 30
0.0
 10
10.700965726
 20
20.5961322012
 30
0.0
 10
10.5606033107
 20
20.6771686462
 30
0.0
  0
SPLINE
  5
2C7
100
AcDbEntity
  8
0
100
AcDbSpline
 62
7
  6
BYLAYER
 70
0
 71
3
 72
23
 73
19
 74
0
 42
0.0000001
 43
0.0000001
 44
0.0000000001
 40
0.0
 40
0.0
 40
0.0
 40
0.0
 40
0.0558374401
 40
0.1141779097
 40
0.1747813774
 40
0.2373512081
 40
0.3015465787
 40
0.366990418
 40
0.4332805585
 40
0.4999982597
 40
0.566715901
 40
0.6330063094
 40
0.6984502076
 40
0.76264658
 40
0.8252164844
 40
0.8858170368
 40
0.9441703081
 40
1.0
 40
1.0
 40
1.0
 40
1.0
 10
19.3306274445
 20
15.3946150624
 30
0.0
 10
19.1920386734
 20
15.3145985129
 30
0.0
 10
18.9014428853
 20
15.1632187044
 30
0.0
 10
18.440268571
 20
14.9665761258
 30
0.0
 10
17.9480578583
 20
14.7969085318
 30
0.0
 10
17.4295441069
 20
14.6558242744
 30
0.0
 10
16.889652173
 20
14.5446787984
 30
0.0
 10
16.333543328
 20
14.4645238687
 30
0.0
 10
15.7665334902
 20
14.4161098625
 30
0.0
 10
15.194044261
 20
14.3999239557
 30
0.0
 10
14.6215547054
 20
14.4161092781
 30
0.0
 10
14.0545420176
 20
14.4644988662
 30
0.0
 10
13.4984288295
 20
14.5446537453
 30
0.0
 10
12.9585343544
 20
14.6558008057
 30
0.0
 10
12.4400191056
 20
14.7968582609
 30
0.0
 10
11.9477771987
 20
14.9665261275
 30
0.0
 10
11.4866055025
 20
15.1631886071
 30
0.0
 10
11.1959833652
 20
15.3145483996
 30
0.0
 10
11.057412052
 20
15.3945507747
 30
0.0
  0
SPLINE
  5
2C8
100
AcDbEntity
  8
0
100
AcDbSpline
 62
7
  6
BYLAYER
 70
0
 71
3
 72
15
 73
11
 74
0
 42
0.0000001
 43
0.0000001
 44
0.0000000001
 40
0.0
 40
0.0
 40
0.0
 40
0.0
 40
0.1080529483
 40
0.2186603333
 40
0.3333404171
 40
0.4533275768
 40
0.5795244334
 40
0.7125525934
 40
0.8527498018
 40
1.0
 40
1.0
 40
1.0
 40
1.0
 10
11.748751908
 20
27.0681952893
 30
0.0
 10
11.7533100802
 20
27.0072201573
 30
0.0
 10
11.7724141611
 20
26.8843616401
 30
0.0
 10
11.8298434917
 20
26.703985203
 30
0.0
 10
11.9155570417
 20
26.527697603
 30
0.0
 10
12.0286757301
 20
26.3570344041
 30
0.0
 10
12.1681245445
 20
26.1933207091
 30
0.0
 10
12.3327090548
 20
26.0378195296
 30
0.0
 10
12.5210051046
 20
25.8918234363
 30
0.0
 10
12.6579662196
 20
25.8036620107
 30
0.0
 10
12.7297399283
 20
25.7613322644
 30
0.0
  0
SPLINE
  5
2C9
100
AcDbEntity
  8
0
100
AcDbSpline
 62
7
  6
BYLAYER
 70
0
 71
3
 72
23
 73
19
 74
0
 42
0.0000001
 43
0.0000001
 44
0.0000000001
 40
0.0
 40
0.0
 40
0.0
 40
0.0
 40
0.0558000758
 40
0.1140914491
 40
0.1746369028
 40
0.2371430758
 40
0.3012730126
 40
0.366653871
 40
0.4328877604
 40
0.4995603136
 40
0.5662480995
 40
0.6325278289
 40
0.6979837256
 40
0.7622175751
 40
0.8248524397
 40
0.885546598
 40
0.9440218263
 40
1.0
 40
1.0
 40
1.0
 40
1.0
 10
18.8770649931
 20
15.1327424106
 30
0.0
 10
18.7542371895
 20
15.0618252544
 30
0.0
 10
18.4967403504
 20
14.9276245066
 30
0.0
 10
18.0881690132
 20
14.7531633145
 30
0.0
 10
17.6521720987
 20
14.6024938912
 30
0.0
 10
17.1929064796
 20
14.4770291187
 30
0.0
 10
16.7146954951
 20
14.377963254
 30
0.0
 10
16.2220697381
 20
14.30622775
 30
0.0
 10
15.7196967405
 20
14.2624864558
 30
0.0
 10
15.2123372825
 20
14.2471751716
 30
0.0
 10
14.7048039739
 20
14.2604302754
 30
0.0
 10
14.201909473
 20
14.3021139447
 30
0.0
 10
13.7084205382
 20
14.3718523549
 30
0.0
 10
13.2290160081
 20
14.468979349
 30
0.0
 10
12.7682376136
 20
14.5925563946
 30
0.0
 10
12.3303964176
 20
14.7414554785
 30
0.0
 10
11.919721694
 20
14.9142706879
 30
0.0
 10
11.6606293466
 20
15.0473808574
 30
0.0
 10
11.5369778903
 20
15.117771504
 30
0.0
  0
SPLINE
  5
2CA
100
AcDbEntity
  8
0
100
AcDbSpline
 62
7
  6
BYLAYER
 70
0
 71
3
 72
18
 73
14
 74
0
 42
0.0000001
 43
0.0000001
 44
0.0000000001
 40
0.0
 40
0.0
 40
0.0
 40
0.0
 40
0.1413134828
 40
0.2768549301
 40
0.4068053489
 40
0.5317729513
 40
0.6525364713
 40
0.7116826135
 40
0.7701665648
 40
0.8280963275
 40
0.8855918247
 40
0.9428229453
 40
1.0
 40
1.0
 40
1.0
 40
1.0
 10
10.8074162937
 20
4.3225091287
 30
0.0
 10
10.6605497625
 20
4.4073006418
 30
0.0
 10
10.3796369863
 20
4.5857011396
 30
0.0
 10
9.9936291056
 20
4.8858695523
 30
0.0
 10
9.6556058683
 20
5.2118189308
 30
0.0
 10
9.3695891462
 20
5.561781774
 30
0.0
 10
9.1767030928
 20
5.8742158127
 30
0.0
 10
9.053894847
 20
6.1328602458
 30
0.0
 10
8.9781420796
 20
6.3296851305
 30
0.0
 10
8.9185611749
 20
6.5299294517
 30
0.0
 10
8.8756443674
 20
6.7328762322
 30
0.0
 10
8.8497527285
 20
6.9377693603
 30
0.0
 10
8.8439694997
 20
7.0751361796
 30
0.0
 10
8.8439694997
 20
7.1437525796
 30
0.0
  0
SPLINE
  5
2CB
100
AcDbEntity
  8
0
100
AcDbSpline
 62
7
  6
BYLAYER
 70
0
 71
3
 72
16
 73
12
 74
0
 42
0.0000001
 43
0.0000001
 44
0.0000000001
 40
0.0
 40
0.0
 40
0.0
 40
0.0
 40
0.1465373359
 40
0.2858057233
 40
0.4180098407
 40
0.543624442
 40
0.6633964064
 40
0.7784079871
 40
0.8900412086
 40
0.9451318151
 40
1.0
 40
1.0
 40
1.0
 40
1.0
 10
9.1909822321
 20
18.5087809489
 30
0.0
 10
9.035702393
 20
18.4070071438
 30
0.0
 10
8.7406901676
 20
18.196099189
 30
0.0
 10
8.3393453911
 20
17.8493243288
 30
0.0
 10
7.993409671
 20
17.4826934779
 30
0.0
 10
7.7057520761
 20
17.099030646
 30
0.0
 10
7.4789646053
 20
16.7011919631
 30
0.0
 10
7.3151738638
 20
16.2924402113
 30
0.0
 10
7.2322575204
 20
15.943703426
 30
0.0
 10
7.1994332424
 20
15.6646479182
 30
0.0
 10
7.1939779069
 20
15.5252642272
 30
0.0
 10
7.1939779073
 20
15.455747186
 30
0.0
  0
SPLINE
  5
2CC
100
AcDbEntity
  8
0
100
AcDbSpline
 62
7
  6
BYLAYER
 70
0
 71
3
 72
23
 73
19
 74
0
 42
0.0000001
 43
0.0000001
 44
0.0000000001
 40
0.0
 40
0.0
 40
0.0
 40
0.0
 40
0.0568460163
 40
0.1158251738
 40
0.1767090102
 40
0.2392941362
 40
0.3033011598
 40
0.3684016056
 40
0.434242073
 40
0.5004500526
 40
0.5666416488
 40
0.6324334347
 40
0.6974541343
 40
0.7613525856
 40
0.8238033789
 40
0.884530952
 40
0.943337427
 40
1.0
 40
1.0
 40
1.0
 40
1.0
 10
19.5432551244
 20
4.3011695073
 30
0.0
 10
19.3936700505
 20
4.2162185531
 30
0.0
 10
19.0814345584
 20
4.0559958232
 30
0.0
 10
18.5881314161
 20
3.8484384684
 30
0.0
 10
18.0650238037
 20
3.670484531
 30
0.0
 10
17.5167107118
 20
3.5233473004
 30
0.0
 10
16.9478364772
 20
3.4080152559
 30
0.0
 10
16.3633646919
 20
3.3254205003
 30
0.0
 10
15.768472722
 20
3.2761809209
 30
0.0
 10
15.1684502174
 20
3.2606727351
 30
0.0
 10
14.5686560717
 20
3.279056477
 30
0.0
 10
13.9744461468
 20
3.3311480107
 30
0.0
 10
13.3911014342
 20
3.4165502478
 30
0.0
 10
12.823785026
 20
3.534623494
 30
0.0
 10
12.2774416332
 20
3.6844186104
 30
0.0
 10
11.7566914526
 20
3.8649328643
 30
0.0
 10
11.266108907
 20
4.0749433104
 30
0.0
 10
10.955913792
 20
4.2367759976
 30
0.0
 10
10.8074162937
 20
4.3225091287
 30
0.0
  0
SPLINE
  5
2CD
100
AcDbEntity
  8
0
100
AcDbSpline
 62
7
  6
BYLAYER
 70
0
 71
3
 72
23
 73
19
 74
0
 42
0.0000001
 43
0.0000001
 44
0.0000000001
 40
0.0
 40
0.0
 40
0.0
 40
0.0
 40
0.0566799836
 40
0.1161125271
 40
0.1779755744
 40
0.2419155343
 40
0.3075034191
 40
0.3742739395
 40
0.4417335597
 40
0.5093718346
 40
0.5766744587
 40
0.6431348875
 40
0.7082666483
 40
0.7716152899
 40
0.8327714622
 40
0.8913864745
 40
0.9471883404
 40
1.0
 40
1.0
 40
1.0
 40
1.0
 10
20.8508473009
 20
10.2465453971
 30
0.0
 10
20.6440891749
 20
10.1271742499
 30
0.0
 10
20.2087686568
 20
9.902602399
 30
0.0
 10
19.5155840178
 20
9.6152274468
 30
0.0
 10
18.7734481606
 20
9.372076446
 30
0.0
 10
17.990879145
 20
9.1758540214
 30
0.0
 10
17.1766282041
 20
9.0287881975
 30
0.0
 10
16.3399296631
 20
8.9325237237
 30
0.0
 10
15.4902496252
 20
8.8881414391
 30
0.0
 10
14.6372116693
 20
8.8961527006
 30
0.0
 10
13.7904829001
 20
8.9564752289
 30
0.0
 10
12.9596522034
 20
9.0684150208
 30
0.0
 10
12.1541199862
 20
9.2307036244
 30
0.0
 10
11.3829880433
 20
9.4415180022
 30
0.0
 10
10.6549672855
 20
9.6984996484
 30
0.0
 10
9.9782219243
 20
9.9987956752
 30
0.0
 10
9.3604374976
 20
10.3390218537
 30
0.0
 10
8.9817370659
 20
10.5973710693
 30
0.0
 10
8.8051484375
 20
10.7326494128
 30
0.0
  0
SPLINE
  5
2CE
100
AcDbEntity
  8
0
100
AcDbSpline
 62
7
  6
BYLAYER
 70
0
 71
3
 72
15
 73
11
 74
0
 42
0.0000001
 43
0.0000001
 44
0.0000000001
 40
0.0
 40
0.0
 40
0.0
 40
0.0
 40
0.1436528271
 40
0.2808279501
 40
0.4118230257
 40
0.5371551758
 40
0.6575681791
 40
0.7740330895
 40
0.887730849
 40
1.0
 40
1.0
 40
1.0
 40
1.0
 10
8.7904573734
 20
10.7439396439
 30
0.0
 10
8.6649398835
 20
10.8407092982
 30
0.0
 10
8.426897723
 20
11.0397064762
 30
0.0
 10
8.1049712185
 20
11.36122395
 30
0.0
 10
7.8285439461
 20
11.6969699685
 30
0.0
 10
7.5994878364
 20
12.0448376063
 30
0.0
 10
7.4194261741
 20
12.4026767675
 30
0.0
 10
7.2897439737
 20
12.7682318394
 30
0.0
 10
7.2114500037
 20
13.1389595812
 30
0.0
 10
7.1939809162
 20
13.3886067534
 30
0.0
 10
7.193980617
 20
13.5124714342
 30
0.0
  0
SPLINE
  5
2CF
100
AcDbEntity
  8
0
100
AcDbSpline
 62
7
  6
BYLAYER
 70
0
 71
3
 72
18
 73
14
 74
0
 42
0.0000001
 43
0.0000001
 44
0.0000000001
 40
0.0
 40
0.0
 40
0.0
 40
0.0
 40
0.0570874613
 40
0.1142298893
 40
0.1716420003
 40
0.2294969091
 40
0.2879166472
 40
0.3470110947
 40
0.467717712
 40
0.5927020541
 40
0.722747238
 40
0.8584581362
 40
1.0
 40
1.0
 40
1.0
 40
1.0
 10
21.5439694997
 20
7.1437525796
 30
0.0
 10
21.5439694997
 20
7.0744272155
 30
0.0
 10
21.5380659373
 20
6.935638449
 30
0.0
 10
21.5116375596
 20
6.7286483669
 30
0.0
 10
21.4678356451
 20
6.5236644489
 30
0.0
 10
21.4070366063
 20
6.3214636145
 30
0.0
 10
21.329750391
 20
6.1227816539
 30
0.0
 10
21.2044649146
 20
5.8617669495
 30
0.0
 10
21.0077316187
 20
5.5466809062
 30
0.0
 10
20.7161882392
 20
5.1941874547
 30
0.0
 10
20.371781585
 20
4.8663053741
 30
0.0
 10
19.9786496948
 20
4.5648395121
 30
0.0
 10
19.6927185069
 20
4.3860513517
 30
0.0
 10
19.5432551244
 20
4.3011695073
 30
0.0
  0
SPLINE
  5
2D0
100
AcDbEntity
  8
0
100
AcDbSpline
 62
7
  6
BYLAYER
 70
0
 71
3
 72
17
 73
13
 74
0
 42
0.0000001
 43
0.0000001
 44
0.0000000001
 40
0.0
 40
0.0
 40
0.0
 40
0.0
 40
0.0539148346
 40
0.10808842
 40
0.1627723345
 40
0.218206767
 40
0.33212217
 40
0.4514600317
 40
0.577353505
 40
0.7105443446
 40
0.8514478854
 40
1.0
 40
1.0
 40
1.0
 40
1.0
 10
21.543962616
 20
9.7565603098
 30
0.0
 10
21.5439653943
 20
9.6965441266
 30
0.0
 10
21.5388393049
 20
9.5761605535
 30
0.0
 10
21.5157818355
 20
9.396237033
 30
0.0
 10
21.4774473447
 20
9.2171933918
 30
0.0
 10
21.4054693829
 20
8.978175136
 30
0.0
 10
21.2760952131
 20
8.6825040199
 30
0.0
 10
21.0636055729
 20
8.3424009735
 30
0.0
 10
20.7948471503
 20
8.0166108399
 30
0.0
 10
20.4725320966
 20
7.7080987594
 30
0.0
 10
20.0998914476
 20
7.4196819542
 30
0.0
 10
19.827325222
 20
7.2469127657
 30
0.0
 10
19.6841162544
 20
7.1642315232
 30
0.0
  0
SPLINE
  5
2D1
100
AcDbEntity
  8
0
100
AcDbSpline
 62
7
  6
BYLAYER
 70
0
 71
3
 72
15
 73
11
 74
0
 42
0.0000001
 43
0.0000001
 44
0.0000000001
 40
0.0
 40
0.0
 40
0.0
 40
0.0
 40
0.1093019829
 40
0.2223006255
 40
0.3395562068
 40
0.461482571
 40
0.5883694338
 40
0.7204057036
 40
0.8576633394
 40
1.0
 40
1.0
 40
1.0
 40
1.0
 10
21.7156942709
 20
10.9032742902
 30
0.0
 10
21.6797261045
 20
10.8150562992
 30
0.0
 10
21.596601367
 20
10.6395593202
 30
0.0
 10
21.4430669796
 20
10.386009583
 30
0.0
 10
21.2595614794
 20
10.1393904995
 30
0.0
 10
21.0470816256
 20
9.9008556063
 30
0.0
 10
20.8066246038
 20
9.6715158996
 30
0.0
 10
20.5393494944
 20
9.4523924053
 30
0.0
 10
20.2465662027
 20
9.2445811111
 30
0.0
 10
20.0390456965
 20
9.1164690199
 30
0.0
 10
19.9316046582
 20
9.0544382778
 30
0.0
  0
SPLINE
  5
2D2
100
AcDbEntity
  8
0
100
AcDbSpline
 62
7
  6
BYLAYER
 70
0
 71
3
 72
16
 73
12
 74
0
 42
0.0000001
 43
0.0000001
 44
0.0000000001
 40
0.0
 40
0.0
 40
0.0
 40
0.0
 40
0.0549490119
 40
0.1101175008
 40
0.2218876528
 40
0.3369939603
 40
0.4568052848
 40
0.5823978772
 40
0.7145188934
 40
0.8536466512
 40
1.0
 40
1.0
 40
1.0
 40
1.0
 10
23.1939610921
 20
15.455747186
 30
0.0
 10
23.1939610917
 20
15.5247497828
 30
0.0
 10
23.188586512
 20
15.6630969179
 30
0.0
 10
23.1562496376
 20
15.9400736386
 30
0.0
 10
23.074572995
 20
16.2862199981
 30
0.0
 10
22.9132004558
 20
16.6920849763
 30
0.0
 10
22.6897190381
 20
17.0872821132
 30
0.0
 10
22.4061917468
 20
17.4686119628
 30
0.0
 10
22.0651447391
 20
17.8332750403
 30
0.0
 10
21.6693619365
 20
18.1785000446
 30
0.0
 10
21.3783210347
 20
18.388725389
 30
0.0
 10
21.225110028
 20
18.4902292101
 30
0.0
  0
SPLINE
  5
2D3
100
AcDbEntity
  8
0
100
AcDbSpline
 62
7
  6
BYLAYER
 70
0
 71
3
 72
19
 73
15
 74
0
 42
0.0000001
 43
0.0000001
 44
0.0000000001
 40
0.0
 40
0.0
 40
0.0
 40
0.0
 40
0.0539065773
 40
0.1080715391
 40
0.1627473813
 40
0.2181735359
 40
0.2745744705
 40
0.3321536705
 40
0.3910908076
 40
0.4515435277
 40
0.5774200002
 40
0.7105898831
 40
0.8514652436
 40
1.0
 40
1.0
 40
1.0
 40
1.0
 10
23.1939583824
 20
13.5124714323
 30
0.0
 10
23.1939585651
 20
13.4368604076
 30
0.0
 10
23.187504802
 20
13.2851972315
 30
0.0
 10
23.1584691168
 20
13.0585171869
 30
0.0
 10
23.1101600557
 20
12.8329609771
 30
0.0
 10
23.0427418
 20
12.6090997908
 30
0.0
 10
22.9563517831
 20
12.3874886306
 30
0.0
 10
22.8512351901
 20
12.1686655336
 30
0.0
 10
22.7276754526
 20
11.9531340406
 30
0.0
 10
22.5361622234
 20
11.6670722965
 30
0.0
 10
22.2501710219
 20
11.3203815355
 30
0.0
 10
21.8441346654
 20
10.9317455254
 30
0.0
 10
21.3746660144
 20
10.5683682945
 30
0.0
 10
21.0312748017
 20
10.3507146414
 30
0.0
 10
20.8508473009
 20
10.2465453971
 30
0.0
  0
SPLINE
  5
2D4
100
AcDbEntity
  8
0
100
AcDbSpline
 62
7
  6
BYLAYER
 70
0
 71
3
 72
12
 73
8
 74
0
 42
0.0000001
 43
0.0000001
 44
0.0000000001
 40
0.0
 40
0.0
 40
0.0
 40
0.0
 40
0.2848826055
 40
0.5530689245
 40
0.6772793288
 40
0.7935306326
 40
1.0
 40
1.0
 40
1.0
 40
1.0
 10
8.5727304505
 20
10.0296651826
 30
0.0
 10
8.5543317223
 20
10.0301289205
 30
0.0
 10
8.5186185081
 20
10.033858846
 30
0.0
 10
8.4762290333
 20
10.0457299705
 30
0.0
 10
8.4462710165
 20
10.0594209542
 30
0.0
 10
8.4215521878
 20
10.0743671441
 30
0.0
 10
8.4057494835
 20
10.0886489487
 30
0.0
 10
8.397772496
 20
10.0993396056
 30
0.0
  0
SPLINE
  5
2D5
100
AcDbEntity
  8
0
100
AcDbSpline
 62
7
  6
BYLAYER
 70
0
 71
3
 72
9
 73
5
 74
0
 42
0.0000001
 43
0.0000001
 44
0.0000000001
 40
0.0
 40
0.0
 40
0.0
 40
0.0
 40
0.4882514347
 40
1.0
 40
1.0
 40
1.0
 40
1.0
 10
9.2222761704
 20
9.9993199811
 30
0.0
 10
9.2075322526
 20
10.0044281272
 30
0.0
 10
9.176365391
 20
10.0121808785
 30
0.0
 10
9.1444349923
 20
10.0152554334
 30
0.0
 10
9.1280855284
 20
10.0156675198
 30
0.0
  0
SPLINE
  5
2D6
100
AcDbEntity
  8
0
100
AcDbSpline
 62
7
  6
BYLAYER
 70
0
 71
3
 72
11
 73
7
 74
0
 42
0.0000001
 43
0.0000001
 44
0.0000000001
 40
0.0
 40
0.0
 40
0.0
 40
0.0
 40
0.2806286258
 40
0.5372711139
 40
0.7741449663
 40
1.0
 40
1.0
 40
1.0
 40
1.0
 10
9.260403979
 20
9.2367287486
 30
0.0
 10
9.25432115
 20
9.2414412339
 30
0.0
 10
9.2433404852
 20
9.2513912699
 30
0.0
 10
9.2305244671
 20
9.2685089151
 30
0.0
 10
9.2225890766
 20
9.2867845115
 30
0.0
 10
9.2207721753
 20
9.2995338197
 30
0.0
 10
9.2207728704
 20
9.3057266503
 30
0.0
  0
SPLINE
  5
2D7
100
AcDbEntity
  8
0
100
AcDbSpline
 62
7
  6
BYLAYER
 70
0
 71
3
 72
11
 73
7
 74
0
 42
0.0000001
 43
0.0000001
 44
0.0000000001
 40
0.0
 40
0.0
 40
0.0
 40
0.0
 40
0.267131146
 40
0.5311778449
 40
0.7789216798
 40
1.0
 40
1.0
 40
1.0
 40
1.0
 10
9.5873351863
 20
9.1002426464
 30
0.0
 10
9.568910559
 20
9.0978843647
 30
0.0
 10
9.5318231785
 20
9.0962486273
 30
0.0
 10
9.4777821686
 20
9.1024784765
 30
0.0
 10
9.4286344887
 20
9.1168703009
 30
0.0
 10
9.3995152114
 20
9.1323284515
 30
0.0
 10
9.3871041437
 20
9.1413995096
 30
0.0
  0
SPLINE
  5
2D8
100
AcDbEntity
  8
0
100
AcDbSpline
 62
7
  6
BYLAYER
 70
0
 71
3
 72
11
 73
7
 74
0
 42
0.0000001
 43
0.0000001
 44
0.0000000001
 40
0.0
 40
0.0
 40
0.0
 40
0.0
 40
0.226069551
 40
0.4747716306
 40
0.7366090835
 40
1.0
 40
1.0
 40
1.0
 40
1.0
 10
10.3188547794
 20
9.136184874
 30
0.0
 10
10.3063271106
 20
9.1438568228
 30
0.0
 10
10.2780439807
 20
9.1568044647
 30
0.0
 10
10.2314982481
 20
9.1687737785
 30
0.0
 10
10.1812531871
 20
9.1735907019
 30
0.0
 10
10.147018916
 20
9.1718800175
 30
0.0
 10
10.1300420691
 20
9.1697070462
 30
0.0
  0
SPLINE
  5
2D9
100
AcDbEntity
  8
0
100
AcDbSpline
 62
7
  6
BYLAYER
 70
0
 71
3
 72
12
 73
8
 74
0
 42
0.0000001
 43
0.0000001
 44
0.0000000001
 40
0.0
 40
0.0
 40
0.0
 40
0.0
 40
0.2955956037
 40
0.5572600778
 40
0.7876672216
 40
0.8950902637
 40
1.0
 40
1.0
 40
1.0
 40
1.0
 10
10.6070455682
 20
8.4370819336
 30
0.0
 10
10.5958793453
 20
8.4421742614
 30
0.0
 10
10.5755383545
 20
8.4535412939
 30
0.0
 10
10.5507911799
 20
8.4753692633
 30
0.0
 10
10.5371978956
 20
8.4967958332
 30
0.0
 10
10.5318917118
 20
8.5144962776
 30
0.0
 10
10.5310186433
 20
8.5233362359
 30
0.0
 10
10.5310212493
 20
8.5276918941
 30
0.0
  0
SPLINE
  5
2DA
100
AcDbEntity
  8
0
100
AcDbSpline
 62
7
  6
BYLAYER
 70
0
 71
3
 72
11
 73
7
 74
0
 42
0.0000001
 43
0.0000001
 44
0.0000000001
 40
0.0
 40
0.0
 40
0.0
 40
0.0
 40
0.248961644
 40
0.5073736072
 40
0.7619434809
 40
1.0
 40
1.0
 40
1.0
 40
1.0
 10
10.9840227852
 20
8.3540988677
 30
0.0
 10
10.9668708552
 20
8.3489438846
 30
0.0
 10
10.9308551179
 20
8.3417918248
 30
0.0
 10
10.8758537121
 20
8.3399446584
 30
0.0
 10
10.8220266498
 20
8.3467130224
 30
0.0
 10
10.7878952102
 20
8.3571651772
 30
0.0
 10
10.7721640691
 20
8.363933399
 30
0.0
  0
SPLINE
  5
2DB
100
AcDbEntity
  8
0
100
AcDbSpline
 62
7
  6
BYLAYER
 70
0
 71
3
 72
11
 73
7
 74
0
 42
0.0000001
 43
0.0000001
 44
0.0000000001
 40
0.0
 40
0.0
 40
0.0
 40
0.0
 40
0.2420462889
 40
0.4968939854
 40
0.7533549936
 40
1.0
 40
1.0
 40
1.0
 40
1.0
 10
11.6745041146
 20
8.498125128
 30
0.0
 10
11.6592776256
 20
8.5035519238
 30
0.0
 10
11.6269330916
 20
8.5117560289
 30
0.0
 10
11.5766719559
 20
8.516529158
 30
0.0
 10
11.525949856
 20
8.5138405875
 30
0.0
 10
11.4928716102
 20
8.5070325095
 30
0.0
 10
11.4770968957
 20
8.5022914461
 30
0.0
  0
SPLINE
  5
2DC
100
AcDbEntity
  8
0
100
AcDbSpline
 62
7
  6
BYLAYER
 70
0
 71
3
 72
12
 73
8
 74
0
 42
0.0000001
 43
0.0000001
 44
0.0000000001
 40
0.0
 40
0.0
 40
0.0
 40
0.0
 40
0.0998833395
 40
0.2042638607
 40
0.4336876706
 40
0.6994737213
 40
1.0
 40
1.0
 40
1.0
 40
1.0
 10
12.1213459862
 20
8.2875468841
 30
0.0
 10
12.1209678757
 20
8.2925462768
 30
0.0
 10
12.1190042998
 20
8.3027095577
 30
0.0
 10
12.1104438015
 20
8.3228717081
 30
0.0
 10
12.0907549097
 20
8.3464734386
 30
0.0
 10
12.057332305
 20
8.368953032
 30
0.0
 10
12.0307944465
 20
8.3796858355
 30
0.0
 10
12.0163900551
 20
8.3841658613
 30
0.0
  0
SPLINE
  5
2DD
100
AcDbEntity
  8
0
100
AcDbSpline
 62
7
  6
BYLAYER
 70
0
 71
3
 72
13
 73
9
 74
0
 42
0.0000001
 43
0.0000001
 44
0.0000000001
 40
0.0
 40
0.0
 40
0.0
 40
0.0
 40
0.3027494513
 40
0.5700363127
 40
0.6892033862
 40
0.7993281772
 40
0.9020976124
 40
1.0
 40
1.0
 40
1.0
 40
1.0
 10
12.266278443
 20
7.8659071827
 30
0.0
 10
12.2499246841
 20
7.8699745037
 30
0.0
 10
12.2196944493
 20
7.880257354
 30
0.0
 10
12.186439482
 20
7.9002895342
 30
0.0
 10
12.1664574791
 20
7.9195481268
 30
0.0
 10
12.1554817564
 20
7.9345583281
 30
0.0
 10
12.1482481612
 20
7.9504134068
 30
0.0
 10
12.1460066027
 20
7.9614831541
 30
0.0
 10
12.1455956203
 20
7.9669171807
 30
0.0
  0
SPLINE
  5
2DE
100
AcDbEntity
  8
0
100
AcDbSpline
 62
7
  6
BYLAYER
 70
0
 71
3
 72
11
 73
7
 74
0
 42
0.0000001
 43
0.0000001
 44
0.0000000001
 40
0.0
 40
0.0
 40
0.0
 40
0.0
 40
0.2313287122
 40
0.4833406582
 40
0.7440400672
 40
1.0
 40
1.0
 40
1.0
 40
1.0
 10
12.6676112954
 20
7.842082312
 30
0.0
 10
12.6530216641
 20
7.8343638002
 30
0.0
 10
12.6205512711
 20
7.8219052579
 30
0.0
 10
12.5681413863
 20
7.8121073321
 30
0.0
 10
12.5130882394
 20
7.8108143455
 30
0.0
 10
12.4763622627
 20
7.8158360653
 30
0.0
 10
12.4585627272
 20
7.8199243042
 30
0.0
  0
SPLINE
  5
2DF
100
AcDbEntity
  8
0
100
AcDbSpline
 62
7
  6
BYLAYER
 70
0
 71
3
 72
11
 73
7
 74
0
 42
0.0000001
 43
0.0000001
 44
0.0000000001
 40
0.0
 40
0.0
 40
0.0
 40
0.0
 40
0.2587223105
 40
0.5191383403
 40
0.7695816002
 40
1.0
 40
1.0
 40
1.0
 40
1.0
 10
13.2696729873
 20
8.0844235712
 30
0.0
 10
13.2529363255
 20
8.0873182388
 30
0.0
 10
13.218842501
 20
8.0904186362
 30
0.0
 10
13.1682169492
 20
8.0876558153
 30
0.0
 10
13.1204040454
 20
8.0776383416
 30
0.0
 10
13.0908215444
 20
8.0659778468
 30
0.0
 10
13.0774504478
 20
8.0589039897
 30
0.0
  0
SPLINE
  5
2E0
100
AcDbEntity
  8
0
100
AcDbSpline
 62
7
  6
BYLAYER
 70
0
 71
3
 72
18
 73
14
 74
0
 42
0.0000001
 43
0.0000001
 44
0.0000000001
 40
0.0
 40
0.0
 40
0.0
 40
0.0
 40
0.0545629699
 40
0.110882675
 40
0.1688285967
 40
0.2282848894
 40
0.2891270311
 40
0.3512032796
 40
0.4783624474
 40
0.6083705429
 40
0.7396971136
 40
0.8707633075
 40
1.0
 40
1.0
 40
1.0
 40
1.0
 10
19.9316046582
 20
9.0544382778
 30
0.0
 10
19.8236064267
 20
8.992085842
 30
0.0
 10
19.6003343604
 20
8.8718555738
 30
0.0
 10
19.251000293
 20
8.7075808127
 30
0.0
 10
18.8833324323
 20
8.557245693
 30
0.0
 10
18.4990664567
 20
8.421513082
 30
0.0
 10
18.0998905278
 20
8.301000074
 30
0.0
 10
17.5457908848
 20
8.160176787
 30
0.0
 10
16.827606651
 20
8.0262489718
 30
0.0
 10
15.9435946848
 20
7.9340728242
 30
0.0
 10
15.0461323319
 20
7.9107987357
 30
0.0
 10
14.1513843325
 20
7.9568337963
 30
0.0
 10
13.5607202568
 20
8.0340483633
 30
0.0
 10
13.2696729873
 20
8.0844235712
 30
0.0
  0
SPLINE
  5
2E1
100
AcDbEntity
  8
0
100
AcDbSpline
 62
7
  6
BYLAYER
 70
0
 71
3
 72
23
 73
19
 74
0
 42
0.0000001
 43
0.0000001
 44
0.0000000001
 40
0.0
 40
0.0
 40
0.0
 40
0.0
 40
0.0558312491
 40
0.1141821765
 40
0.1747823243
 40
0.2373525517
 40
0.3015484272
 40
0.3669918705
 40
0.4332820696
 40
0.4999994837
 40
0.5667169158
 40
0.6330071687
 40
0.6984507004
 40
0.7626466972
 40
0.8252170765
 40
0.885817403
 40
0.9441685313
 40
1.0
 40
1.0
 40
1.0
 40
1.0
 10
19.6841162544
 20
7.1642315232
 30
0.0
 10
19.5336990683
 20
7.0773886388
 30
0.0
 10
19.2182455168
 20
6.9130888795
 30
0.0
 10
18.7176642791
 20
6.6996234901
 30
0.0
 10
18.1833637508
 20
6.5154556985
 30
0.0
 10
17.6205410046
 20
6.362332128
 30
0.0
 10
17.0345082663
 20
6.2416899042
 30
0.0
 10
16.4308742557
 20
6.1546805964
 30
0.0
 10
15.8154083985
 20
6.1021427393
 30
0.0
 10
15.1939958596
 20
6.0845769258
 30
0.0
 10
14.5725830694
 20
6.1021397641
 30
0.0
 10
13.9571164614
 20
6.1546746774
 30
0.0
 10
13.3534812073
 20
6.2416810945
 30
0.0
 10
12.7674467443
 20
6.3623205097
 30
0.0
 10
12.2046218105
 20
6.5154413844
 30
0.0
 10
11.6703186534
 20
6.699606611
 30
0.0
 10
11.169734367
 20
6.9130695917
 30
0.0
 10
10.8542785372
 20
7.077367796
 30
0.0
 10
10.7038601334
 20
7.1642099374
 30
0.0
  0
SPLINE
  5
2E2
100
AcDbEntity
  8
0
100
AcDbSpline
 62
7
  6
BYLAYER
 70
0
 71
3
 72
17
 73
13
 74
0
 42
0.0000001
 43
0.0000001
 44
0.0000000001
 40
0.0
 40
0.0
 40
0.0
 40
0.0
 40
0.1485580902
 40
0.2894549484
 40
0.4226449159
 40
0.5485405186
 40
0.6678771119
 40
0.7817927962
 40
0.8372275384
 40
0.8919117925
 40
0.9460850829
 40
1.0
 40
1.0
 40
1.0
 40
1.0
 10
10.7038601334
 20
7.1642099374
 30
0.0
 10
10.5606429716
 20
7.2468945337
 30
0.0
 10
10.2880700973
 20
7.4196596612
 30
0.0
 10
9.9154281137
 20
7.7080824219
 30
0.0
 10
9.5931142202
 20
8.0165939368
 30
0.0
 10
9.3243390591
 20
8.342378227
 30
0.0
 10
9.111856488
 20
8.6824930694
 30
0.0
 10
8.9824729093
 20
8.9781639435
 30
0.0
 10
8.9104995882
 20
9.2171876732
 30
0.0
 10
8.8721488315
 20
9.3962307211
 30
0.0
 10
8.8491027529
 20
9.5761587789
 30
0.0
 10
8.843979386
 20
9.6965432694
 30
0.0
 10
8.8439793859
 20
9.7565603144
 30
0.0
  0
SPLINE
  5
2E3
100
AcDbEntity
  8
0
100
AcDbSpline
 62
7
  6
BYLAYER
 70
0
 71
3
 72
19
 73
15
 74
0
 42
0.0000001
 43
0.0000001
 44
0.0000000001
 40
0.0
 40
0.0
 40
0.0
 40
0.0
 40
0.053906666
 40
0.108071665
 40
0.162747552
 40
0.218173813
 40
0.2745749386
 40
0.3321544229
 40
0.3910917568
 40
0.4515444541
 40
0.577420755
 40
0.7105901876
 40
0.8514650058
 40
1.0
 40
1.0
 40
1.0
 40
1.0
 10
7.1939779073
 20
15.455747186
 30
0.0
 10
7.1939779078
 20
15.3801350367
 30
0.0
 10
7.200432262
 20
15.2284697134
 30
0.0
 10
7.2294682248
 20
15.0017864073
 30
0.0
 10
7.2777792451
 20
14.7762271907
 30
0.0
 10
7.3451998342
 20
14.5523629988
 30
0.0
 10
7.4315920612
 20
14.3307484291
 30
0.0
 10
7.5367124975
 20
14.1119225471
 30
0.0
 10
7.6602756495
 20
13.896388518
 30
0.0
 10
7.851792689
 20
13.6103238086
 30
0.0
 10
8.1377910588
 20
13.2636323625
 30
0.0
 10
8.5438341359
 20
12.8749951261
 30
0.0
 10
9.0133108019
 20
12.511617084
 30
0.0
 10
9.3567078744
 20
12.293963443
 30
0.0
 10
9.537138802
 20
12.189793955
 30
0.0
  0
SPLINE
  5
2E4
100
AcDbEntity
  8
0
100
AcDbSpline
 62
7
  6
BYLAYER
 70
0
 71
3
 72
28
 73
24
 74
0
 42
0.0000001
 43
0.0000001
 44
0.0000000001
 40
0.0
 40
0.0
 40
0.0
 40
0.0
 40
0.0699385531
 40
0.1363864968
 40
0.1995515025
 40
0.259786103
 40
0.317597583
 40
0.3736378957
 40
0.4012520559
 40
0.4287209874
 40
0.4561524697
 40
0.4836547213
 40
0.5113350064
 40
0.5392966422
 40
0.5676376233
 40
0.5964499524
 40
0.6557808546
 40
0.7178856857
 40
0.7501216886
 40
0.7831884754
 40
0.8519018573
 40
0.9241903255
 40
1.0
 40
1.0
 40
1.0
 40
1.0
 10
9.1703888575
 20
18.4437814391
 30
0.0
 10
9.041196228
 20
18.3432314402
 30
0.0
 10
8.7976638535
 20
18.135945482
 30
0.0
 10
8.4732266451
 20
17.7987569529
 30
0.0
 10
8.2016201557
 20
17.445763687
 30
0.0
 10
7.9852249942
 20
17.0795887759
 30
0.0
 10
7.8259621507
 20
16.7031161775
 30
0.0
 10
7.7418073196
 20
16.3814726768
 30
0.0
 10
7.7049945581
 20
16.1237599471
 30
0.0
 10
7.6923932598
 20
15.9308251093
 30
0.0
 10
7.6946843096
 20
15.7377637135
 30
0.0
 10
7.711866294
 20
15.5449563922
 30
0.0
 10
7.7439314622
 20
15.3528051033
 30
0.0
 10
7.7907731049
 20
15.1616983385
 30
0.0
 10
7.8522931532
 20
14.9720118355
 30
0.0
 10
7.9547213752
 20
14.7191079825
 30
0.0
 10
8.1203600632
 20
14.4075957138
 30
0.0
 10
8.3284161006
 20
14.1130686065
 30
0.0
 10
8.5205209982
 20
13.884789776
 30
0.0
 10
8.7353522365
 20
13.6560039299
 30
0.0
 10
9.0372070386
 20
13.3812328654
 30
0.0
 10
9.4431432551
 20
13.0756209461
 30
0.0
 10
9.7370108868
 20
12.8908923267
 30
0.0
 10
9.8906907206
 20
12.8021672405
 30
0.0
  0
SPLINE
  5
2E5
100
AcDbEntity
  8
0
100
AcDbSpline
 62
7
  6
BYLAYER
 70
0
 71
3
 72
19
 73
15
 74
0
 42
0.0000001
 43
0.0000001
 44
0.0000000001
 40
0.0
 40
0.0
 40
0.0
 40
0.0
 40
0.1485347318
 40
0.2894093446
 40
0.422578647
 40
0.5484549061
 40
0.6089076178
 40
0.667844989
 40
0.7254245325
 40
0.7818257374
 40
0.8372520946
 40
0.8919280914
 40
0.9460932098
 40
1.0
 40
1.0
 40
1.0
 40
1.0
 10
20.8508473009
 20
12.1898211499
 30
0.0
 10
21.031274828
 20
12.2939904094
 30
0.0
 10
21.3746653568
 20
12.5116433325
 30
0.0
 10
21.8441327899
 20
12.875019393
 30
0.0
 10
22.2501676963
 20
13.263653888
 30
0.0
 10
22.5361601372
 20
13.6103423936
 30
0.0
 10
22.7276731699
 20
13.8964044473
 30
0.0
 10
22.8512337422
 20
14.1119364325
 30
0.0
 10
22.9563519691
 20
14.3307601668
 30
0.0
 10
23.0427423772
 20
14.552372497
 30
0.0
 10
23.1101615369
 20
14.7762343792
 30
0.0
 10
23.1584715276
 20
15.0017912309
 30
0.0
 10
23.1875068779
 20
15.2284721344
 30
0.0
 10
23.1939610926
 20
15.3801358392
 30
0.0
 10
23.1939610921
 20
15.455747186
 30
0.0
  0
SPLINE
  5
2E6
100
AcDbEntity
  8
0
100
AcDbSpline
 62
7
  6
BYLAYER
 70
0
 71
3
 72
23
 73
19
 74
0
 42
0.0000001
 43
0.0000001
 44
0.0000000001
 40
0.0
 40
0.0
 40
0.0
 40
0.0
 40
0.0558313904
 40
0.1141823702
 40
0.1747826488
 40
0.2373530275
 40
0.301549053
 40
0.3669926484
 40
0.4332829885
 40
0.5000005201
 40
0.5667180336
 40
0.6330083196
 40
0.6984518258
 40
0.762647729
 40
0.8252179548
 40
0.8858180534
 40
0.9441688301
 40
1.0
 40
1.0
 40
1.0
 40
1.0
 10
9.537138802
 20
12.189793955
 30
0.0
 10
9.7266420578
 20
12.0803866744
 30
0.0
 10
10.1240658248
 20
11.8733969151
 30
0.0
 10
10.7547221612
 20
11.60446731
 30
0.0
 10
11.4278591079
 20
11.3724477126
 30
0.0
 10
12.1369296942
 20
11.1795387736
 30
0.0
 10
12.8752411748
 20
11.0275515835
 30
0.0
 10
13.6357272462
 20
10.917936623
 30
0.0
 10
14.4111192898
 20
10.8517505028
 30
0.0
 10
15.1940027533
 20
10.8296240192
 30
0.0
 10
15.9768858985
 20
10.8517542544
 30
0.0
 10
16.7522769907
 20
10.9179440903
 30
0.0
 10
17.5127614869
 20
11.0275626951
 30
0.0
 10
18.251070784
 20
11.1795534236
 30
0.0
 10
18.9601386002
 20
11.3724657616
 30
0.0
 10
19.6332722176
 20
11.6044885875
 30
0.0
 10
20.2639246976
 20
11.8734212201
 30
0.0
 10
20.6613455826
 20
12.0804129349
 30
0.0
 10
20.8508473009
 20
12.1898211499
 30
0.0
  0
SPLINE
  5
2E7
100
AcDbEntity
  8
0
100
AcDbSpline
 62
7
  6
BYLAYER
 70
0
 71
3
 72
17
 73
13
 74
0
 42
0.0000001
 43
0.0000001
 44
0.0000000001
 40
0.0
 40
0.0
 40
0.0
 40
0.0
 40
0.053792479
 40
0.1078480975
 40
0.1624241219
 40
0.2177641453
 40
0.3315426864
 40
0.4508282929
 40
0.5767657686
 40
0.7100848279
 40
0.8511846942
 40
1.0
 40
1.0
 40
1.0
 40
1.0
 10
21.5439627299
 20
7.1437525797
 30
0.0
 10
21.5439623644
 20
7.0831058148
 30
0.0
 10
21.5387295839
 20
6.9614509515
 30
0.0
 10
21.5151981552
 20
6.7796378247
 30
0.0
 10
21.4760361181
 20
6.5987391801
 30
0.0
 10
21.4025352741
 20
6.3572376223
 30
0.0
 10
21.2704009151
 20
6.0585906775
 30
0.0
 10
21.053507339
 20
5.7153646559
 30
0.0
 10
20.7792498604
 20
5.3869184091
 30
0.0
 10
20.4504969539
 20
5.0762724203
 30
0.0
 10
20.070584689
 20
4.7863179685
 30
0.0
 10
19.7928617009
 20
4.6130069381
 30
0.0
 10
19.646969476
 20
4.5301531921
 30
0.0
  0
SPLINE
  5
2E8
100
AcDbEntity
  8
0
100
AcDbSpline
 62
7
  6
BYLAYER
 70
0
 71
3
 72
15
 73
11
 74
0
 42
0.0000001
 43
0.0000001
 44
0.0000000001
 40
0.0
 40
0.0
 40
0.0
 40
0.0
 40
0.1077078986
 40
0.2182039063
 40
0.3329338893
 40
0.4530616903
 40
0.5794257111
 40
0.7125707971
 40
0.8527937109
 40
1.0
 40
1.0
 40
1.0
 40
1.0
 10
8.8551566311
 20
8.559272297
 30
0.0
 10
8.8666293001
 20
8.4477867902
 30
0.0
 10
8.9078179808
 20
8.2234170362
 30
0.0
 10
9.021381619
 20
7.8948837449
 30
0.0
 10
9.1860315971
 20
7.5742061402
 30
0.0
 10
9.4001110051
 20
7.2641080283
 30
0.0
 10
9.6616221009
 20
6.9669472982
 30
0.0
 10
9.9683837334
 20
6.6850138033
 30
0.0
 10
10.3177810101
 20
6.4205538108
 30
0.0
 10
10.5712069153
 20
6.2609926754
 30
0.0
 10
10.7038601334
 20
6.1844070368
 30
0.0
  0
SPLINE
  5
2E9
100
AcDbEntity
  8
0
100
AcDbSpline
 62
7
  6
BYLAYER
 70
0
 71
3
 72
17
 73
13
 74
0
 42
0.0000001
 43
0.0000001
 44
0.0000000001
 40
0.0
 40
0.0
 40
0.0
 40
0.0
 40
0.148557886
 40
0.2894544154
 40
0.4226443718
 40
0.5485400724
 40
0.667876758
 40
0.7817925627
 40
0.8372273658
 40
0.8919116793
 40
0.946085026
 40
1.0
 40
1.0
 40
1.0
 40
1.0
 10
10.7038601334
 20
4.5514022026
 30
0.0
 10
10.5606430846
 20
4.6340867336
 30
0.0
 10
10.2880704217
 20
4.8068514302
 30
0.0
 10
9.9154285487
 20
5.0952737879
 30
0.0
 10
9.5931142232
 20
5.4037848104
 30
0.0
 10
9.3243380893
 20
5.7295688859
 30
0.0
 10
9.1118547462
 20
6.069683935
 30
0.0
 10
8.9824704744
 20
6.365355049
 30
0.0
 10
8.9104967721
 20
6.6043790979
 30
0.0
 10
8.8721457419
 20
6.7834223999
 30
0.0
 10
8.8490995638
 20
6.9633507493
 30
0.0
 10
8.8439761736
 20
7.0837354361
 30
0.0
 10
8.8439761733
 20
7.1437525796
 30
0.0
  0
SPLINE
  5
2EA
100
AcDbEntity
  8
0
100
AcDbSpline
 62
7
  6
BYLAYER
 70
0
 71
3
 72
23
 73
19
 74
0
 42
0.0000001
 43
0.0000001
 44
0.0000000001
 40
0.0
 40
0.0
 40
0.0
 40
0.0
 40
0.0560050242
 40
0.1144983825
 40
0.175207968
 40
0.23785422
 40
0.3020939347
 40
0.3675514408
 40
0.4338292234
 40
0.5005117835
 40
0.567176481
 40
0.6334010116
 40
0.6987709076
 40
0.7628904004
 40
0.8253863125
 40
0.8859187413
 40
0.9442122413
 40
1.0
 40
1.0
 40
1.0
 40
1.0
 10
19.646969476
 20
4.5301531921
 30
0.0
 10
19.4961632656
 20
4.4445087415
 30
0.0
 10
19.1802350443
 20
4.2825685924
 30
0.0
 10
18.6795615748
 20
4.0723626581
 30
0.0
 10
18.1458777283
 20
3.8912841034
 30
0.0
 10
17.5843201932
 20
3.7410330071
 30
0.0
 10
17.000135237
 20
3.6230059389
 30
0.0
 10
16.3988564485
 20
3.5383178063
 30
0.0
 10
15.786171467
 20
3.4877766979
 30
0.0
 10
15.1678782658
 20
3.4718592967
 30
0.0
 10
14.54983211
 20
3.4907049538
 30
0.0
 10
13.9378858979
 20
3.5441465924
 30
0.0
 10
13.3378303942
 20
3.6316801488
 30
0.0
 10
12.7553411852
 20
3.7524707816
 30
0.0
 10
12.1959352667
 20
3.905377718
 30
0.0
 10
11.6648379288
 20
4.0889803151
 30
0.0
 10
11.167161134
 20
4.3015549345
 30
0.0
 10
10.8534719071
 20
4.4650257588
 30
0.0
 10
10.7038601334
 20
4.5514022026
 30
0.0
  0
SPLINE
  5
2EB
100
AcDbEntity
  8
0
100
AcDbSpline
 62
7
  6
BYLAYER
 70
0
 71
3
 72
23
 73
19
 74
0
 42
0.0000001
 43
0.0000001
 44
0.0000000001
 40
0.0
 40
0.0
 40
0.0
 40
0.0
 40
0.0558314696
 40
0.1141826001
 40
0.1747829279
 40
0.2373533082
 40
0.301549306
 40
0.3669928384
 40
0.4332830917
 40
0.5000005239
 40
0.5667179379
 40
0.6330081366
 40
0.6984515791
 40
0.7626474537
 40
0.8252176801
 40
0.8858178266
 40
0.9441687519
 40
1.0
 40
1.0
 40
1.0
 40
1.0
 10
10.7038601334
 20
6.1844070368
 30
0.0
 10
10.8542785398
 20
6.097564894
 30
0.0
 10
11.169734379
 20
5.9332666868
 30
0.0
 10
11.6703186778
 20
5.7198037005
 30
0.0
 10
12.2046218486
 20
5.5356384715
 30
0.0
 10
12.7674467936
 20
5.382517599
 30
0.0
 10
13.353481265
 20
5.2618781838
 30
0.0
 10
13.957116526
 20
5.1748717687
 30
0.0
 10
14.5725831384
 20
5.1223368609
 30
0.0
 10
15.1939959299
 20
5.1047740252
 30
0.0
 10
15.8154084674
 20
5.1223398414
 30
0.0
 10
16.4308743203
 20
5.174877704
 30
0.0
 10
17.034508324
 20
5.2618870138
 30
0.0
 10
17.6205410539
 20
5.3825292375
 30
0.0
 10
18.183363789
 20
5.5356528103
 30
0.0
 10
18.7176643034
 20
5.7198205995
 30
0.0
 10
19.2182455287
 20
5.9332859833
 30
0.0
 10
19.5336990709
 20
6.0975857397
 30
0.0
 10
19.6841162544
 20
6.1844286227
 30
0.0
  0
SPLINE
  5
2EC
100
AcDbEntity
  8
0
100
AcDbSpline
 62
7
  6
BYLAYER
 70
0
 71
3
 72
15
 73
11
 74
0
 42
0.0000001
 43
0.0000001
 44
0.0000000001
 40
0.0
 40
0.0
 40
0.0
 40
0.0
 40
0.1469644192
 40
0.2870648569
 40
0.4201841265
 40
0.5466025514
 40
0.6668457504
 40
0.7817060488
 40
0.8922958371
 40
1.0
 40
1.0
 40
1.0
 40
1.0
 10
19.6841162544
 20
6.1844286227
 30
0.0
 10
19.8150848552
 20
6.2600429283
 30
0.0
 10
20.0654504916
 20
6.4175179064
 30
0.0
 10
20.4110919866
 20
6.6782068297
 30
0.0
 10
20.7152505721
 20
6.9559782453
 30
0.0
 10
20.9753969749
 20
7.2486553705
 30
0.0
 10
21.1894439355
 20
7.55403035
 30
0.0
 10
21.3554253249
 20
7.8698657
 30
0.0
 10
21.4717911123
 20
8.1935271103
 30
0.0
 10
21.5158282583
 20
8.4148399041
 30
0.0
 10
21.5289600361
 20
8.5248888975
 30
0.0
  0
SPLINE
  5
2ED
100
AcDbEntity
  8
0
100
AcDbSpline
 62
7
  6
BYLAYER
 70
0
 71
3
 72
23
 73
19
 74
0
 42
0.0000001
 43
0.0000001
 44
0.0000000001
 40
0.0
 40
0.0
 40
0.0
 40
0.0
 40
0.0546815691
 40
0.1113960059
 40
0.169959794
 40
0.2302054113
 40
0.2919517029
 40
0.3549791217
 40
0.4190509884
 40
0.4839192951
 40
0.5493279928
 40
0.6150109478
 40
0.6806988676
 40
0.7461233396
 40
0.8110187357
 40
0.8751271118
 40
0.938198766
 40
1.0
 40
1.0
 40
1.0
 40
1.0
 10
19.083072988
 20
8.4502139443
 30
0.0
 10
18.9795419513
 20
8.3904406291
 30
0.0
 10
18.7643617723
 20
8.2759457834
 30
0.0
 10
18.4258578526
 20
8.1221920882
 30
0.0
 10
18.0675544091
 20
7.9842231409
 30
0.0
 10
17.691740609
 20
7.8628498106
 30
0.0
 10
17.3006631492
 20
7.7588342088
 30
0.0
 10
16.8967068872
 20
7.6727442178
 30
0.0
 10
16.4823334501
 20
7.6051780177
 30
0.0
 10
16.0600855384
 20
7.5564869129
 30
0.0
 10
15.6325348558
 20
7.5270253416
 30
0.0
 10
15.202299093
 20
7.5169118856
 30
0.0
 10
14.7720118932
 20
7.5262731763
 30
0.0
 10
14.3443055776
 20
7.5549892774
 30
0.0
 10
13.9217998216
 20
7.6029456885
 30
0.0
 10
13.5070680971
 20
7.669788588
 30
0.0
 10
13.1026673937
 20
7.7551670964
 30
0.0
 10
12.8385635479
 20
7.8248572855
 30
0.0
 10
12.708881428
 20
7.8627773293
 30
0.0
  0
SPLINE
  5
2EE
100
AcDbEntity
  8
0
100
AcDbSpline
 62
7
  6
BYLAYER
 70
0
 71
3
 72
23
 73
19
 74
0
 42
0.0000001
 43
0.0000001
 44
0.0000000001
 40
0.0
 40
0.0
 40
0.0
 40
0.0
 40
0.0558314696
 40
0.1141826001
 40
0.1747829279
 40
0.2373533082
 40
0.301549306
 40
0.3669928384
 40
0.4332830917
 40
0.5000005239
 40
0.5667179379
 40
0.6330081366
 40
0.6984515791
 40
0.7626474537
 40
0.8252176801
 40
0.8858178266
 40
0.9441687519
 40
1.0
 40
1.0
 40
1.0
 40
1.0
 10
10.7038601334
 20
8.1031877171
 30
0.0
 10
10.8542785398
 20
8.0163455743
 30
0.0
 10
11.169734379
 20
7.8520473671
 30
0.0
 10
11.6703186778
 20
7.6385843808
 30
0.0
 10
12.2046218486
 20
7.4544191518
 30
0.0
 10
12.7674467936
 20
7.3012982793
 30
0.0
 10
13.353481265
 20
7.1806588641
 30
0.0
 10
13.957116526
 20
7.093652449
 30
0.0
 10
14.5725831384
 20
7.0411175412
 30
0.0
 10
15.1939959299
 20
7.0235547055
 30
0.0
 10
15.8154084674
 20
7.0411205216
 30
0.0
 10
16.4308743203
 20
7.0936583842
 30
0.0
 10
17.034508324
 20
7.180667694
 30
0.0
 10
17.6205410539
 20
7.3013099178
 30
0.0
 10
18.183363789
 20
7.4544334905
 30
0.0
 10
18.7176643034
 20
7.6386012797
 30
0.0
 10
19.2182455287
 20
7.8520666635
 30
0.0
 10
19.5336990709
 20
8.01636642
 30
0.0
 10
19.6841162544
 20
8.1032093029
 30
0.0
  0
SPLINE
  5
2EF
100
AcDbEntity
  8
0
100
AcDbSpline
 62
7
  6
BYLAYER
 70
0
 71
3
 72
17
 73
13
 74
0
 42
0.0000001
 43
0.0000001
 44
0.0000000001
 40
0.0
 40
0.0
 40
0.0
 40
0.0
 40
0.1480561894
 40
0.2887199088
 40
0.4219080773
 40
0.5479888274
 40
0.6676270362
 40
0.7818359516
 40
0.8373665821
 40
0.8920882765
 40
0.9462220086
 40
1.0
 40
1.0
 40
1.0
 40
1.0
 10
19.6841162544
 20
8.1032093029
 30
0.0
 10
19.8233432541
 20
8.1835915689
 30
0.0
 10
20.0887092395
 20
8.3513748463
 30
0.0
 10
20.4526721294
 20
8.6307088805
 30
0.0
 10
20.7692923465
 20
8.9291338695
 30
0.0
 10
21.0355776739
 20
9.2440615377
 30
0.0
 10
21.2490343934
 20
9.5727687218
 30
0.0
 10
21.3822708288
 20
9.8587075924
 30
0.0
 10
21.4592481265
 20
10.0901834271
 30
0.0
 10
21.5021684657
 20
10.2636458726
 30
0.0
 10
21.5307091734
 20
10.4381033589
 30
0.0
 10
21.5401099425
 20
10.5550583569
 30
0.0
 10
21.5423726001
 20
10.6134087685
 30
0.0
  0
SPLINE
  5
2F0
100
AcDbEntity
  8
0
100
AcDbSpline
 62
7
  6
BYLAYER
 70
0
 71
3
 72
12
 73
8
 74
0
 42
0.0000001
 43
0.0000001
 44
0.0000000001
 40
0.0
 40
0.0
 40
0.0
 40
0.0
 40
0.1145034967
 40
0.2301641048
 40
0.4688569126
 40
0.7237967892
 40
1.0
 40
1.0
 40
1.0
 40
1.0
 10
12.5108741582
 20
33.2242656551
 30
0.0
 10
12.5259508428
 20
33.2329701316
 30
0.0
 10
12.5573792608
 20
33.2486045272
 30
0.0
 10
12.6247561312
 20
33.2723315047
 30
0.0
 10
12.7171401903
 20
33.2869579619
 30
0.0
 10
12.8347065057
 20
33.2801438982
 30
0.0
 10
12.9135629586
 20
33.260749589
 30
0.0
 10
12.9534804856
 20
33.2477086843
 30
0.0
  0
SPLINE
  5
2F1
100
AcDbEntity
  8
0
100
AcDbSpline
 62
7
  6
BYLAYER
 70
0
 71
3
 72
20
 73
16
 74
0
 42
0.0000001
 43
0.0000001
 44
0.0000000001
 40
0.0
 40
0.0
 40
0.0
 40
0.0
 40
0.0556408678
 40
0.1124723205
 40
0.2300112016
 40
0.3532266423
 40
0.4169728627
 40
0.4820052318
 40
0.6150903585
 40
0.6825203347
 40
0.7498320937
 40
0.8162662246
 40
0.8808592399
 40
0.9424866852
 40
1.0
 40
1.0
 40
1.0
 40
1.0
 10
14.0378636663
 20
31.4053891935
 30
0.0
 10
14.0378633068
 20
31.4515734561
 30
0.0
 10
14.0333328247
 20
31.5449874244
 30
0.0
 10
14.0066284
 20
31.7342480894
 30
0.0
 10
13.9400278677
 20
31.9733598755
 30
0.0
 10
13.8362244061
 20
32.2046970449
 30
0.0
 10
13.7329399103
 20
32.3867004864
 30
0.0
 10
13.6146105311
 20
32.5691516793
 30
0.0
 10
13.4794877353
 20
32.743899672
 30
0.0
 10
13.3307736208
 20
32.9092220846
 30
0.0
 10
13.2130521014
 20
33.0277564387
 30
0.0
 10
13.0912933851
 20
33.1386641585
 30
0.0
 10
12.9675157983
 20
33.2400402423
 30
0.0
 10
12.8441193121
 20
33.3298043638
 30
0.0
 10
12.7604490332
 20
33.3827086868
 30
0.0
 10
12.7191060695
 20
33.406577518
 30
0.0
  0
SPLINE
  5
2F2
100
AcDbEntity
  8
0
100
AcDbSpline
 62
7
  6
BYLAYER
 70
0
 71
3
 72
13
 73
9
 74
0
 42
0.0000001
 43
0.0000001
 44
0.0000000001
 40
0.0
 40
0.0
 40
0.0
 40
0.0
 40
0.1081033366
 40
0.2182377598
 40
0.332238321
 40
0.4516627248
 40
0.7106932938
 40
1.0
 40
1.0
 40
1.0
 40
1.0
 10
15.8278695053
 20
26.6538460813
 30
0.0
 10
15.8196712653
 20
26.6585792313
 30
0.0
 10
15.8039150015
 20
26.6695856047
 30
0.0
 10
15.7830887474
 20
26.690076154
 30
0.0
 10
15.7651731956
 20
26.7143941609
 30
0.0
 10
15.7448629007
 20
26.7525851306
 30
0.0
 10
15.7281407669
 20
26.8092429847
 30
0.0
 10
15.7243120975
 20
26.857402808
 30
0.0
 10
15.7243120975
 20
26.8827369946
 30
0.0
  0
SPLINE
  5
2F3
100
AcDbEntity
  8
0
100
AcDbSpline
 62
7
  6
BYLAYER
 70
0
 71
3
 72
23
 73
19
 74
0
 42
0.0000001
 43
0.0000001
 44
0.0000000001
 40
0.0
 40
0.0
 40
0.0
 40
0.0
 40
0.0776537374
 40
0.1549126522
 40
0.2311938099
 40
0.3060428954
 40
0.3790296923
 40
0.4497391959
 40
0.5178176453
 40
0.58297753
 40
0.6450163039
 40
0.7038235558
 40
0.7594142425
 40
0.8119362803
 40
0.8616942222
 40
0.9091720922
 40
0.9550275664
 40
1.0
 40
1.0
 40
1.0
 40
1.0
 10
15.2297002162
 20
25.3560907223
 30
0.0
 10
15.1145662438
 20
25.3554120925
 30
0.0
 10
14.8847917655
 20
25.3606174491
 30
0.0
 10
14.5429116275
 20
25.3879101327
 30
0.0
 10
14.2073046001
 20
25.4345260331
 30
0.0
 10
13.8813045003
 20
25.4999590409
 30
0.0
 10
13.5680122472
 20
25.5835748602
 30
0.0
 10
13.2704503696
 20
25.6845928117
 30
0.0
 10
12.9914919306
 20
25.8020213667
 30
0.0
 10
12.7338368746
 20
25.9347848971
 30
0.0
 10
12.4999320003
 20
26.0815806276
 30
0.0
 10
12.2920622308
 20
26.2411085622
 30
0.0
 10
12.1122124205
 20
26.411862996
 30
0.0
 10
11.962206476
 20
26.592341319
 30
0.0
 10
11.84356896
 20
26.7808748044
 30
0.0
 10
11.7576601201
 20
26.9757879321
 30
0.0
 10
11.7056635532
 20
27.1750639132
 30
0.0
 10
11.693975593
 20
27.3100025903
 30
0.0
 10
11.6939703578
 20
27.3766825085
 30
0.0
  0
SPLINE
  5
2F4
100
AcDbEntity
  8
0
100
AcDbSpline
 62
7
  6
BYLAYER
 70
0
 71
3
 72
9
 73
5
 74
0
 42
0.0000001
 43
0.0000001
 44
0.0000000001
 40
0.0
 40
0.0
 40
0.0
 40
0.0
 40
0.2570071637
 40
1.0
 40
1.0
 40
1.0
 40
1.0
 10
14.0351937879
 20
31.5342962492
 30
0.0
 10
14.0344254172
 20
31.5232801708
 30
0.0
 10
14.0307664141
 20
31.4804688251
 30
0.0
 10
14.0243679745
 20
31.4378739872
 30
0.0
 10
14.017849236
 20
31.4066223977
 30
0.0
  0
SPLINE
  5
2F5
100
AcDbEntity
  8
0
100
AcDbSpline
 62
7
  6
BYLAYER
 70
0
 71
3
 72
12
 73
8
 74
0
 42
0.0000001
 43
0.0000001
 44
0.0000000001
 40
0.0
 40
0.0
 40
0.0
 40
0.0
 40
0.2754930698
 40
0.5302616627
 40
0.7692588448
 40
0.8851886439
 40
1.0
 40
1.0
 40
1.0
 40
1.0
 10
14.0154353469
 20
31.395433856
 30
0.0
 10
14.0065106833
 20
31.3554097416
 30
0.0
 10
13.9835467674
 20
31.2794404099
 30
0.0
 10
13.9308488265
 20
31.1770104152
 30
0.0
 10
13.8727420882
 20
31.1061922222
 30
0.0
 10
13.8193933772
 20
31.0607793344
 30
0.0
 10
13.7906626674
 20
31.0417731306
 30
0.0
 10
13.7758625853
 20
31.0332283497
 30
0.0
  0
SPLINE
  5
2F6
100
AcDbEntity
  8
0
100
AcDbSpline
 62
7
  6
BYLAYER
 70
0
 71
3
 72
15
 73
11
 74
0
 42
0.0000001
 43
0.0000001
 44
0.0000000001
 40
0.0
 40
0.0
 40
0.0
 40
0.0
 40
0.1080132134
 40
0.2180692915
 40
0.3320072107
 40
0.4513450946
 40
0.5772524299
 40
0.7105305573
 40
0.8515215253
 40
1.0
 40
1.0
 40
1.0
 40
1.0
 10
13.7758625853
 20
31.0332283497
 30
0.0
 10
13.7551227584
 20
31.0212542758
 30
0.0
 10
13.7110919648
 20
31.0006208819
 30
0.0
 10
13.6398338517
 20
30.9809414663
 30
0.0
 10
13.5638859421
 20
30.9724585678
 30
0.0
 10
13.4840428828
 20
30.9752298683
 30
0.0
 10
13.4010617241
 20
30.9891480365
 30
0.0
 10
13.3157073239
 20
31.0140371002
 30
0.0
 10
13.2288336791
 20
31.049615265
 30
0.0
 10
13.1718781312
 20
31.0794116998
 30
0.0
 10
13.1433683718
 20
31.0958714447
 30
0.0
  0
SPLINE
  5
2F7
100
AcDbEntity
  8
0
100
AcDbSpline
 62
7
  6
BYLAYER
 70
0
 71
3
 72
13
 73
9
 74
0
 42
0.0000001
 43
0.0000001
 44
0.0000000001
 40
0.0
 40
0.0
 40
0.0
 40
0.0
 40
0.2893052466
 40
0.5483352362
 40
0.6677598057
 40
0.78176081
 40
0.8918958892
 40
1.0
 40
1.0
 40
1.0
 40
1.0
 10
16.0778640161
 20
26.6786078629
 30
0.0
 10
16.0559249154
 20
26.6659413929
 30
0.0
 10
16.0123048035
 20
26.6451781965
 30
0.0
 10
15.9548790482
 20
26.6313316745
 30
0.0
 10
15.9116512747
 20
26.629825323
 30
0.0
 10
15.8816345505
 20
26.6331813132
 30
0.0
 10
15.8534769628
 20
26.6409715108
 30
0.0
 10
15.8360674787
 20
26.6491130853
 30
0.0
 10
15.8278695053
 20
26.6538460813
 30
0.0
  0
SPLINE
  5
2F8
100
AcDbEntity
  8
0
100
AcDbSpline
 62
7
  6
BYLAYER
 70
0
 71
3
 72
15
 73
11
 74
0
 42
0.0000001
 43
0.0000001
 44
0.0000000001
 40
0.0
 40
0.0
 40
0.0
 40
0.0
 40
0.1147240664
 40
0.2382735702
 40
0.3680003043
 40
0.5009386772
 40
0.6337475287
 40
0.7630974004
 40
0.8860626297
 40
1.0
 40
1.0
 40
1.0
 40
1.0
 10
18.1991359762
 20
28.3054938958
 30
0.0
 10
18.1987761906
 20
28.277641668
 30
0.0
 10
18.1930621315
 20
28.219806218
 30
0.0
 10
18.1720848888
 20
28.1327217018
 30
0.0
 10
18.139085377
 20
28.0447128956
 30
0.0
 10
18.0953186165
 20
27.9590245819
 30
0.0
 10
18.042355839
 20
27.8788034593
 30
0.0
 10
17.9821568292
 20
27.8069609895
 30
0.0
 10
17.9169240968
 20
27.7461908795
 30
0.0
 10
17.8695809774
 20
27.7130499581
 30
0.0
 10
17.8456236091
 20
27.6992182476
 30
0.0
  0
SPLINE
  5
2F9
100
AcDbEntity
  8
0
100
AcDbSpline
 62
7
  6
BYLAYER
 70
0
 71
3
 72
23
 73
19
 74
0
 42
0.0000001
 43
0.0000001
 44
0.0000000001
 40
0.0
 40
0.0
 40
0.0
 40
0.0
 40
0.0449723031
 40
0.0908275005
 40
0.1383052161
 40
0.1880631313
 40
0.2405851553
 40
0.2961759091
 40
0.3549832849
 40
0.4170222499
 40
0.4821823563
 40
0.5502610507
 40
0.620970751
 40
0.6939577219
 40
0.7688069179
 40
0.8450879322
 40
0.9223464438
 40
1.0
 40
1.0
 40
1.0
 40
1.0
 10
11.6939703511
 20
35.2559307862
 30
0.0
 10
11.6939755459
 20
35.1892510251
 30
0.0
 10
11.7056629049
 20
35.0543128347
 30
0.0
 10
11.7576590239
 20
34.855037493
 30
0.0
 10
11.8435665114
 20
34.6601244115
 30
0.0
 10
11.9622032731
 20
34.4715906326
 30
0.0
 10
12.1122085063
 20
34.2911114923
 30
0.0
 10
12.2920583959
 20
34.1203565379
 30
0.0
 10
12.499928415
 20
33.9608277608
 30
0.0
 10
12.7338341172
 20
33.8140315447
 30
0.0
 10
12.9914901914
 20
33.681267505
 30
0.0
 10
13.2704498769
 20
33.5638389399
 30
0.0
 10
13.5680128761
 20
33.4628209082
 30
0.0
 10
13.8813062053
 20
33.3792056547
 30
0.0
 10
14.2073067726
 20
33.3137730154
 30
0.0
 10
14.5429134297
 20
33.2671577998
 30
0.0
 10
14.884792721
 20
33.239865702
 30
0.0
 10
15.1145664484
 20
33.2346606533
 30
0.0
 10
15.2297002162
 20
33.2353390476
 30
0.0
  0
SPLINE
  5
2FA
100
AcDbEntity
  8
0
100
AcDbSpline
 62
7
  6
BYLAYER
 70
0
 71
3
 72
20
 73
16
 74
0
 42
0.0000001
 43
0.0000001
 44
0.0000000001
 40
0.0
 40
0.0
 40
0.0
 40
0.0
 40
0.0511934368
 40
0.1023917592
 40
0.1540300665
 40
0.2065525758
 40
0.260387753
 40
0.315912358
 40
0.4330459547
 40
0.4951845312
 40
0.5598301217
 40
0.6270411329
 40
0.6968160709
 40
0.8437864199
 40
1.0
 40
1.0
 40
1.0
 40
1.0
 10
11.9030469072
 20
35.5604483511
 30
0.0
 10
11.8974706079
 20
35.5171312328
 30
0.0
 10
11.8914284299
 20
35.4297438951
 30
0.0
 10
11.8980250472
 20
35.2982061831
 30
0.0
 10
11.9203190443
 20
35.1672397821
 30
0.0
 10
11.95819649
 20
35.0375837683
 30
0.0
 10
12.0113993426
 20
34.9098391307
 30
0.0
 10
12.1040272012
 20
34.7399341899
 30
0.0
 10
12.225694406
 20
34.5791470871
 30
0.0
 10
12.3708143105
 20
34.4298305152
 30
0.0
 10
12.4950941855
 20
34.3202728186
 30
0.0
 10
12.6320515957
 20
34.2159738145
 30
0.0
 10
12.8341820065
 20
34.0821726109
 30
0.0
 10
13.1154330387
 20
33.9317661968
 30
0.0
 10
13.3557134217
 20
33.8347015669
 30
0.0
 10
13.4814828693
 20
33.790622123
 30
0.0
  0
SPLINE
  5
2FB
100
AcDbEntity
  8
0
100
AcDbSpline
 62
7
  6
BYLAYER
 70
0
 71
3
 72
11
 73
7
 74
0
 42
0.0000001
 43
0.0000001
 44
0.0000000001
 40
0.0
 40
0.0
 40
0.0
 40
0.0
 40
0.2390380183
 40
0.4878830858
 40
0.7428868586
 40
1.0
 40
1.0
 40
1.0
 40
1.0
 10
13.4814828693
 20
33.790622123
 30
0.0
 10
13.6308721506
 20
33.7382644435
 30
0.0
 10
13.941900738
 20
33.6483012378
 30
0.0
 10
14.426307044
 20
33.5584995507
 30
0.0
 10
14.9288143371
 20
33.5125825135
 30
0.0
 10
15.2684834689
 20
33.5119439876
 30
0.0
 10
15.4385955329
 20
33.5192445785
 30
0.0
  0
SPLINE
  5
2FC
100
AcDbEntity
  8
0
100
AcDbSpline
 62
7
  6
BYLAYER
 70
0
 71
3
 72
19
 73
15
 74
0
 42
0.0000001
 43
0.0000001
 44
0.0000000001
 40
0.0
 40
0.0
 40
0.0
 40
0.0
 40
0.0667385388
 40
0.1311537403
 40
0.1937507879
 40
0.2550904429
 40
0.3157018135
 40
0.376019428
 40
0.4363656809
 40
0.496960225
 40
0.6192250047
 40
0.7435949105
 40
0.8703769149
 40
1.0
 40
1.0
 40
1.0
 40
1.0
 10
12.7191060695
 20
30.3610235021
 30
0.0
 10
12.7529939807
 20
30.3414587501
 30
0.0
 10
12.8223734983
 20
30.3075579623
 30
0.0
 10
12.931166405
 20
30.2734064604
 30
0.0
 10
13.0408059426
 20
30.256869165
 30
0.0
 10
13.1494196825
 20
30.2572635094
 30
0.0
 10
13.2554319388
 20
30.2734165379
 30
0.0
 10
13.3575747034
 20
30.3039305307
 30
0.0
 10
13.4548746174
 20
30.3473771735
 30
0.0
 10
13.5773936092
 20
30.4208865205
 30
0.0
 10
13.7152129187
 20
30.5391908475
 30
0.0
 10
13.8502770038
 20
30.7131923441
 30
0.0
 10
13.952311123
 20
30.9131523372
 30
0.0
 10
13.9954598878
 20
31.0581583514
 30
0.0
 10
14.010686307
 20
31.1326181171
 30
0.0
  0
SPLINE
  5
2FD
100
AcDbEntity
  8
0
100
AcDbSpline
 62
7
  6
BYLAYER
 70
0
 71
3
 72
9
 73
5
 74
0
 42
0.0000001
 43
0.0000001
 44
0.0000000001
 40
0.0
 40
0.0
 40
0.0
 40
0.0
 40
0.4955768211
 40
1.0
 40
1.0
 40
1.0
 40
1.0
 10
14.010686307
 20
31.1326181171
 30
0.0
 10
14.0197700934
 20
31.17703937
 30
0.0
 10
14.0334316513
 20
31.2676876541
 30
0.0
 10
14.0378640254
 20
31.3592393152
 30
0.0
 10
14.0378636663
 20
31.4053891935
 30
0.0
  0
SPLINE
  5
2FE
100
AcDbEntity
  8
0
100
AcDbSpline
 62
7
  6
BYLAYER
 70
0
 71
3
 72
36
 73
32
 74
0
 42
0.0000001
 43
0.0000001
 44
0.0000000001
 40
0.0
 40
0.0
 40
0.0
 40
0.0
 40
0.0320804959
 40
0.0606638398
 40
0.0856998802
 40
0.1074837753
 40
0.1266428817
 40
0.1440738787
 40
0.160819131
 40
0.1778812388
 40
0.1960632201
 40
0.2159171317
 40
0.2377798409
 40
0.2618315233
 40
0.2881418096
 40
0.3166983683
 40
0.3474242135
 40
0.3801888625
 40
0.4148176868
 40
0.4511025041
 40
0.527700901
 40
0.6080725256
 40
0.6903314287
 40
0.7316072746
 40
0.7726614739
 40
0.8132435375
 40
0.8530865158
 40
0.8919133212
 40
0.9294604023
 40
0.9655192669
 40
1.0
 40
1.0
 40
1.0
 40
1.0
 10
12.7191060695
 20
33.406577518
 30
0.0
 10
12.6814307582
 20
33.4283288771
 30
0.0
 10
12.6086305881
 20
33.4668825499
 30
0.0
 10
12.5010910299
 20
33.5114792742
 30
0.0
 10
12.4024019355
 20
33.5393561931
 30
0.0
 10
12.3132110676
 20
33.5505791514
 30
0.0
 10
12.2336378125
 20
33.5454393178
 30
0.0
 10
12.1637203759
 20
33.5243361142
 30
0.0
 10
12.1035949372
 20
33.4881295543
 30
0.0
 10
12.0529877834
 20
33.4382391996
 30
0.0
 10
12.0109802316
 20
33.3759821543
 30
0.0
 10
11.9764845255
 20
33.3021681267
 30
0.0
 10
11.9485987447
 20
33.21728497
 30
0.0
 10
11.9266395785
 20
33.1217303328
 30
0.0
 10
11.9100933725
 20
33.0159281633
 30
0.0
 10
11.8985774673
 20
32.9003829561
 30
0.0
 10
11.8918236555
 20
32.7757082262
 30
0.0
 10
11.8896738688
 20
32.642641537
 30
0.0
 10
11.8920751475
 20
32.5020423369
 30
0.0
 10
11.9016127977
 20
32.3022088653
 30
0.0
 10
11.9257814806
 20
32.0410863799
 30
0.0
 10
11.9755450531
 20
31.7202973761
 30
0.0
 10
12.038106506
 20
31.4505706498
 30
0.0
 10
12.1040495991
 20
31.2372447191
 30
0.0
 10
12.1621287261
 20
31.0809042868
 30
0.0
 10
12.2294831935
 20
30.9304199468
 30
0.0
 10
12.3067439359
 20
30.7881434365
 30
0.0
 10
12.3942981537
 20
30.6568014497
 30
0.0
 10
12.4921450232
 20
30.5394192229
 30
0.0
 10
12.5996239312
 20
30.4391513009
 30
0.0
 10
12.6786119214
 20
30.3844022805
 30
0.0
 10
12.7191060695
 20
30.3610235021
 30
0.0
  0
SPLINE
  5
2FF
100
AcDbEntity
  8
0
100
AcDbSpline
 62
7
  6
BYLAYER
 70
0
 71
3
 72
15
 73
11
 74
0
 42
0.0000001
 43
0.0000001
 44
0.0000000001
 40
0.0
 40
0.0
 40
0.0
 40
0.0
 40
0.1484790227
 40
0.2894704229
 40
0.4227488171
 40
0.5486562375
 40
0.6679940146
 40
0.7819316479
 40
0.8919872947
 40
1.0
 40
1.0
 40
1.0
 40
1.0
 10
12.2488745695
 20
32.6451715569
 30
0.0
 10
12.2488745695
 20
32.6780926089
 30
0.0
 10
12.2515473372
 20
32.7423177425
 30
0.0
 10
12.2641720917
 20
32.8353444922
 30
0.0
 10
12.2852946175
 20
32.9217107652
 30
0.0
 10
12.3147319418
 20
33.0005360239
 30
0.0
 10
12.3522540355
 20
33.0710698379
 30
0.0
 10
12.3975752946
 20
33.1326028739
 30
0.0
 10
12.450248436
 20
33.1844757256
 30
0.0
 10
12.4901338732
 20
33.2122913167
 30
0.0
 10
12.5108741582
 20
33.2242656551
 30
0.0
  0
SPLINE
  5
300
100
AcDbEntity
  8
0
100
AcDbSpline
 62
7
  6
BYLAYER
 70
0
 71
3
 72
15
 73
11
 74
0
 42
0.0000001
 43
0.0000001
 44
0.0000000001
 40
0.0
 40
0.0
 40
0.0
 40
0.0
 40
0.1114772914
 40
0.2305716082
 40
0.3556289732
 40
0.4848465538
 40
0.616093219
 40
0.7471544609
 40
0.8758213425
 40
1.0
 40
1.0
 40
1.0
 40
1.0
 10
13.1433683718
 20
31.0958714447
 30
0.0
 10
13.0939460881
 20
31.124404768
 30
0.0
 10
12.9958691802
 20
31.1907713237
 30
0.0
 10
12.8579080637
 20
31.3100869071
 30
0.0
 10
12.7271200416
 20
31.4499271892
 30
0.0
 10
12.6067780175
 20
31.6067175557
 30
0.0
 10
12.499867999
 20
31.7765871247
 30
0.0
 10
12.4090711175
 20
31.9552790955
 30
0.0
 10
12.336654925
 20
32.1382817269
 30
0.0
 10
12.3010290807
 20
32.263004705
 30
0.0
 10
12.2869598587
 20
32.3249979774
 30
0.0
  0
SPLINE
  5
301
100
AcDbEntity
  8
0
100
AcDbSpline
 62
7
  6
BYLAYER
 70
0
 71
3
 72
9
 73
5
 74
0
 42
0.0000001
 43
0.0000001
 44
0.0000000001
 40
0.0
 40
0.0
 40
0.0
 40
0.0
 40
0.5154926762
 40
1.0
 40
1.0
 40
1.0
 40
1.0
 10
12.2869598587
 20
32.3249979774
 30
0.0
 10
12.274679121
 20
32.3791106441
 30
0.0
 10
12.2559191956
 20
32.4853163813
 30
0.0
 10
12.2488745695
 20
32.5930181727
 30
0.0
 10
12.2488745695
 20
32.6451715569
 30
0.0
  0
ENDSEC
  0
SECTION
  2
OBJECTS
  0
DICTIONARY
  5
C
100
AcDbDictionary
280
0
281
1
  3
ACAD_GROUP
350
D
  3
ACAD_MLINESTYLE
350
17
  3
ACAD_LAYOUT
350
1A
  3
ACAD_PLOTSETTINGS
350
19
  3
ACAD_PLOTSTYLENAME
350
E
  0
DICTIONARY
  5
D
102
{ACAD_REACTORS
330
C
102
}
100
AcDbDictionary
280
0
281
1
  0
ACDBDICTIONARYWDFLT
  5
E
102
{ACAD_REACTORS
330
C
102
}
100
AcDbDictionary
281
1
  3
Normal
350
F
100
AcDbDictionaryWithDefault
340
F
  0
DICTIONARY
  5
17
102
{ACAD_REACTORS
330
C
102
}
100
AcDbDictionary
280
0
281
1
  3
Standard
350
18
  0
DICTIONARY
  5
19
102
{ACAD_REACTORS
330
C
102
}
100
AcDbDictionary
281
1
  0
DICTIONARY
  5
1A
102
{ACAD_REACTORS
330
C
102
}
100
AcDbDictionary
281
1
  3
Model
350
302
  3
Layout1
350
303
  0
ACDBPLACEHOLDER
  5
F
102
{ACAD_REACTORS
330
E
102
}
  0
MLINESTYLE
  5
18
102
{ACAD_REACTORS
330
17
102
}
100
AcDbMlineStyle
  2
STANDARD
 70
0
  3

 62
256
 51
90.0
 52
90.0
 71
2
 49
0.5
 62
256
  6
BYLAYER
 49
-0.5
 62
256
  6
BYLAYER
  0
LAYOUT
  5
302
102
{ACAD_REACTORS
330
1A
102
}
100
AcDbPlotSettings
  1

  2
none_device
  4

  6

 40
0.0
 41
0.0
 42
0.0
 43
0.0
 44
210.0
 45
297.0
 46
0.0
 47
0.0
 48
0.0
 49
0.0
140
0.0
141
0.0
142
1.0
143
1.0
 70
1024
 72
1
 73
0
 74
0
  7

 75
0
147
1.0
148
0.0
149
0.0
100
AcDbLayout
  1
Model
 70
0
 71
0
 10
0.0
 20
0.0
 11
210.0
 21
297.0
 12
0.0
 22
0.0
 32
0.0
 14
0.0
 24
0.0
 34
0.0
 15
0.0
 25
0.0
 35
0.0
146
0.0
 13
0.0
 23
0.0
 33
0.0
 16
1.0
 26
0.0
 36
0.0
 17
0.0
 27
1.0
 37
0.0
 76
0
330
210
345
0
346
0
  0
LAYOUT
  5
303
102
{ACAD_REACTORS
330
1A
102
}
100
AcDbPlotSettings
  1

  2
none_device
  4

  6

 40
0.0
 41
0.0
 42
0.0
 43
0.0
 44
210.0
 45
297.0
 46
0.0
 47
0.0
 48
0.0
 49
0.0
140
0.0
141
0.0
142
1.0
143
1.0
 70
0
 72
1
 73
0
 74
0
  7

 75
0
147
1.0
148
0.0
149
0.0
100
AcDbLayout
  1
Layout1
 70
0
 71
1
 10
0.0
 20
0.0
 11
210.0
 21
297.0
 12
0.0
 22
0.0
 32
0.0
 14
0.0
 24
0.0
 34
0.0
 15
0.0
 25
0.0
 35
0.0
146
0.0
 13
0.0
 23
0.0
 33
0.0
 16
1.0
 26
0.0
 36
0.0
 17
0.0
 27
1.0
 37
0.0
 76
0
330
211
345
0
346
0
  0
ENDSEC
  0
EOF
