999
DXF file: C:\Users\sesa63760\Dev\_Creo\CAD\MCADID0004757_3D-CAD\drw0001_1.dxf
999
Pro/ENGINEER 2019471 by Parametric Technology Corporation
  0
SECTION
  2
HEADER
  9
$ACADVER
  1
AC1024
  9
$DWGCODEPAGE
  3
ANSI_1252
  9
$EXTMAX
 10
35.0955060227
 20
49.6350728036
 30
0.0
  9
$EXTMIN
 10
0.0
 20
0.0
 30
0.0
  9
$LIMMIN
 10
0.0
 20
0.0
  9
$LIMMAX
 10
35.0955060227
 20
49.6350728036
  9
$VIEWCTR
 10
17.5477530114
 20
24.8175364018
  9
$VIEWSIZE
 40
49.6350728036
  9
$CLAYER
  8
0
  9
$LTSCALE
 40
3.2354714124
  9
$CELTYPE
  6
BYLAYER
  9
$DIMSCALE
 40
1.0
  9
$DIMASZ
 40
0.4178036431
  9
$DIMEXO
 40
1.0
  9
$DIMDLI
 40
2.2354166122
  9
$DIMEXE
 40
1.0
  9
$DIMCEN
 40
0.5294407766
  9
$DIMLFAC
 40
1.0
  9
$DIMBLK
  1
_FILLED
  9
$DIMALT
 70
0
  9
$DIMALTF
 40
0.0393700787
  9
$DIMTXT
 40
0.5849251004
  9
$DIMTOL
 70
1
  9
$DIMLIM
 70
0
  9
$DIMTFAC
 40
1.0
  9
$DIMTP
 40
0.01
  9
$DIMTM
 40
0.01
  9
$DIMGAP
 40
0.625
  9
$DIMDSEP
 70
46
  9
$AUNITS
 70
0
  9
$PDMODE
 70
3
  9
$PDSIZE
 40
0.3125
  9
$HANDSEED
  5
312
  9
$TILEMODE
 70
1
  9
$MEASUREMENT
 70
1
  9
$INSUNITS
 70
4
  0
ENDSEC
  0
SECTION
  2
CLASSES
  0
CLASS
  1
ACDBDICTIONARYWDFLT
  2
AcDbDictionaryWithDefault
  3
AutoCAD 2000
 90
0
 91
1
280
0
281
0
  0
CLASS
  1
ACDBPLACEHOLDER
  2
AcDbPlaceHolder
  3
AutoCAD 2000
 90
0
 91
1
280
0
281
0
  0
CLASS
  1
LAYOUT
  2
AcDbLayout
  3
AutoCAD 2000
 90
0
 91
0
280
0
281
0
  0
ENDSEC
  0
SECTION
  2
TABLES
  0
TABLE
  2
VPORT
  5
8
100
AcDbSymbolTable
 70
2
  0
VPORT
  5
1F4
100
AcDbSymbolTableRecord
100
AcDbViewportTableRecord
  2
*ACTIVE
 70
0
 10
0.0
 20
0.0
 11
1.0
 21
1.0
 12
17.5477530114
 22
24.8175364018
 13
0.0
 23
0.0
 14
1.0
 24
1.0
 15
0.0
 25
0.0
 16
0.0
 26
0.0
 36
1.0
 17
0.0
 27
0.0
 37
0.0
 40
49.6350728036
 41
0.7070707071
 42
50.0
 43
0.0
 44
0.0
 50
0.0
 51
0.0
 71
0
 72
100
 73
1
 74
1
 75
0
 76
0
 77
0
 78
0
  0
ENDTAB
  0
TABLE
  2
LTYPE
  5
5
100
AcDbSymbolTable
 70
6
  0
LTYPE
  5
14
100
AcDbSymbolTableRecord
100
AcDbLinetypeTableRecord
  2
BYBLOCK
 70
0
  3

 72
65
 73
0
 40
0.0
  0
LTYPE
  5
15
100
AcDbSymbolTableRecord
100
AcDbLinetypeTableRecord
  2
BYLAYER
 70
0
  3

 72
65
 73
0
 40
0.0
  0
LTYPE
  5
16
100
AcDbSymbolTableRecord
100
AcDbLinetypeTableRecord
  2
CONTINUOUS
 70
64
  3
Solid line
 72
65
 73
0
 40
0.0
  0
LTYPE
  5
1F5
100
AcDbSymbolTableRecord
100
AcDbLinetypeTableRecord
  2
CENTER
 70
64
  3
____ _ ____ _ ____ _ ____ _ ____ _ ____ _ ____
 72
65
 73
4
 40
0.6
 49
0.375
 74
0
 49
-0.075
 74
0
 49
0.075
 74
0
 49
-0.075
 74
0
  0
LTYPE
  5
1F6
100
AcDbSymbolTableRecord
100
AcDbLinetypeTableRecord
  2
HIDDEN
 70
64
  3
- - - - - - - - - - - - - - - - - - - -
 72
65
 73
2
 40
0.2
 49
0.1
 74
0
 49
-0.1
 74
0
  0
LTYPE
  5
1F7
100
AcDbSymbolTableRecord
100
AcDbLinetypeTableRecord
  2
PHANTOM
 70
64
  3
_____ _ _ _____ _ _ _____ _ _ _____
 72
65
 73
6
 40
0.8
 49
0.45
 74
0
 49
-0.05
 74
0
 49
0.1
 74
0
 49
-0.05
 74
0
 49
0.1
 74
0
 49
-0.05
 74
0
  0
LTYPE
  5
1F8
100
AcDbSymbolTableRecord
100
AcDbLinetypeTableRecord
  2
DOT
 70
64
  3
. . . . . . . . . . . . . . . . . . . .
 72
65
 73
2
 40
0.2
 49
0.1
 74
0
 49
-0.1
 74
0
  0
LTYPE
  5
1F9
100
AcDbSymbolTableRecord
100
AcDbLinetypeTableRecord
  2
DASHED
 70
64
  3
- - - - - - - - - - - - - - - - - - - -
 72
65
 73
2
 40
0.2
 49
0.1
 74
0
 49
-0.1
 74
0
  0
ENDTAB
  0
TABLE
  2
LAYER
  5
2
100
AcDbSymbolTable
 70
36
  0
LAYER
  5
10
100
AcDbSymbolTableRecord
100
AcDbLayerTableRecord
  2
0
 70
0
 62
7
  6
CONTINUOUS
370
-3
390
F
  0
LAYER
  5
1FA
100
AcDbSymbolTableRecord
100
AcDbLayerTableRecord
  2
DEFAULT_1
 70
0
 62
7
  6
CENTER
370
-3
390
F
  0
LAYER
  5
1FB
100
AcDbSymbolTableRecord
100
AcDbLayerTableRecord
  2
DEFAULT_2
 70
0
 62
7
  6
HIDDEN
370
-3
390
F
  0
LAYER
  5
1FC
100
AcDbSymbolTableRecord
100
AcDbLayerTableRecord
  2
DEFAULT_3
 70
0
 62
7
  6
PHANTOM
370
-3
390
F
  0
LAYER
  5
1FD
100
AcDbSymbolTableRecord
100
AcDbLayerTableRecord
  2
00_COMPONENTS
 70
0
 62
7
  6
CONTINUOUS
370
-3
390
F
  0
LAYER
  5
1FE
100
AcDbSymbolTableRecord
100
AcDbLayerTableRecord
  2
01_1_DEFAULT_DATUMS
 70
0
 62
7
  6
CONTINUOUS
370
-3
390
F
  0
LAYER
  5
1FF
100
AcDbSymbolTableRecord
100
AcDbLayerTableRecord
  2
01_PLANES
 70
0
 62
7
  6
CONTINUOUS
370
-3
390
F
  0
LAYER
  5
200
100
AcDbSymbolTableRecord
100
AcDbLayerTableRecord
  2
02_COORD_SYS
 70
0
 62
7
  6
CONTINUOUS
370
-3
390
F
  0
LAYER
  5
201
100
AcDbSymbolTableRecord
100
AcDbLayerTableRecord
  2
03_AXES
 70
0
 62
7
  6
CONTINUOUS
370
-3
390
F
  0
LAYER
  5
202
100
AcDbSymbolTableRecord
100
AcDbLayerTableRecord
  2
04_POINTS
 70
0
 62
7
  6
CONTINUOUS
370
-3
390
F
  0
LAYER
  5
203
100
AcDbSymbolTableRecord
100
AcDbLayerTableRecord
  2
05_CURVES
 70
0
 62
7
  6
CONTINUOUS
370
-3
390
F
  0
LAYER
  5
204
100
AcDbSymbolTableRecord
100
AcDbLayerTableRecord
  2
06_SURFS
 70
0
 62
7
  6
CONTINUOUS
370
-3
390
F
  0
LAYER
  5
205
100
AcDbSymbolTableRecord
100
AcDbLayerTableRecord
  2
07_COSMETICS
 70
0
 62
7
  6
CONTINUOUS
370
-3
390
F
  0
LAYER
  5
206
100
AcDbSymbolTableRecord
100
AcDbLayerTableRecord
  2
10_NOTES
 70
0
 62
7
  6
CONTINUOUS
370
-3
390
F
  0
LAYER
  5
207
100
AcDbSymbolTableRecord
100
AcDbLayerTableRecord
  2
11_NOTES_PUB
 70
0
 62
7
  6
CONTINUOUS
370
-3
390
F
  0
LAYER
  5
208
100
AcDbSymbolTableRecord
100
AcDbLayerTableRecord
  2
13_REF_GTOL
 70
0
 62
7
  6
CONTINUOUS
370
-3
390
F
  0
LAYER
  5
209
100
AcDbSymbolTableRecord
100
AcDbLayerTableRecord
  2
16_MISC
 70
0
 62
7
  6
CONTINUOUS
370
-3
390
F
  0
LAYER
  5
20A
100
AcDbSymbolTableRecord
100
AcDbLayerTableRecord
  2
17_NO_PRINT
 70
0
 62
7
  6
CONTINUOUS
370
-3
390
F
  0
LAYER
  5
20B
100
AcDbSymbolTableRecord
100
AcDbLayerTableRecord
  2
18_DATUM_CAMS_JOINTS
 70
0
 62
7
  6
CONTINUOUS
370
-3
390
F
  0
LAYER
  5
20C
100
AcDbSymbolTableRecord
100
AcDbLayerTableRecord
  2
19_DATUM_FUNCTIONAL
 70
0
 62
7
  6
CONTINUOUS
370
-3
390
F
  0
LAYER
  5
20D
100
AcDbSymbolTableRecord
100
AcDbLayerTableRecord
  2
20_DATUM_KINEMATIC_SCHEME
 70
0
 62
7
  6
CONTINUOUS
370
-3
390
F
  0
ENDTAB
  0
TABLE
  2
STYLE
  5
3
100
AcDbSymbolTable
 70
1
  0
STYLE
  5
11
100
AcDbSymbolTableRecord
100
AcDbTextStyleTableRecord
  2
STANDARD
 70
0
 40
0.0
 41
1.0
 50
0.0
 71
0
 42
0.2
  3
ARIAL.TTF
  4

  0
STYLE
  5
20E
100
AcDbSymbolTableRecord
100
AcDbTextStyleTableRecord
  2
TEXTSTYLE_1
 70
0
 40
0.0
 41
0.8
 50
0.0
 71
0
 42
0.2
  3
gdt
  4

  0
ENDTAB
  0
TABLE
  2
VIEW
  5
6
100
AcDbSymbolTable
 70
0
  0
ENDTAB
  0
TABLE
  2
UCS
  5
7
100
AcDbSymbolTable
 70
0
  0
ENDTAB
  0
TABLE
  2
APPID
  5
9
100
AcDbSymbolTable
 70
1
  0
APPID
  5
20F
100
AcDbSymbolTableRecord
100
AcDbRegAppTableRecord
  2
ACAD
 70
0
  0
ENDTAB
  0
TABLE
  2
BLOCK_RECORD
  5
1
100
AcDbSymbolTable
 70
0
  0
BLOCK_RECORD
  5
210
100
AcDbSymbolTableRecord
100
AcDbBlockTableRecord
  2
*Model_Space
  0
BLOCK_RECORD
  5
211
100
AcDbSymbolTableRecord
100
AcDbBlockTableRecord
  2
*Paper_Space
  0
BLOCK_RECORD
  5
212
100
AcDbSymbolTableRecord
100
AcDbBlockTableRecord
  2
_FILLED
  0
ENDTAB
  0
TABLE
  2
DIMSTYLE
  5
A
100
AcDbSymbolTable
 70
1
100
AcDbDimStyleTable
 71
0
  0
DIMSTYLE
105
213
100
AcDbSymbolTableRecord
100
AcDbDimStyleTableRecord
  2
STANDARD
 70
0
  3

  4

 40
1.0
 41
0.4178036431
 42
1.0
 43
0.38
 44
1.0
 45
0.0
 46
0.0
 47
0.01
 48
0.01
140
0.5849251004
141
0.09
142
0.0
143
25.4
144
1.0
145
0.0
146
1.0
147
0.625
 71
1
 72
0
 73
0
 74
0
 75
0
 76
0
 77
1
 78
8
 79
2
170
0
171
1
172
0
173
0
174
0
175
0
176
0
177
0
178
0
270
2
179
2
271
2
272
2
273
2
274
2
275
0
280
0
281
0
282
0
283
1
284
8
285
0
286
0
287
3
288
0
340
11
278
46
341
212
342
212
343
212
344
212
  0
ENDTAB
  0
ENDSEC
  0
SECTION
  2
BLOCKS
  0
BLOCK
  5
20
100
AcDbEntity
  8
0
100
AcDbBlockBegin
  2
*Model_Space
 70
0
 10
0.0
 20
0.0
 30
0.0
  3
*Model_Space
  1

  0
ENDBLK
  5
21
100
AcDbEntity
  8
0
100
AcDbBlockEnd
  0
BLOCK
  5
1C
100
AcDbEntity
  8
0
100
AcDbBlockBegin
  2
*Paper_Space
 70
0
 10
0.0
 20
0.0
 30
0.0
  3
*Paper_Space
  1

  0
ENDBLK
  5
1D
100
AcDbEntity
  8
0
100
AcDbBlockEnd
  0
BLOCK
  5
214
100
AcDbEntity
  8
0
100
AcDbBlockBegin
  2
_FILLED
 70
64
 10
0.0
 20
0.0
  3
_FILLED
  1

  0
SOLID
  5
215
100
AcDbEntity
  8
0
  6
BYBLOCK
 62
0
100
AcDbTrace
 10
0.0
 20
0.0
 11
-1.0
 21
0.25
 12
-1.0
 22
-0.25
 13
-1.0
 23
-0.25
  0
ENDBLK
  5
216
100
AcDbEntity
  8
0
  6
BYBLOCK
 62
0
100
AcDbBlockEnd
  0
ENDSEC
  0
SECTION
  2
ENTITIES
  0
LINE
  5
217
100
AcDbEntity
  8
0
100
AcDbLine
 62
7
  6
BYLAYER
 10
13.716213063
 20
44.0200331839
 11
13.7163965658
 21
44.0202577084
  0
LWPOLYLINE
  5
218
100
AcDbEntity
  8
0
100
AcDbPolyline
 62
7
  6
BYLAYER
 90
7
 70
0
 10
21.5092850593
 20
9.1333463754
 10
19.526159288
 20
8.6216946439
 10
17.3667751937
 20
8.503093056
 10
15.2563850381
 20
8.7886564451
 10
13.4143409425
 20
9.4482672654
 10
12.0326459729
 20
10.4136807031
 10
11.4716256017
 20
11.2609292048
  0
LWPOLYLINE
  5
219
100
AcDbEntity
  8
0
100
AcDbPolyline
 62
7
  6
BYLAYER
 90
3
 70
0
 10
13.8605253089
 20
7.0551832439
 10
12.7448331763
 20
7.9751641662
 10
12.438528
 20
8.6345640923
  0
LINE
  5
21A
100
AcDbEntity
  8
0
100
AcDbLine
 62
7
  6
BYLAYER
 10
15.0722648601
 20
39.959751397
 11
15.5765543253
 21
40.2509013175
  0
LINE
  5
21B
100
AcDbEntity
  8
0
100
AcDbLine
 62
7
  6
BYLAYER
 10
15.1009323891
 20
39.96283047
 11
15.5907219828
 21
40.2456089358
  0
LINE
  5
21C
100
AcDbEntity
  8
0
100
AcDbLine
 62
7
  6
BYLAYER
 10
15.8011312325
 20
40.1253485991
 11
15.0722648601
 21
39.7045399147
  0
LWPOLYLINE
  5
21D
100
AcDbEntity
  8
0
100
AcDbPolyline
 62
7
  6
BYLAYER
 90
4
 70
0
 10
12.1865466467
 20
10.8386366361
 10
10.7317325328
 20
11.9990724207
 10
9.9674845447
 20
13.3616232183
 10
9.8703102669
 20
14.0770645249
  0
LWPOLYLINE
  5
21E
100
AcDbEntity
  8
0
100
AcDbPolyline
 62
7
  6
BYLAYER
 90
5
 70
0
 10
19.3094539372
 20
12.40850598
 10
18.3449403453
 20
12.2592869752
 10
16.2585483488
 20
12.3654279666
 10
14.3696561003
 20
12.8762125032
 10
14.0182271253
 20
13.0796473354
  0
LWPOLYLINE
  5
21F
100
AcDbEntity
  8
0
100
AcDbPolyline
 62
7
  6
BYLAYER
 90
8
 70
0
 10
10.5955518882
 20
14.0908956088
 10
11.8947145843
 20
12.8262612216
 10
12.79342969
 20
12.3045873806
 10
14.9675505729
 20
11.5498295744
 10
17.4493157489
 20
11.2407999701
 10
19.9661899304
 20
11.4106119226
 10
22.2622526266
 20
12.0435345359
 10
23.2480659666
 20
12.5162704782
  0
LINE
  5
220
100
AcDbEntity
  8
0
100
AcDbLine
 62
7
  6
BYLAYER
 10
10.6451658625
 20
11.8829830561
 11
10.5925466674
 21
12.0404215673
  0
LINE
  5
221
100
AcDbEntity
  8
0
100
AcDbLine
 62
7
  6
BYLAYER
 10
8.3397781121
 20
24.8335480863
 11
8.3397781121
 21
22.55116421
  0
LINE
  5
222
100
AcDbEntity
  8
0
100
AcDbLine
 62
7
  6
BYLAYER
 10
8.3397781121
 20
21.5675384177
 11
8.3397781121
 21
19.2851545415
  0
LINE
  5
223
100
AcDbEntity
  8
0
100
AcDbLine
 62
7
  6
BYLAYER
 10
15.1009323891
 20
39.96283047
 11
14.9789099564
 21
39.7394296054
  0
LWPOLYLINE
  5
224
100
AcDbEntity
  8
0
100
AcDbPolyline
 62
7
  6
BYLAYER
 90
3
 70
0
 10
20.9280084993
 20
15.8655186707
 10
22.0703635302
 20
16.1387089528
 10
23.8307394611
 20
16.9185817959
  0
LINE
  5
225
100
AcDbEntity
  8
0
100
AcDbLine
 62
7
  6
BYLAYER
 10
10.3557393488
 20
14.758211343
 11
10.5955518882
 21
14.0908956088
  0
LINE
  5
226
100
AcDbEntity
  8
0
100
AcDbLine
 62
7
  6
BYLAYER
 10
9.4187041799
 20
19.9571077304
 11
9.6099464327
 21
19.1184780475
  0
LINE
  5
227
100
AcDbEntity
  8
0
100
AcDbLine
 62
7
  6
BYLAYER
 10
9.8703067973
 20
15.5467688757
 11
9.8703067973
 21
14.0770645249
  0
LINE
  5
228
100
AcDbEntity
  8
0
100
AcDbLine
 62
7
  6
BYLAYER
 10
15.0159345174
 20
40.1659374041
 11
15.1462257711
 21
40.4845917039
  0
LINE
  5
229
100
AcDbEntity
  8
0
100
AcDbLine
 62
7
  6
BYLAYER
 10
10.8801147544
 20
19.3600527597
 11
10.8801147544
 21
17.0776688835
  0
LINE
  5
22A
100
AcDbEntity
  8
0
100
AcDbLine
 62
7
  6
BYLAYER
 10
10.8801147544
 20
16.0940430912
 11
10.8801147544
 21
13.811659215
  0
LINE
  5
22B
100
AcDbEntity
  8
0
100
AcDbLine
 62
7
  6
BYLAYER
 10
11.4703067973
 20
7.7083456713
 11
11.4703067973
 21
9.3413505055
  0
LINE
  5
22C
100
AcDbEntity
  8
0
100
AcDbLine
 62
7
  6
BYLAYER
 10
11.4703067973
 20
10.4844538895
 11
11.4703067973
 21
11.2601311858
  0
LINE
  5
22D
100
AcDbEntity
  8
0
100
AcDbLine
 62
7
  6
BYLAYER
 10
11.8203067973
 20
23.8586746229
 11
11.8203067973
 21
30.7745389552
  0
LINE
  5
22E
100
AcDbEntity
  8
0
100
AcDbLine
 62
7
  6
BYLAYER
 10
14.4395626339
 20
43.2592861218
 11
14.3203067973
 21
42.7362993661
  0
LINE
  5
22F
100
AcDbEntity
  8
0
100
AcDbLine
 62
7
  6
BYLAYER
 10
15.0159382402
 20
40.1659336116
 11
14.9789099564
 21
40.0326562252
  0
LINE
  5
230
100
AcDbEntity
  8
0
100
AcDbLine
 62
7
  6
BYLAYER
 10
12.5703067973
 20
37.9189351051
 11
12.5703067973
 21
31.386915768
  0
LINE
  5
231
100
AcDbEntity
  8
0
100
AcDbLine
 62
7
  6
BYLAYER
 10
11.8203069441
 20
27.1307048299
 11
11.809874134
 21
27.1246842915
  0
LINE
  5
232
100
AcDbEntity
  8
0
100
AcDbLine
 62
7
  6
BYLAYER
 10
11.8203067973
 20
27.130341743
 11
11.809874134
 21
27.1246842915
  0
LINE
  5
233
100
AcDbEntity
  8
0
100
AcDbLine
 62
7
  6
BYLAYER
 10
11.8203067973
 20
27.1293061172
 11
11.8098741336
 21
27.1246842912
  0
LINE
  5
234
100
AcDbEntity
  8
0
100
AcDbLine
 62
7
  6
BYLAYER
 10
14.3203067973
 20
38.4418625896
 11
14.3203067973
 21
42.7362993661
  0
LINE
  5
235
100
AcDbEntity
  8
0
100
AcDbLine
 62
7
  6
BYLAYER
 10
11.6201598073
 20
9.9352677039
 11
11.4704203759
 21
9.3413504633
  0
LINE
  5
236
100
AcDbEntity
  8
0
100
AcDbLine
 62
7
  6
BYLAYER
 10
18.7261875306
 20
36.5810547897
 11
18.7261875306
 21
40.7844545624
  0
LINE
  5
237
100
AcDbEntity
  8
0
100
AcDbLine
 62
7
  6
BYLAYER
 10
22.3970533441
 20
12.6493912875
 11
22.4311068798
 21
12.5475018923
  0
LINE
  5
238
100
AcDbEntity
  8
0
100
AcDbLine
 62
7
  6
BYLAYER
 10
20.0348327906
 20
28.6387207976
 11
20.0348327906
 21
35.1707506781
  0
LINE
  5
239
100
AcDbEntity
  8
0
100
AcDbLine
 62
7
  6
BYLAYER
 10
20.3606434396
 20
17.8934552594
 11
20.3606434396
 21
15.6110713832
  0
LINE
  5
23A
100
AcDbEntity
  8
0
100
AcDbLine
 62
7
  6
BYLAYER
 10
20.3606434396
 20
14.6274455909
 11
20.3606434396
 21
12.3450617147
  0
LINE
  5
23B
100
AcDbEntity
  8
0
100
AcDbLine
 62
7
  6
BYLAYER
 10
21.2010509608
 20
36.6527907272
 11
21.2010509608
 21
35.0688789525
  0
LINE
  5
23C
100
AcDbEntity
  8
0
100
AcDbLine
 62
7
  6
BYLAYER
 10
21.2690192371
 20
30.8655124729
 11
21.2690192371
 21
36.7148140832
  0
LINE
  5
23D
100
AcDbEntity
  8
0
100
AcDbLine
 62
7
  6
BYLAYER
 10
21.5092850593
 20
9.2846252854
 11
21.5092850593
 21
9.1333463754
  0
LINE
  5
23E
100
AcDbEntity
  8
0
100
AcDbLine
 62
7
  6
BYLAYER
 10
22.458819328
 20
9.4973042
 11
22.458819328
 21
10.4190734841
  0
LINE
  5
23F
100
AcDbEntity
  8
0
100
AcDbLine
 62
7
  6
BYLAYER
 10
22.5804066046
 20
36.6404296332
 11
22.5804066046
 21
30.1083997515
  0
LINE
  5
240
100
AcDbEntity
  8
0
100
AcDbLine
 62
7
  6
BYLAYER
 10
23.8306894137
 20
27.1247131857
 11
23.8203067973
 21
27.1293127404
  0
LWPOLYLINE
  5
241
100
AcDbEntity
  8
0
100
AcDbPolyline
 62
7
  6
BYLAYER
 90
3
 70
0
 10
24.1701932188
 20
9.3413505478
 10
24.1648176105
 20
9.4937010043
 10
24.0202432992
 20
9.8897987843
  0
LINE
  5
242
100
AcDbEntity
  8
0
100
AcDbLine
 62
7
  6
BYLAYER
 10
23.0703067973
 20
37.9189351051
 11
23.0703067973
 21
31.386915768
  0
LINE
  5
243
100
AcDbEntity
  8
0
100
AcDbLine
 62
7
  6
BYLAYER
 10
23.8203067973
 20
17.3268330048
 11
23.8203067973
 21
30.7745389552
  0
LINE
  5
244
100
AcDbEntity
  8
0
100
AcDbLine
 62
7
  6
BYLAYER
 10
24.1703067973
 20
7.7083456713
 11
24.1703067973
 21
9.3413505055
  0
LINE
  5
245
100
AcDbEntity
  8
0
100
AcDbLine
 62
7
  6
BYLAYER
 10
24.1703067973
 20
10.4844538895
 11
24.1703067973
 21
11.2601311858
  0
LINE
  5
246
100
AcDbEntity
  8
0
100
AcDbLine
 62
7
  6
BYLAYER
 10
23.8306894137
 20
27.1247131857
 11
23.8215058114
 21
27.1300071101
  0
LINE
  5
247
100
AcDbEntity
  8
0
100
AcDbLine
 62
7
  6
BYLAYER
 10
22.458819328
 20
9.4973042
 11
22.4496725391
 21
9.4420643254
  0
LINE
  5
248
100
AcDbEntity
  8
0
100
AcDbLine
 62
7
  6
BYLAYER
 10
21.5105853118
 20
12.6493912875
 11
21.4782899882
 21
12.5527625256
  0
LINE
  5
249
100
AcDbEntity
  8
0
100
AcDbLine
 62
7
  6
BYLAYER
 10
22.5804066046
 20
30.1083997515
 11
21.2690192371
 21
30.8655124729
  0
LINE
  5
24A
100
AcDbEntity
  8
0
100
AcDbLine
 62
7
  6
BYLAYER
 10
25.7703067973
 20
15.2766852677
 11
25.7703067973
 21
14.0770645249
  0
LWPOLYLINE
  5
24B
100
AcDbEntity
  8
0
100
AcDbPolyline
 62
7
  6
BYLAYER
 90
3
 70
0
 10
25.7703033278
 20
14.0770645249
 10
25.6719435542
 20
13.3572924383
 10
24.9076849758
 20
11.9977070113
  0
LINE
  5
24C
100
AcDbEntity
  8
0
100
AcDbLine
 62
7
  6
BYLAYER
 10
22.3970533441
 20
9.2846258142
 11
22.4496725391
 21
9.4420643254
  0
LINE
  5
24D
100
AcDbEntity
  8
0
100
AcDbLine
 62
7
  6
BYLAYER
 10
23.0703067973
 20
37.9189351051
 11
22.890892564
 21
38.7045573725
  0
LINE
  5
24E
100
AcDbEntity
  8
0
100
AcDbLine
 62
7
  6
BYLAYER
 10
27.3008354826
 20
21.9003530857
 11
27.3008354826
 21
19.6179692094
  0
LINE
  5
24F
100
AcDbEntity
  8
0
100
AcDbLine
 62
7
  6
BYLAYER
 10
27.3008354826
 20
18.6343434172
 11
27.3008354826
 21
16.3519595409
  0
LWPOLYLINE
  5
250
100
AcDbEntity
  8
0
100
AcDbPolyline
 62
7
  6
BYLAYER
 90
3
 70
0
 10
23.8307394611
 20
16.9185817959
 10
25.1815235012
 20
17.9349272776
 10
25.4791793057
 20
18.349811352
  0
LINE
  5
251
100
AcDbEntity
  8
0
100
AcDbLine
 62
7
  6
BYLAYER
 10
21.2010509608
 20
35.0688789525
 11
19.8975943388
 21
35.8214447084
  0
LINE
  5
252
100
AcDbEntity
  8
0
100
AcDbLine
 62
7
  6
BYLAYER
 10
19.4252479797
 20
36.1758780611
 11
18.7234454231
 21
36.5810547897
  0
LINE
  5
253
100
AcDbEntity
  8
0
100
AcDbLine
 62
7
  6
BYLAYER
 10
14.3203067973
 20
39.1231505507
 11
13.669791801
 21
39.4987170625
  0
LINE
  5
254
100
AcDbEntity
  8
0
100
AcDbLine
 62
7
  6
BYLAYER
 10
14.9789099564
 20
40.0326562252
 11
15.0722648601
 21
39.959751397
  0
LWPOLYLINE
  5
255
100
AcDbEntity
  8
0
100
AcDbPolyline
 62
7
  6
BYLAYER
 90
3
 70
0
 10
24.2983880084
 20
11.5129829485
 10
23.7947270859
 20
10.6115984923
 10
22.5579419558
 20
9.6271963936
  0
LWPOLYLINE
  5
256
100
AcDbEntity
  8
0
100
AcDbPolyline
 62
7
  6
BYLAYER
 90
4
 70
0
 10
23.3004070956
 20
12.546203553
 10
24.1239083899
 20
13.1070904066
 10
25.2439019983
 20
14.4252222808
 10
25.3731879882
 20
15.0135782047
  0
LINE
  5
257
100
AcDbEntity
  8
0
100
AcDbLine
 62
7
  6
BYLAYER
 10
15.9598903029
 20
38.5309482641
 11
16.300998408
 21
38.4844548864
  0
LINE
  5
258
100
AcDbEntity
  8
0
100
AcDbLine
 62
7
  6
BYLAYER
 10
15.0722648601
 20
39.7045399147
 11
14.9789099564
 21
39.7394296054
  0
LINE
  5
259
100
AcDbEntity
  8
0
100
AcDbLine
 62
7
  6
BYLAYER
 10
22.890892564
 20
38.7045573725
 11
22.448193362
 21
39.2522994368
  0
LINE
  5
25A
100
AcDbEntity
  8
0
100
AcDbLine
 62
7
  6
BYLAYER
 10
22.514501448
 20
9.6797896052
 11
22.458819328
 21
9.6337977461
  0
LINE
  5
25B
100
AcDbEntity
  8
0
100
AcDbLine
 62
7
  6
BYLAYER
 10
24.9076849758
 20
11.9977070113
 11
23.4418291123
 21
10.8315505265
  0
LWPOLYLINE
  5
25C
100
AcDbEntity
  8
0
100
AcDbPolyline
 62
7
  6
BYLAYER
 90
6
 70
0
 10
23.4418291123
 20
10.8315505265
 10
21.431797413
 20
9.9881286769
 10
19.0719158721
 20
9.5444356064
 10
16.5694967507
 20
9.5443634667
 10
14.1957337535
 20
9.9919924779
 10
12.1865466467
 20
10.8386366361
  0
LINE
  5
25D
100
AcDbEntity
  8
0
100
AcDbLine
 62
7
  6
BYLAYER
 10
18.5612033131
 20
41.0430100828
 11
14.6045468514
 21
43.3273350778
  0
LINE
  5
25E
100
AcDbEntity
  8
0
100
AcDbLine
 62
7
  6
BYLAYER
 10
16.9680543828
 20
45.8974948736
 11
16.9679739097
 21
45.8974817632
  0
ARC
  5
25F
100
AcDbEntity
  8
0
100
AcDbCircle
 62
7
  6
BYLAYER
 10
-116.9412014222
 20
-47.2767516368
 40
162.8139215544
100
AcDbArc
 50
31.0253808976
 51
31.3932440962
  0
ARC
  5
260
100
AcDbEntity
  8
0
100
AcDbCircle
 62
7
  6
BYLAYER
 10
-43.573715874
 20
-8.8560512542
 40
76.0192332846
100
AcDbArc
 50
21.199977459
 51
21.8285275043
  0
ARC
  5
261
100
AcDbEntity
  8
0
100
AcDbCircle
 62
7
  6
BYLAYER
 10
9.7524092789
 20
-28.6136914599
 40
57.9641904387
100
AcDbArc
 50
74.9940101739
 51
75.9527922876
  0
ARC
  5
262
100
AcDbEntity
  8
0
100
AcDbCircle
 62
7
  6
BYLAYER
 10
40.435440208
 20
-22.2696790051
 40
54.3307754109
100
AcDbArc
 50
125.8116826116
 51
126.2099303261
  0
ARC
  5
263
100
AcDbEntity
  8
0
100
AcDbCircle
 62
7
  6
BYLAYER
 10
-23.8217058104
 20
13.8164750907
 40
50.374548579
100
AcDbArc
 50
32.3676033838
 51
32.7164550227
  0
ARC
  5
264
100
AcDbEntity
  8
0
100
AcDbCircle
 62
7
  6
BYLAYER
 10
18.3612601191
 20
33.9855430505
 40
10.0688647485
100
AcDbArc
 50
111.9070730526
 51
112.9226171692
  0
ARC
  5
265
100
AcDbEntity
  8
0
100
AcDbCircle
 62
7
  6
BYLAYER
 10
19.6630808783
 20
18.846497846
 40
7.5577208029
100
AcDbArc
 50
299.5301124705
 51
299.9990181026
  0
ARC
  5
266
100
AcDbEntity
  8
0
100
AcDbCircle
 62
7
  6
BYLAYER
 10
19.3587314797
 20
15.168719217
 40
6.3987047808
100
AcDbArc
 50
298.9792475259
 51
299.9985326865
  0
ARC
  5
267
100
AcDbEntity
  8
0
100
AcDbCircle
 62
7
  6
BYLAYER
 10
16.4066205617
 20
13.2225587611
 40
6.1545124836
100
AcDbArc
 50
240.0078140375
 51
241.5083177029
  0
ARC
  5
268
100
AcDbEntity
  8
0
100
AcDbCircle
 62
7
  6
BYLAYER
 10
19.269143243
 20
13.1605069658
 40
6.083207698
100
AcDbArc
 50
298.5125761417
 51
299.996807583
  0
ARC
  5
269
100
AcDbEntity
  8
0
100
AcDbCircle
 62
7
  6
BYLAYER
 10
19.227994502
 20
10.0470199348
 40
5.9580525749
100
AcDbArc
 50
299.9986317577
 51
300.5935270825
  0
ARC
  5
26A
100
AcDbEntity
  8
0
100
AcDbCircle
 62
7
  6
BYLAYER
 10
19.3483072974
 20
10.2469106971
 40
5.9245575189
100
AcDbArc
 50
299.9985203309
 51
300.5934894945
  0
ARC
  5
26B
100
AcDbEntity
  8
0
100
AcDbCircle
 62
7
  6
BYLAYER
 10
19.3361994236
 20
9.8658025744
 40
5.7469905646
100
AcDbArc
 50
300.5844224889
 51
302.3159404028
  0
ARC
  5
26C
100
AcDbEntity
  8
0
100
AcDbCircle
 62
7
  6
BYLAYER
 10
19.4228226164
 20
9.728525432
 40
5.5846681758
100
AcDbArc
 50
302.3177896214
 51
302.9724194668
  0
ARC
  5
26D
100
AcDbEntity
  8
0
100
AcDbCircle
 62
7
  6
BYLAYER
 10
17.8203067973
 20
40.6664657387
 40
5.3
100
AcDbArc
 50
99.2534799907
 51
140.7422104432
  0
ARC
  5
26E
100
AcDbEntity
  8
0
100
AcDbCircle
 62
7
  6
BYLAYER
 10
17.8203067973
 20
40.6664657387
 40
5.3
100
AcDbArc
 50
288.8237529664
 51
320.7453421225
  0
ARC
  5
26F
100
AcDbEntity
  8
0
100
AcDbCircle
 62
7
  6
BYLAYER
 10
19.1899656591
 20
13.3799378896
 40
5.0400365669
100
AcDbArc
 50
299.9924700152
 51
301.4676034552
  0
ARC
  5
270
100
AcDbEntity
  8
0
100
AcDbCircle
 62
7
  6
BYLAYER
 10
17.6868583795
 20
39.2755480993
 40
4.8285689173
100
AcDbArc
 50
0.0003268636
 51
0.367979453
  0
ARC
  5
271
100
AcDbEntity
  8
0
100
AcDbCircle
 62
7
  6
BYLAYER
 10
17.9100040437
 20
42.057369492
 40
4.7848177458
100
AcDbArc
 50
179.7397107461
 51
180.0001635721
  0
ARC
  5
272
100
AcDbEntity
  8
0
100
AcDbCircle
 62
7
  6
BYLAYER
 10
17.749663589
 20
39.2755542973
 40
4.7657637078
100
AcDbArc
 50
359.6598985238
 51
0.0002566568
  0
ARC
  5
273
100
AcDbEntity
  8
0
100
AcDbCircle
 62
7
  6
BYLAYER
 10
15.5593337272
 20
37.9694682302
 40
4.7646142431
100
AcDbArc
 50
359.7397178889
 51
0.0001707148
  0
ARC
  5
274
100
AcDbEntity
  8
0
100
AcDbCircle
 62
7
  6
BYLAYER
 10
17.7960780877
 20
39.2752717365
 40
4.7193483495
100
AcDbArc
 50
359.2680936342
 51
359.659984067
  0
ARC
  5
275
100
AcDbEntity
  8
0
100
AcDbCircle
 62
7
  6
BYLAYER
 10
17.9341389783
 20
39.2188766981
 40
4.5575680806
100
AcDbArc
 50
357.2426889125
 51
0.027082392
  0
ARC
  5
276
100
AcDbEntity
  8
0
100
AcDbCircle
 62
7
  6
BYLAYER
 10
12.6501510439
 20
15.5467231596
 40
2.7798442469
100
AcDbArc
 50
177.6161284552
 51
179.9990577378
  0
ARC
  5
277
100
AcDbEntity
  8
0
100
AcDbCircle
 62
7
  6
BYLAYER
 10
15.0694656868
 20
38.7735299701
 40
1.6024338019
100
AcDbArc
 50
7.8859836347
 51
9.7766097719
  0
SPLINE
  5
278
100
AcDbEntity
  8
0
100
AcDbSpline
 62
7
  6
BYLAYER
 70
0
 71
3
 72
9
 73
5
 74
0
 42
0.0000001
 43
0.0000001
 44
0.0000000001
 40
0.0
 40
0.0
 40
0.0
 40
0.0
 40
0.504410018
 40
1.0
 40
1.0
 40
1.0
 40
1.0
 10
10.5925475944
 20
12.0404216705
 30
0.0
 10
10.5895538791
 20
12.0493799338
 30
0.0
 10
10.584960221
 20
12.0676240862
 30
0.0
 10
10.5834011841
 20
12.0863813467
 30
0.0
 10
10.5834011725
 20
12.0956614419
 30
0.0
  0
SPLINE
  5
279
100
AcDbEntity
  8
0
100
AcDbSpline
 62
7
  6
BYLAYER
 70
0
 71
3
 72
14
 73
10
 74
0
 42
0.0000001
 43
0.0000001
 44
0.0000000001
 40
0.0
 40
0.0
 40
0.0
 40
0.0
 40
0.1435604357
 40
0.2816783044
 40
0.4141644066
 40
0.5410600049
 40
0.7790189503
 40
0.8913321539
 40
1.0
 40
1.0
 40
1.0
 40
1.0
 10
10.7692060212
 20
11.748075399
 30
0.0
 10
10.7614504405
 20
11.7525529843
 30
0.0
 10
10.7465059897
 20
11.7618240971
 30
0.0
 10
10.7255283761
 20
11.7769394259
 30
0.0
 10
10.7065360892
 20
11.7929270837
 30
0.0
 10
10.6845028032
 20
11.8147968542
 30
0.0
 10
10.6661621781
 20
11.8385293216
 30
0.0
 10
10.6524885183
 20
11.8637351176
 30
0.0
 10
10.6473148152
 20
11.876553835
 30
0.0
 10
10.6451665134
 20
11.882983128
 30
0.0
  0
SPLINE
  5
27A
100
AcDbEntity
  8
0
100
AcDbSpline
 62
7
  6
BYLAYER
 70
0
 71
3
 72
14
 73
10
 74
0
 42
0.0000001
 43
0.0000001
 44
0.0000000001
 40
0.0
 40
0.0
 40
0.0
 40
0.0
 40
0.2645821563
 40
0.3957614149
 40
0.5247360787
 40
0.6504920506
 40
0.7721254646
 40
0.8888831578
 40
1.0
 40
1.0
 40
1.0
 40
1.0
 10
11.1357364821
 20
11.6731803946
 30
0.0
 10
11.1023716157
 20
11.6711502329
 30
0.0
 10
11.0521896793
 20
11.6713248574
 30
0.0
 10
10.9861968786
 20
11.6779599205
 30
0.0
 10
10.9380775188
 20
11.6860518441
 30
0.0
 10
10.8918050022
 20
11.6971619801
 30
0.0
 10
10.8479344841
 20
11.7111641698
 30
0.0
 10
10.8070185907
 20
11.727889075
 30
0.0
 10
10.7813635217
 20
11.7410564216
 30
0.0
 10
10.7692060212
 20
11.748075399
 30
0.0
  0
SPLINE
  5
27B
100
AcDbEntity
  8
0
100
AcDbSpline
 62
7
  6
BYLAYER
 70
0
 71
3
 72
11
 73
7
 74
0
 42
0.0000001
 43
0.0000001
 44
0.0000000001
 40
0.0
 40
0.0
 40
0.0
 40
0.0
 40
0.2656888078
 40
0.522425301
 40
0.7678924743
 40
1.0
 40
1.0
 40
1.0
 40
1.0
 10
10.956009027
 20
11.8143011494
 30
0.0
 10
10.9351707803
 20
11.817569728
 30
0.0
 10
10.894424478
 20
11.8255866389
 30
0.0
 10
10.8357156396
 20
11.842282899
 30
0.0
 10
10.7812213621
 20
11.8632177085
 30
0.0
 10
10.7472707959
 20
11.880284792
 30
0.0
 10
10.7313124408
 20
11.8894981442
 30
0.0
  0
SPLINE
  5
27C
100
AcDbEntity
  8
0
100
AcDbSpline
 62
7
  6
BYLAYER
 70
0
 71
3
 72
14
 73
10
 74
0
 42
0.0000001
 43
0.0000001
 44
0.0000000001
 40
0.0
 40
0.0
 40
0.0
 40
0.0
 40
0.1435661363
 40
0.2816736844
 40
0.5408016212
 40
0.6623714252
 40
0.7790338151
 40
0.891340381
 40
1.0
 40
1.0
 40
1.0
 40
1.0
 10
10.7313124408
 20
11.8894981442
 30
0.0
 10
10.7226352417
 20
11.894507814
 30
0.0
 10
10.7059136152
 20
11.9048812011
 30
0.0
 10
10.6752792417
 20
11.9269545445
 30
0.0
 10
10.6482646634
 20
11.9513579639
 30
0.0
 10
10.6258812835
 20
11.9779451979
 30
0.0
 10
10.6119954086
 20
11.998139606
 30
0.0
 10
10.6007361008
 20
12.0188887925
 30
0.0
 10
10.5949511796
 20
12.0332292869
 30
0.0
 10
10.5925475944
 20
12.0404216705
 30
0.0
  0
SPLINE
  5
27D
100
AcDbEntity
  8
0
100
AcDbSpline
 62
7
  6
BYLAYER
 70
0
 71
3
 72
14
 73
10
 74
0
 42
0.0000001
 43
0.0000001
 44
0.0000000001
 40
0.0
 40
0.0
 40
0.0
 40
0.0
 40
0.1435604357
 40
0.2816783044
 40
0.4141644066
 40
0.5410600049
 40
0.7790189503
 40
0.8913321539
 40
1.0
 40
1.0
 40
1.0
 40
1.0
 10
21.6346254706
 20
9.1497181572
 30
0.0
 10
21.6268698899
 20
9.1541957425
 30
0.0
 10
21.6119254391
 20
9.1634668552
 30
0.0
 10
21.5909478255
 20
9.178582184
 30
0.0
 10
21.5719555386
 20
9.1945698418
 30
0.0
 10
21.5499222525
 20
9.2164396124
 30
0.0
 10
21.5315816275
 20
9.2401720797
 30
0.0
 10
21.5179079677
 20
9.2653778757
 30
0.0
 10
21.5127342645
 20
9.2781965931
 30
0.0
 10
21.5105859628
 20
9.2846258861
 30
0.0
  0
SPLINE
  5
27E
100
AcDbEntity
  8
0
100
AcDbSpline
 62
7
  6
BYLAYER
 70
0
 71
3
 72
25
 73
21
 74
0
 42
0.0000001
 43
0.0000001
 44
0.0000000001
 40
0.0
 40
0.0
 40
0.0
 40
0.0
 40
0.0605466629
 40
0.1247004861
 40
0.1918587043
 40
0.2613574102
 40
0.3324010975
 40
0.4041446836
 40
0.475717534
 40
0.5462512796
 40
0.6149182656
 40
0.6809651751
 40
0.7437486773
 40
0.8027768815
 40
0.8577620589
 40
0.9086788542
 40
0.9327134916
 40
0.9558759571
 40
0.9782630765
 40
1.0
 40
1.0
 40
1.0
 40
1.0
 10
22.2730131853
 20
12.7842989445
 30
0.0
 10
22.258148218
 20
12.7928810433
 30
0.0
 10
22.226448734
 20
12.8087206253
 30
0.0
 10
22.1754875137
 20
12.8279528875
 30
0.0
 10
22.1205205833
 20
12.8430584717
 30
0.0
 10
22.062553999
 20
12.8537721256
 30
0.0
 10
22.0026214764
 20
12.8598983403
 30
0.0
 10
21.9418075784
 20
12.8613285599
 30
0.0
 10
21.8812101413
 20
12.8580385729
 30
0.0
 10
21.8219240623
 20
12.8500845555
 30
0.0
 10
21.765019366
 20
12.8376102849
 30
0.0
 10
21.7115186181
 20
12.8208403927
 30
0.0
 10
21.6623804171
 20
12.800071746
 30
0.0
 10
21.6184792725
 20
12.7756594754
 30
0.0
 10
21.5806040014
 20
12.7480253021
 30
0.0
 10
21.5541194493
 20
12.7221843708
 30
0.0
 10
21.5368345877
 20
12.7003519519
 30
0.0
 10
21.526019307
 20
12.6838184961
 30
0.0
 10
21.517167299
 20
12.6668874495
 30
0.0
 10
21.5125404287
 20
12.6552354465
 30
0.0
 10
21.5105866431
 20
12.6493911377
 30
0.0
  0
SPLINE
  5
27F
100
AcDbEntity
  8
0
100
AcDbSpline
 62
7
  6
BYLAYER
 70
0
 71
3
 72
25
 73
21
 74
0
 42
0.0000001
 43
0.0000001
 44
0.0000000001
 40
0.0
 40
0.0
 40
0.0
 40
0.0
 40
0.0217372584
 40
0.0441247275
 40
0.0672875679
 40
0.0913225771
 40
0.1422399705
 40
0.1972255182
 40
0.2562538309
 40
0.3190370181
 40
0.3850831865
 40
0.4537491207
 40
0.5242816763
 40
0.5958535003
 40
0.6675964029
 40
0.7386399308
 40
0.8081388558
 40
0.875297573
 40
0.939452682
 40
1.0
 40
1.0
 40
1.0
 40
1.0
 10
22.39705199
 20
9.2846259676
 30
0.0
 10
22.3950981672
 20
9.2787815712
 30
0.0
 10
22.3904712231
 20
9.2671293894
 30
0.0
 10
22.381619063
 20
9.2501980809
 30
0.0
 10
22.3708035201
 20
9.2336644232
 30
0.0
 10
22.353518306
 20
9.2118317987
 30
0.0
 10
22.3270333659
 20
9.1859907232
 30
0.0
 10
22.2891577361
 20
9.1583565194
 30
0.0
 10
22.2452563999
 20
9.1339444996
 30
0.0
 10
22.1961183827
 20
9.1131761296
 30
0.0
 10
22.1426181807
 20
9.0964065017
 30
0.0
 10
22.0857142899
 20
9.0839325255
 30
0.0
 10
22.026429139
 20
9.0759786096
 30
0.0
 10
21.9658325312
 20
9.0726885644
 30
0.0
 10
21.905019163
 20
9.0741186867
 30
0.0
 10
21.845086808
 20
9.0802447469
 30
0.0
 10
21.78712002
 20
9.0909581531
 30
0.0
 10
21.7321524932
 20
9.1060637361
 30
0.0
 10
21.6811906361
 20
9.1252962597
 30
0.0
 10
21.6494905983
 20
9.1411359658
 30
0.0
 10
21.6346254706
 20
9.1497181572
 30
0.0
  0
SPLINE
  5
280
100
AcDbEntity
  8
0
100
AcDbSpline
 62
7
  6
BYLAYER
 70
0
 71
3
 72
14
 73
10
 74
0
 42
0.0000001
 43
0.0000001
 44
0.0000000001
 40
0.0
 40
0.0
 40
0.0
 40
0.0
 40
0.1086670596
 40
0.2209793523
 40
0.4589370435
 40
0.5858332353
 40
0.7183212785
 40
0.8564401292
 40
1.0
 40
1.0
 40
1.0
 40
1.0
 10
22.3970526909
 20
12.6493912156
 30
0.0
 10
22.3949043988
 20
12.655820459
 30
0.0
 10
22.3897305906
 20
12.6686390131
 30
0.0
 10
22.37605726
 20
12.6938447643
 30
0.0
 10
22.3577166402
 20
12.7175771223
 30
0.0
 10
22.3356834087
 20
12.739447052
 30
0.0
 10
22.316690875
 20
12.7554347571
 30
0.0
 10
22.2957131873
 20
12.7705502198
 30
0.0
 10
22.2807687344
 20
12.7798213775
 30
0.0
 10
22.2730131853
 20
12.7842989445
 30
0.0
  0
SPLINE
  5
281
100
AcDbEntity
  8
0
100
AcDbSpline
 62
7
  6
BYLAYER
 70
0
 71
3
 72
25
 73
21
 74
0
 42
0.0000001
 43
0.0000001
 44
0.0000000001
 40
0.0
 40
0.0
 40
0.0
 40
0.0
 40
0.0217367738
 40
0.0441249861
 40
0.0912738654
 40
0.1162551138
 40
0.1422297609
 40
0.1972167068
 40
0.2562459307
 40
0.3190293476
 40
0.3850766493
 40
0.4537443843
 40
0.5242778817
 40
0.5958500711
 40
0.6675948866
 40
0.7386399382
 40
0.8081395159
 40
0.8752993982
 40
0.9394496823
 40
1.0
 40
1.0
 40
1.0
 40
1.0
 10
22.4496714297
 20
9.442064449
 30
0.0
 10
22.4474864383
 20
9.435526191
 30
0.0
 10
22.4423112751
 20
9.4224891391
 30
0.0
 10
22.4288764559
 20
9.3968037214
 30
0.0
 10
22.4110965996
 20
9.3724244472
 30
0.0
 10
22.3897902477
 20
9.3497241673
 30
0.0
 10
22.3649483577
 20
9.3270537904
 30
0.0
 10
22.3289640608
 20
9.3008017195
 30
0.0
 10
22.2798570638
 20
9.2734968247
 30
0.0
 10
22.2248841265
 20
9.250259835
 30
0.0
 10
22.1650328638
 20
9.2314988697
 30
0.0
 10
22.1013723784
 20
9.2175452891
 30
0.0
 10
22.0350487305
 20
9.2086477399
 30
0.0
 10
21.9672579437
 20
9.2049658251
 30
0.0
 10
21.899224386
 20
9.2065658405
 30
0.0
 10
21.8321764283
 20
9.2134198148
 30
0.0
 10
21.7673276732
 20
9.2254058459
 30
0.0
 10
21.7058361788
 20
9.2423045459
 30
0.0
 10
21.6488245071
 20
9.2638187986
 30
0.0
 10
21.6133624311
 20
9.2815394722
 30
0.0
 10
21.5967318902
 20
9.2911409023
 30
0.0
  0
SPLINE
  5
282
100
AcDbEntity
  8
0
100
AcDbSpline
 62
7
  6
BYLAYER
 70
0
 71
3
 72
23
 73
19
 74
0
 42
0.0000001
 43
0.0000001
 44
0.0000000001
 40
0.0
 40
0.0
 40
0.0
 40
0.0
 40
0.0553702314
 40
0.1131398136
 40
0.1730396197
 40
0.2348173359
 40
0.2981990271
 40
0.3628561478
 40
0.4284374643
 40
0.4945788802
 40
0.5609088515
 40
0.6270490894
 40
0.6926237728
 40
0.7572696112
 40
0.8206373779
 40
0.8824048085
 40
0.9422760531
 40
1.0
 40
1.0
 40
1.0
 40
1.0
 10
21.6346254706
 20
12.4157278257
 30
0.0
 10
21.6446791894
 20
12.4099234397
 30
0.0
 10
21.6657151166
 20
12.3989014529
 30
0.0
 10
21.6990155847
 20
12.3844340879
 30
0.0
 10
21.7344846016
 20
12.3718047824
 30
0.0
 10
21.7718076314
 20
12.3611145416
 30
0.0
 10
21.8106749184
 20
12.3524578009
 30
0.0
 10
21.8507574333
 20
12.3458977773
 30
0.0
 10
21.8917157101
 20
12.3415013562
 30
0.0
 10
21.9332008984
 20
12.3392962332
 30
0.0
 10
21.9748616622
 20
12.3393100485
 30
0.0
 10
22.0163442655
 20
12.3415331098
 30
0.0
 10
22.0572955723
 20
12.3459566136
 30
0.0
 10
22.0973686988
 20
12.3525331375
 30
0.0
 10
22.1362222263
 20
12.3612166973
 30
0.0
 10
22.1735294843
 20
12.3719242359
 30
0.0
 10
22.2089697678
 20
12.3845744771
 30
0.0
 10
22.2316002984
 20
12.3944199318
 30
0.0
 10
22.2425097135
 20
12.3996595861
 30
0.0
  0
SPLINE
  5
283
100
AcDbEntity
  8
0
100
AcDbSpline
 62
7
  6
BYLAYER
 70
0
 71
3
 72
9
 73
5
 74
0
 42
0.0000001
 43
0.0000001
 44
0.0000000001
 40
0.0
 40
0.0
 40
0.0
 40
0.0
 40
0.5115249702
 40
1.0
 40
1.0
 40
1.0
 40
1.0
 10
22.2425097135
 20
12.3996595861
 30
0.0
 10
22.2529536236
 20
12.4046756644
 30
0.0
 10
22.273027868
 20
12.415217351
 30
0.0
 10
22.2922066253
 20
12.4273245245
 30
0.0
 10
22.3012869056
 20
12.4336458911
 30
0.0
  0
SPLINE
  5
284
100
AcDbEntity
  8
0
100
AcDbSpline
 62
7
  6
BYLAYER
 70
0
 71
3
 72
15
 73
11
 74
0
 42
0.0000001
 43
0.0000001
 44
0.0000000001
 40
0.0
 40
0.0
 40
0.0
 40
0.0
 40
0.1479012587
 40
0.2867684051
 40
0.4171520069
 40
0.5401707611
 40
0.6575468036
 40
0.7715398421
 40
0.8847833983
 40
1.0
 40
1.0
 40
1.0
 40
1.0
 10
22.3012869056
 20
12.4336458911
 30
0.0
 10
22.3115656296
 20
12.4408015714
 30
0.0
 10
22.3308102488
 20
12.4557072807
 30
0.0
 10
22.3560467279
 20
12.4805535489
 30
0.0
 10
22.3764362754
 20
12.5069223716
 30
0.0
 10
22.3916966693
 20
12.5345183513
 30
0.0
 10
22.4015984776
 20
12.5630161734
 30
0.0
 10
22.4059482939
 20
12.5920516193
 30
0.0
 10
22.4046719098
 20
12.6211951989
 30
0.0
 10
22.4001447137
 20
12.6401376478
 30
0.0
 10
22.3970526909
 20
12.6493912156
 30
0.0
  0
SPLINE
  5
285
100
AcDbEntity
  8
0
100
AcDbSpline
 62
7
  6
BYLAYER
 70
0
 71
3
 72
19
 73
15
 74
0
 42
0.0000001
 43
0.0000001
 44
0.0000000001
 40
0.0
 40
0.0
 40
0.0
 40
0.0
 40
0.056654976
 40
0.1124604634
 40
0.1678082169
 40
0.2231035239
 40
0.2787562335
 40
0.3351624835
 40
0.3926925185
 40
0.4516818676
 40
0.5750081031
 40
0.7069840209
 40
0.8486191885
 40
1.0
 40
1.0
 40
1.0
 40
1.0
 10
21.5105866431
 20
12.6493911377
 30
0.0
 10
21.5088645313
 20
12.6442398283
 30
0.0
 10
21.5059435631
 20
12.6338390583
 30
0.0
 10
21.5032008193
 20
12.6179585685
 30
0.0
 10
21.5021425806
 20
12.6020062275
 30
0.0
 10
21.5027758095
 20
12.5860461286
 30
0.0
 10
21.5051027264
 20
12.5701418014
 30
0.0
 10
21.5091060533
 20
12.5543551773
 30
0.0
 10
21.5147709068
 20
12.53874576
 30
0.0
 10
21.5246541685
 20
12.5179510831
 30
0.0
 10
21.5412748589
 20
12.4926254666
 30
0.0
 10
21.5670115708
 20
12.4644132839
 30
0.0
 10
21.5984190261
 20
12.4382881046
 30
0.0
 10
21.6220568081
 20
12.4229841822
 30
0.0
 10
21.6346254706
 20
12.4157278257
 30
0.0
  0
SPLINE
  5
286
100
AcDbEntity
  8
0
100
AcDbSpline
 62
7
  6
BYLAYER
 70
0
 71
3
 72
10
 73
6
 74
0
 42
0.0000001
 43
0.0000001
 44
0.0000000001
 40
0.0
 40
0.0
 40
0.0
 40
0.0
 40
0.2658503661
 40
0.5213529548
 40
1.0
 40
1.0
 40
1.0
 40
1.0
 10
21.5967318902
 20
9.2911409023
 30
0.0
 10
21.5878649139
 20
9.2962601376
 30
0.0
 10
21.5707915404
 20
9.3068682914
 30
0.0
 10
21.5395864093
 20
9.3294629447
 30
0.0
 10
21.5185747409
 20
9.348645096
 30
0.0
 10
21.5062069672
 20
9.362314481
 30
0.0
  0
SPLINE
  5
287
100
AcDbEntity
  8
0
100
AcDbSpline
 62
7
  6
BYLAYER
 70
0
 71
3
 72
19
 73
15
 74
0
 42
0.0000001
 43
0.0000001
 44
0.0000000001
 40
0.0
 40
0.0
 40
0.0
 40
0.0
 40
0.0593274515
 40
0.1205078564
 40
0.1832378476
 40
0.2472480495
 40
0.377862017
 40
0.509806882
 40
0.6404187566
 40
0.7671159606
 40
0.8282745955
 40
0.8876167762
 40
0.9449332779
 40
1.0
 40
1.0
 40
1.0
 40
1.0
 10
14.9789099564
 20
39.7394296054
 30
0.0
 10
14.9826642769
 20
39.7126763586
 30
0.0
 10
14.992075799
 20
39.6585718606
 30
0.0
 10
15.0113016955
 20
39.5773322173
 30
0.0
 10
15.0357446296
 20
39.4952769684
 30
0.0
 10
15.0752876889
 20
39.384910924
 30
0.0
 10
15.1364748106
 20
39.2490614166
 30
0.0
 10
15.2261401926
 20
39.093760898
 30
0.0
 10
15.3298812648
 20
38.9496724919
 30
0.0
 10
15.4266407353
 20
38.8412280277
 30
0.0
 10
15.5085748595
 20
38.7639617711
 30
0.0
 10
15.5707671724
 20
38.7120259614
 30
0.0
 10
15.6339347421
 20
38.6658411821
 30
0.0
 10
15.6772793867
 20
38.6385358567
 30
0.0
 10
15.6989952857
 20
38.6259984602
 30
0.0
  0
SPLINE
  5
288
100
AcDbEntity
  8
0
100
AcDbSpline
 62
7
  6
BYLAYER
 70
0
 71
3
 72
15
 73
11
 74
0
 42
0.0000001
 43
0.0000001
 44
0.0000000001
 40
0.0
 40
0.0
 40
0.0
 40
0.0
 40
0.1423699604
 40
0.2787348632
 40
0.4092781079
 40
0.5345070348
 40
0.6551828603
 40
0.7722426475
 40
0.8867742971
 40
1.0
 40
1.0
 40
1.0
 40
1.0
 10
16.3257257113
 20
38.9808703265
 30
0.0
 10
16.3229756007
 20
38.964448551
 30
0.0
 10
16.3163296869
 20
38.9324897763
 30
0.0
 10
16.3025487291
 20
38.886584692
 30
0.0
 10
16.2852236667
 20
38.8440398245
 30
0.0
 10
16.2644529838
 20
38.805124448
 30
0.0
 10
16.2403460558
 20
38.7700685358
 30
0.0
 10
16.2130287298
 20
38.7390872627
 30
0.0
 10
16.1826716546
 20
38.7123781386
 30
0.0
 10
16.1604597803
 20
38.697510217
 30
0.0
 10
16.148991832
 20
38.690889328
 30
0.0
  0
SPLINE
  5
289
100
AcDbEntity
  8
0
100
AcDbSpline
 62
7
  6
BYLAYER
 70
0
 71
3
 72
23
 73
19
 74
0
 42
0.0000001
 43
0.0000001
 44
0.0000000001
 40
0.0
 40
0.0
 40
0.0
 40
0.0
 40
0.0569141595
 40
0.1166609386
 40
0.1788723729
 40
0.2431827077
 40
0.3091471064
 40
0.3762713704
 40
0.4440369353
 40
0.5119107063
 40
0.5793549984
 40
0.6458430021
 40
0.7108725399
 40
0.7739775856
 40
0.8347408606
 40
0.892818083
 40
0.9479712778
 40
1.0
 40
1.0
 40
1.0
 40
1.0
 10
15.6989952857
 20
40.2051630371
 30
0.0
 10
15.7227394808
 20
40.1914546298
 30
0.0
 10
15.7700693664
 20
40.1609862771
 30
0.0
 10
15.8383887223
 20
40.1083315442
 30
0.0
 10
15.9050553002
 20
40.0481433697
 30
0.0
 10
15.9692750419
 20
39.9811515102
 30
0.0
 10
16.0303120003
 20
39.9081409414
 30
0.0
 10
16.0874368613
 20
39.8299637074
 30
0.0
 10
16.1399803889
 20
39.74754602
 30
0.0
 10
16.1873264421
 20
39.6618606826
 30
0.0
 10
16.2289087197
 20
39.5739137765
 30
0.0
 10
16.2642451055
 20
39.4847459756
 30
0.0
 10
16.2929166269
 20
39.3954051166
 30
0.0
 10
16.3145787413
 20
39.306940745
 30
0.0
 10
16.3289889305
 20
39.2203949887
 30
0.0
 10
16.3359655642
 20
39.1367622095
 30
0.0
 10
16.3354102522
 20
39.0570431309
 30
0.0
 10
16.3298654328
 20
39.0055899055
 30
0.0
 10
16.3257257113
 20
38.9808703265
 30
0.0
  0
SPLINE
  5
28A
100
AcDbEntity
  8
0
100
AcDbSpline
 62
7
  6
BYLAYER
 70
0
 71
3
 72
10
 73
6
 74
0
 42
0.0000001
 43
0.0000001
 44
0.0000000001
 40
0.0
 40
0.0
 40
0.0
 40
0.0
 40
0.2694043464
 40
0.5260131796
 40
1.0
 40
1.0
 40
1.0
 40
1.0
 10
15.6989952857
 20
38.6259984602
 30
0.0
 10
15.720700995
 20
38.6134669466
 30
0.0
 10
15.7640644683
 20
38.590615984
 30
0.0
 10
15.8498377542
 20
38.5544793031
 30
0.0
 10
15.9161970956
 20
38.5369036061
 30
0.0
 10
15.9598897258
 20
38.5309503365
 30
0.0
  0
SPLINE
  5
28B
100
AcDbEntity
  8
0
100
AcDbSpline
 62
7
  6
BYLAYER
 70
0
 71
3
 72
11
 73
7
 74
0
 42
0.0000001
 43
0.0000001
 44
0.0000000001
 40
0.0
 40
0.0
 40
0.0
 40
0.0
 40
0.2389741437
 40
0.4842684805
 40
0.7374909618
 40
1.0
 40
1.0
 40
1.0
 40
1.0
 10
15.2646452365
 20
40.6649295607
 30
0.0
 10
15.2522389442
 20
40.6528719873
 30
0.0
 10
15.2284999393
 20
40.6269552351
 30
0.0
 10
15.1969035429
 20
40.5837990552
 30
0.0
 10
15.1690767528
 20
40.5361449868
 30
0.0
 10
15.1534179997
 20
40.5021824774
 30
0.0
 10
15.1462254334
 20
40.4845920478
 30
0.0
  0
SPLINE
  5
28C
100
AcDbEntity
  8
0
100
AcDbSpline
 62
7
  6
BYLAYER
 70
0
 71
3
 72
9
 73
5
 74
0
 42
0.0000001
 43
0.0000001
 44
0.0000000001
 40
0.0
 40
0.0
 40
0.0
 40
0.0
 40
0.5138487775
 40
1.0
 40
1.0
 40
1.0
 40
1.0
 10
16.3009977993
 20
38.484457078
 30
0.0
 10
16.3319072122
 20
38.4802453173
 30
0.0
 10
16.3927679786
 20
38.4763582516
 30
0.0
 10
16.4535080796
 20
38.4827626921
 30
0.0
 10
16.4824351364
 20
38.4886172471
 30
0.0
  0
SPLINE
  5
28D
100
AcDbEntity
  8
0
100
AcDbSpline
 62
7
  6
BYLAYER
 70
0
 71
3
 72
15
 73
11
 74
0
 42
0.0000001
 43
0.0000001
 44
0.0000000001
 40
0.0
 40
0.0
 40
0.0
 40
0.0
 40
0.108012225
 40
0.2180618414
 40
0.3320013047
 40
0.4513621277
 40
0.5772691744
 40
0.7104919983
 40
0.8514460176
 40
1.0
 40
1.0
 40
1.0
 40
1.0
 10
15.2489987394
 20
40.2497323954
 30
0.0
 10
15.2637543107
 20
40.258251356
 30
0.0
 10
15.2950817037
 20
40.2729252534
 30
0.0
 10
15.3457746514
 20
40.2869389608
 30
0.0
 10
15.3998133148
 20
40.2929688145
 30
0.0
 10
15.4566220209
 20
40.2909906904
 30
0.0
 10
15.5156551033
 20
40.2810907339
 30
0.0
 10
15.5763692903
 20
40.2633933675
 30
0.0
 10
15.6381774698
 20
40.2380882371
 30
0.0
 10
15.6787012849
 20
40.2168795189
 30
0.0
 10
15.6989952857
 20
40.2051630371
 30
0.0
  0
SPLINE
  5
28E
100
AcDbEntity
  8
0
100
AcDbSpline
 62
7
  6
BYLAYER
 70
0
 71
3
 72
23
 73
19
 74
0
 42
0.0000001
 43
0.0000001
 44
0.0000000001
 40
0.0
 40
0.0
 40
0.0
 40
0.0
 40
0.0550496132
 40
0.1123609838
 40
0.1716986592
 40
0.2328442272
 40
0.2955612074
 40
0.3595651181
 40
0.4245504339
 40
0.4901974932
 40
0.5561788968
 40
0.6221613836
 40
0.6878107133
 40
0.7527941241
 40
0.816790741
 40
0.8795159903
 40
0.9406910905
 40
1.0
 40
1.0
 40
1.0
 40
1.0
 10
15.6989952857
 20
38.7354586863
 30
0.0
 10
15.6800972845
 20
38.7463692056
 30
0.0
 10
15.642374063
 20
38.7701356922
 30
0.0
 10
15.5873926633
 20
38.8103314233
 30
0.0
 10
15.5332626038
 20
38.8555364617
 30
0.0
 10
15.480396815
 20
38.9053844599
 30
0.0
 10
15.4291939571
 20
38.9595111472
 30
0.0
 10
15.3800264141
 20
39.0175004362
 30
0.0
 10
15.3332812035
 20
39.0789236305
 30
0.0
 10
15.2892997767
 20
39.1433054108
 30
0.0
 10
15.2484264948
 20
39.210167002
 30
0.0
 10
15.2109582156
 20
39.2789955644
 30
0.0
 10
15.1771931467
 20
39.3492763493
 30
0.0
 10
15.1473719656
 20
39.4204675964
 30
0.0
 10
15.121732023
 20
39.4920407526
 30
0.0
 10
15.1004560974
 20
39.563459837
 30
0.0
 10
15.0837250567
 20
39.6341696014
 30
0.0
 10
15.0755320066
 20
39.6812582648
 30
0.0
 10
15.0722648601
 20
39.7045399147
 30
0.0
  0
SPLINE
  5
28F
100
AcDbEntity
  8
0
100
AcDbSpline
 62
7
  6
BYLAYER
 70
0
 71
3
 72
15
 73
11
 74
0
 42
0.0000001
 43
0.0000001
 44
0.0000000001
 40
0.0
 40
0.0
 40
0.0
 40
0.0
 40
0.1423699604
 40
0.2787348632
 40
0.4092781079
 40
0.5345070348
 40
0.6551828603
 40
0.7722426475
 40
0.8867742971
 40
1.0
 40
1.0
 40
1.0
 40
1.0
 10
15.0722648601
 20
39.959751397
 30
0.0
 10
15.0750149707
 20
39.9761731724
 30
0.0
 10
15.0816608845
 20
40.0081319471
 30
0.0
 10
15.0954418423
 20
40.0540370314
 30
0.0
 10
15.1127669047
 20
40.0965818989
 30
0.0
 10
15.1335375876
 20
40.1354972754
 30
0.0
 10
15.1576445156
 20
40.1705531876
 30
0.0
 10
15.1849618416
 20
40.2015344607
 30
0.0
 10
15.2153189168
 20
40.2282435848
 30
0.0
 10
15.2375307911
 20
40.2431115064
 30
0.0
 10
15.2489987394
 20
40.2497323954
 30
0.0
  0
SPLINE
  5
290
100
AcDbEntity
  8
0
100
AcDbSpline
 62
7
  6
BYLAYER
 70
0
 71
3
 72
23
 73
19
 74
0
 42
0.0000001
 43
0.0000001
 44
0.0000000001
 40
0.0
 40
0.0
 40
0.0
 40
0.0
 40
0.0771740642
 40
0.1513544364
 40
0.2224508487
 40
0.2905200392
 40
0.3557092166
 40
0.4182415294
 40
0.4784229176
 40
0.5366626508
 40
0.5934554243
 40
0.6493697584
 40
0.7050188981
 40
0.7610328104
 40
0.8180214679
 40
0.8765397938
 40
0.9370657071
 40
1.0
 40
1.0
 40
1.0
 40
1.0
 10
15.6989952857
 20
40.3146232632
 30
0.0
 10
15.6809846607
 20
40.3250214672
 30
0.0
 10
15.6449947373
 20
40.3442894917
 30
0.0
 10
15.5902446993
 20
40.3688274844
 30
0.0
 10
15.5360768006
 20
40.3882767222
 30
0.0
 10
15.4828111831
 20
40.4025264156
 30
0.0
 10
15.430734938
 20
40.4114816314
 30
0.0
 10
15.38013787
 20
40.4150950147
 30
0.0
 10
15.3313058442
 20
40.4133136996
 30
0.0
 10
15.2845233589
 20
40.406143843
 30
0.0
 10
15.2400718241
 20
40.3935982465
 30
0.0
 10
15.1982222919
 20
40.3757516632
 30
0.0
 10
15.1592418093
 20
40.3526967054
 30
0.0
 10
15.1233686318
 20
40.3245863479
 30
0.0
 10
15.0908256094
 20
40.2915944515
 30
0.0
 10
15.0617931448
 20
40.253938425
 30
0.0
 10
15.0364326758
 20
40.2118538061
 30
0.0
 10
15.0223530809
 20
40.1816354349
 30
0.0
 10
15.0159343433
 20
40.1659375802
 30
0.0
  0
SPLINE
  5
291
100
AcDbEntity
  8
0
100
AcDbSpline
 62
7
  6
BYLAYER
 70
0
 71
3
 72
19
 73
15
 74
0
 42
0.0000001
 43
0.0000001
 44
0.0000000001
 40
0.0
 40
0.0
 40
0.0
 40
0.0
 40
0.0593274515
 40
0.1205078564
 40
0.1832378476
 40
0.2472480495
 40
0.377862017
 40
0.509806882
 40
0.6404187566
 40
0.7671159606
 40
0.8282745955
 40
0.8876167762
 40
0.9449332779
 40
1.0
 40
1.0
 40
1.0
 40
1.0
 10
16.4190806151
 20
39.201192118
 30
0.0
 10
16.4153262945
 20
39.2279453648
 30
0.0
 10
16.4059147724
 20
39.2820498629
 30
0.0
 10
16.3866888759
 20
39.3632895061
 30
0.0
 10
16.3622459418
 20
39.445344755
 30
0.0
 10
16.3227028825
 20
39.5557107994
 30
0.0
 10
16.2615157608
 20
39.6915603068
 30
0.0
 10
16.1718503788
 20
39.8468608254
 30
0.0
 10
16.0681093066
 20
39.9909492315
 30
0.0
 10
15.9713498361
 20
40.0993936957
 30
0.0
 10
15.8894157119
 20
40.1766599523
 30
0.0
 10
15.827223399
 20
40.228595762
 30
0.0
 10
15.7640558293
 20
40.2747805413
 30
0.0
 10
15.7207111847
 20
40.3020858667
 30
0.0
 10
15.6989952857
 20
40.3146232632
 30
0.0
  0
SPLINE
  5
292
100
AcDbEntity
  8
0
100
AcDbSpline
 62
7
  6
BYLAYER
 70
0
 71
3
 72
23
 73
19
 74
0
 42
0.0000001
 43
0.0000001
 44
0.0000000001
 40
0.0
 40
0.0
 40
0.0
 40
0.0
 40
0.060372257
 40
0.11815213
 40
0.1738603177
 40
0.2281408439
 40
0.2817337761
 40
0.3354266895
 40
0.3900000418
 40
0.446173855
 40
0.504561236
 40
0.5656503043
 40
0.6297921948
 40
0.6972032198
 40
0.7679764128
 40
0.8421178383
 40
0.9195445474
 40
1.0
 40
1.0
 40
1.0
 40
1.0
 10
15.9598897258
 20
38.5309503365
 30
0.0
 10
15.9790689644
 20
38.5283370999
 30
0.0
 10
16.0169283056
 20
38.5252670874
 30
0.0
 10
16.0727687161
 20
38.52763102
 30
0.0
 10
16.1258992352
 20
38.5370738147
 30
0.0
 10
16.1758812306
 20
38.553568949
 30
0.0
 10
16.2223045586
 20
38.5769875078
 30
0.0
 10
16.2647667105
 20
38.607156489
 30
0.0
 10
16.3029295425
 20
38.6437984708
 30
0.0
 10
16.3364906803
 20
38.686606105
 30
0.0
 10
16.3652239991
 20
38.7352134694
 30
0.0
 10
16.3889340693
 20
38.7892402377
 30
0.0
 10
16.407473171
 20
38.8482730705
 30
0.0
 10
16.4207281183
 20
38.9118713644
 30
0.0
 10
16.4286159807
 20
38.979570985
 30
0.0
 10
16.431090957
 20
39.0508871346
 30
0.0
 10
16.4281302012
 20
39.1252796706
 30
0.0
 10
16.4226654071
 20
39.1756469298
 30
0.0
 10
16.4190806151
 20
39.201192118
 30
0.0
  0
SPLINE
  5
293
100
AcDbEntity
  8
0
100
AcDbSpline
 62
7
  6
BYLAYER
 70
0
 71
3
 72
15
 73
11
 74
0
 42
0.0000001
 43
0.0000001
 44
0.0000000001
 40
0.0
 40
0.0
 40
0.0
 40
0.0
 40
0.108012225
 40
0.2180618414
 40
0.3320013047
 40
0.4513621277
 40
0.5772691744
 40
0.7104919983
 40
0.8514460176
 40
1.0
 40
1.0
 40
1.0
 40
1.0
 10
16.148991832
 20
38.690889328
 30
0.0
 10
16.1342362607
 20
38.6823703674
 30
0.0
 10
16.1029088677
 20
38.66769647
 30
0.0
 10
16.05221592
 20
38.6536827626
 30
0.0
 10
15.9981772566
 20
38.6476529089
 30
0.0
 10
15.9413685505
 20
38.649631033
 30
0.0
 10
15.8823354681
 20
38.6595309895
 30
0.0
 10
15.8216212811
 20
38.6772283559
 30
0.0
 10
15.7598131016
 20
38.7025334863
 30
0.0
 10
15.7192892865
 20
38.7237422045
 30
0.0
 10
15.6989952857
 20
38.7354586863
 30
0.0
  0
SPLINE
  5
294
100
AcDbEntity
  8
0
100
AcDbSpline
 62
7
  6
BYLAYER
 70
0
 71
3
 72
14
 73
10
 74
0
 42
0.0000001
 43
0.0000001
 44
0.0000000001
 40
0.0
 40
0.0
 40
0.0
 40
0.0
 40
0.1119582035
 40
0.2268139807
 40
0.3450886991
 40
0.4672423572
 40
0.7243348419
 40
0.8598915857
 40
1.0
 40
1.0
 40
1.0
 40
1.0
 10
13.7162981004
 20
44.0201372515
 30
0.0
 10
13.6674831369
 20
43.9604006037
 30
0.0
 10
13.5753621814
 20
43.8336976708
 30
0.0
 10
13.4562813731
 20
43.6274369956
 30
0.0
 10
13.355117439
 20
43.404087585
 30
0.0
 10
13.242486894
 20
43.0799018471
 30
0.0
 10
13.1693978908
 20
42.7310223131
 30
0.0
 10
13.1323216603
 20
42.3656535118
 30
0.0
 10
13.1256745285
 20
42.1756474784
 30
0.0
 10
13.1252356724
 20
42.0791063872
 30
0.0
  0
SPLINE
  5
295
100
AcDbEntity
  8
0
100
AcDbSpline
 62
7
  6
BYLAYER
 70
0
 71
3
 72
14
 73
10
 74
0
 42
0.0000001
 43
0.0000001
 44
0.0000000001
 40
0.0
 40
0.0
 40
0.0
 40
0.0
 40
0.1144538258
 40
0.2324764277
 40
0.3537845055
 40
0.4781418984
 40
0.6052940691
 40
0.7349115904
 40
1.0
 40
1.0
 40
1.0
 40
1.0
 10
13.125186298
 20
42.0573558319
 30
0.0
 10
13.125186298
 20
41.957343786
 30
0.0
 10
13.1315401445
 20
41.7541581169
 30
0.0
 10
13.1588870904
 20
41.4460763159
 30
0.0
 10
13.2040613922
 20
41.131354835
 30
0.0
 10
13.2667534976
 20
40.8115347336
 30
0.0
 10
13.3466402272
 20
40.4880837893
 30
0.0
 10
13.4764411496
 20
40.0508191742
 30
0.0
 10
13.5969029091
 20
39.727017302
 30
0.0
 10
13.6866740569
 20
39.5134803537
 30
0.0
  0
SPLINE
  5
296
100
AcDbEntity
  8
0
100
AcDbSpline
 62
7
  6
BYLAYER
 70
0
 71
3
 72
28
 73
24
 74
0
 42
0.0000001
 43
0.0000001
 44
0.0000000001
 40
0.0
 40
0.0
 40
0.0
 40
0.0
 40
0.0298531676
 40
0.0605770801
 40
0.1243620987
 40
0.1908998393
 40
0.2595835188
 40
0.3296994802
 40
0.4004735966
 40
0.471102734
 40
0.5407902183
 40
0.6087797631
 40
0.6743913779
 40
0.7370596325
 40
0.7671659594
 40
0.796398723
 40
0.8247387389
 40
0.8521828556
 40
0.9044163294
 40
0.9293229892
 40
0.9534964297
 40
0.9770238622
 40
1.0
 40
1.0
 40
1.0
 40
1.0
 10
22.515327713
 20
39.3065591432
 30
0.0
 10
22.5147248167
 20
39.4005142804
 30
0.0
 10
22.5079579624
 20
39.5911683885
 30
0.0
 10
22.4731358077
 20
39.9811683458
 30
0.0
 10
22.3893229033
 20
40.4819413199
 30
0.0
 10
22.2299033968
 20
41.0884374733
 30
0.0
 10
22.0132510241
 20
41.6980780926
 30
0.0
 10
21.7431514821
 20
42.3005738035
 30
0.0
 10
21.4242742669
 20
42.8857007383
 30
0.0
 10
21.0620847048
 20
43.4434508442
 30
0.0
 10
20.662751835
 20
43.9642700722
 30
0.0
 10
20.2329757375
 20
44.4392652779
 30
0.0
 10
19.7798870973
 20
44.8603089272
 30
0.0
 10
19.3836631527
 20
45.1643123607
 30
0.0
 10
19.0611605932
 20
45.3730570162
 30
0.0
 10
18.8213203272
 20
45.5098443315
 30
0.0
 10
18.5811883222
 20
45.6283194088
 30
0.0
 10
18.2671479767
 20
45.7589015138
 30
0.0
 10
17.9505276009
 20
45.8541375217
 30
0.0
 10
17.6359414078
 20
45.9081086764
 30
0.0
 10
17.4078954823
 20
45.9271572401
 30
0.0
 10
17.1851444907
 20
45.9250048317
 30
0.0
 10
17.0393451982
 20
45.9091108757
 30
0.0
 10
16.9679734612
 20
45.8974816902
 30
0.0
  0
SPLINE
  5
297
100
AcDbEntity
  8
0
100
AcDbSpline
 62
7
  6
BYLAYER
 70
0
 71
3
 72
14
 73
10
 74
0
 42
0.0000001
 43
0.0000001
 44
0.0000000001
 40
0.0
 40
0.0
 40
0.0
 40
0.0
 40
0.1121910795
 40
0.2272302219
 40
0.3456231131
 40
0.4678194062
 40
0.7247517337
 40
0.8601174848
 40
1.0
 40
1.0
 40
1.0
 40
1.0
 10
21.9243154942
 20
37.3127942259
 30
0.0
 10
21.9723139191
 20
37.3715316456
 30
0.0
 10
22.0629821244
 20
37.4959902522
 30
0.0
 10
22.1805262366
 20
37.6983807833
 30
0.0
 10
22.2807545732
 20
37.9173451025
 30
0.0
 10
22.3928957798
 20
38.2348678418
 30
0.0
 10
22.4668215165
 20
38.576479922
 30
0.0
 10
22.5058360408
 20
38.9343206569
 30
0.0
 10
22.513832708
 20
39.1204178822
 30
0.0
 10
22.5150413918
 20
39.2149875901
 30
0.0
  0
SPLINE
  5
298
100
AcDbEntity
  8
0
100
AcDbSpline
 62
7
  6
BYLAYER
 70
0
 71
3
 72
19
 73
15
 74
0
 42
0.0000001
 43
0.0000001
 44
0.0000000001
 40
0.0
 40
0.0
 40
0.0
 40
0.0
 40
0.1112147167
 40
0.1694528453
 40
0.2292635223
 40
0.2904936375
 40
0.3529569647
 40
0.4164685273
 40
0.4808324099
 40
0.6112220588
 40
0.6768366661
 40
0.7424234701
 40
0.8725900136
 40
1.0
 40
1.0
 40
1.0
 40
1.0
 10
22.4915677922
 20
39.2518524784
 30
0.0
 10
22.490251344
 20
39.4570106708
 30
0.0
 10
22.4685592708
 20
39.7697601703
 30
0.0
 10
22.405759504
 20
40.1881047826
 30
0.0
 10
22.3400407443
 20
40.5123898769
 30
0.0
 10
22.2569106642
 20
40.8406668644
 30
0.0
 10
22.1565402359
 20
41.1712308724
 30
0.0
 10
22.0395443694
 20
41.5024172443
 30
0.0
 10
21.8615915557
 20
41.9444890829
 30
0.0
 10
21.6538472176
 20
42.378298007
 30
0.0
 10
21.4188629163
 20
42.7999076693
 30
0.0
 10
21.1668830625
 20
43.211127438
 30
0.0
 10
20.8241529557
 20
43.6997779741
 30
0.0
 10
20.5188143514
 20
44.0647723852
 30
0.0
 10
20.3599170342
 20
44.2379622839
 30
0.0
  0
SPLINE
  5
299
100
AcDbEntity
  8
0
100
AcDbSpline
 62
7
  6
BYLAYER
 70
0
 71
3
 72
14
 73
10
 74
0
 42
0.0000001
 43
0.0000001
 44
0.0000000001
 40
0.0
 40
0.0
 40
0.0
 40
0.0
 40
0.2736671806
 40
0.4054431678
 40
0.5332861619
 40
0.6568740754
 40
0.7759518934
 40
0.89035191
 40
1.0
 40
1.0
 40
1.0
 40
1.0
 10
20.3599170342
 20
44.2379622839
 30
0.0
 10
20.1952648427
 20
44.4174246995
 30
0.0
 10
19.9384490418
 20
44.6720598719
 30
0.0
 10
19.5755259733
 20
44.9781646806
 30
0.0
 10
19.3027151281
 20
45.1831482933
 30
0.0
 10
19.0275390858
 20
45.3651937033
 30
0.0
 10
18.7515642083
 20
45.5232152901
 30
0.0
 10
18.4764416075
 20
45.6562880198
 30
0.0
 10
18.2906661345
 20
45.7293896902
 30
0.0
 10
18.1984391222
 20
45.7612701493
 30
0.0
  0
SPLINE
  5
29A
100
AcDbEntity
  8
0
100
AcDbSpline
 62
7
  6
BYLAYER
 70
0
 71
3
 72
9
 73
5
 74
0
 42
0.0000001
 43
0.0000001
 44
0.0000000001
 40
0.0
 40
0.0
 40
0.0
 40
0.0
 40
0.2564539243
 40
1.0
 40
1.0
 40
1.0
 40
1.0
 10
18.1984391222
 20
45.7612701493
 30
0.0
 10
18.1643164946
 20
45.7730654466
 30
0.0
 10
18.0305571576
 20
45.8169784792
 30
0.0
 10
17.8939364976
 20
45.8523283609
 30
0.0
 10
17.7913034358
 20
45.8729129323
 30
0.0
  0
SPLINE
  5
29B
100
AcDbEntity
  8
0
100
AcDbSpline
 62
7
  6
BYLAYER
 70
0
 71
3
 72
9
 73
5
 74
0
 42
0.0000001
 43
0.0000001
 44
0.0000000001
 40
0.0
 40
0.0
 40
0.0
 40
0.0
 40
0.5111643703
 40
1.0
 40
1.0
 40
1.0
 40
1.0
 10
17.7913034358
 20
45.8729129323
 30
0.0
 10
17.6999881382
 20
45.8912275594
 30
0.0
 10
17.51943286
 20
45.9182771671
 30
0.0
 10
17.3368950175
 20
45.9251917092
 30
0.0
 10
17.24785437
 20
45.9230860621
 30
0.0
  0
SPLINE
  5
29C
100
AcDbEntity
  8
0
100
AcDbSpline
 62
7
  6
BYLAYER
 70
0
 71
3
 72
9
 73
5
 74
0
 42
0.0000001
 43
0.0000001
 44
0.0000000001
 40
0.0
 40
0.0
 40
0.0
 40
0.0
 40
0.2538688338
 40
1.0
 40
1.0
 40
1.0
 40
1.0
 10
17.24785437
 20
45.9230860621
 30
0.0
 10
17.2240743805
 20
45.9225237092
 30
0.0
 10
17.1304490353
 20
45.918769589
 30
0.0
 10
17.0370575064
 20
45.9087305211
 30
0.0
 10
16.9680569552
 20
45.8974912178
 30
0.0
  0
LINE
  5
29D
100
AcDbEntity
  8
0
100
AcDbLine
 62
7
  6
BYLAYER
 10
22.4917420138
 20
39.2210691593
 11
22.4915677922
 21
39.2518524784
  0
SPLINE
  5
29E
100
AcDbEntity
  8
0
100
AcDbSpline
 62
7
  6
BYLAYER
 70
0
 71
3
 72
14
 73
10
 74
0
 42
0.0000001
 43
0.0000001
 44
0.0000000001
 40
0.0
 40
0.0
 40
0.0
 40
0.0
 40
0.1137125343
 40
0.2312589807
 40
0.3523400382
 40
0.476687996
 40
0.6040060683
 40
0.7339351682
 40
1.0
 40
1.0
 40
1.0
 40
1.0
 10
13.1837656123
 20
41.975706954
 30
0.0
 10
13.1837656123
 20
41.8800622728
 30
0.0
 10
13.1898338462
 20
41.6855075126
 30
0.0
 10
13.2159504155
 20
41.3901618466
 30
0.0
 10
13.2591628534
 20
41.0877902581
 30
0.0
 10
13.3192139515
 20
40.7799468718
 30
0.0
 10
13.395824216
 20
40.4681295703
 30
0.0
 10
13.5204803516
 20
40.04587467
 30
0.0
 10
13.6361947384
 20
39.7329567146
 30
0.0
 10
13.7224516443
 20
39.5264584222
 30
0.0
  0
SPLINE
  5
29F
100
AcDbEntity
  8
0
100
AcDbSpline
 62
7
  6
BYLAYER
 70
0
 71
3
 72
15
 73
11
 74
0
 42
0.0000001
 43
0.0000001
 44
0.0000000001
 40
0.0
 40
0.0
 40
0.0
 40
0.0
 40
0.1088229956
 40
0.2212593707
 40
0.3380129818
 40
0.4596188602
 40
0.5864508047
 40
0.7187572693
 40
0.8566514706
 40
1.0
 40
1.0
 40
1.0
 40
1.0
 10
19.5002445804
 20
36.1040004422
 30
0.0
 10
19.5480147646
 20
36.1584146846
 30
0.0
 10
19.6385586973
 20
36.2749908704
 30
0.0
 10
19.7560539877
 20
36.46724619
 30
0.0
 10
19.8566040565
 20
36.678326245
 30
0.0
 10
19.9397130665
 20
36.9070230508
 30
0.0
 10
20.0049826758
 20
37.1521198913
 30
0.0
 10
20.0521154948
 20
37.4123286609
 30
0.0
 10
20.0808496785
 20
37.6862154663
 30
0.0
 10
20.0875692451
 20
37.8733859589
 30
0.0
 10
20.0880028198
 20
37.9687652031
 30
0.0
  0
SPLINE
  5
2A0
100
AcDbEntity
  8
0
100
AcDbSpline
 62
7
  6
BYLAYER
 70
0
 71
3
 72
45
 73
41
 74
0
 42
0.0000001
 43
0.0000001
 44
0.0000000001
 40
0.0
 40
0.0
 40
0.0
 40
0.0
 40
0.0325417926
 40
0.0665479276
 40
0.1018646696
 40
0.1383287183
 40
0.1757396134
 40
0.2138785077
 40
0.2525125205
 40
0.2913980481
 40
0.3302867747
 40
0.3689305458
 40
0.4070858567
 40
0.4445187623
 40
0.4810103567
 40
0.5163618265
 40
0.5504000815
 40
0.5829850899
 40
0.6140170849
 40
0.6434444528
 40
0.6712734303
 40
0.6846150941
 40
0.6975911977
 40
0.7225239538
 40
0.746318512
 40
0.7578939925
 40
0.7693094628
 40
0.7806147404
 40
0.7918620063
 40
0.8031049973
 40
0.8143974018
 40
0.8257919137
 40
0.8373386567
 40
0.8490843845
 40
0.8610719839
 40
0.8859040387
 40
0.9120931521
 40
0.9397951744
 40
0.9690984678
 40
1.0
 40
1.0
 40
1.0
 40
1.0
 10
20.0880501278
 20
37.989606608
 30
0.0
 10
20.0880501278
 20
38.1229187606
 30
0.0
 10
20.0762243484
 20
38.3956409378
 30
0.0
 10
20.0260888097
 20
38.8102778663
 30
0.0
 10
19.943592492
 20
39.2360770719
 30
0.0
 10
19.8295665321
 20
39.6689353719
 30
0.0
 10
19.6850770106
 20
40.1047757523
 30
0.0
 10
19.5115107465
 20
40.539443033
 30
0.0
 10
19.3105236735
 20
40.9687998044
 30
0.0
 10
19.084021911
 20
41.3887488511
 30
0.0
 10
18.8341727809
 20
41.795287406
 30
0.0
 10
18.5633615332
 20
42.1845406771
 30
0.0
 10
18.2741650857
 20
42.5527948918
 30
0.0
 10
17.9693353961
 20
42.8965391452
 30
0.0
 10
17.6517769299
 20
43.2125063968
 30
0.0
 10
17.3245031033
 20
43.4976918616
 30
0.0
 10
16.9906025419
 20
43.7493768535
 30
0.0
 10
16.6532254639
 20
43.9651704351
 30
0.0
 10
16.3155196346
 20
44.1430189834
 30
0.0
 10
15.980658603
 20
44.2811918504
 30
0.0
 10
15.7026482535
 20
44.3632525205
 30
0.0
 10
15.4850449392
 20
44.4069531064
 30
0.0
 10
15.2769240028
 20
44.4354766668
 30
0.0
 10
15.0235209701
 20
44.4455078935
 30
0.0
 10
14.7768315451
 20
44.4193233651
 30
0.0
 10
14.5898272651
 20
44.3765023223
 30
0.0
 10
14.4557171516
 20
44.3340696189
 30
0.0
 10
14.3268427507
 20
44.2811477462
 30
0.0
 10
14.2035290675
 20
44.2178394034
 30
0.0
 10
14.0860838481
 20
44.1443141357
 30
0.0
 10
13.9747919365
 20
44.0607646809
 30
0.0
 10
13.8699459956
 20
43.9673812008
 30
0.0
 10
13.7717871451
 20
43.8644221409
 30
0.0
 10
13.6805493057
 20
43.752137056
 30
0.0
 10
13.5671284015
 20
43.5884795995
 30
0.0
 10
13.4439992689
 20
43.3605616569
 30
0.0
 10
13.3291229431
 20
43.0583554801
 30
0.0
 10
13.2461384235
 20
42.7270557596
 30
0.0
 10
13.1957516823
 20
42.3699002629
 30
0.0
 10
13.1843883785
 20
42.1231396396
 30
0.0
 10
13.1838129202
 20
41.9965483588
 30
0.0
  0
LINE
  5
2A1
100
AcDbEntity
  8
0
100
AcDbLine
 62
7
  6
BYLAYER
 10
20.0880501278
 20
37.989606608
 11
20.0880028198
 21
37.9687652031
  0
LINE
  5
2A2
100
AcDbEntity
  8
0
100
AcDbLine
 62
7
  6
BYLAYER
 10
13.1837656123
 20
41.975706954
 11
13.1838129202
 21
41.9965483588
  0
SPLINE
  5
2A3
100
AcDbEntity
  8
0
100
AcDbSpline
 62
7
  6
BYLAYER
 70
0
 71
3
 72
15
 73
11
 74
0
 42
0.0000001
 43
0.0000001
 44
0.0000000001
 40
0.0
 40
0.0
 40
0.0
 40
0.0
 40
0.1449355321
 40
0.2838129853
 40
0.4165169333
 40
0.543227167
 40
0.6642918432
 40
0.7802379015
 40
0.891820094
 40
1.0
 40
1.0
 40
1.0
 40
1.0
 10
20.3238988071
 20
37.9478237112
 30
0.0
 10
20.3234074077
 20
37.8397239689
 30
0.0
 10
20.3152098799
 20
37.627982253
 30
0.0
 10
20.2797607346
 20
37.3190375883
 30
0.0
 10
20.2215407224
 20
37.0273492054
 30
0.0
 10
20.1408940101
 20
36.7548240299
 30
0.0
 10
20.0382893164
 20
36.5031662014
 30
0.0
 10
19.9142410172
 20
36.2740194901
 30
0.0
 10
19.7695386756
 20
36.0689472389
 30
0.0
 10
19.6584145742
 20
35.9477007826
 30
0.0
 10
19.5999981433
 20
35.8920426129
 30
0.0
  0
SPLINE
  5
2A4
100
AcDbEntity
  8
0
100
AcDbSpline
 62
7
  6
BYLAYER
 70
0
 71
3
 72
10
 73
6
 74
0
 42
0.0000001
 43
0.0000001
 44
0.0000000001
 40
0.0
 40
0.0
 40
0.0
 40
0.0
 40
0.2401271261
 40
0.4863261893
 40
1.0
 40
1.0
 40
1.0
 40
1.0
 10
21.9243141113
 20
37.3127953152
 30
0.0
 10
21.9605007712
 20
37.3570752015
 30
0.0
 10
22.0298260887
 20
37.4500767801
 30
0.0
 10
22.1557246348
 20
37.6524493024
 30
0.0
 10
22.2324178348
 20
37.8173712246
 30
0.0
 10
22.2762894084
 20
37.9315634354
 30
0.0
  0
SPLINE
  5
2A5
100
AcDbEntity
  8
0
100
AcDbSpline
 62
7
  6
BYLAYER
 70
0
 71
3
 72
9
 73
5
 74
0
 42
0.0000001
 43
0.0000001
 44
0.0000000001
 40
0.0
 40
0.0
 40
0.0
 40
0.0
 40
0.241437637
 40
1.0
 40
1.0
 40
1.0
 40
1.0
 10
22.2762894084
 20
37.9315634354
 30
0.0
 10
22.2930802862
 20
37.9752679871
 30
0.0
 10
22.3578820565
 20
38.1580965684
 30
0.0
 10
22.4040986689
 20
38.3473171352
 30
0.0
 10
22.4300841467
 20
38.492102392
 30
0.0
  0
SPLINE
  5
2A6
100
AcDbEntity
  8
0
100
AcDbSpline
 62
7
  6
BYLAYER
 70
0
 71
3
 72
9
 73
5
 74
0
 42
0.0000001
 43
0.0000001
 44
0.0000000001
 40
0.0
 40
0.0
 40
0.0
 40
0.0
 40
0.24324864
 40
1.0
 40
1.0
 40
1.0
 40
1.0
 10
22.4300841467
 20
38.492102392
 30
0.0
 10
22.4374013636
 20
38.5328722843
 30
0.0
 10
22.4645430279
 20
38.7009996516
 30
0.0
 10
22.4802104241
 20
38.8709198825
 30
0.0
 10
22.4864305628
 20
38.9996322252
 30
0.0
  0
SPLINE
  5
2A7
100
AcDbEntity
  8
0
100
AcDbSpline
 62
7
  6
BYLAYER
 70
0
 71
3
 72
39
 73
35
 74
0
 42
0.0000001
 43
0.0000001
 44
0.0000000001
 40
0.0
 40
0.0
 40
0.0
 40
0.0
 40
0.022505463
 40
0.0445575509
 40
0.0664212428
 40
0.0883759768
 40
0.1106962855
 40
0.1336346373
 40
0.1574084269
 40
0.182193489
 40
0.2081200149
 40
0.2352749605
 40
0.2637043807
 40
0.2934171913
 40
0.324391073
 40
0.3565746378
 40
0.3898933425
 40
0.4242518688
 40
0.4595374582
 40
0.4956235871
 40
0.5323711949
 40
0.5696325573
 40
0.6072526573
 40
0.6450719099
 40
0.682928142
 40
0.720658511
 40
0.7581018991
 40
0.795100667
 40
0.8315040428
 40
0.8671686465
 40
0.9019603501
 40
0.9357618304
 40
0.9684761776
 40
1.0
 40
1.0
 40
1.0
 40
1.0
 10
13.7164902803
 20
44.0203699687
 30
0.0
 10
13.7675981635
 20
44.0828957546
 30
0.0
 10
13.8767497149
 20
44.200463911
 30
0.0
 10
14.0614756786
 20
44.3522015975
 30
0.0
 10
14.2638203877
 20
44.4758635242
 30
0.0
 10
14.4822788999
 20
44.5705158317
 30
0.0
 10
14.7152818172
 20
44.6355303223
 30
0.0
 10
14.9611732626
 20
44.6705295759
 30
0.0
 10
15.2182709302
 20
44.6754259408
 30
0.0
 10
15.4848822196
 20
44.6502699128
 30
0.0
 10
15.7593009072
 20
44.5953520046
 30
0.0
 10
16.0397952506
 20
44.5110877995
 30
0.0
 10
16.3245994581
 20
44.3980601264
 30
0.0
 10
16.6119336217
 20
44.2570422276
 30
0.0
 10
16.8999724395
 20
44.0889290803
 30
0.0
 10
17.1869044258
 20
43.8948256545
 30
0.0
 10
17.4709006284
 20
43.6759697616
 30
0.0
 10
17.7501476327
 20
43.4337622536
 30
0.0
 10
18.0228732741
 20
43.1697678863
 30
0.0
 10
18.2873154217
 20
42.8856640024
 30
0.0
 10
18.5417938104
 20
42.5832869639
 30
0.0
 10
18.7846679775
 20
42.2645718355
 30
0.0
 10
19.014375361
 20
41.9315634873
 30
0.0
 10
19.2294532225
 20
41.5864093322
 30
0.0
 10
19.4285013617
 20
41.2313158414
 30
0.0
 10
19.6102572795
 20
40.8685746968
 30
0.0
 10
19.7735436108
 20
40.5005127406
 30
0.0
 10
19.9173102096
 20
40.1294932925
 30
0.0
 10
20.0406461052
 20
39.7579021002
 30
0.0
 10
20.1427350823
 20
39.3881196274
 30
0.0
 10
20.2229508931
 20
39.022525076
 30
0.0
 10
20.2807636763
 20
38.6634212831
 30
0.0
 10
20.3157722472
 20
38.3131626541
 30
0.0
 10
20.3239479703
 20
38.0825985007
 30
0.0
 10
20.3239479703
 20
37.9694824265
 30
0.0
  0
SPLINE
  5
2A8
100
AcDbEntity
  8
0
100
AcDbSpline
 62
7
  6
BYLAYER
 70
0
 71
3
 72
11
 73
7
 74
0
 42
0.0000001
 43
0.0000001
 44
0.0000000001
 40
0.0
 40
0.0
 40
0.0
 40
0.0
 40
0.2333903495
 40
0.4769721225
 40
0.7321930905
 40
1.0
 40
1.0
 40
1.0
 40
1.0
 10
10.8801147544
 20
13.811659215
 30
0.0
 10
10.7727628542
 20
13.9975913822
 30
0.0
 10
10.5571948831
 20
14.3797993892
 30
0.0
 10
10.2392351295
 20
14.9736420377
 30
0.0
 10
9.9208590597
 20
15.6029654034
 30
0.0
 10
9.7136593848
 20
16.03725615
 30
0.0
 10
9.6099464329
 20
16.2607195872
 30
0.0
  0
SPLINE
  5
2A9
100
AcDbEntity
  8
0
100
AcDbSpline
 62
7
  6
BYLAYER
 70
0
 71
3
 72
11
 73
7
 74
0
 42
0.0000001
 43
0.0000001
 44
0.0000000001
 40
0.0
 40
0.0
 40
0.0
 40
0.0
 40
0.2485938726
 40
0.4982560849
 40
0.7487906236
 40
1.0
 40
1.0
 40
1.0
 40
1.0
 10
15.6203790979
 20
12.7906731728
 30
0.0
 10
15.2231082072
 20
12.8521292914
 30
0.0
 10
14.4287932736
 20
12.9881702964
 30
0.0
 10
13.2420218277
 20
13.2293060449
 30
0.0
 10
12.0583093042
 20
13.5042211881
 30
0.0
 10
11.2724991171
 20
13.7065217525
 30
0.0
 10
10.8801147544
 20
13.811659215
 30
0.0
  0
SPLINE
  5
2AA
100
AcDbEntity
  8
0
100
AcDbSpline
 62
7
  6
BYLAYER
 70
0
 71
3
 72
10
 73
6
 74
0
 42
0.0000001
 43
0.0000001
 44
0.0000000001
 40
0.0
 40
0.0
 40
0.0
 40
0.0
 40
0.4821075936
 40
0.7372484867
 40
1.0
 40
1.0
 40
1.0
 40
1.0
 10
9.6099464329
 20
16.2607195872
 30
0.0
 10
9.3879906109
 20
16.738953115
 30
0.0
 10
9.0651779751
 20
17.4780384719
 30
0.0
 10
8.6512676908
 20
18.4902825746
 30
0.0
 10
8.4437192443
 20
19.0172691366
 30
0.0
 10
8.3397781121
 20
19.2851545415
 30
0.0
  0
SPLINE
  5
2AB
100
AcDbEntity
  8
0
100
AcDbSpline
 62
7
  6
BYLAYER
 70
0
 71
3
 72
11
 73
7
 74
0
 42
0.0000001
 43
0.0000001
 44
0.0000000001
 40
0.0
 40
0.0
 40
0.0
 40
0.0
 40
0.25554799
 40
0.5077855537
 40
0.7561002628
 40
1.0
 40
1.0
 40
1.0
 40
1.0
 10
27.3008354826
 20
16.3519595409
 30
0.0
 10
27.0148916987
 20
16.1426346481
 30
0.0
 10
26.4428146291
 20
15.7319691846
 30
0.0
 10
25.5770997773
 20
15.1402574918
 30
0.0
 10
24.7089884575
 20
14.581314322
 30
0.0
 10
24.1236477717
 20
14.2299330185
 30
0.0
 10
23.8307394616
 20
14.0608233362
 30
0.0
  0
SPLINE
  5
2AC
100
AcDbEntity
  8
0
100
AcDbSpline
 62
7
  6
BYLAYER
 70
0
 71
3
 72
11
 73
7
 74
0
 42
0.0000001
 43
0.0000001
 44
0.0000000001
 40
0.0
 40
0.0
 40
0.0
 40
0.0
 40
0.2569455556
 40
0.5089662712
 40
0.7564557643
 40
1.0
 40
1.0
 40
1.0
 40
1.0
 10
23.8307394616
 20
14.0608233362
 30
0.0
 10
23.543428037
 20
13.894944998
 30
0.0
 10
22.9687632144
 20
13.5758620386
 30
0.0
 10
22.0990844585
 20
13.130942835
 30
0.0
 10
21.231266994
 20
12.7215195007
 30
0.0
 10
20.6502910231
 20
12.4674796828
 30
0.0
 10
20.3606434396
 20
12.3450617147
 30
0.0
  0
SPLINE
  5
2AD
100
AcDbEntity
  8
0
100
AcDbSpline
 62
7
  6
BYLAYER
 70
0
 71
3
 72
11
 73
7
 74
0
 42
0.0000001
 43
0.0000001
 44
0.0000000001
 40
0.0
 40
0.0
 40
0.0
 40
0.0
 40
0.2481426854
 40
0.4974652347
 40
0.7480747499
 40
1.0
 40
1.0
 40
1.0
 40
1.0
 10
20.3606434396
 20
12.3450617147
 30
0.0
 10
19.9669673357
 20
12.3613781772
 30
0.0
 10
19.1780525732
 20
12.4024237545
 30
0.0
 10
17.993605919
 20
12.4939257982
 30
0.0
 10
16.8062869024
 20
12.6201933994
 30
0.0
 10
16.0156971738
 20
12.7295191464
 30
0.0
 10
15.6203790979
 20
12.7906731728
 30
0.0
  0
SPLINE
  5
2AE
100
AcDbEntity
  8
0
100
AcDbSpline
 62
7
  6
BYLAYER
 70
0
 71
3
 72
11
 73
7
 74
0
 42
0.0000001
 43
0.0000001
 44
0.0000000001
 40
0.0
 40
0.0
 40
0.0
 40
0.0
 40
0.2485938728
 40
0.4982560852
 40
0.7487906222
 40
1.0
 40
1.0
 40
1.0
 40
1.0
 10
15.6203790979
 20
15.6484316328
 30
0.0
 10
16.0176499887
 20
15.5869755141
 30
0.0
 10
16.8119649245
 20
15.4509345164
 30
0.0
 10
17.9987363593
 20
15.2097987306
 30
0.0
 10
19.1824489066
 20
14.9348836904
 30
0.0
 10
19.9682590748
 20
14.732583054
 30
0.0
 10
20.3606434396
 20
14.6274455909
 30
0.0
  0
SPLINE
  5
2AF
100
AcDbEntity
  8
0
100
AcDbSpline
 62
7
  6
BYLAYER
 70
0
 71
3
 72
11
 73
7
 74
0
 42
0.0000001
 43
0.0000001
 44
0.0000000001
 40
0.0
 40
0.0
 40
0.0
 40
0.0
 40
0.2555479851
 40
0.5077855548
 40
0.7561002631
 40
1.0
 40
1.0
 40
1.0
 40
1.0
 10
20.3606434396
 20
14.6274455909
 30
0.0
 10
20.6465872179
 20
14.8367704796
 30
0.0
 10
21.218664325
 20
15.2474358926
 30
0.0
 10
22.0843791264
 20
15.8391476592
 30
0.0
 10
22.95249047
 20
16.3980908058
 30
0.0
 10
23.537831151
 20
16.7494721136
 30
0.0
 10
23.8307394607
 20
16.9185817957
 30
0.0
  0
SPLINE
  5
2B0
100
AcDbEntity
  8
0
100
AcDbSpline
 62
7
  6
BYLAYER
 70
0
 71
3
 72
11
 73
7
 74
0
 42
0.0000001
 43
0.0000001
 44
0.0000000001
 40
0.0
 40
0.0
 40
0.0
 40
0.0
 40
0.2484190083
 40
0.4996931898
 40
0.7511190947
 40
1.0
 40
1.0
 40
1.0
 40
1.0
 10
15.6203790991
 20
15.6484316326
 30
0.0
 10
15.9718451974
 20
15.5940613208
 30
0.0
 10
16.6833135878
 20
15.5120323561
 30
0.0
 10
17.758679968
 20
15.4681836673
 30
0.0
 10
18.8350358736
 20
15.5030497151
 30
0.0
 10
19.5480473668
 20
15.5790885068
 30
0.0
 10
19.9006312721
 20
15.6304687883
 30
0.0
  0
SPLINE
  5
2B1
100
AcDbEntity
  8
0
100
AcDbSpline
 62
7
  6
BYLAYER
 70
0
 71
3
 72
11
 73
7
 74
0
 42
0.0000001
 43
0.0000001
 44
0.0000000001
 40
0.0
 40
0.0
 40
0.0
 40
0.0
 40
0.2347991316
 40
0.4808674353
 40
0.7366139364
 40
1.0
 40
1.0
 40
1.0
 40
1.0
 10
12.1510290382
 20
16.7322220647
 30
0.0
 10
12.4047640978
 20
16.6010917867
 30
0.0
 10
12.937834127
 20
16.3579410481
 30
0.0
 10
13.7829993282
 20
16.0574531789
 30
0.0
 10
14.6828056184
 20
15.8157670039
 30
0.0
 10
15.3037550578
 20
15.6974120263
 30
0.0
 10
15.6203790991
 20
15.6484316326
 30
0.0
  0
SPLINE
  5
2B2
100
AcDbEntity
  8
0
100
AcDbSpline
 62
7
  6
BYLAYER
 70
0
 71
3
 72
9
 73
5
 74
0
 42
0.0000001
 43
0.0000001
 44
0.0000000001
 40
0.0
 40
0.0
 40
0.0
 40
0.0
 40
0.4868963731
 40
1.0
 40
1.0
 40
1.0
 40
1.0
 10
9.6099464327
 20
19.1184780475
 30
0.0
 10
9.6842986463
 20
18.9582762511
 30
0.0
 10
9.8627370656
 20
18.640784183
 30
0.0
 10
10.0828126355
 20
18.3510392514
 30
0.0
 10
10.2040297237
 20
18.2098033693
 30
0.0
  0
SPLINE
  5
2B3
100
AcDbEntity
  8
0
100
AcDbSpline
 62
7
  6
BYLAYER
 70
0
 71
3
 72
10
 73
6
 74
0
 42
0.0000001
 43
0.0000001
 44
0.0000000001
 40
0.0
 40
0.0
 40
0.0
 40
0.0
 40
0.4821075958
 40
0.7372484761
 40
1.0
 40
1.0
 40
1.0
 40
1.0
 10
9.6099464329
 20
19.1184780472
 30
0.0
 10
9.8319022559
 20
18.640244517
 30
0.0
 10
10.1547148683
 20
17.9011591625
 30
0.0
 10
10.5686251981
 20
16.8889150775
 30
0.0
 10
10.776173618
 20
16.3619285071
 30
0.0
 10
10.8801147544
 20
16.0940430912
 30
0.0
  0
SPLINE
  5
2B4
100
AcDbEntity
  8
0
100
AcDbSpline
 62
7
  6
BYLAYER
 70
0
 71
3
 72
11
 73
7
 74
0
 42
0.0000001
 43
0.0000001
 44
0.0000000001
 40
0.0
 40
0.0
 40
0.0
 40
0.0
 40
0.2481426864
 40
0.4974652346
 40
0.7480747501
 40
1.0
 40
1.0
 40
1.0
 40
1.0
 10
10.8801147544
 20
16.0940430912
 30
0.0
 10
11.27379086
 20
16.0777266286
 30
0.0
 10
12.0627056181
 20
16.0366809747
 30
0.0
 10
13.2471522807
 20
15.9451790393
 30
0.0
 10
14.4344712926
 20
15.8189113982
 30
0.0
 10
15.2250610221
 20
15.7095856592
 30
0.0
 10
15.6203790979
 20
15.6484316328
 30
0.0
  0
SPLINE
  5
2B5
100
AcDbEntity
  8
0
100
AcDbSpline
 62
7
  6
BYLAYER
 70
0
 71
3
 72
11
 73
7
 74
0
 42
0.0000001
 43
0.0000001
 44
0.0000000001
 40
0.0
 40
0.0
 40
0.0
 40
0.0
 40
0.2333903625
 40
0.4769721203
 40
0.7321930904
 40
1.0
 40
1.0
 40
1.0
 40
1.0
 10
8.3397781121
 20
21.5675384177
 30
0.0
 10
8.4471300182
 20
21.3816062402
 30
0.0
 10
8.6626979557
 20
20.9993982172
 30
0.0
 10
8.9806577551
 20
20.4055555942
 30
0.0
 10
9.2990338016
 20
19.7762322303
 30
0.0
 10
9.506233481
 20
19.3419414843
 30
0.0
 10
9.6099464329
 20
19.1184780472
 30
0.0
  0
SPLINE
  5
2B6
100
AcDbEntity
  8
0
100
AcDbSpline
 62
7
  6
BYLAYER
 70
0
 71
3
 72
11
 73
7
 74
0
 42
0.0000001
 43
0.0000001
 44
0.0000000001
 40
0.0
 40
0.0
 40
0.0
 40
0.0
 40
0.2569455556
 40
0.5089662704
 40
0.756455769
 40
1.0
 40
1.0
 40
1.0
 40
1.0
 10
23.8307394607
 20
16.9185817957
 30
0.0
 10
24.1180508855
 20
17.0844601339
 30
0.0
 10
24.692715704
 20
17.4035430998
 30
0.0
 10
25.5623944814
 20
17.8484622728
 30
0.0
 10
26.4302119042
 20
18.2578856969
 30
0.0
 10
27.0111879046
 20
18.5119254513
 30
0.0
 10
27.3008354826
 20
18.6343434172
 30
0.0
  0
SPLINE
  5
2B7
100
AcDbEntity
  8
0
100
AcDbSpline
 62
7
  6
BYLAYER
 70
0
 71
3
 72
11
 73
7
 74
0
 42
0.0000001
 43
0.0000001
 44
0.0000000001
 40
0.0
 40
0.0
 40
0.0
 40
0.0
 40
0.2333903495
 40
0.4769721225
 40
0.7321930905
 40
1.0
 40
1.0
 40
1.0
 40
1.0
 10
10.8801147544
 20
17.0776688835
 30
0.0
 10
10.7727628542
 20
17.2636010507
 30
0.0
 10
10.5571948831
 20
17.6458090577
 30
0.0
 10
10.2392351295
 20
18.2396517062
 30
0.0
 10
9.9208590597
 20
18.8689750719
 30
0.0
 10
9.7136593848
 20
19.3032658185
 30
0.0
 10
9.6099464329
 20
19.5267292558
 30
0.0
  0
SPLINE
  5
2B8
100
AcDbEntity
  8
0
100
AcDbSpline
 62
7
  6
BYLAYER
 70
0
 71
3
 72
11
 73
7
 74
0
 42
0.0000001
 43
0.0000001
 44
0.0000000001
 40
0.0
 40
0.0
 40
0.0
 40
0.0
 40
0.2485938726
 40
0.4982560849
 40
0.7487906236
 40
1.0
 40
1.0
 40
1.0
 40
1.0
 10
15.6203790979
 20
16.0566828413
 30
0.0
 10
15.2231082072
 20
16.1181389599
 30
0.0
 10
14.4287932736
 20
16.2541799649
 30
0.0
 10
13.2420218277
 20
16.4953157135
 30
0.0
 10
12.0583093042
 20
16.7702308567
 30
0.0
 10
11.2724991171
 20
16.972531421
 30
0.0
 10
10.8801147544
 20
17.0776688835
 30
0.0
  0
SPLINE
  5
2B9
100
AcDbEntity
  8
0
100
AcDbSpline
 62
7
  6
BYLAYER
 70
0
 71
3
 72
10
 73
6
 74
0
 42
0.0000001
 43
0.0000001
 44
0.0000000001
 40
0.0
 40
0.0
 40
0.0
 40
0.0
 40
0.4821075936
 40
0.7372484867
 40
1.0
 40
1.0
 40
1.0
 40
1.0
 10
9.6099464329
 20
19.5267292558
 30
0.0
 10
9.3879906109
 20
20.0049627835
 30
0.0
 10
9.0651779751
 20
20.7440481404
 30
0.0
 10
8.6512676908
 20
21.7562922431
 30
0.0
 10
8.4437192443
 20
22.2832788051
 30
0.0
 10
8.3397781121
 20
22.55116421
 30
0.0
  0
SPLINE
  5
2BA
100
AcDbEntity
  8
0
100
AcDbSpline
 62
7
  6
BYLAYER
 70
0
 71
3
 72
11
 73
7
 74
0
 42
0.0000001
 43
0.0000001
 44
0.0000000001
 40
0.0
 40
0.0
 40
0.0
 40
0.0
 40
0.25554799
 40
0.5077855537
 40
0.7561002628
 40
1.0
 40
1.0
 40
1.0
 40
1.0
 10
27.3008354826
 20
19.6179692094
 30
0.0
 10
27.0148916987
 20
19.4086443166
 30
0.0
 10
26.4428146291
 20
18.9979788532
 30
0.0
 10
25.5770997773
 20
18.4062671603
 30
0.0
 10
24.7089884575
 20
17.8473239905
 30
0.0
 10
24.1236477717
 20
17.495942687
 30
0.0
 10
23.8307394616
 20
17.3268330048
 30
0.0
  0
SPLINE
  5
2BB
100
AcDbEntity
  8
0
100
AcDbSpline
 62
7
  6
BYLAYER
 70
0
 71
3
 72
11
 73
7
 74
0
 42
0.0000001
 43
0.0000001
 44
0.0000000001
 40
0.0
 40
0.0
 40
0.0
 40
0.0
 40
0.2569455556
 40
0.5089662712
 40
0.7564557643
 40
1.0
 40
1.0
 40
1.0
 40
1.0
 10
23.8307394616
 20
17.3268330048
 30
0.0
 10
23.543428037
 20
17.1609546665
 30
0.0
 10
22.9687632144
 20
16.8418717071
 30
0.0
 10
22.0990844585
 20
16.3969525035
 30
0.0
 10
21.231266994
 20
15.9875291692
 30
0.0
 10
20.6502910231
 20
15.7334893513
 30
0.0
 10
20.3606434396
 20
15.6110713832
 30
0.0
  0
SPLINE
  5
2BC
100
AcDbEntity
  8
0
100
AcDbSpline
 62
7
  6
BYLAYER
 70
0
 71
3
 72
11
 73
7
 74
0
 42
0.0000001
 43
0.0000001
 44
0.0000000001
 40
0.0
 40
0.0
 40
0.0
 40
0.0
 40
0.2481426854
 40
0.4974652347
 40
0.7480747499
 40
1.0
 40
1.0
 40
1.0
 40
1.0
 10
20.3606434396
 20
15.6110713832
 30
0.0
 10
19.9669673357
 20
15.6273878457
 30
0.0
 10
19.1780525732
 20
15.668433423
 30
0.0
 10
17.993605919
 20
15.7599354667
 30
0.0
 10
16.8062869024
 20
15.8862030679
 30
0.0
 10
16.0156971738
 20
15.9955288149
 30
0.0
 10
15.6203790979
 20
16.0566828413
 30
0.0
  0
SPLINE
  5
2BD
100
AcDbEntity
  8
0
100
AcDbSpline
 62
7
  6
BYLAYER
 70
0
 71
3
 72
11
 73
7
 74
0
 42
0.0000001
 43
0.0000001
 44
0.0000000001
 40
0.0
 40
0.0
 40
0.0
 40
0.0
 40
0.2438997387
 40
0.4922144482
 40
0.7444520112
 40
1.0
 40
1.0
 40
1.0
 40
1.0
 10
11.809874134
 20
27.1246842915
 30
0.0
 10
11.516965822
 20
26.9555746081
 30
0.0
 10
10.9316251335
 20
26.6041933034
 30
0.0
 10
10.0635138136
 20
26.0452501301
 30
0.0
 10
9.1977989623
 20
25.45353844
 30
0.0
 10
8.6257218947
 20
25.0428729781
 30
0.0
 10
8.3397781121
 20
24.8335480863
 30
0.0
  0
SPLINE
  5
2BE
100
AcDbEntity
  8
0
100
AcDbSpline
 62
7
  6
BYLAYER
 70
0
 71
3
 72
10
 73
6
 74
0
 42
0.0000001
 43
0.0000001
 44
0.0000000001
 40
0.0
 40
0.0
 40
0.0
 40
0.0
 40
0.2627515146
 40
0.5178924086
 40
1.0
 40
1.0
 40
1.0
 40
1.0
 10
27.3008354826
 20
21.9003530857
 30
0.0
 10
27.1968943499
 20
22.1682384919
 30
0.0
 10
26.9893459025
 20
22.6952250563
 30
0.0
 10
26.5754356191
 20
23.7074691593
 30
0.0
 10
26.2526229827
 20
24.4465545144
 30
0.0
 10
26.0306671618
 20
24.9247880399
 30
0.0
  0
SPLINE
  5
2BF
100
AcDbEntity
  8
0
100
AcDbSpline
 62
7
  6
BYLAYER
 70
0
 71
3
 72
11
 73
7
 74
0
 42
0.0000001
 43
0.0000001
 44
0.0000000001
 40
0.0
 40
0.0
 40
0.0
 40
0.0
 40
0.2678069111
 40
0.5230278787
 40
0.7666096514
 40
1.0
 40
1.0
 40
1.0
 40
1.0
 10
26.0306671618
 20
24.9247880399
 30
0.0
 10
25.9269542092
 20
25.1482514785
 30
0.0
 10
25.7197545342
 20
25.5825422261
 30
0.0
 10
25.4013784625
 20
26.2118655918
 30
0.0
 10
25.0834187105
 20
26.8057082395
 30
0.0
 10
24.8678507401
 20
27.1879162457
 30
0.0
 10
24.7604988403
 20
27.3738484122
 30
0.0
  0
SPLINE
  5
2C0
100
AcDbEntity
  8
0
100
AcDbSpline
 62
7
  6
BYLAYER
 70
0
 71
3
 72
11
 73
7
 74
0
 42
0.0000001
 43
0.0000001
 44
0.0000000001
 40
0.0
 40
0.0
 40
0.0
 40
0.0
 40
0.2485938728
 40
0.4982560852
 40
0.7487906222
 40
1.0
 40
1.0
 40
1.0
 40
1.0
 10
15.6203790979
 20
18.9144413013
 30
0.0
 10
16.0176499887
 20
18.8529851827
 30
0.0
 10
16.8119649245
 20
18.7169441849
 30
0.0
 10
17.9987363593
 20
18.4758083991
 30
0.0
 10
19.1824489066
 20
18.200893359
 30
0.0
 10
19.9682590748
 20
17.9985927225
 30
0.0
 10
20.3606434396
 20
17.8934552594
 30
0.0
  0
SPLINE
  5
2C1
100
AcDbEntity
  8
0
100
AcDbSpline
 62
7
  6
BYLAYER
 70
0
 71
3
 72
11
 73
7
 74
0
 42
0.0000001
 43
0.0000001
 44
0.0000000001
 40
0.0
 40
0.0
 40
0.0
 40
0.0
 40
0.2555479851
 40
0.5077855548
 40
0.7561002631
 40
1.0
 40
1.0
 40
1.0
 40
1.0
 10
20.3606434396
 20
17.8934552594
 30
0.0
 10
20.6465872179
 20
18.1027801482
 30
0.0
 10
21.218664325
 20
18.5134455611
 30
0.0
 10
22.0843791264
 20
19.1051573277
 30
0.0
 10
22.95249047
 20
19.6641004743
 30
0.0
 10
23.537831151
 20
20.0154817822
 30
0.0
 10
23.8307394607
 20
20.1845914642
 30
0.0
  0
SPLINE
  5
2C2
100
AcDbEntity
  8
0
100
AcDbSpline
 62
7
  6
BYLAYER
 70
0
 71
3
 72
15
 73
11
 74
0
 42
0.0000001
 43
0.0000001
 44
0.0000000001
 40
0.0
 40
0.0
 40
0.0
 40
0.0
 40
0.1098769269
 40
0.2234850586
 40
0.3412120343
 40
0.4633917702
 40
0.5902725915
 40
0.722002149
 40
0.8586235557
 40
1.0
 40
1.0
 40
1.0
 40
1.0
 10
26.030667162
 20
24.9247880396
 30
0.0
 10
25.9819642709
 20
25.0297249375
 30
0.0
 10
25.8719806453
 20
25.2382412608
 30
0.0
 10
25.6750800589
 20
25.5392896174
 30
0.0
 10
25.4445391307
 20
25.8320839826
 30
0.0
 10
25.1814953317
 20
26.1153701977
 30
0.0
 10
24.8870393652
 20
26.3879919386
 30
0.0
 10
24.5624260197
 20
26.6488730145
 30
0.0
 10
24.2090764373
 20
26.8968274152
 30
0.0
 10
23.9596010516
 20
27.0502877006
 30
0.0
 10
23.8306894137
 20
27.1247131857
 30
0.0
  0
SPLINE
  5
2C3
100
AcDbEntity
  8
0
100
AcDbSpline
 62
7
  6
BYLAYER
 70
0
 71
3
 72
23
 73
19
 74
0
 42
0.0000001
 43
0.0000001
 44
0.0000000001
 40
0.0
 40
0.0
 40
0.0
 40
0.0
 40
0.0772106104
 40
0.1518240126
 40
0.2237651063
 40
0.2930598015
 40
0.359789549
 40
0.4240806721
 40
0.4861127325
 40
0.5461334311
 40
0.6044496895
 40
0.6614284059
 40
0.7174839465
 40
0.7730665051
 40
0.8286466178
 40
0.8847048775
 40
0.9416966446
 40
1.0
 40
1.0
 40
1.0
 40
1.0
 10
23.8307394611
 20
20.1845914644
 30
0.0
 10
23.9596502972
 20
20.2590177261
 30
0.0
 10
24.2091231916
 20
20.4124797949
 30
0.0
 10
24.5624681904
 20
20.6604344971
 30
0.0
 10
24.8870802241
 20
20.9213139891
 30
0.0
 10
25.1815358217
 20
21.1939423018
 30
0.0
 10
25.4445692202
 20
21.4772403561
 30
0.0
 10
25.6750900381
 20
21.7700044214
 30
0.0
 10
25.8720086673
 20
22.071066233
 30
0.0
 10
26.034481733
 20
22.3791236843
 30
0.0
 10
26.1616828794
 20
22.6929065352
 30
0.0
 10
26.2530474448
 20
23.011032427
 30
0.0
 10
26.3080274643
 20
23.3321074728
 30
0.0
 10
26.3264150787
 20
23.6546538833
 30
0.0
 10
26.3080387696
 20
23.9772047098
 30
0.0
 10
26.2530350067
 20
24.2983096933
 30
0.0
 10
26.1616577397
 20
24.6164095107
 30
0.0
 10
26.0779867509
 20
24.8228316513
 30
0.0
 10
26.030667162
 20
24.9247880396
 30
0.0
  0
SPLINE
  5
2C4
100
AcDbEntity
  8
0
100
AcDbSpline
 62
7
  6
BYLAYER
 70
0
 71
3
 72
18
 73
14
 74
0
 42
0.0000001
 43
0.0000001
 44
0.0000000001
 40
0.0
 40
0.0
 40
0.0
 40
0.0
 40
0.1298349961
 40
0.261161519
 40
0.392487988
 40
0.5223228364
 40
0.6492265159
 40
0.7111714016
 40
0.7718943228
 40
0.8312532805
 40
0.8891318465
 40
0.9454216421
 40
1.0
 40
1.0
 40
1.0
 40
1.0
 10
15.6203790991
 20
18.9144413011
 30
0.0
 10
15.9819638431
 20
18.8585056778
 30
0.0
 10
16.7140567175
 20
18.7749198912
 30
0.0
 10
17.8203274789
 20
18.7333052648
 30
0.0
 10
18.9266832278
 20
18.7749327711
 30
0.0
 10
20.0142614754
 20
18.8991090533
 30
0.0
 10
20.8968406156
 20
19.0710079853
 30
0.0
 10
21.5775017852
 20
19.2487862322
 30
0.0
 10
22.0679001112
 20
19.3998569924
 30
0.0
 10
22.5401690733
 20
19.5691167425
 30
0.0
 10
22.9923455972
 20
19.7558382209
 30
0.0
 10
23.422410247
 20
19.9592407806
 30
0.0
 10
23.6975391094
 20
20.1076886646
 30
0.0
 10
23.8307394611
 20
20.1845914644
 30
0.0
  0
SPLINE
  5
2C5
100
AcDbEntity
  8
0
100
AcDbSpline
 62
7
  6
BYLAYER
 70
0
 71
3
 72
15
 73
11
 74
0
 42
0.0000001
 43
0.0000001
 44
0.0000000001
 40
0.0
 40
0.0
 40
0.0
 40
0.0
 40
0.1142513674
 40
0.2320861695
 40
0.3532484163
 40
0.4775054186
 40
0.6046117
 40
0.7342919087
 40
0.8662295397
 40
1.0
 40
1.0
 40
1.0
 40
1.0
 10
11.809924181
 20
20.1845625699
 30
0.0
 10
11.9431251923
 20
20.10766067
 30
0.0
 10
12.2182559218
 20
19.9592135189
 30
0.0
 10
12.6483265929
 20
19.7558123075
 30
0.0
 10
13.1005072996
 20
19.5690962124
 30
0.0
 10
13.5727692108
 20
19.3998397168
 30
0.0
 10
14.0631589598
 20
19.2487681475
 30
0.0
 10
14.5696328204
 20
19.1164833285
 30
0.0
 10
15.0899521239
 20
19.0036200411
 30
0.0
 10
15.4424127255
 20
18.9419719428
 30
0.0
 10
15.6203790991
 20
18.9144413011
 30
0.0
  0
SPLINE
  5
2C6
100
AcDbEntity
  8
0
100
AcDbSpline
 62
7
  6
BYLAYER
 70
0
 71
3
 72
15
 73
11
 74
0
 42
0.0000001
 43
0.0000001
 44
0.0000000001
 40
0.0
 40
0.0
 40
0.0
 40
0.0
 40
0.1098769269
 40
0.2234850586
 40
0.3412120343
 40
0.4633917702
 40
0.5902725915
 40
0.722002149
 40
0.8586235557
 40
1.0
 40
1.0
 40
1.0
 40
1.0
 10
9.6099464327
 20
22.3844877161
 30
0.0
 10
9.6586493238
 20
22.2795508182
 30
0.0
 10
9.7686329494
 20
22.0710344949
 30
0.0
 10
9.9655335358
 20
21.7699861383
 30
0.0
 10
10.196074464
 20
21.4771917731
 30
0.0
 10
10.459118263
 20
21.1939055579
 30
0.0
 10
10.7535742295
 20
20.921283817
 30
0.0
 10
11.078187575
 20
20.6604027412
 30
0.0
 10
11.4315371574
 20
20.4124483404
 30
0.0
 10
11.681012543
 20
20.2589880551
 30
0.0
 10
11.809924181
 20
20.1845625699
 30
0.0
  0
SPLINE
  5
2C7
100
AcDbEntity
  8
0
100
AcDbSpline
 62
7
  6
BYLAYER
 70
0
 71
3
 72
23
 73
19
 74
0
 42
0.0000001
 43
0.0000001
 44
0.0000000001
 40
0.0
 40
0.0
 40
0.0
 40
0.0
 40
0.0772106104
 40
0.1518240126
 40
0.2237651063
 40
0.2930598015
 40
0.359789549
 40
0.4240806721
 40
0.4861127325
 40
0.5461334311
 40
0.6044496895
 40
0.6614284059
 40
0.7174839465
 40
0.7730665051
 40
0.8286466178
 40
0.8847048775
 40
0.9416966446
 40
1.0
 40
1.0
 40
1.0
 40
1.0
 10
11.8098741336
 20
27.1246842912
 30
0.0
 10
11.6809632974
 20
27.0502580296
 30
0.0
 10
11.4314904031
 20
26.8967959608
 30
0.0
 10
11.0781454043
 20
26.6488412585
 30
0.0
 10
10.7535333706
 20
26.3879617665
 30
0.0
 10
10.459077773
 20
26.1153334539
 30
0.0
 10
10.1960443745
 20
25.8320353996
 30
0.0
 10
9.9655235566
 20
25.5392713343
 30
0.0
 10
9.7686049274
 20
25.2382095226
 30
0.0
 10
9.6061318617
 20
24.9301520713
 30
0.0
 10
9.4789307153
 20
24.6163692204
 30
0.0
 10
9.3875661499
 20
24.2982433286
 30
0.0
 10
9.3325861304
 20
23.9771682829
 30
0.0
 10
9.314198516
 20
23.6546218723
 30
0.0
 10
9.3325748251
 20
23.3320710458
 30
0.0
 10
9.387578588
 20
23.0109660624
 30
0.0
 10
9.478955855
 20
22.6928662449
 30
0.0
 10
9.5626268438
 20
22.4864441043
 30
0.0
 10
9.6099464327
 20
22.3844877161
 30
0.0
  0
SPLINE
  5
2C8
100
AcDbEntity
  8
0
100
AcDbSpline
 62
7
  6
BYLAYER
 70
0
 71
3
 72
10
 73
6
 74
0
 42
0.0000001
 43
0.0000001
 44
0.0000000001
 40
0.0
 40
0.0
 40
0.0
 40
0.0
 40
0.4821075958
 40
0.7372484761
 40
1.0
 40
1.0
 40
1.0
 40
1.0
 10
9.6099464329
 20
22.3844877157
 30
0.0
 10
9.8319022559
 20
21.9062541856
 30
0.0
 10
10.1547148683
 20
21.167168831
 30
0.0
 10
10.5686251981
 20
20.1549247461
 30
0.0
 10
10.776173618
 20
19.6279381756
 30
0.0
 10
10.8801147544
 20
19.3600527597
 30
0.0
  0
SPLINE
  5
2C9
100
AcDbEntity
  8
0
100
AcDbSpline
 62
7
  6
BYLAYER
 70
0
 71
3
 72
11
 73
7
 74
0
 42
0.0000001
 43
0.0000001
 44
0.0000000001
 40
0.0
 40
0.0
 40
0.0
 40
0.0
 40
0.2481426864
 40
0.4974652346
 40
0.7480747501
 40
1.0
 40
1.0
 40
1.0
 40
1.0
 10
10.8801147544
 20
19.3600527597
 30
0.0
 10
11.27379086
 20
19.3437362971
 30
0.0
 10
12.0627056181
 20
19.3026906432
 30
0.0
 10
13.2471522807
 20
19.2111887078
 30
0.0
 10
14.4344712926
 20
19.0849210668
 30
0.0
 10
15.2250610221
 20
18.9755953277
 30
0.0
 10
15.6203790979
 20
18.9144413013
 30
0.0
  0
SPLINE
  5
2CA
100
AcDbEntity
  8
0
100
AcDbSpline
 62
7
  6
BYLAYER
 70
0
 71
3
 72
11
 73
7
 74
0
 42
0.0000001
 43
0.0000001
 44
0.0000000001
 40
0.0
 40
0.0
 40
0.0
 40
0.0
 40
0.2333903625
 40
0.4769721203
 40
0.7321930904
 40
1.0
 40
1.0
 40
1.0
 40
1.0
 10
8.3397781121
 20
24.8335480863
 30
0.0
 10
8.4471300182
 20
24.6476159088
 30
0.0
 10
8.6626979557
 20
24.2654078858
 30
0.0
 10
8.9806577551
 20
23.6715652627
 30
0.0
 10
9.2990338016
 20
23.0422418988
 30
0.0
 10
9.506233481
 20
22.6079511528
 30
0.0
 10
9.6099464329
 20
22.3844877157
 30
0.0
  0
SPLINE
  5
2CB
100
AcDbEntity
  8
0
100
AcDbSpline
 62
7
  6
BYLAYER
 70
0
 71
3
 72
11
 73
7
 74
0
 42
0.0000001
 43
0.0000001
 44
0.0000000001
 40
0.0
 40
0.0
 40
0.0
 40
0.0
 40
0.2569455556
 40
0.5089662704
 40
0.756455769
 40
1.0
 40
1.0
 40
1.0
 40
1.0
 10
23.8307394607
 20
20.1845914642
 30
0.0
 10
24.1180508855
 20
20.3504698025
 30
0.0
 10
24.692715704
 20
20.6695527683
 30
0.0
 10
25.5623944814
 20
21.1144719413
 30
0.0
 10
26.4302119042
 20
21.5238953654
 30
0.0
 10
27.0111879046
 20
21.7779351199
 30
0.0
 10
27.3008354826
 20
21.9003530857
 30
0.0
  0
SPLINE
  5
2CC
100
AcDbEntity
  8
0
100
AcDbSpline
 62
7
  6
BYLAYER
 70
0
 71
3
 72
11
 73
7
 74
0
 42
0.0000001
 43
0.0000001
 44
0.0000000001
 40
0.0
 40
0.0
 40
0.0
 40
0.0
 40
0.2292228194
 40
0.4677088051
 40
0.7229857368
 40
1.0
 40
1.0
 40
1.0
 40
1.0
 10
15.1372121678
 20
40.6066526974
 30
0.0
 10
15.1680384998
 20
40.6244431859
 30
0.0
 10
15.2358837071
 20
40.6527840243
 30
0.0
 10
15.3478468458
 20
40.6696490461
 30
0.0
 10
15.4680476619
 20
40.6615680373
 30
0.0
 10
15.5485131847
 20
40.6407714249
 30
0.0
 10
15.5892436849
 20
40.6269482516
 30
0.0
  0
SPLINE
  5
2CD
100
AcDbEntity
  8
0
100
AcDbSpline
 62
7
  6
BYLAYER
 70
0
 71
3
 72
9
 73
5
 74
0
 42
0.0000001
 43
0.0000001
 44
0.0000000001
 40
0.0
 40
0.0
 40
0.0
 40
0.0
 40
0.2472193497
 40
1.0
 40
1.0
 40
1.0
 40
1.0
 10
16.6712656773
 20
38.7863472229
 30
0.0
 10
16.671262202
 20
38.8034582152
 30
0.0
 10
16.6700152141
 20
38.8726678131
 30
0.0
 10
16.6638923136
 20
38.9417771504
 30
0.0
 10
16.6567453635
 20
38.9933874641
 30
0.0
  0
SPLINE
  5
2CE
100
AcDbEntity
  8
0
100
AcDbSpline
 62
7
  6
BYLAYER
 70
0
 71
3
 72
17
 73
13
 74
0
 42
0.0000001
 43
0.0000001
 44
0.0000000001
 40
0.0
 40
0.0
 40
0.0
 40
0.0
 40
0.1152464301
 40
0.2354019893
 40
0.3604766648
 40
0.4899770393
 40
0.6224934181
 40
0.7551435705
 40
0.8201479974
 40
0.8832274766
 40
0.9435146433
 40
1.0
 40
1.0
 40
1.0
 40
1.0
 10
16.6486278267
 20
39.045634776
 30
0.0
 10
16.6340112389
 20
39.1305111236
 30
0.0
 10
16.5903401758
 20
39.3016978415
 30
0.0
 10
16.4887025835
 20
39.551901795
 30
0.0
 10
16.3530858196
 20
39.797583393
 30
0.0
 10
16.1876466589
 20
40.0354351588
 30
0.0
 10
15.9975972746
 20
40.2614597463
 30
0.0
 10
15.8229241732
 20
40.436228049
 30
0.0
 10
15.6760524788
 20
40.5643635112
 30
0.0
 10
15.5656405233
 20
40.6517911909
 30
0.0
 10
15.4560151196
 20
40.7296604407
 30
0.0
 10
15.3820006853
 20
40.7760249169
 30
0.0
 10
15.3454433671
 20
40.7971308169
 30
0.0
  0
SPLINE
  5
2CF
100
AcDbEntity
  8
0
100
AcDbSpline
 62
7
  6
BYLAYER
 70
0
 71
3
 72
9
 73
5
 74
0
 42
0.0000001
 43
0.0000001
 44
0.0000000001
 40
0.0
 40
0.0
 40
0.0
 40
0.0
 40
0.4842125805
 40
1.0
 40
1.0
 40
1.0
 40
1.0
 10
21.1995743169
 20
43.2624575147
 30
0.0
 10
21.162855165
 20
43.3410637899
 30
0.0
 10
21.0718813004
 20
43.4965875375
 30
0.0
 10
20.9575183596
 20
43.6354502598
 30
0.0
 10
20.8941061255
 20
43.702679871
 30
0.0
  0
SPLINE
  5
2D0
100
AcDbEntity
  8
0
100
AcDbSpline
 62
7
  6
BYLAYER
 70
0
 71
3
 72
9
 73
5
 74
0
 42
0.0000001
 43
0.0000001
 44
0.0000000001
 40
0.0
 40
0.0
 40
0.0
 40
0.0
 40
0.2595253243
 40
1.0
 40
1.0
 40
1.0
 40
1.0
 10
16.6635744114
 20
38.9566039713
 30
0.0
 10
16.6630605739
 20
38.9410757761
 30
0.0
 10
16.6598394825
 20
38.8812981617
 30
0.0
 10
16.6515188883
 20
38.8217342511
 30
0.0
 10
16.6419103063
 20
38.7784590171
 30
0.0
  0
SPLINE
  5
2D1
100
AcDbEntity
  8
0
100
AcDbSpline
 62
7
  6
BYLAYER
 70
0
 71
3
 72
11
 73
7
 74
0
 42
0.0000001
 43
0.0000001
 44
0.0000000001
 40
0.0
 40
0.0
 40
0.0
 40
0.0
 40
0.2756941841
 40
0.5305679811
 40
0.7696233366
 40
1.0
 40
1.0
 40
1.0
 40
1.0
 10
16.6419103063
 20
38.7784590171
 30
0.0
 10
16.6330061515
 20
38.7383563893
 30
0.0
 10
16.6100665277
 20
38.6622547964
 30
0.0
 10
16.5573263886
 20
38.559605727
 30
0.0
 10
16.4883710515
 20
38.475451539
 30
0.0
 10
16.4319300217
 20
38.4327761212
 30
0.0
 10
16.402199171
 20
38.4156178567
 30
0.0
  0
SPLINE
  5
2D2
100
AcDbEntity
  8
0
100
AcDbSpline
 62
7
  6
BYLAYER
 70
0
 71
3
 72
21
 73
17
 74
0
 42
0.0000001
 43
0.0000001
 44
0.0000000001
 40
0.0
 40
0.0
 40
0.0
 40
0.0
 40
0.0659139375
 40
0.1293608964
 40
0.1908852594
 40
0.2512493515
 40
0.3111071882
 40
0.3709211691
 40
0.4309841687
 40
0.491498215
 40
0.6139840526
 40
0.7391176901
 40
0.8029038111
 40
0.8675563155
 40
0.9332094837
 40
1.0
 40
1.0
 40
1.0
 40
1.0
 10
15.3454433671
 20
37.7352467527
 30
0.0
 10
15.3843475968
 20
37.7127858933
 30
0.0
 10
15.4644255683
 20
37.6747553183
 30
0.0
 10
15.5903954714
 20
37.6397328408
 30
0.0
 10
15.7168397918
 20
37.6280577449
 30
0.0
 10
15.8408861876
 20
37.6381410034
 30
0.0
 10
15.9604003744
 20
37.6680983554
 30
0.0
 10
16.0737854204
 20
37.7155670124
 30
0.0
 10
16.1798087772
 20
37.7785483205
 30
0.0
 10
16.310506494
 20
37.8809405647
 30
0.0
 10
16.4512186959
 20
38.0394870224
 30
0.0
 10
16.5551363201
 20
38.2264501793
 30
0.0
 10
16.6147361695
 20
38.3889379574
 30
0.0
 10
16.6472787552
 20
38.5174047611
 30
0.0
 10
16.6669913261
 20
38.650492839
 30
0.0
 10
16.6712749225
 20
38.7408273261
 30
0.0
 10
16.6712656773
 20
38.7863472229
 30
0.0
  0
SPLINE
  5
2D3
100
AcDbEntity
  8
0
100
AcDbSpline
 62
7
  6
BYLAYER
 70
0
 71
3
 72
33
 73
29
 74
0
 42
0.0000001
 43
0.0000001
 44
0.0000000001
 40
0.0
 40
0.0
 40
0.0
 40
0.0
 40
0.0320719203
 40
0.0606879237
 40
0.0857116713
 40
0.1074724188
 40
0.126602892
 40
0.1440092344
 40
0.1607271302
 40
0.1777690456
 40
0.1959320883
 40
0.2157730182
 40
0.2376270322
 40
0.2616684348
 40
0.2879714518
 40
0.3165261989
 40
0.3472453054
 40
0.3800092719
 40
0.4509199732
 40
0.5275434485
 40
0.6079394974
 40
0.6902352996
 40
0.7725929843
 40
0.8132321537
 40
0.8531095693
 40
0.8919771332
 40
0.9295659257
 40
1.0
 40
1.0
 40
1.0
 40
1.0
 10
15.3454433671
 20
40.7971308169
 30
0.0
 10
15.3076057904
 20
40.8189758578
 30
0.0
 10
15.2344261418
 20
40.8576855235
 30
0.0
 10
15.1263967732
 20
40.9025349973
 30
0.0
 10
15.0272528983
 20
40.9305141953
 30
0.0
 10
14.937736539
 20
40.941770095
 30
0.0
 10
14.857908107
 20
40.9365226951
 30
0.0
 10
14.787794997
 20
40.9152905813
 30
0.0
 10
14.7275401627
 20
40.8788587055
 30
0.0
 10
14.6768817982
 20
40.8286886359
 30
0.0
 10
14.6348354194
 20
40.7661301101
 30
0.0
 10
14.6003625834
 20
40.6919560714
 30
0.0
 10
14.5724624864
 20
40.6066962305
 30
0.0
 10
14.550504748
 20
40.5107173643
 30
0.0
 10
14.5339746715
 20
40.4044446307
 30
0.0
 10
14.5224393708
 20
40.2883896178
 30
0.0
 10
14.5157039501
 20
40.1631539186
 30
0.0
 10
14.5127407786
 20
39.9800629018
 30
0.0
 10
14.5211518026
 20
39.7344201869
 30
0.0
 10
14.5495526514
 20
39.4250558325
 30
0.0
 10
14.5992292576
 20
39.1025957566
 30
0.0
 10
14.6743885376
 20
38.7769851229
 30
0.0
 10
14.7631729109
 20
38.511088685
 30
0.0
 10
14.8535788733
 20
38.3082712615
 30
0.0
 10
14.9310357022
 20
38.1650675148
 30
0.0
 10
15.019044772
 20
38.0328873616
 30
0.0
 10
15.1470259116
 20
37.8788851046
 30
0.0
 10
15.2623471676
 20
37.7832212805
 30
0.0
 10
15.3454433671
 20
37.7352467527
 30
0.0
  0
SPLINE
  5
2D4
100
AcDbEntity
  8
0
100
AcDbSpline
 62
7
  6
BYLAYER
 70
0
 71
3
 72
22
 73
18
 74
0
 42
0.0000001
 43
0.0000001
 44
0.0000000001
 40
0.0
 40
0.0
 40
0.0
 40
0.0
 40
0.0647358702
 40
0.125699984
 40
0.1833347881
 40
0.2382895606
 40
0.2914131567
 40
0.3437140161
 40
0.3962986562
 40
0.4502419119
 40
0.5064880029
 40
0.5657714366
 40
0.6286163717
 40
0.6953053426
 40
0.7659453922
 40
0.8404552729
 40
1.0
 40
1.0
 40
1.0
 40
1.0
 10
15.5977850408
 20
40.632316334
 30
0.0
 10
15.5681886861
 20
40.6427732291
 30
0.0
 10
15.5095644466
 20
40.6600318413
 30
0.0
 10
15.4215936304
 20
40.6744318236
 30
0.0
 10
15.337155863
 20
40.6763918113
 30
0.0
 10
15.257159234
 20
40.6657365981
 30
0.0
 10
15.1825078311
 20
40.6425812727
 30
0.0
 10
15.1141745239
 20
40.6070195964
 30
0.0
 10
15.0530027076
 20
40.5595653878
 30
0.0
 10
14.9997411052
 20
40.5008095612
 30
0.0
 10
14.9549468053
 20
40.4315276235
 30
0.0
 10
14.918995714
 20
40.3525563745
 30
0.0
 10
14.8922583726
 20
40.2647499276
 30
0.0
 10
14.8748654119
 20
40.1690655451
 30
0.0
 10
14.8670414187
 20
40.0664762808
 30
0.0
 10
14.8694100094
 20
39.91860222
 30
0.0
 10
14.8857247956
 20
39.8056815167
 30
0.0
 10
14.9018901133
 20
39.7300287496
 30
0.0
  0
SPLINE
  5
2D5
100
AcDbEntity
  8
0
100
AcDbSpline
 62
7
  6
BYLAYER
 70
0
 71
3
 72
15
 73
11
 74
0
 42
0.0000001
 43
0.0000001
 44
0.0000000001
 40
0.0
 40
0.0
 40
0.0
 40
0.0
 40
0.1217689159
 40
0.2479216604
 40
0.3767923876
 40
0.5066087187
 40
0.6355537694
 40
0.7618187405
 40
0.8837692908
 40
1.0
 40
1.0
 40
1.0
 40
1.0
 10
14.9018901133
 20
39.7300287496
 30
0.0
 10
14.9139817521
 20
39.6734405678
 30
0.0
 10
14.9444771343
 20
39.5594211185
 30
0.0
 10
15.0063441626
 20
39.3911621106
 30
0.0
 10
15.0840910785
 20
39.225386479
 30
0.0
 10
15.1760615314
 20
39.0655367474
 30
0.0
 10
15.280391822
 20
38.9149646389
 30
0.0
 10
15.3948686326
 20
38.7767509646
 30
0.0
 10
15.51715711
 20
38.6537757764
 30
0.0
 10
15.6047035788
 20
38.581645537
 30
0.0
 10
15.6492517985
 20
38.548992348
 30
0.0
  0
SPLINE
  5
2D6
100
AcDbEntity
  8
0
100
AcDbSpline
 62
7
  6
BYLAYER
 70
0
 71
3
 72
9
 73
5
 74
0
 42
0.0000001
 43
0.0000001
 44
0.0000000001
 40
0.0
 40
0.0
 40
0.0
 40
0.0
 40
0.2560838233
 40
1.0
 40
1.0
 40
1.0
 40
1.0
 10
15.6492517985
 20
38.548992348
 30
0.0
 10
15.6591680097
 20
38.5417239113
 30
0.0
 10
15.6982476517
 20
38.5138337645
 30
0.0
 10
15.7387745654
 20
38.4879523725
 30
0.0
 10
15.7697056694
 20
38.4700946953
 30
0.0
  0
SPLINE
  5
2D7
100
AcDbEntity
  8
0
100
AcDbSpline
 62
7
  6
BYLAYER
 70
0
 71
3
 72
18
 73
14
 74
0
 42
0.0000001
 43
0.0000001
 44
0.0000000001
 40
0.0
 40
0.0
 40
0.0
 40
0.0
 40
0.1492071667
 40
0.2848758019
 40
0.4080561041
 40
0.4660933195
 40
0.5224673434
 40
0.577884926
 40
0.6331319604
 40
0.6890037108
 40
0.7462559275
 40
0.8671925477
 40
1.0
 40
1.0
 40
1.0
 40
1.0
 10
15.7697056694
 20
38.4700946953
 30
0.0
 10
15.8186533317
 20
38.4418353886
 30
0.0
 10
15.916140983
 20
38.3943177717
 30
0.0
 10
16.0655905193
 20
38.3515288551
 30
0.0
 10
16.1866600254
 20
38.3438478316
 30
0.0
 10
16.2760919508
 20
38.3559571326
 30
0.0
 10
16.3382633511
 20
38.373320901
 30
0.0
 10
16.3963005532
 20
38.3990992273
 30
0.0
 10
16.44971426
 20
38.433094115
 30
0.0
 10
16.4981069727
 20
38.4749845792
 30
0.0
 10
16.5564188671
 20
38.542122528
 30
0.0
 10
16.6147426572
 20
38.6459751026
 30
0.0
 10
16.6420935828
 20
38.7388752741
 30
0.0
 10
16.6520931656
 20
38.7881788236
 30
0.0
  0
SPLINE
  5
2D8
100
AcDbEntity
  8
0
100
AcDbSpline
 62
7
  6
BYLAYER
 70
0
 71
3
 72
9
 73
5
 74
0
 42
0.0000001
 43
0.0000001
 44
0.0000000001
 40
0.0
 40
0.0
 40
0.0
 40
0.0
 40
0.2456409745
 40
1.0
 40
1.0
 40
1.0
 40
1.0
 10
16.6520931656
 20
38.7881788236
 30
0.0
 10
16.6533810185
 20
38.7945286604
 30
0.0
 10
16.6583317243
 20
38.8204374231
 30
0.0
 10
16.662131513
 20
38.8465636458
 30
0.0
 10
16.6643976078
 20
38.8663314427
 30
0.0
  0
SPLINE
  5
2D9
100
AcDbEntity
  8
0
100
AcDbSpline
 62
7
  6
BYLAYER
 70
0
 71
3
 72
9
 73
5
 74
0
 42
0.0000001
 43
0.0000001
 44
0.0000000001
 40
0.0
 40
0.0
 40
0.0
 40
0.0
 40
0.2439103829
 40
1.0
 40
1.0
 40
1.0
 40
1.0
 10
16.6643976078
 20
38.8663314427
 30
0.0
 10
16.6655508041
 20
38.8763911058
 30
0.0
 10
16.6696416925
 20
38.9177061637
 30
0.0
 10
16.6712587743
 20
38.9592559681
 30
0.0
 10
16.6712587476
 20
38.9906438088
 30
0.0
  0
SPLINE
  5
2DA
100
AcDbEntity
  8
0
100
AcDbSpline
 62
7
  6
BYLAYER
 70
0
 71
3
 72
19
 73
15
 74
0
 42
0.0000001
 43
0.0000001
 44
0.0000000001
 40
0.0
 40
0.0
 40
0.0
 40
0.0
 40
0.0429181449
 40
0.0872445121
 40
0.1341718889
 40
0.1845515054
 40
0.2388574757
 40
0.2972406116
 40
0.3595603369
 40
0.4254713334
 40
0.5657031211
 40
0.7125472515
 40
0.859496703
 40
1.0
 40
1.0
 40
1.0
 40
1.0
 10
16.402199171
 20
38.4156178567
 30
0.0
 10
16.3745666487
 20
38.3996705793
 30
0.0
 10
16.3144674169
 20
38.3736075123
 30
0.0
 10
16.2157724443
 20
38.3549122734
 30
0.0
 10
16.109867307
 20
38.3562752442
 30
0.0
 10
15.9986726722
 20
38.3774623421
 30
0.0
 10
15.8839483924
 20
38.4178056705
 30
0.0
 10
15.76754963
 20
38.4766083105
 30
0.0
 10
15.651287676
 20
38.552766423
 30
0.0
 10
15.4958922239
 20
38.6784135149
 30
0.0
 10
15.3152559885
 20
38.8706018739
 30
0.0
 10
15.1325012148
 20
39.1379156827
 30
0.0
 10
14.9910717599
 20
39.4293891276
 30
0.0
 10
14.9281213179
 20
39.6348209963
 30
0.0
 10
14.9068371896
 20
39.737075432
 30
0.0
  0
SPLINE
  5
2DB
100
AcDbEntity
  8
0
100
AcDbSpline
 62
7
  6
BYLAYER
 70
0
 71
3
 72
9
 73
5
 74
0
 42
0.0000001
 43
0.0000001
 44
0.0000000001
 40
0.0
 40
0.0
 40
0.0
 40
0.0
 40
0.5145076368
 40
1.0
 40
1.0
 40
1.0
 40
1.0
 10
14.9068371896
 20
39.737075432
 30
0.0
 10
14.8966118031
 20
39.7862008227
 30
0.0
 10
14.8810273045
 20
39.8826378397
 30
0.0
 10
14.8752118671
 20
39.9802112922
 30
0.0
 10
14.8752118671
 20
40.0275598316
 30
0.0
  0
SPLINE
  5
2DC
100
AcDbEntity
  8
0
100
AcDbSpline
 62
7
  6
BYLAYER
 70
0
 71
3
 72
15
 73
11
 74
0
 42
0.0000001
 43
0.0000001
 44
0.0000000001
 40
0.0
 40
0.0
 40
0.0
 40
0.0
 40
0.1484458918
 40
0.2894438664
 40
0.4227546539
 40
0.5486704721
 40
0.6680045239
 40
0.7819311971
 40
0.8919879515
 40
1.0
 40
1.0
 40
1.0
 40
1.0
 10
14.8752118671
 20
40.0275598316
 30
0.0
 10
14.8752118671
 20
40.0604733781
 30
0.0
 10
14.8778876112
 20
40.1246924151
 30
0.0
 10
14.890515869
 20
40.2177187475
 30
0.0
 10
14.9116262526
 20
40.304099001
 30
0.0
 10
14.9410770186
 20
40.382927281
 30
0.0
 10
14.9785862217
 20
40.4534661739
 30
0.0
 10
15.0239214046
 20
40.5149859745
 30
0.0
 10
15.0765923574
 20
40.5668540692
 30
0.0
 10
15.116470071
 20
40.5946820214
 30
0.0
 10
15.1372121678
 20
40.6066526974
 30
0.0
  0
SPLINE
  5
2DD
100
AcDbEntity
  8
0
100
AcDbSpline
 62
7
  6
BYLAYER
 70
0
 71
3
 72
12
 73
8
 74
0
 42
0.0000001
 43
0.0000001
 44
0.0000000001
 40
0.0
 40
0.0
 40
0.0
 40
0.0
 40
0.2822331358
 40
0.5424610441
 40
0.6643889881
 40
0.7810790552
 40
1.0
 40
1.0
 40
1.0
 40
1.0
 10
20.0596573047
 20
34.0388991075
 30
0.0
 10
20.192416421
 20
34.1027094724
 30
0.0
 10
20.4407802582
 20
34.2404278712
 30
0.0
 10
20.7186471082
 20
34.4503105837
 30
0.0
 10
20.9048670612
 20
34.6327764719
 30
0.0
 10
21.0595123584
 20
34.8149576612
 30
0.0
 10
21.1529534019
 20
34.9652405724
 30
0.0
 10
21.2010509608
 20
35.0688789525
 30
0.0
  0
SPLINE
  5
2DE
100
AcDbEntity
  8
0
100
AcDbSpline
 62
7
  6
BYLAYER
 70
0
 71
3
 72
15
 73
11
 74
0
 42
0.0000001
 43
0.0000001
 44
0.0000000001
 40
0.0
 40
0.0
 40
0.0
 40
0.0
 40
0.1108257948
 40
0.2280652108
 40
0.3507061828
 40
0.4776248276
 40
0.6074756851
 40
0.7388033303
 40
0.8701701909
 40
1.0
 40
1.0
 40
1.0
 40
1.0
 10
15.3454433671
 20
41.3074448276
 30
0.0
 10
15.456804343
 20
41.2431519927
 30
0.0
 10
15.693809144
 20
41.1241245776
 30
0.0
 10
16.0743224669
 20
40.9783678688
 30
0.0
 10
16.4843671003
 20
40.8624002557
 30
0.0
 10
16.9169290056
 20
40.7781315088
 30
0.0
 10
17.3647654313
 20
40.7270157828
 30
0.0
 10
17.8203397657
 20
40.7098618247
 30
0.0
 10
18.275859868
 20
40.7270207575
 30
0.0
 10
18.5773207322
 20
40.7614281989
 30
0.0
 10
18.7261875306
 20
40.7844580719
 30
0.0
  0
SPLINE
  5
2DF
100
AcDbEntity
  8
0
100
AcDbSpline
 62
7
  6
BYLAYER
 70
0
 71
3
 72
18
 73
14
 74
0
 42
0.0000001
 43
0.0000001
 44
0.0000000001
 40
0.0
 40
0.0
 40
0.0
 40
0.0
 40
0.0574410864
 40
0.1138358303
 40
0.1695462268
 40
0.2249834009
 40
0.2805978747
 40
0.3368340936
 40
0.4526353303
 40
0.5753269609
 40
0.7068452097
 40
0.8483324989
 40
1.0
 40
1.0
 40
1.0
 40
1.0
 10
14.6045468514
 20
43.3273350778
 30
0.0
 10
14.5891249426
 20
43.2886883912
 30
0.0
 10
14.5623263988
 20
43.2105243174
 30
0.0
 10
14.5347258784
 20
43.0906217303
 30
0.0
 10
14.5203317502
 20
42.9698659415
 30
0.0
 10
14.5192698058
 20
42.8488276145
 30
0.0
 10
14.5314988339
 20
42.7280147294
 30
0.0
 10
14.5657700272
 20
42.5664226516
 30
0.0
 10
14.6432021752
 20
42.3657435167
 30
0.0
 10
14.7862379911
 20
42.1374356278
 30
0.0
 10
14.9773423662
 20
41.92223895
 30
0.0
 10
15.2131880854
 20
41.7233512478
 30
0.0
 10
15.3917156474
 20
41.6073269037
 30
0.0
 10
15.4868641345
 20
41.5523941418
 30
0.0
  0
SPLINE
  5
2E0
100
AcDbEntity
  8
0
100
AcDbSpline
 62
7
  6
BYLAYER
 70
0
 71
3
 72
15
 73
11
 74
0
 42
0.0000001
 43
0.0000001
 44
0.0000000001
 40
0.0
 40
0.0
 40
0.0
 40
0.0
 40
0.1108395289
 40
0.227908955
 40
0.3502743842
 40
0.4769006109
 40
0.6065449827
 40
0.7378585346
 40
0.8695029525
 40
1.0
 40
1.0
 40
1.0
 40
1.0
 10
15.4868641345
 20
41.5523941418
 30
0.0
 10
15.588217582
 20
41.4938790254
 30
0.0
 10
15.803501982
 20
41.3852202458
 30
0.0
 10
16.1486650055
 20
41.2510418633
 30
0.0
 10
16.5202460124
 20
41.1429656358
 30
0.0
 10
16.9123048791
 20
41.0626572573
 30
0.0
 10
17.3187083765
 20
41.011408153
 30
0.0
 10
17.7330665992
 20
40.9899813478
 30
0.0
 10
18.1487589873
 20
40.9987670829
 30
0.0
 10
18.4246183349
 20
41.0248419348
 30
0.0
 10
18.5612033131
 20
41.0430100828
 30
0.0
  0
SPLINE
  5
2E1
100
AcDbEntity
  8
0
100
AcDbSpline
 62
7
  6
BYLAYER
 70
0
 71
3
 72
15
 73
11
 74
0
 42
0.0000001
 43
0.0000001
 44
0.0000000001
 40
0.0
 40
0.0
 40
0.0
 40
0.0
 40
0.1080022936
 40
0.2180509378
 40
0.3319926499
 40
0.451354235
 40
0.5772624848
 40
0.7104871707
 40
0.8514431606
 40
1.0
 40
1.0
 40
1.0
 40
1.0
 10
14.3203072722
 20
42.7362993643
 30
0.0
 10
14.3203081597
 20
42.6700455243
 30
0.0
 10
14.3318111998
 20
42.5360128317
 30
0.0
 10
14.3831825421
 20
42.3380411816
 30
0.0
 10
14.4679468296
 20
42.1443166109
 30
0.0
 10
14.5850767079
 20
41.9568375223
 30
0.0
 10
14.7332114267
 20
41.7772720493
 30
0.0
 10
14.9108756559
 20
41.6072059867
 30
0.0
 10
15.1162902655
 20
41.4482487952
 30
0.0
 10
15.2665203253
 20
41.3530100362
 30
0.0
 10
15.3454433671
 20
41.3074448276
 30
0.0
  0
SPLINE
  5
2E2
100
AcDbEntity
  8
0
100
AcDbSpline
 62
7
  6
BYLAYER
 70
0
 71
3
 72
18
 73
14
 74
0
 42
0.0000001
 43
0.0000001
 44
0.0000000001
 40
0.0
 40
0.0
 40
0.0
 40
0.0
 40
0.0657819772
 40
0.134934482
 40
0.2794778148
 40
0.4266190915
 40
0.5689385289
 40
0.6997157258
 40
0.8144160411
 40
0.8655024214
 40
0.9127938543
 40
0.9571889254
 40
1.0
 40
1.0
 40
1.0
 40
1.0
 10
22.2521140467
 20
12.3755763561
 30
0.0
 10
22.2336150199
 20
12.3673810295
 30
0.0
 10
22.1947205432
 20
12.3526558624
 30
0.0
 10
22.1117307776
 20
12.3298868312
 30
0.0
 10
22.0011851211
 20
12.3148774795
 30
0.0
 10
21.8672098716
 20
12.3179796829
 30
0.0
 10
21.7394973302
 20
12.3416879757
 30
0.0
 10
21.6273577017
 20
12.3842973044
 30
0.0
 10
21.5503302452
 20
12.4353889787
 30
0.0
 10
21.5054999334
 20
12.4835940787
 30
0.0
 10
21.4817313981
 20
12.5208607317
 30
0.0
 10
21.467146728
 20
12.5599206233
 30
0.0
 10
21.4638213943
 20
12.586845614
 30
0.0
 10
21.4638277832
 20
12.6000133488
 30
0.0
  0
SPLINE
  5
2E3
100
AcDbEntity
  8
0
100
AcDbSpline
 62
7
  6
BYLAYER
 70
0
 71
3
 72
13
 73
9
 74
0
 42
0.0000001
 43
0.0000001
 44
0.0000000001
 40
0.0
 40
0.0
 40
0.0
 40
0.0
 40
0.1167985148
 40
0.2344668398
 40
0.3538458756
 40
0.4757120626
 40
0.7293503238
 40
1.0
 40
1.0
 40
1.0
 40
1.0
 10
23.8202906591
 20
30.7745389552
 30
0.0
 10
23.8202906584
 20
30.8453987558
 30
0.0
 10
23.8127179819
 20
30.987761305
 30
0.0
 10
23.7786630747
 20
31.2000930694
 30
0.0
 10
23.7220625912
 20
31.4107563163
 30
0.0
 10
23.6155822489
 20
31.6919410463
 30
0.0
 10
23.4241426822
 20
32.0366538484
 30
0.0
 10
23.2242592906
 20
32.2859562062
 30
0.0
 10
23.1127543652
 20
32.4064880057
 30
0.0
  0
SPLINE
  5
2E4
100
AcDbEntity
  8
0
100
AcDbSpline
 62
7
  6
BYLAYER
 70
0
 71
3
 72
21
 73
17
 74
0
 42
0.0000001
 43
0.0000001
 44
0.0000000001
 40
0.0
 40
0.0
 40
0.0
 40
0.0
 40
0.055826969
 40
0.1141941645
 40
0.1748052033
 40
0.2373776172
 40
0.3015808738
 40
0.3670319548
 40
0.4999994007
 40
0.6329695273
 40
0.6984209073
 40
0.7626234958
 40
0.8252001584
 40
0.8858102758
 40
0.944156029
 40
1.0
 40
1.0
 40
1.0
 40
1.0
 10
22.169031607
 20
7.8104727658
 30
0.0
 10
22.0233769687
 20
7.7263795231
 30
0.0
 10
21.7178450336
 20
7.5672749128
 30
0.0
 10
21.23302862
 20
7.3604901117
 30
0.0
 10
20.7155158139
 20
7.1821222999
 30
0.0
 10
20.1704125708
 20
7.0338325766
 30
0.0
 10
19.6028302199
 20
6.9169782992
 30
0.0
 10
18.819342379
 20
6.804076174
 30
0.0
 10
17.8202616373
 20
6.7480159606
 30
0.0
 10
16.8211807118
 20
6.8040853049
 30
0.0
 10
16.037686228
 20
6.9169894435
 30
0.0
 10
15.4700926983
 20
7.0338487222
 30
0.0
 10
14.9249876362
 20
7.1821640708
 30
0.0
 10
14.4075323642
 20
7.3605274557
 30
0.0
 10
13.9227172448
 20
7.5672752711
 30
0.0
 10
13.6172091683
 20
7.7263981081
 30
0.0
 10
13.4715111341
 20
7.810518629
 30
0.0
  0
SPLINE
  5
2E5
100
AcDbEntity
  8
0
100
AcDbSpline
 62
7
  6
BYLAYER
 70
0
 71
3
 72
16
 73
12
 74
0
 42
0.0000001
 43
0.0000001
 44
0.0000000001
 40
0.0
 40
0.0
 40
0.0
 40
0.0
 40
0.1156349211
 40
0.2320448225
 40
0.3504460979
 40
0.4716574992
 40
0.5336175844
 40
0.5965953336
 40
0.7258974544
 40
0.8602660033
 40
1.0
 40
1.0
 40
1.0
 40
1.0
 10
24.1703067973
 20
7.7083456713
 30
0.0
 10
24.1703067973
 20
7.5811299517
 30
0.0
 10
24.1502920209
 20
7.3254076727
 30
0.0
 10
24.0611896541
 20
6.9488639699
 30
0.0
 10
23.91567261
 20
6.583794647
 30
0.0
 10
23.7512406022
 20
6.2944533981
 30
0.0
 10
23.5958573876
 20
6.0725024889
 30
0.0
 10
23.4219156472
 20
5.8532737154
 30
0.0
 10
23.1745302544
 20
5.5915287967
 30
0.0
 10
22.8375123884
 20
5.3017561553
 30
0.0
 10
22.591162968
 20
5.1270304114
 30
0.0
 10
22.4621959539
 20
5.043364992
 30
0.0
  0
SPLINE
  5
2E6
100
AcDbEntity
  8
0
100
AcDbSpline
 62
7
  6
BYLAYER
 70
0
 71
3
 72
27
 73
23
 74
0
 42
0.0000001
 43
0.0000001
 44
0.0000000001
 40
0.0
 40
0.0
 40
0.0
 40
0.0
 40
0.0620638142
 40
0.1274838382
 40
0.1957062493
 40
0.2660215119
 40
0.3375564409
 40
0.409372176
 40
0.4805094001
 40
0.5500508793
 40
0.6171805025
 40
0.6812465522
 40
0.7418276812
 40
0.7707771197
 40
0.7988370306
 40
0.8524159142
 40
0.8781298841
 40
0.9032430068
 40
0.9278702288
 40
0.9521088784
 40
0.9760924208
 40
1.0
 40
1.0
 40
1.0
 40
1.0
 10
22.2068975702
 20
4.8871239093
 30
0.0
 10
21.979022072
 20
4.7555607143
 30
0.0
 10
21.4929504349
 20
4.5157397577
 30
0.0
 10
20.7114591815
 20
4.2328215864
 30
0.0
 10
19.871796774
 20
4.0206518983
 30
0.0
 10
18.9907314004
 20
3.8826291687
 30
0.0
 10
18.0858213336
 20
3.8211952441
 30
0.0
 10
17.1755067712
 20
3.8374133706
 30
0.0
 10
16.2783301175
 20
3.9310118935
 30
0.0
 10
15.412469254
 20
4.1003240614
 30
0.0
 10
14.5951327227
 20
4.3425043926
 30
0.0
 10
13.8423122832
 20
4.6537502579
 30
0.0
 10
13.272002677
 20
4.9719958316
 30
0.0
 10
12.8635369427
 20
5.2585595411
 30
0.0
 10
12.5002069943
 20
5.5553128415
 30
0.0
 10
12.1818241025
 20
5.884316418
 30
0.0
 10
11.9215274246
 20
6.2430791331
 30
0.0
 10
11.7603513382
 20
6.5201015155
 30
0.0
 10
11.6324736129
 20
6.8071870038
 30
0.0
 10
11.5394342988
 20
7.1024472104
 30
0.0
 10
11.4829768817
 20
7.4037257219
 30
0.0
 10
11.4703067973
 20
7.6069863971
 30
0.0
 10
11.4703067973
 20
7.7083456713
 30
0.0
  0
SPLINE
  5
2E7
100
AcDbEntity
  8
0
100
AcDbSpline
 62
7
  6
BYLAYER
 70
0
 71
3
 72
15
 73
11
 74
0
 42
0.0000001
 43
0.0000001
 44
0.0000000001
 40
0.0
 40
0.0
 40
0.0
 40
0.0
 40
0.1080124856
 40
0.2180607516
 40
0.3319982341
 40
0.451360464
 40
0.5772709684
 40
0.7104899171
 40
0.8514348628
 40
1.0
 40
1.0
 40
1.0
 40
1.0
 10
24.1702994329
 20
10.4844538897
 30
0.0
 10
24.1702917268
 20
10.3642406579
 30
0.0
 10
24.1494332379
 20
10.1210590403
 30
0.0
 10
24.0562317537
 20
9.7618790384
 30
0.0
 10
23.9024481061
 20
9.4104156184
 30
0.0
 10
23.6899305287
 20
9.0702896967
 30
0.0
 10
23.4211870805
 20
8.7445053521
 30
0.0
 10
23.0988633289
 20
8.4359779916
 30
0.0
 10
22.7262067011
 20
8.147578528
 30
0.0
 10
22.4536481061
 20
7.9747980192
 30
0.0
 10
22.310453552
 20
7.8921250983
 30
0.0
  0
SPLINE
  5
2E8
100
AcDbEntity
  8
0
100
AcDbSpline
 62
7
  6
BYLAYER
 70
0
 71
3
 72
15
 73
11
 74
0
 42
0.0000001
 43
0.0000001
 44
0.0000000001
 40
0.0
 40
0.0
 40
0.0
 40
0.0
 40
0.1486066911
 40
0.2895001252
 40
0.4227227091
 40
0.5486433615
 40
0.6680002446
 40
0.7819388132
 40
0.8919874557
 40
1.0
 40
1.0
 40
1.0
 40
1.0
 10
13.3300912527
 20
7.8921749737
 30
0.0
 10
13.1868615019
 20
7.9748710683
 30
0.0
 10
12.9142943924
 20
8.1476047491
 30
0.0
 10
12.5416985418
 20
8.4360544726
 30
0.0
 10
12.2194142143
 20
8.7445392973
 30
0.0
 10
11.950637968
 20
9.0703004521
 30
0.0
 10
11.7381794377
 20
9.41045631
 30
0.0
 10
11.5843511126
 20
9.7618857486
 30
0.0
 10
11.4912033238
 20
10.1210710142
 30
0.0
 10
11.4703064559
 20
10.3642436302
 30
0.0
 10
11.4703141618
 20
10.4844538894
 30
0.0
  0
SPLINE
  5
2E9
100
AcDbEntity
  8
0
100
AcDbSpline
 62
7
  6
BYLAYER
 70
0
 71
3
 72
9
 73
5
 74
0
 42
0.0000001
 43
0.0000001
 44
0.0000000001
 40
0.0
 40
0.0
 40
0.0
 40
0.0
 40
0.5000406381
 40
1.0
 40
1.0
 40
1.0
 40
1.0
 10
20.0348327906
 20
35.1707506781
 30
0.0
 10
19.933821533
 20
35.3386366348
 30
0.0
 10
19.7312994335
 20
35.6740710147
 30
0.0
 10
19.5275787761
 20
36.0087797988
 30
0.0
 10
19.425290568
 20
36.1758534733
 30
0.0
  0
SPLINE
  5
2EA
100
AcDbEntity
  8
0
100
AcDbSpline
 62
7
  6
BYLAYER
 70
0
 71
3
 72
12
 73
8
 74
0
 42
0.0000001
 43
0.0000001
 44
0.0000000001
 40
0.0
 40
0.0
 40
0.0
 40
0.0
 40
0.267044711
 40
0.5200614837
 40
0.7626334331
 40
0.881660266
 40
1.0
 40
1.0
 40
1.0
 40
1.0
 10
13.0602069901
 20
39.1974511216
 30
0.0
 10
12.9822957574
 20
39.1007623631
 30
0.0
 10
12.8430146614
 20
38.9018174991
 30
0.0
 10
12.6866310107
 20
38.5818689935
 30
0.0
 10
12.6069492448
 20
38.3056212324
 30
0.0
 10
12.57554059
 20
38.0844116859
 30
0.0
 10
12.5703254721
 20
37.9739617456
 30
0.0
 10
12.5703251081
 20
37.9189351089
 30
0.0
  0
SPLINE
  5
2EB
100
AcDbEntity
  8
0
100
AcDbSpline
 62
7
  6
BYLAYER
 70
0
 71
3
 72
11
 73
7
 74
0
 42
0.0000001
 43
0.0000001
 44
0.0000000001
 40
0.0
 40
0.0
 40
0.0
 40
0.0
 40
0.249913224
 40
0.4998803413
 40
0.7499057199
 40
1.0
 40
1.0
 40
1.0
 40
1.0
 10
13.0602069901
 20
39.1974616666
 30
0.0
 10
13.1107197948
 20
39.2230907284
 30
0.0
 10
13.2118460489
 20
39.2741783291
 30
0.0
 10
13.3640149476
 20
39.3498969329
 30
0.0
 10
13.5166173308
 20
39.424829781
 30
0.0
 10
13.618621407
 20
39.4742673912
 30
0.0
 10
13.6697492243
 20
39.4987416437
 30
0.0
  0
SPLINE
  5
2EC
100
AcDbEntity
  8
0
100
AcDbSpline
 62
7
  6
BYLAYER
 70
0
 71
3
 72
23
 73
19
 74
0
 42
0.0000001
 43
0.0000001
 44
0.0000000001
 40
0.0
 40
0.0
 40
0.0
 40
0.0
 40
0.074329678
 40
0.149521935
 40
0.2248388537
 40
0.2996594475
 40
0.3733542664
 40
0.4453032915
 40
0.514948148
 40
0.5817985942
 40
0.6454519323
 40
0.7056261799
 40
0.7621792586
 40
0.8151532188
 40
0.8648016143
 40
0.9116220912
 40
0.9563648269
 40
1.0
 40
1.0
 40
1.0
 40
1.0
 10
18.7234454231
 20
36.5810547897
 30
0.0
 10
18.5911564084
 20
36.5610536232
 30
0.0
 10
18.3235652112
 20
36.5300559209
 30
0.0
 10
17.9190655534
 20
36.5102392257
 30
0.0
 10
17.5132347605
 20
36.517092694
 30
0.0
 10
17.1114289831
 20
36.5504901253
 30
0.0
 10
16.7187594013
 20
36.6099465306
 30
0.0
 10
16.3402989515
 20
36.694781091
 30
0.0
 10
15.9809186346
 20
36.8038451474
 30
0.0
 10
15.6452304792
 20
36.9357735187
 30
0.0
 10
15.337536822
 20
37.0889195774
 30
0.0
 10
15.0617437014
 20
37.2613379621
 30
0.0
 10
14.8214162611
 20
37.4509943209
 30
0.0
 10
14.619635722
 20
37.6555834614
 30
0.0
 10
14.4591445194
 20
37.8727335198
 30
0.0
 10
14.342383908
 20
38.0999219756
 30
0.0
 10
14.2712815519
 20
38.3340870078
 30
0.0
 10
14.2553094521
 20
38.4935942911
 30
0.0
 10
14.2553063192
 20
38.5721370557
 30
0.0
  0
SPLINE
  5
2ED
100
AcDbEntity
  8
0
100
AcDbSpline
 62
7
  6
BYLAYER
 70
0
 71
3
 72
13
 73
9
 74
0
 42
0.0000001
 43
0.0000001
 44
0.0000000001
 40
0.0
 40
0.0
 40
0.0
 40
0.0
 40
0.2706495731
 40
0.5242878123
 40
0.6461540142
 40
0.7655330785
 40
0.8832014419
 40
1.0
 40
1.0
 40
1.0
 40
1.0
 10
12.5278548852
 20
32.4064833092
 30
0.0
 10
12.4163506159
 20
32.2859517726
 30
0.0
 10
12.2164684133
 20
32.0366500017
 30
0.0
 10
12.025030055
 20
31.6919381998
 30
0.0
 10
11.918550384
 20
31.4107543319
 30
0.0
 10
11.8619502614
 20
31.2000917315
 30
0.0
 10
11.8278955606
 20
30.9877606326
 30
0.0
 10
11.8203229349
 20
30.8453985334
 30
0.0
 10
11.8203229356
 20
30.7745389552
 30
0.0
  0
SPLINE
  5
2EE
100
AcDbEntity
  8
0
100
AcDbSpline
 62
7
  6
BYLAYER
 70
0
 71
3
 72
9
 73
5
 74
0
 42
0.0000001
 43
0.0000001
 44
0.0000000001
 40
0.0
 40
0.0
 40
0.0
 40
0.0
 40
0.2448731178
 40
1.0
 40
1.0
 40
1.0
 40
1.0
 10
20.3411529675
 20
29.9315374782
 30
0.0
 10
20.3174187655
 20
29.9178346121
 30
0.0
 10
20.2198078275
 20
29.86306947
 30
0.0
 10
20.1195869738
 20
29.8129857193
 30
0.0
 10
20.042819103
 20
29.7776431529
 30
0.0
  0
SPLINE
  5
2EF
100
AcDbEntity
  8
0
100
AcDbSpline
 62
7
  6
BYLAYER
 70
0
 71
3
 72
11
 73
7
 74
0
 42
0.0000001
 43
0.0000001
 44
0.0000000001
 40
0.0
 40
0.0
 40
0.0
 40
0.0
 40
0.223146313
 40
0.4629176878
 40
0.7216643341
 40
1.0
 40
1.0
 40
1.0
 40
1.0
 10
21.2690192371
 20
30.8655124729
 30
0.0
 10
21.2279649303
 20
30.7750000347
 30
0.0
 10
21.1228388672
 20
30.5958904844
 30
0.0
 10
20.9127528734
 20
30.3508376997
 30
0.0
 10
20.6493535819
 20
30.1247175571
 30
0.0
 10
20.4485133384
 20
29.9935216472
 30
0.0
 10
20.3411529675
 20
29.9315374782
 30
0.0
  0
SPLINE
  5
2F0
100
AcDbEntity
  8
0
100
AcDbSpline
 62
7
  6
BYLAYER
 70
0
 71
3
 72
12
 73
8
 74
0
 42
0.0000001
 43
0.0000001
 44
0.0000000001
 40
0.0
 40
0.0
 40
0.0
 40
0.0
 40
0.1044399701
 40
0.2115241864
 40
0.4416979305
 40
0.7038180278
 40
1.0
 40
1.0
 40
1.0
 40
1.0
 10
22.4438108727
 20
12.6000134214
 30
0.0
 10
22.4438056182
 20
12.5891835915
 30
0.0
 10
22.4415769333
 20
12.5671926847
 30
0.0
 10
22.4282056999
 20
12.5231279186
 30
0.0
 10
22.3938123563
 20
12.4698710972
 30
0.0
 10
22.3313839523
 20
12.4159347759
 30
0.0
 10
22.2801942686
 20
12.3880162855
 30
0.0
 10
22.2521140467
 20
12.3755763561
 30
0.0
  0
SPLINE
  5
2F1
100
AcDbEntity
  8
0
100
AcDbSpline
 62
7
  6
BYLAYER
 70
0
 71
3
 72
31
 73
27
 74
0
 42
0.0000001
 43
0.0000001
 44
0.0000000001
 40
0.0
 40
0.0
 40
0.0
 40
0.0
 40
0.030657047
 40
0.0623942382
 40
0.1287215373
 40
0.198296447
 40
0.2702574574
 40
0.3436177852
 40
0.4173328475
 40
0.4903408452
 40
0.5616115449
 40
0.6301936362
 40
0.6632246634
 40
0.6952910216
 40
0.7263191737
 40
0.756254512
 40
0.785058575
 40
0.8127162768
 40
0.8392358016
 40
0.8646528747
 40
0.8890343365
 40
0.9124780804
 40
0.9351177274
 40
0.9571176608
 40
0.9786730991
 40
1.0
 40
1.0
 40
1.0
 40
1.0
 10
22.310453552
 20
5.1160168801
 30
0.0
 10
22.1983112247
 20
5.0512718637
 30
0.0
 10
21.9657362823
 20
4.9268887671
 30
0.0
 10
21.4717578585
 20
4.6991546069
 30
0.0
 10
20.8046528353
 20
4.4574474881
 30
0.0
 10
19.9524456215
 20
4.2411226642
 30
0.0
 10
19.0547668131
 20
4.09876839
 30
0.0
 10
18.1307749039
 20
4.0334546067
 30
0.0
 10
17.2001621704
 20
4.0465439339
 30
0.0
 10
16.2827602801
 20
4.1377723604
 30
0.0
 10
15.3981975059
 20
4.30518663
 30
0.0
 10
14.6952618512
 20
4.5077428039
 30
0.0
 10
14.1663168704
 20
4.7059795213
 30
0.0
 10
13.7942289185
 20
4.8690151047
 30
0.0
 10
13.4438685814
 20
5.0474417132
 30
0.0
 10
13.1170824284
 20
5.2402502725
 30
0.0
 10
12.8156527408
 20
5.4464723101
 30
0.0
 10
12.5411898599
 20
5.6649971429
 30
0.0
 10
12.2951745051
 20
5.894686517
 30
0.0
 10
12.0789780682
 20
6.1343710281
 30
0.0
 10
11.8937512607
 20
6.382764478
 30
0.0
 10
11.7406341395
 20
6.6386314101
 30
0.0
 10
11.6204441914
 20
6.9005552534
 30
0.0
 10
11.5340511848
 20
7.1671848358
 30
0.0
 10
11.4819308796
 20
7.4369257041
 30
0.0
 10
11.4703109605
 20
7.6182641491
 30
0.0
 10
11.4703160212
 20
7.7083456711
 30
0.0
  0
SPLINE
  5
2F2
100
AcDbEntity
  8
0
100
AcDbSpline
 62
7
  6
BYLAYER
 70
0
 71
3
 72
31
 73
27
 74
0
 42
0.0000001
 43
0.0000001
 44
0.0000000001
 40
0.0
 40
0.0
 40
0.0
 40
0.0
 40
0.0213272187
 40
0.042882935
 40
0.0648831482
 40
0.0875230503
 40
0.1109669766
 40
0.1353486698
 40
0.1607658035
 40
0.187285463
 40
0.2149430954
 40
0.2437471495
 40
0.2736823158
 40
0.3047103113
 40
0.3367764358
 40
0.3698071847
 40
0.4383887092
 40
0.5096589254
 40
0.5826666558
 40
0.6563817864
 40
0.7297413934
 40
0.8017016635
 40
0.8712768876
 40
0.9376053038
 40
0.9693429553
 40
1.0
 40
1.0
 40
1.0
 40
1.0
 10
11.4703180885
 20
9.3413504655
 30
0.0
 10
11.4703122552
 20
9.2512676533
 30
0.0
 10
11.4819401607
 20
9.0699273412
 30
0.0
 10
11.5340549362
 20
8.8001820703
 30
0.0
 10
11.6204546903
 20
8.5335508459
 30
0.0
 10
11.7406461215
 20
8.2716248768
 30
0.0
 10
11.8937648507
 20
8.0157555453
 30
0.0
 10
12.078997012
 20
7.7673639453
 30
0.0
 10
12.2951927436
 20
7.5276765901
 30
0.0
 10
12.5412128439
 20
7.2979917685
 30
0.0
 10
12.815673959
 20
7.0794647642
 30
0.0
 10
13.117105809
 20
6.8732480216
 30
0.0
 10
13.4438894406
 20
6.6804385884
 30
0.0
 10
13.7942490811
 20
6.5020162053
 30
0.0
 10
14.1663339605
 20
6.3389813981
 30
0.0
 10
14.6952747827
 20
6.1407474058
 30
0.0
 10
15.3982045146
 20
5.9381927073
 30
0.0
 10
16.2827613205
 20
5.7707796839
 30
0.0
 10
17.2001597482
 20
5.6795507263
 30
0.0
 10
18.1307680042
 20
5.6664621857
 30
0.0
 10
19.0547537693
 20
5.7317722761
 30
0.0
 10
19.9524270309
 20
5.8741268601
 30
0.0
 10
20.8046377781
 20
6.0904473726
 30
0.0
 10
21.4717501304
 20
6.3321569678
 30
0.0
 10
21.9657343915
 20
6.5598935168
 30
0.0
 10
22.1983112982
 20
6.6842767404
 30
0.0
 10
22.310453552
 20
6.7490217143
 30
0.0
  0
SPLINE
  5
2F3
100
AcDbEntity
  8
0
100
AcDbSpline
 62
7
  6
BYLAYER
 70
0
 71
3
 72
15
 73
11
 74
0
 42
0.0000001
 43
0.0000001
 44
0.0000000001
 40
0.0
 40
0.0
 40
0.0
 40
0.0
 40
0.1083629859
 40
0.2187084907
 40
0.332846108
 40
0.4522833521
 40
0.5781343051
 40
0.7111664933
 40
0.851814341
 40
1.0
 40
1.0
 40
1.0
 40
1.0
 10
24.1702975735
 20
7.7083456715
 30
0.0
 10
24.1702909228
 20
7.5899613187
 30
0.0
 10
24.1500786396
 20
7.35055822
 30
0.0
 10
24.0597110149
 20
6.9967824131
 30
0.0
 10
23.9105572618
 20
6.6503587794
 30
0.0
 10
23.7043458373
 20
6.3147564349
 30
0.0
 10
23.4434379682
 20
5.9928649056
 30
0.0
 10
23.1303328389
 20
5.6874815685
 30
0.0
 10
22.7680954584
 20
5.4013750521
 30
0.0
 10
22.5029270538
 20
5.2294462628
 30
0.0
 10
22.3635729683
 20
5.1470523923
 30
0.0
  0
SPLINE
  5
2F4
100
AcDbEntity
  8
0
100
AcDbSpline
 62
7
  6
BYLAYER
 70
0
 71
3
 72
25
 73
21
 74
0
 42
0.0000001
 43
0.0000001
 44
0.0000000001
 40
0.0
 40
0.0
 40
0.0
 40
0.0
 40
0.0218155886
 40
0.044304103
 40
0.0916924627
 40
0.1167990089
 40
0.1428965396
 40
0.1981074484
 40
0.2573117255
 40
0.3202084321
 40
0.3863028019
 40
0.4549533926
 40
0.5254121302
 40
0.5968620116
 40
0.6684483382
 40
0.7393118392
 40
0.8086228537
 40
0.8756002756
 40
0.9395867941
 40
1.0
 40
1.0
 40
1.0
 40
1.0
 10
23.3031450029
 20
8.6835079938
 30
0.0
 10
23.2772819375
 20
8.6116459891
 30
0.0
 10
23.2167478974
 20
8.4684621844
 30
0.0
 10
23.062075993
 20
8.1866920108
 30
0.0
 10
22.8602963476
 20
7.9197342781
 30
0.0
 10
22.6203142605
 20
7.671359389
 30
0.0
 10
22.3416487871
 20
7.4235821929
 30
0.0
 10
21.9398874017
 20
7.1370477474
 30
0.0
 10
21.3936894154
 20
6.8394641238
 30
0.0
 10
20.7840258953
 20
6.5867417425
 30
0.0
 10
20.121710025
 20
6.3832671636
 30
0.0
 10
19.4184223565
 20
6.2325930722
 30
0.0
 10
18.6866597322
 20
6.1373749486
 30
0.0
 10
17.93945096
 20
6.0992985611
 30
0.0
 10
17.1901206101
 20
6.119035402
 30
0.0
 10
16.4520198053
 20
6.1962472704
 30
0.0
 10
15.7383323443
 20
6.3295799952
 30
0.0
 10
15.0616303221
 20
6.5166252852
 30
0.0
 10
14.4341182269
 20
6.7541405193
 30
0.0
 10
14.0436916755
 20
6.9494344852
 30
0.0
 10
13.8605253089
 20
7.0551832439
 30
0.0
  0
SPLINE
  5
2F5
100
AcDbEntity
  8
0
100
AcDbSpline
 62
7
  6
BYLAYER
 70
0
 71
3
 72
25
 73
21
 74
0
 42
0.0000001
 43
0.0000001
 44
0.0000000001
 40
0.0
 40
0.0
 40
0.0
 40
0.0
 40
0.0214754298
 40
0.0431179502
 40
0.0650885326
 40
0.0875355634
 40
0.1343233892
 40
0.1843578379
 40
0.2381287224
 40
0.2958222639
 40
0.3573657686
 40
0.4224792013
 40
0.4907208409
 40
0.5615228092
 40
0.6342224224
 40
0.708096061
 40
0.7823794353
 40
0.8562882675
 40
0.9290885416
 40
1.0
 40
1.0
 40
1.0
 40
1.0
 10
12.5703251081
 20
37.9189351089
 30
0.0
 10
12.5703246888
 20
37.8555380314
 30
0.0
 10
12.5772516326
 20
37.7281426481
 30
0.0
 10
12.6084107719
 20
37.5381869232
 30
0.0
 10
12.6601906321
 20
37.3497964084
 30
0.0
 10
12.7576214158
 20
37.0983733054
 30
0.0
 10
12.932813326
 20
36.7904381792
 30
0.0
 10
13.2163929367
 20
36.4457417925
 30
0.0
 10
13.5713257217
 20
36.1251671892
 30
0.0
 10
13.991913107
 20
35.8333070681
 30
0.0
 10
14.4716586236
 20
35.574271938
 30
0.0
 10
15.0031970286
 20
35.3518615375
 30
0.0
 10
15.5783742636
 20
35.169422079
 30
0.0
 10
16.1883249161
 20
35.0297546885
 30
0.0
 10
16.8236067962
 20
34.9349767837
 30
0.0
 10
17.4743724527
 20
34.8865615291
 30
0.0
 10
18.1304915156
 20
34.8852817558
 30
0.0
 10
18.7818542952
 20
34.9311186507
 30
0.0
 10
19.4181938223
 20
35.0234237923
 30
0.0
 10
19.8326625111
 20
35.1164380847
 30
0.0
 10
20.0348327906
 20
35.1707401346
 30
0.0
  0
SPLINE
  5
2F6
100
AcDbEntity
  8
0
100
AcDbSpline
 62
7
  6
BYLAYER
 70
0
 71
3
 72
31
 73
27
 74
0
 42
0.0000001
 43
0.0000001
 44
0.0000000001
 40
0.0
 40
0.0
 40
0.0
 40
0.0
 40
0.0213272187
 40
0.042882935
 40
0.0648831482
 40
0.0875230503
 40
0.1109669766
 40
0.1353486698
 40
0.1607658035
 40
0.187285463
 40
0.2149430954
 40
0.2437471495
 40
0.2736823158
 40
0.3047103113
 40
0.3367764358
 40
0.3698071847
 40
0.4383887092
 40
0.5096589254
 40
0.5826666558
 40
0.6563817864
 40
0.7297413934
 40
0.8017016635
 40
0.8712768876
 40
0.9376053038
 40
0.9693429553
 40
1.0
 40
1.0
 40
1.0
 40
1.0
 10
11.4703180885
 20
11.2601311457
 30
0.0
 10
11.4703122552
 20
11.1700483335
 30
0.0
 10
11.4819401607
 20
10.9887080215
 30
0.0
 10
11.5340549362
 20
10.7189627506
 30
0.0
 10
11.6204546903
 20
10.4523315262
 30
0.0
 10
11.7406461215
 20
10.1904055571
 30
0.0
 10
11.8937648507
 20
9.9345362255
 30
0.0
 10
12.078997012
 20
9.6861446256
 30
0.0
 10
12.2951927436
 20
9.4464572703
 30
0.0
 10
12.5412128439
 20
9.2167724488
 30
0.0
 10
12.815673959
 20
8.9982454444
 30
0.0
 10
13.117105809
 20
8.7920287018
 30
0.0
 10
13.4438894406
 20
8.5992192687
 30
0.0
 10
13.7942490811
 20
8.4207968856
 30
0.0
 10
14.1663339605
 20
8.2577620784
 30
0.0
 10
14.6952747827
 20
8.0595280861
 30
0.0
 10
15.3982045146
 20
7.8569733875
 30
0.0
 10
16.2827613205
 20
7.6895603642
 30
0.0
 10
17.2001597482
 20
7.5983314066
 30
0.0
 10
18.1307680042
 20
7.585242866
 30
0.0
 10
19.0547537693
 20
7.6505529563
 30
0.0
 10
19.9524270309
 20
7.7929075404
 30
0.0
 10
20.8046377781
 20
8.0092280529
 30
0.0
 10
21.4717501304
 20
8.250937648
 30
0.0
 10
21.9657343915
 20
8.478674197
 30
0.0
 10
22.1983112982
 20
8.6030574207
 30
0.0
 10
22.310453552
 20
8.6678023946
 30
0.0
  0
SPLINE
  5
2F7
100
AcDbEntity
  8
0
100
AcDbSpline
 62
7
  6
BYLAYER
 70
0
 71
3
 72
9
 73
5
 74
0
 42
0.0000001
 43
0.0000001
 44
0.0000000001
 40
0.0
 40
0.0
 40
0.0
 40
0.0
 40
0.4974011161
 40
1.0
 40
1.0
 40
1.0
 40
1.0
 10
14.2553063192
 20
38.5721370557
 30
0.0
 10
14.2553043585
 20
38.6212920153
 30
0.0
 10
14.261461119
 20
38.7202118972
 30
0.0
 10
14.279769924
 20
38.8176012628
 30
0.0
 10
14.291804445
 20
38.8657898742
 30
0.0
  0
SPLINE
  5
2F8
100
AcDbEntity
  8
0
100
AcDbSpline
 62
7
  6
BYLAYER
 70
0
 71
3
 72
15
 73
11
 74
0
 42
0.0000001
 43
0.0000001
 44
0.0000000001
 40
0.0
 40
0.0
 40
0.0
 40
0.0
 40
0.1470520163
 40
0.287210407
 40
0.4203435042
 40
0.5467371264
 40
0.6669343532
 40
0.7817436286
 40
0.8922962801
 40
1.0
 40
1.0
 40
1.0
 40
1.0
 10
23.4418291122
 20
12.3012548773
 30
0.0
 10
23.6066272545
 20
12.3964005612
 30
0.0
 10
23.9215976945
 20
12.5946025874
 30
0.0
 10
24.3562169165
 20
12.9228468316
 30
0.0
 10
24.7383206123
 20
13.2726946578
 30
0.0
 10
25.06470322
 20
13.6413504942
 30
0.0
 10
25.332706972
 20
14.0260234164
 30
0.0
 10
25.5398520659
 20
14.4238582916
 30
0.0
 10
25.6841841322
 20
14.8314966992
 30
0.0
 10
25.737881962
 20
15.1101071292
 30
0.0
 10
25.7535022701
 20
15.2486027149
 30
0.0
  0
SPLINE
  5
2F9
100
AcDbEntity
  8
0
100
AcDbSpline
 62
7
  6
BYLAYER
 70
0
 71
3
 72
12
 73
8
 74
0
 42
0.0000001
 43
0.0000001
 44
0.0000000001
 40
0.0
 40
0.0
 40
0.0
 40
0.0
 40
0.1183398585
 40
0.2373667796
 40
0.4799386718
 40
0.7329553367
 40
1.0
 40
1.0
 40
1.0
 40
1.0
 10
23.0702878226
 20
31.3869157681
 30
0.0
 10
23.0702875287
 20
31.3318890745
 30
0.0
 10
23.0650727367
 20
31.2214390289
 30
0.0
 10
23.0336646297
 20
31.0002293183
 30
0.0
 10
22.9539825787
 20
30.7239816363
 30
0.0
 10
22.797598768
 20
30.4040333623
 30
0.0
 10
22.6583177887
 20
30.2050885177
 30
0.0
 10
22.5804066046
 20
30.1083997515
 30
0.0
  0
SPLINE
  5
2FA
100
AcDbEntity
  8
0
100
AcDbSpline
 62
7
  6
BYLAYER
 70
0
 71
3
 72
12
 73
8
 74
0
 42
0.0000001
 43
0.0000001
 44
0.0000000001
 40
0.0
 40
0.0
 40
0.0
 40
0.0
 40
0.1167869611
 40
0.240059538
 40
0.4974368981
 40
0.7562585648
 40
1.0
 40
1.0
 40
1.0
 40
1.0
 10
21.6555246093
 20
12.8244504142
 30
0.0
 10
21.6764627933
 20
12.8337263213
 30
0.0
 10
21.7207183198
 20
12.8501243055
 30
0.0
 10
21.8153545941
 20
12.8742931839
 30
0.0
 10
21.9408911856
 20
12.8872803034
 30
0.0
 10
22.0901922808
 20
12.8763978807
 30
0.0
 10
22.1862817171
 20
12.8509812753
 30
0.0
 10
22.2307273633
 20
12.8334030268
 30
0.0
  0
SPLINE
  5
2FB
100
AcDbEntity
  8
0
100
AcDbSpline
 62
7
  6
BYLAYER
 70
0
 71
3
 72
9
 73
5
 74
0
 42
0.0000001
 43
0.0000001
 44
0.0000000001
 40
0.0
 40
0.0
 40
0.0
 40
0.0
 40
0.2569803775
 40
1.0
 40
1.0
 40
1.0
 40
1.0
 10
22.2307273633
 20
12.8334030268
 30
0.0
 10
22.2363376034
 20
12.8311841774
 30
0.0
 10
22.2580337608
 20
12.8222146276
 30
0.0
 10
22.2791767889
 20
12.8118852582
 30
0.0
 10
22.2944084905
 20
12.8033835336
 30
0.0
  0
SPLINE
  5
2FC
100
AcDbEntity
  8
0
100
AcDbSpline
 62
7
  6
BYLAYER
 70
0
 71
3
 72
9
 73
5
 74
0
 42
0.0000001
 43
0.0000001
 44
0.0000000001
 40
0.0
 40
0.0
 40
0.0
 40
0.0
 40
0.2752380066
 40
1.0
 40
1.0
 40
1.0
 40
1.0
 10
22.2944084905
 20
12.8033835336
 30
0.0
 10
22.3073178879
 20
12.796178026
 30
0.0
 10
22.3528876899
 20
12.7679267195
 30
0.0
 10
22.3934081557
 20
12.7298032993
 30
0.0
 10
22.4141904165
 20
12.6968845997
 30
0.0
  0
SPLINE
  5
2FD
100
AcDbEntity
  8
0
100
AcDbSpline
 62
7
  6
BYLAYER
 70
0
 71
3
 72
9
 73
5
 74
0
 42
0.0000001
 43
0.0000001
 44
0.0000000001
 40
0.0
 40
0.0
 40
0.0
 40
0.0
 40
0.2563480457
 40
1.0
 40
1.0
 40
1.0
 40
1.0
 10
22.4141904165
 20
12.6968845997
 30
0.0
 10
22.4161178055
 20
12.6938316528
 30
0.0
 10
22.423345414
 20
12.6817424333
 30
0.0
 10
22.4293645705
 20
12.6689196821
 30
0.0
 10
22.4329974951
 20
12.65909622
 30
0.0
  0
SPLINE
  5
2FE
100
AcDbEntity
  8
0
100
AcDbSpline
 62
7
  6
BYLAYER
 70
0
 71
3
 72
9
 73
5
 74
0
 42
0.0000001
 43
0.0000001
 44
0.0000000001
 40
0.0
 40
0.0
 40
0.0
 40
0.0
 40
0.5053477453
 40
1.0
 40
1.0
 40
1.0
 40
1.0
 10
22.4329974951
 20
12.65909622
 30
0.0
 10
22.4365209285
 20
12.6495688231
 30
0.0
 10
22.441955667
 20
12.6300995174
 30
0.0
 10
22.443815697
 20
12.6099564739
 30
0.0
 10
22.4438108727
 20
12.6000134214
 30
0.0
  0
SPLINE
  5
2FF
100
AcDbEntity
  8
0
100
AcDbSpline
 62
7
  6
BYLAYER
 70
0
 71
3
 72
28
 73
24
 74
0
 42
0.0000001
 43
0.0000001
 44
0.0000000001
 40
0.0
 40
0.0
 40
0.0
 40
0.0
 40
0.0487970121
 40
0.0721473894
 40
0.0950124644
 40
0.1176168897
 40
0.1401964989
 40
0.1629834311
 40
0.1861991113
 40
0.2100454519
 40
0.2346960229
 40
0.2602941586
 40
0.2869461808
 40
0.3436411285
 40
0.4050820295
 40
0.471110993
 40
0.5412574524
 40
0.614814893
 40
0.690904842
 40
0.7685357557
 40
0.8466383002
 40
0.9241568782
 40
1.0
 40
1.0
 40
1.0
 40
1.0
 10
13.669791801
 20
39.4987170625
 30
0.0
 10
13.5954470332
 20
39.3877146887
 30
0.0
 10
13.5008012023
 20
39.2120510186
 30
0.0
 10
13.4186372031
 20
38.9647421022
 30
0.0
 10
13.3809463741
 20
38.7796301625
 30
0.0
 10
13.3665663804
 20
38.5933959849
 30
0.0
 10
13.3756367284
 20
38.4070339521
 30
0.0
 10
13.4080028021
 20
38.2215974608
 30
0.0
 10
13.4635322603
 20
38.0381326519
 30
0.0
 10
13.5418378936
 20
37.8576382992
 30
0.0
 10
13.6424169806
 20
37.6810407656
 30
0.0
 10
13.7647480253
 20
37.5092701045
 30
0.0
 10
13.9598441712
 20
37.2831663113
 30
0.0
 10
14.2572111526
 20
37.0182335405
 30
0.0
 10
14.679249628
 20
36.7397767012
 30
0.0
 10
15.1652935439
 20
36.4993244556
 30
0.0
 10
15.7054560966
 20
36.3015970239
 30
0.0
 10
16.2888396383
 20
36.1504845038
 30
0.0
 10
16.9035692068
 20
36.0490335214
 30
0.0
 10
17.5370609828
 20
35.9993253715
 30
0.0
 10
18.1764067125
 20
36.002320545
 30
0.0
 10
18.8083742652
 20
36.0580354787
 30
0.0
 10
19.2225898335
 20
36.1306342388
 30
0.0
 10
19.4252479797
 20
36.1758780611
 30
0.0
  0
SPLINE
  5
300
100
AcDbEntity
  8
0
100
AcDbSpline
 62
7
  6
BYLAYER
 70
0
 71
3
 72
15
 73
11
 74
0
 42
0.0000001
 43
0.0000001
 44
0.0000000001
 40
0.0
 40
0.0
 40
0.0
 40
0.0
 40
0.1485549137
 40
0.2895091895
 40
0.4227323787
 40
0.5486396955
 40
0.6680004026
 40
0.78193924
 40
0.8919880822
 40
1.0
 40
1.0
 40
1.0
 40
1.0
 10
22.0629651482
 20
28.3250944281
 30
0.0
 10
22.198257707
 20
28.403205157
 30
0.0
 10
22.455787132
 20
28.5664693266
 30
0.0
 10
22.8079162175
 20
28.8389621426
 30
0.0
 10
23.1124762519
 20
29.1304972017
 30
0.0
 10
23.3664140821
 20
29.4383188323
 30
0.0
 10
23.5672003961
 20
29.7597041727
 30
0.0
 10
23.7125194431
 20
30.0917896138
 30
0.0
 10
23.8005899954
 20
30.4311729916
 30
0.0
 10
23.8202906602
 20
30.6609523064
 30
0.0
 10
23.8202906591
 20
30.7745389552
 30
0.0
  0
SPLINE
  5
301
100
AcDbEntity
  8
0
100
AcDbSpline
 62
7
  6
BYLAYER
 70
0
 71
3
 72
21
 73
17
 74
0
 42
0.0000001
 43
0.0000001
 44
0.0000000001
 40
0.0
 40
0.0
 40
0.0
 40
0.0
 40
0.0558272882
 40
0.1141947241
 40
0.1748056841
 40
0.2373778504
 40
0.3015810904
 40
0.3670329304
 40
0.5000005202
 40
0.6329680376
 40
0.6984197885
 40
0.7626229061
 40
0.8251949196
 40
0.8858056995
 40
0.9441729323
 40
1.0
 40
1.0
 40
1.0
 40
1.0
 10
13.5776837741
 20
28.325074032
 30
0.0
 10
13.7197853119
 20
28.2430335268
 30
0.0
 10
14.0178635088
 20
28.0878126911
 30
0.0
 10
14.4908503431
 20
27.8860746617
 30
0.0
 10
14.995734018
 20
27.712060661
 30
0.0
 10
15.5275338482
 20
27.5673903415
 30
0.0
 10
16.081266544
 20
27.4533873747
 30
0.0
 10
16.8456372988
 20
27.3432419211
 30
0.0
 10
17.8203316156
 20
27.2885505899
 30
0.0
 10
18.7950254157
 20
27.3432465617
 30
0.0
 10
19.5593947974
 20
27.4533957083
 30
0.0
 10
20.1131258555
 20
27.567401329
 30
0.0
 10
20.6449236083
 20
27.7120741977
 30
0.0
 10
21.1498047861
 20
27.8860906199
 30
0.0
 10
21.6227887277
 20
28.08783092
 30
0.0
 10
21.9208647633
 20
28.2430532223
 30
0.0
 10
22.0629651482
 20
28.3250944281
 30
0.0
  0
SPLINE
  5
302
100
AcDbEntity
  8
0
100
AcDbSpline
 62
7
  6
BYLAYER
 70
0
 71
3
 72
16
 73
12
 74
0
 42
0.0000001
 43
0.0000001
 44
0.0000000001
 40
0.0
 40
0.0
 40
0.0
 40
0.0
 40
0.125781408
 40
0.2552500125
 40
0.3864287281
 40
0.5173159605
 40
0.645893823
 40
0.7702570895
 40
0.8887382579
 40
0.9453656663
 40
1.0
 40
1.0
 40
1.0
 40
1.0
 10
20.0348327906
 20
28.6387207976
 30
0.0
 10
19.7880174875
 20
28.57242719
 30
0.0
 10
19.2800506341
 20
28.4632562514
 30
0.0
 10
18.4995087702
 20
28.3695721711
 30
0.0
 10
17.7033258378
 20
28.3449697763
 30
0.0
 10
16.9098680115
 20
28.3899496057
 30
0.0
 10
16.1372100978
 20
28.50355855
 30
0.0
 10
15.403057102
 20
28.6831286326
 30
0.0
 10
14.828521959
 20
28.8874980935
 30
0.0
 10
14.4037849719
 20
29.081675397
 30
0.0
 10
14.2041465109
 20
29.1881317291
 30
0.0
 10
14.108011652
 20
29.2436339602
 30
0.0
  0
SPLINE
  5
303
100
AcDbEntity
  8
0
100
AcDbSpline
 62
7
  6
BYLAYER
 70
0
 71
3
 72
15
 73
11
 74
0
 42
0.0000001
 43
0.0000001
 44
0.0000000001
 40
0.0
 40
0.0
 40
0.0
 40
0.0
 40
0.1485549384
 40
0.289508947
 40
0.4227318865
 40
0.5486390553
 40
0.6679995238
 40
0.7819375601
 40
0.8919861826
 40
1.0
 40
1.0
 40
1.0
 40
1.0
 10
14.108011652
 20
29.2436339602
 30
0.0
 10
13.9896286289
 20
29.3119808842
 30
0.0
 10
13.7642866003
 20
29.4548370689
 30
0.0
 10
13.4561684287
 20
29.6932689492
 30
0.0
 10
13.1896732533
 20
29.9483627368
 30
0.0
 10
12.9674737595
 20
30.2177085754
 30
0.0
 10
12.791782587
 20
30.4989224194
 30
0.0
 10
12.6646230628
 20
30.7894978344
 30
0.0
 10
12.5875575466
 20
31.0864628338
 30
0.0
 10
12.5703252413
 20
31.2875244248
 30
0.0
 10
12.5703257721
 20
31.386915768
 30
0.0
  0
SPLINE
  5
304
100
AcDbEntity
  8
0
100
AcDbSpline
 62
7
  6
BYLAYER
 70
0
 71
3
 72
15
 73
11
 74
0
 42
0.0000001
 43
0.0000001
 44
0.0000000001
 40
0.0
 40
0.0
 40
0.0
 40
0.0
 40
0.1485649165
 40
0.2895095202
 40
0.422728806
 40
0.5486399056
 40
0.6680022243
 40
0.7819386085
 40
0.8919862922
 40
1.0
 40
1.0
 40
1.0
 40
1.0
 10
22.310453552
 20
8.6678023946
 30
0.0
 10
22.4536478261
 20
8.7504751538
 30
0.0
 10
22.7262059335
 20
8.9232550024
 30
0.0
 10
23.0988618697
 20
9.2116545763
 30
0.0
 10
23.4211861392
 20
9.5201820534
 30
0.0
 10
23.6899294141
 20
9.8459678453
 30
0.0
 10
23.9024459626
 20
10.1860934883
 30
0.0
 10
24.0562303446
 20
10.537554539
 30
0.0
 10
24.1494292887
 20
10.8967345685
 30
0.0
 10
24.1702877218
 20
11.1399166903
 30
0.0
 10
24.1702955062
 20
11.2601312259
 30
0.0
  0
SPLINE
  5
305
100
AcDbEntity
  8
0
100
AcDbSpline
 62
7
  6
BYLAYER
 70
0
 71
3
 72
23
 73
19
 74
0
 42
0.0000001
 43
0.0000001
 44
0.0000000001
 40
0.0
 40
0.0
 40
0.0
 40
0.0
 40
0.0573799341
 40
0.1177017681
 40
0.1805702912
 40
0.2455835357
 40
0.3122496479
 40
0.380029691
 40
0.4483610484
 40
0.5166636842
 40
0.5843577678
 40
0.6508795757
 40
0.7156982016
 40
0.7783282663
 40
0.838350568
 40
0.8954323149
 40
0.9493457584
 40
1.0
 40
1.0
 40
1.0
 40
1.0
 10
21.7094102857
 20
9.0148070359
 30
0.0
 10
21.5589353608
 20
8.9279308161
 30
0.0
 10
21.2411854554
 20
8.7651392243
 30
0.0
 10
20.7340925995
 20
8.5590344724
 30
0.0
 10
20.1901178768
 20
8.3871731383
 30
0.0
 10
19.6162719001
 20
8.251713165
 30
0.0
 10
19.0197174026
 20
8.1542819912
 30
0.0
 10
18.4079888796
 20
8.0961610387
 30
0.0
 10
17.7888248381
 20
8.0780882923
 30
0.0
 10
17.1700535994
 20
8.1002471233
 30
0.0
 10
16.5595078524
 20
8.1623989598
 30
0.0
 10
15.9649108575
 20
8.263756737
 30
0.0
 10
15.3937633531
 20
8.4030054492
 30
0.0
 10
14.8532703969
 20
8.578446713
 30
0.0
 10
14.3502298915
 20
8.7878728325
 30
0.0
 10
13.8909072935
 20
9.0287010248
 30
0.0
 10
13.4811605366
 20
9.2979890384
 30
0.0
 10
13.2367662191
 20
9.50072586
 30
0.0
 10
13.1253509582
 20
9.6061498587
 30
0.0
  0
SPLINE
  5
306
100
AcDbEntity
  8
0
100
AcDbSpline
 62
7
  6
BYLAYER
 70
0
 71
3
 72
21
 73
17
 74
0
 42
0.0000001
 43
0.0000001
 44
0.0000000001
 40
0.0
 40
0.0
 40
0.0
 40
0.0
 40
0.0563157261
 40
0.1149784419
 40
0.1757275811
 40
0.2383008264
 40
0.3675544477
 40
0.4999167537
 40
0.5663213729
 40
0.6323345921
 40
0.6975697123
 40
0.7616559658
 40
0.8242421711
 40
0.8850088422
 40
0.9436730706
 40
1.0
 40
1.0
 40
1.0
 40
1.0
 10
22.1729724433
 20
7.8151171883
 30
0.0
 10
22.0243079088
 20
7.7343267185
 30
0.0
 10
21.7140205888
 20
7.5815841594
 30
0.0
 10
21.2243243179
 20
7.3831730544
 30
0.0
 10
20.7045389618
 20
7.2122323371
 30
0.0
 10
19.9697555256
 20
7.0209539113
 30
0.0
 10
19.0066173532
 20
6.8610169771
 30
0.0
 10
18.0204862532
 20
6.8075774221
 30
0.0
 10
17.2249250681
 20
6.8290408554
 30
0.0
 10
16.6327477474
 20
6.877491213
 30
0.0
 10
16.0510912834
 20
6.9578690633
 30
0.0
 10
15.4850660193
 20
7.0694057542
 30
0.0
 10
14.939690376
 20
7.2111901562
 30
0.0
 10
14.4197451004
 20
7.3819143747
 30
0.0
 10
13.9298638487
 20
7.5801163606
 30
0.0
 10
13.6194584414
 20
7.7327052108
 30
0.0
 10
13.4707262327
 20
7.8134416059
 30
0.0
  0
SPLINE
  5
307
100
AcDbEntity
  8
0
100
AcDbSpline
 62
7
  6
BYLAYER
 70
0
 71
3
 72
12
 73
8
 74
0
 42
0.0000001
 43
0.0000001
 44
0.0000000001
 40
0.0
 40
0.0
 40
0.0
 40
0.0
 40
0.267044761
 40
0.52006146
 40
0.762633423
 40
0.8816602653
 40
1.0
 40
1.0
 40
1.0
 40
1.0
 10
22.5804066046
 20
36.6404190885
 30
0.0
 10
22.6583177856
 20
36.737107919
 30
0.0
 10
22.7975988968
 20
36.9360527451
 30
0.0
 10
22.9539826128
 20
37.2560012217
 30
0.0
 10
23.0336643485
 20
37.5322489691
 30
0.0
 10
23.0650730043
 20
37.7534585265
 30
0.0
 10
23.0702881226
 20
37.8639084718
 30
0.0
 10
23.0702884865
 20
37.918935109
 30
0.0
  0
SPLINE
  5
308
100
AcDbEntity
  8
0
100
AcDbSpline
 62
7
  6
BYLAYER
 70
0
 71
3
 72
15
 73
11
 74
0
 42
0.0000001
 43
0.0000001
 44
0.0000000001
 40
0.0
 40
0.0
 40
0.0
 40
0.0
 40
0.1424358135
 40
0.2807433474
 40
0.41424314
 40
0.5425265025
 40
0.665321779
 40
0.7824945613
 40
0.8940291178
 40
1.0
 40
1.0
 40
1.0
 40
1.0
 10
20.0348327906
 20
28.6387207976
 30
0.0
 10
20.1717185526
 20
28.6754877681
 30
0.0
 10
20.4395425869
 20
28.7556207882
 30
0.0
 10
20.8268735114
 20
28.8974121226
 30
0.0
 10
21.1913895183
 20
29.0582645253
 30
0.0
 10
21.5302485255
 20
29.2368255747
 30
0.0
 10
21.8409310971
 20
29.4318523561
 30
0.0
 10
22.1211800283
 20
29.6419023551
 30
0.0
 10
22.3686761882
 20
29.865454748
 30
0.0
 10
22.5142420062
 20
30.0262886469
 30
0.0
 10
22.5804066046
 20
30.1083997515
 30
0.0
  0
SPLINE
  5
309
100
AcDbEntity
  8
0
100
AcDbSpline
 62
7
  6
BYLAYER
 70
0
 71
3
 72
9
 73
5
 74
0
 42
0.0000001
 43
0.0000001
 44
0.0000000001
 40
0.0
 40
0.0
 40
0.0
 40
0.0
 40
0.4949176288
 40
1.0
 40
1.0
 40
1.0
 40
1.0
 10
21.4638277832
 20
12.6000133488
 30
0.0
 10
21.4638324962
 20
12.6097270099
 30
0.0
 10
21.46561404
 20
12.6293904544
 30
0.0
 10
21.4707877741
 20
12.6484318003
 30
0.0
 10
21.4741501356
 20
12.6577573213
 30
0.0
  0
SPLINE
  5
30A
100
AcDbEntity
  8
0
100
AcDbSpline
 62
7
  6
BYLAYER
 70
0
 71
3
 72
9
 73
5
 74
0
 42
0.0000001
 43
0.0000001
 44
0.0000000001
 40
0.0
 40
0.0
 40
0.0
 40
0.0
 40
0.2469764975
 40
1.0
 40
1.0
 40
1.0
 40
1.0
 10
21.4741501356
 20
12.6577573213
 30
0.0
 10
21.4748201179
 20
12.6596155193
 30
0.0
 10
21.477653506
 20
12.667095401
 30
0.0
 10
21.4809639389
 20
12.6743933874
 30
0.0
 10
21.4836945598
 20
12.6797613879
 30
0.0
  0
SPLINE
  5
30B
100
AcDbEntity
  8
0
100
AcDbSpline
 62
7
  6
BYLAYER
 70
0
 71
3
 72
10
 73
6
 74
0
 42
0.0000001
 43
0.0000001
 44
0.0000000001
 40
0.0
 40
0.0
 40
0.0
 40
0.0
 40
0.4554373507
 40
0.7171546255
 40
1.0
 40
1.0
 40
1.0
 40
1.0
 10
21.4836945598
 20
12.6797613879
 30
0.0
 10
21.4993954144
 20
12.7106269674
 30
0.0
 10
21.5366522338
 20
12.7530021559
 30
0.0
 10
21.5988998647
 20
12.7966790223
 30
0.0
 10
21.635861447
 20
12.8157393594
 30
0.0
 10
21.6555246093
 20
12.8244504142
 30
0.0
  0
SPLINE
  5
30C
100
AcDbEntity
  8
0
100
AcDbSpline
 62
7
  6
BYLAYER
 70
0
 71
3
 72
15
 73
11
 74
0
 42
0.0000001
 43
0.0000001
 44
0.0000000001
 40
0.0
 40
0.0
 40
0.0
 40
0.0
 40
0.1080116731
 40
0.218060308
 40
0.331999006
 40
0.4513596619
 40
0.577267021
 40
0.7104903405
 40
0.8514448227
 40
1.0
 40
1.0
 40
1.0
 40
1.0
 10
11.8203229356
 20
30.7745389552
 30
0.0
 10
11.8203229367
 20
30.6609510972
 30
0.0
 10
11.8400240242
 20
30.4311692822
 30
0.0
 10
11.9280964736
 20
30.0917823347
 30
0.0
 10
12.0734185984
 20
29.7596935645
 30
0.0
 10
12.274209115
 20
29.4383052458
 30
0.0
 10
12.5281521572
 20
29.1304810566
 30
0.0
 10
12.8327183224
 20
28.8389439427
 30
0.0
 10
13.1848543316
 20
28.5664496409
 30
0.0
 10
13.4423886652
 20
28.4031849324
 30
0.0
 10
13.5776837741
 20
28.325074032
 30
0.0
  0
SPLINE
  5
30D
100
AcDbEntity
  8
0
100
AcDbSpline
 62
7
  6
BYLAYER
 70
0
 71
3
 72
31
 73
27
 74
0
 42
0.0000001
 43
0.0000001
 44
0.0000000001
 40
0.0
 40
0.0
 40
0.0
 40
0.0
 40
0.0213240448
 40
0.0428744847
 40
0.0648664531
 40
0.0874925756
 40
0.110917866
 40
0.1352738821
 40
0.1606597997
 40
0.1871418826
 40
0.2147566133
 40
0.2435135575
 40
0.3043430571
 40
0.3693067549
 40
0.4377853856
 40
0.5089702284
 40
0.5819213535
 40
0.6556189861
 40
0.7290104646
 40
0.8010573063
 40
0.8362762907
 40
0.8707977373
 40
0.904517612
 40
0.9373490073
 40
0.9692074519
 40
1.0
 40
1.0
 40
1.0
 40
1.0
 10
9.8703068236
 20
15.5467688757
 30
0.0
 10
9.8703075445
 20
15.4344452131
 30
0.0
 10
9.884767324
 20
15.2083500319
 30
0.0
 10
9.9494307113
 20
14.8719877663
 30
0.0
 10
10.0567835247
 20
14.5395082639
 30
0.0
 10
10.2059916905
 20
14.2127964779
 30
0.0
 10
10.3962200586
 20
13.8936353956
 30
0.0
 10
10.6262602041
 20
13.5836602122
 30
0.0
 10
10.8948602427
 20
13.2845092915
 30
0.0
 10
11.2004994857
 20
12.9976965806
 30
0.0
 10
11.5415458821
 20
12.7247011648
 30
0.0
 10
12.0505233441
 20
12.3745267128
 30
0.0
 10
12.7666611454
 20
11.9824630704
 30
0.0
 10
13.7165043365
 20
11.5966518667
 30
0.0
 10
14.7529882936
 20
11.2945997799
 30
0.0
 10
15.8542264299
 20
11.0826313708
 30
0.0
 10
16.9970496701
 20
10.9651652465
 30
0.0
 10
18.1573079435
 20
10.9446887544
 30
0.0
 10
19.3103786674
 20
11.0216262684
 30
0.0
 10
20.2522540907
 20
11.1666668101
 30
0.0
 10
20.9810891535
 20
11.3307993056
 30
0.0
 10
21.5067176563
 20
11.4755404113
 30
0.0
 10
22.0126182088
 20
11.6421211402
 30
0.0
 10
22.4961511176
 20
11.8296418539
 30
0.0
 10
22.954590007
 20
12.0371170101
 30
0.0
 10
23.2470090865
 20
12.1906040233
 30
0.0
 10
23.3881372437
 20
12.2705493357
 30
0.0
  0
SPLINE
  5
30E
100
AcDbEntity
  8
0
100
AcDbSpline
 62
7
  6
BYLAYER
 70
0
 71
3
 72
15
 73
11
 74
0
 42
0.0000001
 43
0.0000001
 44
0.0000000001
 40
0.0
 40
0.0
 40
0.0
 40
0.0
 40
0.1485649165
 40
0.2895095202
 40
0.422728806
 40
0.5486399056
 40
0.6680022243
 40
0.7819386085
 40
0.8919862922
 40
1.0
 40
1.0
 40
1.0
 40
1.0
 10
22.310453552
 20
6.7490217143
 30
0.0
 10
22.4536478261
 20
6.8316944735
 30
0.0
 10
22.7262059335
 20
7.0044743222
 30
0.0
 10
23.0988618697
 20
7.292873896
 30
0.0
 10
23.4211861392
 20
7.6014013732
 30
0.0
 10
23.6899294141
 20
7.9271871651
 30
0.0
 10
23.9024459626
 20
8.267312808
 30
0.0
 10
24.0562303446
 20
8.6187738588
 30
0.0
 10
24.1494292887
 20
8.9779538882
 30
0.0
 10
24.1702877218
 20
9.2211360101
 30
0.0
 10
24.1702955062
 20
9.3413505456
 30
0.0
  0
LINE
  5
30F
100
AcDbEntity
  8
0
100
AcDbLine
 62
7
  6
BYLAYER
 10
23.3004070956
 20
12.546203553
 11
23.2480659666
 21
12.5162704782
  0
ENDSEC
  0
SECTION
  2
OBJECTS
  0
DICTIONARY
  5
C
100
AcDbDictionary
280
0
281
1
  3
ACAD_GROUP
350
D
  3
ACAD_MLINESTYLE
350
17
  3
ACAD_LAYOUT
350
1A
  3
ACAD_PLOTSETTINGS
350
19
  3
ACAD_PLOTSTYLENAME
350
E
  0
DICTIONARY
  5
D
102
{ACAD_REACTORS
330
C
102
}
100
AcDbDictionary
280
0
281
1
  0
ACDBDICTIONARYWDFLT
  5
E
102
{ACAD_REACTORS
330
C
102
}
100
AcDbDictionary
281
1
  3
Normal
350
F
100
AcDbDictionaryWithDefault
340
F
  0
DICTIONARY
  5
17
102
{ACAD_REACTORS
330
C
102
}
100
AcDbDictionary
280
0
281
1
  3
Standard
350
18
  0
DICTIONARY
  5
19
102
{ACAD_REACTORS
330
C
102
}
100
AcDbDictionary
281
1
  0
DICTIONARY
  5
1A
102
{ACAD_REACTORS
330
C
102
}
100
AcDbDictionary
281
1
  3
Model
350
310
  3
Layout1
350
311
  0
ACDBPLACEHOLDER
  5
F
102
{ACAD_REACTORS
330
E
102
}
  0
MLINESTYLE
  5
18
102
{ACAD_REACTORS
330
17
102
}
100
AcDbMlineStyle
  2
STANDARD
 70
0
  3

 62
256
 51
90.0
 52
90.0
 71
2
 49
0.5
 62
256
  6
BYLAYER
 49
-0.5
 62
256
  6
BYLAYER
  0
LAYOUT
  5
310
102
{ACAD_REACTORS
330
1A
102
}
100
AcDbPlotSettings
  1

  2
none_device
  4

  6

 40
0.0
 41
0.0
 42
0.0
 43
0.0
 44
210.0
 45
297.0
 46
0.0
 47
0.0
 48
0.0
 49
0.0
140
0.0
141
0.0
142
1.0
143
1.0
 70
1024
 72
1
 73
0
 74
0
  7

 75
0
147
1.0
148
0.0
149
0.0
100
AcDbLayout
  1
Model
 70
0
 71
0
 10
0.0
 20
0.0
 11
210.0
 21
297.0
 12
0.0
 22
0.0
 32
0.0
 14
0.0
 24
0.0
 34
0.0
 15
0.0
 25
0.0
 35
0.0
146
0.0
 13
0.0
 23
0.0
 33
0.0
 16
1.0
 26
0.0
 36
0.0
 17
0.0
 27
1.0
 37
0.0
 76
0
330
210
345
0
346
0
  0
LAYOUT
  5
311
102
{ACAD_REACTORS
330
1A
102
}
100
AcDbPlotSettings
  1

  2
none_device
  4

  6

 40
0.0
 41
0.0
 42
0.0
 43
0.0
 44
210.0
 45
297.0
 46
0.0
 47
0.0
 48
0.0
 49
0.0
140
0.0
141
0.0
142
1.0
143
1.0
 70
0
 72
1
 73
0
 74
0
  7

 75
0
147
1.0
148
0.0
149
0.0
100
AcDbLayout
  1
Layout1
 70
0
 71
1
 10
0.0
 20
0.0
 11
210.0
 21
297.0
 12
0.0
 22
0.0
 32
0.0
 14
0.0
 24
0.0
 34
0.0
 15
0.0
 25
0.0
 35
0.0
146
0.0
 13
0.0
 23
0.0
 33
0.0
 16
1.0
 26
0.0
 36
0.0
 17
0.0
 27
1.0
 37
0.0
 76
0
330
211
345
0
346
0
  0
ENDSEC
  0
EOF
