999
DXF file: C:\Users\sesa63760\Dev\_Creo\CAD\MCADID0004748_3D-CAD\drw0001_1.dxf
999
Pro/ENGINEER 2019471 by Parametric Technology Corporation
  0
SECTION
  2
HEADER
  9
$ACADVER
  1
AC1024
  9
$DWGCODEPAGE
  3
ANSI_1252
  9
$EXTMAX
 10
41.8335937639
 20
59.1646540375
 30
0.0
  9
$EXTMIN
 10
0.0
 20
0.0
 30
0.0
  9
$LIMMIN
 10
0.0
 20
0.0
  9
$LIMMAX
 10
41.8335937639
 20
59.1646540375
  9
$VIEWCTR
 10
20.9167968819
 20
29.5823270187
  9
$VIEWSIZE
 40
59.1646540375
  9
$CLAYER
  8
0
  9
$LTSCALE
 40
3.8566589298
  9
$CELTYPE
  6
BYLAYER
  9
$DIMSCALE
 40
1.0
  9
$DIMASZ
 40
0.4980189734
  9
$DIMEXO
 40
1.0
  9
$DIMDLI
 40
2.6646007152
  9
$DIMEXE
 40
1.0
  9
$DIMCEN
 40
0.6310896431
  9
$DIMLFAC
 40
1.0
  9
$DIMBLK
  1
_FILLED
  9
$DIMALT
 70
0
  9
$DIMALTF
 40
0.0393700787
  9
$DIMTXT
 40
0.6972265627
  9
$DIMTOL
 70
1
  9
$DIMLIM
 70
0
  9
$DIMTFAC
 40
1.0
  9
$DIMTP
 40
0.01
  9
$DIMTM
 40
0.01
  9
$DIMGAP
 40
0.625
  9
$DIMDSEP
 70
46
  9
$AUNITS
 70
0
  9
$PDMODE
 70
3
  9
$PDSIZE
 40
0.3125
  9
$HANDSEED
  5
34D
  9
$TILEMODE
 70
1
  9
$MEASUREMENT
 70
1
  9
$INSUNITS
 70
4
  0
ENDSEC
  0
SECTION
  2
CLASSES
  0
CLASS
  1
ACDBDICTIONARYWDFLT
  2
AcDbDictionaryWithDefault
  3
AutoCAD 2000
 90
0
 91
1
280
0
281
0
  0
CLASS
  1
ACDBPLACEHOLDER
  2
AcDbPlaceHolder
  3
AutoCAD 2000
 90
0
 91
1
280
0
281
0
  0
CLASS
  1
LAYOUT
  2
AcDbLayout
  3
AutoCAD 2000
 90
0
 91
0
280
0
281
0
  0
ENDSEC
  0
SECTION
  2
TABLES
  0
TABLE
  2
VPORT
  5
8
100
AcDbSymbolTable
 70
2
  0
VPORT
  5
1F4
100
AcDbSymbolTableRecord
100
AcDbViewportTableRecord
  2
*ACTIVE
 70
0
 10
0.0
 20
0.0
 11
1.0
 21
1.0
 12
20.9167968819
 22
29.5823270187
 13
0.0
 23
0.0
 14
1.0
 24
1.0
 15
0.0
 25
0.0
 16
0.0
 26
0.0
 36
1.0
 17
0.0
 27
0.0
 37
0.0
 40
59.1646540375
 41
0.7070707071
 42
50.0
 43
0.0
 44
0.0
 50
0.0
 51
0.0
 71
0
 72
100
 73
1
 74
1
 75
0
 76
0
 77
0
 78
0
  0
ENDTAB
  0
TABLE
  2
LTYPE
  5
5
100
AcDbSymbolTable
 70
6
  0
LTYPE
  5
14
100
AcDbSymbolTableRecord
100
AcDbLinetypeTableRecord
  2
BYBLOCK
 70
0
  3

 72
65
 73
0
 40
0.0
  0
LTYPE
  5
15
100
AcDbSymbolTableRecord
100
AcDbLinetypeTableRecord
  2
BYLAYER
 70
0
  3

 72
65
 73
0
 40
0.0
  0
LTYPE
  5
16
100
AcDbSymbolTableRecord
100
AcDbLinetypeTableRecord
  2
CONTINUOUS
 70
64
  3
Solid line
 72
65
 73
0
 40
0.0
  0
LTYPE
  5
1F5
100
AcDbSymbolTableRecord
100
AcDbLinetypeTableRecord
  2
CENTER
 70
64
  3
____ _ ____ _ ____ _ ____ _ ____ _ ____ _ ____
 72
65
 73
4
 40
0.6
 49
0.375
 74
0
 49
-0.075
 74
0
 49
0.075
 74
0
 49
-0.075
 74
0
  0
LTYPE
  5
1F6
100
AcDbSymbolTableRecord
100
AcDbLinetypeTableRecord
  2
HIDDEN
 70
64
  3
- - - - - - - - - - - - - - - - - - - -
 72
65
 73
2
 40
0.2
 49
0.1
 74
0
 49
-0.1
 74
0
  0
LTYPE
  5
1F7
100
AcDbSymbolTableRecord
100
AcDbLinetypeTableRecord
  2
PHANTOM
 70
64
  3
_____ _ _ _____ _ _ _____ _ _ _____
 72
65
 73
6
 40
0.8
 49
0.45
 74
0
 49
-0.05
 74
0
 49
0.1
 74
0
 49
-0.05
 74
0
 49
0.1
 74
0
 49
-0.05
 74
0
  0
LTYPE
  5
1F8
100
AcDbSymbolTableRecord
100
AcDbLinetypeTableRecord
  2
DOT
 70
64
  3
. . . . . . . . . . . . . . . . . . . .
 72
65
 73
2
 40
0.2
 49
0.1
 74
0
 49
-0.1
 74
0
  0
LTYPE
  5
1F9
100
AcDbSymbolTableRecord
100
AcDbLinetypeTableRecord
  2
DASHED
 70
64
  3
- - - - - - - - - - - - - - - - - - - -
 72
65
 73
2
 40
0.2
 49
0.1
 74
0
 49
-0.1
 74
0
  0
ENDTAB
  0
TABLE
  2
LAYER
  5
2
100
AcDbSymbolTable
 70
36
  0
LAYER
  5
10
100
AcDbSymbolTableRecord
100
AcDbLayerTableRecord
  2
0
 70
0
 62
7
  6
CONTINUOUS
370
-3
390
F
  0
LAYER
  5
1FA
100
AcDbSymbolTableRecord
100
AcDbLayerTableRecord
  2
DEFAULT_1
 70
0
 62
7
  6
CENTER
370
-3
390
F
  0
LAYER
  5
1FB
100
AcDbSymbolTableRecord
100
AcDbLayerTableRecord
  2
DEFAULT_2
 70
0
 62
7
  6
HIDDEN
370
-3
390
F
  0
LAYER
  5
1FC
100
AcDbSymbolTableRecord
100
AcDbLayerTableRecord
  2
DEFAULT_3
 70
0
 62
7
  6
PHANTOM
370
-3
390
F
  0
LAYER
  5
1FD
100
AcDbSymbolTableRecord
100
AcDbLayerTableRecord
  2
00_COMPONENTS
 70
0
 62
7
  6
CONTINUOUS
370
-3
390
F
  0
LAYER
  5
1FE
100
AcDbSymbolTableRecord
100
AcDbLayerTableRecord
  2
01_1_DEFAULT_DATUMS
 70
0
 62
7
  6
CONTINUOUS
370
-3
390
F
  0
LAYER
  5
1FF
100
AcDbSymbolTableRecord
100
AcDbLayerTableRecord
  2
01_PLANES
 70
0
 62
7
  6
CONTINUOUS
370
-3
390
F
  0
LAYER
  5
200
100
AcDbSymbolTableRecord
100
AcDbLayerTableRecord
  2
02_COORD_SYS
 70
0
 62
7
  6
CONTINUOUS
370
-3
390
F
  0
LAYER
  5
201
100
AcDbSymbolTableRecord
100
AcDbLayerTableRecord
  2
03_AXES
 70
0
 62
7
  6
CONTINUOUS
370
-3
390
F
  0
LAYER
  5
202
100
AcDbSymbolTableRecord
100
AcDbLayerTableRecord
  2
04_POINTS
 70
0
 62
7
  6
CONTINUOUS
370
-3
390
F
  0
LAYER
  5
203
100
AcDbSymbolTableRecord
100
AcDbLayerTableRecord
  2
05_CURVES
 70
0
 62
7
  6
CONTINUOUS
370
-3
390
F
  0
LAYER
  5
204
100
AcDbSymbolTableRecord
100
AcDbLayerTableRecord
  2
06_SURFS
 70
0
 62
7
  6
CONTINUOUS
370
-3
390
F
  0
LAYER
  5
205
100
AcDbSymbolTableRecord
100
AcDbLayerTableRecord
  2
07_COSMETICS
 70
0
 62
7
  6
CONTINUOUS
370
-3
390
F
  0
LAYER
  5
206
100
AcDbSymbolTableRecord
100
AcDbLayerTableRecord
  2
10_NOTES
 70
0
 62
7
  6
CONTINUOUS
370
-3
390
F
  0
LAYER
  5
207
100
AcDbSymbolTableRecord
100
AcDbLayerTableRecord
  2
11_NOTES_PUB
 70
0
 62
7
  6
CONTINUOUS
370
-3
390
F
  0
LAYER
  5
208
100
AcDbSymbolTableRecord
100
AcDbLayerTableRecord
  2
13_REF_GTOL
 70
0
 62
7
  6
CONTINUOUS
370
-3
390
F
  0
LAYER
  5
209
100
AcDbSymbolTableRecord
100
AcDbLayerTableRecord
  2
16_MISC
 70
0
 62
7
  6
CONTINUOUS
370
-3
390
F
  0
LAYER
  5
20A
100
AcDbSymbolTableRecord
100
AcDbLayerTableRecord
  2
17_NO_PRINT
 70
0
 62
7
  6
CONTINUOUS
370
-3
390
F
  0
LAYER
  5
20B
100
AcDbSymbolTableRecord
100
AcDbLayerTableRecord
  2
18_DATUM_CAMS_JOINTS
 70
0
 62
7
  6
CONTINUOUS
370
-3
390
F
  0
LAYER
  5
20C
100
AcDbSymbolTableRecord
100
AcDbLayerTableRecord
  2
19_DATUM_FUNCTIONAL
 70
0
 62
7
  6
CONTINUOUS
370
-3
390
F
  0
LAYER
  5
20D
100
AcDbSymbolTableRecord
100
AcDbLayerTableRecord
  2
20_DATUM_KINEMATIC_SCHEME
 70
0
 62
7
  6
CONTINUOUS
370
-3
390
F
  0
ENDTAB
  0
TABLE
  2
STYLE
  5
3
100
AcDbSymbolTable
 70
1
  0
STYLE
  5
11
100
AcDbSymbolTableRecord
100
AcDbTextStyleTableRecord
  2
STANDARD
 70
0
 40
0.0
 41
1.0
 50
0.0
 71
0
 42
0.2
  3
ARIAL.TTF
  4

  0
STYLE
  5
20E
100
AcDbSymbolTableRecord
100
AcDbTextStyleTableRecord
  2
TEXTSTYLE_1
 70
0
 40
0.0
 41
0.8
 50
0.0
 71
0
 42
0.2
  3
gdt
  4

  0
ENDTAB
  0
TABLE
  2
VIEW
  5
6
100
AcDbSymbolTable
 70
0
  0
ENDTAB
  0
TABLE
  2
UCS
  5
7
100
AcDbSymbolTable
 70
0
  0
ENDTAB
  0
TABLE
  2
APPID
  5
9
100
AcDbSymbolTable
 70
1
  0
APPID
  5
20F
100
AcDbSymbolTableRecord
100
AcDbRegAppTableRecord
  2
ACAD
 70
0
  0
ENDTAB
  0
TABLE
  2
BLOCK_RECORD
  5
1
100
AcDbSymbolTable
 70
0
  0
BLOCK_RECORD
  5
210
100
AcDbSymbolTableRecord
100
AcDbBlockTableRecord
  2
*Model_Space
  0
BLOCK_RECORD
  5
211
100
AcDbSymbolTableRecord
100
AcDbBlockTableRecord
  2
*Paper_Space
  0
BLOCK_RECORD
  5
212
100
AcDbSymbolTableRecord
100
AcDbBlockTableRecord
  2
_FILLED
  0
ENDTAB
  0
TABLE
  2
DIMSTYLE
  5
A
100
AcDbSymbolTable
 70
1
100
AcDbDimStyleTable
 71
0
  0
DIMSTYLE
105
213
100
AcDbSymbolTableRecord
100
AcDbDimStyleTableRecord
  2
STANDARD
 70
0
  3

  4

 40
1.0
 41
0.4980189734
 42
1.0
 43
0.38
 44
1.0
 45
0.0
 46
0.0
 47
0.01
 48
0.01
140
0.6972265627
141
0.09
142
0.0
143
25.4
144
1.0
145
0.0
146
1.0
147
0.625
 71
1
 72
0
 73
0
 74
0
 75
0
 76
0
 77
1
 78
8
 79
2
170
0
171
1
172
0
173
0
174
0
175
0
176
0
177
0
178
0
270
2
179
2
271
2
272
2
273
2
274
2
275
0
280
0
281
0
282
0
283
1
284
8
285
0
286
0
287
3
288
0
340
11
278
46
341
212
342
212
343
212
344
212
  0
ENDTAB
  0
ENDSEC
  0
SECTION
  2
BLOCKS
  0
BLOCK
  5
20
100
AcDbEntity
  8
0
100
AcDbBlockBegin
  2
*Model_Space
 70
0
 10
0.0
 20
0.0
 30
0.0
  3
*Model_Space
  1

  0
ENDBLK
  5
21
100
AcDbEntity
  8
0
100
AcDbBlockEnd
  0
BLOCK
  5
1C
100
AcDbEntity
  8
0
100
AcDbBlockBegin
  2
*Paper_Space
 70
0
 10
0.0
 20
0.0
 30
0.0
  3
*Paper_Space
  1

  0
ENDBLK
  5
1D
100
AcDbEntity
  8
0
100
AcDbBlockEnd
  0
BLOCK
  5
214
100
AcDbEntity
  8
0
100
AcDbBlockBegin
  2
_FILLED
 70
64
 10
0.0
 20
0.0
  3
_FILLED
  1

  0
SOLID
  5
215
100
AcDbEntity
  8
0
  6
BYBLOCK
 62
0
100
AcDbTrace
 10
0.0
 20
0.0
 11
-1.0
 21
0.25
 12
-1.0
 22
-0.25
 13
-1.0
 23
-0.25
  0
ENDBLK
  5
216
100
AcDbEntity
  8
0
  6
BYBLOCK
 62
0
100
AcDbBlockEnd
  0
ENDSEC
  0
SECTION
  2
ENTITIES
  0
LWPOLYLINE
  5
217
100
AcDbEntity
  8
0
100
AcDbPolyline
 62
7
  6
BYLAYER
 90
10
 70
0
 10
7.1308385957
 20
50.6978304107
 10
5.9371189805
 20
49.6106754349
 10
5.116584609
 20
47.8298813955
 10
4.8531818117
 20
45.5514594099
 10
4.9386916196
 20
44.2798557342
 10
5.5349609198
 20
41.5895571987
 10
6.6548535743
 20
38.8726474149
 10
8.2171000064
 20
36.3242634488
 10
10.1068471116
 20
34.1332085958
 10
10.8128280685
 20
33.5658531752
  0
LINE
  5
218
100
AcDbEntity
  8
0
100
AcDbLine
 62
7
  6
BYLAYER
 10
11.0198931199
 20
52.9432019677
 11
7.1308220152
 21
50.6978591214
  0
LWPOLYLINE
  5
219
100
AcDbEntity
  8
0
100
AcDbPolyline
 62
7
  6
BYLAYER
 90
6
 70
0
 10
9.4062093192
 20
50.2801553401
 10
8.2516425411
 20
49.5927292124
 10
7.3404195604
 20
48.1581033282
 10
6.9435980407
 20
46.2096974538
 10
7.0932198849
 20
43.9048383185
 10
7.2885689118
 20
43.1979084506
  0
LINE
  5
21A
100
AcDbEntity
  8
0
100
AcDbLine
 62
7
  6
BYLAYER
 10
7.9327206659
 20
44.0017001053
 11
9.8772562183
 21
45.1243715284
  0
LWPOLYLINE
  5
21B
100
AcDbEntity
  8
0
100
AcDbPolyline
 62
7
  6
BYLAYER
 90
5
 70
0
 10
19.8288869094
 20
10.7421835744
 10
18.8059379766
 20
10.9351973422
 10
17.1130105414
 20
11.6487849329
 10
15.8872708067
 20
12.6267145736
 10
15.5117488036
 20
13.2963450295
  0
LWPOLYLINE
  5
21C
100
AcDbEntity
  8
0
100
AcDbPolyline
 62
7
  6
BYLAYER
 90
4
 70
0
 10
17.3714379143
 20
10.6912214671
 10
18.9769430653
 20
10.0175530797
 10
20.8618769216
 20
9.6631662129
 10
21.6978812887
 20
9.6631435776
  0
LINE
  5
21D
100
AcDbEntity
  8
0
100
AcDbLine
 62
7
  6
BYLAYER
 10
23.2758138344
 20
8.7521444071
 11
16.2047165829
 21
12.8345519523
  0
LINE
  5
21E
100
AcDbEntity
  8
0
100
AcDbLine
 62
7
  6
BYLAYER
 10
9.1287808218
 20
41.0144310714
 11
9.2590720755
 21
41.3330853712
  0
LINE
  5
21F
100
AcDbEntity
  8
0
100
AcDbLine
 62
7
  6
BYLAYER
 10
9.5802007413
 20
41.7197108099
 11
9.863042274
 21
41.8830084702
  0
LINE
  5
220
100
AcDbEntity
  8
0
100
AcDbLine
 62
7
  6
BYLAYER
 10
11.7883692837
 20
42.5448379103
 11
13.732904836
 21
43.6675093334
  0
LINE
  5
221
100
AcDbEntity
  8
0
100
AcDbLine
 62
7
  6
BYLAYER
 10
26.3163856525
 20
14.3452309168
 11
27.0234924337
 21
14.3452326165
  0
LINE
  5
222
100
AcDbEntity
  8
0
100
AcDbLine
 62
7
  6
BYLAYER
 10
18.6796006209
 20
14.1818175297
 11
16.2047165829
 21
15.6106601706
  0
LINE
  5
223
100
AcDbEntity
  8
0
100
AcDbLine
 62
7
  6
BYLAYER
 10
19.0331525395
 20
14.7941908152
 11
16.5582685015
 21
16.2230334561
  0
LINE
  5
224
100
AcDbEntity
  8
0
100
AcDbLine
 62
7
  6
BYLAYER
 10
11.5801917876
 20
38.2556040253
 11
11.8630333247
 21
38.4189016882
  0
LINE
  5
225
100
AcDbEntity
  8
0
100
AcDbLine
 62
7
  6
BYLAYER
 10
23.629365753
 20
14.2839447558
 11
23.2758138344
 21
14.4880738874
  0
LINE
  5
226
100
AcDbEntity
  8
0
100
AcDbLine
 62
7
  6
BYLAYER
 10
31.4075050184
 20
13.8551946308
 11
31.761059881
 21
13.6510742536
  0
LINE
  5
227
100
AcDbEntity
  8
0
100
AcDbLine
 62
7
  6
BYLAYER
 10
14.8371960721
 20
26.5635124307
 11
14.8939408255
 21
25.7168824915
  0
LINE
  5
228
100
AcDbEntity
  8
0
100
AcDbLine
 62
7
  6
BYLAYER
 10
14.9400832139
 20
26.5546338186
 11
14.842973837
 21
28.0035026739
  0
LINE
  5
229
100
AcDbEntity
  8
0
100
AcDbLine
 62
7
  6
BYLAYER
 10
15.7001638158
 20
27.1694438906
 11
15.7682575199
 21
26.1534879636
  0
LINE
  5
22A
100
AcDbEntity
  8
0
100
AcDbLine
 62
7
  6
BYLAYER
 10
15.8348578759
 20
26.9403727754
 11
15.894439867
 21
26.0514113393
  0
LINE
  5
22B
100
AcDbEntity
  8
0
100
AcDbLine
 62
7
  6
BYLAYER
 10
13.8615472806
 20
18.8766134015
 11
13.8615472806
 21
16.1005051833
  0
LINE
  5
22C
100
AcDbEntity
  8
0
100
AcDbLine
 62
7
  6
BYLAYER
 10
15.5115472806
 20
9.7317863297
 11
15.5115472806
 21
11.1207534238
  0
LINE
  5
22D
100
AcDbEntity
  8
0
100
AcDbLine
 62
7
  6
BYLAYER
 10
15.5115472806
 20
12.3445940645
 11
15.5115472806
 21
13.2835718442
  0
LINE
  5
22E
100
AcDbEntity
  8
0
100
AcDbLine
 62
7
  6
BYLAYER
 10
14.8939408255
 20
25.7168824915
 11
28.2063647345
 21
19.268694432
  0
LINE
  5
22F
100
AcDbEntity
  8
0
100
AcDbLine
 62
7
  6
BYLAYER
 10
28.2289508072
 20
20.0768986053
 11
27.1717070123
 21
20.5889996968
  0
LINE
  5
230
100
AcDbEntity
  8
0
100
AcDbLine
 62
7
  6
BYLAYER
 10
26.4668778157
 20
20.9304004244
 11
25.4096340209
 21
21.4425015159
  0
LINE
  5
231
100
AcDbEntity
  8
0
100
AcDbLine
 62
7
  6
BYLAYER
 10
24.7048048243
 20
21.7839022436
 11
18.361342055
 21
24.8565087925
  0
LINE
  5
232
100
AcDbEntity
  8
0
100
AcDbLine
 62
7
  6
BYLAYER
 10
17.6565128584
 20
25.1979095201
 11
16.5992690636
 21
25.7100106116
  0
LINE
  5
233
100
AcDbEntity
  8
0
100
AcDbLine
 62
7
  6
BYLAYER
 10
15.894439867
 20
26.0514113393
 11
14.8371960721
 21
26.5635124307
  0
LINE
  5
234
100
AcDbEntity
  8
0
100
AcDbLine
 62
7
  6
BYLAYER
 10
28.12038919
 20
20.1704402114
 11
27.2922148841
 21
20.5715860664
  0
LINE
  5
235
100
AcDbEntity
  8
0
100
AcDbLine
 62
7
  6
BYLAYER
 10
26.3406954687
 20
21.0324770487
 11
25.5301418926
 21
21.4250878855
  0
LINE
  5
236
100
AcDbEntity
  8
0
100
AcDbLine
 62
7
  6
BYLAYER
 10
24.5786224772
 20
21.8859788679
 11
23.7680689011
 21
22.2785897047
  0
LINE
  5
237
100
AcDbEntity
  8
0
100
AcDbLine
 62
7
  6
BYLAYER
 10
22.8165494858
 20
22.739480687
 11
20.2439229182
 21
23.9855933429
  0
LINE
  5
238
100
AcDbEntity
  8
0
100
AcDbLine
 62
7
  6
BYLAYER
 10
19.2924035028
 20
24.4464843253
 11
18.4818499268
 21
24.8390951621
  0
LINE
  5
239
100
AcDbEntity
  8
0
100
AcDbLine
 62
7
  6
BYLAYER
 10
17.5303305114
 20
25.2999861444
 11
16.7197769353
 21
25.6925969812
  0
LINE
  5
23A
100
AcDbEntity
  8
0
100
AcDbLine
 62
7
  6
BYLAYER
 10
15.7682575199
 20
26.1534879636
 11
14.9400832139
 21
26.5546338186
  0
LINE
  5
23B
100
AcDbEntity
  8
0
100
AcDbLine
 62
7
  6
BYLAYER
 10
20.1301861183
 20
22.8607298756
 11
22.7853616969
 21
21.360059491
  0
LINE
  5
23C
100
AcDbEntity
  8
0
100
AcDbLine
 62
7
  6
BYLAYER
 10
7.9680443962
 20
38.3984602341
 11
13.7857300421
 21
28.5156037654
  0
LINE
  5
23D
100
AcDbEntity
  8
0
100
AcDbLine
 62
7
  6
BYLAYER
 10
16.5992690636
 20
25.7100106116
 11
16.5396870725
 21
26.5989720478
  0
LINE
  5
23E
100
AcDbEntity
  8
0
100
AcDbLine
 62
7
  6
BYLAYER
 10
16.6516832312
 20
26.7085529083
 11
16.7197769353
 21
25.6925969812
  0
LINE
  5
23F
100
AcDbEntity
  8
0
100
AcDbLine
 62
7
  6
BYLAYER
 10
17.4622368073
 20
26.3159420715
 11
17.5303305114
 21
25.2999861444
  0
LINE
  5
240
100
AcDbEntity
  8
0
100
AcDbLine
 62
7
  6
BYLAYER
 10
17.5969308674
 20
26.0868709563
 11
17.6565128584
 21
25.1979095201
  0
LINE
  5
241
100
AcDbEntity
  8
0
100
AcDbLine
 62
7
  6
BYLAYER
 10
16.2047165829
 20
12.8345519523
 11
16.2047165829
 21
15.6106601706
  0
LINE
  5
242
100
AcDbEntity
  8
0
100
AcDbLine
 62
7
  6
BYLAYER
 10
27.1121250212
 20
21.477961133
 11
26.4072958247
 21
21.8193618606
  0
LINE
  5
243
100
AcDbEntity
  8
0
100
AcDbLine
 62
7
  6
BYLAYER
 10
25.3500520298
 20
22.3314629521
 11
24.6452228332
 21
22.6728636797
  0
LINE
  5
244
100
AcDbEntity
  8
0
100
AcDbLine
 62
7
  6
BYLAYER
 10
18.3017600639
 20
25.7454702286
 11
17.5969308674
 21
26.0868709563
  0
LINE
  5
245
100
AcDbEntity
  8
0
100
AcDbLine
 62
7
  6
BYLAYER
 10
16.5396870725
 20
26.5989720478
 11
15.8348578759
 21
26.9403727754
  0
LINE
  5
246
100
AcDbEntity
  8
0
100
AcDbLine
 62
7
  6
BYLAYER
 10
15.7001638158
 20
27.1694438906
 11
16.6516832312
 21
26.7085529083
  0
LINE
  5
247
100
AcDbEntity
  8
0
100
AcDbLine
 62
7
  6
BYLAYER
 10
17.4622368073
 20
26.3159420715
 11
18.4137562227
 21
25.8550510892
  0
LINE
  5
248
100
AcDbEntity
  8
0
100
AcDbLine
 62
7
  6
BYLAYER
 10
19.2243097987
 20
25.4624402523
 11
20.1758292141
 21
25.00154927
  0
LINE
  5
249
100
AcDbEntity
  8
0
100
AcDbLine
 62
7
  6
BYLAYER
 10
22.7484557817
 20
23.7554366141
 11
23.699975197
 21
23.2945456317
  0
LINE
  5
24A
100
AcDbEntity
  8
0
100
AcDbLine
 62
7
  6
BYLAYER
 10
24.5105287731
 20
22.9019347949
 11
25.4620481885
 21
22.4410438126
  0
LINE
  5
24B
100
AcDbEntity
  8
0
100
AcDbLine
 62
7
  6
BYLAYER
 10
26.2726017646
 20
22.0484329758
 11
27.22412118
 21
21.5875419935
  0
LINE
  5
24C
100
AcDbEntity
  8
0
100
AcDbLine
 62
7
  6
BYLAYER
 10
14.842973837
 20
28.0035026739
 11
13.7857300421
 21
28.5156037654
  0
LWPOLYLINE
  5
24D
100
AcDbEntity
  8
0
100
AcDbPolyline
 62
7
  6
BYLAYER
 90
10
 70
0
 10
9.5986698153
 20
35.6284176515
 10
8.6233305673
 20
36.7580854062
 10
7.200026647
 20
39.0779000205
 10
6.180267173
 20
41.5508330122
 10
5.6376327138
 20
44.0001101571
 10
5.5602087051
 20
45.156071839
 10
5.7994724119
 20
47.2237474704
 10
6.5434589702
 20
48.8404911479
 10
7.7380229201
 20
49.8911242791
 10
8.6687609693
 20
50.2219221101
  0
LINE
  5
24E
100
AcDbEntity
  8
0
100
AcDbLine
 62
7
  6
BYLAYER
 10
18.361342055
 20
24.8565087925
 11
18.3017600639
 21
25.7454702286
  0
LINE
  5
24F
100
AcDbEntity
  8
0
100
AcDbLine
 62
7
  6
BYLAYER
 10
18.4137562227
 20
25.8550510892
 11
18.4818499268
 21
24.8390951621
  0
LINE
  5
250
100
AcDbEntity
  8
0
100
AcDbLine
 62
7
  6
BYLAYER
 10
19.2243097987
 20
25.4624402523
 11
19.2924035028
 21
24.4464843253
  0
LINE
  5
251
100
AcDbEntity
  8
0
100
AcDbLine
 62
7
  6
BYLAYER
 10
18.3615472806
 20
23.9895380662
 11
18.3615472806
 21
19.0553903576
  0
LINE
  5
252
100
AcDbEntity
  8
0
100
AcDbLine
 62
7
  6
BYLAYER
 10
23.0675393107
 20
33.7399501911
 11
22.7275695687
 21
33.5436697407
  0
LINE
  5
253
100
AcDbEntity
  8
0
100
AcDbLine
 62
7
  6
BYLAYER
 10
22.673732252
 20
33.6042657023
 11
23.0675393107
 21
33.7399501911
  0
LINE
  5
254
100
AcDbEntity
  8
0
100
AcDbLine
 62
7
  6
BYLAYER
 10
20.1758292141
 20
25.00154927
 11
20.2439229182
 21
23.9855933429
  0
LINE
  5
255
100
AcDbEntity
  8
0
100
AcDbLine
 62
7
  6
BYLAYER
 10
20.2352390723
 20
18.2643438599
 11
20.2352420163
 21
15.0799931875
  0
LWPOLYLINE
  5
256
100
AcDbEntity
  8
0
100
AcDbPolyline
 62
7
  6
BYLAYER
 90
9
 70
0
 10
20.3431781772
 20
36.2273935582
 10
20.4084129731
 20
36.7916715178
 10
20.3229031652
 20
38.0632751935
 10
19.7266338649
 20
40.753573729
 10
18.6067412104
 20
43.4704835128
 10
17.0444947784
 20
46.0188674789
 10
15.1547476731
 20
48.2099223319
 10
13.0707293064
 20
49.8847254626
 10
12.0066051048
 20
50.4844947953
  0
LINE
  5
257
100
AcDbEntity
  8
0
100
AcDbLine
 62
7
  6
BYLAYER
 10
14.9356772781
 20
26.6203702422
 11
14.8371960721
 21
26.5635124307
  0
LINE
  5
258
100
AcDbEntity
  8
0
100
AcDbLine
 62
7
  6
BYLAYER
 10
15.9891629408
 20
27.0294603144
 11
15.8348578759
 21
26.9403727754
  0
LINE
  5
259
100
AcDbEntity
  8
0
100
AcDbLine
 62
7
  6
BYLAYER
 10
26.6855061037
 20
32.7060486259
 11
26.9335444685
 21
32.8492527878
  0
LINE
  5
25A
100
AcDbEntity
  8
0
100
AcDbLine
 62
7
  6
BYLAYER
 10
22.7484557817
 20
23.7554366141
 11
22.8165494858
 21
22.739480687
  0
LINE
  5
25B
100
AcDbEntity
  8
0
100
AcDbLine
 62
7
  6
BYLAYER
 10
23.699975197
 20
23.2945456317
 11
23.7680689011
 21
22.2785897047
  0
LINE
  5
25C
100
AcDbEntity
  8
0
100
AcDbLine
 62
7
  6
BYLAYER
 10
21.8792721273
 20
16.9069282234
 11
21.8792691833
 21
17.315167278
  0
LINE
  5
25D
100
AcDbEntity
  8
0
100
AcDbLine
 62
7
  6
BYLAYER
 10
16.6545818129
 20
26.6653061611
 11
16.5396870725
 21
26.5989720478
  0
LINE
  5
25E
100
AcDbEntity
  8
0
100
AcDbLine
 62
7
  6
BYLAYER
 10
15.7682575199
 20
26.1534879636
 11
15.8831522603
 21
26.2198220769
  0
LINE
  5
25F
100
AcDbEntity
  8
0
100
AcDbLine
 62
7
  6
BYLAYER
 10
16.7141638039
 20
25.7763447249
 11
16.5992690636
 21
25.7100106116
  0
LINE
  5
260
100
AcDbEntity
  8
0
100
AcDbLine
 62
7
  6
BYLAYER
 10
17.7512359322
 20
26.1759584953
 11
17.5969308674
 21
26.0868709563
  0
LINE
  5
261
100
AcDbEntity
  8
0
100
AcDbLine
 62
7
  6
BYLAYER
 10
18.4166548043
 20
25.811804342
 11
18.3017600639
 21
25.7454702286
  0
LINE
  5
262
100
AcDbEntity
  8
0
100
AcDbLine
 62
7
  6
BYLAYER
 10
17.5303305114
 20
25.2999861444
 11
17.6452252517
 21
25.3663202577
  0
LINE
  5
263
100
AcDbEntity
  8
0
100
AcDbLine
 62
7
  6
BYLAYER
 10
27.8309909476
 20
24.4882529014
 11
11.7883692837
 21
42.5448379103
  0
LWPOLYLINE
  5
264
100
AcDbEntity
  8
0
100
AcDbPolyline
 62
7
  6
BYLAYER
 90
4
 70
0
 10
28.3255741092
 20
19.3375195858
 10
28.7025585668
 20
18.7551159166
 10
29.2915629331
 20
17.2405728858
 10
29.498355864
 20
15.7740871551
  0
LINE
  5
265
100
AcDbEntity
  8
0
100
AcDbLine
 62
7
  6
BYLAYER
 10
24.5105287731
 20
22.9019347949
 11
24.5786224772
 21
21.8859788679
  0
LINE
  5
266
100
AcDbEntity
  8
0
100
AcDbLine
 62
7
  6
BYLAYER
 10
24.6452228332
 20
22.6728636797
 11
24.7048048243
 21
21.7839022436
  0
LINE
  5
267
100
AcDbEntity
  8
0
100
AcDbLine
 62
7
  6
BYLAYER
 10
25.4096340209
 20
21.4425015159
 11
25.3500520298
 21
22.3314629521
  0
LINE
  5
268
100
AcDbEntity
  8
0
100
AcDbLine
 62
7
  6
BYLAYER
 10
25.4620481885
 20
22.4410438126
 11
25.5301418926
 21
21.4250878855
  0
LINE
  5
269
100
AcDbEntity
  8
0
100
AcDbLine
 62
7
  6
BYLAYER
 10
16.2047165829
 20
15.6106601706
 11
16.5582685015
 21
16.2230334561
  0
LINE
  5
26A
100
AcDbEntity
  8
0
100
AcDbLine
 62
7
  6
BYLAYER
 10
18.4762367954
 20
24.9228429058
 11
18.361342055
 21
24.8565087925
  0
LINE
  5
26B
100
AcDbEntity
  8
0
100
AcDbLine
 62
7
  6
BYLAYER
 10
19.2924035028
 20
24.4464843253
 11
20.1787343571
 21
24.958204628
  0
LINE
  5
26C
100
AcDbEntity
  8
0
100
AcDbLine
 62
7
  6
BYLAYER
 10
16.2046694795
 20
22.1425394377
 11
16.558224342
 21
22.346670269
  0
LINE
  5
26D
100
AcDbEntity
  8
0
100
AcDbLine
 62
7
  6
BYLAYER
 10
36.7141968538
 20
24.9758284517
 11
36.5670589704
 21
25.0470981731
  0
LINE
  5
26E
100
AcDbEntity
  8
0
100
AcDbLine
 62
7
  6
BYLAYER
 10
28.3897765807
 20
29.9232664334
 11
28.5178659532
 21
29.8612233098
  0
LINE
  5
26F
100
AcDbEntity
  8
0
100
AcDbLine
 62
7
  6
BYLAYER
 10
13.732904836
 20
43.6675093334
 11
29.7755265
 21
25.6109243246
  0
LINE
  5
270
100
AcDbEntity
  8
0
100
AcDbLine
 62
7
  6
BYLAYER
 10
26.2726017646
 20
22.0484329758
 11
26.3406954687
 21
21.0324770487
  0
LINE
  5
271
100
AcDbEntity
  8
0
100
AcDbLine
 62
7
  6
BYLAYER
 10
26.4072958247
 20
21.8193618606
 11
26.4668778157
 21
20.9304004244
  0
LINE
  5
272
100
AcDbEntity
  8
0
100
AcDbLine
 62
7
  6
BYLAYER
 10
27.1717070123
 20
20.5889996968
 11
27.1121250212
 21
21.477961133
  0
LINE
  5
273
100
AcDbEntity
  8
0
100
AcDbLine
 62
7
  6
BYLAYER
 10
27.22412118
 20
21.5875419935
 11
27.2922148841
 21
20.5715860664
  0
LINE
  5
274
100
AcDbEntity
  8
0
100
AcDbLine
 62
7
  6
BYLAYER
 10
26.3163856525
 20
14.3452309168
 11
26.3165185359
 21
7.8897821572
  0
LINE
  5
275
100
AcDbEntity
  8
0
100
AcDbLine
 62
7
  6
BYLAYER
 10
27.0234924337
 20
14.3452326165
 11
27.0234924337
 21
8.3585380059
  0
LINE
  5
276
100
AcDbEntity
  8
0
100
AcDbLine
 62
7
  6
BYLAYER
 10
19.0331525395
 20
14.7941908152
 11
18.6796006209
 21
14.1818175297
  0
LINE
  5
277
100
AcDbEntity
  8
0
100
AcDbLine
 62
7
  6
BYLAYER
 10
26.6543871783
 20
33.0156251246
 11
26.7321808562
 21
32.9982969829
  0
LINE
  5
278
100
AcDbEntity
  8
0
100
AcDbLine
 62
7
  6
BYLAYER
 10
10.3977395969
 20
38.326620687
 11
10.7436803755
 21
38.2173470425
  0
LINE
  5
279
100
AcDbEntity
  8
0
100
AcDbLine
 62
7
  6
BYLAYER
 10
34.3717014419
 20
28.2645113247
 11
28.365281952
 21
31.1738629725
  0
LINE
  5
27A
100
AcDbEntity
  8
0
100
AcDbLine
 62
7
  6
BYLAYER
 10
24.5372114473
 20
33.0280796567
 11
23.0675393107
 21
33.7399501911
  0
LINE
  5
27B
100
AcDbEntity
  8
0
100
AcDbLine
 62
7
  6
BYLAYER
 10
27.8309909476
 20
24.4882529014
 11
28.12038919
 21
20.1704402114
  0
LINE
  5
27C
100
AcDbEntity
  8
0
100
AcDbLine
 62
7
  6
BYLAYER
 10
28.1526828413
 20
31.4270770661
 11
28.181909066
 21
30.9910227123
  0
LINE
  5
27D
100
AcDbEntity
  8
0
100
AcDbLine
 62
7
  6
BYLAYER
 10
28.4313494192
 20
31.0077412699
 11
28.476745222
 21
30.3304373185
  0
LINE
  5
27E
100
AcDbEntity
  8
0
100
AcDbLine
 62
7
  6
BYLAYER
 10
28.5178659532
 20
29.8612233098
 11
28.5931760198
 21
28.7375994802
  0
LINE
  5
27F
100
AcDbEntity
  8
0
100
AcDbLine
 62
7
  6
BYLAYER
 10
28.2063647345
 20
19.268694432
 11
28.2289508072
 21
20.0768986053
  0
LINE
  5
280
100
AcDbEntity
  8
0
100
AcDbLine
 62
7
  6
BYLAYER
 10
25.2830686286
 20
14.9418032825
 11
25.1509121606
 21
14.1910729905
  0
LINE
  5
281
100
AcDbEntity
  8
0
100
AcDbLine
 62
7
  6
BYLAYER
 10
22.8165494858
 20
22.739480687
 11
23.70288034
 21
23.2512009897
  0
LINE
  5
282
100
AcDbEntity
  8
0
100
AcDbLine
 62
7
  6
BYLAYER
 10
24.7995278981
 20
22.7619512187
 11
24.6452228332
 21
22.6728636797
  0
LINE
  5
283
100
AcDbEntity
  8
0
100
AcDbLine
 62
7
  6
BYLAYER
 10
27.8309909476
 20
24.4882529014
 11
36.3162369942
 21
29.3871827479
  0
LINE
  5
284
100
AcDbEntity
  8
0
100
AcDbLine
 62
7
  6
BYLAYER
 10
23.2887203881
 20
21.6506720322
 11
21.2293764975
 21
20.4617163797
  0
LINE
  5
285
100
AcDbEntity
  8
0
100
AcDbLine
 62
7
  6
BYLAYER
 10
10.7436914596
 20
38.2173071007
 11
11.0847995647
 21
38.1708137231
  0
LINE
  5
286
100
AcDbEntity
  8
0
100
AcDbLine
 62
7
  6
BYLAYER
 10
29.498355864
 20
15.7740871551
 11
29.498355864
 21
9.7873925445
  0
LINE
  5
287
100
AcDbEntity
  8
0
100
AcDbLine
 62
7
  6
BYLAYER
 10
30.2037494967
 20
16.0589190701
 11
30.3276762461
 21
20.4934268937
  0
LINE
  5
288
100
AcDbEntity
  8
0
100
AcDbLine
 62
7
  6
BYLAYER
 10
25.4649467702
 20
22.3977970654
 11
25.3500520298
 21
22.3314629521
  0
LINE
  5
289
100
AcDbEntity
  8
0
100
AcDbLine
 62
7
  6
BYLAYER
 10
24.5786224772
 20
21.8859788679
 11
24.6935172176
 21
21.9523129812
  0
LINE
  5
28A
100
AcDbEntity
  8
0
100
AcDbLine
 62
7
  6
BYLAYER
 10
25.5245287612
 20
21.5088356292
 11
25.4096340209
 21
21.4425015159
  0
LINE
  5
28B
100
AcDbEntity
  8
0
100
AcDbLine
 62
7
  6
BYLAYER
 10
26.5616008895
 20
21.9084493996
 11
26.4072958247
 21
21.8193618606
  0
LINE
  5
28C
100
AcDbEntity
  8
0
100
AcDbLine
 62
7
  6
BYLAYER
 10
34.3717014419
 20
28.2645113247
 11
24.2562664669
 21
39.6498207432
  0
LWPOLYLINE
  5
28D
100
AcDbEntity
  8
0
100
AcDbPolyline
 62
7
  6
BYLAYER
 90
4
 70
0
 10
36.4571798812
 20
24.0322763433
 10
36.8359751942
 20
23.446564509
 10
37.4253591071
 20
21.9275199025
 10
37.573867103
 20
20.8692535685
  0
LINE
  5
28E
100
AcDbEntity
  8
0
100
AcDbLine
 62
7
  6
BYLAYER
 10
31.4075050184
 20
13.8551946308
 11
31.4075050184
 21
14.0459543963
  0
LINE
  5
28F
100
AcDbEntity
  8
0
100
AcDbLine
 62
7
  6
BYLAYER
 10
21.8262359539
 20
17.3458020975
 11
21.8816574504
 21
17.382234249
  0
LINE
  5
290
100
AcDbEntity
  8
0
100
AcDbLine
 62
7
  6
BYLAYER
 10
27.2270197616
 20
21.5442952463
 11
27.1121250212
 21
21.477961133
  0
LINE
  5
291
100
AcDbEntity
  8
0
100
AcDbLine
 62
7
  6
BYLAYER
 10
26.3406954687
 20
21.0324770487
 11
26.455590209
 21
21.098811162
  0
LINE
  5
292
100
AcDbEntity
  8
0
100
AcDbLine
 62
7
  6
BYLAYER
 10
22.3918712931
 20
18.4482043112
 11
22.7022554794
 21
18.627403635
  0
LINE
  5
293
100
AcDbEntity
  8
0
100
AcDbLine
 62
7
  6
BYLAYER
 10
27.2866017527
 20
20.6553338101
 11
27.1717070123
 21
20.5889996968
  0
LINE
  5
294
100
AcDbEntity
  8
0
100
AcDbLine
 62
7
  6
BYLAYER
 10
28.12038919
 20
20.1704402114
 11
36.6056352366
 21
25.0693700579
  0
LINE
  5
295
100
AcDbEntity
  8
0
100
AcDbLine
 62
7
  6
BYLAYER
 10
20.2352494585
 20
15.4882176522
 11
19.0331525395
 21
14.7941908152
  0
LINE
  5
296
100
AcDbEntity
  8
0
100
AcDbLine
 62
7
  6
BYLAYER
 10
36.7141968538
 20
24.9758284517
 11
28.2289508072
 21
20.0768986053
  0
LINE
  5
297
100
AcDbEntity
  8
0
100
AcDbLine
 62
7
  6
BYLAYER
 10
21.8262359539
 20
17.3458021622
 11
21.8815169602
 21
17.3766296953
  0
LINE
  5
298
100
AcDbEntity
  8
0
100
AcDbLine
 62
7
  6
BYLAYER
 10
21.8262359539
 20
17.3458021622
 11
21.8814510547
 21
17.3748275969
  0
LINE
  5
299
100
AcDbEntity
  8
0
100
AcDbLine
 62
7
  6
BYLAYER
 10
22.7278008534
 20
18.6284303807
 11
22.7290926948
 21
18.6291054505
  0
LINE
  5
29A
100
AcDbEntity
  8
0
100
AcDbLine
 62
7
  6
BYLAYER
 10
21.881392308
 20
17.3732212484
 11
21.8262359547
 21
17.3457402775
  0
LINE
  5
29B
100
AcDbEntity
  8
0
100
AcDbLine
 62
7
  6
BYLAYER
 10
23.0899445964
 20
44.2738813209
 11
36.3162369942
 21
29.3871827479
  0
LINE
  5
29C
100
AcDbEntity
  8
0
100
AcDbLine
 62
7
  6
BYLAYER
 10
34.5702992694
 20
22.9428918169
 11
34.4463725199
 21
18.5083839933
  0
LINE
  5
29D
100
AcDbEntity
  8
0
100
AcDbLine
 62
7
  6
BYLAYER
 10
36.6916107811
 20
24.1676242785
 11
34.5702992694
 21
22.9428918169
  0
LINE
  5
29E
100
AcDbEntity
  8
0
100
AcDbLine
 62
7
  6
BYLAYER
 10
30.3276762461
 20
20.4934268937
 11
28.2063647345
 21
19.268694432
  0
LINE
  5
29F
100
AcDbEntity
  8
0
100
AcDbLine
 62
7
  6
BYLAYER
 10
36.3162369942
 20
29.3871827479
 11
36.6056352366
 21
25.0693700579
  0
LINE
  5
2A0
100
AcDbEntity
  8
0
100
AcDbLine
 62
7
  6
BYLAYER
 10
35.1551865617
 20
13.0533457755
 11
35.1551865617
 21
19.040040386
  0
LINE
  5
2A1
100
AcDbEntity
  8
0
100
AcDbLine
 62
7
  6
BYLAYER
 10
36.7141968538
 20
24.9758284517
 11
36.6916107811
 21
24.1676242785
  0
LINE
  5
2A2
100
AcDbEntity
  8
0
100
AcDbLine
 62
7
  6
BYLAYER
 10
24.5309306526
 20
13.9811460957
 11
24.7720358456
 21
14.1344728721
  0
LINE
  5
2A3
100
AcDbEntity
  8
0
100
AcDbLine
 62
7
  6
BYLAYER
 10
24.5309306526
 20
13.9811460957
 11
24.6017889932
 21
14.0252032694
  0
LINE
  5
2A4
100
AcDbEntity
  8
0
100
AcDbLine
 62
7
  6
BYLAYER
 10
24.8668602129
 20
14.1613721653
 11
25.103801613
 21
14.2981695298
  0
LINE
  5
2A5
100
AcDbEntity
  8
0
100
AcDbLine
 62
7
  6
BYLAYER
 10
25.1769668992
 20
14.3373327973
 11
25.103079967
 21
14.2964863838
  0
LINE
  5
2A6
100
AcDbEntity
  8
0
100
AcDbLine
 62
7
  6
BYLAYER
 10
25.1766915403
 20
14.3375157757
 11
25.1027459975
 21
14.2967057352
  0
LINE
  5
2A7
100
AcDbEntity
  8
0
100
AcDbLine
 62
7
  6
BYLAYER
 10
24.8476601232
 20
14.1559255817
 11
24.5309768059
 21
13.9811502197
  0
LINE
  5
2A8
100
AcDbEntity
  8
0
100
AcDbLine
 62
7
  6
BYLAYER
 10
24.8480280174
 20
14.1556930323
 11
24.6039840208
 21
14.0212930526
  0
LINE
  5
2A9
100
AcDbEntity
  8
0
100
AcDbLine
 62
7
  6
BYLAYER
 10
37.6300491296
 20
14.3131173002
 11
37.6300470479
 21
20.8771373788
  0
LWPOLYLINE
  5
2AA
100
AcDbEntity
  8
0
100
AcDbPolyline
 62
7
  6
BYLAYER
 90
8
 70
0
 10
27.8616837363
 20
8.6733598377
 10
27.5042732767
 20
8.0503285479
 10
26.3320523862
 20
7.1281668853
 10
24.7246360523
 20
6.4594627833
 10
22.8385032964
 20
6.1093133553
 10
20.8572656707
 20
6.1118050036
 10
18.9737930111
 20
6.4666951709
 10
17.3714379143
 20
7.1394359526
  0
LINE
  5
2AB
100
AcDbEntity
  8
0
100
AcDbLine
 62
7
  6
BYLAYER
 10
29.498355864
 20
14.1848876518
 11
29.6119688315
 21
14.3109124606
  0
LINE
  5
2AC
100
AcDbEntity
  8
0
100
AcDbLine
 62
7
  6
BYLAYER
 10
27.0234924337
 20
14.3452326165
 11
29.498355864
 21
15.7740871551
  0
LINE
  5
2AD
100
AcDbEntity
  8
0
100
AcDbLine
 62
7
  6
BYLAYER
 10
35.1551865617
 20
19.040040386
 11
37.6300499919
 21
20.4688949246
  0
LINE
  5
2AE
100
AcDbEntity
  8
0
100
AcDbLine
 62
7
  6
BYLAYER
 10
34.4463725198
 20
18.5083839871
 11
30.2037494965
 21
16.0589190639
  0
LINE
  5
2AF
100
AcDbEntity
  8
0
100
AcDbLine
 62
7
  6
BYLAYER
 10
29.6119688318
 20
14.3109124609
 11
33.854591855
 21
16.7603773841
  0
LINE
  5
2B0
100
AcDbEntity
  8
0
100
AcDbLine
 62
7
  6
BYLAYER
 10
34.0549835609
 20
16.7814312432
 11
33.6766605178
 21
16.5630076362
  0
LINE
  5
2B1
100
AcDbEntity
  8
0
100
AcDbLine
 62
7
  6
BYLAYER
 10
33.8545918547
 20
16.7603773838
 11
31.2959420799
 21
13.9222035754
  0
LINE
  5
2B2
100
AcDbEntity
  8
0
100
AcDbLine
 62
7
  6
BYLAYER
 10
31.2959420799
 20
13.9222035754
 11
29.498355864
 21
12.8843728848
  0
LINE
  5
2B3
100
AcDbEntity
  8
0
100
AcDbLine
 62
7
  6
BYLAYER
 10
37.6300499919
 20
14.482200314
 11
35.1551865617
 21
13.0533457755
  0
LINE
  5
2B4
100
AcDbEntity
  8
0
100
AcDbLine
 62
7
  6
BYLAYER
 10
29.498355864
 20
9.7873925445
 11
27.0234924337
 21
8.3585380059
  0
LINE
  5
2B5
100
AcDbEntity
  8
0
100
AcDbLine
 62
7
  6
BYLAYER
 10
34.9804888649
 20
12.8020467495
 11
35.0516299776
 21
12.824453848
  0
LINE
  5
2B6
100
AcDbEntity
  8
0
100
AcDbLine
 62
7
  6
BYLAYER
 10
37.6300491296
 20
14.3130945624
 11
35.0516305799
 21
12.8244528047
  0
LINE
  5
2B7
100
AcDbEntity
  8
0
100
AcDbLine
 62
7
  6
BYLAYER
 10
29.3947998822
 20
9.5584995737
 11
26.8163813324
 21
8.0698578159
  0
LINE
  5
2B8
100
AcDbEntity
  8
0
100
AcDbLine
 62
7
  6
BYLAYER
 10
26.6740972612
 20
8.0063810868
 11
26.8163672344
 21
8.0698740513
  0
ARC
  5
2B9
100
AcDbEntity
  8
0
100
AcDbCircle
 62
7
  6
BYLAYER
 10
21.4029597178
 20
23.5649948922
 40
16.4272747146
100
AcDbArc
 50
287.40414337
 51
288.7159811468
  0
ARC
  5
2BA
100
AcDbEntity
  8
0
100
AcDbCircle
 62
7
  6
BYLAYER
 10
19.9320625295
 20
16.499335924
 40
6.750859431
100
AcDbArc
 50
119.9844040041
 51
123.633967872
  0
ARC
  5
2BB
100
AcDbEntity
  8
0
100
AcDbCircle
 62
7
  6
BYLAYER
 10
20.3452043942
 20
12.2903659457
 40
5.9477194681
100
AcDbArc
 50
239.5659714931
 51
240.001037307
  0
ARC
  5
2BC
100
AcDbEntity
  8
0
100
AcDbCircle
 62
7
  6
BYLAYER
 10
30.4545958736
 20
19.0389446113
 40
4.7005908157
100
AcDbArc
 50
0.0133564637
 51
3.1240725939
  0
ARC
  5
2BD
100
AcDbEntity
  8
0
100
AcDbCircle
 62
7
  6
BYLAYER
 10
25.565066315
 20
28.915044895
 40
4.2592362975
100
AcDbArc
 50
91.0098735508
 51
99.0846166833
  0
ARC
  5
2BE
100
AcDbEntity
  8
0
100
AcDbCircle
 62
7
  6
BYLAYER
 10
25.5648868597
 20
29.0347239438
 40
4.1395731252
100
AcDbArc
 50
86.8590264138
 51
91.0365850049
  0
ARC
  5
2BF
100
AcDbEntity
  8
0
100
AcDbCircle
 62
7
  6
BYLAYER
 10
25.5334017821
 20
29.1219951494
 40
4.049882617
100
AcDbArc
 50
99.104545526
 51
103.0472173493
  0
ARC
  5
2C0
100
AcDbEntity
  8
0
100
AcDbCircle
 62
7
  6
BYLAYER
 10
11.8467392626
 20
42.1961775084
 40
3.7024517125
100
AcDbArc
 50
63.5379700193
 51
64.1547228397
  0
ARC
  5
2C1
100
AcDbEntity
  8
0
100
AcDbCircle
 62
7
  6
BYLAYER
 10
25.2824817205
 20
16.9495840339
 40
3.1919814138
100
AcDbArc
 50
229.6021136684
 51
230.8659734534
  0
ARC
  5
2C2
100
AcDbEntity
  8
0
100
AcDbCircle
 62
7
  6
BYLAYER
 10
25.2144278492
 20
16.865698305
 40
3.0839623425
100
AcDbArc
 50
230.8630772805
 51
232.0118935719
  0
ARC
  5
2C3
100
AcDbEntity
  8
0
100
AcDbCircle
 62
7
  6
BYLAYER
 10
24.9045012359
 20
17.3964976823
 40
3.0807548471
100
AcDbArc
 50
187.8061932643
 51
188.9493922217
  0
ARC
  5
2C4
100
AcDbEntity
  8
0
100
AcDbCircle
 62
7
  6
BYLAYER
 10
25.0150561209
 20
30.3833663038
 40
2.6818568896
100
AcDbArc
 50
119.9688618023
 51
123.2849642989
  0
ARC
  5
2C5
100
AcDbEntity
  8
0
100
AcDbCircle
 62
7
  6
BYLAYER
 10
24.2589940329
 20
17.3460283818
 40
2.4327580953
100
AcDbArc
 50
180.0067853683
 51
180.8193121571
  0
ARC
  5
2C6
100
AcDbEntity
  8
0
100
AcDbCircle
 62
7
  6
BYLAYER
 10
24.8681890006
 20
30.8275598553
 40
2.2102584456
100
AcDbArc
 50
119.9731453812
 51
122.5293962235
  0
ARC
  5
2C7
100
AcDbEntity
  8
0
100
AcDbCircle
 62
7
  6
BYLAYER
 10
28.3299355952
 20
15.4663261636
 40
1.7258592191
100
AcDbArc
 50
313.033972338
 51
317.9737055984
  0
ARC
  5
2C8
100
AcDbEntity
  8
0
100
AcDbCircle
 62
7
  6
BYLAYER
 10
19.6612683421
 20
23.9895291624
 40
1.2997210615
100
AcDbArc
 50
178.0788462039
 51
179.9996074896
  0
ARC
  5
2C9
100
AcDbEntity
  8
0
100
AcDbCircle
 62
7
  6
BYLAYER
 10
19.4986686968
 20
19.2843198854
 40
1.2021115227
100
AcDbArc
 50
168.0876477034
 51
179.9740348147
  0
ARC
  5
2CA
100
AcDbEntity
  8
0
100
AcDbCircle
 62
7
  6
BYLAYER
 10
22.8180201459
 20
17.6179702871
 40
1.0144797273
100
AcDbArc
 50
95.1047621021
 51
96.0440511197
  0
ARC
  5
2CB
100
AcDbEntity
  8
0
100
AcDbCircle
 62
7
  6
BYLAYER
 10
24.4408123927
 20
14.9900099079
 40
1.0128807885
100
AcDbArc
 50
275.1071040154
 51
276.4295052909
  0
ARC
  5
2CC
100
AcDbEntity
  8
0
100
AcDbCircle
 62
7
  6
BYLAYER
 10
24.4441511931
 20
14.9618367401
 40
0.9845109515
100
AcDbArc
 50
276.4200220372
 51
279.1449484059
  0
ARC
  5
2CD
100
AcDbEntity
  8
0
100
AcDbCircle
 62
7
  6
BYLAYER
 10
24.4469225012
 20
14.9442814393
 40
0.9667383389
100
AcDbArc
 50
279.1481504401
 51
279.9125844881
  0
ARC
  5
2CE
100
AcDbEntity
  8
0
100
AcDbCircle
 62
7
  6
BYLAYER
 10
31.0872594881
 20
13.249974635
 40
0.6862093292
100
AcDbArc
 50
72.3616283241
 51
74.562594709
  0
SPLINE
  5
2CF
100
AcDbEntity
  8
0
100
AcDbSpline
 62
7
  6
BYLAYER
 70
0
 71
3
 72
13
 73
9
 74
0
 42
0.0000001
 43
0.0000001
 44
0.0000000001
 40
0.0
 40
0.0
 40
0.0
 40
0.0
 40
0.1174726901
 40
0.2357298925
 40
0.3555320624
 40
0.4775935023
 40
0.7308262401
 40
1.0
 40
1.0
 40
1.0
 40
1.0
 10
28.4313460038
 20
31.0077410416
 30
0.0
 10
28.4295354668
 20
31.0347567608
 30
0.0
 10
28.4232733663
 20
31.0888290238
 30
0.0
 10
28.4060321814
 20
31.1690619867
 30
0.0
 10
28.3809918088
 20
31.2483288519
 30
0.0
 10
28.3367943852
 20
31.3536864768
 30
0.0
 10
28.2612950617
 20
31.4824711803
 30
0.0
 10
28.1846002767
 20
31.5759202967
 30
0.0
 10
28.1421603997
 20
31.6211758005
 30
0.0
  0
SPLINE
  5
2D0
100
AcDbEntity
  8
0
100
AcDbSpline
 62
7
  6
BYLAYER
 70
0
 71
3
 72
22
 73
18
 74
0
 42
0.0000001
 43
0.0000001
 44
0.0000000001
 40
0.0
 40
0.0
 40
0.0
 40
0.0
 40
0.0472553199
 40
0.0950777957
 40
0.1440036482
 40
0.1945156071
 40
0.2470221786
 40
0.3018548084
 40
0.3592603293
 40
0.4194122894
 40
0.4824092287
 40
0.5482908476
 40
0.6170367051
 40
0.6885821198
 40
0.7628157243
 40
0.8395936236
 40
1.0
 40
1.0
 40
1.0
 40
1.0
 10
28.4767418295
 20
30.3304370915
 30
0.0
 10
28.4791776603
 20
30.2940916945
 30
0.0
 10
28.4793052554
 20
30.220556689
 30
0.0
 10
28.4651598377
 20
30.1101698196
 30
0.0
 10
28.436820584
 20
29.9999571029
 30
0.0
 10
28.3944411075
 20
29.8904972733
 30
0.0
 10
28.3382996986
 20
29.7822910445
 30
0.0
 10
28.2686753813
 20
29.6758504336
 30
0.0
 10
28.1859460571
 20
29.5716386609
 30
0.0
 10
28.0904960826
 20
29.4701412259
 30
0.0
 10
27.9827996478
 20
29.3717967033
 30
0.0
 10
27.8633492503
 20
29.2770704379
 30
0.0
 10
27.7327186124
 20
29.1863758479
 30
0.0
 10
27.5915090037
 20
29.1001507122
 30
0.0
 10
27.4403858637
 20
29.0187716766
 30
0.0
 10
27.2234664079
 20
28.9157726995
 30
0.0
 10
27.0527856487
 20
28.8493100267
 30
0.0
 10
26.9358078081
 20
28.809241807
 30
0.0
  0
SPLINE
  5
2D1
100
AcDbEntity
  8
0
100
AcDbSpline
 62
7
  6
BYLAYER
 70
0
 71
3
 72
25
 73
21
 74
0
 42
0.0000001
 43
0.0000001
 44
0.0000000001
 40
0.0
 40
0.0
 40
0.0
 40
0.0
 40
0.1615250946
 40
0.2393164446
 40
0.3147174271
 40
0.3874751026
 40
0.457375456
 40
0.5242540773
 40
0.5880042283
 40
0.6485848563
 40
0.7060364903
 40
0.7604877273
 40
0.7866677362
 40
0.8121945757
 40
0.8614622117
 40
0.9087767693
 40
0.9318926042
 40
0.9547443613
 40
0.9774172318
 40
1.0
 40
1.0
 40
1.0
 40
1.0
 10
26.4439967539
 20
29.3579523598
 30
0.0
 10
26.5894825755
 20
29.3925042148
 30
0.0
 10
26.8030175252
 20
29.4531384083
 30
0.0
 10
27.0767462723
 20
29.553194143
 30
0.0
 10
27.2693304635
 20
29.6351027768
 30
0.0
 10
27.4505541733
 20
29.7242820084
 30
0.0
 10
27.6193031081
 20
29.8201994995
 30
0.0
 10
27.7745371561
 20
29.9222654867
 30
0.0
 10
27.9153027919
 20
30.0298591107
 30
0.0
 10
28.0407258445
 20
30.1423499897
 30
0.0
 10
28.150031575
 20
30.2590461649
 30
0.0
 10
28.2281146634
 20
30.3605705689
 30
0.0
 10
28.2814756799
 20
30.4431551474
 30
0.0
 10
28.3276745156
 20
30.5244669574
 30
0.0
 10
28.3747328043
 20
30.6275855919
 30
0.0
 10
28.4072608298
 20
30.733905132
 30
0.0
 10
28.4236309117
 20
30.8187602402
 30
0.0
 10
28.43115348
 20
30.8819168342
 30
0.0
 10
28.4339844162
 20
30.944958491
 30
0.0
 10
28.4327439498
 20
30.9868817515
 30
0.0
 10
28.4313460038
 20
31.0077410416
 30
0.0
  0
SPLINE
  5
2D2
100
AcDbEntity
  8
0
100
AcDbSpline
 62
7
  6
BYLAYER
 70
0
 71
3
 72
11
 73
7
 74
0
 42
0.0000001
 43
0.0000001
 44
0.0000000001
 40
0.0
 40
0.0
 40
0.0
 40
0.0
 40
0.2331491586
 40
0.4787441808
 40
0.7349989229
 40
1.0
 40
1.0
 40
1.0
 40
1.0
 10
27.3763454707
 20
29.8682665786
 30
0.0
 10
27.3014804556
 20
29.8250434999
 30
0.0
 10
27.1436437729
 20
29.7432806037
 30
0.0
 10
26.8922913984
 20
29.6373490219
 30
0.0
 10
26.6227925405
 20
29.5460165988
 30
0.0
 10
26.4358637781
 20
29.4962965939
 30
0.0
 10
26.3401678658
 20
29.4740112152
 30
0.0
  0
SPLINE
  5
2D3
100
AcDbEntity
  8
0
100
AcDbSpline
 62
7
  6
BYLAYER
 70
0
 71
3
 72
17
 73
13
 74
0
 42
0.0000001
 43
0.0000001
 44
0.0000000001
 40
0.0
 40
0.0
 40
0.0
 40
0.0
 40
0.051494226
 40
0.1033358662
 40
0.1558621044
 40
0.2093885175
 40
0.3204732716
 40
0.4386071197
 40
0.565104678
 40
0.7007169202
 40
0.8457615532
 40
1.0
 40
1.0
 40
1.0
 40
1.0
 10
28.1819043833
 20
30.991022398
 30
0.0
 10
28.1835731187
 20
30.9661264688
 30
0.0
 10
28.1844911897
 20
30.9159696679
 30
0.0
 10
28.17855535
 20
30.840569441
 30
0.0
 10
28.1653337613
 20
30.7650948238
 30
0.0
 10
28.1377453883
 20
30.6634310432
 30
0.0
 10
28.0842796515
 20
30.5365184482
 30
0.0
 10
27.9929777791
 20
30.3896198213
 30
0.0
 10
27.8748951153
 20
30.2475237927
 30
0.0
 10
27.7313469363
 20
30.1115926963
 30
0.0
 10
27.5638757047
 20
29.9831569382
 30
0.0
 10
27.4410697384
 20
29.9056349289
 30
0.0
 10
27.3763454707
 20
29.8682665786
 30
0.0
  0
SPLINE
  5
2D4
100
AcDbEntity
  8
0
100
AcDbSpline
 62
7
  6
BYLAYER
 70
0
 71
3
 72
9
 73
5
 74
0
 42
0.0000001
 43
0.0000001
 44
0.0000000001
 40
0.0
 40
0.0
 40
0.0
 40
0.0
 40
0.2433547535
 40
1.0
 40
1.0
 40
1.0
 40
1.0
 10
27.2008934286
 20
32.7423893406
 30
0.0
 10
27.1797022368
 20
32.752223983
 30
0.0
 10
27.0920496548
 20
32.7913961075
 30
0.0
 10
27.0022580739
 20
32.8257317345
 30
0.0
 10
26.9335310284
 20
32.8492450282
 30
0.0
  0
SPLINE
  5
2D5
100
AcDbEntity
  8
0
100
AcDbSpline
 62
7
  6
BYLAYER
 70
0
 71
3
 72
11
 73
7
 74
0
 42
0.0000001
 43
0.0000001
 44
0.0000000001
 40
0.0
 40
0.0
 40
0.0
 40
0.0
 40
0.2486189187
 40
0.4967078934
 40
0.7465390332
 40
1.0
 40
1.0
 40
1.0
 40
1.0
 10
27.3962942241
 20
32.6754099333
 30
0.0
 10
27.3832032089
 20
32.6844581356
 30
0.0
 10
27.3559249962
 20
32.700971299
 30
0.0
 10
27.3122040036
 20
32.7205429089
 30
0.0
 10
27.2661279539
 20
32.7347200441
 30
0.0
 10
27.2343503661
 20
32.7405041083
 30
0.0
 10
27.2182505759
 20
32.7425045415
 30
0.0
  0
SPLINE
  5
2D6
100
AcDbEntity
  8
0
100
AcDbSpline
 62
7
  6
BYLAYER
 70
0
 71
3
 72
14
 73
10
 74
0
 42
0.0000001
 43
0.0000001
 44
0.0000000001
 40
0.0
 40
0.0
 40
0.0
 40
0.0
 40
0.1125091386
 40
0.2278852004
 40
0.3465572949
 40
0.4689225832
 40
0.7257390468
 40
0.8607197635
 40
1.0
 40
1.0
 40
1.0
 40
1.0
 10
27.2182505759
 20
32.7425045415
 30
0.0
 10
27.1554834048
 20
32.7503035012
 30
0.0
 10
27.0274647742
 20
32.7596265042
 30
0.0
 10
26.8324252773
 20
32.7550772216
 30
0.0
 10
26.6330991512
 20
32.7321367501
 30
0.0
 10
26.3585488022
 20
32.676383562
 30
0.0
 10
26.0831757786
 20
32.5842510793
 30
0.0
 10
25.81130212
 20
32.4605698568
 30
0.0
 10
25.6753510002
 20
32.3875427229
 30
0.0
 10
25.6075412152
 20
32.348392959
 30
0.0
  0
SPLINE
  5
2D7
100
AcDbEntity
  8
0
100
AcDbSpline
 62
7
  6
BYLAYER
 70
0
 71
3
 72
11
 73
7
 74
0
 42
0.0000001
 43
0.0000001
 44
0.0000000001
 40
0.0
 40
0.0
 40
0.0
 40
0.0
 40
0.2370416018
 40
0.483148464
 40
0.7377303041
 40
1.0
 40
1.0
 40
1.0
 40
1.0
 10
25.6075412152
 20
32.348392959
 30
0.0
 10
25.514173025
 20
32.294487131
 30
0.0
 10
25.3284227851
 20
32.1765598983
 30
0.0
 10
25.05945038
 20
31.9754854574
 30
0.0
 10
24.7967503919
 20
31.7483486223
 30
0.0
 10
24.6294222736
 20
31.5829626047
 30
0.0
 10
24.5472335861
 20
31.496508672
 30
0.0
  0
SPLINE
  5
2D8
100
AcDbEntity
  8
0
100
AcDbSpline
 62
7
  6
BYLAYER
 70
0
 71
3
 72
16
 73
12
 74
0
 42
0.0000001
 43
0.0000001
 44
0.0000000001
 40
0.0
 40
0.0
 40
0.0
 40
0.0
 40
0.1192344573
 40
0.2422700565
 40
0.305091078
 40
0.3686181345
 40
0.4970239664
 40
0.6259158217
 40
0.7535954134
 40
0.8785974533
 40
1.0
 40
1.0
 40
1.0
 40
1.0
 10
23.6753900999
 20
32.7066509029
 30
0.0
 10
23.7838863983
 20
32.7692908961
 30
0.0
 10
24.0130347232
 20
32.8818909232
 30
0.0
 10
24.3156845857
 20
32.9894398129
 30
0.0
 10
24.5687353376
 20
33.0578159648
 30
0.0
 10
24.8304069173
 20
33.1146312825
 30
0.0
 10
25.1647249178
 20
33.1619692539
 30
0.0
 10
25.5693559893
 20
33.1808853209
 30
0.0
 10
25.9704555619
 20
33.1615924909
 30
0.0
 10
26.3598847527
 20
33.1037663095
 30
0.0
 10
26.6110315565
 20
33.0381294609
 30
0.0
 10
26.7322158343
 20
32.9983103586
 30
0.0
  0
SPLINE
  5
2D9
100
AcDbEntity
  8
0
100
AcDbSpline
 62
7
  6
BYLAYER
 70
0
 71
3
 72
11
 73
7
 74
0
 42
0.0000001
 43
0.0000001
 44
0.0000000001
 40
0.0
 40
0.0
 40
0.0
 40
0.0
 40
0.2453753145
 40
0.491312294
 40
0.7417903694
 40
1.0
 40
1.0
 40
1.0
 40
1.0
 10
26.7321866614
 20
32.9983107523
 30
0.0
 10
26.7519588679
 20
32.9918229882
 30
0.0
 10
26.7905923146
 20
32.9756599434
 30
0.0
 10
26.8441670492
 20
32.9421877294
 30
0.0
 10
26.8925869271
 20
32.8999595964
 30
0.0
 10
26.9205837745
 20
32.8669031584
 30
0.0
 10
26.9335444685
 20
32.8492527878
 30
0.0
  0
SPLINE
  5
2DA
100
AcDbEntity
  8
0
100
AcDbSpline
 62
7
  6
BYLAYER
 70
0
 71
3
 72
15
 73
11
 74
0
 42
0.0000001
 43
0.0000001
 44
0.0000000001
 40
0.0
 40
0.0
 40
0.0
 40
0.0
 40
0.1249312175
 40
0.2493441543
 40
0.3736794915
 40
0.4982061589
 40
0.6231213935
 40
0.7484817924
 40
0.8740709979
 40
1.0
 40
1.0
 40
1.0
 40
1.0
 10
27.3962446394
 20
32.6754465831
 30
0.0
 10
27.4479945772
 20
32.6396928239
 30
0.0
 10
27.5482510524
 20
32.5638040806
 30
0.0
 10
27.6870998393
 20
32.436421476
 30
0.0
 10
27.8121943965
 20
32.2956992061
 30
0.0
 10
27.9214485308
 20
32.1419913829
 30
0.0
 10
28.0126038186
 20
31.9762636999
 30
0.0
 10
28.0833340431
 20
31.800221497
 30
0.0
 10
28.1318849832
 20
31.6162959565
 30
0.0
 10
28.1484428694
 20
31.490337315
 30
0.0
 10
28.1526828413
 20
31.4270770661
 30
0.0
  0
SPLINE
  5
2DB
100
AcDbEntity
  8
0
100
AcDbSpline
 62
7
  6
BYLAYER
 70
0
 71
3
 72
18
 73
14
 74
0
 42
0.0000001
 43
0.0000001
 44
0.0000000001
 40
0.0
 40
0.0
 40
0.0
 40
0.0
 40
0.1542286892
 40
0.2992520871
 40
0.4348508392
 40
0.5613379816
 40
0.6794597045
 40
0.73581886
 40
0.790630499
 40
0.8441525585
 40
0.8966738102
 40
0.9485104329
 40
1.0
 40
1.0
 40
1.0
 40
1.0
 10
27.3471192461
 20
30.3043209323
 30
0.0
 10
27.4118457044
 20
30.3416905474
 30
0.0
 10
27.5346520897
 20
30.4192111311
 30
0.0
 10
27.7021203169
 20
30.5476455367
 30
0.0
 10
27.8456678994
 20
30.6835845724
 30
0.0
 10
27.9637464526
 20
30.8256473224
 30
0.0
 10
28.0410274133
 20
30.9500357522
 30
0.0
 10
28.0880388255
 20
31.0508371331
 30
0.0
 10
28.1156600384
 20
31.1258223249
 30
0.0
 10
28.1361116589
 20
31.2011497248
 30
0.0
 10
28.1493325302
 20
31.2766225725
 30
0.0
 10
28.1552619245
 20
31.3520240406
 30
0.0
 10
28.1543487271
 20
31.4021807801
 30
0.0
 10
28.1526811536
 20
31.427076953
 30
0.0
  0
SPLINE
  5
2DC
100
AcDbEntity
  8
0
100
AcDbSpline
 62
7
  6
BYLAYER
 70
0
 71
3
 72
9
 73
5
 74
0
 42
0.0000001
 43
0.0000001
 44
0.0000000001
 40
0.0
 40
0.0
 40
0.0
 40
0.0
 40
0.4894711547
 40
1.0
 40
1.0
 40
1.0
 40
1.0
 10
26.6544623114
 20
33.0156232243
 30
0.0
 10
26.5868129373
 20
33.037433245
 30
0.0
 10
26.4468279624
 20
33.0766040115
 30
0.0
 10
26.3044945249
 20
33.1059752979
 30
0.0
 10
26.2314493238
 20
33.1186465741
 30
0.0
  0
SPLINE
  5
2DD
100
AcDbEntity
  8
0
100
AcDbSpline
 62
7
  6
BYLAYER
 70
0
 71
3
 72
9
 73
5
 74
0
 42
0.0000001
 43
0.0000001
 44
0.0000000001
 40
0.0
 40
0.0
 40
0.0
 40
0.0
 40
0.2452878189
 40
1.0
 40
1.0
 40
1.0
 40
1.0
 10
26.2314493238
 20
33.1186465741
 30
0.0
 10
26.1957892157
 20
33.1248325942
 30
0.0
 10
26.0500229855
 20
33.14779638
 30
0.0
 10
25.9028969418
 20
33.1619592987
 30
0.0
 10
25.7917059792
 20
33.1680783619
 30
0.0
  0
SPLINE
  5
2DE
100
AcDbEntity
  8
0
100
AcDbSpline
 62
7
  6
BYLAYER
 70
0
 71
3
 72
9
 73
5
 74
0
 42
0.0000001
 43
0.0000001
 44
0.0000000001
 40
0.0
 40
0.0
 40
0.0
 40
0.0
 40
0.5079174479
 40
1.0
 40
1.0
 40
1.0
 40
1.0
 10
24.6191247661
 20
33.067327423
 30
0.0
 10
24.5436479126
 20
33.0497883285
 30
0.0
 10
24.3960384853
 20
33.0108164327
 30
0.0
 10
24.2511918935
 20
32.9625157274
 30
0.0
 10
24.180847199
 20
32.9362964805
 30
0.0
  0
SPLINE
  5
2DF
100
AcDbEntity
  8
0
100
AcDbSpline
 62
7
  6
BYLAYER
 70
0
 71
3
 72
9
 73
5
 74
0
 42
0.0000001
 43
0.0000001
 44
0.0000000001
 40
0.0
 40
0.0
 40
0.0
 40
0.0
 40
0.5134973067
 40
1.0
 40
1.0
 40
1.0
 40
1.0
 10
24.180847199
 20
32.9362964805
 30
0.0
 10
24.1070292318
 20
32.9087826569
 30
0.0
 10
23.9651745738
 20
32.8499100206
 30
0.0
 10
23.8285950491
 20
32.7795361215
 30
0.0
 10
23.7639570595
 20
32.7422175836
 30
0.0
  0
SPLINE
  5
2E0
100
AcDbEntity
  8
0
100
AcDbSpline
 62
7
  6
BYLAYER
 70
0
 71
3
 72
13
 73
9
 74
0
 42
0.0000001
 43
0.0000001
 44
0.0000000001
 40
0.0
 40
0.0
 40
0.0
 40
0.0
 40
0.2661791833
 40
0.5236655981
 40
0.6481221951
 40
0.7692264786
 40
0.8866419768
 40
1.0
 40
1.0
 40
1.0
 40
1.0
 10
26.0068164998
 20
29.8494774187
 30
0.0
 10
26.131309558
 20
29.8702270936
 30
0.0
 10
26.3747992277
 20
29.9202882526
 30
0.0
 10
26.6702715646
 20
30.0061390677
 30
0.0
 10
26.8945075688
 20
30.0876559297
 30
0.0
 10
27.0534523934
 20
30.1538414675
 30
0.0
 10
27.2042305926
 20
30.2254298961
 30
0.0
 10
27.3005708552
 20
30.2774463667
 30
0.0
 10
27.3471192461
 20
30.3043209323
 30
0.0
  0
SPLINE
  5
2E1
100
AcDbEntity
  8
0
100
AcDbSpline
 62
7
  6
BYLAYER
 70
0
 71
3
 72
9
 73
5
 74
0
 42
0.0000001
 43
0.0000001
 44
0.0000000001
 40
0.0
 40
0.0
 40
0.0
 40
0.0
 40
0.2449640101
 40
1.0
 40
1.0
 40
1.0
 40
1.0
 10
23.5501272212
 20
32.6011232187
 30
0.0
 10
23.5603943629
 20
32.608897941
 30
0.0
 10
23.6026458284
 20
32.6401875559
 30
0.0
 10
23.6461976648
 20
32.6697126124
 30
0.0
 10
23.6796617563
 20
32.6910633798
 30
0.0
  0
SPLINE
  5
2E2
100
AcDbEntity
  8
0
100
AcDbSpline
 62
7
  6
BYLAYER
 70
0
 71
3
 72
15
 73
11
 74
0
 42
0.0000001
 43
0.0000001
 44
0.0000000001
 40
0.0
 40
0.0
 40
0.0
 40
0.0
 40
0.111077811
 40
0.2278891962
 40
0.3496383217
 40
0.4755071052
 40
0.6045299525
 40
0.7356737488
 40
0.8678642944
 40
1.0
 40
1.0
 40
1.0
 40
1.0
 10
26.9564187146
 20
31.1958731113
 30
0.0
 10
26.8973560321
 20
31.1617734592
 30
0.0
 10
26.7730766864
 20
31.0970969271
 30
0.0
 10
26.5754965155
 20
31.0127099494
 30
0.0
 10
26.363944695
 20
30.9393098814
 30
0.0
 10
26.1408869674
 20
30.8777354544
 30
0.0
 10
25.90885527
 20
30.8286885932
 30
0.0
 10
25.6705167247
 20
30.7927331941
 30
0.0
 10
25.4286207438
 20
30.7702850423
 30
0.0
 10
25.2663290983
 20
30.7644814178
 30
0.0
 10
25.185202337
 20
30.7639139308
 30
0.0
  0
SPLINE
  5
2E3
100
AcDbEntity
  8
0
100
AcDbSpline
 62
7
  6
BYLAYER
 70
0
 71
3
 72
14
 73
10
 74
0
 42
0.0000001
 43
0.0000001
 44
0.0000000001
 40
0.0
 40
0.0
 40
0.0
 40
0.0
 40
0.1392802363
 40
0.2742609527
 40
0.5310774164
 40
0.653442705
 40
0.7721147997
 40
0.8874908615
 40
1.0
 40
1.0
 40
1.0
 40
1.0
 10
25.043677858
 20
32.6215135411
 30
0.0
 10
25.1114876412
 20
32.660663304
 30
0.0
 10
25.2474387575
 20
32.7336904361
 30
0.0
 10
25.519312409
 20
32.8573716564
 30
0.0
 10
25.7946854256
 20
32.9495041383
 30
0.0
 10
26.0692357676
 20
33.005257328
 30
0.0
 10
26.268561889
 20
33.0281978016
 30
0.0
 10
26.4636013812
 20
33.0327470862
 30
0.0
 10
26.5916200089
 20
33.0234240841
 30
0.0
 10
26.6543871783
 20
33.0156251246
 30
0.0
  0
SPLINE
  5
2E4
100
AcDbEntity
  8
0
100
AcDbSpline
 62
7
  6
BYLAYER
 70
0
 71
3
 72
23
 73
19
 74
0
 42
0.0000001
 43
0.0000001
 44
0.0000000001
 40
0.0
 40
0.0
 40
0.0
 40
0.0
 40
0.0800765638
 40
0.1561714248
 40
0.2281287212
 40
0.2960057211
 40
0.3599937516
 40
0.420428279
 40
0.4778326266
 40
0.5329143116
 40
0.5865481625
 40
0.6397232025
 40
0.693469573
 40
0.7487674256
 40
0.8064683652
 40
0.8672706169
 40
0.9316943518
 40
1.0
 40
1.0
 40
1.0
 40
1.0
 10
26.9564187146
 20
31.1958731113
 30
0.0
 10
27.0017684474
 20
31.2220556355
 30
0.0
 10
27.0885305619
 20
31.2761241786
 30
0.0
 10
27.2089259363
 20
31.3644763215
 30
0.0
 10
27.3154331322
 20
31.4574746533
 30
0.0
 10
27.4072313206
 20
31.5544197221
 30
0.0
 10
27.483635181
 20
31.6546387173
 30
0.0
 10
27.5440139984
 20
31.7574435942
 30
0.0
 10
27.5878416675
 20
31.8620936344
 30
0.0
 10
27.6146450639
 20
31.9678108773
 30
0.0
 10
27.6241287229
 20
32.0737223664
 30
0.0
 10
27.616110708
 20
32.1788929348
 30
0.0
 10
27.5906918675
 20
32.2823633232
 30
0.0
 10
27.5481522759
 20
32.3832258266
 30
0.0
 10
27.4889615943
 20
32.4806845557
 30
0.0
 10
27.4136585674
 20
32.5740403779
 30
0.0
 10
27.3228941149
 20
32.662602161
 30
0.0
 10
27.2546185754
 20
32.7164634793
 30
0.0
 10
27.2183256687
 20
32.7425026422
 30
0.0
  0
SPLINE
  5
2E5
100
AcDbEntity
  8
0
100
AcDbSpline
 62
7
  6
BYLAYER
 70
0
 71
3
 72
10
 73
6
 74
0
 42
0.0000001
 43
0.0000001
 44
0.0000000001
 40
0.0
 40
0.0
 40
0.0
 40
0.0
 40
0.2607710383
 40
0.514715144
 40
1.0
 40
1.0
 40
1.0
 40
1.0
 10
24.1527062961
 20
31.9403140485
 30
0.0
 10
24.2229976659
 20
32.0081548257
 30
0.0
 10
24.3653946954
 20
32.1383697768
 30
0.0
 10
24.6559449595
 20
32.3750001651
 30
0.0
 10
24.8862372489
 20
32.5306157057
 30
0.0
 10
25.043677858
 20
32.6215135411
 30
0.0
  0
SPLINE
  5
2E6
100
AcDbEntity
  8
0
100
AcDbSpline
 62
7
  6
BYLAYER
 70
0
 71
3
 72
11
 73
7
 74
0
 42
0.0000001
 43
0.0000001
 44
0.0000000001
 40
0.0
 40
0.0
 40
0.0
 40
0.0
 40
0.2487573687
 40
0.4980235254
 40
0.7482783178
 40
1.0
 40
1.0
 40
1.0
 40
1.0
 10
15.3615481055
 20
11.854378274
 30
0.0
 10
15.3615368205
 20
11.9182890945
 30
0.0
 10
15.3664556216
 20
12.0462954544
 30
0.0
 10
15.3884962124
 20
12.2374543284
 30
0.0
 10
15.42502515
 20
12.4271547101
 30
0.0
 10
15.4588161202
 20
12.5517587354
 30
0.0
 10
15.477981245
 20
12.6135261953
 30
0.0
  0
SPLINE
  5
2E7
100
AcDbEntity
  8
0
100
AcDbSpline
 62
7
  6
BYLAYER
 70
0
 71
3
 72
20
 73
16
 74
0
 42
0.0000001
 43
0.0000001
 44
0.0000000001
 40
0.0
 40
0.0
 40
0.0
 40
0.0
 40
0.1414428643
 40
0.2770761746
 40
0.3427700296
 40
0.4071255774
 40
0.4702248069
 40
0.5321551568
 40
0.6528791757
 40
0.7119831568
 40
0.7704091219
 40
0.8282840186
 40
0.8857477348
 40
0.9429432056
 40
1.0
 40
1.0
 40
1.0
 40
1.0
 10
17.3689284991
 20
8.9722125401
 30
0.0
 10
17.2187021546
 20
9.0589437984
 30
0.0
 10
16.9314095884
 20
9.2413795582
 30
0.0
 10
16.5989448688
 20
9.4998827309
 30
0.0
 10
16.3585280047
 20
9.7200264561
 30
0.0
 10
16.1929835211
 20
9.8896365971
 30
0.0
 10
16.0407807092
 20
10.0652869374
 30
0.0
 10
15.8579359873
 20
10.305049959
 30
0.0
 10
15.7015442209
 20
10.5582821958
 30
0.0
 10
15.5760583612
 20
10.8224045814
 30
0.0
 10
15.4986527719
 20
11.0233505291
 30
0.0
 10
15.4377778147
 20
11.2278071888
 30
0.0
 10
15.3939389523
 20
11.435058304
 30
0.0
 10
15.3674984363
 20
11.6442163496
 30
0.0
 10
15.3615604612
 20
11.7844038503
 30
0.0
 10
15.3615481055
 20
11.854378274
 30
0.0
  0
SPLINE
  5
2E8
100
AcDbEntity
  8
0
100
AcDbSpline
 62
7
  6
BYLAYER
 70
0
 71
3
 72
18
 73
14
 74
0
 42
0.0000001
 43
0.0000001
 44
0.0000000001
 40
0.0
 40
0.0
 40
0.0
 40
0.0
 40
0.1258487797
 40
0.2548962759
 40
0.385420551
 40
0.5156068515
 40
0.6436601937
 40
0.7063801251
 40
0.7679630682
 40
0.8282379823
 40
0.887077241
 40
0.9443770204
 40
1.0
 40
1.0
 40
1.0
 40
1.0
 10
24.4758449306
 20
8.2187132673
 30
0.0
 10
24.1792038748
 20
8.140704824
 30
0.0
 10
23.5701465182
 20
8.012697731
 30
0.0
 10
22.6358681542
 20
7.9042876309
 30
0.0
 10
21.6850412108
 20
7.8781929923
 30
0.0
 10
20.7380446126
 20
7.9349358863
 30
0.0
 10
19.9632475097
 20
8.0511637078
 30
0.0
 10
19.3627924319
 20
8.1853178277
 30
0.0
 10
18.9288735548
 20
8.3047600549
 30
0.0
 10
18.5105768613
 20
8.443177772
 30
0.0
 10
18.1099998775
 20
8.6000273082
 30
0.0
 10
17.7292917623
 20
8.7746691092
 30
0.0
 10
17.4863343741
 20
8.9044297601
 30
0.0
 10
17.3689284991
 20
8.9722125401
 30
0.0
  0
SPLINE
  5
2E9
100
AcDbEntity
  8
0
100
AcDbSpline
 62
7
  6
BYLAYER
 70
0
 71
3
 72
26
 73
22
 74
0
 42
0.0000001
 43
0.0000001
 44
0.0000000001
 40
0.0
 40
0.0
 40
0.0
 40
0.0
 40
0.0601881469
 40
0.12476886
 40
0.1930794086
 40
0.2642810136
 40
0.3373587761
 40
0.4112167825
 40
0.4847163344
 40
0.5567367105
 40
0.6262290949
 40
0.6922737127
 40
0.7541447086
 40
0.8113868847
 40
0.8382495963
 40
0.8639592373
 40
0.9121425898
 40
0.934917163
 40
0.9570098022
 40
0.9786274187
 40
1.0
 40
1.0
 40
1.0
 40
1.0
 10
10.2235865501
 20
40.9249786771
 30
0.0
 10
10.2719247828
 20
40.9015649083
 30
0.0
 10
10.3686082212
 20
40.8455644685
 30
0.0
 10
10.5063717098
 20
40.7415163024
 30
0.0
 10
10.6393258283
 20
40.6165697148
 30
0.0
 10
10.764454693
 20
40.473610111
 30
0.0
 10
10.8789322521
 20
40.3158493015
 30
0.0
 10
10.9801551592
 20
40.1468889371
 30
0.0
 10
11.0658141333
 20
39.9705741469
 30
0.0
 10
11.1339594661
 20
39.7909227698
 30
0.0
 10
11.1830418032
 20
39.6120167374
 30
0.0
 10
11.2119410041
 20
39.4378822792
 30
0.0
 10
11.2199772122
 20
39.2724460958
 30
0.0
 10
11.2088398119
 20
39.1421407032
 30
0.0
 10
11.1887042923
 20
39.0461154573
 30
0.0
 10
11.1626854928
 20
38.9599784763
 30
0.0
 10
11.1262011979
 20
38.8809963927
 30
0.0
 10
11.0789843636
 20
38.8124931647
 30
0.0
 10
11.039601391
 20
38.7679108041
 30
0.0
 10
10.9958580817
 20
38.7294758032
 30
0.0
 10
10.9638685319
 20
38.7080618672
 30
0.0
 10
10.9473507459
 20
38.698526913
 30
0.0
  0
SPLINE
  5
2EA
100
AcDbEntity
  8
0
100
AcDbSpline
 62
7
  6
BYLAYER
 70
0
 71
3
 72
15
 73
11
 74
0
 42
0.0000001
 43
0.0000001
 44
0.0000000001
 40
0.0
 40
0.0
 40
0.0
 40
0.0
 40
0.1103982795
 40
0.2224833154
 40
0.3378180423
 40
0.4577222685
 40
0.583266022
 40
0.7152503622
 40
0.854155858
 40
1.0
 40
1.0
 40
1.0
 40
1.0
 10
9.6473587132
 20
40.9501925991
 30
0.0
 10
9.6664852346
 20
40.9612334556
 30
0.0
 10
9.7068060166
 20
40.9805531905
 30
0.0
 10
9.7716798513
 20
41.0003060861
 30
0.0
 10
9.8405955398
 20
41.0107938299
 30
0.0
 10
9.9129568978
 20
41.011999647
 30
0.0
 10
9.9882021005
 20
41.0039299632
 30
0.0
 10
10.0657662973
 20
40.986702673
 30
0.0
 10
10.1450232873
 20
40.960462627
 30
0.0
 10
10.1973293983
 20
40.9376969509
 30
0.0
 10
10.2235865501
 20
40.9249786771
 30
0.0
  0
SPLINE
  5
2EB
100
AcDbEntity
  8
0
100
AcDbSpline
 62
7
  6
BYLAYER
 70
0
 71
3
 72
23
 73
19
 74
0
 42
0.0000001
 43
0.0000001
 44
0.0000000001
 40
0.0
 40
0.0
 40
0.0
 40
0.0
 40
0.0482340576
 40
0.1000904638
 40
0.1556511184
 40
0.2147695648
 40
0.277119314
 40
0.3422325016
 40
0.409532318
 40
0.4783648037
 40
0.5480252691
 40
0.6177812245
 40
0.686895726
 40
0.7546564028
 40
0.8203939688
 40
0.8835026541
 40
0.9435074812
 40
1.0
 40
1.0
 40
1.0
 40
1.0
 10
9.1287848963
 20
41.0144269292
 30
0.0
 10
9.1093685112
 20
40.9669377368
 30
0.0
 10
9.0773792537
 20
40.8648754897
 30
0.0
 10
9.0505175663
 20
40.7010658609
 30
0.0
 10
9.0433261921
 20
40.5236792238
 30
0.0
 10
9.0558559544
 20
40.3354805215
 30
0.0
 10
9.0878689333
 20
40.139342411
 30
0.0
 10
9.1388613778
 20
39.9383066462
 30
0.0
 10
9.2080254495
 20
39.7355006455
 30
0.0
 10
9.2942742049
 20
39.5340926663
 30
0.0
 10
9.3962595792
 20
39.3372383725
 30
0.0
 10
9.5123867393
 20
39.1480299102
 30
0.0
 10
9.6408245409
 20
38.969429389
 30
0.0
 10
9.7795654367
 20
38.8042364237
 30
0.0
 10
9.9264389339
 20
38.6550462603
 30
0.0
 10
10.0791725929
 20
38.5241594187
 30
0.0
 10
10.2353721154
 20
38.4136776715
 30
0.0
 10
10.3436601921
 20
38.3528153285
 30
0.0
 10
10.3977395969
 20
38.326620687
 30
0.0
  0
SPLINE
  5
2EC
100
AcDbEntity
  8
0
100
AcDbSpline
 62
7
  6
BYLAYER
 70
0
 71
3
 72
11
 73
7
 74
0
 42
0.0000001
 43
0.0000001
 44
0.0000000001
 40
0.0
 40
0.0
 40
0.0
 40
0.0
 40
0.2661962401
 40
0.5189960735
 40
0.762063459
 40
1.0
 40
1.0
 40
1.0
 40
1.0
 10
11.0847995479
 20
38.1708137836
 30
0.0
 10
11.1297616543
 20
38.1646851245
 30
0.0
 10
11.2183784679
 20
38.1585407281
 30
0.0
 10
11.3483787597
 20
38.1694462544
 30
0.0
 10
11.4701068715
 20
38.2007920853
 30
0.0
 10
11.5450659005
 20
38.2353228325
 30
0.0
 10
11.5801917039
 20
38.2556041702
 30
0.0
  0
SPLINE
  5
2ED
100
AcDbEntity
  8
0
100
AcDbSpline
 62
7
  6
BYLAYER
 70
0
 71
3
 72
11
 73
7
 74
0
 42
0.0000001
 43
0.0000001
 44
0.0000000001
 40
0.0
 40
0.0
 40
0.0
 40
0.0
 40
0.2379331257
 40
0.4809922352
 40
0.7337811029
 40
1.0
 40
1.0
 40
1.0
 40
1.0
 10
9.580200825
 20
41.719710665
 30
0.0
 10
9.545075404
 20
41.6994295481
 30
0.0
 10
9.4776904492
 20
41.651783131
 30
0.0
 10
9.3896841674
 20
41.5620374545
 30
0.0
 10
9.3152296564
 20
41.4549119384
 30
0.0
 10
9.2762501042
 20
41.3750885792
 30
0.0
 10
9.2590752423
 20
41.3330821462
 30
0.0
  0
SPLINE
  5
2EE
100
AcDbEntity
  8
0
100
AcDbSpline
 62
7
  6
BYLAYER
 70
0
 71
3
 72
22
 73
18
 74
0
 42
0.0000001
 43
0.0000001
 44
0.0000000001
 40
0.0
 40
0.0
 40
0.0
 40
0.0
 40
0.0752740819
 40
0.1477056876
 40
0.2839266016
 40
0.3481236661
 40
0.4100058509
 40
0.4699111153
 40
0.5282436241
 40
0.585481083
 40
0.6421520591
 40
0.6988118279
 40
0.7560143058
 40
0.8142880948
 40
0.8741134383
 40
0.935902999
 40
1.0
 40
1.0
 40
1.0
 40
1.0
 10
10.1969698622
 20
41.3220988252
 30
0.0
 10
10.168306042
 20
41.3359828259
 30
0.0
 10
10.111142491
 20
41.3614069997
 30
0.0
 10
9.9981335522
 20
41.4023214382
 30
0.0
 10
9.8851881761
 20
41.4292190193
 30
0.0
 10
9.7745611425
 20
41.4397510802
 30
0.0
 10
9.6957294207
 20
41.4394692929
 30
0.0
 10
9.6198214589
 20
41.4311711291
 30
0.0
 10
9.5472229709
 20
41.4148518598
 30
0.0
 10
9.4783229361
 20
41.3905798774
 30
0.0
 10
9.4134818529
 20
41.358486484
 30
0.0
 10
9.3530652113
 20
41.3187119248
 30
0.0
 10
9.2973747546
 20
41.2715048167
 30
0.0
 10
9.2467150205
 20
41.2171034002
 30
0.0
 10
9.2013306112
 20
41.1558119994
 30
0.0
 10
9.1614269229
 20
41.0879684164
 30
0.0
 10
9.1390485013
 20
41.0395299702
 30
0.0
 10
9.1287848963
 20
41.0144269292
 30
0.0
  0
SPLINE
  5
2EF
100
AcDbEntity
  8
0
100
AcDbSpline
 62
7
  6
BYLAYER
 70
0
 71
3
 72
26
 73
22
 74
0
 42
0.0000001
 43
0.0000001
 44
0.0000000001
 40
0.0
 40
0.0
 40
0.0
 40
0.0
 40
0.0601881469
 40
0.12476886
 40
0.1930794086
 40
0.2642810136
 40
0.3373587761
 40
0.4112167825
 40
0.4847163344
 40
0.5567367105
 40
0.6262290949
 40
0.6922737127
 40
0.7541447086
 40
0.8113868847
 40
0.8382495963
 40
0.8639592373
 40
0.9121425898
 40
0.934917163
 40
0.9570098022
 40
0.9786274187
 40
1.0
 40
1.0
 40
1.0
 40
1.0
 10
10.371122909
 20
38.7237408351
 30
0.0
 10
10.3227846763
 20
38.7471546038
 30
0.0
 10
10.2261012379
 20
38.8031550436
 30
0.0
 10
10.0883377494
 20
38.9072032097
 30
0.0
 10
9.9553836308
 20
39.0321497973
 30
0.0
 10
9.8302547661
 20
39.1751094012
 30
0.0
 10
9.715777207
 20
39.3328702106
 30
0.0
 10
9.6145543
 20
39.5018305751
 30
0.0
 10
9.5288953258
 20
39.6781453652
 30
0.0
 10
9.460749993
 20
39.8577967424
 30
0.0
 10
9.4116676559
 20
40.0367027747
 30
0.0
 10
9.382768455
 20
40.210837233
 30
0.0
 10
9.3747322469
 20
40.3762734163
 30
0.0
 10
9.3858696473
 20
40.506578809
 30
0.0
 10
9.4060051668
 20
40.6026040548
 30
0.0
 10
9.4320239664
 20
40.6887410359
 30
0.0
 10
9.4685082612
 20
40.7677231195
 30
0.0
 10
9.5157250955
 20
40.8362263474
 30
0.0
 10
9.5551080682
 20
40.880808708
 30
0.0
 10
9.5988513774
 20
40.919243709
 30
0.0
 10
9.6308409272
 20
40.9406576449
 30
0.0
 10
9.6473587132
 20
40.9501925991
 30
0.0
  0
SPLINE
  5
2F0
100
AcDbEntity
  8
0
100
AcDbSpline
 62
7
  6
BYLAYER
 70
0
 71
3
 72
15
 73
11
 74
0
 42
0.0000001
 43
0.0000001
 44
0.0000000001
 40
0.0
 40
0.0
 40
0.0
 40
0.0
 40
0.1458578367
 40
0.2847549197
 40
0.4167269784
 40
0.5422699446
 40
0.6621788827
 40
0.7775139499
 40
0.8895994476
 40
1.0
 40
1.0
 40
1.0
 40
1.0
 10
10.4667067576
 20
41.6809172961
 30
0.0
 10
10.4263072805
 20
41.7004857404
 30
0.0
 10
10.3458358749
 20
41.7355133066
 30
0.0
 10
10.2239029693
 20
41.7758796723
 30
0.0
 10
10.104579399
 20
41.8023799786
 30
0.0
 10
9.9888199753
 20
41.8147946065
 30
0.0
 10
9.8774935579
 20
41.8129429354
 30
0.0
 10
9.7714662188
 20
41.7968119096
 30
0.0
 10
9.6716625033
 20
41.7664141564
 30
0.0
 10
9.6096251423
 20
41.7367000136
 30
0.0
 10
9.580200825
 20
41.719710665
 30
0.0
  0
SPLINE
  5
2F1
100
AcDbEntity
  8
0
100
AcDbSpline
 62
7
  6
BYLAYER
 70
0
 71
3
 72
15
 73
11
 74
0
 42
0.0000001
 43
0.0000001
 44
0.0000000001
 40
0.0
 40
0.0
 40
0.0
 40
0.0
 40
0.1186375535
 40
0.2427433105
 40
0.3706286178
 40
0.5004208464
 40
0.6301577757
 40
0.7578803045
 40
0.8817235539
 40
1.0
 40
1.0
 40
1.0
 40
1.0
 10
10.4544633206
 20
40.7630676851
 30
0.0
 10
10.4632200492
 20
40.7040061274
 30
0.0
 10
10.4879922428
 20
40.5841050856
 30
0.0
 10
10.5436948806
 20
40.4058147818
 30
0.0
 10
10.6176834302
 20
40.2282055121
 30
0.0
 10
10.708295551
 20
40.0552874378
 30
0.0
 10
10.8134960336
 20
39.8909336235
 30
0.0
 10
10.9309324921
 20
39.7388299456
 30
0.0
 10
11.057950619
 20
39.6024136192
 30
0.0
 10
11.14963715
 20
39.5217455326
 30
0.0
 10
11.1964945425
 20
39.4850349916
 30
0.0
  0
SPLINE
  5
2F2
100
AcDbEntity
  8
0
100
AcDbSpline
 62
7
  6
BYLAYER
 70
0
 71
3
 72
15
 73
11
 74
0
 42
0.0000001
 43
0.0000001
 44
0.0000000001
 40
0.0
 40
0.0
 40
0.0
 40
0.0
 40
0.1103982795
 40
0.2224833154
 40
0.3378180423
 40
0.4577222685
 40
0.583266022
 40
0.7152503622
 40
0.854155858
 40
1.0
 40
1.0
 40
1.0
 40
1.0
 10
10.9473507459
 20
38.698526913
 30
0.0
 10
10.9282242245
 20
38.6874860565
 30
0.0
 10
10.8879034425
 20
38.6681663217
 30
0.0
 10
10.8230296078
 20
38.648413426
 30
0.0
 10
10.7541139193
 20
38.6379256823
 30
0.0
 10
10.6817525614
 20
38.6367198651
 30
0.0
 10
10.6065073586
 20
38.644789549
 30
0.0
 10
10.5289431618
 20
38.6620168392
 30
0.0
 10
10.4496861718
 20
38.6882568852
 30
0.0
 10
10.3973800608
 20
38.7110225612
 30
0.0
 10
10.371122909
 20
38.7237408351
 30
0.0
  0
SPLINE
  5
2F3
100
AcDbEntity
  8
0
100
AcDbSpline
 62
7
  6
BYLAYER
 70
0
 71
3
 72
35
 73
31
 74
0
 42
0.0000001
 43
0.0000001
 44
0.0000000001
 40
0.0
 40
0.0
 40
0.0
 40
0.0
 40
0.0250736253
 40
0.0490419752
 40
0.0721377765
 40
0.0946503892
 40
0.1169135373
 40
0.1392796632
 40
0.1620919856
 40
0.1856616372
 40
0.2102475862
 40
0.2360490192
 40
0.263201656
 40
0.2917830185
 40
0.3218168235
 40
0.3532809659
 40
0.3861134113
 40
0.4202186606
 40
0.4554732319
 40
0.4917302463
 40
0.5665468276
 40
0.6432175447
 40
0.7201363742
 40
0.7956795397
 40
0.8324661948
 40
0.8683484656
 40
0.9031648443
 40
0.9367869546
 40
0.9691035877
 40
1.0
 40
1.0
 40
1.0
 40
1.0
 10
10.743691398
 20
38.2173073553
 30
0.0
 10
10.7776128665
 20
38.2126836404
 30
0.0
 10
10.8445583566
 20
38.2073860642
 30
0.0
 10
10.9432177367
 20
38.212209325
 30
0.0
 10
11.036872617
 20
38.2300060007
 30
0.0
 10
11.1246826074
 20
38.2607222069
 30
0.0
 10
11.2058621429
 20
38.3041050261
 30
0.0
 10
11.27966316
 20
38.3597835241
 30
0.0
 10
11.3454495138
 20
38.4272195982
 30
0.0
 10
11.4026815369
 20
38.5057926856
 30
0.0
 10
11.4509483137
 20
38.5947975249
 30
0.0
 10
11.4899126202
 20
38.693488985
 30
0.0
 10
11.5193212588
 20
38.8010678468
 30
0.0
 10
11.5389800318
 20
38.916684807
 30
0.0
 10
11.5487613771
 20
39.0394351748
 30
0.0
 10
11.5486094038
 20
39.1683598014
 30
0.0
 10
11.5385303218
 20
39.3024502563
 30
0.0
 10
11.5186176611
 20
39.4406542505
 30
0.0
 10
11.4890223557
 20
39.5818879461
 30
0.0
 10
11.4364313542
 20
39.7747373992
 30
0.0
 10
11.3478853759
 20
40.0158997242
 30
0.0
 10
11.2100612199
 20
40.2962544038
 30
0.0
 10
11.0438177723
 20
40.5619156731
 30
0.0
 10
10.8844763701
 20
40.7660238382
 30
0.0
 10
10.7470280687
 20
40.9146762962
 30
0.0
 10
10.6412796939
 20
41.0165664072
 30
0.0
 10
10.5327916872
 20
41.1090073762
 30
0.0
 10
10.422411667
 20
41.1912944526
 30
0.0
 10
10.3110206185
 20
41.2627258835
 30
0.0
 10
10.234936028
 20
41.3037090129
 30
0.0
 10
10.1969698622
 20
41.3220988252
 30
0.0
  0
SPLINE
  5
2F4
100
AcDbEntity
  8
0
100
AcDbSpline
 62
7
  6
BYLAYER
 70
0
 71
3
 72
27
 73
23
 74
0
 42
0.0000001
 43
0.0000001
 44
0.0000000001
 40
0.0
 40
0.0
 40
0.0
 40
0.0
 40
0.0213720315
 40
0.0429884441
 40
0.0650804564
 40
0.0878535243
 40
0.1114809457
 40
0.1360995115
 40
0.188620233
 40
0.2458597398
 40
0.3077274005
 40
0.3737685541
 40
0.4432574283
 40
0.5152740176
 40
0.5887691951
 40
0.6626230311
 40
0.7356983778
 40
0.8068968659
 40
0.8752055598
 40
0.9397795743
 40
0.9704769536
 40
1.0
 40
1.0
 40
1.0
 40
1.0
 10
11.5801917039
 20
38.2556041702
 30
0.0
 10
11.6056027486
 20
38.2702762895
 30
0.0
 10
11.6548148015
 20
38.3032234189
 30
0.0
 10
11.722125161
 20
38.3623444546
 30
0.0
 10
11.7826963304
 20
38.4309405834
 30
0.0
 10
11.8361901353
 20
38.5085329917
 30
0.0
 10
11.8823099545
 20
38.5946592279
 30
0.0
 10
11.9347660022
 20
38.7229012818
 30
0.0
 10
11.9794847278
 20
38.9029740466
 30
0.0
 10
11.9996091648
 20
39.1385276307
 30
0.0
 10
11.9872554891
 20
39.3930910997
 30
0.0
 10
11.9427958303
 20
39.660975931
 30
0.0
 10
11.8672857363
 20
39.9362192804
 30
0.0
 10
11.762444447
 20
40.2126024044
 30
0.0
 10
11.6306596917
 20
40.4838525065
 30
0.0
 10
11.4749318909
 20
40.7437917904
 30
0.0
 10
11.2988147166
 20
40.9864999541
 30
0.0
 10
11.106301017
 20
41.2064511624
 30
0.0
 10
10.9017838522
 20
41.3986461019
 30
0.0
 10
10.7221298873
 20
41.5343461839
 30
0.0
 10
10.5762978766
 20
41.6244692253
 30
0.0
 10
10.5031862435
 20
41.6632475924
 30
0.0
 10
10.4667067576
 20
41.6809172961
 30
0.0
  0
SPLINE
  5
2F5
100
AcDbEntity
  8
0
100
AcDbSpline
 62
7
  6
BYLAYER
 70
0
 71
3
 72
22
 73
18
 74
0
 42
0.0000001
 43
0.0000001
 44
0.0000000001
 40
0.0
 40
0.0
 40
0.0
 40
0.0
 40
0.0454684226
 40
0.0917335961
 40
0.139525883
 40
0.189457026
 40
0.2419924586
 40
0.2974486943
 40
0.3559959026
 40
0.4176792752
 40
0.4824329716
 40
0.5500965588
 40
0.6204344671
 40
0.6931436291
 40
0.7678710275
 40
0.8442213237
 40
1.0
 40
1.0
 40
1.0
 40
1.0
 10
18.3615472943
 20
23.9895380677
 30
0.0
 10
18.3615477364
 20
23.9257077308
 30
0.0
 10
18.3722196345
 20
23.7966882111
 30
0.0
 10
18.4198451165
 20
23.6058919461
 30
0.0
 10
18.4985344302
 20
23.4188861582
 30
0.0
 10
18.6073711717
 20
23.2374464302
 30
0.0
 10
18.7451929217
 20
23.0630922174
 30
0.0
 10
18.9107008544
 20
22.8973079659
 30
0.0
 10
19.1023533405
 20
22.7414456497
 30
0.0
 10
19.3184491571
 20
22.5968227753
 30
0.0
 10
19.5570790579
 20
22.4646748784
 30
0.0
 10
19.8161282444
 20
22.3461161968
 30
0.0
 10
20.0933239991
 20
22.242204734
 30
0.0
 10
20.3862030919
 20
22.1538283319
 30
0.0
 10
20.692196851
 20
22.0817679757
 30
0.0
 10
21.1167540888
 20
22.0078389492
 30
0.0
 10
21.4422777562
 20
21.9794195758
 30
0.0
 10
21.6608456602
 20
21.9721683767
 30
0.0
  0
SPLINE
  5
2F6
100
AcDbEntity
  8
0
100
AcDbSpline
 62
7
  6
BYLAYER
 70
0
 71
3
 72
21
 73
17
 74
0
 42
0.0000001
 43
0.0000001
 44
0.0000000001
 40
0.0
 40
0.0
 40
0.0
 40
0.0
 40
0.0466406511
 40
0.0945425194
 40
0.1441387111
 40
0.1957779172
 40
0.3060610741
 40
0.3650999663
 40
0.4267547038
 40
0.4909944483
 40
0.5577251863
 40
0.6268089996
 40
0.6980614233
 40
0.8461369136
 40
0.9224940986
 40
1.0
 40
1.0
 40
1.0
 40
1.0
 10
18.5477002558
 20
23.943039335
 30
0.0
 10
18.5571774477
 20
23.8925474761
 30
0.0
 10
18.5832730978
 20
23.7913691153
 30
0.0
 10
18.6424203919
 20
23.6436187081
 30
0.0
 10
18.7213877848
 20
23.4991452758
 30
0.0
 10
18.8552030505
 20
23.3079522103
 30
0.0
 10
19.0252016613
 20
23.1314080206
 30
0.0
 10
19.2230761957
 20
22.9712691754
 30
0.0
 10
19.391040398
 20
22.8556397875
 30
0.0
 10
19.5740793778
 20
22.7480255314
 30
0.0
 10
19.7711109909
 20
22.6490277185
 30
0.0
 10
19.9809260651
 20
22.559246229
 30
0.0
 10
20.2797888329
 20
22.4511412069
 30
0.0
 10
20.5947906801
 20
22.3656684546
 30
0.0
 10
20.9213364466
 20
22.302211822
 30
0.0
 10
21.0891288039
 20
22.2778023017
 30
0.0
 10
21.1738737853
 20
22.2674831903
 30
0.0
  0
SPLINE
  5
2F7
100
AcDbEntity
  8
0
100
AcDbSpline
 62
7
  6
BYLAYER
 70
0
 71
3
 72
19
 73
15
 74
0
 42
0.0000001
 43
0.0000001
 44
0.0000000001
 40
0.0
 40
0.0
 40
0.0
 40
0.0
 40
0.0558517821
 40
0.1142052333
 40
0.1748229185
 40
0.2374068686
 40
0.3670164166
 40
0.4999998318
 40
0.6329810443
 40
0.7625920794
 40
0.8251719527
 40
0.8857907783
 40
0.9441658932
 40
1.0
 40
1.0
 40
1.0
 40
1.0
 10
21.8792738275
 20
16.9069272415
 30
0.0
 10
21.8792740979
 20
16.8528991347
 30
0.0
 10
21.8840775403
 20
16.7423826022
 30
0.0
 10
21.9044265999
 20
16.5743531588
 30
0.0
 10
21.9379108246
 20
16.4018003136
 30
0.0
 10
22.0003426008
 20
16.1651960289
 30
0.0
 10
22.1092440498
 20
15.8692021238
 30
0.0
 10
22.2820577156
 20
15.5269026841
 30
0.0
 10
22.4920916138
 20
15.2060901624
 30
0.0
 10
22.6939819272
 20
14.9637904518
 30
0.0
 10
22.8676664835
 20
14.7914181606
 30
0.0
 10
23.0003735345
 20
14.67613142
 30
0.0
 10
23.135729935
 20
14.5745033718
 30
0.0
 10
23.2290386643
 20
14.5150789336
 30
0.0
 10
23.2758138344
 20
14.4880738874
 30
0.0
  0
SPLINE
  5
2F8
100
AcDbEntity
  8
0
100
AcDbSpline
 62
7
  6
BYLAYER
 70
0
 71
3
 72
15
 73
11
 74
0
 42
0.0000001
 43
0.0000001
 44
0.0000000001
 40
0.0
 40
0.0
 40
0.0
 40
0.0
 40
0.1080124236
 40
0.2180609836
 40
0.3319995335
 40
0.4513564664
 40
0.5772772161
 40
0.7104999058
 40
0.8513933886
 40
1.0
 40
1.0
 40
1.0
 40
1.0
 10
22.3918727285
 20
18.448201825
 30
0.0
 10
22.35129173
 20
18.4247759826
 30
0.0
 10
22.2732764882
 20
18.3703283673
 30
0.0
 10
22.1701805813
 20
18.2688800964
 30
0.0
 10
22.0815296762
 20
18.1484591194
 30
0.0
 10
22.0081117376
 20
18.0104432915
 30
0.0
 10
21.9505297004
 20
17.856221682
 30
0.0
 10
21.9092087835
 20
17.6873045041
 30
0.0
 10
21.8844572505
 20
17.5053086656
 30
0.0
 10
21.8792721481
 20
17.3796326453
 30
0.0
 10
21.8792726125
 20
17.3151652983
 30
0.0
  0
SPLINE
  5
2F9
100
AcDbEntity
  8
0
100
AcDbSpline
 62
7
  6
BYLAYER
 70
0
 71
3
 72
15
 73
11
 74
0
 42
0.0000001
 43
0.0000001
 44
0.0000000001
 40
0.0
 40
0.0
 40
0.0
 40
0.0
 40
0.1485637042
 40
0.2895076336
 40
0.4227260112
 40
0.5486363971
 40
0.6679989431
 40
0.7819371233
 40
0.8919863741
 40
1.0
 40
1.0
 40
1.0
 40
1.0
 10
23.629365753
 20
14.2839447558
 30
0.0
 10
23.6851780079
 20
14.2517222644
 30
0.0
 10
23.7966168297
 20
14.1933945723
 30
0.0
 10
23.9665900416
 20
14.123812075
 30
0.0
 10
24.1335485643
 20
14.0751416711
 30
0.0
 10
24.295890464
 20
14.0479199981
 30
0.0
 10
24.4521160776
 20
14.0424718688
 30
0.0
 10
24.6007226077
 20
14.059058392
 30
0.0
 10
24.7401276479
 20
14.0975977444
 30
0.0
 10
24.8262790004
 20
14.1379495141
 30
0.0
 10
24.8668587775
 20
14.1613746515
 30
0.0
  0
SPLINE
  5
2FA
100
AcDbEntity
  8
0
100
AcDbSpline
 62
7
  6
BYLAYER
 70
0
 71
3
 72
11
 73
7
 74
0
 42
0.0000001
 43
0.0000001
 44
0.0000000001
 40
0.0
 40
0.0
 40
0.0
 40
0.0
 40
0.2641927187
 40
0.5165732941
 40
0.7604977283
 40
1.0
 40
1.0
 40
1.0
 40
1.0
 10
22.9530470655
 20
18.5590941339
 30
0.0
 10
22.902122728
 20
18.5638551102
 30
0.0
 10
22.8017937233
 20
18.5668437658
 30
0.0
 10
22.6549951541
 20
18.5498529294
 30
0.0
 10
22.5172173482
 20
18.5113776263
 30
0.0
 10
22.4320288058
 20
18.4713823768
 30
0.0
 10
22.3918727285
 20
18.448201825
 30
0.0
  0
SPLINE
  5
2FB
100
AcDbEntity
  8
0
100
AcDbSpline
 62
7
  6
BYLAYER
 70
0
 71
3
 72
35
 73
31
 74
0
 42
0.0000001
 43
0.0000001
 44
0.0000000001
 40
0.0
 40
0.0
 40
0.0
 40
0.0
 40
0.0309840252
 40
0.060382802
 40
0.0881692786
 40
0.1144300221
 40
0.1393253477
 40
0.1630896446
 40
0.1860425919
 40
0.2085710889
 40
0.2310999153
 40
0.2540537187
 40
0.2778182417
 40
0.3027135925
 40
0.3289773058
 40
0.3567640128
 40
0.3861510261
 40
0.4171456366
 40
0.4496990188
 40
0.4837105231
 40
0.5190417597
 40
0.5555190563
 40
0.6310625223
 40
0.7085725058
 40
0.7860812352
 40
0.8616256553
 40
0.8981006388
 40
0.9334326142
 40
0.9674568287
 40
1.0
 40
1.0
 40
1.0
 40
1.0
 10
23.2758138344
 20
14.4880738874
 30
0.0
 10
23.3203481729
 20
14.4623625568
 30
0.0
 10
23.4092757288
 20
14.4158207963
 30
0.0
 10
23.5449111632
 20
14.3602898913
 30
0.0
 10
23.6781462756
 20
14.3214535159
 30
0.0
 10
23.8076921955
 20
14.2997284478
 30
0.0
 10
23.9323587098
 20
14.2953892937
 30
0.0
 10
24.0509375357
 20
14.3086175661
 30
0.0
 10
24.1622038016
 20
14.3393843501
 30
0.0
 10
24.2649189126
 20
14.3874911865
 30
0.0
 10
24.3579381871
 20
14.4523944824
 30
0.0
 10
24.4402142786
 20
14.5333756403
 30
0.0
 10
24.510960784
 20
14.6294550172
 30
0.0
 10
24.5695381584
 20
14.7395942708
 30
0.0
 10
24.6154885263
 20
14.8626563428
 30
0.0
 10
24.6484665423
 20
14.9974435431
 30
0.0
 10
24.6682055772
 20
15.1426782617
 30
0.0
 10
24.6745902567
 20
15.2969918623
 30
0.0
 10
24.6675509114
 20
15.4589324149
 30
0.0
 10
24.647202498
 20
15.6269725092
 30
0.0
 10
24.6137188016
 20
15.7995229042
 30
0.0
 10
24.5512875768
 20
16.036128998
 30
0.0
 10
24.4423865065
 20
16.3321235692
 30
0.0
 10
24.2695728886
 20
16.6744246977
 30
0.0
 10
24.0595386569
 20
16.9952387208
 30
0.0
 10
23.8576478006
 20
17.2375396488
 30
0.0
 10
23.6839626787
 20
17.4099127938
 30
0.0
 10
23.5512551633
 20
17.5252000896
 30
0.0
 10
23.4158982689
 20
17.626828599
 30
0.0
 10
23.3225891839
 20
17.6862532854
 30
0.0
 10
23.2758138344
 20
17.7132584351
 30
0.0
  0
SPLINE
  5
2FC
100
AcDbEntity
  8
0
100
AcDbSpline
 62
7
  6
BYLAYER
 70
0
 71
3
 72
23
 73
19
 74
0
 42
0.0000001
 43
0.0000001
 44
0.0000000001
 40
0.0
 40
0.0
 40
0.0
 40
0.0
 40
0.07427621
 40
0.1447521804
 40
0.2113630631
 40
0.2743163834
 40
0.3339964608
 40
0.3909651907
 40
0.445988931
 40
0.4999951833
 40
0.5540022564
 40
0.6090281392
 40
0.6659975526
 40
0.725677872
 40
0.7886385215
 40
0.8552501828
 40
0.9256981857
 40
1.0
 40
1.0
 40
1.0
 40
1.0
 10
23.2758138344
 20
17.7132584351
 30
0.0
 10
23.2312793332
 20
17.7389698597
 30
0.0
 10
23.1423514539
 20
17.7855117726
 30
0.0
 10
23.006715521
 20
17.8410427966
 30
0.0
 10
22.8734799362
 20
17.8798791631
 30
0.0
 10
22.7439335833
 20
17.9016040897
 30
0.0
 10
22.6192666886
 20
17.9059429691
 30
0.0
 10
22.5006875489
 20
17.8927142857
 30
0.0
 10
22.3894210505
 20
17.8619469607
 30
0.0
 10
22.286705803
 20
17.8138394588
 30
0.0
 10
22.1936864996
 20
17.7489353904
 30
0.0
 10
22.1114104922
 20
17.6679533581
 30
0.0
 10
22.0406641887
 20
17.5718730705
 30
0.0
 10
21.9820871287
 20
17.4617326864
 30
0.0
 10
21.9361371932
 20
17.3386700942
 30
0.0
 10
21.903159717
 20
17.2038796917
 30
0.0
 10
21.8834213429
 20
17.0586525453
 30
0.0
 10
21.8792735701
 20
16.9583686899
 30
0.0
 10
21.8792738275
 20
16.9069272415
 30
0.0
  0
SPLINE
  5
2FD
100
AcDbEntity
  8
0
100
AcDbSpline
 62
7
  6
BYLAYER
 70
0
 71
3
 72
11
 73
7
 74
0
 42
0.0000001
 43
0.0000001
 44
0.0000000001
 40
0.0
 40
0.0
 40
0.0
 40
0.0
 40
0.2411872978
 40
0.4860571674
 40
0.7380202799
 40
1.0
 40
1.0
 40
1.0
 40
1.0
 10
24.8668587775
 20
14.1613746515
 30
0.0
 10
24.9032847465
 20
14.1824019559
 30
0.0
 10
24.9735405069
 20
14.2305125733
 30
0.0
 10
25.0678887162
 20
14.3187096653
 30
0.0
 10
25.1508023553
 20
14.4223781132
 30
0.0
 10
25.1970279252
 20
14.4994983179
 30
0.0
 10
25.218114864
 20
14.5400259958
 30
0.0
  0
SPLINE
  5
2FE
100
AcDbEntity
  8
0
100
AcDbSpline
 62
7
  6
BYLAYER
 70
0
 71
3
 72
23
 73
19
 74
0
 42
0.0000001
 43
0.0000001
 44
0.0000000001
 40
0.0
 40
0.0
 40
0.0
 40
0.0
 40
0.0541832704
 40
0.1111994386
 40
0.1708123934
 40
0.2327399262
 40
0.2966200817
 40
0.3620465111
 40
0.428575715
 40
0.4957388287
 40
0.5630532918
 40
0.6300330008
 40
0.6961994865
 40
0.7610924825
 40
0.8242806522
 40
0.8853735961
 40
0.9440356783
 40
1.0
 40
1.0
 40
1.0
 40
1.0
 10
12.0633498582
 20
49.6378648561
 30
0.0
 10
12.3147378216
 20
49.5160991374
 30
0.0
 10
12.8183325632
 20
49.2401572473
 30
0.0
 10
13.5513421613
 20
48.7504853103
 30
0.0
 10
14.2743012295
 20
48.1792352367
 30
0.0
 10
14.9794279781
 20
47.5326913094
 30
0.0
 10
15.6592230076
 20
46.8176952353
 30
0.0
 10
16.3063964976
 20
46.0419557143
 30
0.0
 10
16.9140091962
 20
45.2138083049
 30
0.0
 10
17.4755235722
 20
44.342157419
 30
0.0
 10
17.9848897164
 20
43.4363799435
 30
0.0
 10
18.4366265866
 20
42.5062252054
 30
0.0
 10
18.8258819654
 20
41.56170404
 30
0.0
 10
19.1484705961
 20
40.6129657938
 30
0.0
 10
19.4009149572
 20
39.6702018644
 30
0.0
 10
19.5804927286
 20
38.7434821448
 30
0.0
 10
19.6852612272
 20
37.8428135652
 30
0.0
 10
19.7049519214
 20
37.2513268652
 30
0.0
 10
19.7010358928
 20
36.9628461538
 30
0.0
  0
SPLINE
  5
2FF
100
AcDbEntity
  8
0
100
AcDbSpline
 62
7
  6
BYLAYER
 70
0
 71
3
 72
34
 73
30
 74
0
 42
0.0000001
 43
0.0000001
 44
0.0000000001
 40
0.0
 40
0.0
 40
0.0
 40
0.0
 40
0.0293335634
 40
0.0598020974
 40
0.0913369239
 40
0.1238739412
 40
0.1573343944
 40
0.1916202216
 40
0.2622101224
 40
0.3347099333
 40
0.4080721639
 40
0.4812107465
 40
0.5530498098
 40
0.5881704219
 40
0.622593266
 40
0.6562090421
 40
0.6889199276
 40
0.7206397347
 40
0.7512984115
 40
0.780841917
 40
0.8092375783
 40
0.8364745845
 40
0.862569088
 40
0.887566124
 40
0.9115430858
 40
0.934612092
 40
0.9569197287
 40
0.9786464228
 40
1.0
 40
1.0
 40
1.0
 40
1.0
 10
15.8956762095
 20
52.7298376416
 30
0.0
 10
16.0924904479
 20
52.6345060002
 30
0.0
 10
16.4868700633
 20
52.425712344
 30
0.0
 10
17.0671306745
 20
52.0685950584
 30
0.0
 10
17.6442912354
 20
51.6633445912
 30
0.0
 10
18.2150989158
 20
51.2123404622
 30
0.0
 10
18.7764642629
 20
50.71803506
 30
0.0
 10
19.5152916267
 20
49.9979625896
 30
0.0
 10
20.3938363956
 20
49.0067946219
 30
0.0
 10
21.3527176906
 20
47.7064129882
 30
0.0
 10
22.2055740488
 20
46.3117821111
 30
0.0
 10
22.9335744096
 20
44.8537038731
 30
0.0
 10
23.4267378041
 20
43.6027427946
 30
0.0
 10
23.7441228063
 20
42.5972823982
 30
0.0
 10
23.9402557216
 20
41.8533118084
 30
0.0
 10
24.0951378313
 20
41.1180141033
 30
0.0
 10
24.2079535428
 20
40.3954548684
 30
0.0
 10
24.2780090567
 20
39.6896221031
 30
0.0
 10
24.3049757046
 20
39.0044223467
 30
0.0
 10
24.288607234
 20
38.3436260069
 30
0.0
 10
24.2290360458
 20
37.7108726471
 30
0.0
 10
24.1264782877
 20
37.1096449991
 30
0.0
 10
23.9814791421
 20
36.5432504458
 30
0.0
 10
23.7947185623
 20
36.0148276185
 30
0.0
 10
23.5671119458
 20
35.5273346214
 30
0.0
 10
23.2998167014
 20
35.083543396
 30
0.0
 10
22.9941256569
 20
34.6860723941
 30
0.0
 10
22.6518150822
 20
34.3373465419
 30
0.0
 10
22.3989195108
 20
34.1376896721
 30
0.0
 10
22.2678421245
 20
34.0473476992
 30
0.0
  0
SPLINE
  5
300
100
AcDbEntity
  8
0
100
AcDbSpline
 62
7
  6
BYLAYER
 70
0
 71
3
 72
14
 73
10
 74
0
 42
0.0000001
 43
0.0000001
 44
0.0000000001
 40
0.0
 40
0.0
 40
0.0
 40
0.0
 40
0.1109859641
 40
0.2251005192
 40
0.3429224508
 40
0.464910472
 40
0.722561932
 40
0.8588276379
 40
1.0
 40
1.0
 40
1.0
 40
1.0
 10
8.6687625045
 20
50.2219186032
 30
0.0
 10
8.7957830332
 20
50.2478012842
 30
0.0
 10
9.0563402489
 20
50.2867630612
 30
0.0
 10
9.4569581347
 20
50.3065861151
 30
0.0
 10
9.8705291595
 20
50.2885092694
 30
0.0
 10
10.4471915953
 20
50.2127582676
 30
0.0
 10
11.0330936503
 20
50.0606369461
 30
0.0
 10
11.6189828318
 20
49.8423762499
 30
0.0
 10
11.9149534705
 20
49.7097441638
 30
0.0
 10
12.0633498582
 20
49.6378648561
 30
0.0
  0
SPLINE
  5
301
100
AcDbEntity
  8
0
100
AcDbSpline
 62
7
  6
BYLAYER
 70
0
 71
3
 72
18
 73
14
 74
0
 42
0.0000001
 43
0.0000001
 44
0.0000000001
 40
0.0
 40
0.0
 40
0.0
 40
0.0
 40
0.0551220757
 40
0.1104575023
 40
0.1662146932
 40
0.2225948137
 40
0.3379002163
 40
0.4577907405
 40
0.5198240541
 40
0.5833716593
 40
0.7152980272
 40
0.8541341111
 40
1.0
 40
1.0
 40
1.0
 40
1.0
 10
11.0198957615
 20
52.9431973956
 30
0.0
 10
11.1007151002
 20
52.9898617689
 30
0.0
 10
11.2663158462
 20
53.0772082359
 30
0.0
 10
11.5247258372
 20
53.1892681454
 30
0.0
 10
11.7928555469
 20
53.2823060308
 30
0.0
 10
12.1652561492
 20
53.3814275717
 30
0.0
 10
12.6550003182
 20
53.4560570784
 30
0.0
 10
13.1595962275
 20
53.4643455161
 30
0.0
 10
13.5742232735
 20
53.4332296601
 30
0.0
 10
14.0065283615
 20
53.375110794
 30
0.0
 10
14.560226113
 20
53.2521213801
 30
0.0
 10
15.2308247576
 20
53.0301993682
 30
0.0
 10
15.6734198212
 20
52.8374927913
 30
0.0
 10
15.8956762095
 20
52.7298376416
 30
0.0
  0
SPLINE
  5
302
100
AcDbEntity
  8
0
100
AcDbSpline
 62
7
  6
BYLAYER
 70
0
 71
3
 72
21
 73
17
 74
0
 42
0.0000001
 43
0.0000001
 44
0.0000000001
 40
0.0
 40
0.0
 40
0.0
 40
0.0
 40
0.0540712752
 40
0.1108249764
 40
0.1700116467
 40
0.2313837881
 40
0.2946362604
 40
0.3594056121
 40
0.491852248
 40
0.6254360778
 40
0.6916024704
 40
0.7567718008
 40
0.8205443567
 40
0.8825521903
 40
0.9424633486
 40
1.0
 40
1.0
 40
1.0
 40
1.0
 10
13.496568927
 20
45.510722841
 30
0.0
 10
13.6014504924
 20
45.4585197351
 30
0.0
 10
13.8114697856
 20
45.3413667039
 30
0.0
 10
14.1175957144
 20
45.1358483873
 30
0.0
 10
14.419733616
 20
44.8979996137
 30
0.0
 10
14.7149383982
 20
44.6302284334
 30
0.0
 10
15.0004481982
 20
44.3350837542
 30
0.0
 10
15.3671371385
 20
43.905699994
 30
0.0
 10
15.7830446467
 20
43.3198763709
 30
0.0
 10
16.1316904173
 20
42.6883151226
 30
0.0
 10
16.3649630587
 20
42.1635581849
 30
0.0
 10
16.5137462544
 20
41.7675881975
 30
0.0
 10
16.6354346128
 20
41.3718853331
 30
0.0
 10
16.7288924623
 20
40.9802485403
 30
0.0
 10
16.7931530316
 20
40.596466034
 30
0.0
 10
16.8166714157
 20
40.3427820071
 30
0.0
 10
16.8230671678
 20
40.2182827687
 30
0.0
  0
SPLINE
  5
303
100
AcDbEntity
  8
0
100
AcDbSpline
 62
7
  6
BYLAYER
 70
0
 71
3
 72
22
 73
18
 74
0
 42
0.0000001
 43
0.0000001
 44
0.0000000001
 40
0.0
 40
0.0
 40
0.0
 40
0.0
 40
0.0518098477
 40
0.1032033171
 40
0.15472464
 40
0.2069112779
 40
0.2602679544
 40
0.3152414766
 40
0.4313294363
 40
0.493104758
 40
0.5575363268
 40
0.6246991543
 40
0.6946021451
 40
0.7672005154
 40
0.8423978104
 40
0.9200564781
 40
1.0
 40
1.0
 40
1.0
 40
1.0
 10
9.8545673739
 20
50.2192415018
 30
0.0
 10
9.7287581223
 20
50.1799587012
 30
0.0
 10
9.4826315335
 20
50.0863133132
 30
0.0
 10
9.1343961399
 20
49.9006948271
 30
0.0
 10
8.8116711206
 20
49.6718511471
 30
0.0
 10
8.5163218713
 20
49.401270406
 30
0.0
 10
8.249997745
 20
49.090457182
 30
0.0
 10
7.9297201388
 20
48.616630996
 30
0.0
 10
7.6801785446
 20
48.0743145215
 30
0.0
 10
7.4995012673
 20
47.4845644763
 30
0.0
 10
7.3950398921
 20
47.0032517784
 30
0.0
 10
7.3251529287
 20
46.4949988641
 30
0.0
 10
7.2900656159
 20
45.9623683417
 30
0.0
 10
7.2899834458
 20
45.4081968966
 30
0.0
 10
7.3248533624
 20
44.8353871443
 30
0.0
 10
7.3944995819
 20
44.2469857773
 30
0.0
 10
7.4629234763
 20
43.851725334
 30
0.0
 10
7.502628793
 20
43.6522700065
 30
0.0
  0
SPLINE
  5
304
100
AcDbEntity
  8
0
100
AcDbSpline
 62
7
  6
BYLAYER
 70
0
 71
3
 72
23
 73
19
 74
0
 42
0.0000001
 43
0.0000001
 44
0.0000000001
 40
0.0
 40
0.0
 40
0.0
 40
0.0
 40
0.0545935409
 40
0.112051742
 40
0.1720972043
 40
0.2344381183
 40
0.2986978169
 40
0.3644487801
 40
0.431232776
 40
0.4985653795
 40
0.5659490927
 40
0.6328856084
 40
0.698887853
 40
0.7634886583
 40
0.8262554264
 40
0.886801758
 40
0.9447997425
 40
1.0
 40
1.0
 40
1.0
 40
1.0
 10
13.6397042431
 20
45.8456774433
 30
0.0
 10
13.7593594931
 20
45.7861209744
 30
0.0
 10
13.9989113081
 20
45.6514752825
 30
0.0
 10
14.3471207922
 20
45.4134524723
 30
0.0
 10
14.6899886752
 20
45.1365166965
 30
0.0
 10
15.0237010029
 20
44.8238045506
 30
0.0
 10
15.3446800253
 20
44.4787403011
 30
0.0
 10
15.6493648529
 20
44.1050926228
 30
0.0
 10
15.9344057654
 20
43.7069808559
 30
0.0
 10
16.1966894696
 20
43.2888041435
 30
0.0
 10
16.4332922442
 20
42.8551543004
 30
0.0
 10
16.6416183808
 20
42.4108219204
 30
0.0
 10
16.8193867138
 20
41.9607088497
 30
0.0
 10
16.964606787
 20
41.509755261
 30
0.0
 10
17.0757063532
 20
41.0629314729
 30
0.0
 10
17.1514599266
 20
40.6251178529
 30
0.0
 10
17.1909887962
 20
40.2011484563
 30
0.0
 10
17.1929672151
 20
39.9235643751
 30
0.0
 10
17.1872995296
 20
39.7885403004
 30
0.0
  0
SPLINE
  5
305
100
AcDbEntity
  8
0
100
AcDbSpline
 62
7
  6
BYLAYER
 70
0
 71
3
 72
20
 73
16
 74
0
 42
0.0000001
 43
0.0000001
 44
0.0000000001
 40
0.0
 40
0.0
 40
0.0
 40
0.0
 40
0.0609456684
 40
0.1202045405
 40
0.1781481868
 40
0.2351929575
 40
0.2917931258
 40
0.3484188083
 40
0.4055411454
 40
0.4636103988
 40
0.5230423972
 40
0.584198762
 40
0.7127144372
 40
0.8510746105
 40
1.0
 40
1.0
 40
1.0
 40
1.0
 10
10.8982147955
 20
45.3211140755
 30
0.0
 10
10.9298935939
 20
45.3757488902
 30
0.0
 10
10.9973984515
 20
45.480704112
 30
0.0
 10
11.1124276766
 20
45.6254851329
 30
0.0
 10
11.2391594786
 20
45.7545904539
 30
0.0
 10
11.3770986622
 20
45.8673630716
 30
0.0
 10
11.5256110859
 20
45.9633159457
 30
0.0
 10
11.6840339107
 20
46.0420172884
 30
0.0
 10
11.8516673376
 20
46.1030742718
 30
0.0
 10
12.0277325023
 20
46.1463024917
 30
0.0
 10
12.2114766994
 20
46.1714771532
 30
0.0
 10
12.4697876677
 20
46.1811021994
 30
0.0
 10
12.8097734059
 20
46.1454411738
 30
0.0
 10
13.2269241752
 20
46.0318494582
 30
0.0
 10
13.5015483774
 20
45.914442295
 30
0.0
 10
13.6397042431
 20
45.8456774433
 30
0.0
  0
SPLINE
  5
306
100
AcDbEntity
  8
0
100
AcDbSpline
 62
7
  6
BYLAYER
 70
0
 71
3
 72
15
 73
11
 74
0
 42
0.0000001
 43
0.0000001
 44
0.0000000001
 40
0.0
 40
0.0
 40
0.0
 40
0.0
 40
0.1148323649
 40
0.227708073
 40
0.3414192597
 40
0.4586610657
 40
0.5817175831
 40
0.7123158637
 40
0.8516188358
 40
1.0
 40
1.0
 40
1.0
 40
1.0
 10
11.1285544514
 20
45.3034712283
 30
0.0
 10
11.1926185965
 20
45.3758427866
 30
0.0
 10
11.3329349835
 20
45.5083377099
 30
0.0
 10
11.5773785581
 20
45.6627529959
 30
0.0
 10
11.8491058134
 20
45.7674812715
 30
0.0
 10
12.1438391586
 20
45.8211559317
 30
0.0
 10
12.4573920431
 20
45.8236393692
 30
0.0
 10
12.7857659668
 20
45.7753464634
 30
0.0
 10
13.1248426239
 20
45.6772834356
 30
0.0
 10
13.3483954416
 20
45.5827332557
 30
0.0
 10
13.4607950491
 20
45.5282898417
 30
0.0
  0
SPLINE
  5
307
100
AcDbEntity
  8
0
100
AcDbSpline
 62
7
  6
BYLAYER
 70
0
 71
3
 72
18
 73
14
 74
0
 42
0.0000001
 43
0.0000001
 44
0.0000000001
 40
0.0
 40
0.0
 40
0.0
 40
0.0
 40
0.1458659281
 40
0.2847015777
 40
0.4166277053
 40
0.4801752843
 40
0.5422085918
 40
0.66209904
 40
0.7774045436
 40
0.8337847649
 40
0.8895421143
 40
0.9448777215
 40
1.0
 40
1.0
 40
1.0
 40
1.0
 10
12.0066051048
 20
50.4844947953
 30
0.0
 10
11.7843486506
 20
50.5921499769
 30
0.0
 10
11.3417543048
 20
50.7848565896
 30
0.0
 10
10.6711565635
 20
51.0067779184
 30
0.0
 10
10.1174600638
 20
51.1297675809
 30
0.0
 10
9.6851554288
 20
51.1878863341
 30
0.0
 10
9.2705286161
 20
51.2190032143
 30
0.0
 10
8.7659327063
 20
51.2107140793
 30
0.0
 10
8.2761880448
 20
51.1360861715
 30
0.0
 10
7.9037870181
 20
51.0369637547
 30
0.0
 10
7.6356564271
 20
50.9439262041
 30
0.0
 10
7.377245349
 20
50.8318663933
 30
0.0
 10
7.2116442652
 20
50.7445191512
 30
0.0
 10
7.1308246611
 20
50.6978545456
 30
0.0
  0
SPLINE
  5
308
100
AcDbEntity
  8
0
100
AcDbSpline
 62
7
  6
BYLAYER
 70
0
 71
3
 72
11
 73
7
 74
0
 42
0.0000001
 43
0.0000001
 44
0.0000000001
 40
0.0
 40
0.0
 40
0.0
 40
0.0
 40
0.2641766486
 40
0.5197355673
 40
0.7654184668
 40
1.0
 40
1.0
 40
1.0
 40
1.0
 10
19.147568268
 20
23.6499769365
 30
0.0
 10
19.2239464823
 20
23.5689236673
 30
0.0
 10
19.3793551309
 20
23.4142015005
 30
0.0
 10
19.6233397038
 20
23.2026192374
 30
0.0
 10
19.872306014
 20
23.0170902165
 30
0.0
 10
20.0440920578
 20
22.9093891085
 30
0.0
 10
20.1301861183
 20
22.8607298756
 30
0.0
  0
SPLINE
  5
309
100
AcDbEntity
  8
0
100
AcDbSpline
 62
7
  6
BYLAYER
 70
0
 71
3
 72
17
 73
13
 74
0
 42
0.0000001
 43
0.0000001
 44
0.0000000001
 40
0.0
 40
0.0
 40
0.0
 40
0.0
 40
0.1509065479
 40
0.2937335235
 40
0.4281799022
 40
0.5545150579
 40
0.6734095558
 40
0.7860401554
 40
0.8405726502
 40
0.8942204148
 40
0.9472637611
 40
1.0
 40
1.0
 40
1.0
 40
1.0
 10
35.038174449
 20
19.2996358919
 30
0.0
 10
35.0477453821
 20
19.1568378705
 30
0.0
 10
35.0546516865
 20
18.8779011716
 30
0.0
 10
35.025778753
 20
18.4721732492
 30
0.0
 10
34.9575147096
 20
18.094677477
 30
0.0
 10
34.8504644662
 20
17.7498074961
 30
0.0
 10
34.7056307386
 20
17.4415699407
 30
0.0
 10
34.5527167749
 20
17.2158340882
 30
0.0
 10
34.4135397231
 20
17.0590437806
 30
0.0
 10
34.3021040572
 20
16.9540299144
 30
0.0
 10
34.1828745289
 20
16.8607156495
 30
0.0
 10
34.0982936366
 20
16.8064451543
 30
0.0
 10
34.0549783895
 20
16.7814402196
 30
0.0
  0
SPLINE
  5
30A
100
AcDbEntity
  8
0
100
AcDbSpline
 62
7
  6
BYLAYER
 70
0
 71
3
 72
11
 73
7
 74
0
 42
0.0000001
 43
0.0000001
 44
0.0000000001
 40
0.0
 40
0.0
 40
0.0
 40
0.0
 40
0.2627768148
 40
0.5183958458
 40
0.7647683492
 40
1.0
 40
1.0
 40
1.0
 40
1.0
 10
34.5320923891
 20
21.3565341407
 30
0.0
 10
34.6031808955
 20
21.1843401631
 30
0.0
 10
34.7314718815
 20
20.8395470272
 30
0.0
 10
34.8823527331
 20
20.3182524886
 30
0.0
 10
34.9874505718
 20
19.8057161938
 30
0.0
 10
35.0270222782
 20
19.4660259302
 30
0.0
 10
35.038174449
 20
19.2996358919
 30
0.0
  0
SPLINE
  5
30B
100
AcDbEntity
  8
0
100
AcDbSpline
 62
7
  6
BYLAYER
 70
0
 71
3
 72
14
 73
10
 74
0
 42
0.0000001
 43
0.0000001
 44
0.0000000001
 40
0.0
 40
0.0
 40
0.0
 40
0.0
 40
0.1138159034
 40
0.2321073381
 40
0.3542727135
 40
0.4797315911
 40
0.6077973405
 40
0.737730873
 40
1.0
 40
1.0
 40
1.0
 40
1.0
 10
29.5934749024
 20
16.1561559071
 30
0.0
 10
29.5846274583
 20
16.2881594957
 30
0.0
 10
29.5560693558
 20
16.5567360448
 30
0.0
 10
29.4838634115
 20
16.9624619946
 30
0.0
 10
29.3820002828
 20
17.375727523
 30
0.0
 10
29.2514414109
 20
17.7927263268
 30
0.0
 10
29.0933642974
 20
18.2097738294
 30
0.0
 10
28.8471026612
 20
18.7623604328
 30
0.0
 10
28.6268979357
 20
19.162952483
 30
0.0
 10
28.4656149154
 20
19.4216581253
 30
0.0
  0
SPLINE
  5
30C
100
AcDbEntity
  8
0
100
AcDbSpline
 62
7
  6
BYLAYER
 70
0
 71
3
 72
10
 73
6
 74
0
 42
0.0000001
 43
0.0000001
 44
0.0000000001
 40
0.0
 40
0.0
 40
0.0
 40
0.0
 40
0.4817260197
 40
0.7365354125
 40
1.0
 40
1.0
 40
1.0
 40
1.0
 10
29.5389531179
 20
15.1070666336
 30
0.0
 10
29.5707838237
 20
15.2731099591
 30
0.0
 10
29.6000149079
 20
15.5310227814
 30
0.0
 10
29.6068531642
 20
15.8820084807
 30
0.0
 10
29.599658472
 20
16.0638972438
 30
0.0
 10
29.5934749024
 20
16.1561559071
 30
0.0
  0
SPLINE
  5
30D
100
AcDbEntity
  8
0
100
AcDbSpline
 62
7
  6
BYLAYER
 70
0
 71
3
 72
9
 73
5
 74
0
 42
0.0000001
 43
0.0000001
 44
0.0000000001
 40
0.0
 40
0.0
 40
0.0
 40
0.0
 40
0.2551261414
 40
1.0
 40
1.0
 40
1.0
 40
1.0
 10
30.1945131641
 20
16.5031634379
 30
0.0
 10
30.1970407067
 20
16.4654525811
 30
0.0
 10
30.2052972003
 20
16.3175366349
 30
0.0
 10
30.2068320995
 20
16.1692247681
 30
0.0
 10
30.2037494967
 20
16.0589190701
 30
0.0
  0
SPLINE
  5
30E
100
AcDbEntity
  8
0
100
AcDbSpline
 62
7
  6
BYLAYER
 70
0
 71
3
 72
14
 73
10
 74
0
 42
0.0000001
 43
0.0000001
 44
0.0000000001
 40
0.0
 40
0.0
 40
0.0
 40
0.0
 40
0.262269127
 40
0.3922026595
 40
0.5202684089
 40
0.6457272865
 40
0.7678926619
 40
0.8861840966
 40
1.0
 40
1.0
 40
1.0
 40
1.0
 10
29.066653177
 20
19.7686656561
 30
0.0
 10
29.2279361974
 20
19.5099600138
 30
0.0
 10
29.4481409228
 20
19.1093679636
 30
0.0
 10
29.694402559
 20
18.5567813602
 30
0.0
 10
29.8524796725
 20
18.1397338576
 30
0.0
 10
29.9830385445
 20
17.7227350538
 30
0.0
 10
30.0849016732
 20
17.3094695254
 30
0.0
 10
30.1571076174
 20
16.9037435756
 30
0.0
 10
30.1856657199
 20
16.6351670265
 30
0.0
 10
30.1945131641
 20
16.5031634379
 30
0.0
  0
SPLINE
  5
30F
100
AcDbEntity
  8
0
100
AcDbSpline
 62
7
  6
BYLAYER
 70
0
 71
3
 72
16
 73
12
 74
0
 42
0.0000001
 43
0.0000001
 44
0.0000000001
 40
0.0
 40
0.0
 40
0.0
 40
0.0
 40
0.1485711824
 40
0.2894803659
 40
0.4226823481
 40
0.5485894974
 40
0.6679371274
 40
0.781863469
 40
0.8919015705
 40
0.946079981
 40
1.0
 40
1.0
 40
1.0
 40
1.0
 10
16.2046694795
 20
22.1425394377
 30
0.0
 10
16.0242419523
 20
22.0383701781
 30
0.0
 10
15.6808497987
 20
21.8207141437
 30
0.0
 10
15.2113892386
 20
21.4573512438
 30
0.0
 10
14.8053311624
 20
21.0686723826
 30
0.0
 10
14.4667257971
 20
20.6582607638
 30
0.0
 10
14.1990245204
 20
20.2296987838
 30
0.0
 10
14.0052390192
 20
19.7870218437
 30
0.0
 10
13.9068948366
 20
19.4076005611
 30
0.0
 10
13.8680143536
 20
19.1038966226
 30
0.0
 10
13.8615556878
 20
18.9522247484
 30
0.0
 10
13.8615556883
 20
18.8766134015
 30
0.0
  0
SPLINE
  5
310
100
AcDbEntity
  8
0
100
AcDbSpline
 62
7
  6
BYLAYER
 70
0
 71
3
 72
10
 73
6
 74
0
 42
0.0000001
 43
0.0000001
 44
0.0000000001
 40
0.0
 40
0.0
 40
0.0
 40
0.0
 40
0.2454690946
 40
0.4929381928
 40
1.0
 40
1.0
 40
1.0
 40
1.0
 10
22.3543709538
 20
18.5131556136
 30
0.0
 10
22.3810743511
 20
18.5285732118
 30
0.0
 10
22.4364436636
 20
18.5566354672
 30
0.0
 10
22.5541299943
 20
18.6010377064
 30
0.0
 10
22.6478620411
 20
18.6201030937
 30
0.0
 10
22.7112024735
 20
18.6268107612
 30
0.0
  0
SPLINE
  5
311
100
AcDbEntity
  8
0
100
AcDbSpline
 62
7
  6
BYLAYER
 70
0
 71
3
 72
15
 73
11
 74
0
 42
0.0000001
 43
0.0000001
 44
0.0000000001
 40
0.0
 40
0.0
 40
0.0
 40
0.0
 40
0.1415899786
 40
0.2783547717
 40
0.410155322
 40
0.5370390004
 40
0.6591620896
 40
0.7767861443
 40
0.8902625906
 40
1.0
 40
1.0
 40
1.0
 40
1.0
 10
31.761059881
 20
13.6510742536
 30
0.0
 10
31.8992969239
 20
13.5712648651
 30
0.0
 10
32.1755712873
 20
13.4219997274
 30
0.0
 10
32.5953439548
 20
13.2273952944
 30
0.0
 10
33.0116272445
 20
13.0668723472
 30
0.0
 10
33.4225097771
 20
12.9411277062
 30
0.0
 10
33.826277163
 20
12.8507602666
 30
0.0
 10
34.2212294281
 20
12.7961660813
 30
0.0
 10
34.6055466863
 20
12.7777310522
 30
0.0
 10
34.8573885274
 20
12.7897550379
 30
0.0
 10
34.9804888649
 20
12.8020467495
 30
0.0
  0
SPLINE
  5
312
100
AcDbEntity
  8
0
100
AcDbSpline
 62
7
  6
BYLAYER
 70
0
 71
3
 72
9
 73
5
 74
0
 42
0.0000001
 43
0.0000001
 44
0.0000000001
 40
0.0
 40
0.0
 40
0.0
 40
0.0
 40
0.238410623
 40
1.0
 40
1.0
 40
1.0
 40
1.0
 10
31.4075050184
 20
13.8551946308
 30
0.0
 10
31.3990693658
 20
13.8600648469
 30
0.0
 10
31.3630482023
 20
13.8793807455
 30
0.0
 10
31.3248386001
 20
13.8944926641
 30
0.0
 10
31.2951865323
 20
13.9039238591
 30
0.0
  0
SPLINE
  5
313
100
AcDbEntity
  8
0
100
AcDbSpline
 62
7
  6
BYLAYER
 70
0
 71
3
 72
16
 73
12
 74
0
 42
0.0000001
 43
0.0000001
 44
0.0000000001
 40
0.0
 40
0.0
 40
0.0
 40
0.0
 40
0.1485716495
 40
0.2894813678
 40
0.422683492
 40
0.5485905854
 40
0.667938071
 40
0.7818641527
 40
0.891901927
 40
0.9460801619
 40
1.0
 40
1.0
 40
1.0
 40
1.0
 10
16.2047165829
 20
12.8345519523
 30
0.0
 10
16.0242855129
 20
12.9387215225
 30
0.0
 10
15.6808865491
 20
13.1563788179
 30
0.0
 10
15.2114166171
 20
13.5197442066
 30
0.0
 10
14.8053509138
 20
13.9084264308
 30
0.0
 10
14.4667398148
 20
14.3188417257
 30
0.0
 10
14.199033928
 20
14.7474074253
 30
0.0
 10
14.0052453199
 20
15.1900884215
 30
0.0
 10
13.9068996357
 20
15.5695132155
 30
0.0
 10
13.8680185149
 20
15.8732199132
 30
0.0
 10
13.8615597359
 20
16.024893158
 30
0.0
 10
13.8615597357
 20
16.1005051833
 30
0.0
  0
SPLINE
  5
314
100
AcDbEntity
  8
0
100
AcDbSpline
 62
7
  6
BYLAYER
 70
0
 71
3
 72
9
 73
5
 74
0
 42
0.0000001
 43
0.0000001
 44
0.0000000001
 40
0.0
 40
0.0
 40
0.0
 40
0.0
 40
0.2552748644
 40
1.0
 40
1.0
 40
1.0
 40
1.0
 10
25.2121914289
 20
14.3936743368
 30
0.0
 10
25.2025548416
 20
14.3788428875
 30
0.0
 10
25.163363286
 20
14.3216985669
 30
0.0
 10
25.1182361759
 20
14.2685774516
 30
0.0
 10
25.0815988733
 20
14.2322425641
 30
0.0
  0
SPLINE
  5
315
100
AcDbEntity
  8
0
100
AcDbSpline
 62
7
  6
BYLAYER
 70
0
 71
3
 72
9
 73
5
 74
0
 42
0.0000001
 43
0.0000001
 44
0.0000000001
 40
0.0
 40
0.0
 40
0.0
 40
0.0
 40
0.5028088088
 40
1.0
 40
1.0
 40
1.0
 40
1.0
 10
25.0815988733
 20
14.2322425641
 30
0.0
 10
25.0549702039
 20
14.2058336957
 30
0.0
 10
24.9986889306
 20
14.1565413374
 30
0.0
 10
24.9364751165
 20
14.1149626777
 30
0.0
 10
24.9043591824
 20
14.096420072
 30
0.0
  0
SPLINE
  5
316
100
AcDbEntity
  8
0
100
AcDbSpline
 62
7
  6
BYLAYER
 70
0
 71
3
 72
22
 73
18
 74
0
 42
0.0000001
 43
0.0000001
 44
0.0000000001
 40
0.0
 40
0.0
 40
0.0
 40
0.0
 40
0.099153566
 40
0.1541179916
 40
0.2125135559
 40
0.2740577732
 40
0.3383432755
 40
0.4048596402
 40
0.4730221271
 40
0.5421959044
 40
0.6117115263
 40
0.6808950337
 40
0.7490812498
 40
0.8156270133
 40
0.8799509235
 40
0.9415694454
 40
1.0
 40
1.0
 40
1.0
 40
1.0
 10
22.5596133142
 20
18.6793738105
 30
0.0
 10
22.7212906736
 20
18.657324847
 30
0.0
 10
22.9675018815
 20
18.5810147224
 30
0.0
 10
23.2792315187
 20
18.422089617
 30
0.0
 10
23.5211679141
 20
18.2650790314
 30
0.0
 10
23.7592998424
 20
18.0768590994
 30
0.0
 10
23.9904153755
 20
17.8600438695
 30
0.0
 10
24.211140446
 20
17.6177739274
 30
0.0
 10
24.418341247
 20
17.3535628129
 30
0.0
 10
24.6089796917
 20
17.0712035171
 30
0.0
 10
24.7803293879
 20
16.7748026206
 30
0.0
 10
24.9299091338
 20
16.4686436972
 30
0.0
 10
25.0555140095
 20
16.1571435928
 30
0.0
 10
25.1553956236
 20
15.8448356821
 30
0.0
 10
25.2280730707
 20
15.5361467218
 30
0.0
 10
25.2724289419
 20
15.2356193825
 30
0.0
 10
25.2830686286
 20
15.0379606122
 30
0.0
 10
25.2830686286
 20
14.9418032825
 30
0.0
  0
SPLINE
  5
317
100
AcDbEntity
  8
0
100
AcDbSpline
 62
7
  6
BYLAYER
 70
0
 71
3
 72
15
 73
11
 74
0
 42
0.0000001
 43
0.0000001
 44
0.0000000001
 40
0.0
 40
0.0
 40
0.0
 40
0.0
 40
0.1080124352
 40
0.2180618367
 40
0.3320011043
 40
0.451362035
 40
0.5772693389
 40
0.7104922434
 40
0.8514459498
 40
1.0
 40
1.0
 40
1.0
 40
1.0
 10
21.229382647
 20
20.4617057284
 30
0.0
 10
21.1506842421
 20
20.4162693222
 30
0.0
 10
20.9993626297
 20
20.3107041765
 30
0.0
 10
20.7994500508
 20
20.113926927
 30
0.0
 10
20.6274936895
 20
19.8804047424
 30
0.0
 10
20.4851389222
 20
19.612732524
 30
0.0
 10
20.3734431656
 20
19.3136605678
 30
0.0
 10
20.293281217
 20
18.9860305346
 30
0.0
 10
20.2453411519
 20
18.6330601725
 30
0.0
 10
20.2352390723
 20
18.389325352
 30
0.0
 10
20.2352390723
 20
18.2643438599
 30
0.0
  0
SPLINE
  5
318
100
AcDbEntity
  8
0
100
AcDbSpline
 62
7
  6
BYLAYER
 70
0
 71
3
 72
9
 73
5
 74
0
 42
0.0000001
 43
0.0000001
 44
0.0000000001
 40
0.0
 40
0.0
 40
0.0
 40
0.0
 40
0.5210651938
 40
1.0
 40
1.0
 40
1.0
 40
1.0
 10
20.2352390723
 20
15.4882356417
 30
0.0
 10
20.2352390723
 20
15.4205616021
 30
0.0
 10
20.2270471159
 20
15.2904881066
 30
0.0
 10
20.1989911231
 20
15.1629336521
 30
0.0
 10
20.1798585537
 20
15.103746907
 30
0.0
  0
SPLINE
  5
319
100
AcDbEntity
  8
0
100
AcDbSpline
 62
7
  6
BYLAYER
 70
0
 71
3
 72
11
 73
7
 74
0
 42
0.0000001
 43
0.0000001
 44
0.0000000001
 40
0.0
 40
0.0
 40
0.0
 40
0.0
 40
0.270154643
 40
0.5237731435
 40
0.7651753571
 40
1.0
 40
1.0
 40
1.0
 40
1.0
 10
20.1798585537
 20
15.103746907
 30
0.0
 10
20.1659039337
 20
15.0605781866
 30
0.0
 10
20.1329129689
 20
14.9785940237
 30
0.0
 10
20.0654194099
 20
14.8684719394
 30
0.0
 10
19.9825364703
 20
14.777151043
 30
0.0
 10
19.9172965683
 20
14.7297238561
 30
0.0
 10
19.8831447633
 20
14.7100064188
 30
0.0
  0
SPLINE
  5
31A
100
AcDbEntity
  8
0
100
AcDbSpline
 62
7
  6
BYLAYER
 70
0
 71
3
 72
10
 73
6
 74
0
 42
0.0000001
 43
0.0000001
 44
0.0000000001
 40
0.0
 40
0.0
 40
0.0
 40
0.0
 40
0.5154263548
 40
0.7619499178
 40
1.0
 40
1.0
 40
1.0
 40
1.0
 10
18.353229661
 20
23.1119791297
 30
0.0
 10
18.0320237581
 20
23.0138324251
 30
0.0
 10
17.5636322933
 20
22.8453420949
 30
0.0
 10
16.9712986757
 20
22.5731386454
 30
0.0
 10
16.6925624135
 20
22.4242299277
 30
0.0
 10
16.558224342
 20
22.346670269
 30
0.0
  0
SPLINE
  5
31B
100
AcDbEntity
  8
0
100
AcDbSpline
 62
7
  6
BYLAYER
 70
0
 71
3
 72
17
 73
13
 74
0
 42
0.0000001
 43
0.0000001
 44
0.0000000001
 40
0.0
 40
0.0
 40
0.0
 40
0.0
 40
0.1555244654
 40
0.3026997987
 40
0.4405076242
 40
0.5684707509
 40
0.6868123202
 40
0.7966126071
 40
0.8489836793
 40
0.9000681339
 40
0.9502614899
 40
1.0
 40
1.0
 40
1.0
 40
1.0
 10
20.2075650868
 20
17.4615683803
 30
0.0
 10
20.0677509848
 20
17.5038393154
 30
0.0
 10
19.7990901216
 20
17.5983331335
 30
0.0
 10
19.4238700367
 20
17.7743758572
 30
0.0
 10
19.0928425179
 20
17.9782642888
 30
0.0
 10
18.8120112319
 20
18.2066169495
 30
0.0
 10
18.5865908879
 20
18.455634164
 30
0.0
 10
18.4464478359
 20
18.6808776066
 30
0.0
 10
18.3684511453
 20
18.8657186376
 30
0.0
 10
18.3270357759
 20
19.0042755142
 30
0.0
 10
18.3021262587
 20
19.1442067957
 30
0.0
 10
18.2965616805
 20
19.2381515768
 30
0.0
 10
18.2965572976
 20
19.2848646559
 30
0.0
  0
SPLINE
  5
31C
100
AcDbEntity
  8
0
100
AcDbSpline
 62
7
  6
BYLAYER
 70
0
 71
3
 72
15
 73
11
 74
0
 42
0.0000001
 43
0.0000001
 44
0.0000000001
 40
0.0
 40
0.0
 40
0.0
 40
0.0
 40
0.1307069607
 40
0.2624046768
 40
0.393722051
 40
0.5232986307
 40
0.6498374942
 40
0.7721267329
 40
0.8891446814
 40
1.0
 40
1.0
 40
1.0
 40
1.0
 10
23.2199612341
 20
8.7633489237
 30
0.0
 10
22.9594239609
 20
8.7304050709
 30
0.0
 10
22.4337076888
 20
8.6838414852
 30
0.0
 10
21.6421098966
 20
8.6711494633
 30
0.0
 10
20.8538650335
 20
8.7152946842
 30
0.0
 10
20.0812157344
 20
8.8156013166
 30
0.0
 10
19.3361116621
 20
8.9705317254
 30
0.0
 10
18.6299509437
 20
9.1776777447
 30
0.0
 10
17.9737683459
 20
9.4339040067
 30
0.0
 10
17.5643258994
 20
9.6408822766
 30
0.0
 10
17.3714379143
 20
9.7522436874
 30
0.0
  0
SPLINE
  5
31D
100
AcDbEntity
  8
0
100
AcDbSpline
 62
7
  6
BYLAYER
 70
0
 71
3
 72
17
 73
13
 74
0
 42
0.0000001
 43
0.0000001
 44
0.0000000001
 40
0.0
 40
0.0
 40
0.0
 40
0.0
 40
0.1410532539
 40
0.2764658401
 40
0.4063347432
 40
0.4694064382
 40
0.531349363
 40
0.6521940127
 40
0.7698926716
 40
0.8278808637
 40
0.8854494449
 40
1.0
 40
1.0
 40
1.0
 40
1.0
 10
17.4357596269
 20
6.9333930337
 30
0.0
 10
17.291666842
 20
7.0180484595
 30
0.0
 10
17.0160483585
 20
7.196017558
 30
0.0
 10
16.6375499371
 20
7.4947255148
 30
0.0
 10
16.3587000731
 20
7.7672988974
 30
0.0
 10
16.1623262801
 20
7.9969473576
 30
0.0
 10
15.9870312041
 20
8.2297908248
 30
0.0
 10
15.8009855841
 20
8.5347037406
 30
0.0
 10
15.6626209384
 20
8.8591928207
 30
0.0
 10
15.5845146677
 20
9.1245738734
 30
0.0
 10
15.5286669322
 20
9.3916338077
 30
0.0
 10
15.5115472806
 20
9.596066316
 30
0.0
 10
15.5115472806
 20
9.7317863297
 30
0.0
  0
SPLINE
  5
31E
100
AcDbEntity
  8
0
100
AcDbSpline
 62
7
  6
BYLAYER
 70
0
 71
3
 72
24
 73
20
 74
0
 42
0.0000001
 43
0.0000001
 44
0.0000000001
 40
0.0
 40
0.0
 40
0.0
 40
0.0
 40
0.0241613379
 40
0.0487842377
 40
0.0997239357
 40
0.1534247309
 40
0.2101985401
 40
0.2701121207
 40
0.3329982082
 40
0.3984930851
 40
0.4660787687
 40
0.5351240366
 40
0.6049235124
 40
0.6747345155
 40
0.7438131769
 40
0.8114545938
 40
0.8770166353
 40
0.9399984731
 40
1.0
 40
1.0
 40
1.0
 40
1.0
 10
27.9840748393
 20
8.6875280709
 30
0.0
 10
27.9457990099
 20
8.601522847
 30
0.0
 10
27.8597627362
 20
8.4316300932
 30
0.0
 10
27.6522084785
 20
8.1026292167
 30
0.0
 10
27.3276561695
 20
7.7141902034
 30
0.0
 10
26.8542624955
 20
7.297137555
 30
0.0
 10
26.3014433407
 20
6.9265200809
 30
0.0
 10
25.6782824242
 20
6.6054663129
 30
0.0
 10
24.9942902984
 20
6.3370452871
 30
0.0
 10
24.2599705656
 20
6.1243023955
 30
0.0
 10
23.4868166673
 20
5.9699258877
 30
0.0
 10
22.6871851886
 20
5.8760209207
 30
0.0
 10
21.8740499157
 20
5.8439254171
 30
0.0
 10
21.0607128778
 20
5.8741137166
 30
0.0
 10
20.2604661777
 20
5.9661323742
 30
0.0
 10
19.4863416681
 20
6.1186953582
 30
0.0
 10
18.7506047223
 20
6.3296710459
 30
0.0
 10
18.0650048989
 20
6.5964173966
 30
0.0
 10
17.6373260074
 20
6.8149715057
 30
0.0
 10
17.4357596269
 20
6.9333930337
 30
0.0
  0
SPLINE
  5
31F
100
AcDbEntity
  8
0
100
AcDbSpline
 62
7
  6
BYLAYER
 70
0
 71
3
 72
15
 73
11
 74
0
 42
0.0000001
 43
0.0000001
 44
0.0000000001
 40
0.0
 40
0.0
 40
0.0
 40
0.0
 40
0.1485733642
 40
0.2895095326
 40
0.4227262941
 40
0.5486405953
 40
0.6680019171
 40
0.7819380343
 40
0.8919859505
 40
1.0
 40
1.0
 40
1.0
 40
1.0
 10
17.3714379143
 20
9.7522436874
 30
0.0
 10
17.228232995
 20
9.8349212157
 30
0.0
 10
16.9556655669
 20
10.0076949467
 30
0.0
 10
16.5830128223
 20
10.2961046375
 30
0.0
 10
16.2606863514
 20
10.6046247843
 30
0.0
 10
15.9919334997
 20
10.9304108128
 30
0.0
 10
15.7794190754
 20
11.2705449983
 30
0.0
 10
15.6256131074
 20
11.6220031551
 30
0.0
 10
15.5324450744
 20
11.9811944831
 30
0.0
 10
15.5115502312
 20
12.2243775476
 30
0.0
 10
15.5115501374
 20
12.3445940643
 30
0.0
  0
SPLINE
  5
320
100
AcDbEntity
  8
0
100
AcDbSpline
 62
7
  6
BYLAYER
 70
0
 71
3
 72
12
 73
8
 74
0
 42
0.0000001
 43
0.0000001
 44
0.0000000001
 40
0.0
 40
0.0
 40
0.0
 40
0.0
 40
0.2766553114
 40
0.534946548
 40
0.6573884015
 40
0.7755574282
 40
1.0
 40
1.0
 40
1.0
 40
1.0
 10
23.2758138344
 20
8.7521444071
 30
0.0
 10
23.5314961969
 20
8.6045294658
 30
0.0
 10
24.0412513266
 20
8.3444801929
 30
0.0
 10
24.7024427216
 20
8.1035600164
 30
0.0
 10
25.2198783904
 20
7.9760557683
 30
0.0
 10
25.709634758
 20
7.8941717493
 30
0.0
 10
26.0773101527
 20
7.8775624968
 30
0.0
 10
26.3165185367
 20
7.8896909171
 30
0.0
  0
SPLINE
  5
321
100
AcDbEntity
  8
0
100
AcDbSpline
 62
7
  6
BYLAYER
 70
0
 71
3
 72
12
 73
8
 74
0
 42
0.0000001
 43
0.0000001
 44
0.0000000001
 40
0.0
 40
0.0
 40
0.0
 40
0.0
 40
0.2894821226
 40
0.5486670408
 40
0.7816021005
 40
0.8917932739
 40
1.0
 40
1.0
 40
1.0
 40
1.0
 10
29.498355864
 20
9.7873925445
 30
0.0
 10
29.498355864
 20
9.7620585672
 30
0.0
 10
29.4945055905
 20
9.7138717222
 30
0.0
 10
29.4750349156
 20
9.6477051091
 30
0.0
 10
29.4470325321
 20
9.6020490565
 30
0.0
 10
29.418761604
 20
9.57424128
 30
0.0
 10
29.4030015639
 20
9.5632332287
 30
0.0
 10
29.3947990877
 20
9.5585009499
 30
0.0
  0
SPLINE
  5
322
100
AcDbEntity
  8
0
100
AcDbSpline
 62
7
  6
BYLAYER
 70
0
 71
3
 72
14
 73
10
 74
0
 42
0.0000001
 43
0.0000001
 44
0.0000000001
 40
0.0
 40
0.0
 40
0.0
 40
0.0
 40
0.2651841433
 40
0.3962732567
 40
0.5250315948
 40
0.6505443124
 40
0.7719953021
 40
0.8887095812
 40
1.0
 40
1.0
 40
1.0
 40
1.0
 10
36.593579849
 20
24.1158941461
 30
0.0
 10
36.7555980594
 20
23.8583732562
 30
0.0
 10
36.9745125315
 20
23.4581623819
 30
0.0
 10
37.2133177656
 20
22.9048516536
 30
0.0
 10
37.3623170608
 20
22.488228413
 30
0.0
 10
37.4802233036
 20
22.0732563178
 30
0.0
 10
37.565691546
 20
21.6644607134
 30
0.0
 10
37.6176935247
 20
21.2665206865
 30
0.0
 10
37.6300470479
 20
21.0048218572
 30
0.0
 10
37.6300470479
 20
20.8771373788
 30
0.0
  0
SPLINE
  5
323
100
AcDbEntity
  8
0
100
AcDbSpline
 62
7
  6
BYLAYER
 70
0
 71
3
 72
15
 73
11
 74
0
 42
0.0000001
 43
0.0000001
 44
0.0000000001
 40
0.0
 40
0.0
 40
0.0
 40
0.0
 40
0.1077625778
 40
0.2186770014
 40
0.3339505111
 40
0.4545334495
 40
0.5811031284
 40
0.7141152975
 40
0.8537982185
 40
1.0
 40
1.0
 40
1.0
 40
1.0
 10
15.5419324982
 20
11.0066467151
 30
0.0
 10
15.5598708722
 20
10.9011184225
 30
0.0
 10
15.6122130101
 20
10.6893903428
 30
0.0
 10
15.7364110326
 20
10.3807641855
 30
0.0
 10
15.9059655523
 20
10.0798820729
 30
0.0
 10
16.1193929731
 20
9.7889998649
 30
0.0
 10
16.3750025072
 20
9.5101226683
 30
0.0
 10
16.6708821595
 20
9.2451544463
 30
0.0
 10
17.0047880175
 20
8.996067775
 30
0.0
 10
17.2456692931
 20
8.8450516915
 30
0.0
 10
17.3714379143
 20
8.7724407869
 30
0.0
  0
SPLINE
  5
324
100
AcDbEntity
  8
0
100
AcDbSpline
 62
7
  6
BYLAYER
 70
0
 71
3
 72
9
 73
5
 74
0
 42
0.0000001
 43
0.0000001
 44
0.0000000001
 40
0.0
 40
0.0
 40
0.0
 40
0.0
 40
0.4947385778
 40
1.0
 40
1.0
 40
1.0
 40
1.0
 10
24.9043591824
 20
14.096420072
 30
0.0
 10
24.8600291348
 20
14.0708254687
 30
0.0
 10
24.7655247165
 20
14.0271637021
 30
0.0
 10
24.6648386162
 20
14.0009747776
 30
0.0
 10
24.6133421233
 20
13.9919750153
 30
0.0
  0
SPLINE
  5
325
100
AcDbEntity
  8
0
100
AcDbSpline
 62
7
  6
BYLAYER
 70
0
 71
3
 72
24
 73
20
 74
0
 42
0.0000001
 43
0.0000001
 44
0.0000000001
 40
0.0
 40
0.0
 40
0.0
 40
0.0
 40
0.0722840008
 40
0.140827746
 40
0.2057612897
 40
0.2673710688
 40
0.3260946392
 40
0.3825534013
 40
0.4375286977
 40
0.4919191762
 40
0.5466722347
 40
0.6027043198
 40
0.6608296137
 40
0.7217112607
 40
0.7533558889
 40
0.7858550783
 40
0.8535268903
 40
0.9249277216
 40
1.0
 40
1.0
 40
1.0
 40
1.0
 10
16.1928610636
 20
22.1200543349
 30
0.0
 10
16.0433314524
 20
22.0203949612
 30
0.0
 10
15.7600212249
 20
21.8137454038
 30
0.0
 10
15.3771564111
 20
21.4732437736
 30
0.0
 10
15.0507510201
 20
21.1131244363
 30
0.0
 10
14.7837596853
 20
20.7363348302
 30
0.0
 10
14.5788203718
 20
20.3459301819
 30
0.0
 10
14.4380735388
 20
19.9453122221
 30
0.0
 10
14.3632785126
 20
19.5381300603
 30
0.0
 10
14.3553348827
 20
19.1283929576
 30
0.0
 10
14.4143941225
 20
18.7202390747
 30
0.0
 10
14.539682832
 20
18.3177223476
 30
0.0
 10
14.7295954605
 20
17.9245956759
 30
0.0
 10
14.937423513
 20
17.6116923106
 30
0.0
 10
15.1322646024
 20
17.3693518922
 30
0.0
 10
15.3522679008
 20
17.1262652304
 30
0.0
 10
15.6646127392
 20
16.8345310407
 30
0.0
 10
16.0883053137
 20
16.511015778
 30
0.0
 10
16.3966422534
 20
16.3163463029
 30
0.0
 10
16.5582685015
 20
16.2230334561
 30
0.0
  0
SPLINE
  5
326
100
AcDbEntity
  8
0
100
AcDbSpline
 62
7
  6
BYLAYER
 70
0
 71
3
 72
32
 73
28
 74
0
 42
0.0000001
 43
0.0000001
 44
0.0000000001
 40
0.0
 40
0.0
 40
0.0
 40
0.0
 40
0.0250828383
 40
0.0490871575
 40
0.07222838
 40
0.0947771223
 40
0.1170456407
 40
0.1393660887
 40
0.1620653163
 40
0.185444868
 40
0.2097598787
 40
0.2352129572
 40
0.2619480305
 40
0.2900532289
 40
0.3195682562
 40
0.3504844491
 40
0.3827594362
 40
0.4163127056
 40
0.4867814314
 40
0.5608256984
 40
0.637094101
 40
0.714091162
 40
0.7902820215
 40
0.8641733993
 40
0.9344362406
 40
0.9678791099
 40
1.0
 40
1.0
 40
1.0
 40
1.0
 10
25.150935227
 20
14.1910494998
 30
0.0
 10
25.1307155043
 20
14.141597385
 30
0.0
 10
25.0857524887
 20
14.0468891034
 30
0.0
 10
25.0029162516
 20
13.9167612771
 30
0.0
 10
24.9068089168
 20
13.802986288
 30
0.0
 10
24.7981220751
 20
13.7065974525
 30
0.0
 10
24.677751473
 20
13.6283885914
 30
0.0
 10
24.5466667567
 20
13.5691175441
 30
0.0
 10
24.4060348355
 20
13.5291528119
 30
0.0
 10
24.2570059411
 20
13.5088585269
 30
0.0
 10
24.1007933861
 20
13.5081993784
 30
0.0
 10
23.9385884073
 20
13.5271562932
 30
0.0
 10
23.7715971731
 20
13.565469465
 30
0.0
 10
23.6010351338
 20
13.6228016897
 30
0.0
 10
23.428160681
 20
13.6987174828
 30
0.0
 10
23.2542104497
 20
13.7925827273
 30
0.0
 10
23.08049244
 20
13.9037499769
 30
0.0
 10
22.8470623763
 20
14.076664108
 30
0.0
 10
22.5647347308
 20
14.3314363916
 30
0.0
 10
22.2524586049
 20
14.6841961269
 30
0.0
 10
21.9703114297
 20
15.0786907121
 30
0.0
 10
21.7266110184
 20
15.5032589499
 30
0.0
 10
21.5285397207
 20
15.9454444817
 30
0.0
 10
21.3819024845
 20
16.3921886849
 30
0.0
 10
21.3048855845
 20
16.7635927557
 30
0.0
 10
21.2739301546
 20
17.0514179816
 30
0.0
 10
21.2685590402
 20
17.1911119785
 30
0.0
 10
21.2685590402
 20
17.2595290401
 30
0.0
  0
SPLINE
  5
327
100
AcDbEntity
  8
0
100
AcDbSpline
 62
7
  6
BYLAYER
 70
0
 71
3
 72
15
 73
11
 74
0
 42
0.0000001
 43
0.0000001
 44
0.0000000001
 40
0.0
 40
0.0
 40
0.0
 40
0.0
 40
0.1482960204
 40
0.2890152916
 40
0.4220947433
 40
0.5479646785
 40
0.6673813997
 40
0.7814650615
 40
0.8917305445
 40
1.0
 40
1.0
 40
1.0
 40
1.0
 10
17.3324113055
 20
7.1621650257
 30
0.0
 10
17.1920264546
 20
7.2446420168
 30
0.0
 10
16.9248856838
 20
7.4167992519
 30
0.0
 10
16.5598853361
 20
7.7035360858
 30
0.0
 10
16.244331311
 20
8.009756989
 30
0.0
 10
15.981337337
 20
8.3326930182
 30
0.0
 10
15.7734532672
 20
8.6695115063
 30
0.0
 10
15.6230551605
 20
9.0172781421
 30
0.0
 10
15.5319656204
 20
9.3725037959
 30
0.0
 10
15.5115502391
 20
9.6129130425
 30
0.0
 10
15.5115475807
 20
9.7317863297
 30
0.0
  0
SPLINE
  5
328
100
AcDbEntity
  8
0
100
AcDbSpline
 62
7
  6
BYLAYER
 70
0
 71
3
 72
18
 73
14
 74
0
 42
0.0000001
 43
0.0000001
 44
0.0000000001
 40
0.0
 40
0.0
 40
0.0
 40
0.0
 40
0.0547040007
 40
0.1114513316
 40
0.1700565735
 40
0.2303504195
 40
0.292149058
 40
0.3552298215
 40
0.484231769
 40
0.6153536955
 40
0.7464389898
 40
0.8753346591
 40
1.0
 40
1.0
 40
1.0
 40
1.0
 10
17.3714379143
 20
8.7724407869
 30
0.0
 10
17.4916201955
 20
8.7030550842
 30
0.0
 10
17.7414569952
 20
8.5701818941
 30
0.0
 10
18.1345562093
 20
8.3918684519
 30
0.0
 10
18.5507312158
 20
8.2319849212
 30
0.0
 10
18.9872938435
 20
8.0914825671
 30
0.0
 10
19.4416166079
 20
7.9712446588
 30
0.0
 10
20.0719347671
 20
7.8378851305
 30
0.0
 10
20.8856637078
 20
7.7270046449
 30
0.0
 10
21.8784530169
 20
7.6836382716
 30
0.0
 10
22.8709254141
 20
7.7300513785
 30
0.0
 10
23.838664533
 20
7.8650721229
 30
0.0
 10
24.4654554992
 20
8.0152928788
 30
0.0
 10
24.7685951631
 20
8.1054150232
 30
0.0
  0
SPLINE
  5
329
100
AcDbEntity
  8
0
100
AcDbSpline
 62
7
  6
BYLAYER
 70
0
 71
3
 72
9
 73
5
 74
0
 42
0.0000001
 43
0.0000001
 44
0.0000000001
 40
0.0
 40
0.0
 40
0.0
 40
0.0
 40
0.5146905208
 40
1.0
 40
1.0
 40
1.0
 40
1.0
 10
17.972476176
 20
11.0382289979
 30
0.0
 10
17.8357516526
 20
11.1171651525
 30
0.0
 10
17.5769121348
 20
11.2827556746
 30
0.0
 10
17.3366312998
 20
11.4746129678
 30
0.0
 10
17.2262045602
 20
11.5744430384
 30
0.0
  0
SPLINE
  5
32A
100
AcDbEntity
  8
0
100
AcDbSpline
 62
7
  6
BYLAYER
 70
0
 71
3
 72
23
 73
19
 74
0
 42
0.0000001
 43
0.0000001
 44
0.0000000001
 40
0.0
 40
0.0
 40
0.0
 40
0.0
 40
0.0742630538
 40
0.144750755
 40
0.2113712731
 40
0.2743232104
 40
0.3339987966
 40
0.3909711085
 40
0.4459957939
 40
0.5000019828
 40
0.5540080803
 40
0.6090325003
 40
0.6660043955
 40
0.725679448
 40
0.7886307664
 40
0.8552506116
 40
0.9257376211
 40
1.0
 40
1.0
 40
1.0
 40
1.0
 10
20.2352420163
 20
15.0799931875
 30
0.0
 10
20.2352420163
 20
15.0227217313
 30
0.0
 10
20.2306030157
 20
14.9110149626
 30
0.0
 10
20.2086434813
 20
14.7492330345
 30
0.0
 10
20.1718943762
 20
14.5990599525
 30
0.0
 10
20.1207153608
 20
14.4619791997
 30
0.0
 10
20.0554421428
 20
14.3393162003
 30
0.0
 10
19.9766664399
 20
14.2322706776
 30
0.0
 10
19.8849917015
 20
14.1420904007
 30
0.0
 10
19.7813985659
 20
14.0697635678
 30
0.0
 10
19.6669666347
 20
14.016209943
 30
0.0
 10
19.543032233
 20
13.9819046529
 30
0.0
 10
19.4109414777
 20
13.9672028971
 30
0.0
 10
19.2720767002
 20
13.9720034301
 30
0.0
 10
19.1277727521
 20
13.9962188423
 30
0.0
 10
18.9793453355
 20
14.0394771741
 30
0.0
 10
18.828258999
 20
14.1013481787
 30
0.0
 10
18.7291989867
 20
14.1531825477
 30
0.0
 10
18.6796006209
 20
14.1818175297
 30
0.0
  0
SPLINE
  5
32B
100
AcDbEntity
  8
0
100
AcDbSpline
 62
7
  6
BYLAYER
 70
0
 71
3
 72
35
 73
31
 74
0
 42
0.0000001
 43
0.0000001
 44
0.0000000001
 40
0.0
 40
0.0
 40
0.0
 40
0.0
 40
0.0324901512
 40
0.0664072392
 40
0.1015913536
 40
0.1378919484
 40
0.1751370492
 40
0.2131238151
 40
0.2904292348
 40
0.368043449
 40
0.4441421751
 40
0.5170142283
 40
0.5517905985
 40
0.5852434655
 40
0.6172582662
 40
0.6477573734
 40
0.6767098136
 40
0.7041386952
 40
0.7301290361
 40
0.7548373132
 40
0.7784923143
 40
0.8013958681
 40
0.8239060374
 40
0.8464142735
 40
0.869312292
 40
0.8929595801
 40
0.917658448
 40
0.9436352475
 40
0.9710501002
 40
1.0
 40
1.0
 40
1.0
 40
1.0
 10
26.3163856525
 20
14.3452309168
 30
0.0
 10
26.3163856525
 20
14.4579963081
 30
0.0
 10
26.3067600307
 20
14.6885569202
 30
0.0
 10
26.2659733834
 20
15.0390693551
 30
0.0
 10
26.1987440522
 20
15.3989424381
 30
0.0
 10
26.1057552744
 20
15.7649283063
 30
0.0
 10
25.9878025259
 20
16.1338688692
 30
0.0
 10
25.7975667939
 20
16.6281881936
 30
0.0
 10
25.5047279862
 20
17.2319157569
 30
0.0
 10
25.0784113287
 20
17.9128093681
 30
0.0
 10
24.5897521371
 20
18.5310172505
 30
0.0
 10
24.1375487507
 20
18.9832661491
 30
0.0
 10
23.7583981571
 20
19.2937599585
 30
0.0
 10
23.4740885896
 20
19.4948579293
 30
0.0
 10
23.1879675928
 20
19.6660607087
 30
0.0
 10
22.902471565
 20
19.8058201347
 30
0.0
 10
22.6200703391
 20
19.9128997087
 30
0.0
 10
22.3431728396
 20
19.9862938041
 30
0.0
 10
22.0741466295
 20
20.0252287954
 30
0.0
 10
21.8153308382
 20
20.0292378418
 30
0.0
 10
21.5690569301
 20
19.9980037656
 30
0.0
 10
21.3376566126
 20
19.9316815754
 30
0.0
 10
21.1234979354
 20
19.8306512944
 30
0.0
 10
20.9287479611
 20
19.6959873664
 30
0.0
 10
20.7554151947
 20
19.529027871
 30
0.0
 10
20.6050254558
 20
19.3316167097
 30
0.0
 10
20.4788805592
 20
19.1057103677
 30
0.0
 10
20.3778523587
 20
18.8534852458
 30
0.0
 10
20.3027259075
 20
18.5771803996
 30
0.0
 10
20.2711235051
 20
18.3837503646
 30
0.0
 10
20.2594258933
 20
18.2839555609
 30
0.0
  0
SPLINE
  5
32C
100
AcDbEntity
  8
0
100
AcDbSpline
 62
7
  6
BYLAYER
 70
0
 71
3
 72
9
 73
5
 74
0
 42
0.0000001
 43
0.0000001
 44
0.0000000001
 40
0.0
 40
0.0
 40
0.0
 40
0.0
 40
0.2439260148
 40
1.0
 40
1.0
 40
1.0
 40
1.0
 10
20.2594258933
 20
18.2839555609
 30
0.0
 10
20.2553680829
 20
18.2493375209
 30
0.0
 10
20.240965096
 20
18.1071602872
 30
0.0
 10
20.2352420163
 20
17.964138249
 30
0.0
 10
20.2352420163
 20
17.8561014057
 30
0.0
  0
SPLINE
  5
32D
100
AcDbEntity
  8
0
100
AcDbSpline
 62
7
  6
BYLAYER
 70
0
 71
3
 72
11
 73
7
 74
0
 42
0.0000001
 43
0.0000001
 44
0.0000000001
 40
0.0
 40
0.0
 40
0.0
 40
0.0
 40
0.2338672911
 40
0.4800343458
 40
0.7363073129
 40
1.0
 40
1.0
 40
1.0
 40
1.0
 10
35.148200959
 20
19.295119005
 30
0.0
 10
35.1382387389
 20
19.4799001841
 30
0.0
 10
35.0967291606
 20
19.8582510839
 30
0.0
 10
34.9776084487
 20
20.4293356284
 30
0.0
 10
34.8020798887
 20
21.0103160803
 30
0.0
 10
34.6510462178
 20
21.393572248
 30
0.0
 10
34.5670560374
 20
21.584569925
 30
0.0
  0
SPLINE
  5
32E
100
AcDbEntity
  8
0
100
AcDbSpline
 62
7
  6
BYLAYER
 70
0
 71
3
 72
19
 73
15
 74
0
 42
0.0000001
 43
0.0000001
 44
0.0000000001
 40
0.0
 40
0.0
 40
0.0
 40
0.0
 40
0.1513176612
 40
0.2904727392
 40
0.4180930479
 40
0.4783086276
 40
0.5365824569
 40
0.5934052788
 40
0.6493486845
 40
0.7050273333
 40
0.7610723328
 40
0.8180902132
 40
0.8766413273
 40
1.0
 40
1.0
 40
1.0
 40
1.0
 10
21.2685590402
 20
17.2595290401
 30
0.0
 10
21.2685590402
 20
17.3714092247
 30
0.0
 10
21.2819802449
 20
17.5865889971
 30
0.0
 10
21.3478864146
 20
17.8899314415
 30
0.0
 10
21.4417660756
 20
18.1146775352
 30
0.0
 10
21.5386153304
 20
18.2691379251
 30
0.0
 10
21.6198652547
 20
18.3705371667
 30
0.0
 10
21.7107133832
 20
18.4589877902
 30
0.0
 10
21.8105766146
 20
18.5339920238
 30
0.0
 10
21.9188939486
 20
18.5950197926
 30
0.0
 10
22.0349629167
 20
18.6417054522
 30
0.0
 10
22.1580755075
 20
18.6738191064
 30
0.0
 10
22.3334970334
 20
18.697313929
 30
0.0
 10
22.4692417654
 20
18.6916983499
 30
0.0
 10
22.5596133142
 20
18.6793738105
 30
0.0
  0
SPLINE
  5
32F
100
AcDbEntity
  8
0
100
AcDbSpline
 62
7
  6
BYLAYER
 70
0
 71
3
 72
27
 73
23
 74
0
 42
0.0000001
 43
0.0000001
 44
0.0000000001
 40
0.0
 40
0.0
 40
0.0
 40
0.0
 40
0.0623725127
 40
0.1287109784
 40
0.1982924749
 40
0.2702620949
 40
0.343630668
 40
0.4173541909
 40
0.4903705265
 40
0.5616490648
 40
0.6302385552
 40
0.6953189337
 40
0.756260138
 40
0.8126918637
 40
0.8392142417
 40
0.8646351254
 40
0.8890190236
 40
0.9124663733
 40
0.9351086561
 40
0.9571117609
 40
0.9786701107
 40
1.0
 40
1.0
 40
1.0
 40
1.0
 10
27.0234924337
 20
14.3452326165
 30
0.0
 10
27.0234924337
 20
14.5443537322
 30
0.0
 10
26.9965020888
 20
14.9555299979
 30
0.0
 10
26.8855131151
 20
15.5798353523
 30
0.0
 10
26.7050046281
 20
16.2195523307
 30
0.0
 10
26.4589290038
 20
16.8609830259
 30
0.0
 10
26.1524607411
 20
17.4905480544
 30
0.0
 10
25.7921657478
 20
18.0948099117
 30
0.0
 10
25.3857146268
 20
18.6608777027
 30
0.0
 10
24.9417681888
 20
19.1766880982
 30
0.0
 10
24.4697580198
 20
19.6312729264
 30
0.0
 10
23.9795815792
 20
20.0150165703
 30
0.0
 10
23.4815390004
 20
20.3197272103
 30
0.0
 10
23.0597133229
 20
20.5061718464
 30
0.0
 10
22.7284419949
 20
20.6072074393
 30
0.0
 10
22.4898240049
 20
20.6581807963
 30
0.0
 10
22.2572033451
 20
20.6855110573
 30
0.0
 10
22.0318327101
 20
20.6890757882
 30
0.0
 10
21.8149399677
 20
20.668731962
 30
0.0
 10
21.6077393756
 20
20.6245246771
 30
0.0
 10
21.411451715
 20
20.5566975422
 30
0.0
 10
21.2883543462
 20
20.4957529506
 30
0.0
 10
21.229382647
 20
20.4617057284
 30
0.0
  0
SPLINE
  5
330
100
AcDbEntity
  8
0
100
AcDbSpline
 62
7
  6
BYLAYER
 70
0
 71
3
 72
12
 73
8
 74
0
 42
0.0000001
 43
0.0000001
 44
0.0000000001
 40
0.0
 40
0.0
 40
0.0
 40
0.0
 40
0.2662133411
 40
0.5235716651
 40
0.7689905548
 40
0.8864718018
 40
1.0
 40
1.0
 40
1.0
 40
1.0
 10
20.7457659916
 20
10.1742262649
 30
0.0
 10
20.488212255
 20
10.2050327838
 30
0.0
 10
19.9839224665
 20
10.2871794166
 30
0.0
 10
19.2573092308
 20
10.4741335275
 30
0.0
 10
18.6883918214
 20
10.6816678377
 30
0.0
 10
18.2668634355
 20
10.8766034633
 30
0.0
 10
18.0682748704
 20
10.9829208471
 30
0.0
 10
17.972476176
 20
11.0382289979
 30
0.0
  0
SPLINE
  5
331
100
AcDbEntity
  8
0
100
AcDbSpline
 62
7
  6
BYLAYER
 70
0
 71
3
 72
15
 73
11
 74
0
 42
0.0000001
 43
0.0000001
 44
0.0000000001
 40
0.0
 40
0.0
 40
0.0
 40
0.0
 40
0.1080132134
 40
0.2180692915
 40
0.3320072107
 40
0.4513450946
 40
0.5772524299
 40
0.7105305573
 40
0.8515215253
 40
1.0
 40
1.0
 40
1.0
 40
1.0
 10
19.8831447633
 20
14.7100064188
 30
0.0
 10
19.8552730591
 20
14.693914778
 30
0.0
 10
19.7961012416
 20
14.6661861063
 30
0.0
 10
19.7003393505
 20
14.6397394608
 30
0.0
 10
19.598274966
 20
14.6283395182
 30
0.0
 10
19.4909759931
 20
14.6320637956
 30
0.0
 10
19.3794598114
 20
14.6507680532
 30
0.0
 10
19.2647542934
 20
14.6842158068
 30
0.0
 10
19.1480071027
 20
14.7320283602
 30
0.0
 10
19.0714660503
 20
14.7720709999
 30
0.0
 10
19.0331525395
 20
14.7941908152
 30
0.0
  0
SPLINE
  5
332
100
AcDbEntity
  8
0
100
AcDbSpline
 62
7
  6
BYLAYER
 70
0
 71
3
 72
12
 73
8
 74
0
 42
0.0000001
 43
0.0000001
 44
0.0000000001
 40
0.0
 40
0.0
 40
0.0
 40
0.0
 40
0.1082067261
 40
0.2183978995
 40
0.4513329592
 40
0.7105178774
 40
1.0
 40
1.0
 40
1.0
 40
1.0
 10
35.0516297854
 20
12.8244541809
 30
0.0
 10
35.0598322616
 20
12.8291864597
 30
0.0
 10
35.0755923017
 20
12.840194511
 30
0.0
 10
35.1038632298
 20
12.8680022874
 30
0.0
 10
35.1318656133
 20
12.91365834
 30
0.0
 10
35.1513362882
 20
12.9798249531
 30
0.0
 10
35.1551865617
 20
13.0280117982
 30
0.0
 10
35.1551865617
 20
13.0533457755
 30
0.0
  0
SPLINE
  5
333
100
AcDbEntity
  8
0
100
AcDbSpline
 62
7
  6
BYLAYER
 70
0
 71
3
 72
12
 73
8
 74
0
 42
0.0000001
 43
0.0000001
 44
0.0000000001
 40
0.0
 40
0.0
 40
0.0
 40
0.0
 40
0.2657198547
 40
0.520969608
 40
0.7644027937
 40
0.8828330232
 40
1.0
 40
1.0
 40
1.0
 40
1.0
 10
26.8163821216
 20
8.0698568621
 30
0.0
 10
26.8448639084
 20
8.0863020887
 30
0.0
 10
26.8984901093
 20
8.1227411167
 30
0.0
 10
26.9657267839
 20
8.1902840266
 30
0.0
 10
27.0046901151
 20
8.2574560183
 30
0.0
 10
27.0207660665
 20
8.3148056463
 30
0.0
 10
27.0234924337
 20
8.344036065
 30
0.0
 10
27.0234924337
 20
8.3585380059
 30
0.0
  0
SPLINE
  5
334
100
AcDbEntity
  8
0
100
AcDbSpline
 62
7
  6
BYLAYER
 70
0
 71
3
 72
15
 73
11
 74
0
 42
0.0000001
 43
0.0000001
 44
0.0000000001
 40
0.0
 40
0.0
 40
0.0
 40
0.0
 40
0.1080127032
 40
0.2180594928
 40
0.3319947313
 40
0.4513555686
 40
0.5772694811
 40
0.7104868681
 40
0.8514254575
 40
1.0
 40
1.0
 40
1.0
 40
1.0
 10
15.5115500699
 20
13.2835718442
 30
0.0
 10
15.511550081
 20
13.1633568288
 30
0.0
 10
15.5324441619
 20
12.9201764746
 30
0.0
 10
15.6256110239
 20
12.5609887645
 30
0.0
 10
15.779413938
 20
12.2095323605
 30
0.0
 10
15.9919263258
 20
11.8693991693
 30
0.0
 10
16.2606775618
 20
11.5436122529
 30
0.0
 10
16.583004763
 20
11.2350884797
 30
0.0
 10
16.9556617535
 20
10.9466765818
 30
0.0
 10
17.2282318627
 20
10.7738996492
 30
0.0
 10
17.3714379143
 20
10.6912214671
 30
0.0
  0
SPLINE
  5
335
100
AcDbEntity
  8
0
100
AcDbSpline
 62
7
  6
BYLAYER
 70
0
 71
3
 72
9
 73
5
 74
0
 42
0.0000001
 43
0.0000001
 44
0.0000000001
 40
0.0
 40
0.0
 40
0.0
 40
0.0
 40
0.2543711861
 40
1.0
 40
1.0
 40
1.0
 40
1.0
 10
37.6146726579
 20
20.8501924871
 30
0.0
 10
37.6172179657
 20
20.817931452
 30
0.0
 10
37.6260386955
 20
20.6910154778
 30
0.0
 10
37.6300499919
 20
20.5637543675
 30
0.0
 10
37.6300499919
 20
20.4688949246
 30
0.0
  0
SPLINE
  5
336
100
AcDbEntity
  8
0
100
AcDbSpline
 62
7
  6
BYLAYER
 70
0
 71
3
 72
16
 73
12
 74
0
 42
0.0000001
 43
0.0000001
 44
0.0000000001
 40
0.0
 40
0.0
 40
0.0
 40
0.0
 40
0.053919895
 40
0.1080981863
 40
0.2181360805
 40
0.3320622827
 40
0.4514098605
 40
0.5773170521
 40
0.7105191651
 40
0.8514285547
 40
1.0
 40
1.0
 40
1.0
 40
1.0
 10
13.8615556883
 20
18.8766134015
 30
0.0
 10
13.8615556887
 20
18.8010012522
 30
0.0
 10
13.8680144942
 20
18.6493277593
 30
0.0
 10
13.9068958016
 20
18.3456205713
 30
0.0
 10
14.0052421141
 20
17.9661952508
 30
0.0
 10
14.1990317249
 20
17.5235138785
 30
0.0
 10
14.4667385956
 20
17.0949479208
 30
0.0
 10
14.8053509169
 20
16.6845328956
 30
0.0
 10
15.2114171653
 20
16.2958512922
 30
0.0
 10
15.6808869579
 20
15.932486411
 30
0.0
 10
16.0242856554
 20
15.7148296585
 30
0.0
 10
16.2047165829
 20
15.6106601706
 30
0.0
  0
SPLINE
  5
337
100
AcDbEntity
  8
0
100
AcDbSpline
 62
7
  6
BYLAYER
 70
0
 71
3
 72
15
 73
11
 74
0
 42
0.0000001
 43
0.0000001
 44
0.0000000001
 40
0.0
 40
0.0
 40
0.0
 40
0.0
 40
0.1485557746
 40
0.2895110574
 40
0.4227353965
 40
0.5486436202
 40
0.6680055251
 40
0.7819479971
 40
0.8919973986
 40
1.0
 40
1.0
 40
1.0
 40
1.0
 10
21.8262359539
 20
17.3458020975
 30
0.0
 10
21.826235949
 20
17.4121992593
 30
0.0
 10
21.8316026917
 20
17.5416848107
 30
0.0
 10
21.8570715174
 20
17.7292023184
 30
0.0
 10
21.8996590426
 20
17.9032571501
 30
0.0
 10
21.9589977675
 20
18.0621404115
 30
0.0
 10
22.0346246071
 20
18.2043435581
 30
0.0
 10
22.1259827989
 20
18.3284000838
 30
0.0
 10
22.2321851095
 20
18.4329338024
 30
0.0
 10
22.312566542
 20
18.4890192232
 30
0.0
 10
22.3543709538
 20
18.5131556136
 30
0.0
  0
SPLINE
  5
338
100
AcDbEntity
  8
0
100
AcDbSpline
 62
7
  6
BYLAYER
 70
0
 71
3
 72
9
 73
5
 74
0
 42
0.0000001
 43
0.0000001
 44
0.0000000001
 40
0.0
 40
0.0
 40
0.0
 40
0.0
 40
0.2565358728
 40
1.0
 40
1.0
 40
1.0
 40
1.0
 10
21.8522952362
 20
16.9780613506
 30
0.0
 10
21.8484150074
 20
17.0063828014
 30
0.0
 10
21.8348584918
 20
17.1169873952
 30
0.0
 10
21.8276679656
 20
17.2284054423
 30
0.0
 10
21.8264846601
 20
17.3112418692
 30
0.0
  0
SPLINE
  5
339
100
AcDbEntity
  8
0
100
AcDbSpline
 62
7
  6
BYLAYER
 70
0
 71
3
 72
11
 73
7
 74
0
 42
0.0000001
 43
0.0000001
 44
0.0000000001
 40
0.0
 40
0.0
 40
0.0
 40
0.0
 40
0.2230164252
 40
0.4628172801
 40
0.7215691658
 40
1.0
 40
1.0
 40
1.0
 40
1.0
 10
24.5309410686
 20
13.9811470262
 30
0.0
 10
24.4597149949
 20
13.9747831028
 30
0.0
 10
24.3102566571
 20
13.977111803
 30
0.0
 10
24.0822337839
 20
14.0216734911
 30
0.0
 10
23.8469923262
 20
14.1061503405
 30
0.0
 10
23.693385483
 20
14.1851565076
 30
0.0
 10
23.61634811
 20
14.2302770713
 30
0.0
  0
SPLINE
  5
33A
100
AcDbEntity
  8
0
100
AcDbSpline
 62
7
  6
BYLAYER
 70
0
 71
3
 72
9
 73
5
 74
0
 42
0.0000001
 43
0.0000001
 44
0.0000000001
 40
0.0
 40
0.0
 40
0.0
 40
0.0
 40
0.2429353301
 40
1.0
 40
1.0
 40
1.0
 40
1.0
 10
23.61634811
 20
14.2302770713
 30
0.0
 10
23.5909492696
 20
14.2451530978
 30
0.0
 10
23.4875190466
 20
14.3082897928
 30
0.0
 10
23.3885513459
 20
14.3786525454
 30
0.0
 10
23.3162555493
 20
14.4351087367
 30
0.0
  0
SPLINE
  5
33B
100
AcDbEntity
  8
0
100
AcDbSpline
 62
7
  6
BYLAYER
 70
0
 71
3
 72
12
 73
8
 74
0
 42
0.0000001
 43
0.0000001
 44
0.0000000001
 40
0.0
 40
0.0
 40
0.0
 40
0.0
 40
0.1140556943
 40
0.232374316
 40
0.4795715307
 40
0.7371993749
 40
1.0
 40
1.0
 40
1.0
 40
1.0
 10
6.9495296099
 20
41.4834682225
 30
0.0
 10
6.9578578009
 20
41.3592118745
 30
0.0
 10
6.9841388545
 20
41.1066015655
 30
0.0
 10
7.0728599151
 20
40.5902380561
 30
0.0
 10
7.2511852189
 20
39.9317845601
 30
0.0
 10
7.559237077
 20
39.1507193175
 30
0.0
 10
7.8224777984
 20
38.6457430678
 30
0.0
 10
7.9680443962
 20
38.3984602341
 30
0.0
  0
SPLINE
  5
33C
100
AcDbEntity
  8
0
100
AcDbSpline
 62
7
  6
BYLAYER
 70
0
 71
3
 72
9
 73
5
 74
0
 42
0.0000001
 43
0.0000001
 44
0.0000000001
 40
0.0
 40
0.0
 40
0.0
 40
0.0
 40
0.4821635256
 40
1.0
 40
1.0
 40
1.0
 40
1.0
 10
10.1624756612
 20
42.3846617814
 30
0.0
 10
10.2757131562
 20
42.3298125167
 30
0.0
 10
10.5021669686
 20
42.1983135957
 30
0.0
 10
10.7104821472
 20
42.0401232136
 30
0.0
 10
10.8136408351
 20
41.9528382906
 30
0.0
  0
SPLINE
  5
33D
100
AcDbEntity
  8
0
100
AcDbSpline
 62
7
  6
BYLAYER
 70
0
 71
3
 72
24
 73
20
 74
0
 42
0.0000001
 43
0.0000001
 44
0.0000000001
 40
0.0
 40
0.0
 40
0.0
 40
0.0
 40
0.0682004117
 40
0.1390102533
 40
0.211665832
 40
0.2853440369
 40
0.3591871117
 40
0.4323251687
 40
0.5039167297
 40
0.573178559
 40
0.639415849
 40
0.7020668611
 40
0.7607434651
 40
0.8152804493
 40
0.8658030744
 40
0.9127847713
 40
0.9570854031
 40
0.9786363602
 40
1.0
 40
1.0
 40
1.0
 40
1.0
 10
10.8136408351
 20
41.9528382906
 30
0.0
 10
10.9072712171
 20
41.8736154849
 30
0.0
 10
11.0904336387
 20
41.7028846986
 30
0.0
 10
11.3458514284
 20
41.4200940811
 30
0.0
 10
11.5835954505
 20
41.1097787551
 30
0.0
 10
11.7995102103
 20
40.777406484
 30
0.0
 10
11.9898438976
 20
40.4287619367
 30
0.0
 10
12.1512439762
 20
40.0699151338
 30
0.0
 10
12.2809253841
 20
39.707137529
 30
0.0
 10
12.3766276282
 20
39.346733807
 30
0.0
 10
12.4366481183
 20
38.9949355906
 30
0.0
 10
12.4599472188
 20
38.657799674
 30
0.0
 10
12.4460463505
 20
38.3410671263
 30
0.0
 10
12.394972161
 20
38.0501018778
 30
0.0
 10
12.3072515257
 20
37.7898357565
 30
0.0
 10
12.1839404738
 20
37.564917531
 30
0.0
 10
12.0512335058
 20
37.4091337702
 30
0.0
 10
11.9306457087
 20
37.3084011988
 30
0.0
 10
11.8659703219
 20
37.2659109579
 30
0.0
 10
11.8326972495
 20
37.2467021949
 30
0.0
  0
SPLINE
  5
33E
100
AcDbEntity
  8
0
100
AcDbSpline
 62
7
  6
BYLAYER
 70
0
 71
3
 72
14
 73
10
 74
0
 42
0.0000001
 43
0.0000001
 44
0.0000000001
 40
0.0
 40
0.0
 40
0.0
 40
0.0
 40
0.1104322021
 40
0.2225568525
 40
0.3379168901
 40
0.4578479683
 40
0.583435217
 40
0.7154929026
 40
1.0
 40
1.0
 40
1.0
 40
1.0
 10
9.8630468261
 20
41.8830005872
 30
0.0
 10
9.8924698021
 20
41.8999912782
 30
0.0
 10
9.9545017
 20
41.9297236214
 30
0.0
 10
10.0543153439
 20
41.9600795426
 30
0.0
 10
10.1603298864
 20
41.9762525125
 30
0.0
 10
10.2716502471
 20
41.978086627
 30
0.0
 10
10.3874329185
 20
41.965684617
 30
0.0
 10
10.5505128124
 20
41.9294267508
 30
0.0
 10
10.6707696799
 20
41.8823732459
 30
0.0
 10
10.7495482925
 20
41.8442149576
 30
0.0
  0
SPLINE
  5
33F
100
AcDbEntity
  8
0
100
AcDbSpline
 62
7
  6
BYLAYER
 70
0
 71
3
 72
20
 73
16
 74
0
 42
0.0000001
 43
0.0000001
 44
0.0000000001
 40
0.0
 40
0.0
 40
0.0
 40
0.0
 40
0.0418414839
 40
0.0847952552
 40
0.1298477187
 40
0.1777712476
 40
0.2291045522
 40
0.2841474324
 40
0.3430136615
 40
0.4056340423
 40
0.4718215379
 40
0.5412619271
 40
0.68819894
 40
0.8426300725
 40
1.0
 40
1.0
 40
1.0
 40
1.0
 10
28.982909268
 20
29.3150308414
 30
0.0
 10
28.9848578476
 20
29.2859050063
 30
0.0
 10
28.9829880678
 20
29.2263345145
 30
0.0
 10
28.9628036537
 20
29.1375175176
 30
0.0
 10
28.9256883857
 20
29.0497632323
 30
0.0
 10
28.8722183071
 20
28.9640302092
 30
0.0
 10
28.8030640755
 20
28.8811502108
 30
0.0
 10
28.7190389208
 20
28.8018756752
 30
0.0
 10
28.6209997384
 20
28.7270177335
 30
0.0
 10
28.5100105163
 20
28.6572583191
 30
0.0
 10
28.3871866359
 20
28.5933645392
 30
0.0
 10
28.2059943282
 20
28.5153442581
 30
0.0
 10
27.9584864362
 20
28.4375097305
 30
0.0
 10
27.6435148014
 20
28.3774751651
 30
0.0
 10
27.4261557469
 20
28.3602070314
 30
0.0
 10
27.3163998113
 20
28.3574720538
 30
0.0
  0
SPLINE
  5
340
100
AcDbEntity
  8
0
100
AcDbSpline
 62
7
  6
BYLAYER
 70
0
 71
3
 72
19
 73
15
 74
0
 42
0.0000001
 43
0.0000001
 44
0.0000000001
 40
0.0
 40
0.0
 40
0.0
 40
0.0
 40
0.0480974233
 40
0.0967541727
 40
0.1464984026
 40
0.1977998452
 40
0.2510516847
 40
0.3065648161
 40
0.3645590982
 40
0.4251794416
 40
0.5544023935
 40
0.6940908617
 40
0.8432010314
 40
1.0
 40
1.0
 40
1.0
 40
1.0
 10
9.8772589982
 20
45.1243667149
 30
0.0
 10
9.9387657881
 20
45.1598798324
 30
0.0
 10
10.0674451412
 20
45.2230980376
 30
0.0
 10
10.2730121733
 20
45.2923116523
 30
0.0
 10
10.490356038
 20
45.3357223861
 30
0.0
 10
10.7180462562
 20
45.3531634721
 30
0.0
 10
10.9547168136
 20
45.3446225874
 30
0.0
 10
11.1989509734
 20
45.3101983071
 30
0.0
 10
11.4493565042
 20
45.2502267855
 30
0.0
 10
11.7968425166
 20
45.1341588872
 30
0.0
 10
12.2380469314
 20
44.9243270067
 30
0.0
 10
12.756319341
 20
44.5862710266
 30
0.0
 10
13.2630474119
 20
44.1645233051
 30
0.0
 10
13.5791211316
 20
43.8405987817
 30
0.0
 10
13.732904836
 20
43.6675093334
 30
0.0
  0
SPLINE
  5
341
100
AcDbEntity
  8
0
100
AcDbSpline
 62
7
  6
BYLAYER
 70
0
 71
3
 72
15
 73
11
 74
0
 42
0.0000001
 43
0.0000001
 44
0.0000000001
 40
0.0
 40
0.0
 40
0.0
 40
0.0
 40
0.105688041
 40
0.2137842187
 40
0.3264392978
 40
0.445362683
 40
0.5717207334
 40
0.7061994636
 40
0.849071451
 40
1.0
 40
1.0
 40
1.0
 40
1.0
 10
7.9327234468
 20
44.0016952901
 30
0.0
 10
7.8459384358
 20
43.9515868941
 30
0.0
 10
7.6796046893
 20
43.8332909566
 30
0.0
 10
7.4635373459
 20
43.6094616735
 30
0.0
 10
7.2820821639
 20
43.3415825932
 30
0.0
 10
7.1372425123
 20
43.0333048916
 30
0.0
 10
7.0301852706
 20
42.6884464643
 30
0.0
 10
6.9619183055
 20
42.3109330782
 30
0.0
 10
6.933061855
 20
41.9051976184
 30
0.0
 10
6.9399593213
 20
41.6262566285
 30
0.0
 10
6.9495296099
 20
41.4834682225
 30
0.0
  0
SPLINE
  5
342
100
AcDbEntity
  8
0
100
AcDbSpline
 62
7
  6
BYLAYER
 70
0
 71
3
 72
15
 73
11
 74
0
 42
0.0000001
 43
0.0000001
 44
0.0000000001
 40
0.0
 40
0.0
 40
0.0
 40
0.0
 40
0.1103984092
 40
0.2224866414
 40
0.3378183034
 40
0.4577176565
 40
0.5832634439
 40
0.7152626087
 40
0.8541736213
 40
1.0
 40
1.0
 40
1.0
 40
1.0
 10
8.8327225933
 20
42.4428417327
 30
0.0
 10
8.8768597025
 20
42.4683223755
 30
0.0
 10
8.9699022426
 20
42.5129239051
 30
0.0
 10
9.1196205859
 20
42.5584758706
 30
0.0
 10
9.278649148
 20
42.5827045866
 30
0.0
 10
9.4456353074
 20
42.5854758784
 30
0.0
 10
9.6192836021
 20
42.5668605769
 30
0.0
 10
9.7982861355
 20
42.527093099
 30
0.0
 10
9.9811869171
 20
42.4665381497
 30
0.0
 10
10.1018896963
 20
42.4140080295
 30
0.0
 10
10.1624756612
 20
42.3846617814
 30
0.0
  0
SPLINE
  5
343
100
AcDbEntity
  8
0
100
AcDbSpline
 62
7
  6
BYLAYER
 70
0
 71
3
 72
10
 73
6
 74
0
 42
0.0000001
 43
0.0000001
 44
0.0000000001
 40
0.0
 40
0.0
 40
0.0
 40
0.0
 40
0.2332426836
 40
0.4784953441
 40
1.0
 40
1.0
 40
1.0
 40
1.0
 10
10.7495482925
 20
41.8442149576
 30
0.0
 10
10.7979374172
 20
41.8207765381
 30
0.0
 10
10.8949189204
 20
41.7678444977
 30
0.0
 10
11.08736855
 20
41.6406209016
 30
0.0
 10
11.2229410603
 20
41.5259273233
 30
0.0
 10
11.3095933232
 20
41.4426002521
 30
0.0
  0
SPLINE
  5
344
100
AcDbEntity
  8
0
100
AcDbSpline
 62
7
  6
BYLAYER
 70
0
 71
3
 72
16
 73
12
 74
0
 42
0.0000001
 43
0.0000001
 44
0.0000000001
 40
0.0
 40
0.0
 40
0.0
 40
0.0
 40
0.1566395519
 40
0.3053377577
 40
0.4445959348
 40
0.573507784
 40
0.691968487
 40
0.8008950853
 40
0.9024027012
 40
0.9514663637
 40
1.0
 40
1.0
 40
1.0
 40
1.0
 10
12.1625328398
 20
40.0449873324
 30
0.0
 10
12.1896321221
 20
39.9564692686
 30
0.0
 10
12.2345291985
 20
39.7813400391
 30
0.0
 10
12.2734295196
 20
39.5209813395
 30
0.0
 10
12.2815643071
 20
39.2741172566
 30
0.0
 10
12.2586094291
 20
39.045986301
 30
0.0
 10
12.2047449132
 20
38.8413494313
 30
0.0
 10
12.1206711541
 20
38.6646635309
 30
0.0
 10
12.0249715929
 20
38.5427981444
 30
0.0
 10
11.9360094674
 20
38.4653724166
 30
0.0
 10
11.8878679138
 20
38.4332532655
 30
0.0
 10
11.8630287726
 20
38.4189095711
 30
0.0
  0
SPLINE
  5
345
100
AcDbEntity
  8
0
100
AcDbSpline
 62
7
  6
BYLAYER
 70
0
 71
3
 72
15
 73
11
 74
0
 42
0.0000001
 43
0.0000001
 44
0.0000000001
 40
0.0
 40
0.0
 40
0.0
 40
0.0
 40
0.1516042061
 40
0.2946881948
 40
0.4290695244
 40
0.5551186363
 40
0.673728719
 40
0.7862037443
 40
0.8942677898
 40
1.0
 40
1.0
 40
1.0
 40
1.0
 10
28.5178659532
 20
29.8612233098
 30
0.0
 10
28.5520143064
 20
29.8446827454
 30
0.0
 10
28.617167154
 20
29.8098967481
 30
0.0
 10
28.7071244062
 20
29.7509617284
 30
0.0
 10
28.7856886231
 20
29.6871857205
 30
0.0
 10
28.8520945943
 20
29.6191025616
 30
0.0
 10
28.9057667778
 20
29.5472656289
 30
0.0
 10
28.9461296305
 20
29.472200024
 30
0.0
 10
28.972781754
 20
29.3946208603
 30
0.0
 10
28.9811428149
 20
29.341434393
 30
0.0
 10
28.982909268
 20
29.3150308414
 30
0.0
  0
SPLINE
  5
346
100
AcDbEntity
  8
0
100
AcDbSpline
 62
7
  6
BYLAYER
 70
0
 71
3
 72
26
 73
22
 74
0
 42
0.0000001
 43
0.0000001
 44
0.0000000001
 40
0.0
 40
0.0
 40
0.0
 40
0.0
 40
0.0601843489
 40
0.1247691445
 40
0.1930770804
 40
0.2642783482
 40
0.3373556259
 40
0.4112122668
 40
0.4847106435
 40
0.5567300488
 40
0.6262217489
 40
0.6922647072
 40
0.7541335956
 40
0.8113745847
 40
0.863897113
 40
0.8885155269
 40
0.9121442654
 40
0.9349178839
 40
0.957010579
 40
0.9786278321
 40
1.0
 40
1.0
 40
1.0
 40
1.0
 10
10.5029441817
 20
37.3048821461
 30
0.0
 10
10.3913998845
 20
37.3589112703
 30
0.0
 10
10.1682845115
 20
37.4881513705
 30
0.0
 10
9.8503618145
 20
37.7282544252
 30
0.0
 10
9.5435422319
 20
38.0166025898
 30
0.0
 10
9.2547800668
 20
38.3465049471
 30
0.0
 10
8.9906019141
 20
38.7105718188
 30
0.0
 10
8.7570199509
 20
39.1004858218
 30
0.0
 10
8.5593433136
 20
39.5073642093
 30
0.0
 10
8.4020790273
 20
39.9219408383
 30
0.0
 10
8.2888086953
 20
40.3348053367
 30
0.0
 10
8.2221255064
 20
40.7366315951
 30
0.0
 10
8.2035979248
 20
41.1184736311
 30
0.0
 10
8.2337882624
 20
41.4717986138
 30
0.0
 10
8.3008457507
 20
41.7419123149
 30
0.0
 10
8.379555974
 20
41.9342632458
 30
0.0
 10
8.4487194965
 20
42.0634585572
 30
0.0
 10
8.5289627574
 20
42.1798481824
 30
0.0
 10
8.6198351684
 20
42.282725205
 30
0.0
 10
8.7207725938
 20
42.3714379172
 30
0.0
 10
8.7946056985
 20
42.4208365991
 30
0.0
 10
8.8327225933
 20
42.4428417327
 30
0.0
  0
SPLINE
  5
347
100
AcDbEntity
  8
0
100
AcDbSpline
 62
7
  6
BYLAYER
 70
0
 71
3
 72
24
 73
20
 74
0
 42
0.0000001
 43
0.0000001
 44
0.0000000001
 40
0.0
 40
0.0
 40
0.0
 40
0.0
 40
0.0217207258
 40
0.0440940786
 40
0.0912795094
 40
0.1424030434
 40
0.1978006543
 40
0.2574354666
 40
0.3209745901
 40
0.3878556295
 40
0.4573488537
 40
0.5286076531
 40
0.6007092947
 40
0.6726943524
 40
0.7436136441
 40
0.8125589736
 40
0.878697422
 40
0.941366741
 40
1.0
 40
1.0
 40
1.0
 40
1.0
 10
9.1272887109
 20
42.5612209936
 30
0.0
 10
9.0981857182
 20
42.5301905855
 30
0.0
 10
9.0427449899
 20
42.4636809565
 30
0.0
 10
8.9438974491
 20
42.3143616876
 30
0.0
 10
8.8451631938
 20
42.0978129832
 30
0.0
 10
8.7699508736
 20
41.8050228438
 30
0.0
 10
8.7364943654
 20
41.4802680372
 30
0.0
 10
8.745184409
 20
41.1298091839
 30
0.0
 10
8.7956933051
 20
40.760321941
 30
0.0
 10
8.8869673821
 20
40.3789575389
 30
0.0
 10
9.0171848921
 20
39.9931473013
 30
0.0
 10
9.1837932161
 20
39.6104604829
 30
0.0
 10
9.3835257637
 20
39.2384410802
 30
0.0
 10
9.6124190409
 20
38.8844082483
 30
0.0
 10
9.8659748171
 20
38.5553395328
 30
0.0
 10
10.1392043068
 20
38.2577357877
 30
0.0
 10
10.4267895744
 20
37.9973654164
 30
0.0
 10
10.7230722423
 20
37.7794785012
 30
0.0
 10
10.9299180908
 20
37.661127206
 30
0.0
 10
11.0332720596
 20
37.6110652615
 30
0.0
  0
SPLINE
  5
348
100
AcDbEntity
  8
0
100
AcDbSpline
 62
7
  6
BYLAYER
 70
0
 71
3
 72
19
 73
15
 74
0
 42
0.0000001
 43
0.0000001
 44
0.0000000001
 40
0.0
 40
0.0
 40
0.0
 40
0.0
 40
0.1567989662
 40
0.3059091303
 40
0.4455975988
 40
0.5748205505
 40
0.6354408942
 40
0.693435177
 40
0.7489483095
 40
0.8022001496
 40
0.8535015935
 40
0.9032458244
 40
0.9519025753
 40
1.0
 40
1.0
 40
1.0
 40
1.0
 10
11.7883692837
 20
42.5448379103
 30
0.0
 10
11.6345855815
 20
42.7179273559
 30
0.0
 10
11.3185118722
 20
43.0418518734
 30
0.0
 10
10.8117838094
 20
43.4635995866
 30
0.0
 10
10.2935114114
 20
43.80165557
 30
0.0
 10
9.8523069965
 20
44.0114874513
 30
0.0
 10
9.5048209847
 20
44.1275553558
 30
0.0
 10
9.2544154507
 20
44.1875268767
 30
0.0
 10
9.0101812885
 20
44.2219511682
 30
0.0
 10
8.7735107265
 20
44.2304920444
 30
0.0
 10
8.5458205027
 20
44.2130509717
 30
0.0
 10
8.3284766342
 20
44.1696402271
 30
0.0
 10
8.1229095943
 20
44.1004266193
 30
0.0
 10
7.994230237
 20
44.0372084112
 30
0.0
 10
7.9327234468
 20
44.0016952901
 30
0.0
  0
SPLINE
  5
349
100
AcDbEntity
  8
0
100
AcDbSpline
 62
7
  6
BYLAYER
 70
0
 71
3
 72
15
 73
11
 74
0
 42
0.0000001
 43
0.0000001
 44
0.0000000001
 40
0.0
 40
0.0
 40
0.0
 40
0.0
 40
0.1103984092
 40
0.2224866414
 40
0.3378183034
 40
0.4577176565
 40
0.5832634439
 40
0.7152626087
 40
0.8541736213
 40
1.0
 40
1.0
 40
1.0
 40
1.0
 10
11.8326972495
 20
37.2467021949
 30
0.0
 10
11.7885601403
 20
37.221221552
 30
0.0
 10
11.6955176003
 20
37.1766200225
 30
0.0
 10
11.545799257
 20
37.131068057
 30
0.0
 10
11.3867706948
 20
37.1068393409
 30
0.0
 10
11.2197845355
 20
37.1040680491
 30
0.0
 10
11.0461362407
 20
37.1226833506
 30
0.0
 10
10.8671337074
 20
37.1624508285
 30
0.0
 10
10.6842329258
 20
37.2230057778
 30
0.0
 10
10.5635301465
 20
37.275535898
 30
0.0
 10
10.5029441817
 20
37.3048821461
 30
0.0
  0
SPLINE
  5
34A
100
AcDbEntity
  8
0
100
AcDbSpline
 62
7
  6
BYLAYER
 70
0
 71
3
 72
11
 73
7
 74
0
 42
0.0000001
 43
0.0000001
 44
0.0000000001
 40
0.0
 40
0.0
 40
0.0
 40
0.0
 40
0.2776161436
 40
0.5355673998
 40
0.7751775224
 40
1.0
 40
1.0
 40
1.0
 40
1.0
 10
11.0332720596
 20
37.6110652615
 30
0.0
 10
11.1214577919
 20
37.5683504118
 30
0.0
 10
11.296689747
 20
37.4958227306
 30
0.0
 10
11.5626320662
 20
37.4272764684
 30
0.0
 10
11.8178314603
 20
37.4045449506
 30
0.0
 10
11.9822307864
 20
37.4211419171
 30
0.0
 10
12.0598639083
 20
37.4375702104
 30
0.0
  0
ENDSEC
  0
SECTION
  2
OBJECTS
  0
DICTIONARY
  5
C
100
AcDbDictionary
280
0
281
1
  3
ACAD_GROUP
350
D
  3
ACAD_MLINESTYLE
350
17
  3
ACAD_LAYOUT
350
1A
  3
ACAD_PLOTSETTINGS
350
19
  3
ACAD_PLOTSTYLENAME
350
E
  0
DICTIONARY
  5
D
102
{ACAD_REACTORS
330
C
102
}
100
AcDbDictionary
280
0
281
1
  0
ACDBDICTIONARYWDFLT
  5
E
102
{ACAD_REACTORS
330
C
102
}
100
AcDbDictionary
281
1
  3
Normal
350
F
100
AcDbDictionaryWithDefault
340
F
  0
DICTIONARY
  5
17
102
{ACAD_REACTORS
330
C
102
}
100
AcDbDictionary
280
0
281
1
  3
Standard
350
18
  0
DICTIONARY
  5
19
102
{ACAD_REACTORS
330
C
102
}
100
AcDbDictionary
281
1
  0
DICTIONARY
  5
1A
102
{ACAD_REACTORS
330
C
102
}
100
AcDbDictionary
281
1
  3
Model
350
34B
  3
Layout1
350
34C
  0
ACDBPLACEHOLDER
  5
F
102
{ACAD_REACTORS
330
E
102
}
  0
MLINESTYLE
  5
18
102
{ACAD_REACTORS
330
17
102
}
100
AcDbMlineStyle
  2
STANDARD
 70
0
  3

 62
256
 51
90.0
 52
90.0
 71
2
 49
0.5
 62
256
  6
BYLAYER
 49
-0.5
 62
256
  6
BYLAYER
  0
LAYOUT
  5
34B
102
{ACAD_REACTORS
330
1A
102
}
100
AcDbPlotSettings
  1

  2
none_device
  4

  6

 40
0.0
 41
0.0
 42
0.0
 43
0.0
 44
210.0
 45
297.0
 46
0.0
 47
0.0
 48
0.0
 49
0.0
140
0.0
141
0.0
142
1.0
143
1.0
 70
1024
 72
1
 73
0
 74
0
  7

 75
0
147
1.0
148
0.0
149
0.0
100
AcDbLayout
  1
Model
 70
0
 71
0
 10
0.0
 20
0.0
 11
210.0
 21
297.0
 12
0.0
 22
0.0
 32
0.0
 14
0.0
 24
0.0
 34
0.0
 15
0.0
 25
0.0
 35
0.0
146
0.0
 13
0.0
 23
0.0
 33
0.0
 16
1.0
 26
0.0
 36
0.0
 17
0.0
 27
1.0
 37
0.0
 76
0
330
210
345
0
346
0
  0
LAYOUT
  5
34C
102
{ACAD_REACTORS
330
1A
102
}
100
AcDbPlotSettings
  1

  2
none_device
  4

  6

 40
0.0
 41
0.0
 42
0.0
 43
0.0
 44
210.0
 45
297.0
 46
0.0
 47
0.0
 48
0.0
 49
0.0
140
0.0
141
0.0
142
1.0
143
1.0
 70
0
 72
1
 73
0
 74
0
  7

 75
0
147
1.0
148
0.0
149
0.0
100
AcDbLayout
  1
Layout1
 70
0
 71
1
 10
0.0
 20
0.0
 11
210.0
 21
297.0
 12
0.0
 22
0.0
 32
0.0
 14
0.0
 24
0.0
 34
0.0
 15
0.0
 25
0.0
 35
0.0
146
0.0
 13
0.0
 23
0.0
 33
0.0
 16
1.0
 26
0.0
 36
0.0
 17
0.0
 27
1.0
 37
0.0
 76
0
330
211
345
0
346
0
  0
ENDSEC
  0
EOF
