999
DXF file: C:\Users\sesa63760\Dev\_Creo\CAD\MCADID0004798_3D-CAD\drw0001_1.dxf
999
Pro/ENGINEER 2019471 by Parametric Technology Corporation
  0
SECTION
  2
HEADER
  9
$ACADVER
  1
AC1024
  9
$DWGCODEPAGE
  3
ANSI_1252
  9
$EXTMAX
 10
79.7264106522
 20
112.7559236367
 30
0.0
  9
$EXTMIN
 10
0.0
 20
0.0
 30
0.0
  9
$LIMMIN
 10
0.0
 20
0.0
  9
$LIMMAX
 10
79.7264106522
 20
112.7559236367
  9
$VIEWCTR
 10
39.8632053261
 20
56.3779618184
  9
$VIEWSIZE
 40
112.7559236367
  9
$CLAYER
  8
0
  9
$LTSCALE
 40
7.350015763
  9
$CELTYPE
  6
BYLAYER
  9
$DIMSCALE
 40
1.0
  9
$DIMASZ
 40
0.9491239363
  9
$DIMEXO
 40
1.0
  9
$DIMDLI
 40
5.078192709
  9
$DIMEXE
 40
1.0
  9
$DIMCEN
 40
1.2027298521
  9
$DIMLFAC
 40
1.0
  9
$DIMBLK
  1
_FILLED
  9
$DIMALT
 70
0
  9
$DIMALTF
 40
0.0393700787
  9
$DIMTXT
 40
1.3287735109
  9
$DIMTOL
 70
1
  9
$DIMLIM
 70
0
  9
$DIMTFAC
 40
1.0
  9
$DIMTP
 40
0.01
  9
$DIMTM
 40
0.01
  9
$DIMGAP
 40
0.625
  9
$DIMDSEP
 70
46
  9
$AUNITS
 70
0
  9
$PDMODE
 70
3
  9
$PDSIZE
 40
0.3125
  9
$HANDSEED
  5
383
  9
$TILEMODE
 70
1
  9
$MEASUREMENT
 70
1
  9
$INSUNITS
 70
4
  0
ENDSEC
  0
SECTION
  2
CLASSES
  0
CLASS
  1
ACDBDICTIONARYWDFLT
  2
AcDbDictionaryWithDefault
  3
AutoCAD 2000
 90
0
 91
1
280
0
281
0
  0
CLASS
  1
ACDBPLACEHOLDER
  2
AcDbPlaceHolder
  3
AutoCAD 2000
 90
0
 91
1
280
0
281
0
  0
CLASS
  1
LAYOUT
  2
AcDbLayout
  3
AutoCAD 2000
 90
0
 91
0
280
0
281
0
  0
ENDSEC
  0
SECTION
  2
TABLES
  0
TABLE
  2
VPORT
  5
8
100
AcDbSymbolTable
 70
2
  0
VPORT
  5
1F4
100
AcDbSymbolTableRecord
100
AcDbViewportTableRecord
  2
*ACTIVE
 70
0
 10
0.0
 20
0.0
 11
1.0
 21
1.0
 12
39.8632053261
 22
56.3779618184
 13
0.0
 23
0.0
 14
1.0
 24
1.0
 15
0.0
 25
0.0
 16
0.0
 26
0.0
 36
1.0
 17
0.0
 27
0.0
 37
0.0
 40
112.7559236367
 41
0.7070707071
 42
50.0
 43
0.0
 44
0.0
 50
0.0
 51
0.0
 71
0
 72
100
 73
1
 74
1
 75
0
 76
0
 77
0
 78
0
  0
ENDTAB
  0
TABLE
  2
LTYPE
  5
5
100
AcDbSymbolTable
 70
6
  0
LTYPE
  5
14
100
AcDbSymbolTableRecord
100
AcDbLinetypeTableRecord
  2
BYBLOCK
 70
0
  3

 72
65
 73
0
 40
0.0
  0
LTYPE
  5
15
100
AcDbSymbolTableRecord
100
AcDbLinetypeTableRecord
  2
BYLAYER
 70
0
  3

 72
65
 73
0
 40
0.0
  0
LTYPE
  5
16
100
AcDbSymbolTableRecord
100
AcDbLinetypeTableRecord
  2
CONTINUOUS
 70
64
  3
Solid line
 72
65
 73
0
 40
0.0
  0
LTYPE
  5
1F5
100
AcDbSymbolTableRecord
100
AcDbLinetypeTableRecord
  2
CENTER
 70
64
  3
____ _ ____ _ ____ _ ____ _ ____ _ ____ _ ____
 72
65
 73
4
 40
0.6
 49
0.375
 74
0
 49
-0.075
 74
0
 49
0.075
 74
0
 49
-0.075
 74
0
  0
LTYPE
  5
1F6
100
AcDbSymbolTableRecord
100
AcDbLinetypeTableRecord
  2
HIDDEN
 70
64
  3
- - - - - - - - - - - - - - - - - - - -
 72
65
 73
2
 40
0.2
 49
0.1
 74
0
 49
-0.1
 74
0
  0
LTYPE
  5
1F7
100
AcDbSymbolTableRecord
100
AcDbLinetypeTableRecord
  2
PHANTOM
 70
64
  3
_____ _ _ _____ _ _ _____ _ _ _____
 72
65
 73
6
 40
0.8
 49
0.45
 74
0
 49
-0.05
 74
0
 49
0.1
 74
0
 49
-0.05
 74
0
 49
0.1
 74
0
 49
-0.05
 74
0
  0
LTYPE
  5
1F8
100
AcDbSymbolTableRecord
100
AcDbLinetypeTableRecord
  2
DOT
 70
64
  3
. . . . . . . . . . . . . . . . . . . .
 72
65
 73
2
 40
0.2
 49
0.1
 74
0
 49
-0.1
 74
0
  0
LTYPE
  5
1F9
100
AcDbSymbolTableRecord
100
AcDbLinetypeTableRecord
  2
DASHED
 70
64
  3
- - - - - - - - - - - - - - - - - - - -
 72
65
 73
2
 40
0.2
 49
0.1
 74
0
 49
-0.1
 74
0
  0
ENDTAB
  0
TABLE
  2
LAYER
  5
2
100
AcDbSymbolTable
 70
36
  0
LAYER
  5
10
100
AcDbSymbolTableRecord
100
AcDbLayerTableRecord
  2
0
 70
0
 62
7
  6
CONTINUOUS
370
-3
390
F
  0
LAYER
  5
1FA
100
AcDbSymbolTableRecord
100
AcDbLayerTableRecord
  2
DEFAULT_1
 70
0
 62
7
  6
CENTER
370
-3
390
F
  0
LAYER
  5
1FB
100
AcDbSymbolTableRecord
100
AcDbLayerTableRecord
  2
DEFAULT_2
 70
0
 62
7
  6
HIDDEN
370
-3
390
F
  0
LAYER
  5
1FC
100
AcDbSymbolTableRecord
100
AcDbLayerTableRecord
  2
DEFAULT_3
 70
0
 62
7
  6
PHANTOM
370
-3
390
F
  0
LAYER
  5
1FD
100
AcDbSymbolTableRecord
100
AcDbLayerTableRecord
  2
00_COMPONENTS
 70
0
 62
7
  6
CONTINUOUS
370
-3
390
F
  0
LAYER
  5
1FE
100
AcDbSymbolTableRecord
100
AcDbLayerTableRecord
  2
01_1_DEFAULT_DATUMS
 70
0
 62
7
  6
CONTINUOUS
370
-3
390
F
  0
LAYER
  5
1FF
100
AcDbSymbolTableRecord
100
AcDbLayerTableRecord
  2
01_PLANES
 70
0
 62
7
  6
CONTINUOUS
370
-3
390
F
  0
LAYER
  5
200
100
AcDbSymbolTableRecord
100
AcDbLayerTableRecord
  2
02_COORD_SYS
 70
0
 62
7
  6
CONTINUOUS
370
-3
390
F
  0
LAYER
  5
201
100
AcDbSymbolTableRecord
100
AcDbLayerTableRecord
  2
03_AXES
 70
0
 62
7
  6
CONTINUOUS
370
-3
390
F
  0
LAYER
  5
202
100
AcDbSymbolTableRecord
100
AcDbLayerTableRecord
  2
04_POINTS
 70
0
 62
7
  6
CONTINUOUS
370
-3
390
F
  0
LAYER
  5
203
100
AcDbSymbolTableRecord
100
AcDbLayerTableRecord
  2
05_CURVES
 70
0
 62
7
  6
CONTINUOUS
370
-3
390
F
  0
LAYER
  5
204
100
AcDbSymbolTableRecord
100
AcDbLayerTableRecord
  2
06_SURFS
 70
0
 62
7
  6
CONTINUOUS
370
-3
390
F
  0
LAYER
  5
205
100
AcDbSymbolTableRecord
100
AcDbLayerTableRecord
  2
07_COSMETICS
 70
0
 62
7
  6
CONTINUOUS
370
-3
390
F
  0
LAYER
  5
206
100
AcDbSymbolTableRecord
100
AcDbLayerTableRecord
  2
10_NOTES
 70
0
 62
7
  6
CONTINUOUS
370
-3
390
F
  0
LAYER
  5
207
100
AcDbSymbolTableRecord
100
AcDbLayerTableRecord
  2
11_NOTES_PUB
 70
0
 62
7
  6
CONTINUOUS
370
-3
390
F
  0
LAYER
  5
208
100
AcDbSymbolTableRecord
100
AcDbLayerTableRecord
  2
13_REF_GTOL
 70
0
 62
7
  6
CONTINUOUS
370
-3
390
F
  0
LAYER
  5
209
100
AcDbSymbolTableRecord
100
AcDbLayerTableRecord
  2
16_MISC
 70
0
 62
7
  6
CONTINUOUS
370
-3
390
F
  0
LAYER
  5
20A
100
AcDbSymbolTableRecord
100
AcDbLayerTableRecord
  2
17_NO_PRINT
 70
0
 62
7
  6
CONTINUOUS
370
-3
390
F
  0
LAYER
  5
20B
100
AcDbSymbolTableRecord
100
AcDbLayerTableRecord
  2
18_DATUM_CAMS_JOINTS
 70
0
 62
7
  6
CONTINUOUS
370
-3
390
F
  0
LAYER
  5
20C
100
AcDbSymbolTableRecord
100
AcDbLayerTableRecord
  2
19_DATUM_FUNCTIONAL
 70
0
 62
7
  6
CONTINUOUS
370
-3
390
F
  0
LAYER
  5
20D
100
AcDbSymbolTableRecord
100
AcDbLayerTableRecord
  2
20_DATUM_KINEMATIC_SCHEME
 70
0
 62
7
  6
CONTINUOUS
370
-3
390
F
  0
ENDTAB
  0
TABLE
  2
STYLE
  5
3
100
AcDbSymbolTable
 70
1
  0
STYLE
  5
11
100
AcDbSymbolTableRecord
100
AcDbTextStyleTableRecord
  2
STANDARD
 70
0
 40
0.0
 41
1.0
 50
0.0
 71
0
 42
0.2
  3
ARIAL.TTF
  4

  0
STYLE
  5
20E
100
AcDbSymbolTableRecord
100
AcDbTextStyleTableRecord
  2
TEXTSTYLE_1
 70
0
 40
0.0
 41
0.8
 50
0.0
 71
0
 42
0.2
  3
gdt
  4

  0
ENDTAB
  0
TABLE
  2
VIEW
  5
6
100
AcDbSymbolTable
 70
0
  0
ENDTAB
  0
TABLE
  2
UCS
  5
7
100
AcDbSymbolTable
 70
0
  0
ENDTAB
  0
TABLE
  2
APPID
  5
9
100
AcDbSymbolTable
 70
1
  0
APPID
  5
20F
100
AcDbSymbolTableRecord
100
AcDbRegAppTableRecord
  2
ACAD
 70
0
  0
ENDTAB
  0
TABLE
  2
BLOCK_RECORD
  5
1
100
AcDbSymbolTable
 70
0
  0
BLOCK_RECORD
  5
210
100
AcDbSymbolTableRecord
100
AcDbBlockTableRecord
  2
*Model_Space
  0
BLOCK_RECORD
  5
211
100
AcDbSymbolTableRecord
100
AcDbBlockTableRecord
  2
*Paper_Space
  0
BLOCK_RECORD
  5
212
100
AcDbSymbolTableRecord
100
AcDbBlockTableRecord
  2
_FILLED
  0
ENDTAB
  0
TABLE
  2
DIMSTYLE
  5
A
100
AcDbSymbolTable
 70
1
100
AcDbDimStyleTable
 71
0
  0
DIMSTYLE
105
213
100
AcDbSymbolTableRecord
100
AcDbDimStyleTableRecord
  2
STANDARD
 70
0
  3

  4

 40
1.0
 41
0.9491239363
 42
1.0
 43
0.38
 44
1.0
 45
0.0
 46
0.0
 47
0.01
 48
0.01
140
1.3287735109
141
0.09
142
0.0
143
25.4
144
1.0
145
0.0
146
1.0
147
0.625
 71
1
 72
0
 73
0
 74
0
 75
0
 76
0
 77
1
 78
8
 79
2
170
0
171
1
172
0
173
0
174
0
175
0
176
0
177
0
178
0
270
2
179
2
271
2
272
2
273
2
274
2
275
0
280
0
281
0
282
0
283
1
284
8
285
0
286
0
287
3
288
0
340
11
278
46
341
212
342
212
343
212
344
212
  0
ENDTAB
  0
ENDSEC
  0
SECTION
  2
BLOCKS
  0
BLOCK
  5
20
100
AcDbEntity
  8
0
100
AcDbBlockBegin
  2
*Model_Space
 70
0
 10
0.0
 20
0.0
 30
0.0
  3
*Model_Space
  1

  0
ENDBLK
  5
21
100
AcDbEntity
  8
0
100
AcDbBlockEnd
  0
BLOCK
  5
1C
100
AcDbEntity
  8
0
100
AcDbBlockBegin
  2
*Paper_Space
 70
0
 10
0.0
 20
0.0
 30
0.0
  3
*Paper_Space
  1

  0
ENDBLK
  5
1D
100
AcDbEntity
  8
0
100
AcDbBlockEnd
  0
BLOCK
  5
214
100
AcDbEntity
  8
0
100
AcDbBlockBegin
  2
_FILLED
 70
64
 10
0.0
 20
0.0
  3
_FILLED
  1

  0
SOLID
  5
215
100
AcDbEntity
  8
0
  6
BYBLOCK
 62
0
100
AcDbTrace
 10
0.0
 20
0.0
 11
-1.0
 21
0.25
 12
-1.0
 22
-0.25
 13
-1.0
 23
-0.25
  0
ENDBLK
  5
216
100
AcDbEntity
  8
0
  6
BYBLOCK
 62
0
100
AcDbBlockEnd
  0
ENDSEC
  0
SECTION
  2
ENTITIES
  0
LINE
  5
217
100
AcDbEntity
  8
0
100
AcDbLine
 62
7
  6
BYLAYER
 10
25.7534363474
 20
98.4221613267
 11
28.9354036149
 21
100.2592600191
  0
LINE
  5
218
100
AcDbEntity
  8
0
100
AcDbLine
 62
7
  6
BYLAYER
 10
9.2491809098
 20
79.912346647
 11
10.3098366656
 21
80.5247128778
  0
LINE
  5
219
100
AcDbEntity
  8
0
100
AcDbLine
 62
7
  6
BYLAYER
 10
25.7534363474
 20
89.4406347383
 11
10.3385726962
 21
80.5409121839
  0
LINE
  5
21A
100
AcDbEntity
  8
0
100
AcDbLine
 62
7
  6
BYLAYER
 10
30.9210056851
 20
93.146010146
 11
31.2772401277
 21
93.2734580731
  0
LINE
  5
21B
100
AcDbEntity
  8
0
100
AcDbLine
 62
7
  6
BYLAYER
 10
11.0341246902
 20
73.6207675329
 11
11.06884819
 21
73.6907760256
  0
LINE
  5
21C
100
AcDbEntity
  8
0
100
AcDbLine
 62
7
  6
BYLAYER
 10
11.7296675933
 20
72.2859075486
 11
11.7643910932
 21
72.3559160413
  0
LINE
  5
21D
100
AcDbEntity
  8
0
100
AcDbLine
 62
7
  6
BYLAYER
 10
10.0830175782
 20
75.5118291136
 11
11.2235469641
 21
76.344356728
  0
LINE
  5
21E
100
AcDbEntity
  8
0
100
AcDbLine
 62
7
  6
BYLAYER
 10
31.2772401277
 20
89.0276455041
 11
34.2841896032
 21
90.7636982303
  0
LINE
  5
21F
100
AcDbEntity
  8
0
100
AcDbLine
 62
7
  6
BYLAYER
 10
40.6027140798
 20
93.6049378113
 11
20.9452274053
 21
82.2557503336
  0
LINE
  5
220
100
AcDbEntity
  8
0
100
AcDbLine
 62
7
  6
BYLAYER
 10
52.0580523678
 20
12.7718458595
 11
9.631468859
 21
37.2662911307
  0
LINE
  5
221
100
AcDbEntity
  8
0
100
AcDbLine
 62
7
  6
BYLAYER
 10
9.5099546318
 20
42.1222352913
 11
9.2491809098
 21
79.912346647
  0
LINE
  5
222
100
AcDbEntity
  8
0
100
AcDbLine
 62
7
  6
BYLAYER
 10
9.631468859
 20
37.2662911307
 11
9.631468859
 21
42.0532031103
  0
LINE
  5
223
100
AcDbEntity
  8
0
100
AcDbLine
 62
7
  6
BYLAYER
 10
10.3385726962
 20
80.508387951
 11
10.3385726962
 21
80.5409121839
  0
LINE
  5
224
100
AcDbEntity
  8
0
100
AcDbLine
 62
7
  6
BYLAYER
 10
11.06884819
 20
74.5650952657
 11
11.06884819
 21
73.6907760256
  0
LINE
  5
225
100
AcDbEntity
  8
0
100
AcDbLine
 62
7
  6
BYLAYER
 10
11.06884819
 20
72.6733382467
 11
11.06884819
 21
71.7931039378
  0
LINE
  5
226
100
AcDbEntity
  8
0
100
AcDbLine
 62
7
  6
BYLAYER
 10
11.7296675933
 20
71.4115883085
 11
11.7296675933
 21
72.2859075486
  0
LINE
  5
227
100
AcDbEntity
  8
0
100
AcDbLine
 62
7
  6
BYLAYER
 10
11.7296675933
 20
73.3033453275
 11
11.7296675933
 21
74.1835796364
  0
LINE
  5
228
100
AcDbEntity
  8
0
100
AcDbLine
 62
7
  6
BYLAYER
 10
12.3415804945
 20
72.8258292855
 11
11.7643910932
 21
72.3559160413
  0
LINE
  5
229
100
AcDbEntity
  8
0
100
AcDbLine
 62
7
  6
BYLAYER
 10
12.4155831006
 20
72.7831048275
 11
11.8423813507
 21
72.3509847274
  0
LINE
  5
22A
100
AcDbEntity
  8
0
100
AcDbLine
 62
7
  6
BYLAYER
 10
11.7296675933
 20
73.3909184104
 11
10.9612570171
 21
72.8596905901
  0
LINE
  5
22B
100
AcDbEntity
  8
0
100
AcDbLine
 62
7
  6
BYLAYER
 10
17.0818953842
 20
76.6775091898
 11
17.9753500734
 21
77.193342416
  0
LINE
  5
22C
100
AcDbEntity
  8
0
100
AcDbLine
 62
7
  6
BYLAYER
 10
11.75864986
 20
73.1958296788
 11
11.0398715916
 21
72.7808440776
  0
LINE
  5
22D
100
AcDbEntity
  8
0
100
AcDbLine
 62
7
  6
BYLAYER
 10
20.9452274053
 20
78.0915033501
 11
18.6824597986
 21
76.7851016615
  0
LINE
  5
22E
100
AcDbEntity
  8
0
100
AcDbLine
 62
7
  6
BYLAYER
 10
17.9372849523
 20
76.1915627387
 11
17.9753500734
 21
76.2135395154
  0
LINE
  5
22F
100
AcDbEntity
  8
0
100
AcDbLine
 62
7
  6
BYLAYER
 10
24.8570970106
 20
83.628214603
 11
28.1686328039
 21
84.7320547003
  0
LINE
  5
230
100
AcDbEntity
  8
0
100
AcDbLine
 62
7
  6
BYLAYER
 10
28.1686328039
 20
84.0788527666
 11
24.8570970106
 21
82.9750126693
  0
LINE
  5
231
100
AcDbEntity
  8
0
100
AcDbLine
 62
7
  6
BYLAYER
 10
48.5932147146
 20
17.221732808
 11
41.3453400318
 21
21.4062005419
  0
LINE
  5
232
100
AcDbEntity
  8
0
100
AcDbLine
 62
7
  6
BYLAYER
 10
20.3441811949
 20
33.5309509511
 11
13.0963065122
 21
37.715418685
  0
LINE
  5
233
100
AcDbEntity
  8
0
100
AcDbLine
 62
7
  6
BYLAYER
 10
48.5932147146
 20
19.0996402789
 11
42.9716788574
 21
22.3451620958
  0
LINE
  5
234
100
AcDbEntity
  8
0
100
AcDbLine
 62
7
  6
BYLAYER
 10
20.3441811949
 20
35.408858422
 11
14.7226453378
 21
38.6543802389
  0
LINE
  5
235
100
AcDbEntity
  8
0
100
AcDbLine
 62
7
  6
BYLAYER
 10
13.0963065122
 20
37.715418685
 11
13.0963065122
 21
40.0848303079
  0
LINE
  5
236
100
AcDbEntity
  8
0
100
AcDbLine
 62
7
  6
BYLAYER
 10
36.1722071652
 20
89.3528929296
 11
38.0841140553
 21
91.2647908701
  0
LINE
  5
237
100
AcDbEntity
  8
0
100
AcDbLine
 62
7
  6
BYLAYER
 10
38.0841140553
 20
90.6115889364
 11
36.1722071652
 21
88.6996909959
  0
LINE
  5
238
100
AcDbEntity
  8
0
100
AcDbLine
 62
7
  6
BYLAYER
 10
11.9131263245
 20
73.0731918198
 11
11.06884819
 21
72.6733382467
  0
LINE
  5
239
100
AcDbEntity
  8
0
100
AcDbLine
 62
7
  6
BYLAYER
 10
11.7296675933
 20
73.9711168104
 11
11.06884819
 21
73.6907760256
  0
LINE
  5
23A
100
AcDbEntity
  8
0
100
AcDbLine
 62
7
  6
BYLAYER
 10
11.7296675933
 20
73.8856644019
 11
11.0341246902
 21
73.6207675329
  0
LINE
  5
23B
100
AcDbEntity
  8
0
100
AcDbLine
 62
7
  6
BYLAYER
 10
51.9351805551
 20
18.020482424
 11
9.5099546318
 21
42.1222352913
  0
LINE
  5
23C
100
AcDbEntity
  8
0
100
AcDbLine
 62
7
  6
BYLAYER
 10
53.6843911934
 20
19.0997233665
 11
52.9898475687
 21
19.5007092436
  0
LINE
  5
23D
100
AcDbEntity
  8
0
100
AcDbLine
 62
7
  6
BYLAYER
 10
17.9753500734
 20
77.193342416
 11
17.9753500734
 21
76.2135395154
  0
LINE
  5
23E
100
AcDbEntity
  8
0
100
AcDbLine
 62
7
  6
BYLAYER
 10
12.9265294506
 20
70.5866926797
 11
14.2177871611
 21
71.1581496193
  0
LWPOLYLINE
  5
23F
100
AcDbEntity
  8
0
100
AcDbPolyline
 62
7
  6
BYLAYER
 90
7
 70
0
 10
33.5316992594
 20
79.3162860934
 10
36.4119559199
 20
80.4554045916
 10
39.8104592811
 20
80.9168946522
 10
43.2682226324
 20
80.6384294852
 10
46.318255873
 20
79.6576173546
 10
47.5578891047
 20
78.9419309656
 10
48.3632674347
 20
78.1071423741
  0
LINE
  5
240
100
AcDbEntity
  8
0
100
AcDbLine
 62
7
  6
BYLAYER
 10
56.4197318564
 20
21.3061675016
 11
57.8339499144
 21
20.4896867963
  0
LINE
  5
241
100
AcDbEntity
  8
0
100
AcDbLine
 62
7
  6
BYLAYER
 10
11.0398715916
 20
72.7808440776
 11
11.06884819
 21
72.6733382467
  0
LINE
  5
242
100
AcDbEntity
  8
0
100
AcDbLine
 62
7
  6
BYLAYER
 10
11.7586441917
 20
73.1958394966
 11
11.7296675933
 21
73.3033453275
  0
LINE
  5
243
100
AcDbEntity
  8
0
100
AcDbLine
 62
7
  6
BYLAYER
 10
20.3441811949
 20
35.9673157723
 11
20.3441811949
 21
33.5309509511
  0
LINE
  5
244
100
AcDbEntity
  8
0
100
AcDbLine
 62
7
  6
BYLAYER
 10
20.9452274053
 20
73.6824749538
 11
20.9452274053
 21
82.2557503336
  0
LINE
  5
245
100
AcDbEntity
  8
0
100
AcDbLine
 62
7
  6
BYLAYER
 10
55.641386286
 20
81.128324339
 11
52.3298504928
 21
80.0244842418
  0
LINE
  5
246
100
AcDbEntity
  8
0
100
AcDbLine
 62
7
  6
BYLAYER
 10
24.8570970107
 20
82.9750126694
 11
24.8570970107
 21
83.6282146031
  0
LINE
  5
247
100
AcDbEntity
  8
0
100
AcDbLine
 62
7
  6
BYLAYER
 10
25.7534363474
 20
89.4406347383
 11
25.7534363474
 21
98.4221613267
  0
LINE
  5
248
100
AcDbEntity
  8
0
100
AcDbLine
 62
7
  6
BYLAYER
 10
28.1686328039
 20
84.7320547003
 11
28.1686328039
 21
84.0788527666
  0
LINE
  5
249
100
AcDbEntity
  8
0
100
AcDbLine
 62
7
  6
BYLAYER
 10
44.3262761314
 20
75.4036460125
 11
42.4143692413
 21
73.491748072
  0
LINE
  5
24A
100
AcDbEntity
  8
0
100
AcDbLine
 62
7
  6
BYLAYER
 10
40.0371899842
 20
71.2332499616
 11
59.6946766588
 21
82.5824374392
  0
LINE
  5
24B
100
AcDbEntity
  8
0
100
AcDbLine
 62
7
  6
BYLAYER
 10
56.5127093913
 20
80.6636885051
 11
59.6946766588
 21
82.5007871975
  0
LINE
  5
24C
100
AcDbEntity
  8
0
100
AcDbLine
 62
7
  6
BYLAYER
 10
59.9125044162
 20
76.4081392107
 11
60.2687388587
 21
76.5355871378
  0
LINE
  5
24D
100
AcDbEntity
  8
0
100
AcDbLine
 62
7
  6
BYLAYER
 10
62.3463978143
 20
29.9387258702
 11
63.4070807309
 21
29.3263541565
  0
LINE
  5
24E
100
AcDbEntity
  8
0
100
AcDbLine
 62
7
  6
BYLAYER
 10
63.4070671509
 20
30.5510842603
 11
64.4677364867
 21
29.9387203873
  0
LINE
  5
24F
100
AcDbEntity
  8
0
100
AcDbLine
 62
7
  6
BYLAYER
 10
41.2392665075
 20
68.4163046295
 11
46.0475726006
 21
71.1923648758
  0
LINE
  5
250
100
AcDbEntity
  8
0
100
AcDbLine
 62
7
  6
BYLAYER
 10
56.5127093913
 20
76.5811764194
 11
46.0475726006
 21
70.5391629421
  0
LINE
  5
251
100
AcDbEntity
  8
0
100
AcDbLine
 62
7
  6
BYLAYER
 10
63.4070807309
 20
31.7758300458
 11
64.4677364867
 21
31.163474013
  0
LINE
  5
252
100
AcDbEntity
  8
0
100
AcDbLine
 62
7
  6
BYLAYER
 10
10.9612570171
 20
72.8596905901
 11
11.0398715916
 21
72.7808440776
  0
LINE
  5
253
100
AcDbEntity
  8
0
100
AcDbLine
 62
7
  6
BYLAYER
 10
11.8372587662
 20
73.1169929841
 11
11.7586441917
 21
73.1958394966
  0
LINE
  5
254
100
AcDbEntity
  8
0
100
AcDbLine
 62
7
  6
BYLAYER
 10
36.1722071652
 20
88.6996909959
 11
36.1722071652
 21
89.3528929296
  0
LINE
  5
255
100
AcDbEntity
  8
0
100
AcDbLine
 62
7
  6
BYLAYER
 10
41.2392665075
 20
64.007191577
 11
42.0170807284
 21
64.4562601463
  0
LINE
  5
256
100
AcDbEntity
  8
0
100
AcDbLine
 62
7
  6
BYLAYER
 10
40.0371899842
 20
62.6599745817
 11
42.0170807284
 21
63.8030582126
  0
LINE
  5
257
100
AcDbEntity
  8
0
100
AcDbLine
 62
7
  6
BYLAYER
 10
47.5662519161
 20
65.9064617473
 11
43.535760044
 21
63.5794700703
  0
LINE
  5
258
100
AcDbEntity
  8
0
100
AcDbLine
 62
7
  6
BYLAYER
 10
42.1388543751
 20
62.4426614062
 11
42.2661523729
 21
62.5161565008
  0
LINE
  5
259
100
AcDbEntity
  8
0
100
AcDbLine
 62
7
  6
BYLAYER
 10
60.2687388587
 20
72.2897745687
 11
63.2756883342
 21
74.025827295
  0
LINE
  5
25A
100
AcDbEntity
  8
0
100
AcDbLine
 62
7
  6
BYLAYER
 10
63.0124505186
 20
71.0388430649
 11
62.656216076
 21
70.9113951378
  0
LINE
  5
25B
100
AcDbEntity
  8
0
100
AcDbLine
 62
7
  6
BYLAYER
 10
47.1198773505
 20
51.9438783153
 11
47.1978676081
 21
51.9389470014
  0
LINE
  5
25C
100
AcDbEntity
  8
0
100
AcDbLine
 62
7
  6
BYLAYER
 10
38.0841140553
 20
91.2647908701
 11
38.0841140553
 21
90.6115889364
  0
LINE
  5
25D
100
AcDbEntity
  8
0
100
AcDbLine
 62
7
  6
BYLAYER
 10
38.7492153167
 20
76.9665205509
 11
38.7492025922
 21
80.037441079
  0
LINE
  5
25E
100
AcDbEntity
  8
0
100
AcDbLine
 62
7
  6
BYLAYER
 10
40.0371899842
 20
71.2332499616
 11
40.0371899842
 21
62.6599745817
  0
LINE
  5
25F
100
AcDbEntity
  8
0
100
AcDbLine
 62
7
  6
BYLAYER
 10
63.2122770188
 20
71.2324351565
 11
62.656216076
 21
70.9113951378
  0
LINE
  5
260
100
AcDbEntity
  8
0
100
AcDbLine
 62
7
  6
BYLAYER
 10
68.1800198563
 20
73.9277160555
 11
71.3619871237
 21
75.7648147479
  0
LINE
  5
261
100
AcDbEntity
  8
0
100
AcDbLine
 62
7
  6
BYLAYER
 10
46.2597390793
 20
60.8637122352
 11
60.7553677422
 21
69.2327173895
  0
LINE
  5
262
100
AcDbEntity
  8
0
100
AcDbLine
 62
7
  6
BYLAYER
 10
46.3072005972
 20
60.074625684
 11
46.9668488045
 21
60.4554714807
  0
LINE
  5
263
100
AcDbEntity
  8
0
100
AcDbLine
 62
7
  6
BYLAYER
 10
46.31162069
 20
53.2136611208
 11
46.3896109475
 21
53.2087298069
  0
LINE
  5
264
100
AcDbEntity
  8
0
100
AcDbLine
 62
7
  6
BYLAYER
 10
48.527431651
 20
51.1713402089
 11
47.1978676081
 21
51.9389470014
  0
LINE
  5
265
100
AcDbEntity
  8
0
100
AcDbLine
 62
7
  6
BYLAYER
 10
46.3167432745
 20
52.4476528641
 11
44.982056647
 21
53.2182171152
  0
LINE
  5
266
100
AcDbEntity
  8
0
100
AcDbLine
 62
7
  6
BYLAYER
 10
13.1719453936
 20
71.5833779349
 11
11.8423813507
 21
72.3509847274
  0
LINE
  5
267
100
AcDbEntity
  8
0
100
AcDbLine
 62
7
  6
BYLAYER
 10
10.9612570171
 20
72.8596905901
 11
9.6265703897
 21
73.6302548413
  0
LINE
  5
268
100
AcDbEntity
  8
0
100
AcDbLine
 62
7
  6
BYLAYER
 10
9.6265703897
 20
74.3933056393
 11
10.9561344326
 21
73.6256988468
  0
LINE
  5
269
100
AcDbEntity
  8
0
100
AcDbLine
 62
7
  6
BYLAYER
 10
11.8372587662
 20
73.1169929841
 11
13.1719453936
 21
72.3464287329
  0
LINE
  5
26A
100
AcDbEntity
  8
0
100
AcDbLine
 62
7
  6
BYLAYER
 10
44.982056647
 20
53.9812679133
 11
46.31162069
 21
53.2136611208
  0
LINE
  5
26B
100
AcDbEntity
  8
0
100
AcDbLine
 62
7
  6
BYLAYER
 10
47.1927450235
 20
52.7049552581
 11
48.527431651
 21
51.9343910069
  0
LINE
  5
26C
100
AcDbEntity
  8
0
100
AcDbLine
 62
7
  6
BYLAYER
 10
49.3898451816
 20
51.4526618788
 11
48.607776781
 21
51.9041790657
  0
LINE
  5
26D
100
AcDbEntity
  8
0
100
AcDbLine
 62
7
  6
BYLAYER
 10
46.6742308004
 20
53.0204871038
 11
46.3430816138
 21
53.2116718506
  0
LINE
  5
26E
100
AcDbEntity
  8
0
100
AcDbLine
 62
7
  6
BYLAYER
 10
14.0343589242
 20
71.8646996048
 11
13.2522905237
 21
72.3162167917
  0
LINE
  5
26F
100
AcDbEntity
  8
0
100
AcDbLine
 62
7
  6
BYLAYER
 10
11.318744543
 20
73.4325248298
 11
10.9875953565
 21
73.6237095766
  0
LINE
  5
270
100
AcDbEntity
  8
0
100
AcDbLine
 62
7
  6
BYLAYER
 10
67.9195367356
 20
41.2248644404
 11
69.3337547936
 21
40.4083837352
  0
LINE
  5
271
100
AcDbEntity
  8
0
100
AcDbLine
 62
7
  6
BYLAYER
 10
41.2392665075
 20
68.4163046295
 11
41.2392665075
 21
64.007191577
  0
LINE
  5
272
100
AcDbEntity
  8
0
100
AcDbLine
 62
7
  6
BYLAYER
 10
41.3453400318
 20
21.4062005419
 11
41.3453400318
 21
24.0365663374
  0
LINE
  5
273
100
AcDbEntity
  8
0
100
AcDbLine
 62
7
  6
BYLAYER
 10
41.7492025922
 20
80.0374482901
 11
41.7492153167
 21
76.966527762
  0
LINE
  5
274
100
AcDbEntity
  8
0
100
AcDbLine
 62
7
  6
BYLAYER
 10
42.0170807284
 20
63.8030582126
 11
42.0170807284
 21
64.4562601463
  0
LINE
  5
275
100
AcDbEntity
  8
0
100
AcDbLine
 62
7
  6
BYLAYER
 10
42.4142410742
 20
90.6115993448
 11
42.4142410742
 21
91.2648012785
  0
LINE
  5
276
100
AcDbEntity
  8
0
100
AcDbLine
 62
7
  6
BYLAYER
 10
44.3261755388
 20
89.3529125293
 11
44.3261755388
 21
88.6997105956
  0
LINE
  5
277
100
AcDbEntity
  8
0
100
AcDbLine
 62
7
  6
BYLAYER
 10
14.7226453378
 20
38.6543802389
 11
13.0963065122
 21
37.715418685
  0
LINE
  5
278
100
AcDbEntity
  8
0
100
AcDbLine
 62
7
  6
BYLAYER
 10
52.776866076
 20
50.3649936613
 11
52.9065722621
 21
50.290109454
  0
LINE
  5
279
100
AcDbEntity
  8
0
100
AcDbLine
 62
7
  6
BYLAYER
 10
52.8004887629
 20
50.596299858
 11
53.1187034132
 21
50.4125827001
  0
LINE
  5
27A
100
AcDbEntity
  8
0
100
AcDbLine
 62
7
  6
BYLAYER
 10
46.3167432745
 20
52.4476528641
 11
46.395357849
 21
52.3688063515
  0
LINE
  5
27B
100
AcDbEntity
  8
0
100
AcDbLine
 62
7
  6
BYLAYER
 10
47.1927450235
 20
52.7049552581
 11
47.114130449
 21
52.7838017706
  0
LINE
  5
27C
100
AcDbEntity
  8
0
100
AcDbLine
 62
7
  6
BYLAYER
 10
44.9869080128
 20
70.579993546
 11
44.9869080128
 21
67.3956129551
  0
LINE
  5
27D
100
AcDbEntity
  8
0
100
AcDbLine
 62
7
  6
BYLAYER
 10
46.0475726006
 20
71.1923648758
 11
46.0475726006
 21
70.5391629421
  0
LINE
  5
27E
100
AcDbEntity
  8
0
100
AcDbLine
 62
7
  6
BYLAYER
 10
46.4243344474
 20
54.1530575397
 11
46.4243344474
 21
53.2787382996
  0
LINE
  5
27F
100
AcDbEntity
  8
0
100
AcDbLine
 62
7
  6
BYLAYER
 10
46.4243344474
 20
52.2613005207
 11
46.4243344474
 21
51.3810662118
  0
LINE
  5
280
100
AcDbEntity
  8
0
100
AcDbLine
 62
7
  6
BYLAYER
 10
47.0851538507
 20
50.9995505824
 11
47.0851538507
 21
51.8738698226
  0
LINE
  5
281
100
AcDbEntity
  8
0
100
AcDbLine
 62
7
  6
BYLAYER
 10
47.0851538507
 20
52.8913076015
 11
47.0851538507
 21
53.7715419104
  0
LINE
  5
282
100
AcDbEntity
  8
0
100
AcDbLine
 62
7
  6
BYLAYER
 10
46.3896109475
 20
53.2087298069
 11
46.4243344474
 21
53.2787382996
  0
LINE
  5
283
100
AcDbEntity
  8
0
100
AcDbLine
 62
7
  6
BYLAYER
 10
45.4385038356
 20
55.0997913876
 11
46.5790332214
 21
55.932319002
  0
LINE
  5
284
100
AcDbEntity
  8
0
100
AcDbLine
 62
7
  6
BYLAYER
 10
47.0851538507
 20
52.9788806844
 11
46.3167432745
 21
52.4476528641
  0
LINE
  5
285
100
AcDbEntity
  8
0
100
AcDbLine
 62
7
  6
BYLAYER
 10
17.3033291002
 20
37.6948225586
 11
16.8440111709
 21
37.4296368114
  0
LINE
  5
286
100
AcDbEntity
  8
0
100
AcDbLine
 62
7
  6
BYLAYER
 10
51.6744068331
 20
55.8105937798
 11
52.7350625889
 21
56.4229600106
  0
LINE
  5
287
100
AcDbEntity
  8
0
100
AcDbLine
 62
7
  6
BYLAYER
 10
52.765156205
 20
56.0464669127
 11
68.1800198563
 21
64.9461894671
  0
LINE
  5
288
100
AcDbEntity
  8
0
100
AcDbLine
 62
7
  6
BYLAYER
 10
47.1141361173
 20
52.7837919528
 11
46.395357849
 21
52.3688063515
  0
LINE
  5
289
100
AcDbEntity
  8
0
100
AcDbLine
 62
7
  6
BYLAYER
 10
47.2686125819
 20
52.6611540938
 11
46.4243344474
 21
52.2613005207
  0
LINE
  5
28A
100
AcDbEntity
  8
0
100
AcDbLine
 62
7
  6
BYLAYER
 10
47.0851538507
 20
53.5590790844
 11
46.4243344474
 21
53.2787382996
  0
LINE
  5
28B
100
AcDbEntity
  8
0
100
AcDbLine
 62
7
  6
BYLAYER
 10
47.0851538507
 20
53.4736266759
 11
46.3896109475
 21
53.2087298069
  0
LINE
  5
28C
100
AcDbEntity
  8
0
100
AcDbLine
 62
7
  6
BYLAYER
 10
9.2491809098
 20
79.912346647
 11
51.6744068331
 21
55.8105937798
  0
LINE
  5
28D
100
AcDbEntity
  8
0
100
AcDbLine
 62
7
  6
BYLAYER
 10
10.3098366656
 20
80.5247128778
 11
20.9452274053
 21
74.4827519059
  0
LINE
  5
28E
100
AcDbEntity
  8
0
100
AcDbLine
 62
7
  6
BYLAYER
 10
40.8898195573
 20
63.1522375568
 11
52.7350625889
 21
56.4229600106
  0
LINE
  5
28F
100
AcDbEntity
  8
0
100
AcDbLine
 62
7
  6
BYLAYER
 10
40.0371899842
 20
62.6599745817
 11
20.9452274053
 21
73.6824749538
  0
LINE
  5
290
100
AcDbEntity
  8
0
100
AcDbLine
 62
7
  6
BYLAYER
 10
10.3385726962
 20
80.5409121839
 11
14.8994336552
 21
77.9077574514
  0
LINE
  5
291
100
AcDbEntity
  8
0
100
AcDbLine
 62
7
  6
BYLAYER
 10
52.7375506305
 20
56.062404638
 11
52.765156205
 21
56.0464669127
  0
LINE
  5
292
100
AcDbEntity
  8
0
100
AcDbLine
 62
7
  6
BYLAYER
 10
41.0271100063
 20
63.2315017614
 11
42.2661523729
 21
62.5161565008
  0
LINE
  5
293
100
AcDbEntity
  8
0
100
AcDbLine
 62
7
  6
BYLAYER
 10
46.9668488045
 20
60.4554714807
 11
46.2597390793
 21
60.8637122352
  0
LINE
  5
294
100
AcDbEntity
  8
0
100
AcDbLine
 62
7
  6
BYLAYER
 10
18.6824597986
 20
76.7851016615
 11
17.9753500734
 21
77.193342416
  0
LINE
  5
295
100
AcDbEntity
  8
0
100
AcDbLine
 62
7
  6
BYLAYER
 10
42.0170807284
 20
64.4562601463
 11
43.535760044
 21
63.5794700703
  0
LINE
  5
296
100
AcDbEntity
  8
0
100
AcDbLine
 62
7
  6
BYLAYER
 10
42.2661523729
 20
62.5161565008
 11
42.4444580351
 21
62.2690480964
  0
LINE
  5
297
100
AcDbEntity
  8
0
100
AcDbLine
 62
7
  6
BYLAYER
 10
46.395357849
 20
52.3688063515
 11
46.4243344474
 21
52.2613005207
  0
LINE
  5
298
100
AcDbEntity
  8
0
100
AcDbLine
 62
7
  6
BYLAYER
 10
47.114130449
 20
52.7838017706
 11
47.0851538507
 21
52.8913076015
  0
LINE
  5
299
100
AcDbEntity
  8
0
100
AcDbLine
 62
7
  6
BYLAYER
 10
51.6744068331
 20
55.8105937798
 11
51.9351805551
 21
18.020482424
  0
LINE
  5
29A
100
AcDbEntity
  8
0
100
AcDbLine
 62
7
  6
BYLAYER
 10
48.5932147146
 20
19.9190518017
 11
48.5932147146
 21
17.221732808
  0
LINE
  5
29B
100
AcDbEntity
  8
0
100
AcDbLine
 62
7
  6
BYLAYER
 10
47.0851538507
 20
51.8738698226
 11
47.1198773505
 21
51.9438783153
  0
LINE
  5
29C
100
AcDbEntity
  8
0
100
AcDbLine
 62
7
  6
BYLAYER
 10
47.6970667519
 20
52.4137915595
 11
47.1198773505
 21
51.9438783153
  0
LINE
  5
29D
100
AcDbEntity
  8
0
100
AcDbLine
 62
7
  6
BYLAYER
 10
47.771069358
 20
52.3710671015
 11
47.1978676081
 21
51.9389470014
  0
LINE
  5
29E
100
AcDbEntity
  8
0
100
AcDbLine
 62
7
  6
BYLAYER
 10
48.282015708
 20
50.1746549537
 11
49.5732734185
 21
50.7461118933
  0
LINE
  5
29F
100
AcDbEntity
  8
0
100
AcDbLine
 62
7
  6
BYLAYER
 10
38.0842422225
 20
73.4917376636
 11
36.1723077578
 21
75.4036264127
  0
LINE
  5
2A0
100
AcDbEntity
  8
0
100
AcDbLine
 62
7
  6
BYLAYER
 10
52.7350625889
 20
56.4229600106
 11
52.9958363109
 21
18.6328486549
  0
LINE
  5
2A1
100
AcDbEntity
  8
0
100
AcDbLine
 62
7
  6
BYLAYER
 10
52.0580523678
 20
18.0914220747
 11
52.0580523678
 21
12.7718458595
  0
LINE
  5
2A2
100
AcDbEntity
  8
0
100
AcDbLine
 62
7
  6
BYLAYER
 10
52.3298165445
 20
84.078910843
 11
52.3298165445
 21
84.7321127767
  0
LINE
  5
2A3
100
AcDbEntity
  8
0
100
AcDbLine
 62
7
  6
BYLAYER
 10
52.765156205
 20
56.0464669127
 11
52.765156205
 21
50.5759007179
  0
LINE
  5
2A4
100
AcDbEntity
  8
0
100
AcDbLine
 62
7
  6
BYLAYER
 10
52.9065722621
 20
50.290109454
 11
52.9065722621
 21
31.5685782221
  0
LINE
  5
2A5
100
AcDbEntity
  8
0
100
AcDbLine
 62
7
  6
BYLAYER
 10
53.1187034132
 20
50.4125827001
 11
53.1187034132
 21
20.3244686289
  0
LINE
  5
2A6
100
AcDbEntity
  8
0
100
AcDbLine
 62
7
  6
BYLAYER
 10
53.6843911934
 20
19.0997233665
 11
53.6843911934
 21
51.1066181179
  0
LINE
  5
2A7
100
AcDbEntity
  8
0
100
AcDbLine
 62
7
  6
BYLAYER
 10
52.765156205
 20
50.5759007179
 11
53.6843911934
 21
51.1066181179
  0
LINE
  5
2A8
100
AcDbEntity
  8
0
100
AcDbLine
 62
7
  6
BYLAYER
 10
52.9065722621
 20
50.290109454
 11
53.1187034132
 21
50.4125827001
  0
LINE
  5
2A9
100
AcDbEntity
  8
0
100
AcDbLine
 62
7
  6
BYLAYER
 10
11.7643910932
 20
72.3559160413
 11
11.8423813507
 21
72.3509847274
  0
LINE
  5
2AA
100
AcDbEntity
  8
0
100
AcDbLine
 62
7
  6
BYLAYER
 10
44.9869080128
 20
67.3956129551
 11
41.2392665075
 21
67.9753571705
  0
LINE
  5
2AB
100
AcDbEntity
  8
0
100
AcDbLine
 62
7
  6
BYLAYER
 10
44.9869080128
 20
67.3956129551
 11
47.5662519161
 21
65.9064617473
  0
LINE
  5
2AC
100
AcDbEntity
  8
0
100
AcDbLine
 62
7
  6
BYLAYER
 10
20.9452274053
 20
82.2557503336
 11
40.0371899842
 21
71.2332499616
  0
LINE
  5
2AD
100
AcDbEntity
  8
0
100
AcDbLine
 62
7
  6
BYLAYER
 10
55.6413682579
 20
83.6282885993
 11
55.6413682579
 21
82.9750866656
  0
LINE
  5
2AE
100
AcDbEntity
  8
0
100
AcDbLine
 62
7
  6
BYLAYER
 10
56.5127093913
 20
76.5811764194
 11
56.5127093913
 21
80.6636885051
  0
LINE
  5
2AF
100
AcDbEntity
  8
0
100
AcDbLine
 62
7
  6
BYLAYER
 10
10.9561344326
 20
73.6256988468
 11
11.0341246902
 21
73.6207675329
  0
LINE
  5
2B0
100
AcDbEntity
  8
0
100
AcDbLine
 62
7
  6
BYLAYER
 10
59.6946766588
 20
82.5007871975
 11
59.6946766588
 21
82.5824374392
  0
LINE
  5
2B1
100
AcDbEntity
  8
0
100
AcDbLine
 62
7
  6
BYLAYER
 10
28.1686667521
 20
80.0244261654
 11
24.8571150387
 21
81.1282503428
  0
LINE
  5
2B2
100
AcDbEntity
  8
0
100
AcDbLine
 62
7
  6
BYLAYER
 10
68.1800198563
 20
64.9461894671
 11
60.7553677422
 21
69.2327173895
  0
LINE
  5
2B3
100
AcDbEntity
  8
0
100
AcDbLine
 62
7
  6
BYLAYER
 10
29.5716932297
 20
87.2362129702
 11
25.7534363474
 21
89.4406347383
  0
LWPOLYLINE
  5
2B4
100
AcDbEntity
  8
0
100
AcDbPolyline
 62
7
  6
BYLAYER
 90
7
 70
0
 10
49.3377088468
 20
78.9119652992
 10
48.7683980734
 20
79.6168292466
 10
46.2144011176
 20
81.0913467185
 10
42.9409178934
 20
81.9726210296
 10
39.3427787892
 20
82.1543574919
 10
35.8539724837
 20
81.6146360057
 10
32.8953005068
 20
80.4185549479
  0
LINE
  5
2B5
100
AcDbEntity
  8
0
100
AcDbLine
 62
7
  6
BYLAYER
 10
63.4070807309
 20
34.6378528878
 11
63.4070807309
 21
30.5511077822
  0
LINE
  5
2B6
100
AcDbEntity
  8
0
100
AcDbLine
 62
7
  6
BYLAYER
 10
63.4070807309
 20
29.3263541565
 11
63.4070807309
 21
25.2396090508
  0
LINE
  5
2B7
100
AcDbEntity
  8
0
100
AcDbLine
 62
7
  6
BYLAYER
 10
64.4677364867
 20
25.8519752816
 11
64.4677364867
 21
29.9387203873
  0
LINE
  5
2B8
100
AcDbEntity
  8
0
100
AcDbLine
 62
7
  6
BYLAYER
 10
64.4677364867
 20
31.163474013
 11
64.4677364867
 21
35.2502191186
  0
LINE
  5
2B9
100
AcDbEntity
  8
0
100
AcDbLine
 62
7
  6
BYLAYER
 10
62.656216076
 20
70.9113951378
 11
60.2687388587
 21
72.2897745687
  0
LINE
  5
2BA
100
AcDbEntity
  8
0
100
AcDbLine
 62
7
  6
BYLAYER
 10
31.9759078406
 20
88.6242786373
 11
31.2772401277
 21
89.0276455041
  0
LINE
  5
2BB
100
AcDbEntity
  8
0
100
AcDbLine
 62
7
  6
BYLAYER
 10
44.3261755388
 20
88.6997105956
 11
42.4142410742
 21
90.6115993448
  0
LINE
  5
2BC
100
AcDbEntity
  8
0
100
AcDbLine
 62
7
  6
BYLAYER
 10
68.1800198563
 20
64.9461894671
 11
68.1800198563
 21
73.9277160555
  0
LINE
  5
2BD
100
AcDbEntity
  8
0
100
AcDbLine
 62
7
  6
BYLAYER
 10
31.2772401277
 20
93.2734580731
 11
33.6647173449
 21
91.8950786422
  0
LINE
  5
2BE
100
AcDbEntity
  8
0
100
AcDbLine
 62
7
  6
BYLAYER
 10
60.2687388587
 20
76.5355871378
 11
62.656216076
 21
75.1572077069
  0
LINE
  5
2BF
100
AcDbEntity
  8
0
100
AcDbLine
 62
7
  6
BYLAYER
 10
25.7534363474
 20
98.4221613267
 11
37.3500346179
 21
91.7270136581
  0
LINE
  5
2C0
100
AcDbEntity
  8
0
100
AcDbLine
 62
7
  6
BYLAYER
 10
56.5127093913
 20
80.6636885051
 11
68.1800198563
 21
73.9277160555
  0
LINE
  5
2C1
100
AcDbEntity
  8
0
100
AcDbLine
 62
7
  6
BYLAYER
 10
42.4142410742
 20
91.2648012785
 11
44.3261755388
 21
89.3529125293
  0
LINE
  5
2C2
100
AcDbEntity
  8
0
100
AcDbLine
 62
7
  6
BYLAYER
 10
71.3619871237
 20
75.7648147479
 11
71.3619871237
 21
37.3632539266
  0
LINE
  5
2C3
100
AcDbEntity
  8
0
100
AcDbLine
 62
7
  6
BYLAYER
 10
71.3619871237
 20
32.1518148811
 11
71.3619871237
 21
23.9169112602
  0
LINE
  5
2C4
100
AcDbEntity
  8
0
100
AcDbLine
 62
7
  6
BYLAYER
 10
71.715546482
 20
35.1438426203
 11
71.7155494865
 21
34.7355994064
  0
LINE
  5
2C5
100
AcDbEntity
  8
0
100
AcDbLine
 62
7
  6
BYLAYER
 10
42.9716788574
 20
22.3451620958
 11
41.3453400318
 21
21.4062005419
  0
LINE
  5
2C6
100
AcDbEntity
  8
0
100
AcDbLine
 62
7
  6
BYLAYER
 10
55.6413682579
 20
82.9750866656
 11
52.3298165445
 21
84.078910843
  0
LINE
  5
2C7
100
AcDbEntity
  8
0
100
AcDbLine
 62
7
  6
BYLAYER
 10
52.3298165445
 20
84.7321127767
 11
55.6413682579
 21
83.6282885993
  0
LINE
  5
2C8
100
AcDbEntity
  8
0
100
AcDbLine
 62
7
  6
BYLAYER
 10
28.9354036149
 20
100.2592600191
 11
40.5320018854
 21
93.5641123505
  0
LINE
  5
2C9
100
AcDbEntity
  8
0
100
AcDbLine
 62
7
  6
BYLAYER
 10
59.6946766588
 20
82.5007871975
 11
71.3619871237
 21
75.7648147479
  0
LINE
  5
2CA
100
AcDbEntity
  8
0
100
AcDbLine
 62
7
  6
BYLAYER
 10
40.6027140798
 20
93.6049378113
 11
59.6946766588
 21
82.5824374392
  0
LINE
  5
2CB
100
AcDbEntity
  8
0
100
AcDbLine
 62
7
  6
BYLAYER
 10
45.7801813748
 20
21.5171348499
 11
45.0930446905
 21
21.1204186684
  0
LINE
  5
2CC
100
AcDbEntity
  8
0
100
AcDbLine
 62
7
  6
BYLAYER
 10
68.0069215342
 20
33.2068112557
 11
64.4677364867
 21
31.163474013
  0
LINE
  5
2CD
100
AcDbEntity
  8
0
100
AcDbLine
 62
7
  6
BYLAYER
 10
63.4070807309
 20
30.5511077822
 11
59.8678956835
 21
28.5077705394
  0
LINE
  5
2CE
100
AcDbEntity
  8
0
100
AcDbLine
 62
7
  6
BYLAYER
 10
59.8678956835
 20
27.2830169137
 11
63.4070807309
 21
29.3263541565
  0
LINE
  5
2CF
100
AcDbEntity
  8
0
100
AcDbLine
 62
7
  6
BYLAYER
 10
64.4677364867
 20
29.9387203873
 11
68.0069215342
 21
31.98205763
  0
LINE
  5
2D0
100
AcDbEntity
  8
0
100
AcDbLine
 62
7
  6
BYLAYER
 10
52.9846970356
 20
20.2471004726
 11
53.1187034132
 21
20.3244686289
  0
LINE
  5
2D1
100
AcDbEntity
  8
0
100
AcDbLine
 62
7
  6
BYLAYER
 10
53.6843911934
 20
19.0997233665
 11
52.9953597252
 21
18.7019132374
  0
LINE
  5
2D2
100
AcDbEntity
  8
0
100
AcDbLine
 62
7
  6
BYLAYER
 10
51.9351805551
 20
18.020482424
 11
52.9958363109
 21
18.6328486549
  0
LINE
  5
2D3
100
AcDbEntity
  8
0
100
AcDbLine
 62
7
  6
BYLAYER
 10
63.9375413406
 20
21.2634656676
 11
63.5839918388
 21
21.0593380013
  0
LINE
  5
2D4
100
AcDbEntity
  8
0
100
AcDbLine
 62
7
  6
BYLAYER
 10
52.0580523678
 20
12.7718458595
 11
71.3619871237
 21
23.9169112602
  0
ARC
  5
2D5
100
AcDbEntity
  8
0
100
AcDbCircle
 62
7
  6
BYLAYER
 10
40.249241813
 20
62.4142190641
 40
16.3856239467
100
AcDbArc
 50
84.7477187346
 51
95.2525567096
  0
ARC
  5
2D6
100
AcDbEntity
  8
0
100
AcDbCircle
 62
7
  6
BYLAYER
 10
65.9092087092
 20
26.1606478734
 40
11.1641457904
100
AcDbArc
 50
178.3382148723
 51
180.0469252169
  0
ARC
  5
2D7
100
AcDbEntity
  8
0
100
AcDbCircle
 62
7
  6
BYLAYER
 10
68.4057172999
 20
30.6719966632
 40
11.0567287038
100
AcDbArc
 50
120.0036436652
 51
121.6745456311
  0
ARC
  5
2D8
100
AcDbEntity
  8
0
100
AcDbCircle
 62
7
  6
BYLAYER
 10
65.3520568923
 20
26.1615925602
 40
10.6069950267
100
AcDbArc
 50
180.0544929604
 51
181.7170752644
  0
ARC
  5
2D9
100
AcDbEntity
  8
0
100
AcDbCircle
 62
7
  6
BYLAYER
 10
68.1324388799
 20
31.1477199307
 40
10.5081012081
100
AcDbArc
 50
118.2737765497
 51
120.0103528402
  0
ARC
  5
2DA
100
AcDbEntity
  8
0
100
AcDbCircle
 62
7
  6
BYLAYER
 10
61.659115852
 20
34.7367577754
 40
10.0564340459
100
AcDbArc
 50
359.9933991458
 51
2.3701211522
  0
ARC
  5
2DB
100
AcDbEntity
  8
0
100
AcDbCircle
 62
7
  6
BYLAYER
 10
58.955501523
 20
29.8850919789
 40
9.9575576169
100
AcDbArc
 50
297.6596428601
 51
300.0216712671
  0
ARC
  5
2DC
100
AcDbEntity
  8
0
100
AcDbCircle
 62
7
  6
BYLAYER
 10
64.6893131431
 20
26.1419676494
 40
9.9439608258
100
AcDbArc
 50
181.7184721824
 51
184.4169040604
  0
ARC
  5
2DD
100
AcDbEntity
  8
0
100
AcDbCircle
 62
7
  6
BYLAYER
 10
67.8149468599
 20
31.7464516849
 40
9.8304111468
100
AcDbArc
 50
115.5683255461
 51
118.2970725329
  0
ARC
  5
2DE
100
AcDbEntity
  8
0
100
AcDbCircle
 62
7
  6
BYLAYER
 10
66.6859054398
 20
37.4502181479
 40
3.8857549416
100
AcDbArc
 50
60.0364459691
 51
72.3085879397
  0
ARC
  5
2DF
100
AcDbEntity
  8
0
100
AcDbCircle
 62
7
  6
BYLAYER
 10
59.0713515304
 20
24.2612431461
 40
3.8849640495
100
AcDbArc
 50
227.6864887586
 51
239.9655363801
  0
ARC
  5
2E0
100
AcDbEntity
  8
0
100
AcDbCircle
 62
7
  6
BYLAYER
 10
59.7757172568
 20
23.8488924165
 40
3.8800358132
100
AcDbArc
 50
228.4387580372
 51
239.9702270432
  0
ARC
  5
2E1
100
AcDbEntity
  8
0
100
AcDbCircle
 62
7
  6
BYLAYER
 10
59.0685512966
 20
24.2570567517
 40
3.8799382415
100
AcDbArc
 50
228.4417091246
 51
239.9703927814
  0
ARC
  5
2E2
100
AcDbEntity
  8
0
100
AcDbCircle
 62
7
  6
BYLAYER
 10
24.7002120188
 20
81.6243827493
 40
1.1140873283
100
AcDbArc
 50
148.1600786441
 51
149.7079100735
  0
SPLINE
  5
2E3
100
AcDbEntity
  8
0
100
AcDbSpline
 62
7
  6
BYLAYER
 70
0
 71
3
 72
11
 73
7
 74
0
 42
0.0000001
 43
0.0000001
 44
0.0000000001
 40
0.0
 40
0.0
 40
0.0
 40
0.0
 40
0.1799057731
 40
0.411514798
 40
0.6875706296
 40
1.0
 40
1.0
 40
1.0
 40
1.0
 10
11.2575128897
 20
74.2938547142
 30
0.0
 10
11.2896937991
 20
74.2881838757
 30
0.0
 10
11.3619575569
 20
74.2674929487
 30
0.0
 10
11.475872924
 20
74.215441085
 30
0.0
 10
11.6026291696
 20
74.1365268619
 30
0.0
 10
11.6867167982
 20
74.0701741471
 30
0.0
 10
11.7295539307
 20
74.032955332
 30
0.0
  0
SPLINE
  5
2E4
100
AcDbEntity
  8
0
100
AcDbSpline
 62
7
  6
BYLAYER
 70
0
 71
3
 72
13
 73
9
 74
0
 42
0.0000001
 43
0.0000001
 44
0.0000000001
 40
0.0
 40
0.0
 40
0.0
 40
0.0
 40
0.1008972407
 40
0.2043534084
 40
0.4296786886
 40
0.5563889218
 40
0.6936950892
 40
1.0
 40
1.0
 40
1.0
 40
1.0
 10
9.5359275398
 20
74.523921071
 30
0.0
 10
9.5350546761
 20
74.5183277734
 30
0.0
 10
9.5345186473
 20
74.5067672884
 30
0.0
 10
9.5385849725
 20
74.4828471086
 30
0.0
 10
9.550438629
 20
74.4595239577
 30
0.0
 10
9.5677868078
 20
74.4382067756
 30
0.0
 10
9.5909625075
 20
74.4160311038
 30
0.0
 10
9.6116870443
 20
74.4018983484
 30
0.0
 10
9.6265703897
 20
74.3933056393
 30
0.0
  0
SPLINE
  5
2E5
100
AcDbEntity
  8
0
100
AcDbSpline
 62
7
  6
BYLAYER
 70
0
 71
3
 72
12
 73
8
 74
0
 42
0.0000001
 43
0.0000001
 44
0.0000000001
 40
0.0
 40
0.0
 40
0.0
 40
0.0
 40
0.2651942741
 40
0.5178222511
 40
0.7613461362
 40
0.8809873649
 40
1.0
 40
1.0
 40
1.0
 40
1.0
 10
9.5359247752
 20
74.5239211665
 30
0.0
 10
9.5517146064
 20
74.6250458419
 30
0.0
 10
9.5967255543
 20
74.8207664156
 30
0.0
 10
9.710983262
 20
75.0931661647
 30
0.0
 10
9.8455990986
 20
75.2914421553
 30
0.0
 10
9.9746850353
 20
75.4259486339
 30
0.0
 10
10.0459178734
 20
75.4847482429
 30
0.0
 10
10.0830175782
 20
75.5118291136
 30
0.0
  0
SPLINE
  5
2E6
100
AcDbEntity
  8
0
100
AcDbSpline
 62
7
  6
BYLAYER
 70
0
 71
3
 72
11
 73
7
 74
0
 42
0.0000001
 43
0.0000001
 44
0.0000000001
 40
0.0
 40
0.0
 40
0.0
 40
0.0
 40
0.2274223862
 40
0.4648420059
 40
0.7209150938
 40
1.0
 40
1.0
 40
1.0
 40
1.0
 10
9.5361446206
 20
73.7497512606
 30
0.0
 10
9.5344567435
 20
73.7622454438
 30
0.0
 10
9.5348376747
 20
73.7884464
 30
0.0
 10
9.5468113415
 20
73.8270647364
 30
0.0
 10
9.5694820802
 20
73.8638479298
 30
0.0
 10
9.590188289
 20
73.8853995155
 30
0.0
 10
9.6018309471
 20
73.8955888355
 30
0.0
  0
SPLINE
  5
2E7
100
AcDbEntity
  8
0
100
AcDbSpline
 62
7
  6
BYLAYER
 70
0
 71
3
 72
24
 73
20
 74
0
 42
0.0000001
 43
0.0000001
 44
0.0000000001
 40
0.0
 40
0.0
 40
0.0
 40
0.0
 40
0.024583776
 40
0.049266646
 40
0.0993906149
 40
0.1511646914
 40
0.2051978329
 40
0.2619698187
 40
0.321714048
 40
0.3844188477
 40
0.4498418778
 40
0.5175529964
 40
0.5869784942
 40
0.6574437122
 40
0.728215043
 40
0.7985452925
 40
0.8677009657
 40
0.9350417762
 40
1.0
 40
1.0
 40
1.0
 40
1.0
 10
12.9265294506
 20
70.5866926797
 30
0.0
 10
12.8876422757
 20
70.569482834
 30
0.0
 10
12.807736872
 20
70.539266908
 30
0.0
 10
12.6410742686
 20
70.495977745
 30
0.0
 10
12.4215536354
 20
70.4745866264
 30
0.0
 10
12.1515956521
 20
70.4990987379
 30
0.0
 10
11.8783790666
 20
70.5702663147
 30
0.0
 10
11.6054877785
 20
70.6845795147
 30
0.0
 10
11.3358492839
 20
70.8389569894
 30
0.0
 10
11.0724878833
 20
71.0303258616
 30
0.0
 10
10.8186642939
 20
71.2554081719
 30
0.0
 10
10.5778469422
 20
71.5105144389
 30
0.0
 10
10.3535811472
 20
71.7914904204
 30
0.0
 10
10.1493498571
 20
72.0937354406
 30
0.0
 10
9.9684272053
 20
72.4122797577
 30
0.0
 10
9.8138039104
 20
72.7418914882
 30
0.0
 10
9.688027935
 20
73.0772571301
 30
0.0
 10
9.59332373
 20
73.413042921
 30
0.0
 10
9.5511930886
 20
73.6383977495
 30
0.0
 10
9.5361449463
 20
73.7497507304
 30
0.0
  0
SPLINE
  5
2E8
100
AcDbEntity
  8
0
100
AcDbSpline
 62
7
  6
BYLAYER
 70
0
 71
3
 72
26
 73
22
 74
0
 42
0.0000001
 43
0.0000001
 44
0.0000000001
 40
0.0
 40
0.0
 40
0.0
 40
0.0
 40
0.0214904224
 40
0.0430250439
 40
0.0648445917
 40
0.0871749921
 40
0.1102148028
 40
0.1341311197
 40
0.1850189862
 40
0.2405186511
 40
0.3007322427
 40
0.3653581762
 40
0.4337889863
 40
0.5051933103
 40
0.5785841856
 40
0.6528785462
 40
0.7269504679
 40
0.7996841583
 40
0.8700287747
 40
0.9370527978
 40
1.0
 40
1.0
 40
1.0
 40
1.0
 10
11.2235502183
 20
76.3443515879
 30
0.0
 10
11.2588009054
 20
76.3700844204
 30
0.0
 10
11.332815942
 20
76.417078221
 30
0.0
 10
11.4526204337
 20
76.4726071974
 30
0.0
 10
11.5802143241
 20
76.5127547478
 30
0.0
 10
11.7147891979
 20
76.5372461448
 30
0.0
 10
11.855534909
 20
76.5460390992
 30
0.0
 10
12.0543573467
 20
76.5365776545
 30
0.0
 10
12.315274662
 20
76.4830607936
 30
0.0
 10
12.6316568215
 20
76.3595895763
 30
0.0
 10
12.9514008427
 20
76.178796017
 30
0.0
 10
13.2676008676
 20
75.9448218396
 30
0.0
 10
13.5734334179
 20
75.6628930514
 30
0.0
 10
13.8621365052
 20
75.3392918595
 30
0.0
 10
14.1272795027
 20
74.9812512465
 30
0.0
 10
14.3629199346
 20
74.5967971776
 30
0.0
 10
14.5637704369
 20
74.1945602164
 30
0.0
 10
14.7253189021
 20
73.7835716942
 30
0.0
 10
14.8439540038
 20
73.3729984144
 30
0.0
 10
14.9169982761
 20
72.9720790852
 30
0.0
 10
14.9347947415
 20
72.7079443653
 30
0.0
 10
14.9347947415
 20
72.5801078313
 30
0.0
  0
SPLINE
  5
2E9
100
AcDbEntity
  8
0
100
AcDbSpline
 62
7
  6
BYLAYER
 70
0
 71
3
 72
16
 73
12
 74
0
 42
0.0000001
 43
0.0000001
 44
0.0000000001
 40
0.0
 40
0.0
 40
0.0
 40
0.0
 40
0.1497796884
 40
0.2912125481
 40
0.4242816431
 40
0.4878769931
 40
0.5496306434
 40
0.6681042336
 40
0.7812815886
 40
0.8911439783
 40
1.0
 40
1.0
 40
1.0
 40
1.0
 10
14.9347947415
 20
72.5801078313
 30
0.0
 10
14.9347947415
 20
72.4960002066
 30
0.0
 10
14.9275077333
 20
72.3323338608
 30
0.0
 10
14.8926922866
 20
72.0962070142
 30
0.0
 10
14.8434720298
 20
71.9122904378
 30
0.0
 10
14.7922203736
 20
71.7764174661
 30
0.0
 10
14.7351351922
 20
71.6518723237
 30
0.0
 10
14.6503038087
 20
71.5098148522
 30
0.0
 10
14.5259275335
 20
71.3626235337
 30
0.0
 10
14.3817174122
 20
71.243019587
 30
0.0
 10
14.2736830596
 20
71.1828910836
 30
0.0
 10
14.2177844347
 20
71.1581547701
 30
0.0
  0
SPLINE
  5
2EA
100
AcDbEntity
  8
0
100
AcDbSpline
 62
7
  6
BYLAYER
 70
0
 71
3
 72
15
 73
11
 74
0
 42
0.0000001
 43
0.0000001
 44
0.0000000001
 40
0.0
 40
0.0
 40
0.0
 40
0.0
 40
0.1141529757
 40
0.2374165582
 40
0.3669602423
 40
0.49981905
 40
0.6327436396
 40
0.7624461571
 40
0.8858513706
 40
1.0
 40
1.0
 40
1.0
 40
1.0
 10
13.1719453936
 20
72.3464287329
 30
0.0
 10
13.185934212
 20
72.3383524676
 30
0.0
 10
13.2162511092
 20
72.3236349024
 30
0.0
 10
13.2653027552
 20
72.3063374707
 30
0.0
 10
13.3184030685
 20
72.2933831186
 30
0.0
 10
13.3738148988
 20
72.2851794765
 30
0.0
 10
13.4297641461
 20
72.2820136695
 30
0.0
 10
13.4844391547
 20
72.2840008705
 30
0.0
 10
13.536006483
 20
72.2911200929
 30
0.0
 10
13.5686652655
 20
72.2995302852
 30
0.0
 10
13.5839702425
 20
72.3046927375
 30
0.0
  0
SPLINE
  5
2EB
100
AcDbEntity
  8
0
100
AcDbSpline
 62
7
  6
BYLAYER
 70
0
 71
3
 72
15
 73
11
 74
0
 42
0.0000001
 43
0.0000001
 44
0.0000000001
 40
0.0
 40
0.0
 40
0.0
 40
0.0
 40
0.1430512057
 40
0.2785311624
 40
0.4067319819
 40
0.5288497047
 40
0.6466974562
 40
0.7626229563
 40
0.8794366906
 40
1.0
 40
1.0
 40
1.0
 40
1.0
 10
11.06884819
 20
74.5650952657
 30
0.0
 10
11.06884819
 20
74.5478911549
 30
0.0
 10
11.0707684499
 20
74.5143488404
 30
0.0
 10
11.0799410556
 20
74.4661452583
 30
0.0
 10
11.0953411355
 20
74.4221710649
 30
0.0
 10
11.1168583156
 20
74.3832093774
 30
0.0
 10
11.1442994084
 20
74.3500113989
 30
0.0
 10
11.1773577314
 20
74.3233590976
 30
0.0
 10
11.2154859981
 20
74.3039500551
 30
0.0
 10
11.2432370287
 20
74.2963797903
 30
0.0
 10
11.2575163678
 20
74.2938621072
 30
0.0
  0
SPLINE
  5
2EC
100
AcDbEntity
  8
0
100
AcDbSpline
 62
7
  6
BYLAYER
 70
0
 71
3
 72
9
 73
5
 74
0
 42
0.0000001
 43
0.0000001
 44
0.0000000001
 40
0.0
 40
0.0
 40
0.0
 40
0.0
 40
0.5147636976
 40
1.0
 40
1.0
 40
1.0
 40
1.0
 10
11.3187492127
 20
73.4325221339
 30
0.0
 10
11.3058303285
 20
73.4796011178
 30
0.0
 10
11.285186742
 20
73.572357991
 30
0.0
 10
11.2749285218
 20
73.6669009579
 30
0.0
 10
11.272967737
 20
73.71287818
 30
0.0
  0
SPLINE
  5
2ED
100
AcDbEntity
  8
0
100
AcDbSpline
 62
7
  6
BYLAYER
 70
0
 71
3
 72
15
 73
11
 74
0
 42
0.0000001
 43
0.0000001
 44
0.0000000001
 40
0.0
 40
0.0
 40
0.0
 40
0.0
 40
0.1174608408
 40
0.2407846994
 40
0.3682786789
 40
0.4980446978
 40
0.6280704743
 40
0.7563332653
 40
0.8808941514
 40
1.0
 40
1.0
 40
1.0
 40
1.0
 10
13.5839702425
 20
72.3046927375
 30
0.0
 10
13.5678465346
 20
72.4348950408
 30
0.0
 10
13.5190056576
 20
72.7000083397
 30
0.0
 10
13.4033992435
 20
73.0954089604
 30
0.0
 10
13.2460102638
 20
73.4909429761
 30
0.0
 10
13.0504814705
 20
73.8774358368
 30
0.0
 10
12.8213189863
 20
74.2459937252
 30
0.0
 10
12.5637959237
 20
74.5881216109
 30
0.0
 10
12.2838958034
 20
74.8958964808
 30
0.0
 10
12.0811653093
 20
75.0783837483
 30
0.0
 10
11.9773781864
 20
75.1616083778
 30
0.0
  0
SPLINE
  5
2EE
100
AcDbEntity
  8
0
100
AcDbSpline
 62
7
  6
BYLAYER
 70
0
 71
3
 72
17
 73
13
 74
0
 42
0.0000001
 43
0.0000001
 44
0.0000000001
 40
0.0
 40
0.0
 40
0.0
 40
0.0
 40
0.1550381363
 40
0.300955833
 40
0.4371589143
 40
0.5636444747
 40
0.6811400675
 40
0.7912243512
 40
0.8442991525
 40
0.8965079145
 40
0.9482643374
 40
1.0
 40
1.0
 40
1.0
 40
1.0
 10
11.9773781864
 20
75.1616083778
 30
0.0
 10
11.8940544646
 20
75.2284238524
 30
0.0
 10
11.7262061604
 20
75.3508022109
 30
0.0
 10
11.4650512214
 20
75.5019905073
 30
0.0
 10
11.2056231588
 20
75.613202471
 30
0.0
 10
10.9520109187
 20
75.6824132292
 30
0.0
 10
10.7082744821
 20
75.7081651901
 30
0.0
 10
10.5141696095
 20
75.6922389961
 30
0.0
 10
10.3698496417
 20
75.6567600023
 30
0.0
 10
10.2680122144
 20
75.6195804108
 30
0.0
 10
10.1717913864
 20
75.5716999676
 30
0.0
 10
10.1118056601
 20
75.5328398799
 30
0.0
 10
10.0830194072
 20
75.5118261923
 30
0.0
  0
LINE
  5
2EF
100
AcDbEntity
  8
0
100
AcDbLine
 62
7
  6
BYLAYER
 10
11.318744543
 20
73.4325248298
 11
11.7296532372
 21
73.5545955818
  0
SPLINE
  5
2F0
100
AcDbEntity
  8
0
100
AcDbSpline
 62
7
  6
BYLAYER
 70
0
 71
3
 72
9
 73
5
 74
0
 42
0.0000001
 43
0.0000001
 44
0.0000000001
 40
0.0
 40
0.0
 40
0.0
 40
0.0
 40
0.5000531523
 40
1.0
 40
1.0
 40
1.0
 40
1.0
 10
12.0548681892
 20
72.9913398967
 30
0.0
 10
11.9275698318
 20
72.8705996445
 30
0.0
 10
11.6728417419
 20
72.6293117959
 30
0.0
 10
11.4178525409
 20
72.3883000436
 30
0.0
 10
11.2903838289
 20
72.26779394
 30
0.0
  0
SPLINE
  5
2F1
100
AcDbEntity
  8
0
100
AcDbSpline
 62
7
  6
BYLAYER
 70
0
 71
3
 72
11
 73
7
 74
0
 42
0.0000001
 43
0.0000001
 44
0.0000000001
 40
0.0
 40
0.0
 40
0.0
 40
0.0
 40
0.224741394
 40
0.4669079273
 40
0.7258854373
 40
1.0
 40
1.0
 40
1.0
 40
1.0
 10
11.06884819
 20
74.5650952657
 30
0.0
 10
11.1246554757
 20
74.5506143987
 30
0.0
 10
11.2382626688
 20
74.511103359
 30
0.0
 10
11.4048715475
 20
74.4269451624
 30
0.0
 10
11.5711852947
 20
74.3171786076
 30
0.0
 10
11.6772728886
 20
74.2304830905
 30
0.0
 10
11.7296675933
 20
74.1835796364
 30
0.0
  0
SPLINE
  5
2F2
100
AcDbEntity
  8
0
100
AcDbSpline
 62
7
  6
BYLAYER
 70
0
 71
3
 72
12
 73
8
 74
0
 42
0.0000001
 43
0.0000001
 44
0.0000000001
 40
0.0
 40
0.0
 40
0.0
 40
0.0
 40
0.1164950632
 40
0.2369976264
 40
0.4868420032
 40
0.7434521484
 40
1.0
 40
1.0
 40
1.0
 40
1.0
 10
13.1719453936
 20
72.3464287329
 30
0.0
 10
13.1606724448
 20
72.4227743498
 30
0.0
 10
13.1319000592
 20
72.5772816334
 30
0.0
 10
13.0513362132
 20
72.889767001
 30
0.0
 10
12.9086697302
 20
73.281086312
 30
0.0
 10
12.6805500506
 20
73.7332809662
 30
0.0
 10
12.4931688775
 20
74.0180274221
 30
0.0
 10
12.3914378289
 20
74.1541698676
 30
0.0
  0
SPLINE
  5
2F3
100
AcDbEntity
  8
0
100
AcDbSpline
 62
7
  6
BYLAYER
 70
0
 71
3
 72
23
 73
19
 74
0
 42
0.0000001
 43
0.0000001
 44
0.0000000001
 40
0.0
 40
0.0
 40
0.0
 40
0.0
 40
0.0833958054
 40
0.1645938597
 40
0.2428680901
 40
0.3175943504
 40
0.3882859692
 40
0.454635589
 40
0.5165608866
 40
0.5742567949
 40
0.6282474443
 40
0.679417103
 40
0.728981333
 40
0.7783739582
 40
0.8290550186
 40
0.8822977508
 40
0.9390889345
 40
1.0
 40
1.0
 40
1.0
 40
1.0
 10
12.3914378289
 20
74.1541698676
 30
0.0
 10
12.3302954648
 20
74.2359941592
 30
0.0
 10
12.2037389371
 20
74.3931988077
 30
0.0
 10
11.9999688232
 20
74.61031307
 30
0.0
 10
11.7871661429
 20
74.8031715846
 30
0.0
 10
11.568491142
 20
74.9688820684
 30
0.0
 10
11.3471467306
 20
75.1049732364
 30
0.0
 10
11.1263447637
 20
75.2094015819
 30
0.0
 10
10.9092387775
 20
75.2805390584
 30
0.0
 10
10.6989054614
 20
75.317138755
 30
0.0
 10
10.4983882587
 20
75.3182997439
 30
0.0
 10
10.3108219741
 20
75.2835251296
 30
0.0
 10
10.1395201621
 20
75.2129451879
 30
0.0
 10
9.9877848827
 20
75.1076470192
 30
0.0
 10
9.8584206226
 20
74.9697519436
 30
0.0
 10
9.7533316115
 20
74.8019973756
 30
0.0
 10
9.673841084
 20
74.6073605733
 30
0.0
 10
9.6396450388
 20
74.4667562402
 30
0.0
 10
9.6265703897
 20
74.3933056393
 30
0.0
  0
SPLINE
  5
2F4
100
AcDbEntity
  8
0
100
AcDbSpline
 62
7
  6
BYLAYER
 70
0
 71
3
 72
13
 73
9
 74
0
 42
0.0000001
 43
0.0000001
 44
0.0000000001
 40
0.0
 40
0.0
 40
0.0
 40
0.0
 40
0.2494614274
 40
0.5120489321
 40
0.6422034701
 40
0.7681934091
 40
0.8880280942
 40
1.0
 40
1.0
 40
1.0
 40
1.0
 10
13.5839702425
 20
71.5965516526
 30
0.0
 10
13.5533062903
 20
71.5783569051
 30
0.0
 10
13.484490939
 20
71.5506287643
 30
0.0
 10
13.392877255
 20
71.5371198309
 30
0.0
 10
13.3186094873
 20
71.5391286848
 30
0.0
 10
13.2653175873
 20
71.5471436567
 30
0.0
 10
13.2160530594
 20
71.5614258905
 30
0.0
 10
13.1858055253
 20
71.5753759652
 30
0.0
 10
13.1719453936
 20
71.5833779349
 30
0.0
  0
SPLINE
  5
2F5
100
AcDbEntity
  8
0
100
AcDbSpline
 62
7
  6
BYLAYER
 70
0
 71
3
 72
11
 73
7
 74
0
 42
0.0000001
 43
0.0000001
 44
0.0000000001
 40
0.0
 40
0.0
 40
0.0
 40
0.0
 40
0.2768369111
 40
0.5327480115
 40
0.7713714877
 40
1.0
 40
1.0
 40
1.0
 40
1.0
 10
9.6265703897
 20
73.6302548413
 30
0.0
 10
9.6141898767
 20
73.6374025721
 30
0.0
 10
9.5914220261
 20
73.6531603942
 30
0.0
 10
9.563563617
 20
73.6820507436
 30
0.0
 10
9.5443181936
 20
73.7144804093
 30
0.0
 10
9.537725205
 20
73.7380512916
 30
0.0
 10
9.5361446206
 20
73.7497512606
 30
0.0
  0
SPLINE
  5
2F6
100
AcDbEntity
  8
0
100
AcDbSpline
 62
7
  6
BYLAYER
 70
0
 71
3
 72
30
 73
26
 74
0
 42
0.0000001
 43
0.0000001
 44
0.0000000001
 40
0.0
 40
0.0
 40
0.0
 40
0.0
 40
0.0713866061
 40
0.1463740719
 40
0.2235999494
 40
0.3015521652
 40
0.3786802567
 40
0.4534797767
 40
0.5245963892
 40
0.5909324112
 40
0.651775179
 40
0.6800894068
 40
0.707023699
 40
0.7326738025
 40
0.757190369
 40
0.7807828525
 40
0.8037147115
 40
0.8262926437
 40
0.8488493269
 40
0.8717192363
 40
0.8952125929
 40
0.9195976973
 40
0.9450963629
 40
0.9718728826
 40
1.0
 40
1.0
 40
1.0
 40
1.0
 10
9.6265703897
 20
73.6302548413
 30
0.0
 10
9.6462529637
 20
73.4969553573
 30
0.0
 10
9.7044508772
 20
73.2260666894
 30
0.0
 10
9.8388786644
 20
72.8252051015
 30
0.0
 10
10.0191364583
 20
72.4290873853
 30
0.0
 10
10.2399324549
 20
72.0494184611
 30
0.0
 10
10.4947826159
 20
71.6973179453
 30
0.0
 10
10.7762157741
 20
71.3831198719
 30
0.0
 10
11.0760787215
 20
71.1159817371
 30
0.0
 10
11.3856773011
 20
70.9037199132
 30
0.0
 10
11.650943574
 20
70.7746870722
 30
0.0
 10
11.8595724961
 20
70.7066902303
 30
0.0
 10
12.0090243983
 20
70.6740134631
 30
0.0
 10
12.1540717133
 20
70.6586969303
 30
0.0
 10
12.2936499376
 20
70.6609553631
 30
0.0
 10
12.4266852688
 20
70.6808373392
 30
0.0
 10
12.5521083157
 20
70.7182839056
 30
0.0
 10
12.6688651526
 20
70.7730460452
 30
0.0
 10
12.7759607338
 20
70.8446844513
 30
0.0
 10
12.8724856243
 20
70.9325883288
 30
0.0
 10
12.9577047068
 20
71.0359551024
 30
0.0
 10
13.0309882648
 20
71.1539268065
 30
0.0
 10
13.0918691974
 20
71.2855623715
 30
0.0
 10
13.1399023686
 20
71.4298115452
 30
0.0
 10
13.1626411444
 20
71.5311086393
 30
0.0
 10
13.1719453936
 20
71.5833779349
 30
0.0
  0
SPLINE
  5
2F7
100
AcDbEntity
  8
0
100
AcDbSpline
 62
7
  6
BYLAYER
 70
0
 71
3
 72
11
 73
7
 74
0
 42
0.0000001
 43
0.0000001
 44
0.0000000001
 40
0.0
 40
0.0
 40
0.0
 40
0.0
 40
0.224741394
 40
0.4669079273
 40
0.7258854373
 40
1.0
 40
1.0
 40
1.0
 40
1.0
 10
11.7296675933
 20
71.4115883085
 30
0.0
 10
11.6738603076
 20
71.4260691755
 30
0.0
 10
11.5602531145
 20
71.4655802152
 30
0.0
 10
11.3936442358
 20
71.5497384118
 30
0.0
 10
11.2273304887
 20
71.6595049666
 30
0.0
 10
11.1212428947
 20
71.7462004836
 30
0.0
 10
11.06884819
 20
71.7931039378
 30
0.0
  0
SPLINE
  5
2F8
100
AcDbEntity
  8
0
100
AcDbSpline
 62
7
  6
BYLAYER
 70
0
 71
3
 72
15
 73
11
 74
0
 42
0.0000001
 43
0.0000001
 44
0.0000000001
 40
0.0
 40
0.0
 40
0.0
 40
0.0
 40
0.1134570121
 40
0.2274027506
 40
0.3434989766
 40
0.4632521475
 40
0.587923618
 40
0.7185268773
 40
0.8557923041
 40
1.0
 40
1.0
 40
1.0
 40
1.0
 10
12.9265273196
 20
70.5866966961
 30
0.0
 10
12.9700559523
 20
70.6059593579
 30
0.0
 10
13.0545565482
 20
70.6511649802
 30
0.0
 10
13.1703451383
 20
70.737827221
 30
0.0
 10
13.2740057934
 20
70.8424351387
 30
0.0
 10
13.3647047895
 20
70.964052806
 30
0.0
 10
13.4418235213
 20
71.1016635085
 30
0.0
 10
13.504859515
 20
71.2541949627
 30
0.0
 10
13.5533661624
 20
71.4204386965
 30
0.0
 10
13.5753177695
 20
71.5366719179
 30
0.0
 10
13.5839702425
 20
71.5965516526
 30
0.0
  0
SPLINE
  5
2F9
100
AcDbEntity
  8
0
100
AcDbSpline
 62
7
  6
BYLAYER
 70
0
 71
3
 72
11
 73
7
 74
0
 42
0.0000001
 43
0.0000001
 44
0.0000000001
 40
0.0
 40
0.0
 40
0.0
 40
0.0
 40
0.2624376727
 40
0.5238205906
 40
0.7724227889
 40
1.0
 40
1.0
 40
1.0
 40
1.0
 10
11.2903838289
 20
72.26779394
 30
0.0
 10
11.2562774012
 20
72.2355505102
 30
0.0
 10
11.1945802794
 20
72.1641504905
 30
0.0
 10
11.124642851
 20
72.0441447119
 30
0.0
 10
11.0802493995
 20
71.919115199
 30
0.0
 10
11.06884819
 20
71.8338043418
 30
0.0
 10
11.06884819
 20
71.7931039378
 30
0.0
  0
SPLINE
  5
2FA
100
AcDbEntity
  8
0
100
AcDbSpline
 62
7
  6
BYLAYER
 70
0
 71
3
 72
11
 73
7
 74
0
 42
0.0000001
 43
0.0000001
 44
0.0000000001
 40
0.0
 40
0.0
 40
0.0
 40
0.0
 40
0.2292808942
 40
0.4731434359
 40
0.7306590007
 40
1.0
 40
1.0
 40
1.0
 40
1.0
 10
11.7315454515
 20
71.9637683821
 30
0.0
 10
11.6933917939
 20
71.9792993502
 30
0.0
 10
11.6166237126
 20
72.0163204087
 30
0.0
 10
11.5049491685
 20
72.0857136852
 30
0.0
 10
11.394647604
 20
72.1697313604
 30
0.0
 10
11.3244541568
 20
72.2334219176
 30
0.0
 10
11.2899099685
 20
72.2673097485
 30
0.0
  0
SPLINE
  5
2FB
100
AcDbEntity
  8
0
100
AcDbSpline
 62
7
  6
BYLAYER
 70
0
 71
3
 72
9
 73
5
 74
0
 42
0.0000001
 43
0.0000001
 44
0.0000000001
 40
0.0
 40
0.0
 40
0.0
 40
0.0
 40
0.244508695
 40
1.0
 40
1.0
 40
1.0
 40
1.0
 10
14.0504816312
 20
72.151700958
 30
0.0
 10
14.0504816312
 20
72.1766505446
 30
0.0
 10
14.0490843727
 20
72.278687547
 30
0.0
 10
14.0422401253
 20
72.3806326251
 30
0.0
 10
14.0343589242
 20
72.4573187885
 30
0.0
  0
SPLINE
  5
2FC
100
AcDbEntity
  8
0
100
AcDbSpline
 62
7
  6
BYLAYER
 70
0
 71
3
 72
9
 73
5
 74
0
 42
0.0000001
 43
0.0000001
 44
0.0000000001
 40
0.0
 40
0.0
 40
0.0
 40
0.0
 40
0.243812191
 40
1.0
 40
1.0
 40
1.0
 40
1.0
 10
14.0343589242
 20
71.8646996048
 30
0.0
 10
14.0370656526
 20
71.887911395
 30
0.0
 10
14.046677319
 20
71.9832857259
 30
0.0
 10
14.0504816312
 20
72.0792213655
 30
0.0
 10
14.0504816312
 20
72.151700958
 30
0.0
  0
SPLINE
  5
2FD
100
AcDbEntity
  8
0
100
AcDbSpline
 62
7
  6
BYLAYER
 70
0
 71
3
 72
11
 73
7
 74
0
 42
0.0000001
 43
0.0000001
 44
0.0000000001
 40
0.0
 40
0.0
 40
0.0
 40
0.0
 40
0.1799057731
 40
0.411514798
 40
0.6875706296
 40
1.0
 40
1.0
 40
1.0
 40
1.0
 10
46.612999147
 20
53.8818169882
 30
0.0
 10
46.6451800565
 20
53.8761461497
 30
0.0
 10
46.7174438142
 20
53.8554552227
 30
0.0
 10
46.8313591813
 20
53.803403359
 30
0.0
 10
46.958115427
 20
53.7244891359
 30
0.0
 10
47.0422030555
 20
53.6581364211
 30
0.0
 10
47.085040188
 20
53.620917606
 30
0.0
  0
SPLINE
  5
2FE
100
AcDbEntity
  8
0
100
AcDbSpline
 62
7
  6
BYLAYER
 70
0
 71
3
 72
13
 73
9
 74
0
 42
0.0000001
 43
0.0000001
 44
0.0000000001
 40
0.0
 40
0.0
 40
0.0
 40
0.0
 40
0.1008972407
 40
0.2043534084
 40
0.4296786886
 40
0.5563889218
 40
0.6936950892
 40
1.0
 40
1.0
 40
1.0
 40
1.0
 10
44.8914137972
 20
54.111883345
 30
0.0
 10
44.8905409335
 20
54.1062900474
 30
0.0
 10
44.8900049047
 20
54.0947295624
 30
0.0
 10
44.8940712299
 20
54.0708093826
 30
0.0
 10
44.9059248863
 20
54.0474862317
 30
0.0
 10
44.9232730652
 20
54.0261690496
 30
0.0
 10
44.9464487648
 20
54.0039933778
 30
0.0
 10
44.9671733017
 20
53.9898606224
 30
0.0
 10
44.982056647
 20
53.9812679133
 30
0.0
  0
SPLINE
  5
2FF
100
AcDbEntity
  8
0
100
AcDbSpline
 62
7
  6
BYLAYER
 70
0
 71
3
 72
12
 73
8
 74
0
 42
0.0000001
 43
0.0000001
 44
0.0000000001
 40
0.0
 40
0.0
 40
0.0
 40
0.0
 40
0.2651942741
 40
0.5178222511
 40
0.7613461362
 40
0.8809873649
 40
1.0
 40
1.0
 40
1.0
 40
1.0
 10
44.8914110325
 20
54.1118834405
 30
0.0
 10
44.9072008637
 20
54.2130081159
 30
0.0
 10
44.9522118116
 20
54.4087286896
 30
0.0
 10
45.0664695194
 20
54.6811284386
 30
0.0
 10
45.201085356
 20
54.8794044293
 30
0.0
 10
45.3301712927
 20
55.0139109079
 30
0.0
 10
45.4014041307
 20
55.0727105169
 30
0.0
 10
45.4385038356
 20
55.0997913876
 30
0.0
  0
SPLINE
  5
300
100
AcDbEntity
  8
0
100
AcDbSpline
 62
7
  6
BYLAYER
 70
0
 71
3
 72
11
 73
7
 74
0
 42
0.0000001
 43
0.0000001
 44
0.0000000001
 40
0.0
 40
0.0
 40
0.0
 40
0.0
 40
0.2274223862
 40
0.4648420059
 40
0.7209150938
 40
1.0
 40
1.0
 40
1.0
 40
1.0
 10
44.891630878
 20
53.3377135346
 30
0.0
 10
44.8899430008
 20
53.3502077178
 30
0.0
 10
44.890323932
 20
53.376408674
 30
0.0
 10
44.9022975988
 20
53.4150270104
 30
0.0
 10
44.9249683375
 20
53.4518102038
 30
0.0
 10
44.9456745463
 20
53.4733617895
 30
0.0
 10
44.9573172045
 20
53.4835511095
 30
0.0
  0
SPLINE
  5
301
100
AcDbEntity
  8
0
100
AcDbSpline
 62
7
  6
BYLAYER
 70
0
 71
3
 72
24
 73
20
 74
0
 42
0.0000001
 43
0.0000001
 44
0.0000000001
 40
0.0
 40
0.0
 40
0.0
 40
0.0
 40
0.024583776
 40
0.049266646
 40
0.0993906149
 40
0.1511646914
 40
0.2051978329
 40
0.2619698187
 40
0.321714048
 40
0.3844188477
 40
0.4498418778
 40
0.5175529964
 40
0.5869784942
 40
0.6574437122
 40
0.728215043
 40
0.7985452925
 40
0.8677009657
 40
0.9350417762
 40
1.0
 40
1.0
 40
1.0
 40
1.0
 10
48.282015708
 20
50.1746549537
 30
0.0
 10
48.2431285331
 20
50.157445108
 30
0.0
 10
48.1632231294
 20
50.127229182
 30
0.0
 10
47.9965605259
 20
50.083940019
 30
0.0
 10
47.7770398928
 20
50.0625489004
 30
0.0
 10
47.5070819095
 20
50.0870610119
 30
0.0
 10
47.233865324
 20
50.1582285887
 30
0.0
 10
46.9609740359
 20
50.2725417887
 30
0.0
 10
46.6913355413
 20
50.4269192633
 30
0.0
 10
46.4279741407
 20
50.6182881356
 30
0.0
 10
46.1741505513
 20
50.8433704459
 30
0.0
 10
45.9333331996
 20
51.0984767128
 30
0.0
 10
45.7090674045
 20
51.3794526943
 30
0.0
 10
45.5048361144
 20
51.6816977145
 30
0.0
 10
45.3239134626
 20
52.0002420317
 30
0.0
 10
45.1692901677
 20
52.3298537622
 30
0.0
 10
45.0435141924
 20
52.665219404
 30
0.0
 10
44.9488099874
 20
53.0010051949
 30
0.0
 10
44.906679346
 20
53.2263600235
 30
0.0
 10
44.8916312036
 20
53.3377130044
 30
0.0
  0
SPLINE
  5
302
100
AcDbEntity
  8
0
100
AcDbSpline
 62
7
  6
BYLAYER
 70
0
 71
3
 72
26
 73
22
 74
0
 42
0.0000001
 43
0.0000001
 44
0.0000000001
 40
0.0
 40
0.0
 40
0.0
 40
0.0
 40
0.0214904224
 40
0.0430250439
 40
0.0648445917
 40
0.0871749921
 40
0.1102148028
 40
0.1341311197
 40
0.1850189862
 40
0.2405186511
 40
0.3007322427
 40
0.3653581762
 40
0.4337889863
 40
0.5051933103
 40
0.5785841856
 40
0.6528785462
 40
0.7269504679
 40
0.7996841583
 40
0.8700287747
 40
0.9370527978
 40
1.0
 40
1.0
 40
1.0
 40
1.0
 10
46.5790364756
 20
55.9323138619
 30
0.0
 10
46.6142871627
 20
55.9580466943
 30
0.0
 10
46.6883021994
 20
56.005040495
 30
0.0
 10
46.8081066911
 20
56.0605694713
 30
0.0
 10
46.9357005814
 20
56.1007170218
 30
0.0
 10
47.0702754553
 20
56.1252084188
 30
0.0
 10
47.2110211664
 20
56.1340013732
 30
0.0
 10
47.4098436041
 20
56.1245399285
 30
0.0
 10
47.6707609194
 20
56.0710230676
 30
0.0
 10
47.9871430789
 20
55.9475518503
 30
0.0
 10
48.3068871001
 20
55.766758291
 30
0.0
 10
48.6230871249
 20
55.5327841135
 30
0.0
 10
48.9289196753
 20
55.2508553254
 30
0.0
 10
49.2176227626
 20
54.9272541335
 30
0.0
 10
49.48276576
 20
54.5692135205
 30
0.0
 10
49.718406192
 20
54.1847594516
 30
0.0
 10
49.9192566942
 20
53.7825224904
 30
0.0
 10
50.0808051595
 20
53.3715339682
 30
0.0
 10
50.1994402612
 20
52.9609606883
 30
0.0
 10
50.2724845334
 20
52.5600413592
 30
0.0
 10
50.2902809989
 20
52.2959066393
 30
0.0
 10
50.2902809989
 20
52.1680701053
 30
0.0
  0
SPLINE
  5
303
100
AcDbEntity
  8
0
100
AcDbSpline
 62
7
  6
BYLAYER
 70
0
 71
3
 72
16
 73
12
 74
0
 42
0.0000001
 43
0.0000001
 44
0.0000000001
 40
0.0
 40
0.0
 40
0.0
 40
0.0
 40
0.1497796884
 40
0.2912125481
 40
0.4242816431
 40
0.4878769931
 40
0.5496306434
 40
0.6681042336
 40
0.7812815886
 40
0.8911439783
 40
1.0
 40
1.0
 40
1.0
 40
1.0
 10
50.2902809989
 20
52.1680701053
 30
0.0
 10
50.2902809989
 20
52.0839624806
 30
0.0
 10
50.2829939906
 20
51.9202961348
 30
0.0
 10
50.2481785439
 20
51.6841692882
 30
0.0
 10
50.1989582872
 20
51.5002527118
 30
0.0
 10
50.1477066309
 20
51.3643797401
 30
0.0
 10
50.0906214496
 20
51.2398345977
 30
0.0
 10
50.0057900661
 20
51.0977771262
 30
0.0
 10
49.8814137909
 20
50.9505858077
 30
0.0
 10
49.7372036695
 20
50.830981861
 30
0.0
 10
49.629169317
 20
50.7708533576
 30
0.0
 10
49.573270692
 20
50.7461170441
 30
0.0
  0
SPLINE
  5
304
100
AcDbEntity
  8
0
100
AcDbSpline
 62
7
  6
BYLAYER
 70
0
 71
3
 72
15
 73
11
 74
0
 42
0.0000001
 43
0.0000001
 44
0.0000000001
 40
0.0
 40
0.0
 40
0.0
 40
0.0
 40
0.1141529757
 40
0.2374165582
 40
0.3669602423
 40
0.49981905
 40
0.6327436396
 40
0.7624461571
 40
0.8858513706
 40
1.0
 40
1.0
 40
1.0
 40
1.0
 10
48.527431651
 20
51.9343910069
 30
0.0
 10
48.5414204694
 20
51.9263147416
 30
0.0
 10
48.5717373665
 20
51.9115971764
 30
0.0
 10
48.6207890126
 20
51.8942997446
 30
0.0
 10
48.6738893259
 20
51.8813453926
 30
0.0
 10
48.7293011561
 20
51.8731417504
 30
0.0
 10
48.7852504034
 20
51.8699759435
 30
0.0
 10
48.8399254121
 20
51.8719631444
 30
0.0
 10
48.8914927403
 20
51.8790823669
 30
0.0
 10
48.9241515228
 20
51.8874925591
 30
0.0
 10
48.9394564998
 20
51.8926550115
 30
0.0
  0
SPLINE
  5
305
100
AcDbEntity
  8
0
100
AcDbSpline
 62
7
  6
BYLAYER
 70
0
 71
3
 72
15
 73
11
 74
0
 42
0.0000001
 43
0.0000001
 44
0.0000000001
 40
0.0
 40
0.0
 40
0.0
 40
0.0
 40
0.1430512057
 40
0.2785311624
 40
0.4067319819
 40
0.5288497047
 40
0.6466974562
 40
0.7626229563
 40
0.8794366906
 40
1.0
 40
1.0
 40
1.0
 40
1.0
 10
46.4243344474
 20
54.1530575397
 30
0.0
 10
46.4243344474
 20
54.1358534289
 30
0.0
 10
46.4262547073
 20
54.1023111144
 30
0.0
 10
46.4354273129
 20
54.0541075323
 30
0.0
 10
46.4508273928
 20
54.0101333389
 30
0.0
 10
46.4723445729
 20
53.9711716514
 30
0.0
 10
46.4997856657
 20
53.9379736729
 30
0.0
 10
46.5328439888
 20
53.9113213715
 30
0.0
 10
46.5709722555
 20
53.8919123291
 30
0.0
 10
46.5987232861
 20
53.8843420643
 30
0.0
 10
46.6130026251
 20
53.8818243812
 30
0.0
  0
SPLINE
  5
306
100
AcDbEntity
  8
0
100
AcDbSpline
 62
7
  6
BYLAYER
 70
0
 71
3
 72
9
 73
5
 74
0
 42
0.0000001
 43
0.0000001
 44
0.0000000001
 40
0.0
 40
0.0
 40
0.0
 40
0.0
 40
0.5147636976
 40
1.0
 40
1.0
 40
1.0
 40
1.0
 10
46.6742354701
 20
53.0204844078
 30
0.0
 10
46.6613165859
 20
53.0675633918
 30
0.0
 10
46.6406729994
 20
53.160320265
 30
0.0
 10
46.6304147791
 20
53.2548632319
 30
0.0
 10
46.6284539943
 20
53.300840454
 30
0.0
  0
SPLINE
  5
307
100
AcDbEntity
  8
0
100
AcDbSpline
 62
7
  6
BYLAYER
 70
0
 71
3
 72
15
 73
11
 74
0
 42
0.0000001
 43
0.0000001
 44
0.0000000001
 40
0.0
 40
0.0
 40
0.0
 40
0.0
 40
0.1174562459
 40
0.2407737069
 40
0.3682609323
 40
0.4980215735
 40
0.6280450294
 40
0.7563101311
 40
0.8808792303
 40
1.0
 40
1.0
 40
1.0
 40
1.0
 10
48.9394564998
 20
51.8926550115
 30
0.0
 10
48.9233392498
 20
52.0228051671
 30
0.0
 10
48.8745245051
 20
52.2878112294
 30
0.0
 10
48.7589887891
 20
52.6830563077
 30
0.0
 10
48.6017001036
 20
53.0784419067
 30
0.0
 10
48.4062961986
 20
53.4648039519
 30
0.0
 10
48.1772767825
 20
53.8332584712
 30
0.0
 10
47.9199077039
 20
54.1753193084
 30
0.0
 10
47.640164317
 20
54.4830710443
 30
0.0
 10
47.4375439435
 20
54.665570706
 30
0.0
 10
47.3338103626
 20
54.7488118689
 30
0.0
  0
SPLINE
  5
308
100
AcDbEntity
  8
0
100
AcDbSpline
 62
7
  6
BYLAYER
 70
0
 71
3
 72
17
 73
13
 74
0
 42
0.0000001
 43
0.0000001
 44
0.0000000001
 40
0.0
 40
0.0
 40
0.0
 40
0.0
 40
0.1550484427
 40
0.3009761525
 40
0.4371869135
 40
0.563676151
 40
0.6811703539
 40
0.7912480143
 40
0.8443178535
 40
0.896520812
 40
0.9482708899
 40
1.0
 40
1.0
 40
1.0
 40
1.0
 10
47.3338103626
 20
54.7488118689
 30
0.0
 10
47.2504556016
 20
54.8157000182
 30
0.0
 10
47.0825397948
 20
54.938216292
 30
0.0
 10
46.821266187
 20
55.0895912408
 30
0.0
 10
46.5617090981
 20
55.2009597729
 30
0.0
 10
46.307963112
 20
55.2702927279
 30
0.0
 10
46.0640937214
 20
55.296129223
 30
0.0
 10
45.8698794157
 20
55.2802399323
 30
0.0
 10
45.7254801702
 20
55.2447680362
 30
0.0
 10
45.6235892335
 20
55.2075836756
 30
0.0
 10
45.5273196729
 20
55.1596883586
 30
0.0
 10
45.4673051367
 20
55.1208118038
 30
0.0
 10
45.4385056646
 20
55.0997884663
 30
0.0
  0
LINE
  5
309
100
AcDbEntity
  8
0
100
AcDbLine
 62
7
  6
BYLAYER
 10
46.6742308004
 20
53.0204871038
 11
47.0851394945
 21
53.1425578558
  0
SPLINE
  5
30A
100
AcDbEntity
  8
0
100
AcDbSpline
 62
7
  6
BYLAYER
 70
0
 71
3
 72
9
 73
5
 74
0
 42
0.0000001
 43
0.0000001
 44
0.0000000001
 40
0.0
 40
0.0
 40
0.0
 40
0.0
 40
0.5000531523
 40
1.0
 40
1.0
 40
1.0
 40
1.0
 10
47.4103544465
 20
52.5793021706
 30
0.0
 10
47.2830560891
 20
52.4585619185
 30
0.0
 10
47.0283279993
 20
52.2172740699
 30
0.0
 10
46.7733387982
 20
51.9762623175
 30
0.0
 10
46.6458700862
 20
51.855756214
 30
0.0
  0
SPLINE
  5
30B
100
AcDbEntity
  8
0
100
AcDbSpline
 62
7
  6
BYLAYER
 70
0
 71
3
 72
11
 73
7
 74
0
 42
0.0000001
 43
0.0000001
 44
0.0000000001
 40
0.0
 40
0.0
 40
0.0
 40
0.0
 40
0.224741394
 40
0.4669079273
 40
0.7258854373
 40
1.0
 40
1.0
 40
1.0
 40
1.0
 10
46.4243344474
 20
54.1530575397
 30
0.0
 10
46.480141733
 20
54.1385766727
 30
0.0
 10
46.5937489261
 20
54.099065633
 30
0.0
 10
46.7603578049
 20
54.0149074364
 30
0.0
 10
46.926671552
 20
53.9051408815
 30
0.0
 10
47.0327591459
 20
53.8184453645
 30
0.0
 10
47.0851538507
 20
53.7715419104
 30
0.0
  0
SPLINE
  5
30C
100
AcDbEntity
  8
0
100
AcDbSpline
 62
7
  6
BYLAYER
 70
0
 71
3
 72
12
 73
8
 74
0
 42
0.0000001
 43
0.0000001
 44
0.0000000001
 40
0.0
 40
0.0
 40
0.0
 40
0.0
 40
0.1164950632
 40
0.2369976264
 40
0.4868420032
 40
0.7434521484
 40
1.0
 40
1.0
 40
1.0
 40
1.0
 10
48.527431651
 20
51.9343910069
 30
0.0
 10
48.5161587022
 20
52.0107366238
 30
0.0
 10
48.4873863165
 20
52.1652439074
 30
0.0
 10
48.4068224706
 20
52.477729275
 30
0.0
 10
48.2641559876
 20
52.869048586
 30
0.0
 10
48.036036308
 20
53.3212432402
 30
0.0
 10
47.8486551348
 20
53.6059896961
 30
0.0
 10
47.7469240862
 20
53.7421321416
 30
0.0
  0
SPLINE
  5
30D
100
AcDbEntity
  8
0
100
AcDbSpline
 62
7
  6
BYLAYER
 70
0
 71
3
 72
23
 73
19
 74
0
 42
0.0000001
 43
0.0000001
 44
0.0000000001
 40
0.0
 40
0.0
 40
0.0
 40
0.0
 40
0.0833958054
 40
0.1645938597
 40
0.2428680901
 40
0.3175943504
 40
0.3882859692
 40
0.454635589
 40
0.5165608866
 40
0.5742567949
 40
0.6282474443
 40
0.679417103
 40
0.728981333
 40
0.7783739582
 40
0.8290550186
 40
0.8822977508
 40
0.9390889345
 40
1.0
 40
1.0
 40
1.0
 40
1.0
 10
47.7469240862
 20
53.7421321416
 30
0.0
 10
47.6857817221
 20
53.8239564332
 30
0.0
 10
47.5592251945
 20
53.9811610817
 30
0.0
 10
47.3554550806
 20
54.198275344
 30
0.0
 10
47.1426524002
 20
54.3911338585
 30
0.0
 10
46.9239773994
 20
54.5568443424
 30
0.0
 10
46.702632988
 20
54.6929355104
 30
0.0
 10
46.4818310211
 20
54.7973638559
 30
0.0
 10
46.2647250348
 20
54.8685013324
 30
0.0
 10
46.0543917187
 20
54.905101029
 30
0.0
 10
45.8538745161
 20
54.9062620179
 30
0.0
 10
45.6663082315
 20
54.8714874036
 30
0.0
 10
45.4950064194
 20
54.8009074619
 30
0.0
 10
45.34327114
 20
54.6956092932
 30
0.0
 10
45.2139068799
 20
54.5577142176
 30
0.0
 10
45.1088178689
 20
54.3899596496
 30
0.0
 10
45.0293273414
 20
54.1953228473
 30
0.0
 10
44.9951312961
 20
54.0547185141
 30
0.0
 10
44.982056647
 20
53.9812679133
 30
0.0
  0
SPLINE
  5
30E
100
AcDbEntity
  8
0
100
AcDbSpline
 62
7
  6
BYLAYER
 70
0
 71
3
 72
13
 73
9
 74
0
 42
0.0000001
 43
0.0000001
 44
0.0000000001
 40
0.0
 40
0.0
 40
0.0
 40
0.0
 40
0.2494614274
 40
0.5120489321
 40
0.6422034701
 40
0.7681934091
 40
0.8880280942
 40
1.0
 40
1.0
 40
1.0
 40
1.0
 10
48.9394564998
 20
51.1845139265
 30
0.0
 10
48.9087925476
 20
51.1663191791
 30
0.0
 10
48.8399771964
 20
51.1385910383
 30
0.0
 10
48.7483635123
 20
51.1250821049
 30
0.0
 10
48.6740957447
 20
51.1270909588
 30
0.0
 10
48.6208038447
 20
51.1351059306
 30
0.0
 10
48.5715393168
 20
51.1493881645
 30
0.0
 10
48.5412917826
 20
51.1633382392
 30
0.0
 10
48.527431651
 20
51.1713402089
 30
0.0
  0
SPLINE
  5
30F
100
AcDbEntity
  8
0
100
AcDbSpline
 62
7
  6
BYLAYER
 70
0
 71
3
 72
11
 73
7
 74
0
 42
0.0000001
 43
0.0000001
 44
0.0000000001
 40
0.0
 40
0.0
 40
0.0
 40
0.0
 40
0.2768369111
 40
0.5327480115
 40
0.7713714877
 40
1.0
 40
1.0
 40
1.0
 40
1.0
 10
44.982056647
 20
53.2182171152
 30
0.0
 10
44.969676134
 20
53.225364846
 30
0.0
 10
44.9469082834
 20
53.2411226682
 30
0.0
 10
44.9190498744
 20
53.2700130176
 30
0.0
 10
44.899804451
 20
53.3024426833
 30
0.0
 10
44.8932114623
 20
53.3260135656
 30
0.0
 10
44.891630878
 20
53.3377135346
 30
0.0
  0
SPLINE
  5
310
100
AcDbEntity
  8
0
100
AcDbSpline
 62
7
  6
BYLAYER
 70
0
 71
3
 72
30
 73
26
 74
0
 42
0.0000001
 43
0.0000001
 44
0.0000000001
 40
0.0
 40
0.0
 40
0.0
 40
0.0
 40
0.0713866061
 40
0.1463740719
 40
0.2235999494
 40
0.3015521652
 40
0.3786802567
 40
0.4534797767
 40
0.5245963892
 40
0.5909324112
 40
0.651775179
 40
0.6800894068
 40
0.707023699
 40
0.7326738025
 40
0.757190369
 40
0.7807828525
 40
0.8037147115
 40
0.8262926437
 40
0.8488493269
 40
0.8717192363
 40
0.8952125929
 40
0.9195976973
 40
0.9450963629
 40
0.9718728826
 40
1.0
 40
1.0
 40
1.0
 40
1.0
 10
44.982056647
 20
53.2182171152
 30
0.0
 10
45.0017392211
 20
53.0849176313
 30
0.0
 10
45.0599371346
 20
52.8140289634
 30
0.0
 10
45.1943649218
 20
52.4131673755
 30
0.0
 10
45.3746227157
 20
52.0170496593
 30
0.0
 10
45.5954187123
 20
51.6373807351
 30
0.0
 10
45.8502688733
 20
51.2852802193
 30
0.0
 10
46.1317020315
 20
50.9710821459
 30
0.0
 10
46.4315649789
 20
50.7039440111
 30
0.0
 10
46.7411635584
 20
50.4916821872
 30
0.0
 10
47.0064298313
 20
50.3626493462
 30
0.0
 10
47.2150587535
 20
50.2946525043
 30
0.0
 10
47.3645106557
 20
50.261975737
 30
0.0
 10
47.5095579706
 20
50.2466592043
 30
0.0
 10
47.649136195
 20
50.2489176371
 30
0.0
 10
47.7821715262
 20
50.2687996132
 30
0.0
 10
47.9075945731
 20
50.3062461796
 30
0.0
 10
48.0243514099
 20
50.3610083192
 30
0.0
 10
48.1314469912
 20
50.4326467253
 30
0.0
 10
48.2279718817
 20
50.5205506028
 30
0.0
 10
48.3131909641
 20
50.6239173764
 30
0.0
 10
48.3864745221
 20
50.7418890804
 30
0.0
 10
48.4473554548
 20
50.8735246455
 30
0.0
 10
48.4953886259
 20
51.0177738192
 30
0.0
 10
48.5181274017
 20
51.1190709133
 30
0.0
 10
48.527431651
 20
51.1713402089
 30
0.0
  0
SPLINE
  5
311
100
AcDbEntity
  8
0
100
AcDbSpline
 62
7
  6
BYLAYER
 70
0
 71
3
 72
11
 73
7
 74
0
 42
0.0000001
 43
0.0000001
 44
0.0000000001
 40
0.0
 40
0.0
 40
0.0
 40
0.0
 40
0.224741394
 40
0.4669079273
 40
0.7258854373
 40
1.0
 40
1.0
 40
1.0
 40
1.0
 10
47.0851538507
 20
50.9995505825
 30
0.0
 10
47.029346565
 20
51.0140314494
 30
0.0
 10
46.9157393719
 20
51.0535424892
 30
0.0
 10
46.7491304932
 20
51.1377006858
 30
0.0
 10
46.582816746
 20
51.2474672406
 30
0.0
 10
46.4767291521
 20
51.3341627576
 30
0.0
 10
46.4243344474
 20
51.3810662118
 30
0.0
  0
SPLINE
  5
312
100
AcDbEntity
  8
0
100
AcDbSpline
 62
7
  6
BYLAYER
 70
0
 71
3
 72
15
 73
11
 74
0
 42
0.0000001
 43
0.0000001
 44
0.0000000001
 40
0.0
 40
0.0
 40
0.0
 40
0.0
 40
0.1134570121
 40
0.2274027506
 40
0.3434989766
 40
0.4632521475
 40
0.587923618
 40
0.7185268773
 40
0.8557923041
 40
1.0
 40
1.0
 40
1.0
 40
1.0
 10
48.282013577
 20
50.17465897
 30
0.0
 10
48.3255422097
 20
50.1939216319
 30
0.0
 10
48.4100428055
 20
50.2391272542
 30
0.0
 10
48.5258313956
 20
50.325789495
 30
0.0
 10
48.6294920507
 20
50.4303974127
 30
0.0
 10
48.7201910468
 20
50.55201508
 30
0.0
 10
48.7973097787
 20
50.6896257825
 30
0.0
 10
48.8603457724
 20
50.8421572366
 30
0.0
 10
48.9088524197
 20
51.0084009704
 30
0.0
 10
48.9308040268
 20
51.1246341918
 30
0.0
 10
48.9394564998
 20
51.1845139265
 30
0.0
  0
SPLINE
  5
313
100
AcDbEntity
  8
0
100
AcDbSpline
 62
7
  6
BYLAYER
 70
0
 71
3
 72
11
 73
7
 74
0
 42
0.0000001
 43
0.0000001
 44
0.0000000001
 40
0.0
 40
0.0
 40
0.0
 40
0.0
 40
0.2624376727
 40
0.5238205906
 40
0.7724227889
 40
1.0
 40
1.0
 40
1.0
 40
1.0
 10
46.6458700862
 20
51.855756214
 30
0.0
 10
46.6117636586
 20
51.8235127842
 30
0.0
 10
46.5500665367
 20
51.7521127645
 30
0.0
 10
46.4801291084
 20
51.6321069858
 30
0.0
 10
46.4357356568
 20
51.507077473
 30
0.0
 10
46.4243344474
 20
51.4217666158
 30
0.0
 10
46.4243344474
 20
51.3810662118
 30
0.0
  0
SPLINE
  5
314
100
AcDbEntity
  8
0
100
AcDbSpline
 62
7
  6
BYLAYER
 70
0
 71
3
 72
11
 73
7
 74
0
 42
0.0000001
 43
0.0000001
 44
0.0000000001
 40
0.0
 40
0.0
 40
0.0
 40
0.0
 40
0.2292808942
 40
0.4731434359
 40
0.7306590007
 40
1.0
 40
1.0
 40
1.0
 40
1.0
 10
47.0870317089
 20
51.5517306561
 30
0.0
 10
47.0488780512
 20
51.5672616241
 30
0.0
 10
46.97210997
 20
51.6042826827
 30
0.0
 10
46.8604354258
 20
51.6736759592
 30
0.0
 10
46.7501338614
 20
51.7576936344
 30
0.0
 10
46.6799404141
 20
51.8213841916
 30
0.0
 10
46.6453962259
 20
51.8552720225
 30
0.0
  0
SPLINE
  5
315
100
AcDbEntity
  8
0
100
AcDbSpline
 62
7
  6
BYLAYER
 70
0
 71
3
 72
9
 73
5
 74
0
 42
0.0000001
 43
0.0000001
 44
0.0000000001
 40
0.0
 40
0.0
 40
0.0
 40
0.0
 40
0.244508695
 40
1.0
 40
1.0
 40
1.0
 40
1.0
 10
49.4059678885
 20
51.739663232
 30
0.0
 10
49.4059678885
 20
51.7646128186
 30
0.0
 10
49.4045706301
 20
51.8666498209
 30
0.0
 10
49.3977263826
 20
51.9685948991
 30
0.0
 10
49.3898451816
 20
52.0452810625
 30
0.0
  0
SPLINE
  5
316
100
AcDbEntity
  8
0
100
AcDbSpline
 62
7
  6
BYLAYER
 70
0
 71
3
 72
9
 73
5
 74
0
 42
0.0000001
 43
0.0000001
 44
0.0000000001
 40
0.0
 40
0.0
 40
0.0
 40
0.0
 40
0.243812191
 40
1.0
 40
1.0
 40
1.0
 40
1.0
 10
49.3898451816
 20
51.4526618788
 30
0.0
 10
49.3925519099
 20
51.4758736689
 30
0.0
 10
49.4021635764
 20
51.5712479999
 30
0.0
 10
49.4059678885
 20
51.6671836395
 30
0.0
 10
49.4059678885
 20
51.739663232
 30
0.0
  0
SPLINE
  5
317
100
AcDbEntity
  8
0
100
AcDbSpline
 62
7
  6
BYLAYER
 70
0
 71
3
 72
9
 73
5
 74
0
 42
0.0000001
 43
0.0000001
 44
0.0000000001
 40
0.0
 40
0.0
 40
0.0
 40
0.0
 40
0.2581772776
 40
1.0
 40
1.0
 40
1.0
 40
1.0
 10
54.7748851421
 20
25.3761515371
 30
0.0
 10
54.7836642342
 20
25.2632189341
 30
0.0
 10
54.8254979063
 20
24.8264748155
 30
0.0
 10
54.8995668351
 20
24.3925499802
 30
0.0
 10
54.9754817904
 20
24.0760581986
 30
0.0
  0
SPLINE
  5
318
100
AcDbEntity
  8
0
100
AcDbSpline
 62
7
  6
BYLAYER
 70
0
 71
3
 72
9
 73
5
 74
0
 42
0.0000001
 43
0.0000001
 44
0.0000000001
 40
0.0
 40
0.0
 40
0.0
 40
0.0
 40
0.506643653
 40
1.0
 40
1.0
 40
1.0
 40
1.0
 10
55.7890860293
 20
22.1623702499
 30
0.0
 10
55.8860493559
 20
22.0192795379
 30
0.0
 10
56.0932129305
 20
21.7471502848
 30
0.0
 10
56.3314596972
 20
21.5015959349
 30
0.0
 10
56.4560445811
 20
21.3884195827
 30
0.0
  0
SPLINE
  5
319
100
AcDbEntity
  8
0
100
AcDbSpline
 62
7
  6
BYLAYER
 70
0
 71
3
 72
9
 73
5
 74
0
 42
0.0000001
 43
0.0000001
 44
0.0000000001
 40
0.0
 40
0.0
 40
0.0
 40
0.0
 40
0.4933608125
 40
1.0
 40
1.0
 40
1.0
 40
1.0
 10
67.8667485393
 20
41.152204242
 30
0.0
 10
67.7064395434
 20
41.2035098336
 30
0.0
 10
67.3746627162
 20
41.2870749966
 30
0.0
 10
67.0354105737
 20
41.3304547328
 30
0.0
 10
66.8630087318
 20
41.3428799541
 30
0.0
  0
SPLINE
  5
31A
100
AcDbEntity
  8
0
100
AcDbSpline
 62
7
  6
BYLAYER
 70
0
 71
3
 72
9
 73
5
 74
0
 42
0.0000001
 43
0.0000001
 44
0.0000000001
 40
0.0
 40
0.0
 40
0.0
 40
0.0
 40
0.491255109
 40
1.0
 40
1.0
 40
1.0
 40
1.0
 10
66.8630087318
 20
41.3428799541
 30
0.0
 10
66.6998064083
 20
41.3546421544
 30
0.0
 10
66.3661627471
 20
41.3612363767
 30
0.0
 10
66.0335376514
 20
41.3357092989
 30
0.0
 10
65.8653148877
 20
41.3153434562
 30
0.0
  0
SPLINE
  5
31B
100
AcDbEntity
  8
0
100
AcDbSpline
 62
7
  6
BYLAYER
 70
0
 71
3
 72
9
 73
5
 74
0
 42
0.0000001
 43
0.0000001
 44
0.0000000001
 40
0.0
 40
0.0
 40
0.0
 40
0.0
 40
0.2428038467
 40
1.0
 40
1.0
 40
1.0
 40
1.0
 10
65.8653148877
 20
41.3153434562
 30
0.0
 10
65.7777673622
 20
41.3047445392
 30
0.0
 10
65.4182146611
 20
41.2528641899
 30
0.0
 10
65.063489779
 20
41.1691062684
 30
0.0
 10
64.7998063789
 20
41.0909764071
 30
0.0
  0
SPLINE
  5
31C
100
AcDbEntity
  8
0
100
AcDbSpline
 62
7
  6
BYLAYER
 70
0
 71
3
 72
9
 73
5
 74
0
 42
0.0000001
 43
0.0000001
 44
0.0000000001
 40
0.0
 40
0.0
 40
0.0
 40
0.0
 40
0.2419885219
 40
1.0
 40
1.0
 40
1.0
 40
1.0
 10
64.7998063789
 20
41.0909764071
 30
0.0
 10
64.6978987894
 20
41.0607810067
 30
0.0
 10
64.2795053859
 20
40.9268496083
 30
0.0
 10
63.8726234637
 20
40.7578251902
 30
0.0
 10
63.5722679403
 20
40.6141830126
 30
0.0
  0
SPLINE
  5
31D
100
AcDbEntity
  8
0
100
AcDbSpline
 62
7
  6
BYLAYER
 70
0
 71
3
 72
9
 73
5
 74
0
 42
0.0000001
 43
0.0000001
 44
0.0000000001
 40
0.0
 40
0.0
 40
0.0
 40
0.0
 40
0.2564696458
 40
1.0
 40
1.0
 40
1.0
 40
1.0
 10
63.9374086088
 20
34.9837696602
 30
0.0
 10
63.9813639129
 20
35.0091471154
 30
0.0
 10
64.1541121913
 20
35.1057032855
 30
0.0
 10
64.3324064124
 20
35.1924510836
 30
0.0
 10
64.4677364867
 20
35.2502191186
 30
0.0
  0
SPLINE
  5
31E
100
AcDbEntity
  8
0
100
AcDbSpline
 62
7
  6
BYLAYER
 70
0
 71
3
 72
9
 73
5
 74
0
 42
0.0000001
 43
0.0000001
 44
0.0000000001
 40
0.0
 40
0.0
 40
0.0
 40
0.0
 40
0.2556516454
 40
1.0
 40
1.0
 40
1.0
 40
1.0
 10
63.4070807309
 20
34.6378528878
 30
0.0
 10
63.4507175081
 20
34.6696128672
 30
0.0
 10
63.6229294728
 20
34.7917285884
 30
0.0
 10
63.8013208475
 20
34.9051998236
 30
0.0
 10
63.9374086088
 20
34.9837696602
 30
0.0
  0
SPLINE
  5
31F
100
AcDbEntity
  8
0
100
AcDbSpline
 62
7
  6
BYLAYER
 70
0
 71
3
 72
9
 73
5
 74
0
 42
0.0000001
 43
0.0000001
 44
0.0000000001
 40
0.0
 40
0.0
 40
0.0
 40
0.0
 40
0.4838301147
 40
1.0
 40
1.0
 40
1.0
 40
1.0
 10
59.8678956835
 20
27.2830169137
 30
0.0
 10
59.8441845075
 20
27.4794270012
 30
0.0
 10
59.8220732488
 20
27.8888666938
 30
0.0
 10
59.8456577105
 20
28.2978855933
 30
0.0
 10
59.8678956835
 20
28.5077705394
 30
0.0
  0
SPLINE
  5
320
100
AcDbEntity
  8
0
100
AcDbSpline
 62
7
  6
BYLAYER
 70
0
 71
3
 72
15
 73
11
 74
0
 42
0.0000001
 43
0.0000001
 44
0.0000000001
 40
0.0
 40
0.0
 40
0.0
 40
0.0
 40
0.1485896363
 40
0.2895067336
 40
0.4227217765
 40
0.5486427735
 40
0.6680012171
 40
0.7819383985
 40
0.8919875564
 40
1.0
 40
1.0
 40
1.0
 40
1.0
 10
71.7155472007
 20
35.1438426203
 30
0.0
 10
71.7155472007
 20
35.443350014
 30
0.0
 10
71.6914019706
 20
36.0273019276
 30
0.0
 10
71.5764545455
 20
36.8729337913
 30
0.0
 10
71.384426236
 20
37.6578202896
 30
0.0
 10
71.1168636429
 20
38.3743755333
 30
0.0
 10
70.7757605941
 20
39.0156725434
 30
0.0
 10
70.3638036065
 20
39.5751593677
 30
0.0
 10
69.8848247373
 20
40.0465785638
 30
0.0
 10
69.5222986238
 20
40.2995150897
 30
0.0
 10
69.3337526197
 20
40.4083783099
 30
0.0
  0
SPLINE
  5
321
100
AcDbEntity
  8
0
100
AcDbSpline
 62
7
  6
BYLAYER
 70
0
 71
3
 72
29
 73
25
 74
0
 42
0.0000001
 43
0.0000001
 44
0.0000000001
 40
0.0
 40
0.0
 40
0.0
 40
0.0
 40
0.0623736594
 40
0.128699685
 40
0.1982806636
 40
0.2702442887
 40
0.3436086593
 40
0.4173272405
 40
0.4903386058
 40
0.5616125053
 40
0.630197838
 40
0.6952742009
 40
0.7263041742
 40
0.7562408407
 40
0.7850464151
 40
0.812705643
 40
0.8392263401
 40
0.8646451395
 40
0.8890275413
 40
0.9124729934
 40
0.9351136136
 40
0.957115089
 40
0.9786717405
 40
1.0
 40
1.0
 40
1.0
 40
1.0
 10
54.7450498932
 20
26.162467447
 30
0.0
 10
54.7450498932
 20
26.6395675857
 30
0.0
 10
54.809678158
 20
27.6246577427
 30
0.0
 10
55.0756536933
 20
29.1203832556
 30
0.0
 10
55.5080407766
 20
30.6530147887
 30
0.0
 10
56.0976392431
 20
32.1897860585
 30
0.0
 10
56.8318662258
 20
33.6981164149
 30
0.0
 10
57.6950795315
 20
35.1458253053
 30
0.0
 10
58.6688488612
 20
36.5020268744
 30
0.0
 10
59.732472677
 20
37.7378552801
 30
0.0
 10
60.8632501723
 20
38.8269094387
 30
0.0
 10
61.8573342757
 20
39.6052172039
 30
0.0
 10
62.6661952909
 20
40.1308095251
 30
0.0
 10
63.2645228655
 20
40.4687342439
 30
0.0
 10
63.8609031852
 20
40.754752099
 30
0.0
 10
64.452158662
 20
40.9873570862
 30
0.0
 10
65.0351824461
 20
41.1651784795
 30
0.0
 10
65.6068583565
 20
41.2872748208
 30
0.0
 10
66.1641714278
 20
41.3527878938
 30
0.0
 10
66.7041186388
 20
41.3613213602
 30
0.0
 10
67.2237476847
 20
41.312573273
 30
0.0
 10
67.7201719609
 20
41.2067038143
 30
0.0
 10
68.1904162453
 20
41.0441452288
 30
0.0
 10
68.485359369
 20
40.898189737
 30
0.0
 10
68.6266419299
 20
40.8166158486
 30
0.0
  0
SPLINE
  5
322
100
AcDbEntity
  8
0
100
AcDbSpline
 62
7
  6
BYLAYER
 70
0
 71
3
 72
15
 73
11
 74
0
 42
0.0000001
 43
0.0000001
 44
0.0000000001
 40
0.0
 40
0.0
 40
0.0
 40
0.0
 40
0.108012564
 40
0.2180612989
 40
0.3319990155
 40
0.4513575435
 40
0.577277251
 40
0.7104996148
 40
0.8513942844
 40
1.0
 40
1.0
 40
1.0
 40
1.0
 10
57.8339535259
 20
20.4896913917
 30
0.0
 10
58.0224973738
 20
20.3808294164
 30
0.0
 10
58.4228265886
 20
20.1933883682
 30
0.0
 10
59.0705582952
 20
20.014267407
 30
0.0
 10
59.7610632015
 20
19.9372583681
 30
0.0
 10
60.4869814066
 20
19.9625326893
 30
0.0
 10
61.2413206068
 20
20.0890930762
 30
0.0
 10
62.017019032
 20
20.3152420924
 30
0.0
 10
62.8068315095
 20
20.6384875549
 30
0.0
 10
63.3245882044
 20
20.9095747375
 30
0.0
 10
63.5839921981
 20
21.05934593
 30
0.0
  0
SPLINE
  5
323
100
AcDbEntity
  8
0
100
AcDbSpline
 62
7
  6
BYLAYER
 70
0
 71
3
 72
15
 73
11
 74
0
 42
0.0000001
 43
0.0000001
 44
0.0000000001
 40
0.0
 40
0.0
 40
0.0
 40
0.0
 40
0.1078630897
 40
0.2190222408
 40
0.3345714742
 40
0.455373192
 40
0.5820317811
 40
0.7149393962
 40
0.8543003122
 40
1.0
 40
1.0
 40
1.0
 40
1.0
 10
56.4946713922
 20
21.3537718888
 30
0.0
 10
56.3528376166
 20
21.4793135155
 30
0.0
 10
56.0827255695
 20
21.7551551463
 30
0.0
 10
55.7307891481
 20
22.2275615041
 30
0.0
 10
55.4294269684
 20
22.7599214921
 30
0.0
 10
55.1806831535
 20
23.3482349149
 30
0.0
 10
54.9859049102
 20
23.9883066904
 30
0.0
 10
54.8463116954
 20
24.6757807792
 30
0.0
 10
54.7627688998
 20
25.4057883898
 30
0.0
 10
54.7450498932
 20
25.9066106419
 30
0.0
 10
54.7450498932
 20
26.162467447
 30
0.0
  0
SPLINE
  5
324
100
AcDbEntity
  8
0
100
AcDbSpline
 62
7
  6
BYLAYER
 70
0
 71
3
 72
23
 73
19
 74
0
 42
0.0000001
 43
0.0000001
 44
0.0000000001
 40
0.0
 40
0.0
 40
0.0
 40
0.0
 40
0.0558382594
 40
0.1141790616
 40
0.1747828924
 40
0.2373529789
 40
0.3015479299
 40
0.366991491
 40
0.433281309
 40
0.4999984079
 40
0.5667157177
 40
0.633005823
 40
0.6984492857
 40
0.7626450501
 40
0.8252160806
 40
0.8858170573
 40
0.9441667198
 40
1.0
 40
1.0
 40
1.0
 40
1.0
 10
63.9375416836
 20
21.2634778881
 30
0.0
 10
64.1981350974
 20
21.4139358454
 30
0.0
 10
64.717840282
 20
21.7448404149
 30
0.0
 10
65.4716257776
 20
22.3109542519
 30
0.0
 10
66.2106596144
 20
22.9529690574
 30
0.0
 10
66.9278610661
 20
23.6646967067
 30
0.0
 10
67.6164265149
 20
24.4393603731
 30
0.0
 10
68.269767388
 20
25.2695693855
 30
0.0
 10
68.881647629
 20
26.1473838035
 30
0.0
 10
69.4462253066
 20
27.0644007572
 30
0.0
 10
69.9580936955
 20
28.0118515362
 30
0.0
 10
70.4123387643
 20
28.980676618
 30
0.0
 10
70.8046378485
 20
29.9616012042
 30
0.0
 10
71.1312360415
 20
30.9452570751
 30
0.0
 10
71.3889884789
 20
31.9222348912
 30
0.0
 10
71.5754757436
 20
32.8833024438
 30
0.0
 10
71.6888131746
 20
33.8191665833
 30
0.0
 10
71.7155498312
 20
34.4347165451
 30
0.0
 10
71.7155498312
 20
34.7355992074
 30
0.0
  0
SPLINE
  5
325
100
AcDbEntity
  8
0
100
AcDbSpline
 62
7
  6
BYLAYER
 70
0
 71
3
 72
9
 73
5
 74
0
 42
0.0000001
 43
0.0000001
 44
0.0000000001
 40
0.0
 40
0.0
 40
0.0
 40
0.0
 40
0.2556516454
 40
1.0
 40
1.0
 40
1.0
 40
1.0
 10
64.4677364867
 20
25.8519752816
 30
0.0
 10
64.4240997096
 20
25.8202153022
 30
0.0
 10
64.2518877448
 20
25.698099581
 30
0.0
 10
64.0734963701
 20
25.5846283458
 30
0.0
 10
63.9374086088
 20
25.5060585092
 30
0.0
  0
SPLINE
  5
326
100
AcDbEntity
  8
0
100
AcDbSpline
 62
7
  6
BYLAYER
 70
0
 71
3
 72
9
 73
5
 74
0
 42
0.0000001
 43
0.0000001
 44
0.0000000001
 40
0.0
 40
0.0
 40
0.0
 40
0.0
 40
0.4838301147
 40
1.0
 40
1.0
 40
1.0
 40
1.0
 10
68.0069215342
 20
33.2068112557
 30
0.0
 10
68.0306327101
 20
33.0104011682
 30
0.0
 10
68.0527439689
 20
32.6009614756
 30
0.0
 10
68.0291595072
 20
32.1919425761
 30
0.0
 10
68.0069215342
 20
31.98205763
 30
0.0
  0
SPLINE
  5
327
100
AcDbEntity
  8
0
100
AcDbSpline
 62
7
  6
BYLAYER
 70
0
 71
3
 72
15
 73
11
 74
0
 42
0.0000001
 43
0.0000001
 44
0.0000000001
 40
0.0
 40
0.0
 40
0.0
 40
0.0
 40
0.1456988562
 40
0.2850587029
 40
0.4179656658
 40
0.5446241878
 40
0.6654262596
 40
0.7809764404
 40
0.8921364594
 40
1.0
 40
1.0
 40
1.0
 40
1.0
 10
55.4521589448
 20
25.7542270813
 30
0.0
 10
55.4521589448
 20
25.4983817575
 30
0.0
 10
55.4698760074
 20
24.9975824694
 30
0.0
 10
55.55341113
 20
24.2676075463
 30
0.0
 10
55.6929905485
 20
23.5801620524
 30
0.0
 10
55.8877495583
 20
22.9401126141
 30
0.0
 10
56.1364705928
 20
22.3518145592
 30
0.0
 10
56.437805576
 20
21.8194625304
 30
0.0
 10
56.7897117699
 20
21.3470577593
 30
0.0
 10
57.059800765
 20
21.0712116879
 30
0.0
 10
57.2016230876
 20
20.9456671204
 30
0.0
  0
SPLINE
  5
328
100
AcDbEntity
  8
0
100
AcDbSpline
 62
7
  6
BYLAYER
 70
0
 71
3
 72
18
 73
14
 74
0
 42
0.0000001
 43
0.0000001
 44
0.0000000001
 40
0.0
 40
0.0
 40
0.0
 40
0.0
 40
0.0513602201
 40
0.1030898785
 40
0.1555446349
 40
0.2090568179
 40
0.2639228135
 40
0.3204013218
 40
0.4389127292
 40
0.5658803762
 40
0.7018248952
 40
0.8467010957
 40
1.0
 40
1.0
 40
1.0
 40
1.0
 10
69.3337526197
 20
40.4083783099
 30
0.0
 10
69.2182678555
 20
40.4750572267
 30
0.0
 10
68.9792733906
 20
40.5968498934
 30
0.0
 10
68.6017374726
 20
40.7421582408
 30
0.0
 10
68.206012237
 20
40.8499319161
 30
0.0
 10
67.7936495795
 20
40.91970742
 30
0.0
 10
67.366178112
 20
40.951388514
 30
0.0
 10
66.7687780575
 20
40.9425136584
 30
0.0
 10
65.9891129055
 20
40.8311494722
 30
0.0
 10
65.0366606149
 20
40.5495299513
 30
0.0
 10
64.0649463206
 20
40.1227814009
 30
0.0
 10
63.087584482
 20
39.5574337452
 30
0.0
 10
62.4575500221
 20
39.105281082
 30
0.0
 10
62.144465197
 20
38.8595103494
 30
0.0
  0
SPLINE
  5
329
100
AcDbEntity
  8
0
100
AcDbSpline
 62
7
  6
BYLAYER
 70
0
 71
3
 72
19
 73
15
 74
0
 42
0.0000001
 43
0.0000001
 44
0.0000000001
 40
0.0
 40
0.0
 40
0.0
 40
0.0
 40
0.0594051811
 40
0.1206175451
 40
0.1833836483
 40
0.2474219438
 40
0.3780492135
 40
0.5099737995
 40
0.6405431395
 40
0.7671889794
 40
0.8283264468
 40
0.8876446338
 40
0.9449390454
 40
1.0
 40
1.0
 40
1.0
 40
1.0
 10
62.144465197
 20
38.8595103494
 30
0.0
 10
61.9083687378
 20
38.6741752736
 30
0.0
 10
61.4411566733
 20
38.2821401504
 30
0.0
 10
60.7679865966
 20
37.6447467572
 30
0.0
 10
60.1160306597
 20
36.9530941061
 30
0.0
 10
59.2762297743
 20
35.9591563203
 30
0.0
 10
58.3120674779
 20
34.6161147446
 30
0.0
 10
57.319204879
 20
32.8920512627
 30
0.0
 10
56.5119918856
 20
31.0956107249
 30
0.0
 10
56.0079503176
 20
29.5644091395
 30
0.0
 10
55.7207624364
 20
28.3487475673
 30
0.0
 10
55.5671441061
 20
27.463266319
 30
0.0
 10
55.4739950568
 20
26.6002862747
 30
0.0
 10
55.4521589448
 20
26.0324284229
 30
0.0
 10
55.4521589448
 20
25.7542270813
 30
0.0
  0
LINE
  5
32A
100
AcDbEntity
  8
0
100
AcDbLine
 62
7
  6
BYLAYER
 10
66.6594359914
 20
32.4288513085
 11
68.0069215342
 21
31.98205763
  0
LINE
  5
32B
100
AcDbEntity
  8
0
100
AcDbLine
 62
7
  6
BYLAYER
 10
64.4677364867
 20
25.8519752816
 11
63.4070750586
 21
26.7954944464
  0
SPLINE
  5
32C
100
AcDbEntity
  8
0
100
AcDbSpline
 62
7
  6
BYLAYER
 70
0
 71
3
 72
10
 73
6
 74
0
 42
0.0000001
 43
0.0000001
 44
0.0000000001
 40
0.0
 40
0.0
 40
0.0
 40
0.0
 40
0.2701908768
 40
0.5269896158
 40
1.0
 40
1.0
 40
1.0
 40
1.0
 10
56.1592673865
 20
25.754228962
 30
0.0
 10
56.1592673865
 20
25.478321449
 30
0.0
 10
56.1807621554
 20
24.939666563
 30
0.0
 10
56.3127809149
 20
23.9265920953
 30
0.0
 10
56.5175460475
 20
23.2015614818
 30
0.0
 10
56.7078944229
 20
22.7576311885
 30
0.0
  0
SPLINE
  5
32D
100
AcDbEntity
  8
0
100
AcDbSpline
 62
7
  6
BYLAYER
 70
0
 71
3
 72
9
 73
5
 74
0
 42
0.0000001
 43
0.0000001
 44
0.0000000001
 40
0.0
 40
0.0
 40
0.0
 40
0.0
 40
0.2567716144
 40
1.0
 40
1.0
 40
1.0
 40
1.0
 10
56.7078944229
 20
22.7576311885
 30
0.0
 10
56.7398018552
 20
22.6832167064
 30
0.0
 10
56.8703949359
 20
22.3961929405
 30
0.0
 10
57.0271800682
 20
22.1208570999
 30
0.0
 10
57.1586987645
 20
21.9268804681
 30
0.0
  0
SPLINE
  5
32E
100
AcDbEntity
  8
0
100
AcDbSpline
 62
7
  6
BYLAYER
 70
0
 71
3
 72
20
 73
16
 74
0
 42
0.0000001
 43
0.0000001
 44
0.0000000001
 40
0.0
 40
0.0
 40
0.0
 40
0.0
 40
0.0593115059
 40
0.1172374306
 40
0.1741604768
 40
0.2305001662
 40
0.2866988312
 40
0.34320455
 40
0.4004525703
 40
0.4588513595
 40
0.5187662462
 40
0.580514731
 40
0.7103886342
 40
0.8500225723
 40
1.0
 40
1.0
 40
1.0
 40
1.0
 10
57.1586987645
 20
21.9268804681
 30
0.0
 10
57.2380030436
 20
21.8099147639
 30
0.0
 10
57.4058177619
 20
21.5859504775
 30
0.0
 10
57.6873436874
 20
21.2801432167
 30
0.0
 10
57.9941928611
 20
21.0102385089
 30
0.0
 10
58.325108682
 20
20.7775056694
 30
0.0
 10
58.6786573721
 20
20.5828843005
 30
0.0
 10
59.0533620408
 20
20.4272889454
 30
0.0
 10
59.4475757089
 20
20.3112490758
 30
0.0
 10
59.8596449118
 20
20.2352973577
 30
0.0
 10
60.2878533924
 20
20.1995734802
 30
0.0
 10
60.8878771592
 20
20.205873872
 30
0.0
 10
61.6728705577
 20
20.3199317818
 30
0.0
 10
62.6316611401
 20
20.6127407056
 30
0.0
 10
63.2614605341
 20
20.8996334228
 30
0.0
 10
63.5779818946
 20
21.0654758361
 30
0.0
  0
SPLINE
  5
32F
100
AcDbEntity
  8
0
100
AcDbSpline
 62
7
  6
BYLAYER
 70
0
 71
3
 72
22
 73
18
 74
0
 42
0.0000001
 43
0.0000001
 44
0.0000000001
 40
0.0
 40
0.0
 40
0.0
 40
0.0
 40
0.1493609501
 40
0.2196838832
 40
0.2871706931
 40
0.3519782215
 40
0.4143322821
 40
0.4745477237
 40
0.5330173577
 40
0.5902079634
 40
0.6466429535
 40
0.7028836276
 40
0.7595009445
 40
0.8170464292
 40
0.8760284871
 40
0.9368901102
 40
1.0
 40
1.0
 40
1.0
 40
1.0
 10
71.7069469378
 20
35.1526377962
 30
0.0
 10
71.6902011917
 20
35.5537435984
 30
0.0
 10
71.6289054893
 20
36.1436505376
 30
0.0
 10
71.4609527359
 20
36.8976776358
 30
0.0
 10
71.299016061
 20
37.4183714252
 30
0.0
 10
71.0994427653
 20
37.9027992242
 30
0.0
 10
70.8630237115
 20
38.3484590424
 30
0.0
 10
70.5909512652
 20
38.7530301828
 30
0.0
 10
70.2844377563
 20
39.1142724489
 30
0.0
 10
69.9450924047
 20
39.4302402069
 30
0.0
 10
69.5746116578
 20
39.6990494293
 30
0.0
 10
69.1750766133
 20
39.9192512695
 30
0.0
 10
68.7486642331
 20
40.0895473813
 30
0.0
 10
68.2977899852
 20
40.2091512885
 30
0.0
 10
67.824890318
 20
40.277459489
 30
0.0
 10
67.3325534502
 20
40.2943241572
 30
0.0
 10
66.9994810161
 20
40.2716972855
 30
0.0
 10
66.830954979
 20
40.2523938859
 30
0.0
  0
SPLINE
  5
330
100
AcDbEntity
  8
0
100
AcDbSpline
 62
7
  6
BYLAYER
 70
0
 71
3
 72
24
 73
20
 74
0
 42
0.0000001
 43
0.0000001
 44
0.0000000001
 40
0.0
 40
0.0
 40
0.0
 40
0.0
 40
0.0476240782
 40
0.0987116546
 40
0.1256118252
 40
0.1534039884
 40
0.2115607687
 40
0.2729354939
 40
0.3371223734
 40
0.4036097521
 40
0.4718073606
 40
0.5410702171
 40
0.6107205991
 40
0.680069318
 40
0.7484356626
 40
0.8151704094
 40
0.8796728923
 40
0.9414257589
 40
1.0
 40
1.0
 40
1.0
 40
1.0
 10
66.830954979
 20
40.2523938859
 30
0.0
 10
66.5272739818
 20
40.2176094944
 30
0.0
 10
65.9032080866
 20
40.0928707721
 30
0.0
 10
65.1403069576
 20
39.8253490136
 30
0.0
 10
64.522009765
 20
39.5441399413
 30
0.0
 10
63.8805998358
 20
39.2069187307
 30
0.0
 10
63.0806417209
 20
38.6994361718
 30
0.0
 10
62.1481037318
 20
37.9752736826
 30
0.0
 10
61.2420780619
 20
37.1374231365
 30
0.0
 10
60.3758513464
 20
36.1982151757
 30
0.0
 10
59.5620772137
 20
35.1714125843
 30
0.0
 10
58.812712447
 20
34.0721090523
 30
0.0
 10
58.1387747056
 20
32.9164748232
 30
0.0
 10
57.5501877195
 20
31.721518745
 30
0.0
 10
57.0555986298
 20
30.5048154746
 30
0.0
 10
56.6623061854
 20
29.2842587106
 30
0.0
 10
56.3760464359
 20
28.0776690065
 30
0.0
 10
56.20111628
 20
26.9028703193
 30
0.0
 10
56.1592673865
 20
26.1301772815
 30
0.0
 10
56.1592673865
 20
25.754228962
 30
0.0
  0
SPLINE
  5
331
100
AcDbEntity
  8
0
100
AcDbSpline
 62
7
  6
BYLAYER
 70
0
 71
3
 72
9
 73
5
 74
0
 42
0.0000001
 43
0.0000001
 44
0.0000000001
 40
0.0
 40
0.0
 40
0.0
 40
0.0
 40
0.2564696458
 40
1.0
 40
1.0
 40
1.0
 40
1.0
 10
63.9374086088
 20
25.5060585092
 30
0.0
 10
63.8934533047
 20
25.480681054
 30
0.0
 10
63.7207050264
 20
25.384124884
 30
0.0
 10
63.5424108053
 20
25.2973770859
 30
0.0
 10
63.4070807309
 20
25.2396090508
 30
0.0
  0
SPLINE
  5
332
100
AcDbEntity
  8
0
100
AcDbSpline
 62
7
  6
BYLAYER
 70
0
 71
3
 72
10
 73
6
 74
0
 42
0.0000001
 43
0.0000001
 44
0.0000000001
 40
0.0
 40
0.0
 40
0.0
 40
0.0
 40
0.2324012123
 40
0.4726816343
 40
1.0
 40
1.0
 40
1.0
 40
1.0
 10
55.6413510696
 20
81.7251016152
 30
0.0
 10
55.6413382727
 20
81.6928851009
 30
0.0
 10
55.6335964115
 20
81.6271128368
 30
0.0
 10
55.5867061012
 20
81.4957002246
 30
0.0
 10
55.5198025073
 20
81.4089957833
 30
0.0
 10
55.4674897181
 20
81.3579382014
 30
0.0
  0
SPLINE
  5
333
100
AcDbEntity
  8
0
100
AcDbSpline
 62
7
  6
BYLAYER
 70
0
 71
3
 72
9
 73
5
 74
0
 42
0.0000001
 43
0.0000001
 44
0.0000000001
 40
0.0
 40
0.0
 40
0.0
 40
0.0
 40
0.2376166133
 40
1.0
 40
1.0
 40
1.0
 40
1.0
 10
55.4674897181
 20
81.3579382014
 30
0.0
 10
55.4538845849
 20
81.3446595134
 30
0.0
 10
55.394583864
 20
81.2908790934
 30
0.0
 10
55.328088992
 20
81.2452986817
 30
0.0
 10
55.2752644284
 20
81.2148005877
 30
0.0
  0
SPLINE
  5
334
100
AcDbEntity
  8
0
100
AcDbSpline
 62
7
  6
BYLAYER
 70
0
 71
3
 72
11
 73
7
 74
0
 42
0.0000001
 43
0.0000001
 44
0.0000000001
 40
0.0
 40
0.0
 40
0.0
 40
0.0
 40
0.2177648073
 40
0.4508950352
 40
0.7103684932
 40
1.0
 40
1.0
 40
1.0
 40
1.0
 10
41.4991565667
 20
89.8899167056
 30
0.0
 10
41.4991376568
 20
89.8423106573
 30
0.0
 10
41.4816194902
 20
89.7430721816
 30
0.0
 10
41.406347837
 20
89.6047950824
 30
0.0
 10
41.2874021126
 20
89.479832178
 30
0.0
 10
41.1879041309
 20
89.4112740324
 30
0.0
 10
41.1330699254
 20
89.3796156781
 30
0.0
  0
SPLINE
  5
335
100
AcDbEntity
  8
0
100
AcDbSpline
 62
7
  6
BYLAYER
 70
0
 71
3
 72
12
 73
8
 74
0
 42
0.0000001
 43
0.0000001
 44
0.0000000001
 40
0.0
 40
0.0
 40
0.0
 40
0.0
 40
0.2894980995
 40
0.5486444756
 40
0.7815759116
 40
0.8917777082
 40
1.0
 40
1.0
 40
1.0
 40
1.0
 10
63.6545176153
 20
72.4579447988
 30
0.0
 10
63.6545176153
 20
72.3008647104
 30
0.0
 10
63.6306664836
 20
72.0021157127
 30
0.0
 10
63.5099399676
 20
71.5918933318
 30
0.0
 10
63.3363302555
 20
71.3088510088
 30
0.0
 10
63.1610721433
 20
71.1363969399
 30
0.0
 10
63.0633229018
 20
71.0681711467
 30
0.0
 10
63.0124560147
 20
71.0388335421
 30
0.0
  0
SPLINE
  5
336
100
AcDbEntity
  8
0
100
AcDbSpline
 62
7
  6
BYLAYER
 70
0
 71
3
 72
11
 73
7
 74
0
 42
0.0000001
 43
0.0000001
 44
0.0000000001
 40
0.0
 40
0.0
 40
0.0
 40
0.0
 40
0.2625942938
 40
0.5234867496
 40
0.7722287989
 40
1.0
 40
1.0
 40
1.0
 40
1.0
 10
62.656216076
 20
75.1572077069
 30
0.0
 10
62.8101190469
 20
74.9529641735
 30
0.0
 10
63.087158477
 20
74.522537062
 30
0.0
 10
63.402044096
 20
73.8367682613
 30
0.0
 10
63.6024670946
 20
73.1443484041
 30
0.0
 10
63.6545176153
 20
72.6797682881
 30
0.0
 10
63.6545176153
 20
72.4579447988
 30
0.0
  0
SPLINE
  5
337
100
AcDbEntity
  8
0
100
AcDbSpline
 62
7
  6
BYLAYER
 70
0
 71
3
 72
9
 73
5
 74
0
 42
0.0000001
 43
0.0000001
 44
0.0000000001
 40
0.0
 40
0.0
 40
0.0
 40
0.0
 40
0.5071365851
 40
1.0
 40
1.0
 40
1.0
 40
1.0
 10
33.6647173449
 20
91.8950786422
 30
0.0
 10
33.8724905171
 20
91.6193443495
 30
0.0
 10
34.2289315295
 20
91.0339410194
 30
0.0
 10
34.4685646018
 20
90.3909573042
 30
0.0
 10
34.5494977065
 20
90.0653291177
 30
0.0
  0
SPLINE
  5
338
100
AcDbEntity
  8
0
100
AcDbSpline
 62
7
  6
BYLAYER
 70
0
 71
3
 72
25
 73
21
 74
0
 42
0.0000001
 43
0.0000001
 44
0.0000000001
 40
0.0
 40
0.0
 40
0.0
 40
0.0
 40
0.0623788889
 40
0.1287245092
 40
0.1983140248
 40
0.2702912516
 40
0.3436675248
 40
0.4174003098
 40
0.4904259615
 40
0.5617133321
 40
0.6303109289
 40
0.6953985744
 40
0.7563462069
 40
0.812783584
 40
0.8646840582
 40
0.9124584867
 40
0.9351028115
 40
0.9571078965
 40
0.9786681861
 40
1.0
 40
1.0
 40
1.0
 40
1.0
 10
47.6031827898
 20
77.4793636903
 30
0.0
 10
47.2295566027
 20
77.2636517982
 30
0.0
 10
46.4287935082
 20
76.868859447
 30
0.0
 10
45.1371165307
 20
76.4007913011
 30
0.0
 10
43.741207599
 20
76.0464739972
 30
0.0
 10
42.271055161
 20
75.8133225604
 30
0.0
 10
40.7577360162
 20
75.7063489571
 30
0.0
 10
39.2335725679
 20
75.7277793253
 30
0.0
 10
37.7310624446
 20
75.8771975126
 30
0.0
 10
36.2822429534
 20
76.1514143546
 30
0.0
 10
34.917895403
 20
76.5446233717
 30
0.0
 10
33.6668544454
 20
77.0486306318
 30
0.0
 10
32.5554095632
 20
77.6531134235
 30
0.0
 10
31.606796412
 20
78.3463167657
 30
0.0
 10
30.8413475853
 20
79.1148230268
 30
0.0
 10
30.3621962201
 20
79.8199196227
 30
0.0
 10
30.0951805292
 20
80.4020699764
 30
0.0
 10
29.9536473339
 20
80.8387575338
 30
0.0
 10
29.8682768258
 20
81.2805352533
 30
0.0
 10
29.8492766467
 20
81.5775321329
 30
0.0
 10
29.8492763994
 20
81.7250675131
 30
0.0
  0
SPLINE
  5
339
100
AcDbEntity
  8
0
100
AcDbSpline
 62
7
  6
BYLAYER
 70
0
 71
3
 72
17
 73
13
 74
0
 42
0.0000001
 43
0.0000001
 44
0.0000000001
 40
0.0
 40
0.0
 40
0.0
 40
0.0
 40
0.128688448
 40
0.2702796817
 40
0.4174325464
 40
0.5617749928
 40
0.6954478191
 40
0.8127119577
 40
0.8646769781
 40
0.912510124
 40
0.9571398159
 40
1.0
 40
1.0
 40
1.0
 40
1.0
 10
41.1331876841
 20
73.0499175103
 30
0.0
 10
41.040658573
 20
72.996496122
 30
0.0
 10
40.8311558751
 20
72.9100560057
 30
0.0
 10
40.4897123418
 20
72.8417410748
 30
0.0
 10
40.1285726188
 20
72.8317438515
 30
0.0
 10
39.7772125061
 20
72.8811159256
 30
0.0
 10
39.4641134655
 20
72.9856945378
 30
0.0
 10
39.2463528193
 20
73.1182480787
 30
0.0
 10
39.1185605241
 20
73.246504493
 30
0.0
 10
39.0506691857
 20
73.3463583356
 30
0.0
 10
39.0088343773
 20
73.4516841223
 30
0.0
 10
38.9993125951
 20
73.5246338136
 30
0.0
 10
38.9993267299
 20
73.5602183691
 30
0.0
  0
SPLINE
  5
33A
100
AcDbEntity
  8
0
100
AcDbSpline
 62
7
  6
BYLAYER
 70
0
 71
3
 72
15
 73
11
 74
0
 42
0.0000001
 43
0.0000001
 44
0.0000000001
 40
0.0
 40
0.0
 40
0.0
 40
0.0
 40
0.1160940277
 40
0.2420260459
 40
0.3744340655
 40
0.50960133
 40
0.6433983139
 40
0.7718597284
 40
0.8915485133
 40
1.0
 40
1.0
 40
1.0
 40
1.0
 10
26.9909931811
 20
81.2147326007
 30
0.0
 10
26.9247813521
 20
81.1765054116
 30
0.0
 10
26.7789212246
 20
81.110055147
 30
0.0
 10
26.5410237417
 20
81.0424408564
 30
0.0
 10
26.2838430269
 20
81.0051510769
 30
0.0
 10
26.01891721
 20
80.9997143522
 30
0.0
 10
25.7578795289
 20
81.0264521058
 30
0.0
 10
25.5122478337
 20
81.0841850641
 30
0.0
 10
25.2928725994
 20
81.1703204926
 30
0.0
 10
25.1633753618
 20
81.2486801759
 30
0.0
 10
25.1068001014
 20
81.29227253
 30
0.0
  0
SPLINE
  5
33B
100
AcDbEntity
  8
0
100
AcDbSpline
 62
7
  6
BYLAYER
 70
0
 71
3
 72
11
 73
7
 74
0
 42
0.0000001
 43
0.0000001
 44
0.0000000001
 40
0.0
 40
0.0
 40
0.0
 40
0.0
 40
0.2810166062
 40
0.5374152336
 40
0.7742094013
 40
1.0
 40
1.0
 40
1.0
 40
1.0
 10
25.1068001014
 20
81.29227253
 30
0.0
 10
25.0684679008
 20
81.3218082465
 30
0.0
 10
24.9992984739
 20
81.3841108889
 30
0.0
 10
24.9186079949
 20
81.4914797192
 30
0.0
 10
24.8685821979
 20
81.6061018356
 30
0.0
 10
24.8571167827
 20
81.6861521429
 30
0.0
 10
24.857132227
 20
81.7250334595
 30
0.0
  0
SPLINE
  5
33C
100
AcDbEntity
  8
0
100
AcDbSpline
 62
7
  6
BYLAYER
 70
0
 71
3
 72
17
 73
13
 74
0
 42
0.0000001
 43
0.0000001
 44
0.0000000001
 40
0.0
 40
0.0
 40
0.0
 40
0.0
 40
0.128688448
 40
0.2702796817
 40
0.4174325464
 40
0.5617749928
 40
0.6954478191
 40
0.8127119577
 40
0.8646769781
 40
0.912510124
 40
0.9571398159
 40
1.0
 40
1.0
 40
1.0
 40
1.0
 10
41.1330699254
 20
89.3796156781
 30
0.0
 10
41.0405408143
 20
89.3261942898
 30
0.0
 10
40.8310381164
 20
89.2397541735
 30
0.0
 10
40.4895945831
 20
89.1714392427
 30
0.0
 10
40.1284548601
 20
89.1614420194
 30
0.0
 10
39.7770947474
 20
89.2108140934
 30
0.0
 10
39.4639957068
 20
89.3153927056
 30
0.0
 10
39.2462350607
 20
89.4479462465
 30
0.0
 10
39.1184427654
 20
89.5762026609
 30
0.0
 10
39.0505514271
 20
89.6760565034
 30
0.0
 10
39.0087166187
 20
89.7813822901
 30
0.0
 10
38.9991948365
 20
89.8543319814
 30
0.0
 10
38.9992089713
 20
89.8899165369
 30
0.0
  0
SPLINE
  5
33D
100
AcDbEntity
  8
0
100
AcDbSpline
 62
7
  6
BYLAYER
 70
0
 71
3
 72
17
 73
13
 74
0
 42
0.0000001
 43
0.0000001
 44
0.0000000001
 40
0.0
 40
0.0
 40
0.0
 40
0.0
 40
0.128688448
 40
0.2702796817
 40
0.4174325464
 40
0.5617749928
 40
0.6954478191
 40
0.8127119577
 40
0.8646769781
 40
0.912510124
 40
0.9571398159
 40
1.0
 40
1.0
 40
1.0
 40
1.0
 10
55.2752644284
 20
81.2148005877
 30
0.0
 10
55.1827353173
 20
81.1613791994
 30
0.0
 10
54.9732326194
 20
81.0749390831
 30
0.0
 10
54.631789086
 20
81.0066241522
 30
0.0
 10
54.270649363
 20
80.9966269289
 30
0.0
 10
53.9192892503
 20
81.045999003
 30
0.0
 10
53.6061902097
 20
81.1505776152
 30
0.0
 10
53.3884295636
 20
81.2831311561
 30
0.0
 10
53.2606372684
 20
81.4113875705
 30
0.0
 10
53.19274593
 20
81.511241413
 30
0.0
 10
53.1509111216
 20
81.6165671997
 30
0.0
 10
53.1413893394
 20
81.689516891
 30
0.0
 10
53.1414034742
 20
81.7251014465
 30
0.0
  0
SPLINE
  5
33E
100
AcDbEntity
  8
0
100
AcDbSpline
 62
7
  6
BYLAYER
 70
0
 71
3
 72
13
 73
9
 74
0
 42
0.0000001
 43
0.0000001
 44
0.0000000001
 40
0.0
 40
0.0
 40
0.0
 40
0.0
 40
0.301404627
 40
0.5659799009
 40
0.6844982198
 40
0.7948678647
 40
0.8990975547
 40
1.0
 40
1.0
 40
1.0
 40
1.0
 10
24.8571150387
 20
81.1282503428
 30
0.0
 10
24.6780193807
 20
81.187947468
 30
0.0
 10
24.3501128369
 20
81.3287058754
 30
0.0
 10
23.9984421654
 20
81.5833007491
 30
0.0
 10
23.7953125567
 20
81.8179960143
 30
0.0
 10
23.6878264591
 20
81.998287777
 30
0.0
 10
23.6219784044
 20
82.1861042366
 30
0.0
 10
23.6071380981
 20
82.3150358715
 30
0.0
 10
23.6071333076
 20
82.3782355019
 30
0.0
  0
SPLINE
  5
33F
100
AcDbEntity
  8
0
100
AcDbSpline
 62
7
  6
BYLAYER
 70
0
 71
3
 72
15
 73
11
 74
0
 42
0.0000001
 43
0.0000001
 44
0.0000000001
 40
0.0
 40
0.0
 40
0.0
 40
0.0
 40
0.146894413
 40
0.2889708463
 40
0.4251508517
 40
0.5546739193
 40
0.6769670319
 40
0.7917771205
 40
0.899273244
 40
1.0
 40
1.0
 40
1.0
 40
1.0
 10
36.1723077578
 20
75.4036264127
 30
0.0
 10
35.7158375221
 20
75.4925650509
 30
0.0
 10
34.8236229727
 20
75.6991022292
 30
0.0
 10
33.5375496915
 20
76.1006221778
 30
0.0
 10
32.339018171
 20
76.5845641121
 30
0.0
 10
31.243713926
 20
77.144553585
 30
0.0
 10
30.2657993177
 20
77.7736987491
 30
0.0
 10
29.4178052307
 20
78.4642727486
 30
0.0
 10
28.7112967949
 20
79.2077424571
 30
0.0
 10
28.3295973069
 20
79.749120664
 30
0.0
 10
28.1686667521
 20
80.0244261654
 30
0.0
  0
SPLINE
  5
340
100
AcDbEntity
  8
0
100
AcDbSpline
 62
7
  6
BYLAYER
 70
0
 71
3
 72
15
 73
11
 74
0
 42
0.0000001
 43
0.0000001
 44
0.0000000001
 40
0.0
 40
0.0
 40
0.0
 40
0.0
 40
0.1181024077
 40
0.2465497066
 40
0.3815654604
 40
0.5186193639
 40
0.6529611625
 40
0.780133699
 40
0.8965205659
 40
1.0
 40
1.0
 40
1.0
 40
1.0
 10
42.0170748405
 20
73.1928185008
 30
0.0
 10
41.8749420831
 20
73.1107586049
 30
0.0
 10
41.5602437092
 20
72.9698716848
 30
0.0
 10
41.0463461318
 20
72.8323421309
 30
0.0
 10
40.4921841356
 20
72.7644495491
 30
0.0
 10
39.9258424488
 20
72.7697215331
 30
0.0
 10
39.3758089558
 20
72.8478163103
 30
0.0
 10
38.8695471706
 20
72.9949990202
 30
0.0
 10
38.4323611919
 20
73.203894731
 30
0.0
 10
38.1859252316
 20
73.3900570858
 30
0.0
 10
38.0842422225
 20
73.4917376636
 30
0.0
  0
SPLINE
  5
341
100
AcDbEntity
  8
0
100
AcDbSpline
 62
7
  6
BYLAYER
 70
0
 71
3
 72
9
 73
5
 74
0
 42
0.0000001
 43
0.0000001
 44
0.0000000001
 40
0.0
 40
0.0
 40
0.0
 40
0.0
 40
0.2366975963
 40
1.0
 40
1.0
 40
1.0
 40
1.0
 10
42.4143692413
 20
73.491748072
 30
0.0
 10
42.3865847811
 20
73.4639637418
 30
0.0
 10
42.2646836695
 20
73.351109524
 30
0.0
 10
42.1268110632
 20
73.2561743604
 30
0.0
 10
42.0170748405
 20
73.1928185008
 30
0.0
  0
SPLINE
  5
342
100
AcDbEntity
  8
0
100
AcDbSpline
 62
7
  6
BYLAYER
 70
0
 71
3
 72
11
 73
7
 74
0
 42
0.0000001
 43
0.0000001
 44
0.0000000001
 40
0.0
 40
0.0
 40
0.0
 40
0.0
 40
0.2334862647
 40
0.4790381954
 40
0.7351670147
 40
1.0
 40
1.0
 40
1.0
 40
1.0
 10
49.2648906439
 20
77.1731998509
 30
0.0
 10
48.9098097202
 20
76.9681950077
 30
0.0
 10
48.1594876175
 20
76.584595211
 30
0.0
 10
46.9610816406
 20
76.1006478846
 30
0.0
 10
45.6749283319
 20
75.6991370169
 30
0.0
 10
44.7827495675
 20
75.4925877185
 30
0.0
 10
44.3262761314
 20
75.4036460125
 30
0.0
  0
SPLINE
  5
343
100
AcDbEntity
  8
0
100
AcDbSpline
 62
7
  6
BYLAYER
 70
0
 71
3
 72
10
 73
6
 74
0
 42
0.0000001
 43
0.0000001
 44
0.0000000001
 40
0.0
 40
0.0
 40
0.0
 40
0.0
 40
0.2263226905
 40
0.5943796185
 40
1.0
 40
1.0
 40
1.0
 40
1.0
 10
52.3298504928
 20
80.0244842418
 30
0.0
 10
52.1689215485
 20
79.7491739291
 30
0.0
 10
51.6840380524
 20
79.0615350995
 30
0.0
 10
50.6676942321
 20
78.0720361217
 30
0.0
 10
49.7598509699
 20
77.4589636225
 30
0.0
 10
49.2648906439
 20
77.1731998509
 30
0.0
  0
SPLINE
  5
344
100
AcDbEntity
  8
0
100
AcDbSpline
 62
7
  6
BYLAYER
 70
0
 71
3
 72
9
 73
5
 74
0
 42
0.0000001
 43
0.0000001
 44
0.0000000001
 40
0.0
 40
0.0
 40
0.0
 40
0.0
 40
0.239457577
 40
1.0
 40
1.0
 40
1.0
 40
1.0
 10
56.1591515848
 20
81.3577015783
 30
0.0
 10
56.1199676866
 20
81.3350788791
 30
0.0
 10
55.9536191008
 20
81.2453255319
 30
0.0
 10
55.7777166762
 20
81.1737675898
 30
0.0
 10
55.641386286
 20
81.128324339
 30
0.0
  0
SPLINE
  5
345
100
AcDbEntity
  8
0
100
AcDbSpline
 62
7
  6
BYLAYER
 70
0
 71
3
 72
15
 73
11
 74
0
 42
0.0000001
 43
0.0000001
 44
0.0000000001
 40
0.0
 40
0.0
 40
0.0
 40
0.0
 40
0.1080109052
 40
0.2180574894
 40
0.3319949662
 40
0.4513555426
 40
0.5772634103
 40
0.7104880959
 40
0.8514445202
 40
1.0
 40
1.0
 40
1.0
 40
1.0
 10
50.6492068972
 20
81.7250675616
 30
0.0
 10
50.6492072273
 20
81.5281860124
 30
0.0
 10
50.6150593
 20
81.1299084251
 30
0.0
 10
50.4624134621
 20
80.5416503882
 30
0.0
 10
50.2105270465
 20
79.9660435879
 30
0.0
 10
49.8625073336
 20
79.4089723594
 30
0.0
 10
49.4223477593
 20
78.8754110563
 30
0.0
 10
48.8944412551
 20
78.3700758289
 30
0.0
 10
48.2840777859
 20
77.8977513419
 30
0.0
 10
47.8376906309
 20
77.6147560473
 30
0.0
 10
47.6031827898
 20
77.4793636903
 30
0.0
  0
SPLINE
  5
346
100
AcDbEntity
  8
0
100
AcDbSpline
 62
7
  6
BYLAYER
 70
0
 71
3
 72
12
 73
8
 74
0
 42
0.0000001
 43
0.0000001
 44
0.0000000001
 40
0.0
 40
0.0
 40
0.0
 40
0.0
 40
0.1081605228
 40
0.2183673881
 40
0.4513395515
 40
0.7104478739
 40
1.0
 40
1.0
 40
1.0
 40
1.0
 10
56.891349989
 20
82.3783034402
 30
0.0
 10
56.8913535764
 20
82.3309767276
 30
0.0
 10
56.883148195
 20
82.2352256911
 30
0.0
 10
56.8333595058
 20
82.0433026808
 30
0.0
 10
56.7057461497
 20
81.8079011968
 30
0.0
 10
56.4679070657
 20
81.5581615425
 30
0.0
 10
56.268874061
 20
81.4210495013
 30
0.0
 10
56.1591515848
 20
81.3577015783
 30
0.0
  0
SPLINE
  5
347
100
AcDbEntity
  8
0
100
AcDbSpline
 62
7
  6
BYLAYER
 70
0
 71
3
 72
11
 73
7
 74
0
 42
0.0000001
 43
0.0000001
 44
0.0000000001
 40
0.0
 40
0.0
 40
0.0
 40
0.0
 40
0.2118175243
 40
0.4500883414
 40
0.7142306304
 40
1.0
 40
1.0
 40
1.0
 40
1.0
 10
34.5860547867
 20
97.0611655598
 30
0.0
 10
34.8223867397
 20
97.0444518862
 30
0.0
 10
35.3200644704
 20
96.9335113812
 30
0.0
 10
36.0465725911
 20
96.5903868393
 30
0.0
 10
36.7688547371
 20
96.0783767696
 30
0.0
 10
37.2147261282
 20
95.6514390498
 30
0.0
 10
37.4312663255
 20
95.4163234415
 30
0.0
  0
SPLINE
  5
348
100
AcDbEntity
  8
0
100
AcDbSpline
 62
7
  6
BYLAYER
 70
0
 71
3
 72
11
 73
7
 74
0
 42
0.0000001
 43
0.0000001
 44
0.0000000001
 40
0.0
 40
0.0
 40
0.0
 40
0.0
 40
0.2177648073
 40
0.4508950352
 40
0.7103684932
 40
1.0
 40
1.0
 40
1.0
 40
1.0
 10
41.4992743254
 20
73.5602185378
 30
0.0
 10
41.4992554154
 20
73.5126124895
 30
0.0
 10
41.4817372488
 20
73.4133740137
 30
0.0
 10
41.4064655957
 20
73.2750969146
 30
0.0
 10
41.2875198712
 20
73.1501340101
 30
0.0
 10
41.1880218896
 20
73.0815758646
 30
0.0
 10
41.1331876841
 20
73.0499175103
 30
0.0
  0
SPLINE
  5
349
100
AcDbEntity
  8
0
100
AcDbSpline
 62
7
  6
BYLAYER
 70
0
 71
3
 72
11
 73
7
 74
0
 42
0.0000001
 43
0.0000001
 44
0.0000000001
 40
0.0
 40
0.0
 40
0.0
 40
0.0
 40
0.2177648073
 40
0.4508950352
 40
0.7103684932
 40
1.0
 40
1.0
 40
1.0
 40
1.0
 10
27.3570798224
 20
81.7250336282
 30
0.0
 10
27.3570609125
 20
81.6774275799
 30
0.0
 10
27.3395427459
 20
81.5781891041
 30
0.0
 10
27.2642710927
 20
81.439912005
 30
0.0
 10
27.1453253683
 20
81.3149491006
 30
0.0
 10
27.0458273866
 20
81.246390955
 30
0.0
 10
26.9909931811
 20
81.2147326007
 30
0.0
  0
SPLINE
  5
34A
100
AcDbEntity
  8
0
100
AcDbSpline
 62
7
  6
BYLAYER
 70
0
 71
3
 72
11
 73
7
 74
0
 42
0.0000001
 43
0.0000001
 44
0.0000000001
 40
0.0
 40
0.0
 40
0.0
 40
0.0
 40
0.2118175243
 40
0.4500883414
 40
0.7142306304
 40
1.0
 40
1.0
 40
1.0
 40
1.0
 10
63.5775535177
 20
80.3232946245
 30
0.0
 10
63.8138854708
 20
80.3065809508
 30
0.0
 10
64.3115632014
 20
80.1956404459
 30
0.0
 10
65.0380713222
 20
79.8525159039
 30
0.0
 10
65.7603534681
 20
79.3405058343
 30
0.0
 10
66.2062248592
 20
78.9135681145
 30
0.0
 10
66.4227650565
 20
78.6784525062
 30
0.0
  0
SPLINE
  5
34B
100
AcDbEntity
  8
0
100
AcDbSpline
 62
7
  6
BYLAYER
 70
0
 71
3
 72
11
 73
7
 74
0
 42
0.0000001
 43
0.0000001
 44
0.0000000001
 40
0.0
 40
0.0
 40
0.0
 40
0.0
 40
0.2177648073
 40
0.4508950352
 40
0.7103684932
 40
1.0
 40
1.0
 40
1.0
 40
1.0
 10
38.9993267299
 20
73.5602183691
 30
0.0
 10
38.9993456399
 20
73.6078244174
 30
0.0
 10
39.0168638065
 20
73.7070628931
 30
0.0
 10
39.0921354596
 20
73.8453399923
 30
0.0
 10
39.211081184
 20
73.9703028967
 30
0.0
 10
39.3105791657
 20
74.0388610422
 30
0.0
 10
39.3654133712
 20
74.0705193966
 30
0.0
  0
SPLINE
  5
34C
100
AcDbEntity
  8
0
100
AcDbSpline
 62
7
  6
BYLAYER
 70
0
 71
3
 72
11
 73
7
 74
0
 42
0.0000001
 43
0.0000001
 44
0.0000000001
 40
0.0
 40
0.0
 40
0.0
 40
0.0
 40
0.2177648073
 40
0.4508950352
 40
0.7103684932
 40
1.0
 40
1.0
 40
1.0
 40
1.0
 10
24.857132227
 20
81.7250334595
 30
0.0
 10
24.8571511369
 20
81.7726395078
 30
0.0
 10
24.8746693035
 20
81.8718779835
 30
0.0
 10
24.9499409567
 20
82.0101550827
 30
0.0
 10
25.0688866811
 20
82.1351179871
 30
0.0
 10
25.1683846628
 20
82.2036761327
 30
0.0
 10
25.2232188683
 20
82.235334487
 30
0.0
  0
SPLINE
  5
34D
100
AcDbEntity
  8
0
100
AcDbSpline
 62
7
  6
BYLAYER
 70
0
 71
3
 72
11
 73
7
 74
0
 42
0.0000001
 43
0.0000001
 44
0.0000000001
 40
0.0
 40
0.0
 40
0.0
 40
0.0
 40
0.2746650949
 40
0.4697527128
 40
0.6554167977
 40
1.0
 40
1.0
 40
1.0
 40
1.0
 10
31.2335926527
 20
86.9301371575
 30
0.0
 10
30.8983355274
 20
86.7365775213
 30
0.0
 10
30.3402902933
 20
86.3775527504
 30
0.0
 10
29.6153915843
 20
85.8028522402
 30
0.0
 10
28.8759015148
 20
85.0959700272
 30
0.0
 10
28.4137219579
 20
84.4981407445
 30
0.0
 10
28.1686328039
 20
84.0788527666
 30
0.0
  0
SPLINE
  5
34E
100
AcDbEntity
  8
0
100
AcDbSpline
 62
7
  6
BYLAYER
 70
0
 71
3
 72
11
 73
7
 74
0
 42
0.0000001
 43
0.0000001
 44
0.0000000001
 40
0.0
 40
0.0
 40
0.0
 40
0.0
 40
0.2648329853
 40
0.5209618046
 40
0.7665137353
 40
1.0
 40
1.0
 40
1.0
 40
1.0
 10
36.1722071652
 20
88.6996909959
 30
0.0
 10
35.7157337292
 20
88.6107492898
 30
0.0
 10
34.8235549647
 20
88.4041999915
 30
0.0
 10
33.5374016561
 20
88.0026891238
 30
0.0
 10
32.3389956791
 20
87.5187417974
 30
0.0
 10
31.5886735764
 20
87.1351420006
 30
0.0
 10
31.2335926527
 20
86.9301371575
 30
0.0
  0
SPLINE
  5
34F
100
AcDbEntity
  8
0
100
AcDbSpline
 62
7
  6
BYLAYER
 70
0
 71
3
 72
9
 73
5
 74
0
 42
0.0000001
 43
0.0000001
 44
0.0000000001
 40
0.0
 40
0.0
 40
0.0
 40
0.0
 40
0.2638124676
 40
1.0
 40
1.0
 40
1.0
 40
1.0
 10
38.4814084561
 20
90.9105185076
 30
0.0
 10
38.4434858242
 20
90.8886239965
 30
0.0
 10
38.3021277015
 20
90.8016776922
 30
0.0
 10
38.170520543
 20
90.6979950196
 30
0.0
 10
38.0841140553
 20
90.6115889364
 30
0.0
  0
SPLINE
  5
350
100
AcDbEntity
  8
0
100
AcDbSpline
 62
7
  6
BYLAYER
 70
0
 71
3
 72
15
 73
11
 74
0
 42
0.0000001
 43
0.0000001
 44
0.0000000001
 40
0.0
 40
0.0
 40
0.0
 40
0.0
 40
0.1034794341
 40
0.219866301
 40
0.3470388375
 40
0.4813806361
 40
0.6184345396
 40
0.7534502934
 40
0.8818975923
 40
1.0
 40
1.0
 40
1.0
 40
1.0
 10
42.4142410742
 20
90.6115993448
 30
0.0
 10
42.3125580651
 20
90.7132799226
 30
0.0
 10
42.0661221048
 20
90.8994422774
 30
0.0
 10
41.6289361261
 20
91.1083379882
 30
0.0
 10
41.1226743409
 20
91.2555206981
 30
0.0
 10
40.5726408479
 20
91.3336154753
 30
0.0
 10
40.006299161
 20
91.3388874593
 30
0.0
 10
39.4521371648
 20
91.2709948775
 30
0.0
 10
38.9382395874
 20
91.1334653236
 30
0.0
 10
38.6235412136
 20
90.9925784035
 30
0.0
 10
38.4814084561
 20
90.9105185076
 30
0.0
  0
SPLINE
  5
351
100
AcDbEntity
  8
0
100
AcDbSpline
 62
7
  6
BYLAYER
 70
0
 71
3
 72
15
 73
11
 74
0
 42
0.0000001
 43
0.0000001
 44
0.0000000001
 40
0.0
 40
0.0
 40
0.0
 40
0.0
 40
0.100726756
 40
0.2082228795
 40
0.3230329681
 40
0.4453260807
 40
0.5748491483
 40
0.7110291537
 40
0.853105587
 40
1.0
 40
1.0
 40
1.0
 40
1.0
 10
52.3298165445
 20
84.078910843
 30
0.0
 10
52.1688859897
 20
84.3542163444
 30
0.0
 10
51.7871865017
 20
84.8955945513
 30
0.0
 10
51.0806780659
 20
85.6390642598
 30
0.0
 10
50.232683979
 20
86.3296382593
 30
0.0
 10
49.2547693706
 20
86.9587834234
 30
0.0
 10
48.1594651256
 20
87.5187728963
 30
0.0
 10
46.9609336051
 20
88.0027148306
 30
0.0
 10
45.6748603239
 20
88.4042347792
 30
0.0
 10
44.7826457745
 20
88.6107719575
 30
0.0
 10
44.3261755388
 20
88.6997105956
 30
0.0
  0
SPLINE
  5
352
100
AcDbEntity
  8
0
100
AcDbSpline
 62
7
  6
BYLAYER
 70
0
 71
3
 72
9
 73
5
 74
0
 42
0.0000001
 43
0.0000001
 44
0.0000000001
 40
0.0
 40
0.0
 40
0.0
 40
0.0
 40
0.5203775779
 40
1.0
 40
1.0
 40
1.0
 40
1.0
 10
32.8953005068
 20
80.4185549479
 30
0.0
 10
32.5496548442
 20
80.2189975227
 30
0.0
 10
31.9077453746
 20
79.7946910203
 30
0.0
 10
31.3340600441
 20
79.2797925006
 30
0.0
 10
31.0837223325
 20
79.0102542511
 30
0.0
  0
SPLINE
  5
353
100
AcDbEntity
  8
0
100
AcDbSpline
 62
7
  6
BYLAYER
 70
0
 71
3
 72
9
 73
5
 74
0
 42
0.0000001
 43
0.0000001
 44
0.0000000001
 40
0.0
 40
0.0
 40
0.0
 40
0.0
 40
0.2398166027
 40
1.0
 40
1.0
 40
1.0
 40
1.0
 10
33.8950828401
 20
77.0287198647
 30
0.0
 10
33.9672813431
 20
77.0922309932
 30
0.0
 10
34.2757911172
 20
77.3485549901
 30
0.0
 10
34.6112380211
 20
77.5717241657
 30
0.0
 10
34.8752077372
 20
77.7241262427
 30
0.0
  0
SPLINE
  5
354
100
AcDbEntity
  8
0
100
AcDbSpline
 62
7
  6
BYLAYER
 70
0
 71
3
 72
9
 73
5
 74
0
 42
0.0000001
 43
0.0000001
 44
0.0000000001
 40
0.0
 40
0.0
 40
0.0
 40
0.0
 40
0.2582095178
 40
1.0
 40
1.0
 40
1.0
 40
1.0
 10
33.5316992594
 20
78.4997836763
 30
0.0
 10
33.44032388
 20
78.4470283913
 30
0.0
 10
33.0901257311
 20
78.2364678641
 30
0.0
 10
32.7550036538
 20
78.0003412333
 30
0.0
 10
32.5192466272
 20
77.8098232185
 30
0.0
  0
SPLINE
  5
355
100
AcDbEntity
  8
0
100
AcDbSpline
 62
7
  6
BYLAYER
 70
0
 71
3
 72
11
 73
7
 74
0
 42
0.0000001
 43
0.0000001
 44
0.0000000001
 40
0.0
 40
0.0
 40
0.0
 40
0.0
 40
0.2664733448
 40
0.5243221114
 40
0.7698303996
 40
1.0
 40
1.0
 40
1.0
 40
1.0
 10
38.7492025922
 20
80.037441079
 30
0.0
 10
38.264710889
 20
79.9927129195
 30
0.0
 10
37.3147543125
 20
79.8614231785
 30
0.0
 10
35.9449872448
 20
79.5359153024
 30
0.0
 10
34.6787591386
 20
79.0918702899
 30
0.0
 10
33.8956601381
 20
78.7099153332
 30
0.0
 10
33.5316992594
 20
78.4997836763
 30
0.0
  0
SPLINE
  5
356
100
AcDbEntity
  8
0
100
AcDbSpline
 62
7
  6
BYLAYER
 70
0
 71
3
 72
11
 73
7
 74
0
 42
0.0000001
 43
0.0000001
 44
0.0000000001
 40
0.0
 40
0.0
 40
0.0
 40
0.0
 40
0.2308094058
 40
0.4762703106
 40
0.7337658192
 40
1.0
 40
1.0
 40
1.0
 40
1.0
 10
34.8752077372
 20
77.7241262427
 30
0.0
 10
35.1471116843
 20
77.8811091227
 30
0.0
 10
35.7297619201
 20
78.1684956991
 30
0.0
 10
36.6694961381
 20
78.50982344
 30
0.0
 10
37.6849230216
 20
78.7684927994
 30
0.0
 10
38.3894776539
 20
78.8811668725
 30
0.0
 10
38.7492106289
 20
78.9229815165
 30
0.0
  0
SPLINE
  5
357
100
AcDbEntity
  8
0
100
AcDbSpline
 62
7
  6
BYLAYER
 70
0
 71
3
 72
11
 73
7
 74
0
 42
0.0000001
 43
0.0000001
 44
0.0000000001
 40
0.0
 40
0.0
 40
0.0
 40
0.0
 40
0.2323073895
 40
0.4779249209
 40
0.7347387969
 40
1.0
 40
1.0
 40
1.0
 40
1.0
 10
35.7290984639
 20
76.4201087092
 30
0.0
 10
35.9443639986
 20
76.5403578019
 30
0.0
 10
36.4019759777
 20
76.7619353179
 30
0.0
 10
37.1354255677
 20
77.0301901744
 30
0.0
 10
37.9239431455
 20
77.239619867
 30
0.0
 10
38.4702659227
 20
77.3365748784
 30
0.0
 10
38.7492153167
 20
77.3747717595
 30
0.0
  0
SPLINE
  5
358
100
AcDbEntity
  8
0
100
AcDbSpline
 62
7
  6
BYLAYER
 70
0
 71
3
 72
9
 73
5
 74
0
 42
0.0000001
 43
0.0000001
 44
0.0000000001
 40
0.0
 40
0.0
 40
0.0
 40
0.0
 40
0.5157815295
 40
1.0
 40
1.0
 40
1.0
 40
1.0
 10
38.7492153167
 20
76.9665205509
 30
0.0
 10
38.3091824927
 20
76.9062663191
 30
0.0
 10
37.4622778298
 20
76.7364303518
 30
0.0
 10
36.6459253786
 20
76.4507511596
 30
0.0
 10
36.265391499
 20
76.2803114918
 30
0.0
  0
SPLINE
  5
359
100
AcDbEntity
  8
0
100
AcDbSpline
 62
7
  6
BYLAYER
 70
0
 71
3
 72
9
 73
5
 74
0
 42
0.0000001
 43
0.0000001
 44
0.0000000001
 40
0.0
 40
0.0
 40
0.0
 40
0.0
 40
0.4835322183
 40
1.0
 40
1.0
 40
1.0
 40
1.0
 10
44.2932144801
 20
76.2530705349
 30
0.0
 10
43.9051311769
 20
76.4311349728
 30
0.0
 10
43.0694269992
 20
76.7290521629
 30
0.0
 10
42.2010672845
 20
76.9046574149
 30
0.0
 10
41.7492153167
 20
76.966527762
 30
0.0
  0
SPLINE
  5
35A
100
AcDbEntity
  8
0
100
AcDbSpline
 62
7
  6
BYLAYER
 70
0
 71
3
 72
11
 73
7
 74
0
 42
0.0000001
 43
0.0000001
 44
0.0000000001
 40
0.0
 40
0.0
 40
0.0
 40
0.0
 40
0.2216134081
 40
0.4603055876
 40
0.7194608953
 40
1.0
 40
1.0
 40
1.0
 40
1.0
 10
20.9773139694
 20
76.238738948
 30
0.0
 10
20.8022385337
 20
76.209787312
 30
0.0
 10
20.4306853926
 20
76.1925119797
 30
0.0
 10
19.858349109
 20
76.2807999551
 30
0.0
 10
19.2646632802
 20
76.4785448914
 30
0.0
 10
18.87700211
 20
76.6727851465
 30
0.0
 10
18.6824597986
 20
76.7851016615
 30
0.0
  0
SPLINE
  5
35B
100
AcDbEntity
  8
0
100
AcDbSpline
 62
7
  6
BYLAYER
 70
0
 71
3
 72
9
 73
5
 74
0
 42
0.0000001
 43
0.0000001
 44
0.0000000001
 40
0.0
 40
0.0
 40
0.0
 40
0.0
 40
0.2744708762
 40
1.0
 40
1.0
 40
1.0
 40
1.0
 10
24.3393317118
 20
82.7456354301
 30
0.0
 10
24.2762379573
 20
82.7092084514
 30
0.0
 10
24.0530903801
 20
82.5663095264
 30
0.0
 10
23.8553512274
 20
82.3757265516
 30
0.0
 10
23.7537666187
 20
82.2121171107
 30
0.0
  0
SPLINE
  5
35C
100
AcDbEntity
  8
0
100
AcDbSpline
 62
7
  6
BYLAYER
 70
0
 71
3
 72
9
 73
5
 74
0
 42
0.0000001
 43
0.0000001
 44
0.0000000001
 40
0.0
 40
0.0
 40
0.0
 40
0.0
 40
0.2536228653
 40
1.0
 40
1.0
 40
1.0
 40
1.0
 10
23.7382363857
 20
82.1863377799
 30
0.0
 10
23.7328988508
 20
82.177199334
 30
0.0
 10
23.7123759704
 20
82.140866021
 30
0.0
 10
23.6939851373
 20
82.1033217947
 30
0.0
 10
23.6816245683
 20
82.0747352691
 30
0.0
  0
SPLINE
  5
35D
100
AcDbEntity
  8
0
100
AcDbSpline
 62
7
  6
BYLAYER
 70
0
 71
3
 72
9
 73
5
 74
0
 42
0.0000001
 43
0.0000001
 44
0.0000000001
 40
0.0
 40
0.0
 40
0.0
 40
0.0
 40
0.2604037577
 40
1.0
 40
1.0
 40
1.0
 40
1.0
 10
24.8570970106
 20
82.9750126693
 30
0.0
 10
24.8104210334
 20
82.9594540831
 30
0.0
 10
24.6325695222
 20
82.8957045011
 30
0.0
 10
24.4603499121
 20
82.8155049036
 30
0.0
 10
24.3393317118
 20
82.7456354301
 30
0.0
  0
SPLINE
  5
35E
100
AcDbEntity
  8
0
100
AcDbSpline
 62
7
  6
BYLAYER
 70
0
 71
3
 72
25
 73
21
 74
0
 42
0.0000001
 43
0.0000001
 44
0.0000000001
 40
0.0
 40
0.0
 40
0.0
 40
0.0
 40
0.0623788889
 40
0.1287245092
 40
0.1983140248
 40
0.2702912516
 40
0.3436675248
 40
0.4174003098
 40
0.4904259615
 40
0.5617133321
 40
0.6303109289
 40
0.6953985744
 40
0.7563462069
 40
0.812783584
 40
0.8646840582
 40
0.9124584867
 40
0.9351028115
 40
0.9571078965
 40
0.9786681861
 40
1.0
 40
1.0
 40
1.0
 40
1.0
 10
32.8953005068
 20
85.9707713844
 30
0.0
 10
33.2689266939
 20
86.1864832764
 30
0.0
 10
34.0696897884
 20
86.5812756277
 30
0.0
 10
35.3613667659
 20
87.0493437736
 30
0.0
 10
36.7572756976
 20
87.4036610775
 30
0.0
 10
38.2274281356
 20
87.6368125143
 30
0.0
 10
39.7407472804
 20
87.7437861176
 30
0.0
 10
41.2649107287
 20
87.7223557494
 30
0.0
 10
42.767420852
 20
87.5729375621
 30
0.0
 10
44.2162403433
 20
87.2987207201
 30
0.0
 10
45.5805878936
 20
86.905511703
 30
0.0
 10
46.8316288512
 20
86.4015044429
 30
0.0
 10
47.9430737334
 20
85.7970216512
 30
0.0
 10
48.8916868846
 20
85.103818309
 30
0.0
 10
49.6571357113
 20
84.3353120479
 30
0.0
 10
50.1362870765
 20
83.630215452
 30
0.0
 10
50.4033027675
 20
83.0480650983
 30
0.0
 10
50.5448359627
 20
82.6113775409
 30
0.0
 10
50.6302064709
 20
82.1695998214
 30
0.0
 10
50.6492066499
 20
81.8726029418
 30
0.0
 10
50.6492068972
 20
81.7250675616
 30
0.0
  0
SPLINE
  5
35F
100
AcDbEntity
  8
0
100
AcDbSpline
 62
7
  6
BYLAYER
 70
0
 71
3
 72
11
 73
7
 74
0
 42
0.0000001
 43
0.0000001
 44
0.0000000001
 40
0.0
 40
0.0
 40
0.0
 40
0.0
 40
0.229188351
 40
0.4749628972
 40
0.7334801953
 40
1.0
 40
1.0
 40
1.0
 40
1.0
 10
46.2597390793
 20
60.8637122352
 30
0.0
 10
46.0031150179
 20
61.0118708543
 30
0.0
 10
45.4948087452
 20
61.3606408794
 30
0.0
 10
44.785857077
 20
61.9936289622
 30
0.0
 10
44.120765168
 20
62.7383960144
 30
0.0
 10
43.7230531902
 20
63.2902249157
 30
0.0
 10
43.535760044
 20
63.5794700703
 30
0.0
  0
SPLINE
  5
360
100
AcDbEntity
  8
0
100
AcDbSpline
 62
7
  6
BYLAYER
 70
0
 71
3
 72
12
 73
8
 74
0
 42
0.0000001
 43
0.0000001
 44
0.0000000001
 40
0.0
 40
0.0
 40
0.0
 40
0.0
 40
0.2207283179
 40
0.3397718493
 40
0.4640243183
 40
0.7256312886
 40
1.0
 40
1.0
 40
1.0
 40
1.0
 10
48.0137936777
 20
77.7816646832
 30
0.0
 10
47.6297740479
 20
78.0961785488
 30
0.0
 10
46.9850987413
 20
78.5169856689
 30
0.0
 10
46.0481334306
 20
78.9773209751
 30
0.0
 10
44.9927442952
 20
79.3991050053
 30
0.0
 10
43.5586958009
 20
79.8009561203
 30
0.0
 10
42.3635944002
 20
79.9807308128
 30
0.0
 10
41.7492025922
 20
80.0374482901
 30
0.0
  0
SPLINE
  5
361
100
AcDbEntity
  8
0
100
AcDbSpline
 62
7
  6
BYLAYER
 70
0
 71
3
 72
12
 73
8
 74
0
 42
0.0000001
 43
0.0000001
 44
0.0000000001
 40
0.0
 40
0.0
 40
0.0
 40
0.0
 40
0.2754893572
 40
0.537200568
 40
0.6612291003
 40
0.7799651465
 40
1.0
 40
1.0
 40
1.0
 40
1.0
 10
41.7492106289
 20
78.9229887276
 30
0.0
 10
42.226656059
 20
78.8674938108
 30
0.0
 10
43.1525023491
 20
78.7063815355
 30
0.0
 10
44.2594342936
 20
78.3688525047
 30
0.0
 10
45.0696670309
 20
78.0227402339
 30
0.0
 10
45.7859818065
 20
77.6493073151
 30
0.0
 10
46.276414435
 20
77.3113162208
 30
0.0
 10
46.5670026676
 20
77.0604338147
 30
0.0
  0
SPLINE
  5
362
100
AcDbEntity
  8
0
100
AcDbSpline
 62
7
  6
BYLAYER
 70
0
 71
3
 72
17
 73
13
 74
0
 42
0.0000001
 43
0.0000001
 44
0.0000000001
 40
0.0
 40
0.0
 40
0.0
 40
0.0
 40
0.128688448
 40
0.2702796817
 40
0.4174325464
 40
0.5617749928
 40
0.6954478191
 40
0.8127119577
 40
0.8646769781
 40
0.912510124
 40
0.9571398159
 40
1.0
 40
1.0
 40
1.0
 40
1.0
 10
39.3654133712
 20
74.0705193966
 30
0.0
 10
39.4579424823
 20
74.1239407849
 30
0.0
 10
39.6674451802
 20
74.2103809012
 30
0.0
 10
40.0088887135
 20
74.278695832
 30
0.0
 10
40.3700284365
 20
74.2886930553
 30
0.0
 10
40.7213885492
 20
74.2393209813
 30
0.0
 10
41.0344875898
 20
74.134742369
 30
0.0
 10
41.252248236
 20
74.0021888282
 30
0.0
 10
41.3800405312
 20
73.8739324138
 30
0.0
 10
41.4479318695
 20
73.7740785713
 30
0.0
 10
41.4897666779
 20
73.6687527846
 30
0.0
 10
41.4992884601
 20
73.5958030933
 30
0.0
 10
41.4992743254
 20
73.5602185378
 30
0.0
  0
SPLINE
  5
363
100
AcDbEntity
  8
0
100
AcDbSpline
 62
7
  6
BYLAYER
 70
0
 71
3
 72
11
 73
7
 74
0
 42
0.0000001
 43
0.0000001
 44
0.0000000001
 40
0.0
 40
0.0
 40
0.0
 40
0.0
 40
0.2659633901
 40
0.523120253
 40
0.7685021117
 40
1.0
 40
1.0
 40
1.0
 40
1.0
 10
41.7492153167
 20
77.3747789706
 30
0.0
 10
42.0364768205
 20
77.3354453608
 30
0.0
 10
42.598649889
 20
77.2350229107
 30
0.0
 10
43.4085955424
 20
77.0165112465
 30
0.0
 10
44.1593133762
 20
76.7359562213
 30
0.0
 10
44.6258418274
 20
76.5036447807
 30
0.0
 10
44.844424751
 20
76.3775033514
 30
0.0
  0
SPLINE
  5
364
100
AcDbEntity
  8
0
100
AcDbSpline
 62
7
  6
BYLAYER
 70
0
 71
3
 72
17
 73
13
 74
0
 42
0.0000001
 43
0.0000001
 44
0.0000000001
 40
0.0
 40
0.0
 40
0.0
 40
0.0
 40
0.128688448
 40
0.2702796817
 40
0.4174325464
 40
0.5617749928
 40
0.6954478191
 40
0.8127119577
 40
0.8646769781
 40
0.912510124
 40
0.9571398159
 40
1.0
 40
1.0
 40
1.0
 40
1.0
 10
25.2232188683
 20
82.235334487
 30
0.0
 10
25.3157479794
 20
82.2887558753
 30
0.0
 10
25.5252506772
 20
82.3751959916
 30
0.0
 10
25.8666942106
 20
82.4435109224
 30
0.0
 10
26.2278339336
 20
82.4535081457
 30
0.0
 10
26.5791940463
 20
82.4041360717
 30
0.0
 10
26.8922930869
 20
82.2995574595
 30
0.0
 10
27.110053733
 20
82.1670039186
 30
0.0
 10
27.2378460282
 20
82.0387475042
 30
0.0
 10
27.3057373666
 20
81.9388936617
 30
0.0
 10
27.347572175
 20
81.833567875
 30
0.0
 10
27.3570939572
 20
81.7606181837
 30
0.0
 10
27.3570798224
 20
81.7250336282
 30
0.0
  0
SPLINE
  5
365
100
AcDbEntity
  8
0
100
AcDbSpline
 62
7
  6
BYLAYER
 70
0
 71
3
 72
11
 73
7
 74
0
 42
0.0000001
 43
0.0000001
 44
0.0000000001
 40
0.0
 40
0.0
 40
0.0
 40
0.0
 40
0.2177648073
 40
0.4508950352
 40
0.7103684932
 40
1.0
 40
1.0
 40
1.0
 40
1.0
 10
53.1414034742
 20
81.7251014465
 30
0.0
 10
53.1414223841
 20
81.7727074948
 30
0.0
 10
53.1589405507
 20
81.8719459705
 30
0.0
 10
53.2342122039
 20
82.0102230697
 30
0.0
 10
53.3531579283
 20
82.1351859741
 30
0.0
 10
53.45265591
 20
82.2037441197
 30
0.0
 10
53.5074901155
 20
82.235402474
 30
0.0
  0
SPLINE
  5
366
100
AcDbEntity
  8
0
100
AcDbSpline
 62
7
  6
BYLAYER
 70
0
 71
3
 72
17
 73
13
 74
0
 42
0.0000001
 43
0.0000001
 44
0.0000000001
 40
0.0
 40
0.0
 40
0.0
 40
0.0
 40
0.128688448
 40
0.2702796817
 40
0.4174325464
 40
0.5617749928
 40
0.6954478191
 40
0.8127119577
 40
0.8646769781
 40
0.912510124
 40
0.9571398159
 40
1.0
 40
1.0
 40
1.0
 40
1.0
 10
39.3652956125
 20
90.4002175644
 30
0.0
 10
39.4578247236
 20
90.4536389527
 30
0.0
 10
39.6673274215
 20
90.540079069
 30
0.0
 10
40.0087709549
 20
90.6083939999
 30
0.0
 10
40.3699106779
 20
90.6183912232
 30
0.0
 10
40.7212707906
 20
90.5690191491
 30
0.0
 10
41.0343698311
 20
90.4644405369
 30
0.0
 10
41.2521304773
 20
90.331886996
 30
0.0
 10
41.3799227725
 20
90.2036305816
 30
0.0
 10
41.4478141109
 20
90.1037767391
 30
0.0
 10
41.4896489193
 20
89.9984509524
 30
0.0
 10
41.4991707015
 20
89.9255012611
 30
0.0
 10
41.4991565667
 20
89.8899167056
 30
0.0
  0
SPLINE
  5
367
100
AcDbEntity
  8
0
100
AcDbSpline
 62
7
  6
BYLAYER
 70
0
 71
3
 72
17
 73
13
 74
0
 42
0.0000001
 43
0.0000001
 44
0.0000000001
 40
0.0
 40
0.0
 40
0.0
 40
0.0
 40
0.128688448
 40
0.2702796817
 40
0.4174325464
 40
0.5617749928
 40
0.6954478191
 40
0.8127119577
 40
0.8646769781
 40
0.912510124
 40
0.9571398159
 40
1.0
 40
1.0
 40
1.0
 40
1.0
 10
53.5074901155
 20
82.235402474
 30
0.0
 10
53.6000192266
 20
82.2888238623
 30
0.0
 10
53.8095219245
 20
82.3752639786
 30
0.0
 10
54.1509654578
 20
82.4435789095
 30
0.0
 10
54.5121051808
 20
82.4535761328
 30
0.0
 10
54.8634652935
 20
82.4042040587
 30
0.0
 10
55.1765643341
 20
82.2996254465
 30
0.0
 10
55.3943249802
 20
82.1670719056
 30
0.0
 10
55.5221172755
 20
82.0388154912
 30
0.0
 10
55.5900086138
 20
81.9389616487
 30
0.0
 10
55.6318434222
 20
81.833635862
 30
0.0
 10
55.6413652044
 20
81.7606861707
 30
0.0
 10
55.6413510696
 20
81.7251016152
 30
0.0
  0
SPLINE
  5
368
100
AcDbEntity
  8
0
100
AcDbSpline
 62
7
  6
BYLAYER
 70
0
 71
3
 72
10
 73
6
 74
0
 42
0.0000001
 43
0.0000001
 44
0.0000000001
 40
0.0
 40
0.0
 40
0.0
 40
0.0
 40
0.2263226905
 40
0.5943796185
 40
1.0
 40
1.0
 40
1.0
 40
1.0
 10
28.1686328039
 20
84.7320547003
 30
0.0
 10
28.3295617482
 20
85.007365013
 30
0.0
 10
28.8144452442
 20
85.6950038426
 30
0.0
 10
29.8307890645
 20
86.6845028204
 30
0.0
 10
30.7386323268
 20
87.2975753195
 30
0.0
 10
31.2335926527
 20
87.5833390912
 30
0.0
  0
SPLINE
  5
369
100
AcDbEntity
  8
0
100
AcDbSpline
 62
7
  6
BYLAYER
 70
0
 71
3
 72
9
 73
5
 74
0
 42
0.0000001
 43
0.0000001
 44
0.0000000001
 40
0.0
 40
0.0
 40
0.0
 40
0.0
 40
0.239457577
 40
1.0
 40
1.0
 40
1.0
 40
1.0
 10
24.3393317118
 20
83.3988373638
 30
0.0
 10
24.37851561
 20
83.421460063
 30
0.0
 10
24.5448641959
 20
83.5112134102
 30
0.0
 10
24.7207666204
 20
83.5827713523
 30
0.0
 10
24.8570970106
 20
83.628214603
 30
0.0
  0
SPLINE
  5
36A
100
AcDbEntity
  8
0
100
AcDbSpline
 62
7
  6
BYLAYER
 70
0
 71
3
 72
11
 73
7
 74
0
 42
0.0000001
 43
0.0000001
 44
0.0000000001
 40
0.0
 40
0.0
 40
0.0
 40
0.0
 40
0.2177648073
 40
0.4508950352
 40
0.7103684932
 40
1.0
 40
1.0
 40
1.0
 40
1.0
 10
38.9992089713
 20
89.8899165369
 30
0.0
 10
38.9992278812
 20
89.9375225852
 30
0.0
 10
39.0167460478
 20
90.0367610609
 30
0.0
 10
39.0920177009
 20
90.1750381601
 30
0.0
 10
39.2109634254
 20
90.3000010645
 30
0.0
 10
39.310461407
 20
90.3685592101
 30
0.0
 10
39.3652956125
 20
90.4002175644
 30
0.0
  0
SPLINE
  5
36B
100
AcDbEntity
  8
0
100
AcDbSpline
 62
7
  6
BYLAYER
 70
0
 71
3
 72
13
 73
9
 74
0
 42
0.0000001
 43
0.0000001
 44
0.0000000001
 40
0.0
 40
0.0
 40
0.0
 40
0.0
 40
0.301404627
 40
0.5659799009
 40
0.6844982198
 40
0.7948678647
 40
0.8990975547
 40
1.0
 40
1.0
 40
1.0
 40
1.0
 10
55.6413682579
 20
83.6282885993
 30
0.0
 10
55.8204639159
 20
83.5685914741
 30
0.0
 10
56.1483704597
 20
83.4278330667
 30
0.0
 10
56.5000411312
 20
83.173238193
 30
0.0
 10
56.7031707399
 20
82.9385429278
 30
0.0
 10
56.8106568375
 20
82.7582511651
 30
0.0
 10
56.8765048923
 20
82.5704347055
 30
0.0
 10
56.8913451985
 20
82.4415030706
 30
0.0
 10
56.891349989
 20
82.3783034402
 30
0.0
  0
SPLINE
  5
36C
100
AcDbEntity
  8
0
100
AcDbSpline
 62
7
  6
BYLAYER
 70
0
 71
3
 72
15
 73
11
 74
0
 42
0.0000001
 43
0.0000001
 44
0.0000000001
 40
0.0
 40
0.0
 40
0.0
 40
0.0
 40
0.146894413
 40
0.2889708463
 40
0.4251508517
 40
0.5546739193
 40
0.6769670319
 40
0.7917771205
 40
0.899273244
 40
1.0
 40
1.0
 40
1.0
 40
1.0
 10
44.3261755388
 20
89.3529125293
 30
0.0
 10
44.7826457745
 20
89.2639738912
 30
0.0
 10
45.6748603239
 20
89.0574367129
 30
0.0
 10
46.9609336051
 20
88.6559167643
 30
0.0
 10
48.1594651256
 20
88.17197483
 30
0.0
 10
49.2547693706
 20
87.6119853571
 30
0.0
 10
50.232683979
 20
86.982840193
 30
0.0
 10
51.0806780659
 20
86.2922661935
 30
0.0
 10
51.7871865017
 20
85.548796485
 30
0.0
 10
52.1688859897
 20
85.0074182781
 30
0.0
 10
52.3298165445
 20
84.7321127767
 30
0.0
  0
SPLINE
  5
36D
100
AcDbEntity
  8
0
100
AcDbSpline
 62
7
  6
BYLAYER
 70
0
 71
3
 72
15
 73
11
 74
0
 42
0.0000001
 43
0.0000001
 44
0.0000000001
 40
0.0
 40
0.0
 40
0.0
 40
0.0
 40
0.1181024077
 40
0.2465497066
 40
0.3815654604
 40
0.5186193639
 40
0.6529611625
 40
0.780133699
 40
0.8965205659
 40
1.0
 40
1.0
 40
1.0
 40
1.0
 10
38.4814084561
 20
91.5637204413
 30
0.0
 10
38.6235412136
 20
91.6457803372
 30
0.0
 10
38.9382395874
 20
91.7866672573
 30
0.0
 10
39.4521371648
 20
91.9241968112
 30
0.0
 10
40.006299161
 20
91.992089393
 30
0.0
 10
40.5726408479
 20
91.986817409
 30
0.0
 10
41.1226743409
 20
91.9087226318
 30
0.0
 10
41.6289361261
 20
91.7615399219
 30
0.0
 10
42.0661221048
 20
91.5526442111
 30
0.0
 10
42.3125580651
 20
91.3664818563
 30
0.0
 10
42.4142410742
 20
91.2648012785
 30
0.0
  0
SPLINE
  5
36E
100
AcDbEntity
  8
0
100
AcDbSpline
 62
7
  6
BYLAYER
 70
0
 71
3
 72
9
 73
5
 74
0
 42
0.0000001
 43
0.0000001
 44
0.0000000001
 40
0.0
 40
0.0
 40
0.0
 40
0.0
 40
0.2366975963
 40
1.0
 40
1.0
 40
1.0
 40
1.0
 10
38.0841140553
 20
91.2647908701
 30
0.0
 10
38.1118985155
 20
91.2925752003
 30
0.0
 10
38.2337996272
 20
91.4054294181
 30
0.0
 10
38.3716722334
 20
91.5003645817
 30
0.0
 10
38.4814084561
 20
91.5637204413
 30
0.0
  0
SPLINE
  5
36F
100
AcDbEntity
  8
0
100
AcDbSpline
 62
7
  6
BYLAYER
 70
0
 71
3
 72
11
 73
7
 74
0
 42
0.0000001
 43
0.0000001
 44
0.0000000001
 40
0.0
 40
0.0
 40
0.0
 40
0.0
 40
0.2334862647
 40
0.4790381954
 40
0.7351670147
 40
1.0
 40
1.0
 40
1.0
 40
1.0
 10
31.2335926527
 20
87.5833390912
 30
0.0
 10
31.5886735764
 20
87.7883439343
 30
0.0
 10
32.3389956791
 20
88.1719437311
 30
0.0
 10
33.5374016561
 20
88.6558910575
 30
0.0
 10
34.8235549647
 20
89.0574019252
 30
0.0
 10
35.7157337292
 20
89.2639512235
 30
0.0
 10
36.1722071652
 20
89.3528929296
 30
0.0
  0
SPLINE
  5
370
100
AcDbEntity
  8
0
100
AcDbSpline
 62
7
  6
BYLAYER
 70
0
 71
3
 72
11
 73
7
 74
0
 42
0.0000001
 43
0.0000001
 44
0.0000000001
 40
0.0
 40
0.0
 40
0.0
 40
0.0
 40
0.2650017572
 40
0.5250070124
 40
0.7721726114
 40
1.0
 40
1.0
 40
1.0
 40
1.0
 10
47.5662519161
 20
65.9064617473
 30
0.0
 10
47.3293277921
 20
66.2723542333
 30
0.0
 10
46.9051348482
 20
67.0276286455
 30
0.0
 10
46.4259055059
 20
68.2076570384
 30
0.0
 10
46.1243066323
 20
69.382296088
 30
0.0
 10
46.0475726006
 20
70.1644093456
 30
0.0
 10
46.0475726006
 20
70.5391629421
 30
0.0
  0
SPLINE
  5
371
100
AcDbEntity
  8
0
100
AcDbSpline
 62
7
  6
BYLAYER
 70
0
 71
3
 72
15
 73
11
 74
0
 42
0.0000001
 43
0.0000001
 44
0.0000000001
 40
0.0
 40
0.0
 40
0.0
 40
0.0
 40
0.1141555516
 40
0.2373276756
 40
0.3669773296
 40
0.5000011
 40
0.6330247168
 40
0.7626739247
 40
0.885845342
 40
1.0
 40
1.0
 40
1.0
 40
1.0
 10
56.5127093913
 20
76.5811764194
 30
0.0
 10
56.5127093913
 20
76.2457999699
 30
0.0
 10
56.5741383595
 20
75.5479061252
 30
0.0
 10
56.8190237081
 20
74.4950574798
 30
0.0
 10
57.211315908
 20
73.428606237
 30
0.0
 10
57.7363542176
 20
72.3886543776
 30
0.0
 10
58.3744637249
 20
71.4139860667
 30
0.0
 10
59.1018936694
 20
70.5410322068
 30
0.0
 10
59.8912450053
 20
69.8025400506
 30
0.0
 10
60.4649238482
 20
69.4004014564
 30
0.0
 10
60.7553677422
 20
69.2327173895
 30
0.0
  0
SPLINE
  5
372
100
AcDbEntity
  8
0
100
AcDbSpline
 62
7
  6
BYLAYER
 70
0
 71
3
 72
12
 73
8
 74
0
 42
0.0000001
 43
0.0000001
 44
0.0000000001
 40
0.0
 40
0.0
 40
0.0
 40
0.0
 40
0.2894980995
 40
0.5486444756
 40
0.7815759116
 40
0.8917777082
 40
1.0
 40
1.0
 40
1.0
 40
1.0
 10
59.2704373194
 20
74.9890374768
 30
0.0
 10
59.2704373194
 20
75.1461175652
 30
0.0
 10
59.2942884511
 20
75.4448665629
 30
0.0
 10
59.4150149671
 20
75.8550889438
 30
0.0
 10
59.5886246792
 20
76.1381312668
 30
0.0
 10
59.7638827914
 20
76.3105853357
 30
0.0
 10
59.8616320329
 20
76.3788111289
 30
0.0
 10
59.9124989201
 20
76.4081487335
 30
0.0
  0
SPLINE
  5
373
100
AcDbEntity
  8
0
100
AcDbSpline
 62
7
  6
BYLAYER
 70
0
 71
3
 72
11
 73
7
 74
0
 42
0.0000001
 43
0.0000001
 44
0.0000000001
 40
0.0
 40
0.0
 40
0.0
 40
0.0
 40
0.2625942938
 40
0.5234867496
 40
0.7722287989
 40
1.0
 40
1.0
 40
1.0
 40
1.0
 10
60.2687388587
 20
72.2897745687
 30
0.0
 10
60.1148358878
 20
72.4940181021
 30
0.0
 10
59.8377964577
 20
72.9244452136
 30
0.0
 10
59.5229108387
 20
73.6102140143
 30
0.0
 10
59.3224878401
 20
74.3026338715
 30
0.0
 10
59.2704373194
 20
74.7672139875
 30
0.0
 10
59.2704373194
 20
74.9890374768
 30
0.0
  0
SPLINE
  5
374
100
AcDbEntity
  8
0
100
AcDbSpline
 62
7
  6
BYLAYER
 70
0
 71
3
 72
9
 73
5
 74
0
 42
0.0000001
 43
0.0000001
 44
0.0000000001
 40
0.0
 40
0.0
 40
0.0
 40
0.0
 40
0.4810700612
 40
1.0
 40
1.0
 40
1.0
 40
1.0
 10
31.9624448482
 20
78.1199374219
 30
0.0
 10
32.1833903016
 20
78.3474992176
 30
0.0
 10
32.6825224382
 20
78.7825952951
 30
0.0
 10
33.2353980689
 20
79.1452175424
 30
0.0
 10
33.5316992594
 20
79.3162860934
 30
0.0
  0
SPLINE
  5
375
100
AcDbEntity
  8
0
100
AcDbSpline
 62
7
  6
BYLAYER
 70
0
 71
3
 72
15
 73
11
 74
0
 42
0.0000001
 43
0.0000001
 44
0.0000000001
 40
0.0
 40
0.0
 40
0.0
 40
0.0
 40
0.1080109052
 40
0.2180574894
 40
0.3319949662
 40
0.4513555426
 40
0.5772634103
 40
0.7104880959
 40
0.8514445202
 40
1.0
 40
1.0
 40
1.0
 40
1.0
 10
29.8492763994
 20
81.7250675131
 30
0.0
 10
29.8492760693
 20
81.9219490623
 30
0.0
 10
29.8834239966
 20
82.3202266496
 30
0.0
 10
30.0360698345
 20
82.9084846865
 30
0.0
 10
30.2879562501
 20
83.4840914868
 30
0.0
 10
30.635975963
 20
84.0411627153
 30
0.0
 10
31.0761355373
 20
84.5747240184
 30
0.0
 10
31.6040420415
 20
85.0800592458
 30
0.0
 10
32.2144055107
 20
85.5523837328
 30
0.0
 10
32.6607926657
 20
85.8353790274
 30
0.0
 10
32.8953005068
 20
85.9707713844
 30
0.0
  0
SPLINE
  5
376
100
AcDbEntity
  8
0
100
AcDbSpline
 62
7
  6
BYLAYER
 70
0
 71
3
 72
12
 73
8
 74
0
 42
0.0000001
 43
0.0000001
 44
0.0000000001
 40
0.0
 40
0.0
 40
0.0
 40
0.0
 40
0.1081605228
 40
0.2183673881
 40
0.4513395515
 40
0.7104478739
 40
1.0
 40
1.0
 40
1.0
 40
1.0
 10
23.6071333076
 20
82.3782355019
 30
0.0
 10
23.6071297202
 20
82.4255622145
 30
0.0
 10
23.6153351016
 20
82.521313251
 30
0.0
 10
23.6651237909
 20
82.7132362613
 30
0.0
 10
23.7927371469
 20
82.9486377453
 30
0.0
 10
24.0305762309
 20
83.1983773996
 30
0.0
 10
24.2296092356
 20
83.3354894408
 30
0.0
 10
24.3393317118
 20
83.3988373638
 30
0.0
  0
SPLINE
  5
377
100
AcDbEntity
  8
0
100
AcDbSpline
 62
7
  6
BYLAYER
 70
0
 71
3
 72
9
 73
5
 74
0
 42
0.0000001
 43
0.0000001
 44
0.0000000001
 40
0.0
 40
0.0
 40
0.0
 40
0.0
 40
0.2437759857
 40
1.0
 40
1.0
 40
1.0
 40
1.0
 10
56.8322506702
 20
82.0370805642
 30
0.0
 10
56.8254517702
 20
82.0548074605
 30
0.0
 10
56.7953988844
 20
82.1266875236
 30
0.0
 10
56.7569404563
 20
82.1949688826
 30
0.0
 10
56.7242466383
 20
82.2439583252
 30
0.0
  0
SPLINE
  5
378
100
AcDbEntity
  8
0
100
AcDbSpline
 62
7
  6
BYLAYER
 70
0
 71
3
 72
10
 73
6
 74
0
 42
0.0000001
 43
0.0000001
 44
0.0000000001
 40
0.0
 40
0.0
 40
0.0
 40
0.0
 40
0.4546384153
 40
0.7170027452
 40
1.0
 40
1.0
 40
1.0
 40
1.0
 10
56.7242466383
 20
82.2439583252
 30
0.0
 10
56.612765473
 20
82.4110052007
 30
0.0
 10
56.3700281282
 20
82.6302294093
 30
0.0
 10
55.9847405501
 20
82.8461182962
 30
0.0
 10
55.7599634498
 20
82.9355558802
 30
0.0
 10
55.6413682579
 20
82.9750866656
 30
0.0
  0
SPLINE
  5
379
100
AcDbEntity
  8
0
100
AcDbSpline
 62
7
  6
BYLAYER
 70
0
 71
3
 72
12
 73
8
 74
0
 42
0.0000001
 43
0.0000001
 44
0.0000000001
 40
0.0
 40
0.0
 40
0.0
 40
0.0
 40
0.2894980995
 40
0.5486444756
 40
0.7815759116
 40
0.8917777082
 40
1.0
 40
1.0
 40
1.0
 40
1.0
 10
30.2789385884
 20
91.7269084121
 30
0.0
 10
30.2789385884
 20
91.8839885005
 30
0.0
 10
30.3027897201
 20
92.1827374983
 30
0.0
 10
30.4235162361
 20
92.5929598791
 30
0.0
 10
30.5971259482
 20
92.8760022021
 30
0.0
 10
30.7723840603
 20
93.048456271
 30
0.0
 10
30.8701333019
 20
93.1166820642
 30
0.0
 10
30.921000189
 20
93.1460196689
 30
0.0
  0
SPLINE
  5
37A
100
AcDbEntity
  8
0
100
AcDbSpline
 62
7
  6
BYLAYER
 70
0
 71
3
 72
11
 73
7
 74
0
 42
0.0000001
 43
0.0000001
 44
0.0000000001
 40
0.0
 40
0.0
 40
0.0
 40
0.0
 40
0.2625942938
 40
0.5234867496
 40
0.7722287989
 40
1.0
 40
1.0
 40
1.0
 40
1.0
 10
31.2772401277
 20
89.0276455041
 30
0.0
 10
31.1233371568
 20
89.2318890375
 30
0.0
 10
30.8462977267
 20
89.662316149
 30
0.0
 10
30.5314121076
 20
90.3480849496
 30
0.0
 10
30.330989109
 20
91.0405048068
 30
0.0
 10
30.2789385884
 20
91.5050849228
 30
0.0
 10
30.2789385884
 20
91.7269084121
 30
0.0
  0
ELLIPSE
  5
37B
100
AcDbEntity
  8
0
100
AcDbEllipse
 62
7
  6
BYLAYER
 10
40.4131598045
 20
93.4715205707
 30
0.0
 11
37.0281576376
 21
26.4902847379
 31
0.0
 40
0.0735377255
 41
2.4821494204
 42
2.4990594774
  0
ELLIPSE
  5
37C
100
AcDbEntity
  8
0
100
AcDbEllipse
 62
7
  6
BYLAYER
 10
40.4131598045
 20
86.0073311817
 30
0.0
 11
37.0609741911
 21
15.9670780993
 31
0.0
 40
0.0731308751
 41
-2.4112407489
 42
-2.3938021004
  0
ELLIPSE
  5
37D
100
AcDbEntity
  8
0
100
AcDbEllipse
 62
7
  6
BYLAYER
 10
40.4131598045
 20
93.4715205707
 30
0.0
 11
37.0281576376
 21
26.4902847379
 31
0.0
 40
0.0735377255
 41
-2.432305108
 42
-2.4148664595
  0
ELLIPSE
  5
37E
100
AcDbEntity
  8
0
100
AcDbEllipse
 62
7
  6
BYLAYER
 10
75.7686460618
 20
73.0594828447
 30
0.0
 11
37.0281576376
 21
26.4902847379
 31
0.0
 40
0.0735377255
 41
2.4821494204
 42
2.4990594774
  0
ELLIPSE
  5
37F
100
AcDbEntity
  8
0
100
AcDbEllipse
 62
7
  6
BYLAYER
 10
75.7686460618
 20
65.5952934557
 30
0.0
 11
37.0609741911
 21
15.9670780993
 31
0.0
 40
0.0731308751
 41
-2.4112407489
 42
-2.3938021004
  0
ELLIPSE
  5
380
100
AcDbEntity
  8
0
100
AcDbEllipse
 62
7
  6
BYLAYER
 10
75.7686460618
 20
73.0594828447
 30
0.0
 11
37.0281576376
 21
26.4902847379
 31
0.0
 40
0.0735377255
 41
-2.432305108
 42
-2.4148664595
  0
ENDSEC
  0
SECTION
  2
OBJECTS
  0
DICTIONARY
  5
C
100
AcDbDictionary
280
0
281
1
  3
ACAD_GROUP
350
D
  3
ACAD_MLINESTYLE
350
17
  3
ACAD_LAYOUT
350
1A
  3
ACAD_PLOTSETTINGS
350
19
  3
ACAD_PLOTSTYLENAME
350
E
  0
DICTIONARY
  5
D
102
{ACAD_REACTORS
330
C
102
}
100
AcDbDictionary
280
0
281
1
  0
ACDBDICTIONARYWDFLT
  5
E
102
{ACAD_REACTORS
330
C
102
}
100
AcDbDictionary
281
1
  3
Normal
350
F
100
AcDbDictionaryWithDefault
340
F
  0
DICTIONARY
  5
17
102
{ACAD_REACTORS
330
C
102
}
100
AcDbDictionary
280
0
281
1
  3
Standard
350
18
  0
DICTIONARY
  5
19
102
{ACAD_REACTORS
330
C
102
}
100
AcDbDictionary
281
1
  0
DICTIONARY
  5
1A
102
{ACAD_REACTORS
330
C
102
}
100
AcDbDictionary
281
1
  3
Model
350
381
  3
Layout1
350
382
  0
ACDBPLACEHOLDER
  5
F
102
{ACAD_REACTORS
330
E
102
}
  0
MLINESTYLE
  5
18
102
{ACAD_REACTORS
330
17
102
}
100
AcDbMlineStyle
  2
STANDARD
 70
0
  3

 62
256
 51
90.0
 52
90.0
 71
2
 49
0.5
 62
256
  6
BYLAYER
 49
-0.5
 62
256
  6
BYLAYER
  0
LAYOUT
  5
381
102
{ACAD_REACTORS
330
1A
102
}
100
AcDbPlotSettings
  1

  2
none_device
  4

  6

 40
0.0
 41
0.0
 42
0.0
 43
0.0
 44
210.0
 45
297.0
 46
0.0
 47
0.0
 48
0.0
 49
0.0
140
0.0
141
0.0
142
1.0
143
1.0
 70
1024
 72
1
 73
0
 74
0
  7

 75
0
147
1.0
148
0.0
149
0.0
100
AcDbLayout
  1
Model
 70
0
 71
0
 10
0.0
 20
0.0
 11
210.0
 21
297.0
 12
0.0
 22
0.0
 32
0.0
 14
0.0
 24
0.0
 34
0.0
 15
0.0
 25
0.0
 35
0.0
146
0.0
 13
0.0
 23
0.0
 33
0.0
 16
1.0
 26
0.0
 36
0.0
 17
0.0
 27
1.0
 37
0.0
 76
0
330
210
345
0
346
0
  0
LAYOUT
  5
382
102
{ACAD_REACTORS
330
1A
102
}
100
AcDbPlotSettings
  1

  2
none_device
  4

  6

 40
0.0
 41
0.0
 42
0.0
 43
0.0
 44
210.0
 45
297.0
 46
0.0
 47
0.0
 48
0.0
 49
0.0
140
0.0
141
0.0
142
1.0
143
1.0
 70
0
 72
1
 73
0
 74
0
  7

 75
0
147
1.0
148
0.0
149
0.0
100
AcDbLayout
  1
Layout1
 70
0
 71
1
 10
0.0
 20
0.0
 11
210.0
 21
297.0
 12
0.0
 22
0.0
 32
0.0
 14
0.0
 24
0.0
 34
0.0
 15
0.0
 25
0.0
 35
0.0
146
0.0
 13
0.0
 23
0.0
 33
0.0
 16
1.0
 26
0.0
 36
0.0
 17
0.0
 27
1.0
 37
0.0
 76
0
330
211
345
0
346
0
  0
ENDSEC
  0
EOF
