  0
SECTION
  2
HEADER
  9
$ACADVER
  1
AC1024
  9
$ACADMAINTVER
 70
     6
  9
$DWGCODEPAGE
  3
ANSI_1252
  9
$INSBASE
 10
0.0
 20
0.0
 30
0.0
  9
$EXTMIN
 10
1.000000000000000E+20
 20
1.000000000000000E+20
 30
1.000000000000000E+20
  9
$EXTMAX
 10
-1.000000000000000E+20
 20
-1.000000000000000E+20
 30
-1.000000000000000E+20
  9
$LIMMIN
 10
0.0
 20
0.0
  9
$LIMMAX
 10
12.0
 20
9.0
  9
$ORTHOMODE
 70
     0
  9
$REGENMODE
 70
     1
  9
$FILLMODE
 70
     1
  9
$QTEXTMODE
 70
     0
  9
$MIRRTEXT
 70
     1
  9
$LTSCALE
 40
1.0
  9
$ATTMODE
 70
     1
  9
$TEXTSIZE
 40
0.2
  9
$TRACEWID
 40
0.05
  9
$TEXTSTYLE
  7
Standard
  9
$CLAYER
  8
0
  9
$CELTYPE
  6
ByLayer
  9
$CECOLOR
 62
   256
  9
$CELTSCALE
 40
1.0
  9
$DISPSILH
 70
     0
  9
$DIMSCALE
 40
1.0
  9
$DIMASZ
 40
0.18
  9
$DIMEXO
 40
0.0625
  9
$DIMDLI
 40
0.38
  9
$DIMRND
 40
0.0
  9
$DIMDLE
 40
0.0
  9
$DIMEXE
 40
0.18
  9
$DIMTP
 40
0.0
  9
$DIMTM
 40
0.0
  9
$DIMTXT
 40
0.18
  9
$DIMCEN
 40
0.09
  9
$DIMTSZ
 40
0.0
  9
$DIMTOL
 70
     0
  9
$DIMLIM
 70
     0
  9
$DIMTIH
 70
     1
  9
$DIMTOH
 70
     1
  9
$DIMSE1
 70
     0
  9
$DIMSE2
 70
     0
  9
$DIMTAD
 70
     0
  9
$DIMZIN
 70
     0
  9
$DIMBLK
  1

  9
$DIMASO
 70
     1
  9
$DIMSHO
 70
     1
  9
$DIMPOST
  1

  9
$DIMAPOST
  1

  9
$DIMALT
 70
     0
  9
$DIMALTD
 70
     2
  9
$DIMALTF
 40
25.4
  9
$DIMLFAC
 40
1.0
  9
$DIMTOFL
 70
     0
  9
$DIMTVP
 40
0.0
  9
$DIMTIX
 70
     0
  9
$DIMSOXD
 70
     0
  9
$DIMSAH
 70
     0
  9
$DIMBLK1
  1

  9
$DIMBLK2
  1

  9
$DIMSTYLE
  2
Standard
  9
$DIMCLRD
 70
     0
  9
$DIMCLRE
 70
     0
  9
$DIMCLRT
 70
     0
  9
$DIMTFAC
 40
1.0
  9
$DIMGAP
 40
0.09
  9
$DIMJUST
 70
     0
  9
$DIMSD1
 70
     0
  9
$DIMSD2
 70
     0
  9
$DIMTOLJ
 70
     1
  9
$DIMTZIN
 70
     0
  9
$DIMALTZ
 70
     0
  9
$DIMALTTZ
 70
     0
  9
$DIMUPT
 70
     0
  9
$DIMDEC
 70
     4
  9
$DIMTDEC
 70
     4
  9
$DIMALTU
 70
     2
  9
$DIMALTTD
 70
     2
  9
$DIMTXSTY
  7
Standard
  9
$DIMAUNIT
 70
     0
  9
$DIMADEC
 70
     0
  9
$DIMALTRND
 40
0.0
  9
$DIMAZIN
 70
     0
  9
$DIMDSEP
 70
    46
  9
$DIMATFIT
 70
     3
  9
$DIMFRAC
 70
     0
  9
$DIMLDRBLK
  1

  9
$DIMLUNIT
 70
     2
  9
$DIMLWD
 70
    -2
  9
$DIMLWE
 70
    -2
  9
$DIMTMOVE
 70
     0
  9
$DIMFXL
 40
1.0
  9
$DIMFXLON
 70
     0
  9
$DIMJOGANG
 40
0.7853981633974483
  9
$DIMTFILL
 70
     0
  9
$DIMTFILLCLR
 70
     0
  9
$DIMARCSYM
 70
     0
  9
$DIMLTYPE
  6

  9
$DIMLTEX1
  6

  9
$DIMLTEX2
  6

  9
$DIMTXTDIRECTION
 70
     0
  9
$LUNITS
 70
     2
  9
$LUPREC
 70
     4
  9
$SKETCHINC
 40
0.1
  9
$FILLETRAD
 40
0.5
  9
$AUNITS
 70
     0
  9
$AUPREC
 70
     0
  9
$MENU
  1
.
  9
$ELEVATION
 40
0.0
  9
$PELEVATION
 40
0.0
  9
$THICKNESS
 40
0.0
  9
$LIMCHECK
 70
     0
  9
$CHAMFERA
 40
0.5
  9
$CHAMFERB
 40
0.5
  9
$CHAMFERC
 40
1.0
  9
$CHAMFERD
 40
0.0
  9
$SKPOLY
 70
     0
  9
$TDCREATE
 40
2459179.614501968
  9
$TDUCREATE
 40
2459179.572835301
  9
$TDUPDATE
 40
2459179.61450213
  9
$TDUUPDATE
 40
2459179.572835463
  9
$TDINDWG
 40
0.0000000116
  9
$TDUSRTIMER
 40
0.0000000116
  9
$USRTIMER
 70
     1
  9
$ANGBASE
 50
0.0
  9
$ANGDIR
 70
     0
  9
$PDMODE
 70
     0
  9
$PDSIZE
 40
0.0
  9
$PLINEWID
 40
0.0
  9
$SPLFRAME
 70
     0
  9
$SPLINETYPE
 70
     6
  9
$SPLINESEGS
 70
     8
  9
$HANDSEED
  5
168
  9
$SURFTAB1
 70
     6
  9
$SURFTAB2
 70
     6
  9
$SURFTYPE
 70
     6
  9
$SURFU
 70
     6
  9
$SURFV
 70
     6
  9
$UCSBASE
  2

  9
$UCSNAME
  2

  9
$UCSORG
 10
0.0
 20
0.0
 30
0.0
  9
$UCSXDIR
 10
1.0
 20
0.0
 30
0.0
  9
$UCSYDIR
 10
0.0
 20
1.0
 30
0.0
  9
$UCSORTHOREF
  2

  9
$UCSORTHOVIEW
 70
     0
  9
$UCSORGTOP
 10
0.0
 20
0.0
 30
0.0
  9
$UCSORGBOTTOM
 10
0.0
 20
0.0
 30
0.0
  9
$UCSORGLEFT
 10
0.0
 20
0.0
 30
0.0
  9
$UCSORGRIGHT
 10
0.0
 20
0.0
 30
0.0
  9
$UCSORGFRONT
 10
0.0
 20
0.0
 30
0.0
  9
$UCSORGBACK
 10
0.0
 20
0.0
 30
0.0
  9
$PUCSBASE
  2

  9
$PUCSNAME
  2

  9
$PUCSORG
 10
0.0
 20
0.0
 30
0.0
  9
$PUCSXDIR
 10
1.0
 20
0.0
 30
0.0
  9
$PUCSYDIR
 10
0.0
 20
1.0
 30
0.0
  9
$PUCSORTHOREF
  2

  9
$PUCSORTHOVIEW
 70
     0
  9
$PUCSORGTOP
 10
0.0
 20
0.0
 30
0.0
  9
$PUCSORGBOTTOM
 10
0.0
 20
0.0
 30
0.0
  9
$PUCSORGLEFT
 10
0.0
 20
0.0
 30
0.0
  9
$PUCSORGRIGHT
 10
0.0
 20
0.0
 30
0.0
  9
$PUCSORGFRONT
 10
0.0
 20
0.0
 30
0.0
  9
$PUCSORGBACK
 10
0.0
 20
0.0
 30
0.0
  9
$USERI1
 70
     0
  9
$USERI2
 70
     0
  9
$USERI3
 70
     0
  9
$USERI4
 70
     0
  9
$USERI5
 70
     0
  9
$USERR1
 40
0.0
  9
$USERR2
 40
0.0
  9
$USERR3
 40
0.0
  9
$USERR4
 40
0.0
  9
$USERR5
 40
0.0
  9
$WORLDVIEW
 70
     1
  9
$SHADEDGE
 70
     3
  9
$SHADEDIF
 70
    70
  9
$TILEMODE
 70
     1
  9
$MAXACTVP
 70
    64
  9
$PINSBASE
 10
0.0
 20
0.0
 30
0.0
  9
$PLIMCHECK
 70
     0
  9
$PEXTMIN
 10
1.000000000000000E+20
 20
1.000000000000000E+20
 30
1.000000000000000E+20
  9
$PEXTMAX
 10
-1.000000000000000E+20
 20
-1.000000000000000E+20
 30
-1.000000000000000E+20
  9
$PLIMMIN
 10
0.0
 20
0.0
  9
$PLIMMAX
 10
12.0
 20
9.0
  9
$UNITMODE
 70
     0
  9
$VISRETAIN
 70
     1
  9
$PLINEGEN
 70
     0
  9
$PSLTSCALE
 70
     1
  9
$TREEDEPTH
 70
  3020
  9
$CMLSTYLE
  2
Standard
  9
$CMLJUST
 70
     0
  9
$CMLSCALE
 40
1.0
  9
$PROXYGRAPHICS
 70
     1
  9
$MEASUREMENT
 70
     0
  9
$CELWEIGHT
370
    -1
  9
$ENDCAPS
280
     0
  9
$JOINSTYLE
280
     0
  9
$LWDISPLAY
290
     1
  9
$INSUNITS
 70
     5
  9
$HYPERLINKBASE
  1

  9
$STYLESHEET
  1

  9
$XEDIT
290
     1
  9
$CEPSNTYPE
380
     0
  9
$PSTYLEMODE
290
     1
  9
$FINGERPRINTGUID
  2
{BFB71ABB-8591-4F3D-9FE5-F43F14E02CCD}
  9
$VERSIONGUID
  2
{FAEB1C32-E019-11D5-929B-00C0DF256EC4}
  9
$EXTNAMES
290
     1
  9
$PSVPSCALE
 40
0.0
  9
$OLESTARTUP
290
     0
  9
$SORTENTS
280
   127
  9
$INDEXCTL
280
     0
  9
$HIDETEXT
280
     1
  9
$XCLIPFRAME
280
     2
  9
$HALOGAP
280
     0
  9
$OBSCOLOR
 70
   257
  9
$OBSLTYPE
280
     0
  9
$INTERSECTIONDISPLAY
280
     0
  9
$INTERSECTIONCOLOR
 70
   257
  9
$DIMASSOC
280
     2
  9
$PROJECTNAME
  1

  9
$CAMERADISPLAY
290
     0
  9
$LENSLENGTH
 40
50.0
  9
$CAMERAHEIGHT
 40
0.0
  9
$STEPSPERSEC
 40
2.0
  9
$STEPSIZE
 40
6.0
  9
$3DDWFPREC
 40
2.0
  9
$PSOLWIDTH
 40
0.25
  9
$PSOLHEIGHT
 40
4.0
  9
$LOFTANG1
 40
1.570796326794897
  9
$LOFTANG2
 40
1.570796326794897
  9
$LOFTMAG1
 40
0.0
  9
$LOFTMAG2
 40
0.0
  9
$LOFTPARAM
 70
     7
  9
$LOFTNORMALS
280
     1
  9
$LATITUDE
 40
37.795
  9
$LONGITUDE
 40
-122.394
  9
$NORTHDIRECTION
 40
0.0
  9
$TIMEZONE
 70
 -8000
  9
$LIGHTGLYPHDISPLAY
280
     1
  9
$TILEMODELIGHTSYNCH
280
     1
  9
$CMATERIAL
347
3C
  9
$SOLIDHIST
280
     1
  9
$SHOWHIST
280
     1
  9
$DWFFRAME
280
     2
  9
$DGNFRAME
280
     2
  9
$REALWORLDSCALE
290
     1
  9
$INTERFERECOLOR
 62
   256
  9
$CSHADOW
280
     0
  9
$SHADOWPLANELOCATION
 40
0.0
  0
ENDSEC
  0
SECTION
  2
CLASSES
  0
CLASS
  1
ACDBDICTIONARYWDFLT
  2
AcDbDictionaryWithDefault
  3
ObjectDBX Classes
 90
        0
 91
        4
280
     0
281
     0
  0
CLASS
  1
VISUALSTYLE
  2
AcDbVisualStyle
  3
ObjectDBX Classes
 90
     4095
 91
        4
280
     0
281
     0
  0
CLASS
  1
MATERIAL
  2
AcDbMaterial
  3
ObjectDBX Classes
 90
     1153
 91
        4
280
     0
281
     0
  0
CLASS
  1
SUN
  2
AcDbSun
  3
SCENEOE
 90
     1024
 91
        4
280
     0
281
     0
  0
ENDSEC
  0
SECTION
  2
TABLES
  0
TABLE
  2
VPORT
  5
8
330
0
100
AcDbSymbolTable
 70
     1
  0
VPORT
  5
29
330
8
100
AcDbSymbolTableRecord
100
AcDbViewportTableRecord
  2
*Active
 70
     0
 10
0.0
 20
0.0
 11
1.0
 21
1.0
 12
0.0
 22
0.0
 13
0.0
 23
0.0
 14
0.5
 24
0.5
 15
0.5
 25
0.5
 16
0.0
 26
0.0
 36
1.0
 17
10.50421098511697
 27
14.7571519952005
 37
0.0
 40
16.10823980609941
 41
1.153089076150734
 42
50.0
 43
0.0
 44
0.0
 50
0.0
 51
0.0
 71
     0
 72
   100
 73
     1
 74
     3
 75
     0
 76
     0
 77
     0
 78
     0
281
     0
 65
     1
110
0.0
120
0.0
130
0.0
111
1.0
121
0.0
131
0.0
112
0.0
122
1.0
132
0.0
 79
     0
146
0.0
 60
     3
 61
     5
292
     1
282
     1
141
0.0
142
0.0
 63
   250
361
3F
  0
ENDTAB
  0
TABLE
  2
LTYPE
  5
5
330
0
100
AcDbSymbolTable
 70
     1
  0
LTYPE
  5
14
330
5
100
AcDbSymbolTableRecord
100
AcDbLinetypeTableRecord
  2
ByBlock
 70
     0
  3

 72
    65
 73
     0
 40
0.0
  0
LTYPE
  5
15
330
5
100
AcDbSymbolTableRecord
100
AcDbLinetypeTableRecord
  2
ByLayer
 70
     0
  3

 72
    65
 73
     0
 40
0.0
  0
LTYPE
  5
16
330
5
100
AcDbSymbolTableRecord
100
AcDbLinetypeTableRecord
  2
Continuous
 70
     0
  3
Solid line
 72
    65
 73
     0
 40
0.0
  0
ENDTAB
  0
TABLE
  2
LAYER
  5
2
330
0
100
AcDbSymbolTable
 70
     2
  0
LAYER
  5
10
330
2
100
AcDbSymbolTableRecord
100
AcDbLayerTableRecord
  2
0
 70
     0
 62
     7
  6
Continuous
370
    -3
390
F
347
3E
  0
LAYER
  5
40
330
2
100
AcDbSymbolTableRecord
100
AcDbLayerTableRecord
  2
_Calque_
 70
     0
 62
     7
  6
Continuous
370
    -3
390
F
347
3E
  0
ENDTAB
  0
TABLE
  2
STYLE
  5
3
330
0
100
AcDbSymbolTable
 70
     1
  0
STYLE
  5
11
330
3
100
AcDbSymbolTableRecord
100
AcDbTextStyleTableRecord
  2
Standard
 70
     0
 40
0.0
 41
1.0
 50
0.0
 71
     0
 42
0.2
  3
txt
  4

  0
ENDTAB
  0
TABLE
  2
VIEW
  5
6
330
0
100
AcDbSymbolTable
 70
     0
  0
ENDTAB
  0
TABLE
  2
UCS
  5
7
330
0
100
AcDbSymbolTable
 70
     0
  0
ENDTAB
  0
TABLE
  2
APPID
  5
9
330
0
100
AcDbSymbolTable
 70
     1
  0
APPID
  5
12
330
9
100
AcDbSymbolTableRecord
100
AcDbRegAppTableRecord
  2
ACAD
 70
     0
  0
ENDTAB
  0
TABLE
  2
DIMSTYLE
  5
A
330
0
100
AcDbSymbolTable
 70
     1
100
AcDbDimStyleTable
  0
DIMSTYLE
105
27
330
A
100
AcDbSymbolTableRecord
100
AcDbDimStyleTableRecord
  2
Standard
 70
     0
178
     0
340
11
  0
ENDTAB
  0
TABLE
  2
BLOCK_RECORD
  5
1
330
0
100
AcDbSymbolTable
 70
    32
  0
BLOCK_RECORD
  5
1F
330
1
100
AcDbSymbolTableRecord
100
AcDbBlockTableRecord
  2
*Model_Space
340
22
 70
     0
280
     1
281
     0
  0
BLOCK_RECORD
  5
1B
330
1
100
AcDbSymbolTableRecord
100
AcDbBlockTableRecord
  2
*Paper_Space
340
1E
 70
     0
280
     1
281
     0
  0
BLOCK_RECORD
  5
23
330
1
100
AcDbSymbolTableRecord
100
AcDbBlockTableRecord
  2
*Paper_Space0
340
26
 70
     0
280
     1
281
     0
  0
BLOCK_RECORD
  5
41
330
1
100
AcDbSymbolTableRecord
100
AcDbBlockTableRecord
  2
block 2
340
0
102
{BLKREFS
331
42
102
}
 70
     0
280
     1
281
     0
  0
BLOCK_RECORD
  5
45
330
1
100
AcDbSymbolTableRecord
100
AcDbBlockTableRecord
  2
block 3
340
0
102
{BLKREFS
331
46
102
}
 70
     0
280
     1
281
     0
  0
BLOCK_RECORD
  5
49
330
1
100
AcDbSymbolTableRecord
100
AcDbBlockTableRecord
  2
block 4
340
0
102
{BLKREFS
331
4A
102
}
 70
     0
280
     1
281
     0
  0
BLOCK_RECORD
  5
4D
330
1
100
AcDbSymbolTableRecord
100
AcDbBlockTableRecord
  2
block 5
340
0
102
{BLKREFS
331
4E
102
}
 70
     0
280
     1
281
     0
  0
BLOCK_RECORD
  5
51
330
1
100
AcDbSymbolTableRecord
100
AcDbBlockTableRecord
  2
block 6
340
0
102
{BLKREFS
331
52
102
}
 70
     0
280
     1
281
     0
  0
BLOCK_RECORD
  5
62
330
1
100
AcDbSymbolTableRecord
100
AcDbBlockTableRecord
  2
block 7
340
0
102
{BLKREFS
331
63
102
}
 70
     0
280
     1
281
     0
  0
BLOCK_RECORD
  5
66
330
1
100
AcDbSymbolTableRecord
100
AcDbBlockTableRecord
  2
block 8
340
0
102
{BLKREFS
331
67
102
}
 70
     0
280
     1
281
     0
  0
BLOCK_RECORD
  5
6A
330
1
100
AcDbSymbolTableRecord
100
AcDbBlockTableRecord
  2
block 9
340
0
102
{BLKREFS
331
6B
102
}
 70
     0
280
     1
281
     0
  0
BLOCK_RECORD
  5
70
330
1
100
AcDbSymbolTableRecord
100
AcDbBlockTableRecord
  2
block 10
340
0
102
{BLKREFS
331
71
102
}
 70
     0
280
     1
281
     0
  0
BLOCK_RECORD
  5
74
330
1
100
AcDbSymbolTableRecord
100
AcDbBlockTableRecord
  2
block 11
340
0
102
{BLKREFS
331
75
102
}
 70
     0
280
     1
281
     0
  0
BLOCK_RECORD
  5
78
330
1
100
AcDbSymbolTableRecord
100
AcDbBlockTableRecord
  2
block 12
340
0
102
{BLKREFS
331
79
102
}
 70
     0
280
     1
281
     0
  0
BLOCK_RECORD
  5
8D
330
1
100
AcDbSymbolTableRecord
100
AcDbBlockTableRecord
  2
block 13
340
0
102
{BLKREFS
331
8E
102
}
 70
     0
280
     1
281
     0
  0
BLOCK_RECORD
  5
93
330
1
100
AcDbSymbolTableRecord
100
AcDbBlockTableRecord
  2
block 14
340
0
102
{BLKREFS
331
94
102
}
 70
     0
280
     1
281
     0
  0
BLOCK_RECORD
  5
99
330
1
100
AcDbSymbolTableRecord
100
AcDbBlockTableRecord
  2
block 15
340
0
102
{BLKREFS
331
9A
102
}
 70
     0
280
     1
281
     0
  0
BLOCK_RECORD
  5
B9
330
1
100
AcDbSymbolTableRecord
100
AcDbBlockTableRecord
  2
block 16
340
0
102
{BLKREFS
331
BA
102
}
 70
     0
280
     1
281
     0
  0
BLOCK_RECORD
  5
BF
330
1
100
AcDbSymbolTableRecord
100
AcDbBlockTableRecord
  2
block 17
340
0
102
{BLKREFS
331
C0
102
}
 70
     0
280
     1
281
     0
  0
BLOCK_RECORD
  5
D9
330
1
100
AcDbSymbolTableRecord
100
AcDbBlockTableRecord
  2
block 18
340
0
102
{BLKREFS
331
DA
102
}
 70
     0
280
     1
281
     0
  0
BLOCK_RECORD
  5
DF
330
1
100
AcDbSymbolTableRecord
100
AcDbBlockTableRecord
  2
block 19
340
0
102
{BLKREFS
331
E0
102
}
 70
     0
280
     1
281
     0
  0
BLOCK_RECORD
  5
F5
330
1
100
AcDbSymbolTableRecord
100
AcDbBlockTableRecord
  2
block 20
340
0
102
{BLKREFS
331
F6
102
}
 70
     0
280
     1
281
     0
  0
BLOCK_RECORD
  5
103
330
1
100
AcDbSymbolTableRecord
100
AcDbBlockTableRecord
  2
block 21
340
0
102
{BLKREFS
331
104
102
}
 70
     0
280
     1
281
     0
  0
BLOCK_RECORD
  5
120
330
1
100
AcDbSymbolTableRecord
100
AcDbBlockTableRecord
  2
block 22
340
0
102
{BLKREFS
331
121
102
}
 70
     0
280
     1
281
     0
  0
BLOCK_RECORD
  5
128
330
1
100
AcDbSymbolTableRecord
100
AcDbBlockTableRecord
  2
block 23
340
0
102
{BLKREFS
331
129
102
}
 70
     0
280
     1
281
     0
  0
BLOCK_RECORD
  5
130
330
1
100
AcDbSymbolTableRecord
100
AcDbBlockTableRecord
  2
block 24
340
0
102
{BLKREFS
331
131
102
}
 70
     0
280
     1
281
     0
  0
BLOCK_RECORD
  5
134
330
1
100
AcDbSymbolTableRecord
100
AcDbBlockTableRecord
  2
block 25
340
0
102
{BLKREFS
331
135
102
}
 70
     0
280
     1
281
     0
  0
BLOCK_RECORD
  5
138
330
1
100
AcDbSymbolTableRecord
100
AcDbBlockTableRecord
  2
block 26
340
0
102
{BLKREFS
331
139
102
}
 70
     0
280
     1
281
     0
  0
BLOCK_RECORD
  5
141
330
1
100
AcDbSymbolTableRecord
100
AcDbBlockTableRecord
  2
block 27
340
0
102
{BLKREFS
331
142
102
}
 70
     0
280
     1
281
     0
  0
BLOCK_RECORD
  5
147
330
1
100
AcDbSymbolTableRecord
100
AcDbBlockTableRecord
  2
block 28
340
0
102
{BLKREFS
331
148
102
}
 70
     0
280
     1
281
     0
  0
BLOCK_RECORD
  5
14F
330
1
100
AcDbSymbolTableRecord
100
AcDbBlockTableRecord
  2
block 29
340
0
102
{BLKREFS
331
150
102
}
 70
     0
280
     1
281
     0
  0
BLOCK_RECORD
  5
153
330
1
100
AcDbSymbolTableRecord
100
AcDbBlockTableRecord
  2
block 30
340
0
102
{BLKREFS
331
154
102
}
 70
     0
280
     1
281
     0
  0
BLOCK_RECORD
  5
157
330
1
100
AcDbSymbolTableRecord
100
AcDbBlockTableRecord
  2
block 31
340
0
102
{BLKREFS
331
158
102
}
 70
     0
280
     1
281
     0
  0
BLOCK_RECORD
  5
15E
330
1
100
AcDbSymbolTableRecord
100
AcDbBlockTableRecord
  2
block 32
340
0
102
{BLKREFS
331
15F
102
}
 70
     0
280
     1
281
     0
  0
ENDTAB
  0
ENDSEC
  0
SECTION
  2
BLOCKS
  0
BLOCK
  5
20
330
1F
100
AcDbEntity
  8
0
100
AcDbBlockBegin
  2
*Model_Space
 70
     0
 10
0.0
 20
0.0
 30
0.0
  3
*Model_Space
  1

  0
ENDBLK
  5
21
330
1F
100
AcDbEntity
  8
0
100
AcDbBlockEnd
  0
BLOCK
  5
1C
330
1B
100
AcDbEntity
 67
     1
  8
0
100
AcDbBlockBegin
  2
*Paper_Space
 70
     0
 10
0.0
 20
0.0
 30
0.0
  3
*Paper_Space
  1

  0
ENDBLK
  5
1D
330
1B
100
AcDbEntity
 67
     1
  8
0
100
AcDbBlockEnd
  0
BLOCK
  5
24
330
23
100
AcDbEntity
  8
0
100
AcDbBlockBegin
  2
*Paper_Space0
 70
     0
 10
0.0
 20
0.0
 30
0.0
  3
*Paper_Space0
  1

  0
ENDBLK
  5
25
330
23
100
AcDbEntity
  8
0
100
AcDbBlockEnd
  0
BLOCK
  5
43
330
41
100
AcDbEntity
  8
0
100
AcDbBlockBegin
  2
block 2
 70
     0
 10
0.0
 20
0.0
 30
0.0
  3
block 2
  1

  0
INSERT
  5
46
330
41
100
AcDbEntity
  8
_Calque_
100
AcDbBlockReference
  2
block 3
 10
0.0
 20
0.0
 30
0.0
  0
INSERT
  5
63
330
41
100
AcDbEntity
  8
_Calque_
100
AcDbBlockReference
  2
block 7
 10
0.0
 20
0.0
 30
0.0
  0
INSERT
  5
131
330
41
100
AcDbEntity
  8
_Calque_
100
AcDbBlockReference
  2
block 24
 10
0.0
 20
0.0
 30
0.0
  0
INSERT
  5
150
330
41
100
AcDbEntity
  8
_Calque_
100
AcDbBlockReference
  2
block 29
 10
0.0
 20
0.0
 30
0.0
  0
ENDBLK
  5
44
330
41
100
AcDbEntity
  8
0
100
AcDbBlockEnd
  0
BLOCK
  5
47
330
45
100
AcDbEntity
  8
0
100
AcDbBlockBegin
  2
block 3
 70
     0
 10
0.0
 20
0.0
 30
0.0
  3
block 3
  1

  0
INSERT
  5
4A
330
45
100
AcDbEntity
  8
_Calque_
100
AcDbBlockReference
  2
block 4
 10
0.0
 20
0.0
 30
0.0
  0
SPLINE
  5
61
330
45
100
AcDbEntity
  8
_Calque_
370
     0
100
AcDbSpline
210
0.0
220
0.0
230
1.0
 70
    11
 71
     3
 72
    26
 73
    22
 74
     0
 42
0.0000000001
 43
0.0000000001
 12
1.0
 22
0.0
 32
0.0
 13
1.0
 23
0.0
 33
0.0
 40
0.0
 40
0.0
 40
0.0
 40
0.0
 40
1.0
 40
1.0
 40
1.0
 40
2.0
 40
2.0
 40
2.0
 40
3.0
 40
3.0
 40
3.0
 40
4.0
 40
4.0
 40
4.0
 40
5.0
 40
5.0
 40
5.0
 40
6.0
 40
6.0
 40
6.0
 40
7.0
 40
7.0
 40
7.0
 40
7.0
 10
6.239031186053531
 20
8.572180983036533
 30
0.0
 10
6.239031186053531
 20
7.736367056980103
 30
0.0
 10
7.933351265397947
 20
7.058066786468787
 30
0.0
 10
10.02365070993482
 20
7.058066786468787
 30
0.0
 10
12.11395015447153
 20
7.058066786468787
 30
0.0
 10
13.80827023381594
 20
7.736367056980103
 30
0.0
 10
13.80827023381594
 20
8.572180983036533
 30
0.0
 10
13.80827023381594
 20
8.572180983036533
 30
0.0
 10
13.80102236637642
 20
8.583280442008597
 30
0.0
 10
13.80102236637642
 20
8.583280442008597
 30
0.0
 10
13.80102236637642
 20
8.583280442008597
 30
0.0
 10
13.80102236637642
 20
12.24842045642211
 30
0.0
 10
13.80102236637642
 20
12.24842045642211
 30
0.0
 10
13.80102236637642
 20
12.24842045642211
 30
0.0
 10
6.228918345656933
 20
12.24842045642211
 30
0.0
 10
6.228918345656933
 20
12.24842045642211
 30
0.0
 10
6.228918345656933
 20
12.24842045642211
 30
0.0
 10
6.228918345656933
 20
8.583280442008597
 30
0.0
 10
6.228918345656933
 20
8.583280442008597
 30
0.0
 10
6.228918345656933
 20
8.583280442008597
 30
0.0
 10
6.239031186053531
 20
8.572180983036533
 30
0.0
 10
6.239031186053531
 20
8.572180983036533
 30
0.0
  0
ENDBLK
  5
48
330
45
100
AcDbEntity
  8
0
100
AcDbBlockEnd
  0
BLOCK
  5
4B
330
49
100
AcDbEntity
  8
0
100
AcDbBlockBegin
  2
block 4
 70
     0
 10
0.0
 20
0.0
 30
0.0
  3
block 4
  1

  0
INSERT
  5
4E
330
49
100
AcDbEntity
  8
_Calque_
100
AcDbBlockReference
  2
block 5
 10
0.0
 20
0.0
 30
0.0
  0
ENDBLK
  5
4C
330
49
100
AcDbEntity
  8
0
100
AcDbBlockEnd
  0
BLOCK
  5
4F
330
4D
100
AcDbEntity
  8
0
100
AcDbBlockBegin
  2
block 5
 70
     0
 10
0.0
 20
0.0
 30
0.0
  3
block 5
  1

  0
INSERT
  5
52
330
4D
100
AcDbEntity
  8
_Calque_
100
AcDbBlockReference
  2
block 6
 10
0.0
 20
0.0
 30
0.0
  0
SPLINE
  5
5F
330
4D
100
AcDbEntity
  8
_Calque_
370
     0
100
AcDbSpline
210
0.0
220
0.0
230
1.0
 70
    11
 71
     3
 72
    26
 73
    22
 74
     0
 42
0.0000000001
 43
0.0000000001
 12
1.0
 22
0.0
 32
0.0
 13
1.0
 23
0.0
 33
0.0
 40
0.0
 40
0.0
 40
0.0
 40
0.0
 40
1.0
 40
1.0
 40
1.0
 40
2.0
 40
2.0
 40
2.0
 40
3.0
 40
3.0
 40
3.0
 40
4.0
 40
4.0
 40
4.0
 40
5.0
 40
5.0
 40
5.0
 40
6.0
 40
6.0
 40
6.0
 40
7.0
 40
7.0
 40
7.0
 40
7.0
 10
6.239031186053531
 20
8.572180983036533
 30
0.0
 10
6.239031186053531
 20
7.736367056980103
 30
0.0
 10
7.933351265397947
 20
7.058066786468787
 30
0.0
 10
10.02365070993482
 20
7.058066786468787
 30
0.0
 10
12.11395015447153
 20
7.058066786468787
 30
0.0
 10
13.80827023381594
 20
7.736367056980103
 30
0.0
 10
13.80827023381594
 20
8.572180983036533
 30
0.0
 10
13.80827023381594
 20
8.572180983036533
 30
0.0
 10
13.80102236637642
 20
8.583280442008597
 30
0.0
 10
13.80102236637642
 20
8.583280442008597
 30
0.0
 10
13.80102236637642
 20
8.583280442008597
 30
0.0
 10
13.80102236637642
 20
12.24842045642211
 30
0.0
 10
13.80102236637642
 20
12.24842045642211
 30
0.0
 10
13.80102236637642
 20
12.24842045642211
 30
0.0
 10
6.228918345656933
 20
12.24842045642211
 30
0.0
 10
6.228918345656933
 20
12.24842045642211
 30
0.0
 10
6.228918345656933
 20
12.24842045642211
 30
0.0
 10
6.228918345656933
 20
8.583280442008597
 30
0.0
 10
6.228918345656933
 20
8.583280442008597
 30
0.0
 10
6.228918345656933
 20
8.583280442008597
 30
0.0
 10
6.239031186053531
 20
8.572180983036533
 30
0.0
 10
6.239031186053531
 20
8.572180983036533
 30
0.0
  0
HATCH
  5
60
330
4D
100
AcDbEntity
  8
_Calque_
 62
   255
100
AcDbHatch
 10
0.0
 20
0.0
 30
0.0
210
0.0
220
0.0
230
1.0
  2
SOLID
 70
     1
 71
     0
 91
        1
 92
        1
 93
        1
 72
     4
 94
        3
 73
     0
 74
     1
 95
       26
 96
       22
 40
0.0
 40
0.0
 40
0.0
 40
0.0
 40
1.0
 40
1.0
 40
1.0
 40
2.0
 40
2.0
 40
2.0
 40
3.0
 40
3.0
 40
3.0
 40
4.0
 40
4.0
 40
4.0
 40
5.0
 40
5.0
 40
5.0
 40
6.0
 40
6.0
 40
6.0
 40
7.0
 40
7.0
 40
7.0
 40
7.0
 10
6.239031186053531
 20
8.572180983036533
 10
6.239031186053531
 20
7.736367056980103
 10
7.933351265397947
 20
7.058066786468787
 10
10.02365070993482
 20
7.058066786468787
 10
12.11395015447153
 20
7.058066786468787
 10
13.80827023381594
 20
7.736367056980103
 10
13.80827023381594
 20
8.572180983036533
 10
13.80827023381594
 20
8.572180983036533
 10
13.80102236637642
 20
8.583280442008597
 10
13.80102236637642
 20
8.583280442008597
 10
13.80102236637642
 20
8.583280442008597
 10
13.80102236637642
 20
12.24842045642211
 10
13.80102236637642
 20
12.24842045642211
 10
13.80102236637642
 20
12.24842045642211
 10
6.228918345656933
 20
12.24842045642211
 10
6.228918345656933
 20
12.24842045642211
 10
6.228918345656933
 20
12.24842045642211
 10
6.228918345656933
 20
8.583280442008597
 10
6.228918345656933
 20
8.583280442008597
 10
6.228918345656933
 20
8.583280442008597
 10
6.239031186053531
 20
8.572180983036533
 10
6.239031186053531
 20
8.572180983036533
 97
        0
 97
        0
 75
     2
 76
     1
 98
        0
  0
ENDBLK
  5
50
330
4D
100
AcDbEntity
  8
0
100
AcDbBlockEnd
  0
BLOCK
  5
53
330
51
100
AcDbEntity
  8
0
100
AcDbBlockBegin
  2
block 6
 70
     0
 10
0.0
 20
0.0
 30
0.0
  3
block 6
  1

  0
POLYLINE
  5
55
330
51
100
AcDbEntity
  8
_Calque_
370
     0
100
AcDb2dPolyline
 66
     1
 10
0.0
 20
0.0
 30
0.0
  0
VERTEX
  5
56
330
55
100
AcDbEntity
  8
_Calque_
370
     0
100
AcDbVertex
100
AcDb2dVertex
 10
9.942501332117159
 20
6.703032092150797
 30
0.0
  0
VERTEX
  5
57
330
55
100
AcDbEntity
  8
_Calque_
370
     0
100
AcDbVertex
100
AcDb2dVertex
 10
9.942501332117159
 20
12.74607086579813
 30
0.0
  0
VERTEX
  5
58
330
55
100
AcDbEntity
  8
_Calque_
370
     0
100
AcDbVertex
100
AcDb2dVertex
 10
5.934363370004193
 20
12.74607086579813
 30
0.0
  0
VERTEX
  5
59
330
55
100
AcDbEntity
  8
_Calque_
370
     0
100
AcDbVertex
100
AcDb2dVertex
 10
5.934363370004193
 20
6.703032092150797
 30
0.0
  0
VERTEX
  5
5A
330
55
100
AcDbEntity
  8
_Calque_
370
     0
100
AcDbVertex
100
AcDb2dVertex
 10
9.942501332117159
 20
6.703032092150797
 30
0.0
  0
SEQEND
  5
5B
330
55
100
AcDbEntity
  8
_Calque_
370
     0
  0
POLYLINE
  5
5C
330
51
100
AcDbEntity
  8
_Calque_
370
     0
100
AcDb2dPolyline
 66
     1
 10
0.0
 20
0.0
 30
0.0
  0
VERTEX
  5
5D
330
5C
100
AcDbEntity
  8
_Calque_
370
     0
100
AcDbVertex
100
AcDb2dVertex
 10
7.938432351060756
 20
9.724551478974462
 30
0.0
  0
VERTEX
  5
165
330
5C
100
AcDbEntity
  8
0
100
AcDbVertex
100
AcDb2dVertex
 10
7.938432351060756
 20
9.724551478974462
 30
0.0
  0
SEQEND
  5
5E
330
5C
100
AcDbEntity
  8
_Calque_
370
     0
  0
ENDBLK
  5
54
330
51
100
AcDbEntity
  8
0
100
AcDbBlockEnd
  0
BLOCK
  5
64
330
62
100
AcDbEntity
  8
0
100
AcDbBlockBegin
  2
block 7
 70
     0
 10
0.0
 20
0.0
 30
0.0
  3
block 7
  1

  0
INSERT
  5
67
330
62
100
AcDbEntity
  8
_Calque_
100
AcDbBlockReference
  2
block 8
 10
0.0
 20
0.0
 30
0.0
  0
INSERT
  5
C0
330
62
100
AcDbEntity
  8
_Calque_
100
AcDbBlockReference
  2
block 17
 10
0.0
 20
0.0
 30
0.0
  0
ENDBLK
  5
65
330
62
100
AcDbEntity
  8
0
100
AcDbBlockEnd
  0
BLOCK
  5
68
330
66
100
AcDbEntity
  8
0
100
AcDbBlockBegin
  2
block 8
 70
     0
 10
0.0
 20
0.0
 30
0.0
  3
block 8
  1

  0
INSERT
  5
6B
330
66
100
AcDbEntity
  8
_Calque_
100
AcDbBlockReference
  2
block 9
 10
0.0
 20
0.0
 30
0.0
  0
INSERT
  5
71
330
66
100
AcDbEntity
  8
_Calque_
100
AcDbBlockReference
  2
block 10
 10
0.0
 20
0.0
 30
0.0
  0
INSERT
  5
BA
330
66
100
AcDbEntity
  8
_Calque_
100
AcDbBlockReference
  2
block 16
 10
0.0
 20
0.0
 30
0.0
  0
ENDBLK
  5
69
330
66
100
AcDbEntity
  8
0
100
AcDbBlockEnd
  0
BLOCK
  5
6C
330
6A
100
AcDbEntity
  8
0
100
AcDbBlockBegin
  2
block 9
 70
     0
 10
0.0
 20
0.0
 30
0.0
  3
block 9
  1

  0
SPLINE
  5
6E
330
6A
100
AcDbEntity
  8
_Calque_
370
     0
100
AcDbSpline
210
0.0
220
0.0
230
1.0
 70
    11
 71
     3
 72
    32
 73
    28
 74
     0
 42
0.0000000001
 43
0.0000000001
 12
1.0
 22
0.0
 32
0.0
 13
1.0
 23
0.0
 33
0.0
 40
0.0
 40
0.0
 40
0.0
 40
0.0
 40
1.0
 40
1.0
 40
1.0
 40
2.0
 40
2.0
 40
2.0
 40
3.0
 40
3.0
 40
3.0
 40
4.0
 40
4.0
 40
4.0
 40
5.0
 40
5.0
 40
5.0
 40
6.0
 40
6.0
 40
6.0
 40
7.0
 40
7.0
 40
7.0
 40
8.0
 40
8.0
 40
8.0
 40
9.0
 40
9.0
 40
9.0
 40
9.0
 10
16.72525738258766
 20
11.20107550782382
 30
0.0
 10
16.75608921306537
 20
11.19915160160194
 30
0.0
 10
16.78741435283082
 20
11.19821431395543
 30
0.0
 10
16.81869016166748
 20
11.19821431395543
 30
0.0
 10
16.98636598853789
 20
11.19821431395543
 30
0.0
 10
17.15256575130128
 20
11.22712223821132
 30
0.0
 10
17.27105477843772
 20
11.2771931309073
 30
0.0
 10
17.38959700025859
 20
11.32731335453201
 30
0.0
 10
17.45846297681377
 20
11.39766439280053
 30
0.0
 10
17.45846297681377
 20
11.46844914172711
 30
0.0
 10
17.45846297681377
 20
11.46844914172711
 30
0.0
 10
17.45846297681377
 20
12.74607086579813
 30
0.0
 10
17.45846297681377
 20
12.74607086579813
 30
0.0
 10
17.45846297681377
 20
12.74607086579813
 30
0.0
 10
17.40355765309891
 20
13.14688466200939
 30
0.0
 10
17.40355765309891
 20
13.14688466200939
 30
0.0
 10
17.40355765309891
 20
13.14688466200939
 30
0.0
 10
15.7386388072982
 20
12.86939818770914
 30
0.0
 10
15.7386388072982
 20
12.86939818770914
 30
0.0
 10
15.7386388072982
 20
12.86939818770914
 30
0.0
 10
16.2936117558985
 20
11.26614300286403
 30
0.0
 10
16.2936117558985
 20
11.26614300286403
 30
0.0
 10
16.2936117558985
 20
11.26614300286403
 30
0.0
 10
16.63276189115429
 20
11.20447934190843
 30
0.0
 10
16.63276189115429
 20
11.20447934190843
 30
0.0
 10
16.63276189115429
 20
11.20447934190843
 30
0.0
 10
16.72525738258766
 20
11.20107550782382
 30
0.0
 10
16.72525738258766
 20
11.20107550782382
 30
0.0
  0
HATCH
  5
6F
330
6A
100
AcDbEntity
  8
_Calque_
 62
    40
100
AcDbHatch
 10
0.0
 20
0.0
 30
0.0
210
0.0
220
0.0
230
1.0
  2
SOLID
 70
     1
 71
     0
 91
        1
 92
        1
 93
        1
 72
     4
 94
        3
 73
     0
 74
     1
 95
       32
 96
       28
 40
0.0
 40
0.0
 40
0.0
 40
0.0
 40
1.0
 40
1.0
 40
1.0
 40
2.0
 40
2.0
 40
2.0
 40
3.0
 40
3.0
 40
3.0
 40
4.0
 40
4.0
 40
4.0
 40
5.0
 40
5.0
 40
5.0
 40
6.0
 40
6.0
 40
6.0
 40
7.0
 40
7.0
 40
7.0
 40
8.0
 40
8.0
 40
8.0
 40
9.0
 40
9.0
 40
9.0
 40
9.0
 10
16.72525738258766
 20
11.20107550782382
 10
16.75608921306537
 20
11.19915160160194
 10
16.78741435283082
 20
11.19821431395543
 10
16.81869016166748
 20
11.19821431395543
 10
16.98636598853789
 20
11.19821431395543
 10
17.15256575130128
 20
11.22712223821132
 10
17.27105477843772
 20
11.2771931309073
 10
17.38959700025859
 20
11.32731335453201
 10
17.45846297681377
 20
11.39766439280053
 10
17.45846297681377
 20
11.46844914172711
 10
17.45846297681377
 20
11.46844914172711
 10
17.45846297681377
 20
12.74607086579813
 10
17.45846297681377
 20
12.74607086579813
 10
17.45846297681377
 20
12.74607086579813
 10
17.40355765309891
 20
13.14688466200939
 10
17.40355765309891
 20
13.14688466200939
 10
17.40355765309891
 20
13.14688466200939
 10
15.7386388072982
 20
12.86939818770914
 10
15.7386388072982
 20
12.86939818770914
 10
15.7386388072982
 20
12.86939818770914
 10
16.2936117558985
 20
11.26614300286403
 10
16.2936117558985
 20
11.26614300286403
 10
16.2936117558985
 20
11.26614300286403
 10
16.63276189115429
 20
11.20447934190843
 10
16.63276189115429
 20
11.20447934190843
 10
16.63276189115429
 20
11.20447934190843
 10
16.72525738258766
 20
11.20107550782382
 10
16.72525738258766
 20
11.20107550782382
 97
        0
 97
        0
 75
     2
 76
     1
 98
        0
  0
ENDBLK
  5
6D
330
6A
100
AcDbEntity
  8
0
100
AcDbBlockEnd
  0
BLOCK
  5
72
330
70
100
AcDbEntity
  8
0
100
AcDbBlockBegin
  2
block 10
 70
     0
 10
0.0
 20
0.0
 30
0.0
  3
block 10
  1

  0
INSERT
  5
75
330
70
100
AcDbEntity
  8
_Calque_
100
AcDbBlockReference
  2
block 11
 10
0.0
 20
0.0
 30
0.0
  0
ENDBLK
  5
73
330
70
100
AcDbEntity
  8
0
100
AcDbBlockEnd
  0
BLOCK
  5
76
330
74
100
AcDbEntity
  8
0
100
AcDbBlockBegin
  2
block 11
 70
     0
 10
0.0
 20
0.0
 30
0.0
  3
block 11
  1

  0
INSERT
  5
79
330
74
100
AcDbEntity
  8
_Calque_
100
AcDbBlockReference
  2
block 12
 10
0.0
 20
0.0
 30
0.0
  0
POLYLINE
  5
7E
330
74
100
AcDbEntity
  8
_Calque_
370
     0
100
AcDb2dPolyline
 66
     1
 10
0.0
 20
0.0
 30
0.0
  0
VERTEX
  5
7F
330
7E
100
AcDbEntity
  8
_Calque_
370
     0
100
AcDbVertex
100
AcDb2dVertex
 10
7.000207416889306
 20
9.594959129110254
 30
0.0
  0
VERTEX
  5
80
330
7E
100
AcDbEntity
  8
_Calque_
370
     0
100
AcDbVertex
100
AcDb2dVertex
 10
7.000207416889306
 20
11.37259914713773
 30
0.0
  0
VERTEX
  5
81
330
7E
100
AcDbEntity
  8
_Calque_
370
     0
100
AcDbVertex
100
AcDb2dVertex
 10
8.661771759534073
 20
10.41390187752911
 30
0.0
  0
VERTEX
  5
82
330
7E
100
AcDbEntity
  8
_Calque_
370
     0
100
AcDbVertex
100
AcDb2dVertex
 10
8.688509122924467
 20
10.42258412099168
 30
0.0
  0
VERTEX
  5
83
330
7E
100
AcDbEntity
  8
_Calque_
370
     0
100
AcDbVertex
100
AcDb2dVertex
 10
8.690679683790027
 20
15.75772406686884
 30
0.0
  0
VERTEX
  5
84
330
7E
100
AcDbEntity
  8
_Calque_
370
     0
100
AcDbVertex
100
AcDb2dVertex
 10
1.496010378136392
 20
19.91637069264214
 30
0.0
  0
VERTEX
  5
85
330
7E
100
AcDbEntity
  8
_Calque_
370
     0
100
AcDbVertex
100
AcDb2dVertex
 10
1.278756967857682
 20
20.05321468903471
 30
0.0
  0
VERTEX
  5
86
330
7E
100
AcDbEntity
  8
_Calque_
370
     0
100
AcDbVertex
100
AcDb2dVertex
 10
1.217093306902142
 20
14.34932605064323
 30
0.0
  0
VERTEX
  5
87
330
7E
100
AcDbEntity
  8
_Calque_
370
     0
100
AcDbVertex
100
AcDb2dVertex
 10
2.697021169836109
 20
13.54769845822065
 30
0.0
  0
VERTEX
  5
88
330
7E
100
AcDbEntity
  8
_Calque_
370
     0
100
AcDbVertex
100
AcDb2dVertex
 10
2.943675813658426
 20
11.66695679907536
 30
0.0
  0
VERTEX
  5
89
330
7E
100
AcDbEntity
  8
_Calque_
370
     0
100
AcDbVertex
100
AcDb2dVertex
 10
6.982645606249193
 20
9.35456951324097
 30
0.0
  0
VERTEX
  5
8A
330
7E
100
AcDbEntity
  8
_Calque_
370
     0
100
AcDbVertex
100
AcDb2dVertex
 10
7.000207416889306
 20
9.594959129110254
 30
0.0
  0
SEQEND
  5
8C
330
7E
100
AcDbEntity
  8
_Calque_
370
     0
  0
HATCH
  5
8B
330
74
100
AcDbEntity
  8
_Calque_
 62
   254
100
AcDbHatch
 10
0.0
 20
0.0
 30
0.0
210
0.0
220
0.0
230
1.0
  2
SOLID
 70
     1
 71
     0
 91
        1
 92
        1
 93
       11
 72
     1
 10
7.000207416889306
 20
9.594959129110254
 11
7.000207416889306
 21
11.37259914713773
 72
     1
 10
7.000207416889306
 20
11.37259914713773
 11
8.661771759534073
 21
10.41390187752911
 72
     1
 10
8.661771759534073
 20
10.41390187752911
 11
8.688509122924467
 21
10.42258412099168
 72
     1
 10
8.688509122924467
 20
10.42258412099168
 11
8.690679683790027
 21
15.75772406686884
 72
     1
 10
8.690679683790027
 20
15.75772406686884
 11
1.496010378136392
 21
19.91637069264214
 72
     1
 10
1.496010378136392
 20
19.91637069264214
 11
1.278756967857682
 21
20.05321468903471
 72
     1
 10
1.278756967857682
 20
20.05321468903471
 11
1.217093306902142
 21
14.34932605064323
 72
     1
 10
1.217093306902142
 20
14.34932605064323
 11
2.697021169836109
 21
13.54769845822065
 72
     1
 10
2.697021169836109
 20
13.54769845822065
 11
2.943675813658426
 21
11.66695679907536
 72
     1
 10
2.943675813658426
 20
11.66695679907536
 11
6.982645606249193
 21
9.35456951324097
 72
     1
 10
6.982645606249193
 20
9.35456951324097
 11
7.000207416889306
 21
9.594959129110254
 97
        0
 75
     2
 76
     1
 98
        0
  0
INSERT
  5
8E
330
74
100
AcDbEntity
  8
_Calque_
100
AcDbBlockReference
  2
block 13
 10
0.0
 20
0.0
 30
0.0
  0
INSERT
  5
94
330
74
100
AcDbEntity
  8
_Calque_
100
AcDbBlockReference
  2
block 14
 10
0.0
 20
0.0
 30
0.0
  0
INSERT
  5
9A
330
74
100
AcDbEntity
  8
_Calque_
100
AcDbBlockReference
  2
block 15
 10
0.0
 20
0.0
 30
0.0
  0
POLYLINE
  5
9F
330
74
100
AcDbEntity
  8
_Calque_
370
     0
100
AcDb2dPolyline
 66
     1
 10
0.0
 20
0.0
 30
0.0
  0
VERTEX
  5
A0
330
9F
100
AcDbEntity
  8
_Calque_
370
     0
100
AcDbVertex
100
AcDb2dVertex
 10
11.14518937539494
 20
9.255315684566847
 30
0.0
  0
VERTEX
  5
A1
330
9F
100
AcDbEntity
  8
_Calque_
370
     0
100
AcDbVertex
100
AcDb2dVertex
 10
11.14518937539494
 20
11.07873480448785
 30
0.0
  0
VERTEX
  5
A2
330
9F
100
AcDbEntity
  8
_Calque_
370
     0
100
AcDbVertex
100
AcDb2dVertex
 10
9.685487193254303
 20
10.6875405393856
 30
0.0
  0
VERTEX
  5
A3
330
9F
100
AcDbEntity
  8
_Calque_
370
     0
100
AcDbVertex
100
AcDb2dVertex
 10
9.685487193254303
 20
9.338684954178765
 30
0.0
  0
VERTEX
  5
A4
330
9F
100
AcDbEntity
  8
_Calque_
370
     0
100
AcDbVertex
100
AcDb2dVertex
 10
11.1446960661072
 20
8.953755717029708
 30
0.0
  0
VERTEX
  5
A5
330
9F
100
AcDbEntity
  8
_Calque_
370
     0
100
AcDbVertex
100
AcDb2dVertex
 10
11.14518937539494
 20
9.255315684566847
 30
0.0
  0
SEQEND
  5
A7
330
9F
100
AcDbEntity
  8
_Calque_
370
     0
  0
HATCH
  5
A6
330
74
100
AcDbEntity
  8
_Calque_
 62
   254
100
AcDbHatch
 10
0.0
 20
0.0
 30
0.0
210
0.0
220
0.0
230
1.0
  2
SOLID
 70
     1
 71
     0
 91
        1
 92
        1
 93
        5
 72
     1
 10
11.14518937539494
 20
9.255315684566847
 11
11.14518937539494
 21
11.07873480448785
 72
     1
 10
11.14518937539494
 20
11.07873480448785
 11
9.685487193254303
 21
10.6875405393856
 72
     1
 10
9.685487193254303
 20
10.6875405393856
 11
9.685487193254303
 21
9.338684954178765
 72
     1
 10
9.685487193254303
 20
9.338684954178765
 11
11.1446960661072
 21
8.953755717029708
 72
     1
 10
11.1446960661072
 20
8.953755717029708
 11
11.14518937539494
 21
9.255315684566847
 97
        0
 75
     2
 76
     1
 98
        0
  0
POLYLINE
  5
A8
330
74
100
AcDbEntity
  8
_Calque_
370
     0
100
AcDb2dPolyline
 66
     1
 10
0.0
 20
0.0
 30
0.0
  0
VERTEX
  5
A9
330
A8
100
AcDbEntity
  8
_Calque_
370
     0
100
AcDbVertex
100
AcDb2dVertex
 10
9.722090742397487
 20
10.0555126800553
 30
0.0
  0
VERTEX
  5
AA
330
A8
100
AcDbEntity
  8
_Calque_
370
     0
100
AcDbVertex
100
AcDb2dVertex
 10
11.14518937539494
 20
9.255315684566847
 30
0.0
  0
VERTEX
  5
AB
330
A8
100
AcDbEntity
  8
_Calque_
370
     0
100
AcDbVertex
100
AcDb2dVertex
 10
16.64430532848505
 20
10.72897851954775
 30
0.0
  0
VERTEX
  5
AC
330
A8
100
AcDbEntity
  8
_Calque_
370
     0
100
AcDbVertex
100
AcDb2dVertex
 10
16.64430532848505
 20
12.57795106056883
 30
0.0
  0
VERTEX
  5
AD
330
A8
100
AcDbEntity
  8
_Calque_
370
     0
100
AcDbVertex
100
AcDb2dVertex
 10
19.18504548357015
 20
13.25240351863657
 30
0.0
  0
VERTEX
  5
AE
330
A8
100
AcDbEntity
  8
_Calque_
370
     0
100
AcDbVertex
100
AcDb2dVertex
 10
19.18504548357015
 20
18.62434433737194
 30
0.0
  0
VERTEX
  5
AF
330
A8
100
AcDbEntity
  8
_Calque_
370
     0
100
AcDbVertex
100
AcDb2dVertex
 10
11.98485111389494
 20
22.79991147171151
 30
0.0
  0
VERTEX
  5
B0
330
A8
100
AcDbEntity
  8
_Calque_
370
     0
100
AcDbVertex
100
AcDb2dVertex
 10
1.496010378136392
 20
19.98938046721352
 30
0.0
  0
VERTEX
  5
B1
330
A8
100
AcDbEntity
  8
_Calque_
370
     0
100
AcDbVertex
100
AcDb2dVertex
 10
1.496010378136392
 20
14.58586785406889
 30
0.0
  0
VERTEX
  5
B2
330
A8
100
AcDbEntity
  8
_Calque_
370
     0
100
AcDbVertex
100
AcDb2dVertex
 10
3.225700733404939
 20
13.58721253216098
 30
0.0
  0
VERTEX
  5
B3
330
A8
100
AcDbEntity
  8
_Calque_
370
     0
100
AcDbVertex
100
AcDb2dVertex
 10
3.225700733404939
 20
11.77439956192436
 30
0.0
  0
VERTEX
  5
B4
330
A8
100
AcDbEntity
  8
_Calque_
370
     0
100
AcDbVertex
100
AcDb2dVertex
 10
7.000207416889306
 20
9.594959129110254
 30
0.0
  0
VERTEX
  5
B5
330
A8
100
AcDbEntity
  8
_Calque_
370
     0
100
AcDbVertex
100
AcDb2dVertex
 10
8.343587269003299
 20
9.955321563734607
 30
0.0
  0
VERTEX
  5
B6
330
A8
100
AcDbEntity
  8
_Calque_
370
     0
100
AcDbVertex
100
AcDb2dVertex
 10
9.722090742397487
 20
10.0555126800553
 30
0.0
  0
SEQEND
  5
B8
330
A8
100
AcDbEntity
  8
_Calque_
370
     0
  0
HATCH
  5
B7
330
74
100
AcDbEntity
  8
_Calque_
 62
   255
100
AcDbHatch
 10
0.0
 20
0.0
 30
0.0
210
0.0
220
0.0
230
1.0
  2
SOLID
 70
     1
 71
     0
 91
        1
 92
        1
 93
       13
 72
     1
 10
9.722090742397487
 20
10.0555126800553
 11
11.14518937539494
 21
9.255315684566847
 72
     1
 10
11.14518937539494
 20
9.255315684566847
 11
16.64430532848505
 21
10.72897851954775
 72
     1
 10
16.64430532848505
 20
10.72897851954775
 11
16.64430532848505
 21
12.57795106056883
 72
     1
 10
16.64430532848505
 20
12.57795106056883
 11
19.18504548357015
 21
13.25240351863657
 72
     1
 10
19.18504548357015
 20
13.25240351863657
 11
19.18504548357015
 21
18.62434433737194
 72
     1
 10
19.18504548357015
 20
18.62434433737194
 11
11.98485111389494
 21
22.79991147171151
 72
     1
 10
11.98485111389494
 20
22.79991147171151
 11
1.496010378136392
 21
19.98938046721352
 72
     1
 10
1.496010378136392
 20
19.98938046721352
 11
1.496010378136392
 21
14.58586785406889
 72
     1
 10
1.496010378136392
 20
14.58586785406889
 11
3.225700733404939
 21
13.58721253216098
 72
     1
 10
3.225700733404939
 20
13.58721253216098
 11
3.225700733404939
 21
11.77439956192436
 72
     1
 10
3.225700733404939
 20
11.77439956192436
 11
7.000207416889306
 21
9.594959129110254
 72
     1
 10
7.000207416889306
 20
9.594959129110254
 11
8.343587269003299
 21
9.955321563734607
 72
     1
 10
8.343587269003299
 20
9.955321563734607
 11
9.722090742397487
 21
10.0555126800553
 97
        0
 75
     2
 76
     1
 98
        0
  0
ENDBLK
  5
77
330
74
100
AcDbEntity
  8
0
100
AcDbBlockEnd
  0
BLOCK
  5
7A
330
78
100
AcDbEntity
  8
0
100
AcDbBlockBegin
  2
block 12
 70
     0
 10
0.0
 20
0.0
 30
0.0
  3
block 12
  1

  0
SPLINE
  5
7C
330
78
100
AcDbEntity
  8
_Calque_
370
     0
100
AcDbSpline
210
0.0
220
0.0
230
1.0
 70
    11
 71
     3
 72
    29
 73
    25
 74
     0
 42
0.0000000001
 43
0.0000000001
 12
1.0
 22
0.0
 32
0.0
 13
1.0
 23
0.0
 33
0.0
 40
0.0
 40
0.0
 40
0.0
 40
0.0
 40
1.0
 40
1.0
 40
1.0
 40
2.0
 40
2.0
 40
2.0
 40
3.0
 40
3.0
 40
3.0
 40
4.0
 40
4.0
 40
4.0
 40
5.0
 40
5.0
 40
5.0
 40
6.0
 40
6.0
 40
6.0
 40
7.0
 40
7.0
 40
7.0
 40
8.0
 40
8.0
 40
8.0
 40
8.0
 10
18.20035470472785
 20
18.8657205718165
 30
0.0
 10
18.20035470472785
 20
18.71299201636171
 30
0.0
 10
18.05151940242027
 20
18.56125007948227
 30
0.0
 10
17.7956892058478
 20
18.45306735270177
 30
0.0
 10
17.54035231856289
 20
18.34493926620311
 30
0.0
 10
17.18097650251378
 20
18.28208635360405
 30
0.0
 10
16.81967678024278
 20
18.28208635360405
 30
0.0
 10
16.45837705797179
 20
18.28208635360405
 30
0.0
 10
16.09900124192275
 20
18.34493926620311
 30
0.0
 10
15.84317104535015
 20
18.45306735270177
 30
0.0
 10
15.58734084877768
 20
18.56125007948227
 30
0.0
 10
15.43900274598281
 20
18.71299201636171
 30
0.0
 10
15.43900274598281
 20
18.8657205718165
 30
0.0
 10
15.43900274598281
 20
19.01839979634258
 30
0.0
 10
15.58734084877768
 20
19.17038838786583
 30
0.0
 10
15.84317104535015
 20
19.27832446000255
 30
0.0
 10
16.09900124192275
 20
19.38645785585419
 30
0.0
 10
16.45837705797179
 20
19.44935479002891
 30
0.0
 10
16.81967678024278
 20
19.44935479002891
 30
0.0
 10
17.18097650251378
 20
19.44935479002891
 30
0.0
 10
17.54035231856289
 20
19.38645785585419
 30
0.0
 10
17.7956892058478
 20
19.27832446000255
 30
0.0
 10
18.05151940242027
 20
19.17038838786583
 30
0.0
 10
18.20035470472785
 20
19.01839979634258
 30
0.0
 10
18.20035470472785
 20
18.8657205718165
 30
0.0
  0
HATCH
  5
7D
330
78
100
AcDbEntity
  8
_Calque_
 62
    40
100
AcDbHatch
 10
0.0
 20
0.0
 30
0.0
210
0.0
220
0.0
230
1.0
  2
SOLID
 70
     1
 71
     0
 91
        1
 92
        1
 93
        1
 72
     4
 94
        3
 73
     0
 74
     1
 95
       29
 96
       25
 40
0.0
 40
0.0
 40
0.0
 40
0.0
 40
1.0
 40
1.0
 40
1.0
 40
2.0
 40
2.0
 40
2.0
 40
3.0
 40
3.0
 40
3.0
 40
4.0
 40
4.0
 40
4.0
 40
5.0
 40
5.0
 40
5.0
 40
6.0
 40
6.0
 40
6.0
 40
7.0
 40
7.0
 40
7.0
 40
8.0
 40
8.0
 40
8.0
 40
8.0
 10
18.20035470472785
 20
18.8657205718165
 10
18.20035470472785
 20
18.71299201636171
 10
18.05151940242027
 20
18.56125007948227
 10
17.7956892058478
 20
18.45306735270177
 10
17.54035231856289
 20
18.34493926620311
 10
17.18097650251378
 20
18.28208635360405
 10
16.81967678024278
 20
18.28208635360405
 10
16.45837705797179
 20
18.28208635360405
 10
16.09900124192275
 20
18.34493926620311
 10
15.84317104535015
 20
18.45306735270177
 10
15.58734084877768
 20
18.56125007948227
 10
15.43900274598281
 20
18.71299201636171
 10
15.43900274598281
 20
18.8657205718165
 10
15.43900274598281
 20
19.01839979634258
 10
15.58734084877768
 20
19.17038838786583
 10
15.84317104535015
 20
19.27832446000255
 10
16.09900124192275
 20
19.38645785585419
 10
16.45837705797179
 20
19.44935479002891
 10
16.81967678024278
 20
19.44935479002891
 10
17.18097650251378
 20
19.44935479002891
 10
17.54035231856289
 20
19.38645785585419
 10
17.7956892058478
 20
19.27832446000255
 10
18.05151940242027
 20
19.17038838786583
 10
18.20035470472785
 20
19.01839979634258
 10
18.20035470472785
 20
18.8657205718165
 97
        0
 97
        0
 75
     2
 76
     1
 98
        0
  0
ENDBLK
  5
7B
330
78
100
AcDbEntity
  8
0
100
AcDbBlockEnd
  0
BLOCK
  5
8F
330
8D
100
AcDbEntity
  8
0
100
AcDbBlockBegin
  2
block 13
 70
     0
 10
0.0
 20
0.0
 30
0.0
  3
block 13
  1

  0
SPLINE
  5
91
330
8D
100
AcDbEntity
  8
_Calque_
370
     0
100
AcDbSpline
210
0.0
220
0.0
230
1.0
 70
    11
 71
     3
 72
    29
 73
    25
 74
     0
 42
0.0000000001
 43
0.0000000001
 12
1.0
 22
0.0
 32
0.0
 13
1.0
 23
0.0
 33
0.0
 40
0.0
 40
0.0
 40
0.0
 40
0.0
 40
1.0
 40
1.0
 40
1.0
 40
2.0
 40
2.0
 40
2.0
 40
3.0
 40
3.0
 40
3.0
 40
4.0
 40
4.0
 40
4.0
 40
5.0
 40
5.0
 40
5.0
 40
6.0
 40
6.0
 40
6.0
 40
7.0
 40
7.0
 40
7.0
 40
8.0
 40
8.0
 40
8.0
 40
8.0
 10
10.43073322804759
 20
16.79998792980446
 30
0.0
 10
10.43073322804759
 20
16.64725937434968
 30
0.0
 10
10.28189812201675
 20
16.49552270010277
 30
0.0
 10
10.02631458008809
 20
16.38733471068964
 30
0.0
 10
9.770731038159306
 20
16.27920131483794
 30
0.0
 10
9.411355222110227
 20
16.21635371159201
 30
0.0
 10
9.050055499839235
 20
16.21635371159201
 30
0.0
 10
8.688509122924467
 20
16.21635371159201
 30
0.0
 10
8.329379961519196
 20
16.27920131483794
 30
0.0
 10
8.073549764946598
 20
16.38733471068964
 30
0.0
 10
7.817966223017907
 20
16.49552270010277
 30
0.0
 10
7.669381465579328
 20
16.64725937434968
 30
0.0
 10
7.669381465579328
 20
16.79998792980446
 30
0.0
 10
7.669381465579328
 20
16.95266715433048
 30
0.0
 10
7.817966223017907
 20
17.1046557458538
 30
0.0
 10
8.073549764946598
 20
17.21259181799051
 30
0.0
 10
8.329379961519196
 20
17.32072521384216
 30
0.0
 10
8.688509122924467
 20
17.38362214801687
 30
0.0
 10
9.050055499839235
 20
17.38362214801687
 30
0.0
 10
9.411355222110227
 20
17.38362214801687
 30
0.0
 10
9.770731038159306
 20
17.32072521384216
 30
0.0
 10
10.02631458008809
 20
17.21259181799051
 30
0.0
 10
10.28189812201675
 20
17.1046557458538
 30
0.0
 10
10.43073322804759
 20
16.95266715433048
 30
0.0
 10
10.43073322804759
 20
16.79998792980446
 30
0.0
  0
HATCH
  5
92
330
8D
100
AcDbEntity
  8
_Calque_
 62
    40
100
AcDbHatch
 10
0.0
 20
0.0
 30
0.0
210
0.0
220
0.0
230
1.0
  2
SOLID
 70
     1
 71
     0
 91
        1
 92
        1
 93
        1
 72
     4
 94
        3
 73
     0
 74
     1
 95
       29
 96
       25
 40
0.0
 40
0.0
 40
0.0
 40
0.0
 40
1.0
 40
1.0
 40
1.0
 40
2.0
 40
2.0
 40
2.0
 40
3.0
 40
3.0
 40
3.0
 40
4.0
 40
4.0
 40
4.0
 40
5.0
 40
5.0
 40
5.0
 40
6.0
 40
6.0
 40
6.0
 40
7.0
 40
7.0
 40
7.0
 40
8.0
 40
8.0
 40
8.0
 40
8.0
 10
10.43073322804759
 20
16.79998792980446
 10
10.43073322804759
 20
16.64725937434968
 10
10.28189812201675
 20
16.49552270010277
 10
10.02631458008809
 20
16.38733471068964
 10
9.770731038159306
 20
16.27920131483794
 10
9.411355222110227
 20
16.21635371159201
 10
9.050055499839235
 20
16.21635371159201
 10
8.688509122924467
 20
16.21635371159201
 10
8.329379961519196
 20
16.27920131483794
 10
8.073549764946598
 20
16.38733471068964
 10
7.817966223017907
 20
16.49552270010277
 10
7.669381465579328
 20
16.64725937434968
 10
7.669381465579328
 20
16.79998792980446
 10
7.669381465579328
 20
16.95266715433048
 10
7.817966223017907
 20
17.1046557458538
 10
8.073549764946598
 20
17.21259181799051
 10
8.329379961519196
 20
17.32072521384216
 10
8.688509122924467
 20
17.38362214801687
 10
9.050055499839235
 20
17.38362214801687
 10
9.411355222110227
 20
17.38362214801687
 10
9.770731038159306
 20
17.32072521384216
 10
10.02631458008809
 20
17.21259181799051
 10
10.28189812201675
 20
17.1046557458538
 10
10.43073322804759
 20
16.95266715433048
 10
10.43073322804759
 20
16.79998792980446
 97
        0
 97
        0
 75
     2
 76
     1
 98
        0
  0
ENDBLK
  5
90
330
8D
100
AcDbEntity
  8
0
100
AcDbBlockEnd
  0
BLOCK
  5
95
330
93
100
AcDbEntity
  8
0
100
AcDbBlockBegin
  2
block 14
 70
     0
 10
0.0
 20
0.0
 30
0.0
  3
block 14
  1

  0
SPLINE
  5
97
330
93
100
AcDbEntity
  8
_Calque_
370
     0
100
AcDbSpline
210
0.0
220
0.0
230
1.0
 70
    11
 71
     3
 72
    29
 73
    25
 74
     0
 42
0.0000000001
 43
0.0000000001
 12
1.0
 22
0.0
 32
0.0
 13
1.0
 23
0.0
 33
0.0
 40
0.0
 40
0.0
 40
0.0
 40
0.0
 40
1.0
 40
1.0
 40
1.0
 40
2.0
 40
2.0
 40
2.0
 40
3.0
 40
3.0
 40
3.0
 40
4.0
 40
4.0
 40
4.0
 40
5.0
 40
5.0
 40
5.0
 40
6.0
 40
6.0
 40
6.0
 40
7.0
 40
7.0
 40
7.0
 40
8.0
 40
8.0
 40
8.0
 40
8.0
 10
5.250985576927128
 20
19.79067548615029
 30
0.0
 10
5.250985576927128
 20
19.63794693069545
 30
0.0
 10
5.102150601747679
 20
19.48620499381594
 30
0.0
 10
4.846567059818987
 20
19.3780222670355
 30
0.0
 10
4.59098351789036
 20
19.26989420390316
 30
0.0
 10
4.231607701841152
 20
19.20704126793787
 30
0.0
 10
3.87030797957016
 20
19.20704126793787
 30
0.0
 10
3.508761602655359
 20
19.20704126793787
 30
0.0
 10
3.149632441250088
 20
19.26989420390316
 30
0.0
 10
2.893802244677587
 20
19.3780222670355
 30
0.0
 10
2.638218702748831
 20
19.48620499381594
 30
0.0
 10
2.489633945310284
 20
19.63794693069545
 30
0.0
 10
2.489633945310284
 20
19.79067548615029
 30
0.0
 10
2.489633945310284
 20
19.94335471067621
 30
0.0
 10
2.638218702748831
 20
20.09534330219963
 30
0.0
 10
2.893802244677587
 20
20.20327937433628
 30
0.0
 10
3.149632441250088
 20
20.31141277018802
 30
0.0
 10
3.508761602655359
 20
20.37430970436271
 30
0.0
 10
3.87030797957016
 20
20.37430970436271
 30
0.0
 10
4.231607701841152
 20
20.37430970436271
 30
0.0
 10
4.59098351789036
 20
20.31141277018802
 30
0.0
 10
4.846567059818987
 20
20.20327937433628
 30
0.0
 10
5.102150601747679
 20
20.09534330219963
 30
0.0
 10
5.250985576927128
 20
19.94335471067621
 30
0.0
 10
5.250985576927128
 20
19.79067548615029
 30
0.0
  0
HATCH
  5
98
330
93
100
AcDbEntity
  8
_Calque_
 62
    40
100
AcDbHatch
 10
0.0
 20
0.0
 30
0.0
210
0.0
220
0.0
230
1.0
  2
SOLID
 70
     1
 71
     0
 91
        1
 92
        1
 93
        1
 72
     4
 94
        3
 73
     0
 74
     1
 95
       29
 96
       25
 40
0.0
 40
0.0
 40
0.0
 40
0.0
 40
1.0
 40
1.0
 40
1.0
 40
2.0
 40
2.0
 40
2.0
 40
3.0
 40
3.0
 40
3.0
 40
4.0
 40
4.0
 40
4.0
 40
5.0
 40
5.0
 40
5.0
 40
6.0
 40
6.0
 40
6.0
 40
7.0
 40
7.0
 40
7.0
 40
8.0
 40
8.0
 40
8.0
 40
8.0
 10
5.250985576927128
 20
19.79067548615029
 10
5.250985576927128
 20
19.63794693069545
 10
5.102150601747679
 20
19.48620499381594
 10
4.846567059818987
 20
19.3780222670355
 10
4.59098351789036
 20
19.26989420390316
 10
4.231607701841152
 20
19.20704126793787
 10
3.87030797957016
 20
19.20704126793787
 10
3.508761602655359
 20
19.20704126793787
 10
3.149632441250088
 20
19.26989420390316
 10
2.893802244677587
 20
19.3780222670355
 10
2.638218702748831
 20
19.48620499381594
 10
2.489633945310284
 20
19.63794693069545
 10
2.489633945310284
 20
19.79067548615029
 10
2.489633945310284
 20
19.94335471067621
 10
2.638218702748831
 20
20.09534330219963
 10
2.893802244677587
 20
20.20327937433628
 10
3.149632441250088
 20
20.31141277018802
 10
3.508761602655359
 20
20.37430970436271
 10
3.87030797957016
 20
20.37430970436271
 10
4.231607701841152
 20
20.37430970436271
 10
4.59098351789036
 20
20.31141277018802
 10
4.846567059818987
 20
20.20327937433628
 10
5.102150601747679
 20
20.09534330219963
 10
5.250985576927128
 20
19.94335471067621
 10
5.250985576927128
 20
19.79067548615029
 97
        0
 97
        0
 75
     2
 76
     1
 98
        0
  0
ENDBLK
  5
96
330
93
100
AcDbEntity
  8
0
100
AcDbBlockEnd
  0
BLOCK
  5
9B
330
99
100
AcDbEntity
  8
0
100
AcDbBlockBegin
  2
block 15
 70
     0
 10
0.0
 20
0.0
 30
0.0
  3
block 15
  1

  0
SPLINE
  5
9D
330
99
100
AcDbEntity
  8
_Calque_
370
     0
100
AcDbSpline
210
0.0
220
0.0
230
1.0
 70
    11
 71
     3
 72
    29
 73
    25
 74
     0
 42
0.0000000001
 43
0.0000000001
 12
1.0
 22
0.0
 32
0.0
 13
1.0
 23
0.0
 33
0.0
 40
0.0
 40
0.0
 40
0.0
 40
0.0
 40
1.0
 40
1.0
 40
1.0
 40
2.0
 40
2.0
 40
2.0
 40
3.0
 40
3.0
 40
3.0
 40
4.0
 40
4.0
 40
4.0
 40
5.0
 40
5.0
 40
5.0
 40
6.0
 40
6.0
 40
6.0
 40
7.0
 40
7.0
 40
7.0
 40
8.0
 40
8.0
 40
8.0
 40
8.0
 10
13.02060705360736
 20
21.8564081281623
 30
0.0
 10
13.02060705360736
 20
21.70367957270755
 30
0.0
 10
12.87177188215133
 20
21.55194302619648
 30
0.0
 10
12.61594168557873
 20
21.44375490904754
 30
0.0
 10
12.36060479829381
 20
21.33562151319577
 30
0.0
 10
12.00122898224464
 20
21.27277390994991
 30
0.0
 10
11.63992925997377
 20
21.27277390994991
 30
0.0
 10
11.27862953770278
 20
21.27277390994991
 30
0.0
 10
10.91925372165361
 20
21.33562151319577
 30
0.0
 10
10.66342352508114
 20
21.44375490904754
 30
0.0
 10
10.40783998315248
 20
21.55194302619648
 30
0.0
 10
10.2592552257139
 20
21.70367957270755
 30
0.0
 10
10.2592552257139
 20
21.8564081281623
 30
0.0
 10
10.2592552257139
 20
22.00908735268832
 30
0.0
 10
10.40783998315248
 20
22.16107594421167
 30
0.0
 10
10.66342352508114
 20
22.26901201634835
 30
0.0
 10
10.91925372165361
 20
22.37714541220005
 30
0.0
 10
11.27862953770278
 20
22.44004234637474
 30
0.0
 10
11.63992925997377
 20
22.44004234637474
 30
0.0
 10
12.00122898224464
 20
22.44004234637474
 30
0.0
 10
12.36060479829381
 20
22.37714541220005
 30
0.0
 10
12.61594168557873
 20
22.26901201634835
 30
0.0
 10
12.87177188215133
 20
22.16107594421167
 30
0.0
 10
13.02060705360736
 20
22.00908735268832
 30
0.0
 10
13.02060705360736
 20
21.8564081281623
 30
0.0
  0
HATCH
  5
9E
330
99
100
AcDbEntity
  8
_Calque_
 62
    40
100
AcDbHatch
 10
0.0
 20
0.0
 30
0.0
210
0.0
220
0.0
230
1.0
  2
SOLID
 70
     1
 71
     0
 91
        1
 92
        1
 93
        1
 72
     4
 94
        3
 73
     0
 74
     1
 95
       29
 96
       25
 40
0.0
 40
0.0
 40
0.0
 40
0.0
 40
1.0
 40
1.0
 40
1.0
 40
2.0
 40
2.0
 40
2.0
 40
3.0
 40
3.0
 40
3.0
 40
4.0
 40
4.0
 40
4.0
 40
5.0
 40
5.0
 40
5.0
 40
6.0
 40
6.0
 40
6.0
 40
7.0
 40
7.0
 40
7.0
 40
8.0
 40
8.0
 40
8.0
 40
8.0
 10
13.02060705360736
 20
21.8564081281623
 10
13.02060705360736
 20
21.70367957270755
 10
12.87177188215133
 20
21.55194302619648
 10
12.61594168557873
 20
21.44375490904754
 10
12.36060479829381
 20
21.33562151319577
 10
12.00122898224464
 20
21.27277390994991
 10
11.63992925997377
 20
21.27277390994991
 10
11.27862953770278
 20
21.27277390994991
 10
10.91925372165361
 20
21.33562151319577
 10
10.66342352508114
 20
21.44375490904754
 10
10.40783998315248
 20
21.55194302619648
 10
10.2592552257139
 20
21.70367957270755
 10
10.2592552257139
 20
21.8564081281623
 10
10.2592552257139
 20
22.00908735268832
 10
10.40783998315248
 20
22.16107594421167
 10
10.66342352508114
 20
22.26901201634835
 10
10.91925372165361
 20
22.37714541220005
 10
11.27862953770278
 20
22.44004234637474
 10
11.63992925997377
 20
22.44004234637474
 10
12.00122898224464
 20
22.44004234637474
 10
12.36060479829381
 20
22.37714541220005
 10
12.61594168557873
 20
22.26901201634835
 10
12.87177188215133
 20
22.16107594421167
 10
13.02060705360736
 20
22.00908735268832
 10
13.02060705360736
 20
21.8564081281623
 97
        0
 97
        0
 75
     2
 76
     1
 98
        0
  0
ENDBLK
  5
9C
330
99
100
AcDbEntity
  8
0
100
AcDbBlockEnd
  0
BLOCK
  5
BB
330
B9
100
AcDbEntity
  8
0
100
AcDbBlockBegin
  2
block 16
 70
     0
 10
0.0
 20
0.0
 30
0.0
  3
block 16
  1

  0
SPLINE
  5
BD
330
B9
100
AcDbEntity
  8
_Calque_
370
     0
100
AcDbSpline
210
0.0
220
0.0
230
1.0
 70
    11
 71
     3
 72
    29
 73
    25
 74
     0
 42
0.0000000001
 43
0.0000000001
 12
1.0
 22
0.0
 32
0.0
 13
1.0
 23
0.0
 33
0.0
 40
0.0
 40
0.0
 40
0.0
 40
0.0
 40
1.0
 40
1.0
 40
1.0
 40
2.0
 40
2.0
 40
2.0
 40
3.0
 40
3.0
 40
3.0
 40
4.0
 40
4.0
 40
4.0
 40
5.0
 40
5.0
 40
5.0
 40
6.0
 40
6.0
 40
6.0
 40
7.0
 40
7.0
 40
7.0
 40
8.0
 40
8.0
 40
8.0
 40
8.0
 10
9.68859504176647
 20
10.68033822378602
 30
0.0
 10
9.68859504176647
 20
10.68033822378602
 30
0.0
 10
9.68859504176647
 20
9.40272158316894
 30
0.0
 10
9.68859504176647
 20
9.40272158316894
 30
0.0
 10
9.68859504176647
 20
9.33192661693808
 30
0.0
 10
9.61973273867202
 20
9.261580712519912
 30
0.0
 10
9.501433498034068
 20
9.211460488895327
 30
0.0
 10
9.382944274620959
 20
9.16138959619928
 30
0.0
 10
9.216498053490533
 20
9.132481671943324
 30
0.0
 10
9.049068881263931
 20
9.132481671943324
 30
0.0
 10
8.881689039966156
 20
9.132481671943324
 30
0.0
 10
8.7152464863147
 20
9.16138959619928
 30
0.0
 10
8.596704264493825
 20
9.211460488895327
 30
0.0
 10
8.478458028245363
 20
9.261580712519912
 30
0.0
 10
8.40954272076139
 20
9.33192661693808
 30
0.0
 10
8.40954272076139
 20
9.40272158316894
 30
0.0
 10
8.40954272076139
 20
9.40272158316894
 30
0.0
 10
8.40954272076139
 20
10.55701090187488
 30
0.0
 10
8.40954272076139
 20
10.55701090187488
 30
0.0
 10
8.40954272076139
 20
10.55701090187488
 30
0.0
 10
8.64756445204997
 20
10.40285174948591
 30
0.0
 10
8.64756445204997
 20
10.40285174948591
 30
0.0
 10
8.64756445204997
 20
10.40285174948591
 30
0.0
 10
9.68859504176647
 20
10.68033822378602
 30
0.0
 10
9.68859504176647
 20
10.68033822378602
 30
0.0
  0
HATCH
  5
BE
330
B9
100
AcDbEntity
  8
_Calque_
 62
    40
100
AcDbHatch
 10
0.0
 20
0.0
 30
0.0
210
0.0
220
0.0
230
1.0
  2
SOLID
 70
     1
 71
     0
 91
        1
 92
        1
 93
        1
 72
     4
 94
        3
 73
     0
 74
     1
 95
       29
 96
       25
 40
0.0
 40
0.0
 40
0.0
 40
0.0
 40
1.0
 40
1.0
 40
1.0
 40
2.0
 40
2.0
 40
2.0
 40
3.0
 40
3.0
 40
3.0
 40
4.0
 40
4.0
 40
4.0
 40
5.0
 40
5.0
 40
5.0
 40
6.0
 40
6.0
 40
6.0
 40
7.0
 40
7.0
 40
7.0
 40
8.0
 40
8.0
 40
8.0
 40
8.0
 10
9.68859504176647
 20
10.68033822378602
 10
9.68859504176647
 20
10.68033822378602
 10
9.68859504176647
 20
9.40272158316894
 10
9.68859504176647
 20
9.40272158316894
 10
9.68859504176647
 20
9.33192661693808
 10
9.61973273867202
 20
9.261580712519912
 10
9.501433498034068
 20
9.211460488895327
 10
9.382944274620959
 20
9.16138959619928
 10
9.216498053490533
 20
9.132481671943324
 10
9.049068881263931
 20
9.132481671943324
 10
8.881689039966156
 20
9.132481671943324
 10
8.7152464863147
 20
9.16138959619928
 10
8.596704264493825
 20
9.211460488895327
 10
8.478458028245363
 20
9.261580712519912
 10
8.40954272076139
 20
9.33192661693808
 10
8.40954272076139
 20
9.40272158316894
 10
8.40954272076139
 20
9.40272158316894
 10
8.40954272076139
 20
10.55701090187488
 10
8.40954272076139
 20
10.55701090187488
 10
8.40954272076139
 20
10.55701090187488
 10
8.64756445204997
 20
10.40285174948591
 10
8.64756445204997
 20
10.40285174948591
 10
8.64756445204997
 20
10.40285174948591
 10
9.68859504176647
 20
10.68033822378602
 10
9.68859504176647
 20
10.68033822378602
 97
        0
 97
        0
 75
     2
 76
     1
 98
        0
  0
ENDBLK
  5
BC
330
B9
100
AcDbEntity
  8
0
100
AcDbBlockEnd
  0
BLOCK
  5
C1
330
BF
100
AcDbEntity
  8
0
100
AcDbBlockBegin
  2
block 17
 70
     0
 10
0.0
 20
0.0
 30
0.0
  3
block 17
  1

  0
POLYLINE
  5
C3
330
BF
100
AcDbEntity
  8
_Calque_
370
     0
100
AcDb2dPolyline
 66
     1
 10
0.0
 20
0.0
 30
0.0
  0
VERTEX
  5
C4
330
C3
100
AcDbEntity
  8
_Calque_
370
     0
100
AcDbVertex
100
AcDb2dVertex
 10
11.14518937539494
 20
9.255315684566847
 30
0.0
  0
VERTEX
  5
C5
330
C3
100
AcDbEntity
  8
_Calque_
370
     0
100
AcDbVertex
100
AcDb2dVertex
 10
11.14518937539494
 20
11.07873480448785
 30
0.0
  0
SEQEND
  5
C6
330
C3
100
AcDbEntity
  8
_Calque_
370
     0
  0
POLYLINE
  5
C7
330
BF
100
AcDbEntity
  8
_Calque_
370
     0
100
AcDb2dPolyline
 66
     1
 10
0.0
 20
0.0
 30
0.0
  0
VERTEX
  5
C8
330
C7
100
AcDbEntity
  8
_Calque_
370
     0
100
AcDbVertex
100
AcDb2dVertex
 10
11.14518937539494
 20
11.07873480448785
 30
0.0
  0
VERTEX
  5
C9
330
C7
100
AcDbEntity
  8
_Calque_
370
     0
100
AcDbVertex
100
AcDb2dVertex
 10
8.661771759534073
 20
10.41390187752911
 30
0.0
  0
VERTEX
  5
CA
330
C7
100
AcDbEntity
  8
_Calque_
370
     0
100
AcDbVertex
100
AcDb2dVertex
 10
7.000207416889306
 20
11.37259914713773
 30
0.0
  0
SEQEND
  5
CB
330
C7
100
AcDbEntity
  8
_Calque_
370
     0
  0
POLYLINE
  5
CC
330
BF
100
AcDbEntity
  8
_Calque_
370
     0
100
AcDb2dPolyline
 66
     1
 10
0.0
 20
0.0
 30
0.0
  0
VERTEX
  5
CD
330
CC
100
AcDbEntity
  8
_Calque_
370
     0
100
AcDbVertex
100
AcDb2dVertex
 10
7.000207416889306
 20
11.37259914713773
 30
0.0
  0
VERTEX
  5
CE
330
CC
100
AcDbEntity
  8
_Calque_
370
     0
100
AcDbVertex
100
AcDb2dVertex
 10
7.000207416889306
 20
9.594959129110254
 30
0.0
  0
SEQEND
  5
CF
330
CC
100
AcDbEntity
  8
_Calque_
370
     0
  0
POLYLINE
  5
D0
330
BF
100
AcDbEntity
  8
_Calque_
370
     0
100
AcDb2dPolyline
 66
     1
 10
0.0
 20
0.0
 30
0.0
  0
VERTEX
  5
D1
330
D0
100
AcDbEntity
  8
_Calque_
370
     0
100
AcDbVertex
100
AcDb2dVertex
 10
1.496010378136392
 20
19.91637069264214
 30
0.0
  0
VERTEX
  5
D2
330
D0
100
AcDbEntity
  8
_Calque_
370
     0
100
AcDbVertex
100
AcDb2dVertex
 10
8.69260359001181
 20
15.76132522466863
 30
0.0
  0
VERTEX
  5
D3
330
D0
100
AcDbEntity
  8
_Calque_
370
     0
100
AcDbVertex
100
AcDb2dVertex
 10
19.18504548357015
 20
18.57012964665979
 30
0.0
  0
SEQEND
  5
D4
330
D0
100
AcDbEntity
  8
_Calque_
370
     0
  0
POLYLINE
  5
D5
330
BF
100
AcDbEntity
  8
_Calque_
370
     0
100
AcDb2dPolyline
 66
     1
 10
0.0
 20
0.0
 30
0.0
  0
VERTEX
  5
D6
330
D5
100
AcDbEntity
  8
_Calque_
370
     0
100
AcDbVertex
100
AcDb2dVertex
 10
8.688509122924467
 20
15.75407882204247
 30
0.0
  0
VERTEX
  5
D7
330
D5
100
AcDbEntity
  8
_Calque_
370
     0
100
AcDbVertex
100
AcDb2dVertex
 10
8.688509122924467
 20
10.48424778194728
 30
0.0
  0
SEQEND
  5
D8
330
D5
100
AcDbEntity
  8
_Calque_
370
     0
  0
INSERT
  5
DA
330
BF
100
AcDbEntity
  8
_Calque_
100
AcDbBlockReference
  2
block 18
 10
0.0
 20
0.0
 30
0.0
  0
INSERT
  5
E0
330
BF
100
AcDbEntity
  8
_Calque_
100
AcDbBlockReference
  2
block 19
 10
0.0
 20
0.0
 30
0.0
  0
POLYLINE
  5
E5
330
BF
100
AcDbEntity
  8
_Calque_
370
     0
100
AcDb2dPolyline
 66
     1
 10
0.0
 20
0.0
 30
0.0
  0
VERTEX
  5
E6
330
E5
100
AcDbEntity
  8
_Calque_
370
     0
100
AcDbVertex
100
AcDb2dVertex
 10
8.024662814541031
 20
17.1892089577561
 30
0.0
  0
VERTEX
  5
E7
330
E5
100
AcDbEntity
  8
_Calque_
370
     0
100
AcDbVertex
100
AcDb2dVertex
 10
9.609122915526978
 20
16.27436688381907
 30
0.0
  0
SEQEND
  5
E8
330
E5
100
AcDbEntity
  8
_Calque_
370
     0
  0
POLYLINE
  5
E9
330
BF
100
AcDbEntity
  8
_Calque_
370
     0
100
AcDb2dPolyline
 66
     1
 10
0.0
 20
0.0
 30
0.0
  0
VERTEX
  5
EA
330
E9
100
AcDbEntity
  8
_Calque_
370
     0
100
AcDbVertex
100
AcDb2dVertex
 10
8.425476610752325
 20
17.34336811014504
 30
0.0
  0
VERTEX
  5
EB
330
E9
100
AcDbEntity
  8
_Calque_
370
     0
100
AcDbVertex
100
AcDb2dVertex
 10
10.00994039505652
 20
16.42852603620801
 30
0.0
  0
SEQEND
  5
EC
330
E9
100
AcDbEntity
  8
_Calque_
370
     0
  0
POLYLINE
  5
ED
330
BF
100
AcDbEntity
  8
_Calque_
370
     0
100
AcDb2dPolyline
 66
     1
 10
0.0
 20
0.0
 30
0.0
  0
VERTEX
  5
EE
330
ED
100
AcDbEntity
  8
_Calque_
370
     0
100
AcDbVertex
100
AcDb2dVertex
 10
2.844915294271924
 20
20.14906468362413
 30
0.0
  0
VERTEX
  5
EF
330
ED
100
AcDbEntity
  8
_Calque_
370
     0
100
AcDbVertex
100
AcDb2dVertex
 10
4.429375395257869
 20
19.23422260968703
 30
0.0
  0
SEQEND
  5
F0
330
ED
100
AcDbEntity
  8
_Calque_
370
     0
  0
POLYLINE
  5
F1
330
BF
100
AcDbEntity
  8
_Calque_
370
     0
100
AcDb2dPolyline
 66
     1
 10
0.0
 20
0.0
 30
0.0
  0
VERTEX
  5
F2
330
F1
100
AcDbEntity
  8
_Calque_
370
     0
100
AcDbVertex
100
AcDb2dVertex
 10
3.245729090483249
 20
20.30322383601307
 30
0.0
  0
VERTEX
  5
F3
330
F1
100
AcDbEntity
  8
_Calque_
370
     0
100
AcDbVertex
100
AcDb2dVertex
 10
4.830192743936029
 20
19.38838176207598
 30
0.0
  0
SEQEND
  5
F4
330
F1
100
AcDbEntity
  8
_Calque_
370
     0
  0
INSERT
  5
F6
330
BF
100
AcDbEntity
  8
_Calque_
100
AcDbBlockReference
  2
block 20
 10
0.0
 20
0.0
 30
0.0
  0
POLYLINE
  5
FB
330
BF
100
AcDbEntity
  8
_Calque_
370
     0
100
AcDb2dPolyline
 66
     1
 10
0.0
 20
0.0
 30
0.0
  0
VERTEX
  5
FC
330
FB
100
AcDbEntity
  8
_Calque_
370
     0
100
AcDbVertex
100
AcDb2dVertex
 10
15.79453074958836
 20
19.25494159976814
 30
0.0
  0
VERTEX
  5
FD
330
FB
100
AcDbEntity
  8
_Calque_
370
     0
100
AcDbVertex
100
AcDb2dVertex
 10
17.37850141075041
 20
18.3400995258311
 30
0.0
  0
SEQEND
  5
FE
330
FB
100
AcDbEntity
  8
_Calque_
370
     0
  0
POLYLINE
  5
FF
330
BF
100
AcDbEntity
  8
_Calque_
370
     0
100
AcDb2dPolyline
 66
     1
 10
0.0
 20
0.0
 30
0.0
  0
VERTEX
  5
100
330
FF
100
AcDbEntity
  8
_Calque_
370
     0
100
AcDbVertex
100
AcDb2dVertex
 10
16.19534454579962
 20
19.40910075215708
 30
0.0
  0
VERTEX
  5
101
330
FF
100
AcDbEntity
  8
_Calque_
370
     0
100
AcDbVertex
100
AcDb2dVertex
 10
17.77931133749798
 20
18.49425867822005
 30
0.0
  0
SEQEND
  5
102
330
FF
100
AcDbEntity
  8
_Calque_
370
     0
  0
INSERT
  5
104
330
BF
100
AcDbEntity
  8
_Calque_
100
AcDbBlockReference
  2
block 21
 10
0.0
 20
0.0
 30
0.0
  0
POLYLINE
  5
109
330
BF
100
AcDbEntity
  8
_Calque_
370
     0
100
AcDb2dPolyline
 66
     1
 10
0.0
 20
0.0
 30
0.0
  0
VERTEX
  5
10A
330
109
100
AcDbEntity
  8
_Calque_
370
     0
100
AcDbVertex
100
AcDb2dVertex
 10
10.61453657467557
 20
22.24562915611394
 30
0.0
  0
VERTEX
  5
10B
330
109
100
AcDbEntity
  8
_Calque_
370
     0
100
AcDbVertex
100
AcDb2dVertex
 10
12.19875375962991
 20
21.3307870821769
 30
0.0
  0
SEQEND
  5
10C
330
109
100
AcDbEntity
  8
_Calque_
370
     0
  0
POLYLINE
  5
10D
330
BF
100
AcDbEntity
  8
_Calque_
370
     0
100
AcDb2dPolyline
 66
     1
 10
0.0
 20
0.0
 30
0.0
  0
VERTEX
  5
10E
330
10D
100
AcDbEntity
  8
_Calque_
370
     0
100
AcDbVertex
100
AcDb2dVertex
 10
11.01559702553067
 20
22.39978830850291
 30
0.0
  0
VERTEX
  5
10F
330
10D
100
AcDbEntity
  8
_Calque_
370
     0
100
AcDbVertex
100
AcDb2dVertex
 10
12.5995638172289
 20
21.48494623456591
 30
0.0
  0
SEQEND
  5
110
330
10D
100
AcDbEntity
  8
_Calque_
370
     0
  0
POLYLINE
  5
111
330
BF
100
AcDbEntity
  8
_Calque_
370
     0
100
AcDb2dPolyline
 66
     1
 10
0.0
 20
0.0
 30
0.0
  0
VERTEX
  5
112
330
111
100
AcDbEntity
  8
_Calque_
370
     0
100
AcDbVertex
100
AcDb2dVertex
 10
9.722090742397487
 20
10.0555126800553
 30
0.0
  0
VERTEX
  5
113
330
111
100
AcDbEntity
  8
_Calque_
370
     0
100
AcDbVertex
100
AcDb2dVertex
 10
11.14518937539494
 20
9.255315684566847
 30
0.0
  0
VERTEX
  5
114
330
111
100
AcDbEntity
  8
_Calque_
370
     0
100
AcDbVertex
100
AcDb2dVertex
 10
16.64430532848505
 20
10.72897851954775
 30
0.0
  0
VERTEX
  5
115
330
111
100
AcDbEntity
  8
_Calque_
370
     0
100
AcDbVertex
100
AcDb2dVertex
 10
16.64430532848505
 20
12.57795106056883
 30
0.0
  0
VERTEX
  5
116
330
111
100
AcDbEntity
  8
_Calque_
370
     0
100
AcDbVertex
100
AcDb2dVertex
 10
19.18504548357015
 20
13.25240351863657
 30
0.0
  0
VERTEX
  5
117
330
111
100
AcDbEntity
  8
_Calque_
370
     0
100
AcDbVertex
100
AcDb2dVertex
 10
19.18504548357015
 20
18.62434433737194
 30
0.0
  0
VERTEX
  5
118
330
111
100
AcDbEntity
  8
_Calque_
370
     0
100
AcDbVertex
100
AcDb2dVertex
 10
11.98485111389494
 20
22.79991147171151
 30
0.0
  0
VERTEX
  5
119
330
111
100
AcDbEntity
  8
_Calque_
370
     0
100
AcDbVertex
100
AcDb2dVertex
 10
1.496010378136392
 20
19.98938046721352
 30
0.0
  0
VERTEX
  5
11A
330
111
100
AcDbEntity
  8
_Calque_
370
     0
100
AcDbVertex
100
AcDb2dVertex
 10
1.496010378136392
 20
14.58586785406889
 30
0.0
  0
VERTEX
  5
11B
330
111
100
AcDbEntity
  8
_Calque_
370
     0
100
AcDbVertex
100
AcDb2dVertex
 10
3.225700733404939
 20
13.58721253216098
 30
0.0
  0
VERTEX
  5
11C
330
111
100
AcDbEntity
  8
_Calque_
370
     0
100
AcDbVertex
100
AcDb2dVertex
 10
3.225700733404939
 20
11.77439956192436
 30
0.0
  0
VERTEX
  5
11D
330
111
100
AcDbEntity
  8
_Calque_
370
     0
100
AcDbVertex
100
AcDb2dVertex
 10
7.000207416889306
 20
9.594959129110254
 30
0.0
  0
VERTEX
  5
11E
330
111
100
AcDbEntity
  8
_Calque_
370
     0
100
AcDbVertex
100
AcDb2dVertex
 10
8.343587269003299
 20
9.955321563734607
 30
0.0
  0
SEQEND
  5
11F
330
111
100
AcDbEntity
  8
_Calque_
370
     0
  0
INSERT
  5
121
330
BF
100
AcDbEntity
  8
_Calque_
100
AcDbBlockReference
  2
block 22
 10
0.0
 20
0.0
 30
0.0
  0
INSERT
  5
129
330
BF
100
AcDbEntity
  8
_Calque_
100
AcDbBlockReference
  2
block 23
 10
0.0
 20
0.0
 30
0.0
  0
ENDBLK
  5
C2
330
BF
100
AcDbEntity
  8
0
100
AcDbBlockEnd
  0
BLOCK
  5
DB
330
D9
100
AcDbEntity
  8
0
100
AcDbBlockBegin
  2
block 18
 70
     0
 10
0.0
 20
0.0
 30
0.0
  3
block 18
  1

  0
SPLINE
  5
DD
330
D9
100
AcDbEntity
  8
_Calque_
370
     0
100
AcDbSpline
210
0.0
220
0.0
230
1.0
 70
     8
 71
     3
 72
    17
 73
    13
 74
     0
 42
0.0000000001
 43
0.0000000001
 12
1.0
 22
0.0
 32
0.0
 13
1.0
 23
0.0
 33
0.0
 40
0.0
 40
0.0
 40
0.0
 40
0.0
 40
1.0
 40
1.0
 40
1.0
 40
2.0
 40
2.0
 40
2.0
 40
3.0
 40
3.0
 40
3.0
 40
4.0
 40
4.0
 40
4.0
 40
4.0
 10
10.43073322804759
 20
16.79998792980446
 30
0.0
 10
10.43073322804759
 20
16.95266715433048
 30
0.0
 10
10.28189812201675
 20
17.1046557458538
 30
0.0
 10
10.02631458008809
 20
17.21259181799051
 30
0.0
 10
9.770731038159306
 20
17.32072521384216
 30
0.0
 10
9.411355222110227
 20
17.38362214801687
 30
0.0
 10
9.050055499839235
 20
17.38362214801687
 30
0.0
 10
8.688509122924467
 20
17.38362214801687
 30
0.0
 10
8.329379961519196
 20
17.32072521384216
 30
0.0
 10
8.073549764946598
 20
17.21259181799051
 30
0.0
 10
7.817966223017907
 20
17.1046557458538
 30
0.0
 10
7.669381465579328
 20
16.95266715433048
 30
0.0
 10
7.669381465579328
 20
16.79998792980446
 30
0.0
  0
SPLINE
  5
DE
330
D9
100
AcDbEntity
  8
_Calque_
370
     0
100
AcDbSpline
210
0.0
220
0.0
230
1.0
 70
     8
 71
     3
 72
    17
 73
    13
 74
     0
 42
0.0000000001
 43
0.0000000001
 12
1.0
 22
0.0
 32
0.0
 13
1.0
 23
0.0
 33
0.0
 40
0.0
 40
0.0
 40
0.0
 40
0.0
 40
1.0
 40
1.0
 40
1.0
 40
2.0
 40
2.0
 40
2.0
 40
3.0
 40
3.0
 40
3.0
 40
4.0
 40
4.0
 40
4.0
 40
4.0
 10
7.669381465579328
 20
16.79998792980446
 30
0.0
 10
7.669381465579328
 20
16.64725937434968
 30
0.0
 10
7.817966223017907
 20
16.49552270010277
 30
0.0
 10
8.073549764946598
 20
16.38733471068964
 30
0.0
 10
8.329379961519196
 20
16.27920131483794
 30
0.0
 10
8.688509122924467
 20
16.21635371159201
 30
0.0
 10
9.050055499839235
 20
16.21635371159201
 30
0.0
 10
9.411355222110227
 20
16.21635371159201
 30
0.0
 10
9.770731038159306
 20
16.27920131483794
 30
0.0
 10
10.02631458008809
 20
16.38733471068964
 30
0.0
 10
10.28189812201675
 20
16.49552270010277
 30
0.0
 10
10.43073322804759
 20
16.64725937434968
 30
0.0
 10
10.43073322804759
 20
16.79998792980446
 30
0.0
  0
ENDBLK
  5
DC
330
D9
100
AcDbEntity
  8
0
100
AcDbBlockEnd
  0
BLOCK
  5
E1
330
DF
100
AcDbEntity
  8
0
100
AcDbBlockBegin
  2
block 19
 70
     0
 10
0.0
 20
0.0
 30
0.0
  3
block 19
  1

  0
SPLINE
  5
E3
330
DF
100
AcDbEntity
  8
_Calque_
370
     0
100
AcDbSpline
210
0.0
220
0.0
230
1.0
 70
     8
 71
     3
 72
    17
 73
    13
 74
     0
 42
0.0000000001
 43
0.0000000001
 12
1.0
 22
0.0
 32
0.0
 13
1.0
 23
0.0
 33
0.0
 40
0.0
 40
0.0
 40
0.0
 40
0.0
 40
1.0
 40
1.0
 40
1.0
 40
2.0
 40
2.0
 40
2.0
 40
3.0
 40
3.0
 40
3.0
 40
4.0
 40
4.0
 40
4.0
 40
4.0
 10
5.256753732495546
 20
19.78727165206548
 30
0.0
 10
5.256753732495546
 20
19.94000020752024
 30
0.0
 10
5.107675665769378
 20
20.09174749788063
 30
0.0
 10
4.852338778484496
 20
20.19987554025154
 30
0.0
 10
4.596557912840693
 20
20.30781697132744
 30
0.0
 10
4.237379420506596
 20
20.37065921563412
 30
0.0
 10
3.875833043591859
 20
20.37065921563412
 30
0.0
 10
3.51428666667709
 20
20.37065921563412
 30
0.0
 10
3.155157505271659
 20
20.30781697132744
 30
0.0
 10
2.899573963343
 20
20.19987554025154
 30
0.0
 10
2.64399042141434
 20
20.09174749788063
 30
0.0
 10
2.495159009331918
 20
19.94000020752024
 30
0.0
 10
2.495159009331918
 20
19.78727165206548
 30
0.0
  0
SPLINE
  5
E4
330
DF
100
AcDbEntity
  8
_Calque_
370
     0
100
AcDbSpline
210
0.0
220
0.0
230
1.0
 70
     8
 71
     3
 72
    17
 73
    13
 74
     0
 42
0.0000000001
 43
0.0000000001
 12
1.0
 22
0.0
 32
0.0
 13
1.0
 23
0.0
 33
0.0
 40
0.0
 40
0.0
 40
0.0
 40
0.0
 40
1.0
 40
1.0
 40
1.0
 40
2.0
 40
2.0
 40
2.0
 40
3.0
 40
3.0
 40
3.0
 40
4.0
 40
4.0
 40
4.0
 40
4.0
 10
2.495159009331918
 20
19.78727165206548
 30
0.0
 10
2.495159009331918
 20
19.63459242753943
 30
0.0
 10
2.64399042141434
 20
19.48255450508739
 30
0.0
 10
2.899573963343
 20
19.37466776387953
 30
0.0
 10
3.155157505271659
 20
19.26673169174287
 30
0.0
 10
3.51428666667709
 20
19.20363743385307
 30
0.0
 10
3.875833043591859
 20
19.20363743385307
 30
0.0
 10
4.237379420506596
 20
19.20363743385307
 30
0.0
 10
4.596557912840693
 20
19.26673169174287
 30
0.0
 10
4.852338778484496
 20
19.37466776387953
 30
0.0
 10
5.107675665769378
 20
19.48255450508739
 30
0.0
 10
5.256753732495546
 20
19.63459242753943
 30
0.0
 10
5.256753732495546
 20
19.78727165206548
 30
0.0
  0
ENDBLK
  5
E2
330
DF
100
AcDbEntity
  8
0
100
AcDbBlockEnd
  0
BLOCK
  5
F7
330
F5
100
AcDbEntity
  8
0
100
AcDbBlockBegin
  2
block 20
 70
     0
 10
0.0
 20
0.0
 30
0.0
  3
block 20
  1

  0
SPLINE
  5
F9
330
F5
100
AcDbEntity
  8
_Calque_
370
     0
100
AcDbSpline
210
0.0
220
0.0
230
1.0
 70
     8
 71
     3
 72
    17
 73
    13
 74
     0
 42
0.0000000001
 43
0.0000000001
 12
1.0
 22
0.0
 32
0.0
 13
1.0
 23
0.0
 33
0.0
 40
0.0
 40
0.0
 40
0.0
 40
0.0
 40
1.0
 40
1.0
 40
1.0
 40
2.0
 40
2.0
 40
2.0
 40
3.0
 40
3.0
 40
3.0
 40
4.0
 40
4.0
 40
4.0
 40
4.0
 10
18.20035470472785
 20
18.8657205718165
 30
0.0
 10
18.20035470472785
 20
19.01839979634258
 30
0.0
 10
18.05151940242027
 20
19.17038838786583
 30
0.0
 10
17.7956892058478
 20
19.27832446000255
 30
0.0
 10
17.54035231856289
 20
19.38645785585419
 30
0.0
 10
17.18097650251378
 20
19.44935479002891
 30
0.0
 10
16.81967678024278
 20
19.44935479002891
 30
0.0
 10
16.45837705797179
 20
19.44935479002891
 30
0.0
 10
16.09900124192275
 20
19.38645785585419
 30
0.0
 10
15.84317104535015
 20
19.27832446000255
 30
0.0
 10
15.58734084877768
 20
19.17038838786583
 30
0.0
 10
15.43900274598281
 20
19.01839979634258
 30
0.0
 10
15.43900274598281
 20
18.8657205718165
 30
0.0
  0
SPLINE
  5
FA
330
F5
100
AcDbEntity
  8
_Calque_
370
     0
100
AcDbSpline
210
0.0
220
0.0
230
1.0
 70
     8
 71
     3
 72
    17
 73
    13
 74
     0
 42
0.0000000001
 43
0.0000000001
 12
1.0
 22
0.0
 32
0.0
 13
1.0
 23
0.0
 33
0.0
 40
0.0
 40
0.0
 40
0.0
 40
0.0
 40
1.0
 40
1.0
 40
1.0
 40
2.0
 40
2.0
 40
2.0
 40
3.0
 40
3.0
 40
3.0
 40
4.0
 40
4.0
 40
4.0
 40
4.0
 10
15.43900274598281
 20
18.8657205718165
 30
0.0
 10
15.43900274598281
 20
18.71299201636171
 30
0.0
 10
15.58734084877768
 20
18.56125007948227
 30
0.0
 10
15.84317104535015
 20
18.45306735270177
 30
0.0
 10
16.09900124192275
 20
18.34493926620311
 30
0.0
 10
16.45837705797179
 20
18.28208635360405
 30
0.0
 10
16.81967678024278
 20
18.28208635360405
 30
0.0
 10
17.18097650251378
 20
18.28208635360405
 30
0.0
 10
17.54035231856289
 20
18.34493926620311
 30
0.0
 10
17.7956892058478
 20
18.45306735270177
 30
0.0
 10
18.05151940242027
 20
18.56125007948227
 30
0.0
 10
18.20035470472785
 20
18.71299201636171
 30
0.0
 10
18.20035470472785
 20
18.8657205718165
 30
0.0
  0
ENDBLK
  5
F8
330
F5
100
AcDbEntity
  8
0
100
AcDbBlockEnd
  0
BLOCK
  5
105
330
103
100
AcDbEntity
  8
0
100
AcDbBlockBegin
  2
block 21
 70
     0
 10
0.0
 20
0.0
 30
0.0
  3
block 21
  1

  0
SPLINE
  5
107
330
103
100
AcDbEntity
  8
_Calque_
370
     0
100
AcDbSpline
210
0.0
220
0.0
230
1.0
 70
     8
 71
     3
 72
    17
 73
    13
 74
     0
 42
0.0000000001
 43
0.0000000001
 12
1.0
 22
0.0
 32
0.0
 13
1.0
 23
0.0
 33
0.0
 40
0.0
 40
0.0
 40
0.0
 40
0.0
 40
1.0
 40
1.0
 40
1.0
 40
2.0
 40
2.0
 40
2.0
 40
3.0
 40
3.0
 40
3.0
 40
4.0
 40
4.0
 40
4.0
 40
4.0
 10
13.02060705360736
 20
21.8564081281623
 30
0.0
 10
13.02060705360736
 20
22.00908735268832
 30
0.0
 10
12.87177188215133
 20
22.16107594421167
 30
0.0
 10
12.61594168557873
 20
22.26901201634835
 30
0.0
 10
12.36060479829381
 20
22.37714541220005
 30
0.0
 10
12.00122898224464
 20
22.44004234637474
 30
0.0
 10
11.63992925997377
 20
22.44004234637474
 30
0.0
 10
11.27862953770278
 20
22.44004234637474
 30
0.0
 10
10.91925372165361
 20
22.37714541220005
 30
0.0
 10
10.66342352508114
 20
22.26901201634835
 30
0.0
 10
10.40783998315248
 20
22.16107594421167
 30
0.0
 10
10.2592552257139
 20
22.00908735268832
 30
0.0
 10
10.2592552257139
 20
21.8564081281623
 30
0.0
  0
SPLINE
  5
108
330
103
100
AcDbEntity
  8
_Calque_
370
     0
100
AcDbSpline
210
0.0
220
0.0
230
1.0
 70
     8
 71
     3
 72
    17
 73
    13
 74
     0
 42
0.0000000001
 43
0.0000000001
 12
1.0
 22
0.0
 32
0.0
 13
1.0
 23
0.0
 33
0.0
 40
0.0
 40
0.0
 40
0.0
 40
0.0
 40
1.0
 40
1.0
 40
1.0
 40
2.0
 40
2.0
 40
2.0
 40
3.0
 40
3.0
 40
3.0
 40
4.0
 40
4.0
 40
4.0
 40
4.0
 10
10.2592552257139
 20
21.8564081281623
 30
0.0
 10
10.2592552257139
 20
21.70367957270755
 30
0.0
 10
10.40783998315248
 20
21.55194302619648
 30
0.0
 10
10.66342352508114
 20
21.44375490904754
 30
0.0
 10
10.91925372165361
 20
21.33562151319577
 30
0.0
 10
11.27862953770278
 20
21.27277390994991
 30
0.0
 10
11.63992925997377
 20
21.27277390994991
 30
0.0
 10
12.00122898224464
 20
21.27277390994991
 30
0.0
 10
12.36060479829381
 20
21.33562151319577
 30
0.0
 10
12.61594168557873
 20
21.44375490904754
 30
0.0
 10
12.87177188215133
 20
21.55194302619648
 30
0.0
 10
13.02060705360736
 20
21.70367957270755
 30
0.0
 10
13.02060705360736
 20
21.8564081281623
 30
0.0
  0
ENDBLK
  5
106
330
103
100
AcDbEntity
  8
0
100
AcDbBlockEnd
  0
BLOCK
  5
122
330
120
100
AcDbEntity
  8
0
100
AcDbBlockBegin
  2
block 22
 70
     0
 10
0.0
 20
0.0
 30
0.0
  3
block 22
  1

  0
SPLINE
  5
124
330
120
100
AcDbEntity
  8
_Calque_
370
     0
100
AcDbSpline
210
0.0
220
0.0
230
1.0
 70
     8
 71
     3
 72
    23
 73
    19
 74
     0
 42
0.0000000001
 43
0.0000000001
 12
1.0
 22
0.0
 32
0.0
 13
1.0
 23
0.0
 33
0.0
 40
0.0
 40
0.0
 40
0.0
 40
0.0
 40
1.0
 40
1.0
 40
1.0
 40
2.0
 40
2.0
 40
2.0
 40
3.0
 40
3.0
 40
3.0
 40
4.0
 40
4.0
 40
4.0
 40
5.0
 40
5.0
 40
5.0
 40
6.0
 40
6.0
 40
6.0
 40
6.0
 10
8.40954272076139
 20
10.55701090187488
 30
0.0
 10
8.40954272076139
 20
10.55701090187488
 30
0.0
 10
8.40954272076139
 20
9.40272158316894
 30
0.0
 10
8.40954272076139
 20
9.40272158316894
 30
0.0
 10
8.40954272076139
 20
9.33192661693808
 30
0.0
 10
8.478458028245363
 20
9.261580712519912
 30
0.0
 10
8.596704264493825
 20
9.211460488895327
 30
0.0
 10
8.7152464863147
 20
9.16138959619928
 30
0.0
 10
8.881689039966156
 20
9.132481671943324
 30
0.0
 10
9.049068881263931
 20
9.132481671943324
 30
0.0
 10
9.216498053490533
 20
9.132481671943324
 30
0.0
 10
9.382944274620959
 20
9.16138959619928
 30
0.0
 10
9.501433498034068
 20
9.211460488895327
 30
0.0
 10
9.61973273867202
 20
9.261580712519912
 30
0.0
 10
9.68859504176647
 20
9.33192661693808
 30
0.0
 10
9.68859504176647
 20
9.40272158316894
 30
0.0
 10
9.68859504176647
 20
9.40272158316894
 30
0.0
 10
9.68859504176647
 20
10.68033822378602
 30
0.0
 10
9.68859504176647
 20
10.68033822378602
 30
0.0
  0
SPLINE
  5
125
330
120
100
AcDbEntity
  8
_Calque_
370
     0
100
AcDbSpline
210
0.0
220
0.0
230
1.0
 70
     8
 71
     3
 72
    17
 73
    13
 74
     0
 42
0.0000000001
 43
0.0000000001
 12
1.0
 22
0.0
 32
0.0
 13
1.0
 23
0.0
 33
0.0
 40
0.0
 40
0.0
 40
0.0
 40
0.0
 40
1.0
 40
1.0
 40
1.0
 40
2.0
 40
2.0
 40
2.0
 40
3.0
 40
3.0
 40
3.0
 40
4.0
 40
4.0
 40
4.0
 40
4.0
 10
8.40954272076139
 20
9.772703558249036
 30
0.0
 10
8.40954272076139
 20
9.701908582671571
 30
0.0
 10
8.478458028245363
 20
9.631562678253468
 30
0.0
 10
8.596704264493825
 20
9.581442454628755
 30
0.0
 10
8.7152464863147
 20
9.531371561932835
 30
0.0
 10
8.881689039966156
 20
9.50246363767688
 30
0.0
 10
9.049068881263931
 20
9.50246363767688
 30
0.0
 10
9.216498053490533
 20
9.50246363767688
 30
0.0
 10
9.382944274620959
 20
9.531371561932835
 30
0.0
 10
9.501433498034068
 20
9.581442454628755
 30
0.0
 10
9.61973273867202
 20
9.631562678253468
 30
0.0
 10
9.68859504176647
 20
9.701908582671571
 30
0.0
 10
9.68859504176647
 20
9.772703558249036
 30
0.0
  0
SPLINE
  5
126
330
120
100
AcDbEntity
  8
_Calque_
370
     0
100
AcDbSpline
210
0.0
220
0.0
230
1.0
 70
     8
 71
     3
 72
    17
 73
    13
 74
     0
 42
0.0000000001
 43
0.0000000001
 12
1.0
 22
0.0
 32
0.0
 13
1.0
 23
0.0
 33
0.0
 40
0.0
 40
0.0
 40
0.0
 40
0.0
 40
1.0
 40
1.0
 40
1.0
 40
2.0
 40
2.0
 40
2.0
 40
3.0
 40
3.0
 40
3.0
 40
4.0
 40
4.0
 40
4.0
 40
4.0
 10
8.40954272076139
 20
10.14268553332907
 30
0.0
 10
8.40954272076139
 20
10.071890548405
 30
0.0
 10
8.478458028245363
 20
10.00154464398689
 30
0.0
 10
8.596704264493825
 20
9.951424420362246
 30
0.0
 10
8.7152464863147
 20
9.901353527666327
 30
0.0
 10
8.881689039966156
 20
9.872445603410373
 30
0.0
 10
9.049068881263931
 20
9.872445603410373
 30
0.0
 10
9.216498053490533
 20
9.872445603410373
 30
0.0
 10
9.382944274620959
 20
9.901353527666327
 30
0.0
 10
9.501433498034068
 20
9.951424420362246
 30
0.0
 10
9.61973273867202
 20
10.00154464398689
 30
0.0
 10
9.68859504176647
 20
10.071890548405
 30
0.0
 10
9.68859504176647
 20
10.14268553332907
 30
0.0
  0
SPLINE
  5
127
330
120
100
AcDbEntity
  8
_Calque_
370
     0
100
AcDbSpline
210
0.0
220
0.0
230
1.0
 70
     8
 71
     3
 72
    17
 73
    13
 74
     0
 42
0.0000000001
 43
0.0000000001
 12
1.0
 22
0.0
 32
0.0
 13
1.0
 23
0.0
 33
0.0
 40
0.0
 40
0.0
 40
0.0
 40
0.0
 40
1.0
 40
1.0
 40
1.0
 40
2.0
 40
2.0
 40
2.0
 40
3.0
 40
3.0
 40
3.0
 40
4.0
 40
4.0
 40
4.0
 40
4.0
 10
8.40954272076139
 20
10.5126675084091
 30
0.0
 10
8.40954272076139
 20
10.44187251413862
 30
0.0
 10
8.478458028245363
 20
10.37152660972045
 30
0.0
 10
8.596704264493825
 20
10.32140638609574
 30
0.0
 10
8.7152464863147
 20
10.27133549339982
 30
0.0
 10
8.881689039966156
 20
10.24242756914386
 30
0.0
 10
9.049068881263931
 20
10.24242756914386
 30
0.0
 10
9.216498053490533
 20
10.24242756914386
 30
0.0
 10
9.382944274620959
 20
10.27133549339982
 30
0.0
 10
9.501433498034068
 20
10.32140638609574
 30
0.0
 10
9.61973273867202
 20
10.37152660972045
 30
0.0
 10
9.68859504176647
 20
10.44187251413862
 30
0.0
 10
9.68859504176647
 20
10.5126675084091
 30
0.0
  0
ENDBLK
  5
123
330
120
100
AcDbEntity
  8
0
100
AcDbBlockEnd
  0
BLOCK
  5
12A
330
128
100
AcDbEntity
  8
0
100
AcDbBlockBegin
  2
block 23
 70
     0
 10
0.0
 20
0.0
 30
0.0
  3
block 23
  1

  0
SPLINE
  5
12C
330
128
100
AcDbEntity
  8
_Calque_
370
     0
100
AcDbSpline
210
0.0
220
0.0
230
1.0
 70
     8
 71
     3
 72
    17
 73
    13
 74
     0
 42
0.0000000001
 43
0.0000000001
 12
1.0
 22
0.0
 32
0.0
 13
1.0
 23
0.0
 33
0.0
 40
0.0
 40
0.0
 40
0.0
 40
0.0
 40
1.0
 40
1.0
 40
1.0
 40
2.0
 40
2.0
 40
2.0
 40
3.0
 40
3.0
 40
3.0
 40
4.0
 40
4.0
 40
4.0
 40
4.0
 10
16.72525738258766
 20
11.20107550782382
 30
0.0
 10
16.75608921306537
 20
11.19915160160194
 30
0.0
 10
16.78741435283082
 20
11.19821431395543
 30
0.0
 10
16.81869016166748
 20
11.19821431395543
 30
0.0
 10
16.98636598853789
 20
11.19821431395543
 30
0.0
 10
17.15256575130128
 20
11.22712223821132
 30
0.0
 10
17.27105477843772
 20
11.2771931309073
 30
0.0
 10
17.38959700025859
 20
11.32731335453201
 30
0.0
 10
17.45846297681377
 20
11.39766439280053
 30
0.0
 10
17.45846297681377
 20
11.46844914172711
 30
0.0
 10
17.45846297681377
 20
11.46844914172711
 30
0.0
 10
17.45846297681377
 20
12.74607086579813
 30
0.0
 10
17.45846297681377
 20
12.74607086579813
 30
0.0
  0
SPLINE
  5
12D
330
128
100
AcDbEntity
  8
_Calque_
370
     0
100
AcDbSpline
210
0.0
220
0.0
230
1.0
 70
     8
 71
     3
 72
    14
 73
    10
 74
     0
 42
0.0000000001
 43
0.0000000001
 12
1.0
 22
0.0
 32
0.0
 13
1.0
 23
0.0
 33
0.0
 40
0.0
 40
0.0
 40
0.0
 40
0.0
 40
1.0
 40
1.0
 40
1.0
 40
2.0
 40
2.0
 40
2.0
 40
3.0
 40
3.0
 40
3.0
 40
3.0
 10
16.69151502731264
 20
11.57396799835436
 30
0.0
 10
16.73344631676241
 20
11.57012018591073
 30
0.0
 10
16.77631489385888
 20
11.56819627968898
 30
0.0
 10
16.81869016166748
 20
11.56819627968898
 30
0.0
 10
16.98636598853789
 20
11.56819627968898
 30
0.0
 10
17.15256575130128
 20
11.59710420394494
 30
0.0
 10
17.27105477843772
 20
11.64717509664086
 30
0.0
 10
17.38959700025859
 20
11.69729532026551
 30
0.0
 10
17.45846297681377
 20
11.76764636788056
 30
0.0
 10
17.45846297681377
 20
11.83843110746067
 30
0.0
  0
SPLINE
  5
12E
330
128
100
AcDbEntity
  8
_Calque_
370
     0
100
AcDbSpline
210
0.0
220
0.0
230
1.0
 70
     8
 71
     3
 72
    14
 73
    10
 74
     0
 42
0.0000000001
 43
0.0000000001
 12
1.0
 22
0.0
 32
0.0
 13
1.0
 23
0.0
 33
0.0
 40
0.0
 40
0.0
 40
0.0
 40
0.0
 40
1.0
 40
1.0
 40
1.0
 40
2.0
 40
2.0
 40
2.0
 40
3.0
 40
3.0
 40
3.0
 40
3.0
 10
16.66408703091955
 20
11.94636717959735
 30
0.0
 10
16.71465123290322
 20
11.94103943929074
 30
0.0
 10
16.76669536274968
 20
11.93817824542241
 30
0.0
 10
16.81869016166748
 20
11.93817824542241
 30
0.0
 10
16.98636598853789
 20
11.93817824542241
 30
0.0
 10
17.15256575130128
 20
11.96708616967843
 30
0.0
 10
17.27105477843772
 20
12.01715706237422
 30
0.0
 10
17.38959700025859
 20
12.06727728599906
 30
0.0
 10
17.45846297681377
 20
12.13762834296059
 30
0.0
 10
17.45846297681377
 20
12.20841307319422
 30
0.0
  0
SPLINE
  5
12F
330
128
100
AcDbEntity
  8
_Calque_
370
     0
100
AcDbSpline
210
0.0
220
0.0
230
1.0
 70
     8
 71
     3
 72
    14
 73
    10
 74
     0
 42
0.0000000001
 43
0.0000000001
 12
1.0
 22
0.0
 32
0.0
 13
1.0
 23
0.0
 33
0.0
 40
0.0
 40
0.0
 40
0.0
 40
0.0
 40
1.0
 40
1.0
 40
1.0
 40
2.0
 40
2.0
 40
2.0
 40
3.0
 40
3.0
 40
3.0
 40
3.0
 10
16.66408703091955
 20
12.31634914533078
 30
0.0
 10
16.71465123290322
 20
12.31102140502429
 30
0.0
 10
16.76669536274968
 20
12.3081602111559
 30
0.0
 10
16.81869016166748
 20
12.3081602111559
 30
0.0
 10
16.98636598853789
 20
12.3081602111559
 30
0.0
 10
17.15256575130128
 20
12.33706813541186
 30
0.0
 10
17.27105477843772
 20
12.38713902810784
 30
0.0
 10
17.38959700025859
 20
12.43725925173255
 30
0.0
 10
17.45846297681377
 20
12.50761031804062
 30
0.0
 10
17.45846297681377
 20
12.57839503892765
 30
0.0
  0
ENDBLK
  5
12B
330
128
100
AcDbEntity
  8
0
100
AcDbBlockEnd
  0
BLOCK
  5
132
330
130
100
AcDbEntity
  8
0
100
AcDbBlockBegin
  2
block 24
 70
     0
 10
0.0
 20
0.0
 30
0.0
  3
block 24
  1

  0
INSERT
  5
135
330
130
100
AcDbEntity
  8
_Calque_
100
AcDbBlockReference
  2
block 25
 10
0.0
 20
0.0
 30
0.0
  0
INSERT
  5
142
330
130
100
AcDbEntity
  8
_Calque_
100
AcDbBlockReference
  2
block 27
 10
0.0
 20
0.0
 30
0.0
  0
ENDBLK
  5
133
330
130
100
AcDbEntity
  8
0
100
AcDbBlockEnd
  0
BLOCK
  5
136
330
134
100
AcDbEntity
  8
0
100
AcDbBlockBegin
  2
block 25
 70
     0
 10
0.0
 20
0.0
 30
0.0
  3
block 25
  1

  0
INSERT
  5
139
330
134
100
AcDbEntity
  8
_Calque_
100
AcDbBlockReference
  2
block 26
 10
0.0
 20
0.0
 30
0.0
  0
ENDBLK
  5
137
330
134
100
AcDbEntity
  8
0
100
AcDbBlockEnd
  0
BLOCK
  5
13A
330
138
100
AcDbEntity
  8
0
100
AcDbBlockBegin
  2
block 26
 70
     0
 10
0.0
 20
0.0
 30
0.0
  3
block 26
  1

  0
SPLINE
  5
13C
330
138
100
AcDbEntity
  8
_Calque_
370
     0
100
AcDbSpline
210
0.0
220
0.0
230
1.0
 70
    11
 71
     3
 72
   125
 73
   121
 74
     0
 42
0.0000000001
 43
0.0000000001
 12
1.0
 22
0.0
 32
0.0
 13
1.0
 23
0.0
 33
0.0
 40
0.0
 40
0.0
 40
0.0
 40
0.0
 40
1.0
 40
1.0
 40
1.0
 40
2.0
 40
2.0
 40
2.0
 40
3.0
 40
3.0
 40
3.0
 40
4.0
 40
4.0
 40
4.0
 40
5.0
 40
5.0
 40
5.0
 40
6.0
 40
6.0
 40
6.0
 40
7.0
 40
7.0
 40
7.0
 40
8.0
 40
8.0
 40
8.0
 40
9.0
 40
9.0
 40
9.0
 40
10.0
 40
10.0
 40
10.0
 40
11.0
 40
11.0
 40
11.0
 40
12.0
 40
12.0
 40
12.0
 40
13.0
 40
13.0
 40
13.0
 40
14.0
 40
14.0
 40
14.0
 40
15.0
 40
15.0
 40
15.0
 40
16.0
 40
16.0
 40
16.0
 40
17.0
 40
17.0
 40
17.0
 40
18.0
 40
18.0
 40
18.0
 40
19.0
 40
19.0
 40
19.0
 40
20.0
 40
20.0
 40
20.0
 40
21.0
 40
21.0
 40
21.0
 40
22.0
 40
22.0
 40
22.0
 40
23.0
 40
23.0
 40
23.0
 40
24.0
 40
24.0
 40
24.0
 40
25.0
 40
25.0
 40
25.0
 40
26.0
 40
26.0
 40
26.0
 40
27.0
 40
27.0
 40
27.0
 40
28.0
 40
28.0
 40
28.0
 40
29.0
 40
29.0
 40
29.0
 40
30.0
 40
30.0
 40
30.0
 40
31.0
 40
31.0
 40
31.0
 40
32.0
 40
32.0
 40
32.0
 40
33.0
 40
33.0
 40
33.0
 40
34.0
 40
34.0
 40
34.0
 40
35.0
 40
35.0
 40
35.0
 40
36.0
 40
36.0
 40
36.0
 40
37.0
 40
37.0
 40
37.0
 40
38.0
 40
38.0
 40
38.0
 40
39.0
 40
39.0
 40
39.0
 40
40.0
 40
40.0
 40
40.0
 40
40.0
 10
15.6249310164962
 20
15.01100179816105
 30
0.0
 10
15.23373675139395
 20
14.77954108039826
 30
0.0
 10
14.86858921667939
 20
14.45869271971405
 30
0.0
 10
14.5621986164408
 20
14.07859791358387
 30
0.0
 10
14.5621986164408
 20
14.07859791358387
 30
0.0
 10
14.32515970540991
 20
14.22841594424153
 30
0.0
 10
14.32515970540991
 20
14.22841594424153
 30
0.0
 10
14.18935165852143
 20
14.05546170799336
 30
0.0
 10
14.06503771803486
 20
13.87190132206068
 30
0.0
 10
13.95424045202991
 20
13.68015200195325
 30
0.0
 10
13.83283703634058
 20
13.47015023820297
 30
0.0
 10
13.72879810757626
 20
13.25092359077365
 30
0.0
 10
13.64207433480846
 20
13.02691184325413
 30
0.0
 10
13.64207433480846
 20
13.02691184325413
 30
0.0
 10
13.86993389477142
 20
12.83999695416563
 30
0.0
 10
13.86993389477142
 20
12.83999695416563
 30
0.0
 10
13.71094031136357
 20
12.39296007770201
 30
0.0
 10
13.62954427890226
 20
11.92757209573803
 30
0.0
 10
13.63531599756758
 20
11.48675091629875
 30
0.0
 10
13.63531599756758
 20
11.48675091629875
 30
0.0
 10
13.33661722389877
 20
11.36342359438761
 30
0.0
 10
13.33661722389877
 20
11.36342359438761
 30
0.0
 10
13.33952774869601
 20
11.23915898482989
 30
0.0
 10
13.34870330144613
 20
11.11676895056532
 30
0.0
 10
13.36458786050821
 20
10.99684546273879
 30
0.0
 10
13.39250916618899
 20
10.78294655561609
 30
0.0
 10
13.44070548359195
 20
10.57772989195596
 30
0.0
 10
13.50814086321287
 20
10.38405666562665
 30
0.0
 10
13.50814086321287
 20
10.38405666562665
 30
0.0
 10
13.82607869909983
 20
10.46836322288514
 30
0.0
 10
13.82607869909983
 20
10.46836322288514
 30
0.0
 10
13.93159755572702
 20
10.19955899204759
 30
0.0
 10
14.07756777394118
 20
9.959174473688778
 30
0.0
 10
14.25821763507661
 20
9.757800524961795
 30
0.0
 10
14.25821763507661
 20
9.757800524961795
 30
0.0
 10
14.06794824283211
 20
9.444652873677706
 30
0.0
 10
14.06794824283211
 20
9.444652873677706
 30
0.0
 10
14.21392225056542
 20
9.290488636775931
 30
0.0
 10
14.37863443219076
 20
9.158972380689844
 30
0.0
 10
14.55933362425493
 20
9.054445217293685
 30
0.0
 10
14.69805219594059
 20
8.97447470711072
 30
0.0
 10
14.84545301108875
 20
8.910892210962077
 30
0.0
 10
14.99961216347773
 20
8.86318413181815
 30
0.0
 10
14.99961216347773
 20
8.86318413181815
 30
0.0
 10
15.24434290107826
 20
9.162326883845854
 30
0.0
 10
15.24434290107826
 20
9.162326883845854
 30
0.0
 10
15.46983457646071
 20
9.10648427248449
 30
0.0
 10
15.70874426446694
 20
9.086702570049862
 30
0.0
 10
15.95253771442096
 20
9.10406705697499
 30
0.0
 10
15.95253771442096
 20
9.10406705697499
 30
0.0
 10
16.05223552145391
 20
8.779814862206232
 30
0.0
 10
16.05223552145391
 20
8.779814862206232
 30
0.0
 10
16.31334412740427
 20
8.812619929834547
 30
0.0
 10
16.5783005457982
 20
8.882916503323985
 30
0.0
 10
16.83896517338966
 20
8.990852575460544
 30
0.0
 10
17.01236338799666
 20
9.063122386100462
 30
0.0
 10
17.18388702731083
 20
9.151770065090268
 30
0.0
 10
17.35102021396476
 20
9.255315684566847
 30
0.0
 10
17.35102021396476
 20
9.255315684566847
 30
0.0
 10
17.32452950521837
 20
9.58869918930855
 30
0.0
 10
17.32452950521837
 20
9.58869918930855
 30
0.0
 10
17.65790792180865
 20
9.805947511435834
 30
0.0
 10
17.96913675138353
 20
10.08777510746727
 30
0.0
 10
18.23651038528695
 20
10.41390187752911
 30
0.0
 10
18.23651038528695
 20
10.41390187752911
 30
0.0
 10
18.50191078203983
 20
10.30167401458997
 30
0.0
 10
18.50191078203983
 20
10.30167401458997
 30
0.0
 10
18.63584425363542
 20
10.47270945510048
 30
0.0
 10
18.75823428789998
 20
10.65384751503951
 30
0.0
 10
18.86760095697087
 20
10.84318473947975
 30
0.0
 10
18.97499438889108
 20
11.02861458086326
 30
0.0
 10
19.06847649889969
 20
11.22135051954594
 30
0.0
 10
19.14893524371462
 20
11.41789007410445
 30
0.0
 10
19.14893524371462
 20
11.41789007410445
 30
0.0
 10
18.93404971801655
 20
11.63469437166346
 30
0.0
 10
18.93404971801655
 20
11.63469437166346
 30
0.0
 10
19.07567881449933
 20
12.01863699023727
 30
0.0
 10
19.15998537175789
 20
12.41703357093903
 30
0.0
 10
19.18070436183896
 20
12.80339340502242
 30
0.0
 10
19.18070436183896
 20
12.80339340502242
 30
0.0
 10
19.48083373244197
 20
12.86407044740271
 30
0.0
 10
19.48083373244197
 20
12.86407044740271
 30
0.0
 10
19.49287047906048
 20
13.09000610114392
 30
0.0
 10
19.48566816346078
 20
13.31209394244163
 30
0.0
 10
19.45769752685146
 20
13.52599284956427
 30
0.0
 10
19.43362795499459
 20
13.7090599262092
 30
0.0
 10
19.39460326896166
 20
13.88542319323847
 30
0.0
 10
19.34211516075618
 20
14.05353780177148
 30
0.0
 10
19.34211516075618
 20
14.05353780177148
 30
0.0
 10
19.00824343487841
 20
14.01451703711889
 30
0.0
 10
19.00824343487841
 20
14.01451703711889
 30
0.0
 10
18.88442280367945
 20
14.34449161962437
 30
0.0
 10
18.70041843938801
 20
14.63307755289648
 30
0.0
 10
18.46723503608611
 20
14.86044380357189
 30
0.0
 10
18.46723503608611
 20
14.86044380357189
 30
0.0
 10
18.65705655300405
 20
15.17502713630291
 30
0.0
 10
18.65705655300405
 20
15.17502713630291
 30
0.0
 10
18.53663975589003
 20
15.28799496317358
 30
0.0
 10
18.40463019051625
 20
15.38675548255998
 30
0.0
 10
18.26251167654144
 20
15.46864482430901
 30
0.0
 10
18.11461366031013
 20
15.55393800014284
 30
0.0
 10
17.95611338618978
 20
15.62088531101392
 30
0.0
 10
17.79041467633907
 20
15.66956969716669
 30
0.0
 10
17.79041467633907
 20
15.66956969716669
 30
0.0
 10
17.49220533208872
 20
15.37590267823186
 30
0.0
 10
17.49220533208872
 20
15.37590267823186
 30
0.0
 10
17.30622773064673
 20
15.41447946452568
 30
0.0
 10
17.11162107939304
 20
15.42844011736604
 30
0.0
 10
16.91310955932273
 20
15.41783396768163
 30
0.0
 10
16.91310955932273
 20
15.41783396768163
 30
0.0
 10
16.81582896779916
 20
15.7487951687624
 30
0.0
 10
16.81582896779916
 20
15.7487951687624
 30
0.0
 10
16.53977309043323
 20
15.71894995685991
 30
0.0
 10
16.25893211297717
 20
15.64668014621996
 30
0.0
 10
15.98287623561118
 20
15.53223239148643
 30
0.0
 10
15.84174044841602
 20
15.47347925532794
 30
0.0
 10
15.70203525815499
 20
15.40387331484124
 30
0.0
 10
15.56519126176234
 20
15.32435185767295
 30
0.0
 10
15.56519126176234
 20
15.32435185767295
 30
0.0
 10
15.6249310164962
 20
15.01100179816105
 30
0.0
 10
15.6249310164962
 20
15.01100179816105
 30
0.0
  0
HATCH
  5
13D
330
138
100
AcDbEntity
  8
_Calque_
 62
   252
100
AcDbHatch
 10
0.0
 20
0.0
 30
0.0
210
0.0
220
0.0
230
1.0
  2
SOLID
 70
     1
 71
     0
 91
        1
 92
        1
 93
        1
 72
     4
 94
        3
 73
     0
 74
     1
 95
      125
 96
      121
 40
0.0
 40
0.0
 40
0.0
 40
0.0
 40
1.0
 40
1.0
 40
1.0
 40
2.0
 40
2.0
 40
2.0
 40
3.0
 40
3.0
 40
3.0
 40
4.0
 40
4.0
 40
4.0
 40
5.0
 40
5.0
 40
5.0
 40
6.0
 40
6.0
 40
6.0
 40
7.0
 40
7.0
 40
7.0
 40
8.0
 40
8.0
 40
8.0
 40
9.0
 40
9.0
 40
9.0
 40
10.0
 40
10.0
 40
10.0
 40
11.0
 40
11.0
 40
11.0
 40
12.0
 40
12.0
 40
12.0
 40
13.0
 40
13.0
 40
13.0
 40
14.0
 40
14.0
 40
14.0
 40
15.0
 40
15.0
 40
15.0
 40
16.0
 40
16.0
 40
16.0
 40
17.0
 40
17.0
 40
17.0
 40
18.0
 40
18.0
 40
18.0
 40
19.0
 40
19.0
 40
19.0
 40
20.0
 40
20.0
 40
20.0
 40
21.0
 40
21.0
 40
21.0
 40
22.0
 40
22.0
 40
22.0
 40
23.0
 40
23.0
 40
23.0
 40
24.0
 40
24.0
 40
24.0
 40
25.0
 40
25.0
 40
25.0
 40
26.0
 40
26.0
 40
26.0
 40
27.0
 40
27.0
 40
27.0
 40
28.0
 40
28.0
 40
28.0
 40
29.0
 40
29.0
 40
29.0
 40
30.0
 40
30.0
 40
30.0
 40
31.0
 40
31.0
 40
31.0
 40
32.0
 40
32.0
 40
32.0
 40
33.0
 40
33.0
 40
33.0
 40
34.0
 40
34.0
 40
34.0
 40
35.0
 40
35.0
 40
35.0
 40
36.0
 40
36.0
 40
36.0
 40
37.0
 40
37.0
 40
37.0
 40
38.0
 40
38.0
 40
38.0
 40
39.0
 40
39.0
 40
39.0
 40
40.0
 40
40.0
 40
40.0
 40
40.0
 10
15.6249310164962
 20
15.01100179816105
 10
15.23373675139395
 20
14.77954108039826
 10
14.86858921667939
 20
14.45869271971405
 10
14.5621986164408
 20
14.07859791358387
 10
14.5621986164408
 20
14.07859791358387
 10
14.32515970540991
 20
14.22841594424153
 10
14.32515970540991
 20
14.22841594424153
 10
14.18935165852143
 20
14.05546170799336
 10
14.06503771803486
 20
13.87190132206068
 10
13.95424045202991
 20
13.68015200195325
 10
13.83283703634058
 20
13.47015023820297
 10
13.72879810757626
 20
13.25092359077365
 10
13.64207433480846
 20
13.02691184325413
 10
13.64207433480846
 20
13.02691184325413
 10
13.86993389477142
 20
12.83999695416563
 10
13.86993389477142
 20
12.83999695416563
 10
13.71094031136357
 20
12.39296007770201
 10
13.62954427890226
 20
11.92757209573803
 10
13.63531599756758
 20
11.48675091629875
 10
13.63531599756758
 20
11.48675091629875
 10
13.33661722389877
 20
11.36342359438761
 10
13.33661722389877
 20
11.36342359438761
 10
13.33952774869601
 20
11.23915898482989
 10
13.34870330144613
 20
11.11676895056532
 10
13.36458786050821
 20
10.99684546273879
 10
13.39250916618899
 20
10.78294655561609
 10
13.44070548359195
 20
10.57772989195596
 10
13.50814086321287
 20
10.38405666562665
 10
13.50814086321287
 20
10.38405666562665
 10
13.82607869909983
 20
10.46836322288514
 10
13.82607869909983
 20
10.46836322288514
 10
13.93159755572702
 20
10.19955899204759
 10
14.07756777394118
 20
9.959174473688778
 10
14.25821763507661
 20
9.757800524961795
 10
14.25821763507661
 20
9.757800524961795
 10
14.06794824283211
 20
9.444652873677706
 10
14.06794824283211
 20
9.444652873677706
 10
14.21392225056542
 20
9.290488636775931
 10
14.37863443219076
 20
9.158972380689844
 10
14.55933362425493
 20
9.054445217293685
 10
14.69805219594059
 20
8.97447470711072
 10
14.84545301108875
 20
8.910892210962077
 10
14.99961216347773
 20
8.86318413181815
 10
14.99961216347773
 20
8.86318413181815
 10
15.24434290107826
 20
9.162326883845854
 10
15.24434290107826
 20
9.162326883845854
 10
15.46983457646071
 20
9.10648427248449
 10
15.70874426446694
 20
9.086702570049862
 10
15.95253771442096
 20
9.10406705697499
 10
15.95253771442096
 20
9.10406705697499
 10
16.05223552145391
 20
8.779814862206232
 10
16.05223552145391
 20
8.779814862206232
 10
16.31334412740427
 20
8.812619929834547
 10
16.5783005457982
 20
8.882916503323985
 10
16.83896517338966
 20
8.990852575460544
 10
17.01236338799666
 20
9.063122386100462
 10
17.18388702731083
 20
9.151770065090268
 10
17.35102021396476
 20
9.255315684566847
 10
17.35102021396476
 20
9.255315684566847
 10
17.32452950521837
 20
9.58869918930855
 10
17.32452950521837
 20
9.58869918930855
 10
17.65790792180865
 20
9.805947511435834
 10
17.96913675138353
 20
10.08777510746727
 10
18.23651038528695
 20
10.41390187752911
 10
18.23651038528695
 20
10.41390187752911
 10
18.50191078203983
 20
10.30167401458997
 10
18.50191078203983
 20
10.30167401458997
 10
18.63584425363542
 20
10.47270945510048
 10
18.75823428789998
 20
10.65384751503951
 10
18.86760095697087
 20
10.84318473947975
 10
18.97499438889108
 20
11.02861458086326
 10
19.06847649889969
 20
11.22135051954594
 10
19.14893524371462
 20
11.41789007410445
 10
19.14893524371462
 20
11.41789007410445
 10
18.93404971801655
 20
11.63469437166346
 10
18.93404971801655
 20
11.63469437166346
 10
19.07567881449933
 20
12.01863699023727
 10
19.15998537175789
 20
12.41703357093903
 10
19.18070436183896
 20
12.80339340502242
 10
19.18070436183896
 20
12.80339340502242
 10
19.48083373244197
 20
12.86407044740271
 10
19.48083373244197
 20
12.86407044740271
 10
19.49287047906048
 20
13.09000610114392
 10
19.48566816346078
 20
13.31209394244163
 10
19.45769752685146
 20
13.52599284956427
 10
19.43362795499459
 20
13.7090599262092
 10
19.39460326896166
 20
13.88542319323847
 10
19.34211516075618
 20
14.05353780177148
 10
19.34211516075618
 20
14.05353780177148
 10
19.00824343487841
 20
14.01451703711889
 10
19.00824343487841
 20
14.01451703711889
 10
18.88442280367945
 20
14.34449161962437
 10
18.70041843938801
 20
14.63307755289648
 10
18.46723503608611
 20
14.86044380357189
 10
18.46723503608611
 20
14.86044380357189
 10
18.65705655300405
 20
15.17502713630291
 10
18.65705655300405
 20
15.17502713630291
 10
18.53663975589003
 20
15.28799496317358
 10
18.40463019051625
 20
15.38675548255998
 10
18.26251167654144
 20
15.46864482430901
 10
18.11461366031013
 20
15.55393800014284
 10
17.95611338618978
 20
15.62088531101392
 10
17.79041467633907
 20
15.66956969716669
 10
17.79041467633907
 20
15.66956969716669
 10
17.49220533208872
 20
15.37590267823186
 10
17.49220533208872
 20
15.37590267823186
 10
17.30622773064673
 20
15.41447946452568
 10
17.11162107939304
 20
15.42844011736604
 10
16.91310955932273
 20
15.41783396768163
 10
16.91310955932273
 20
15.41783396768163
 10
16.81582896779916
 20
15.7487951687624
 10
16.81582896779916
 20
15.7487951687624
 10
16.53977309043323
 20
15.71894995685991
 10
16.25893211297717
 20
15.64668014621996
 10
15.98287623561118
 20
15.53223239148643
 10
15.84174044841602
 20
15.47347925532794
 10
15.70203525815499
 20
15.40387331484124
 10
15.56519126176234
 20
15.32435185767295
 10
15.56519126176234
 20
15.32435185767295
 10
15.6249310164962
 20
15.01100179816105
 10
15.6249310164962
 20
15.01100179816105
 97
        0
 97
        0
 75
     2
 76
     1
 98
        0
  0
SPLINE
  5
13E
330
138
100
AcDbEntity
  8
_Calque_
370
     0
100
AcDbSpline
210
0.0
220
0.0
230
1.0
 70
    11
 71
     3
 72
    32
 73
    28
 74
     0
 42
0.0000000001
 43
0.0000000001
 12
1.0
 22
0.0
 32
0.0
 13
1.0
 23
0.0
 33
0.0
 40
0.0
 40
0.0
 40
0.0
 40
0.0
 40
1.0
 40
1.0
 40
1.0
 40
2.0
 40
2.0
 40
2.0
 40
3.0
 40
3.0
 40
3.0
 40
4.0
 40
4.0
 40
4.0
 40
5.0
 40
5.0
 40
5.0
 40
6.0
 40
6.0
 40
6.0
 40
7.0
 40
7.0
 40
7.0
 40
8.0
 40
8.0
 40
8.0
 40
9.0
 40
9.0
 40
9.0
 40
9.0
 10
14.41864561011022
 20
8.819822245434123
 30
0.0
 10
13.72781148900095
 20
9.21871721422852
 30
0.0
 10
13.25571450072508
 20
9.986153394212504
 30
0.0
 10
13.1352483726822
 20
10.90578056823961
 30
0.0
 10
13.01483157556824
 20
11.82545707319558
 30
0.0
 10
13.24802264095714
 20
12.88577605605903
 30
0.0
 10
13.76826285058793
 20
13.78710145551463
 30
0.0
 10
13.76826285058793
 20
13.78710145551463
 30
0.0
 10
11.41256300929824
 20
15.14780169221129
 30
0.0
 10
11.41256300929824
 20
15.14780169221129
 30
0.0
 10
11.41256300929824
 20
15.14780169221129
 30
0.0
 10
10.83830166755125
 20
14.10745650691109
 30
0.0
 10
10.83830166755125
 20
14.10745650691109
 30
0.0
 10
10.83830166755125
 20
14.10745650691109
 30
0.0
 10
10.77663800659558
 20
12.68919230493266
 30
0.0
 10
10.77663800659558
 20
12.68919230493266
 30
0.0
 10
10.77663800659558
 20
12.68919230493266
 30
0.0
 10
11.17745180280691
 20
10.74678698483177
 30
0.0
 10
11.17745180280691
 20
10.74678698483177
 30
0.0
 10
11.17745180280691
 20
10.74678698483177
 30
0.0
 10
12.16407037809618
 20
9.852663900975873
 30
0.0
 10
12.16407037809618
 20
9.852663900975873
 30
0.0
 10
12.16407037809618
 20
9.852663900975873
 30
0.0
 10
14.5072894944084
 20
8.526895190430754
 30
0.0
 10
14.5072894944084
 20
8.526895190430754
 30
0.0
 10
14.5072894944084
 20
8.526895190430754
 30
0.0
 10
14.41864561011022
 20
8.819822245434123
 30
0.0
 10
14.41864561011022
 20
8.819822245434123
 30
0.0
  0
SPLINE
  5
13F
330
138
100
AcDbEntity
  8
_Calque_
370
     0
100
AcDbSpline
210
0.0
220
0.0
230
1.0
 70
    11
 71
     3
 72
    35
 73
    31
 74
     0
 42
0.0000000001
 43
0.0000000001
 12
1.0
 22
0.0
 32
0.0
 13
1.0
 23
0.0
 33
0.0
 40
0.0
 40
0.0
 40
0.0
 40
0.0
 40
1.0
 40
1.0
 40
1.0
 40
2.0
 40
2.0
 40
2.0
 40
3.0
 40
3.0
 40
3.0
 40
4.0
 40
4.0
 40
4.0
 40
5.0
 40
5.0
 40
5.0
 40
6.0
 40
6.0
 40
6.0
 40
7.0
 40
7.0
 40
7.0
 40
8.0
 40
8.0
 40
8.0
 40
9.0
 40
9.0
 40
9.0
 40
10.0
 40
10.0
 40
10.0
 40
10.0
 10
12.29316941867289
 20
10.04683043659274
 30
0.0
 10
11.60283612510082
 20
10.44572032658225
 30
0.0
 10
11.13024581559916
 20
11.21316671455978
 30
0.0
 10
11.01026928522412
 20
12.13278875939823
 30
0.0
 10
10.8898524881101
 20
13.05197195506658
 30
0.0
 10
11.12299045745082
 20
14.11278424721765
 30
0.0
 10
11.64378079700996
 20
15.01435630131705
 30
0.0
 10
12.16407037809618
 20
15.91597768634516
 30
0.0
 10
12.96569797051883
 20
16.64799933828111
 30
0.0
 10
13.82223466628074
 20
17.00352734188662
 30
0.0
 10
14.67876380279364
 20
17.3590553454922
 30
0.0
 10
15.57964522389035
 20
17.33399523367978
 30
0.0
 10
16.27047555030799
 20
16.93535199833414
 30
0.0
 10
16.27047555030799
 20
16.93535199833414
 30
0.0
 10
18.39594794705382
 20
15.70834380717556
 30
0.0
 10
18.39594794705382
 20
15.70834380717556
 30
0.0
 10
19.08628496418377
 20
15.30945391718608
 30
0.0
 10
19.55838195245965
 20
14.54201787168062
 30
0.0
 10
19.67884808050247
 20
13.62238548437007
 30
0.0
 10
19.79926487761661
 20
12.7027089794141
 30
0.0
 10
19.56612690827577
 20
11.64238999655065
 30
0.0
 10
19.04534029330924
 20
10.74057640505818
 30
0.0
 10
18.52504698763041
 20
9.839196557423039
 30
0.0
 10
17.72341939520782
 20
9.107421560130936
 30
0.0
 10
16.86688647907031
 20
8.751893556525454
 30
0.0
 10
16.01035356293287
 20
8.39587730165068
 30
0.0
 10
15.10947214183623
 20
8.42142566473236
 30
0.0
 10
14.41864561011022
 20
8.819822245434123
 30
0.0
 10
14.41864561011022
 20
8.819822245434123
 30
0.0
 10
12.29316941867289
 20
10.04683043659274
 30
0.0
 10
12.29316941867289
 20
10.04683043659274
 30
0.0
  0
HATCH
  5
140
330
138
100
AcDbEntity
  8
_Calque_
 62
   255
100
AcDbHatch
 10
0.0
 20
0.0
 30
0.0
210
0.0
220
0.0
230
1.0
  2
SOLID
 70
     1
 71
     0
 91
        1
 92
        1
 93
        1
 72
     4
 94
        3
 73
     0
 74
     1
 95
       35
 96
       31
 40
0.0
 40
0.0
 40
0.0
 40
0.0
 40
1.0
 40
1.0
 40
1.0
 40
2.0
 40
2.0
 40
2.0
 40
3.0
 40
3.0
 40
3.0
 40
4.0
 40
4.0
 40
4.0
 40
5.0
 40
5.0
 40
5.0
 40
6.0
 40
6.0
 40
6.0
 40
7.0
 40
7.0
 40
7.0
 40
8.0
 40
8.0
 40
8.0
 40
9.0
 40
9.0
 40
9.0
 40
10.0
 40
10.0
 40
10.0
 40
10.0
 10
12.29316941867289
 20
10.04683043659274
 10
11.60283612510082
 20
10.44572032658225
 10
11.13024581559916
 20
11.21316671455978
 10
11.01026928522412
 20
12.13278875939823
 10
10.8898524881101
 20
13.05197195506658
 10
11.12299045745082
 20
14.11278424721765
 10
11.64378079700996
 20
15.01435630131705
 10
12.16407037809618
 20
15.91597768634516
 10
12.96569797051883
 20
16.64799933828111
 10
13.82223466628074
 20
17.00352734188662
 10
14.67876380279364
 20
17.3590553454922
 10
15.57964522389035
 20
17.33399523367978
 10
16.27047555030799
 20
16.93535199833414
 10
16.27047555030799
 20
16.93535199833414
 10
18.39594794705382
 20
15.70834380717556
 10
18.39594794705382
 20
15.70834380717556
 10
19.08628496418377
 20
15.30945391718608
 10
19.55838195245965
 20
14.54201787168062
 10
19.67884808050247
 20
13.62238548437007
 10
19.79926487761661
 20
12.7027089794141
 10
19.56612690827577
 20
11.64238999655065
 10
19.04534029330924
 20
10.74057640505818
 10
18.52504698763041
 20
9.839196557423039
 10
17.72341939520782
 20
9.107421560130936
 10
16.86688647907031
 20
8.751893556525454
 10
16.01035356293287
 20
8.39587730165068
 10
15.10947214183623
 20
8.42142566473236
 10
14.41864561011022
 20
8.819822245434123
 10
14.41864561011022
 20
8.819822245434123
 10
12.29316941867289
 20
10.04683043659274
 10
12.29316941867289
 20
10.04683043659274
 97
        0
 97
        0
 75
     2
 76
     1
 98
        0
  0
ENDBLK
  5
13B
330
138
100
AcDbEntity
  8
0
100
AcDbBlockEnd
  0
BLOCK
  5
143
330
141
100
AcDbEntity
  8
0
100
AcDbBlockBegin
  2
block 27
 70
     0
 10
0.0
 20
0.0
 30
0.0
  3
block 27
  1

  0
SPLINE
  5
145
330
141
100
AcDbEntity
  8
_Calque_
370
     0
100
AcDbSpline
210
0.0
220
0.0
230
1.0
 70
     8
 71
     3
 72
    17
 73
    13
 74
     0
 42
0.0000000001
 43
0.0000000001
 12
1.0
 22
0.0
 32
0.0
 13
1.0
 23
0.0
 33
0.0
 40
0.0
 40
0.0
 40
0.0
 40
0.0
 40
1.0
 40
1.0
 40
1.0
 40
2.0
 40
2.0
 40
2.0
 40
3.0
 40
3.0
 40
3.0
 40
4.0
 40
4.0
 40
4.0
 40
4.0
 10
18.39594794705382
 20
15.70834380717556
 30
0.0
 10
17.70511762063618
 20
16.1072336971651
 30
0.0
 10
16.80423619953953
 20
16.13224447804867
 30
0.0
 10
15.94770328340197
 20
15.77671647444315
 30
0.0
 10
15.09117036726459
 20
15.42094181619379
 30
0.0
 10
14.289542774842
 20
14.68896949518664
 30
0.0
 10
13.76826285058793
 20
13.78710145551463
 30
0.0
 10
13.24802264095714
 20
12.88577605605903
 30
0.0
 10
13.01483157556824
 20
11.82545707319558
 30
0.0
 10
13.1352483726822
 20
10.90578056823961
 30
0.0
 10
13.25571450072508
 20
9.986153394212504
 30
0.0
 10
13.72781148900095
 20
9.21871721422852
 30
0.0
 10
14.41864561011022
 20
8.819822245434123
 30
0.0
  0
SPLINE
  5
146
330
141
100
AcDbEntity
  8
_Calque_
370
     0
100
AcDbSpline
210
0.0
220
0.0
230
1.0
 70
    11
 71
     3
 72
   125
 73
   121
 74
     0
 42
0.0000000001
 43
0.0000000001
 12
1.0
 22
0.0
 32
0.0
 13
1.0
 23
0.0
 33
0.0
 40
0.0
 40
0.0
 40
0.0
 40
0.0
 40
1.0
 40
1.0
 40
1.0
 40
2.0
 40
2.0
 40
2.0
 40
3.0
 40
3.0
 40
3.0
 40
4.0
 40
4.0
 40
4.0
 40
5.0
 40
5.0
 40
5.0
 40
6.0
 40
6.0
 40
6.0
 40
7.0
 40
7.0
 40
7.0
 40
8.0
 40
8.0
 40
8.0
 40
9.0
 40
9.0
 40
9.0
 40
10.0
 40
10.0
 40
10.0
 40
11.0
 40
11.0
 40
11.0
 40
12.0
 40
12.0
 40
12.0
 40
13.0
 40
13.0
 40
13.0
 40
14.0
 40
14.0
 40
14.0
 40
15.0
 40
15.0
 40
15.0
 40
16.0
 40
16.0
 40
16.0
 40
17.0
 40
17.0
 40
17.0
 40
18.0
 40
18.0
 40
18.0
 40
19.0
 40
19.0
 40
19.0
 40
20.0
 40
20.0
 40
20.0
 40
21.0
 40
21.0
 40
21.0
 40
22.0
 40
22.0
 40
22.0
 40
23.0
 40
23.0
 40
23.0
 40
24.0
 40
24.0
 40
24.0
 40
25.0
 40
25.0
 40
25.0
 40
26.0
 40
26.0
 40
26.0
 40
27.0
 40
27.0
 40
27.0
 40
28.0
 40
28.0
 40
28.0
 40
29.0
 40
29.0
 40
29.0
 40
30.0
 40
30.0
 40
30.0
 40
31.0
 40
31.0
 40
31.0
 40
32.0
 40
32.0
 40
32.0
 40
33.0
 40
33.0
 40
33.0
 40
34.0
 40
34.0
 40
34.0
 40
35.0
 40
35.0
 40
35.0
 40
36.0
 40
36.0
 40
36.0
 40
37.0
 40
37.0
 40
37.0
 40
38.0
 40
38.0
 40
38.0
 40
39.0
 40
39.0
 40
39.0
 40
40.0
 40
40.0
 40
40.0
 40
40.0
 10
15.6249310164962
 20
15.01100179816105
 30
0.0
 10
15.23373675139395
 20
14.77954108039826
 30
0.0
 10
14.86858921667939
 20
14.45869271971405
 30
0.0
 10
14.5621986164408
 20
14.07859791358387
 30
0.0
 10
14.5621986164408
 20
14.07859791358387
 30
0.0
 10
14.32515970540991
 20
14.22841594424153
 30
0.0
 10
14.32515970540991
 20
14.22841594424153
 30
0.0
 10
14.18935165852143
 20
14.05546170799336
 30
0.0
 10
14.06503771803486
 20
13.87190132206068
 30
0.0
 10
13.95424045202991
 20
13.68015200195325
 30
0.0
 10
13.83283703634058
 20
13.47015023820297
 30
0.0
 10
13.72879810757626
 20
13.25092359077365
 30
0.0
 10
13.64207433480846
 20
13.02691184325413
 30
0.0
 10
13.64207433480846
 20
13.02691184325413
 30
0.0
 10
13.86993389477142
 20
12.83999695416563
 30
0.0
 10
13.86993389477142
 20
12.83999695416563
 30
0.0
 10
13.71094031136357
 20
12.39296007770201
 30
0.0
 10
13.62954427890226
 20
11.92757209573803
 30
0.0
 10
13.63531599756758
 20
11.48675091629875
 30
0.0
 10
13.63531599756758
 20
11.48675091629875
 30
0.0
 10
13.33661722389877
 20
11.36342359438761
 30
0.0
 10
13.33661722389877
 20
11.36342359438761
 30
0.0
 10
13.33952774869601
 20
11.23915898482989
 30
0.0
 10
13.34870330144613
 20
11.11676895056532
 30
0.0
 10
13.36458786050821
 20
10.99684546273879
 30
0.0
 10
13.39250916618899
 20
10.78294655561609
 30
0.0
 10
13.44070548359195
 20
10.57772989195596
 30
0.0
 10
13.50814086321287
 20
10.38405666562665
 30
0.0
 10
13.50814086321287
 20
10.38405666562665
 30
0.0
 10
13.82607869909983
 20
10.46836322288514
 30
0.0
 10
13.82607869909983
 20
10.46836322288514
 30
0.0
 10
13.93159755572702
 20
10.19955899204759
 30
0.0
 10
14.07756777394118
 20
9.959174473688778
 30
0.0
 10
14.25821763507661
 20
9.757800524961795
 30
0.0
 10
14.25821763507661
 20
9.757800524961795
 30
0.0
 10
14.06794824283211
 20
9.444652873677706
 30
0.0
 10
14.06794824283211
 20
9.444652873677706
 30
0.0
 10
14.21392225056542
 20
9.290488636775931
 30
0.0
 10
14.37863443219076
 20
9.158972380689844
 30
0.0
 10
14.55933362425493
 20
9.054445217293685
 30
0.0
 10
14.69805219594059
 20
8.97447470711072
 30
0.0
 10
14.84545301108875
 20
8.910892210962077
 30
0.0
 10
14.99961216347773
 20
8.86318413181815
 30
0.0
 10
14.99961216347773
 20
8.86318413181815
 30
0.0
 10
15.24434290107826
 20
9.162326883845854
 30
0.0
 10
15.24434290107826
 20
9.162326883845854
 30
0.0
 10
15.46983457646071
 20
9.10648427248449
 30
0.0
 10
15.70874426446694
 20
9.086702570049862
 30
0.0
 10
15.95253771442096
 20
9.10406705697499
 30
0.0
 10
15.95253771442096
 20
9.10406705697499
 30
0.0
 10
16.05223552145391
 20
8.779814862206232
 30
0.0
 10
16.05223552145391
 20
8.779814862206232
 30
0.0
 10
16.31334412740427
 20
8.812619929834547
 30
0.0
 10
16.5783005457982
 20
8.882916503323985
 30
0.0
 10
16.83896517338966
 20
8.990852575460544
 30
0.0
 10
17.01236338799666
 20
9.063122386100462
 30
0.0
 10
17.18388702731083
 20
9.151770065090268
 30
0.0
 10
17.35102021396476
 20
9.255315684566847
 30
0.0
 10
17.35102021396476
 20
9.255315684566847
 30
0.0
 10
17.32452950521837
 20
9.58869918930855
 30
0.0
 10
17.32452950521837
 20
9.58869918930855
 30
0.0
 10
17.65790792180865
 20
9.805947511435834
 30
0.0
 10
17.96913675138353
 20
10.08777510746727
 30
0.0
 10
18.23651038528695
 20
10.41390187752911
 30
0.0
 10
18.23651038528695
 20
10.41390187752911
 30
0.0
 10
18.50191078203983
 20
10.30167401458997
 30
0.0
 10
18.50191078203983
 20
10.30167401458997
 30
0.0
 10
18.63584425363542
 20
10.47270945510048
 30
0.0
 10
18.75823428789998
 20
10.65384751503951
 30
0.0
 10
18.86760095697087
 20
10.84318473947975
 30
0.0
 10
18.97499438889108
 20
11.02861458086326
 30
0.0
 10
19.06847649889969
 20
11.22135051954594
 30
0.0
 10
19.14893524371462
 20
11.41789007410445
 30
0.0
 10
19.14893524371462
 20
11.41789007410445
 30
0.0
 10
18.93404971801655
 20
11.63469437166346
 30
0.0
 10
18.93404971801655
 20
11.63469437166346
 30
0.0
 10
19.07567881449933
 20
12.01863699023727
 30
0.0
 10
19.15998537175789
 20
12.41703357093903
 30
0.0
 10
19.18070436183896
 20
12.80339340502242
 30
0.0
 10
19.18070436183896
 20
12.80339340502242
 30
0.0
 10
19.48083373244197
 20
12.86407044740271
 30
0.0
 10
19.48083373244197
 20
12.86407044740271
 30
0.0
 10
19.49287047906048
 20
13.09000610114392
 30
0.0
 10
19.48566816346078
 20
13.31209394244163
 30
0.0
 10
19.45769752685146
 20
13.52599284956427
 30
0.0
 10
19.43362795499459
 20
13.7090599262092
 30
0.0
 10
19.39460326896166
 20
13.88542319323847
 30
0.0
 10
19.34211516075618
 20
14.05353780177148
 30
0.0
 10
19.34211516075618
 20
14.05353780177148
 30
0.0
 10
19.00824343487841
 20
14.01451703711889
 30
0.0
 10
19.00824343487841
 20
14.01451703711889
 30
0.0
 10
18.88442280367945
 20
14.34449161962437
 30
0.0
 10
18.70041843938801
 20
14.63307755289648
 30
0.0
 10
18.46723503608611
 20
14.86044380357189
 30
0.0
 10
18.46723503608611
 20
14.86044380357189
 30
0.0
 10
18.65705655300405
 20
15.17502713630291
 30
0.0
 10
18.65705655300405
 20
15.17502713630291
 30
0.0
 10
18.53663975589003
 20
15.28799496317358
 30
0.0
 10
18.40463019051625
 20
15.38675548255998
 30
0.0
 10
18.26251167654144
 20
15.46864482430901
 30
0.0
 10
18.11461366031013
 20
15.55393800014284
 30
0.0
 10
17.95611338618978
 20
15.62088531101392
 30
0.0
 10
17.79041467633907
 20
15.66956969716669
 30
0.0
 10
17.79041467633907
 20
15.66956969716669
 30
0.0
 10
17.49220533208872
 20
15.37590267823186
 30
0.0
 10
17.49220533208872
 20
15.37590267823186
 30
0.0
 10
17.30622773064673
 20
15.41447946452568
 30
0.0
 10
17.11162107939304
 20
15.42844011736604
 30
0.0
 10
16.91310955932273
 20
15.41783396768163
 30
0.0
 10
16.91310955932273
 20
15.41783396768163
 30
0.0
 10
16.81582896779916
 20
15.7487951687624
 30
0.0
 10
16.81582896779916
 20
15.7487951687624
 30
0.0
 10
16.53977309043323
 20
15.71894995685991
 30
0.0
 10
16.25893211297717
 20
15.64668014621996
 30
0.0
 10
15.98287623561118
 20
15.53223239148643
 30
0.0
 10
15.84174044841602
 20
15.47347925532794
 30
0.0
 10
15.70203525815499
 20
15.40387331484124
 30
0.0
 10
15.56519126176234
 20
15.32435185767295
 30
0.0
 10
15.56519126176234
 20
15.32435185767295
 30
0.0
 10
15.6249310164962
 20
15.01100179816105
 30
0.0
 10
15.6249310164962
 20
15.01100179816105
 30
0.0
  0
INSERT
  5
148
330
141
100
AcDbEntity
  8
_Calque_
100
AcDbBlockReference
  2
block 28
 10
0.0
 20
0.0
 30
0.0
  0
SPLINE
  5
14D
330
141
100
AcDbEntity
  8
_Calque_
370
     0
100
AcDbSpline
210
0.0
220
0.0
230
1.0
 70
     8
 71
     3
 72
    23
 73
    19
 74
     0
 42
0.0000000001
 43
0.0000000001
 12
1.0
 22
0.0
 32
0.0
 13
1.0
 23
0.0
 33
0.0
 40
0.0
 40
0.0
 40
0.0
 40
0.0
 40
1.0
 40
1.0
 40
1.0
 40
2.0
 40
2.0
 40
2.0
 40
3.0
 40
3.0
 40
3.0
 40
4.0
 40
4.0
 40
4.0
 40
5.0
 40
5.0
 40
5.0
 40
6.0
 40
6.0
 40
6.0
 40
6.0
 10
12.29316941867289
 20
10.04683043659274
 30
0.0
 10
12.29316941867289
 20
10.04683043659274
 30
0.0
 10
14.41864561011022
 20
8.819822245434123
 30
0.0
 10
14.41864561011022
 20
8.819822245434123
 30
0.0
 10
15.10947214183623
 20
8.42142566473236
 30
0.0
 10
16.01035356293287
 20
8.39587730165068
 30
0.0
 10
16.86688647907031
 20
8.751893556525454
 30
0.0
 10
17.72341939520782
 20
9.107421560130936
 30
0.0
 10
18.52504698763041
 20
9.839196557423039
 30
0.0
 10
19.04534029330924
 20
10.74057640505818
 30
0.0
 10
19.56612690827577
 20
11.64238999655065
 30
0.0
 10
19.79926487761661
 20
12.7027089794141
 30
0.0
 10
19.67884808050247
 20
13.62238548437007
 30
0.0
 10
19.55838195245965
 20
14.54201787168062
 30
0.0
 10
19.08628496418377
 20
15.30945391718608
 30
0.0
 10
18.39594794705382
 20
15.70834380717556
 30
0.0
 10
18.39594794705382
 20
15.70834380717556
 30
0.0
 10
16.27047555030799
 20
16.93535199833414
 30
0.0
 10
16.27047555030799
 20
16.93535199833414
 30
0.0
  0
SPLINE
  5
14E
330
141
100
AcDbEntity
  8
_Calque_
370
     0
100
AcDbSpline
210
0.0
220
0.0
230
1.0
 70
     8
 71
     3
 72
    17
 73
    13
 74
     0
 42
0.0000000001
 43
0.0000000001
 12
1.0
 22
0.0
 32
0.0
 13
1.0
 23
0.0
 33
0.0
 40
0.0
 40
0.0
 40
0.0
 40
0.0
 40
1.0
 40
1.0
 40
1.0
 40
2.0
 40
2.0
 40
2.0
 40
3.0
 40
3.0
 40
3.0
 40
4.0
 40
4.0
 40
4.0
 40
4.0
 10
16.27047555030799
 20
16.93535199833414
 30
0.0
 10
15.57964522389035
 20
17.33399523367978
 30
0.0
 10
14.67876380279364
 20
17.3590553454922
 30
0.0
 10
13.82223466628074
 20
17.00352734188662
 30
0.0
 10
12.96569797051883
 20
16.64799933828111
 30
0.0
 10
12.16407037809618
 20
15.91597768634516
 30
0.0
 10
11.64378079700996
 20
15.01435630131705
 30
0.0
 10
11.12299045745082
 20
14.11278424721765
 30
0.0
 10
10.8898524881101
 20
13.05197195506658
 30
0.0
 10
11.01026928522412
 20
12.13278875939823
 30
0.0
 10
11.13024581559916
 20
11.21316671455978
 30
0.0
 10
11.60283612510082
 20
10.44572032658225
 30
0.0
 10
12.29316941867289
 20
10.04683043659274
 30
0.0
  0
ENDBLK
  5
144
330
141
100
AcDbEntity
  8
0
100
AcDbBlockEnd
  0
BLOCK
  5
149
330
147
100
AcDbEntity
  8
0
100
AcDbBlockBegin
  2
block 28
 70
     0
 10
0.0
 20
0.0
 30
0.0
  3
block 28
  1

  0
SPLINE
  5
14B
330
147
100
AcDbEntity
  8
_Calque_
370
     0
100
AcDbSpline
210
0.0
220
0.0
230
1.0
 70
     8
 71
     3
 72
    17
 73
    13
 74
     0
 42
0.0000000001
 43
0.0000000001
 12
1.0
 22
0.0
 32
0.0
 13
1.0
 23
0.0
 33
0.0
 40
0.0
 40
0.0
 40
0.0
 40
0.0
 40
1.0
 40
1.0
 40
1.0
 40
2.0
 40
2.0
 40
2.0
 40
3.0
 40
3.0
 40
3.0
 40
4.0
 40
4.0
 40
4.0
 40
4.0
 10
14.97169085779708
 20
9.785228521354824
 30
0.0
 10
15.46934126717296
 20
9.497629206657882
 30
0.0
 10
16.11824030414077
 20
9.479820741373992
 30
0.0
 10
16.73537022298416
 20
9.736094916305351
 30
0.0
 10
17.35250014182782
 20
9.991925112877885
 30
0.0
 10
17.93011598673094
 20
10.51991404344398
 30
0.0
 10
18.30537636184232
 20
11.16930638969947
 30
0.0
 10
18.68019275859469
 20
11.81869873595483
 30
0.0
 10
18.84831256382392
 20
12.58273616065897
 30
0.0
 10
18.761588791056
 20
13.24564518139576
 30
0.0
 10
18.67486501828807
 20
13.90756758355744
 30
0.0
 10
18.33428428609821
 20
14.46062183716247
 30
0.0
 10
17.83712718600989
 20
14.74822115912505
 30
0.0
  0
SPLINE
  5
14C
330
147
100
AcDbEntity
  8
_Calque_
370
     0
100
AcDbSpline
210
0.0
220
0.0
230
1.0
 70
     8
 71
     3
 72
    17
 73
    13
 74
     0
 42
0.0000000001
 43
0.0000000001
 12
1.0
 22
0.0
 32
0.0
 13
1.0
 23
0.0
 33
0.0
 40
0.0
 40
0.0
 40
0.0
 40
0.0
 40
1.0
 40
1.0
 40
1.0
 40
2.0
 40
2.0
 40
2.0
 40
3.0
 40
3.0
 40
3.0
 40
4.0
 40
4.0
 40
4.0
 40
4.0
 10
17.83712718600989
 20
14.74822115912505
 30
0.0
 10
17.33898346734638
 20
15.03556860068575
 30
0.0
 10
16.6905777396662
 20
15.05362372061364
 30
0.0
 10
16.07295451153499
 20
14.79734954568212
 30
0.0
 10
15.45631790197908
 20
14.54152456238042
 30
0.0
 10
14.8782087477884
 20
14.01402372783114
 30
0.0
 10
14.5034416819647
 20
13.36413807228803
 30
0.0
 10
14.12813197592472
 20
12.71474572603261
 30
0.0
 10
13.96001217069536
 20
11.95070830132861
 30
0.0
 10
14.04673594346328
 20
11.28779928059162
 30
0.0
 10
14.13345971623128
 20
10.62587687843
 30
0.0
 10
14.47404044842113
 20
10.07282783605164
 30
0.0
 10
14.97169085779708
 20
9.785228521354824
 30
0.0
  0
ENDBLK
  5
14A
330
147
100
AcDbEntity
  8
0
100
AcDbBlockEnd
  0
BLOCK
  5
151
330
14F
100
AcDbEntity
  8
0
100
AcDbBlockBegin
  2
block 29
 70
     0
 10
0.0
 20
0.0
 30
0.0
  3
block 29
  1

  0
INSERT
  5
154
330
14F
100
AcDbEntity
  8
_Calque_
100
AcDbBlockReference
  2
block 30
 10
0.0
 20
0.0
 30
0.0
  0
INSERT
  5
15F
330
14F
100
AcDbEntity
  8
_Calque_
100
AcDbBlockReference
  2
block 32
 10
0.0
 20
0.0
 30
0.0
  0
ENDBLK
  5
152
330
14F
100
AcDbEntity
  8
0
100
AcDbBlockEnd
  0
BLOCK
  5
155
330
153
100
AcDbEntity
  8
0
100
AcDbBlockBegin
  2
block 30
 70
     0
 10
0.0
 20
0.0
 30
0.0
  3
block 30
  1

  0
INSERT
  5
158
330
153
100
AcDbEntity
  8
_Calque_
100
AcDbBlockReference
  2
block 31
 10
0.0
 20
0.0
 30
0.0
  0
ENDBLK
  5
156
330
153
100
AcDbEntity
  8
0
100
AcDbBlockEnd
  0
BLOCK
  5
159
330
157
100
AcDbEntity
  8
0
100
AcDbBlockBegin
  2
block 31
 70
     0
 10
0.0
 20
0.0
 30
0.0
  3
block 31
  1

  0
SPLINE
  5
15B
330
157
100
AcDbEntity
  8
_Calque_
370
     0
100
AcDbSpline
210
0.0
220
0.0
230
1.0
 70
    11
 71
     3
 72
    29
 73
    25
 74
     0
 42
0.0000000001
 43
0.0000000001
 12
1.0
 22
0.0
 32
0.0
 13
1.0
 23
0.0
 33
0.0
 40
0.0
 40
0.0
 40
0.0
 40
0.0
 40
1.0
 40
1.0
 40
1.0
 40
2.0
 40
2.0
 40
2.0
 40
3.0
 40
3.0
 40
3.0
 40
4.0
 40
4.0
 40
4.0
 40
5.0
 40
5.0
 40
5.0
 40
6.0
 40
6.0
 40
6.0
 40
7.0
 40
7.0
 40
7.0
 40
8.0
 40
8.0
 40
8.0
 40
8.0
 10
17.1183755539116
 20
9.54868671792917
 30
0.0
 10
16.77103648448093
 20
9.74911828149923
 30
0.0
 10
16.5335080624801
 20
10.13547811558242
 30
0.0
 10
16.4728310200998
 20
10.59795557274935
 30
0.0
 10
16.41210849184102
 20
11.0609263392039
 30
0.0
 10
16.52966025003641
 20
11.59419367914782
 30
0.0
 10
16.79170614363328
 20
12.04798889285212
 30
0.0
 10
16.79170614363328
 20
12.04798889285212
 30
0.0
 10
14.83534017069212
 20
13.17722318319954
 30
0.0
 10
14.83534017069212
 20
13.17722318319954
 30
0.0
 10
14.83534017069212
 20
13.17722318319954
 30
0.0
 10
14.59978498584177
 20
12.04172386489905
 30
0.0
 10
14.59978498584177
 20
12.04172386489905
 30
0.0
 10
14.59978498584177
 20
12.04172386489905
 30
0.0
 10
14.66144864679731
 20
11.2092644419987
 30
0.0
 10
14.66144864679731
 20
11.2092644419987
 30
0.0
 10
14.66144864679731
 20
11.2092644419987
 30
0.0
 10
15.24725342587532
 20
10.19181403623147
 30
0.0
 10
15.24725342587532
 20
10.19181403623147
 30
0.0
 10
15.24725342587532
 20
10.19181403623147
 30
0.0
 10
17.37464972884296
 20
9.297690952375572
 30
0.0
 10
17.37464972884296
 20
9.297690952375572
 30
0.0
 10
17.37464972884296
 20
9.297690952375572
 30
0.0
 10
17.1183755539116
 20
9.54868671792917
 30
0.0
 10
17.1183755539116
 20
9.54868671792917
 30
0.0
  0
SPLINE
  5
15C
330
157
100
AcDbEntity
  8
_Calque_
370
     0
100
AcDbSpline
210
0.0
220
0.0
230
1.0
 70
    11
 71
     3
 72
    35
 73
    31
 74
     0
 42
0.0000000001
 43
0.0000000001
 12
1.0
 22
0.0
 32
0.0
 13
1.0
 23
0.0
 33
0.0
 40
0.0
 40
0.0
 40
0.0
 40
0.0
 40
1.0
 40
1.0
 40
1.0
 40
2.0
 40
2.0
 40
2.0
 40
3.0
 40
3.0
 40
3.0
 40
4.0
 40
4.0
 40
4.0
 40
5.0
 40
5.0
 40
5.0
 40
6.0
 40
6.0
 40
6.0
 40
7.0
 40
7.0
 40
7.0
 40
8.0
 40
8.0
 40
8.0
 40
9.0
 40
9.0
 40
9.0
 40
10.0
 40
10.0
 40
10.0
 40
10.0
 10
15.51798156293475
 20
10.47270945510048
 30
0.0
 10
15.17064249350408
 20
10.67308657725765
 30
0.0
 10
14.93316721012136
 20
11.05944641134097
 30
0.0
 10
14.87243702912295
 20
11.5219238685079
 30
0.0
 10
14.81175998674266
 20
11.98489463496232
 30
0.0
 10
14.92931558998835
 20
12.51821130583497
 30
0.0
 10
15.19136148358516
 20
12.97200651953934
 30
0.0
 10
15.4529633988232
 20
13.42580173324364
 30
0.0
 10
15.8561944105439
 20
13.79385979275531
 30
0.0
 10
16.28734672794537
 20
13.97307905695661
 30
0.0
 10
16.71849904534685
 20
14.15181021529564
 30
0.0
 10
17.17135697140464
 20
14.13878164667648
 30
0.0
 10
17.51918935012293
 20
13.93839941403515
 30
0.0
 10
17.51918935012293
 20
13.93839941403515
 30
0.0
 10
19.11953401017098
 20
13.01438178734806
 30
0.0
 10
19.11953401017098
 20
13.01438178734806
 30
0.0
 10
19.46687307960164
 20
12.8139995547068
 30
0.0
 10
19.70435217067381
 20
12.42763972062341
 30
0.0
 10
19.76507854398277
 20
11.96516226345661
 30
0.0
 10
19.82575558636314
 20
11.502191497002
 30
0.0
 10
19.70824931404617
 20
10.96887482612941
 30
0.0
 10
19.4461540895205
 20
10.51507961242505
 30
0.0
 10
19.18455217428259
 20
10.06128949881111
 30
0.0
 10
18.78137049349062
 20
9.69322633920907
 30
0.0
 10
18.35016884516029
 20
9.514500384295326
 30
0.0
 10
17.91901652775888
 20
9.335774429381646
 30
0.0
 10
17.46615860170116
 20
9.348304485287969
 30
0.0
 10
17.1183755539116
 20
9.54868671792917
 30
0.0
 10
17.1183755539116
 20
9.54868671792917
 30
0.0
 10
15.51798156293475
 20
10.47270945510048
 30
0.0
 10
15.51798156293475
 20
10.47270945510048
 30
0.0
  0
HATCH
  5
15D
330
157
100
AcDbEntity
  8
_Calque_
 62
   255
100
AcDbHatch
 10
0.0
 20
0.0
 30
0.0
210
0.0
220
0.0
230
1.0
  2
SOLID
 70
     1
 71
     0
 91
        1
 92
        1
 93
        1
 72
     4
 94
        3
 73
     0
 74
     1
 95
       35
 96
       31
 40
0.0
 40
0.0
 40
0.0
 40
0.0
 40
1.0
 40
1.0
 40
1.0
 40
2.0
 40
2.0
 40
2.0
 40
3.0
 40
3.0
 40
3.0
 40
4.0
 40
4.0
 40
4.0
 40
5.0
 40
5.0
 40
5.0
 40
6.0
 40
6.0
 40
6.0
 40
7.0
 40
7.0
 40
7.0
 40
8.0
 40
8.0
 40
8.0
 40
9.0
 40
9.0
 40
9.0
 40
10.0
 40
10.0
 40
10.0
 40
10.0
 10
15.51798156293475
 20
10.47270945510048
 10
15.17064249350408
 20
10.67308657725765
 10
14.93316721012136
 20
11.05944641134097
 10
14.87243702912295
 20
11.5219238685079
 10
14.81175998674266
 20
11.98489463496232
 10
14.92931558998835
 20
12.51821130583497
 10
15.19136148358516
 20
12.97200651953934
 10
15.4529633988232
 20
13.42580173324364
 10
15.8561944105439
 20
13.79385979275531
 10
16.28734672794537
 20
13.97307905695661
 10
16.71849904534685
 20
14.15181021529564
 10
17.17135697140464
 20
14.13878164667648
 10
17.51918935012293
 20
13.93839941403515
 10
17.51918935012293
 20
13.93839941403515
 10
19.11953401017098
 20
13.01438178734806
 10
19.11953401017098
 20
13.01438178734806
 10
19.46687307960164
 20
12.8139995547068
 10
19.70435217067381
 20
12.42763972062341
 10
19.76507854398277
 20
11.96516226345661
 10
19.82575558636314
 20
11.502191497002
 10
19.70824931404617
 20
10.96887482612941
 10
19.4461540895205
 20
10.51507961242505
 10
19.18455217428259
 20
10.06128949881111
 10
18.78137049349062
 20
9.69322633920907
 10
18.35016884516029
 20
9.514500384295326
 10
17.91901652775888
 20
9.335774429381646
 10
17.46615860170116
 20
9.348304485287969
 10
17.1183755539116
 20
9.54868671792917
 10
17.1183755539116
 20
9.54868671792917
 10
15.51798156293475
 20
10.47270945510048
 10
15.51798156293475
 20
10.47270945510048
 97
        0
 97
        0
 75
     2
 76
     1
 98
        0
  0
ENDBLK
  5
15A
330
157
100
AcDbEntity
  8
0
100
AcDbBlockEnd
  0
BLOCK
  5
160
330
15E
100
AcDbEntity
  8
0
100
AcDbBlockBegin
  2
block 32
 70
     0
 10
0.0
 20
0.0
 30
0.0
  3
block 32
  1

  0
SPLINE
  5
162
330
15E
100
AcDbEntity
  8
_Calque_
370
     0
100
AcDbSpline
210
0.0
220
0.0
230
1.0
 70
     8
 71
     3
 72
    17
 73
    13
 74
     0
 42
0.0000000001
 43
0.0000000001
 12
1.0
 22
0.0
 32
0.0
 13
1.0
 23
0.0
 33
0.0
 40
0.0
 40
0.0
 40
0.0
 40
0.0
 40
1.0
 40
1.0
 40
1.0
 40
2.0
 40
2.0
 40
2.0
 40
3.0
 40
3.0
 40
3.0
 40
4.0
 40
4.0
 40
4.0
 40
4.0
 10
19.11953401017098
 20
13.01438178734806
 30
0.0
 10
18.77170163145275
 20
13.21481335091806
 30
0.0
 10
18.3188930363237
 20
13.22778738518314
 30
0.0
 10
17.88769138799343
 20
13.04906143026946
 30
0.0
 10
17.45653907059202
 20
12.86989149699695
 30
0.0
 10
17.05330805887132
 20
12.50183343748515
 30
0.0
 10
16.79170614363328
 20
12.04798889285212
 30
0.0
 10
16.52966025003641
 20
11.59419367914782
 30
0.0
 10
16.41210849184102
 20
11.0609263392039
 30
0.0
 10
16.4728310200998
 20
10.59795557274935
 30
0.0
 10
16.5335080624801
 20
10.13547811558242
 30
0.0
 10
16.77103648448093
 20
9.74911828149923
 30
0.0
 10
17.1183755539116
 20
9.54868671792917
 30
0.0
  0
SPLINE
  5
163
330
15E
100
AcDbEntity
  8
_Calque_
370
     0
100
AcDbSpline
210
0.0
220
0.0
230
1.0
 70
     8
 71
     3
 72
    23
 73
    19
 74
     0
 42
0.0000000001
 43
0.0000000001
 12
1.0
 22
0.0
 32
0.0
 13
1.0
 23
0.0
 33
0.0
 40
0.0
 40
0.0
 40
0.0
 40
0.0
 40
1.0
 40
1.0
 40
1.0
 40
2.0
 40
2.0
 40
2.0
 40
3.0
 40
3.0
 40
3.0
 40
4.0
 40
4.0
 40
4.0
 40
5.0
 40
5.0
 40
5.0
 40
6.0
 40
6.0
 40
6.0
 40
6.0
 10
15.51798156293475
 20
10.47270945510048
 30
0.0
 10
15.51798156293475
 20
10.47270945510048
 30
0.0
 10
17.1183755539116
 20
9.54868671792917
 30
0.0
 10
17.1183755539116
 20
9.54868671792917
 30
0.0
 10
17.46615860170116
 20
9.348304485287969
 30
0.0
 10
17.91901652775888
 20
9.335774429381646
 30
0.0
 10
18.35016884516029
 20
9.514500384295326
 30
0.0
 10
18.78137049349062
 20
9.69322633920907
 30
0.0
 10
19.18455217428259
 20
10.06128949881111
 30
0.0
 10
19.4461540895205
 20
10.51507961242505
 30
0.0
 10
19.70824931404617
 20
10.96887482612941
 30
0.0
 10
19.82575558636314
 20
11.502191497002
 30
0.0
 10
19.76507854398277
 20
11.96516226345661
 30
0.0
 10
19.70435217067381
 20
12.42763972062341
 30
0.0
 10
19.46687307960164
 20
12.8139995547068
 30
0.0
 10
19.11953401017098
 20
13.01438178734806
 30
0.0
 10
19.11953401017098
 20
13.01438178734806
 30
0.0
 10
17.51918935012293
 20
13.93839941403515
 30
0.0
 10
17.51918935012293
 20
13.93839941403515
 30
0.0
  0
SPLINE
  5
164
330
15E
100
AcDbEntity
  8
_Calque_
370
     0
100
AcDbSpline
210
0.0
220
0.0
230
1.0
 70
     8
 71
     3
 72
    17
 73
    13
 74
     0
 42
0.0000000001
 43
0.0000000001
 12
1.0
 22
0.0
 32
0.0
 13
1.0
 23
0.0
 33
0.0
 40
0.0
 40
0.0
 40
0.0
 40
0.0
 40
1.0
 40
1.0
 40
1.0
 40
2.0
 40
2.0
 40
2.0
 40
3.0
 40
3.0
 40
3.0
 40
4.0
 40
4.0
 40
4.0
 40
4.0
 10
17.51918935012293
 20
13.93839941403515
 30
0.0
 10
17.17135697140464
 20
14.13878164667648
 30
0.0
 10
16.71849904534685
 20
14.15181021529564
 30
0.0
 10
16.28734672794537
 20
13.97307905695661
 30
0.0
 10
15.8561944105439
 20
13.79385979275531
 30
0.0
 10
15.4529633988232
 20
13.42580173324364
 30
0.0
 10
15.19136148358516
 20
12.97200651953934
 30
0.0
 10
14.92931558998835
 20
12.51821130583497
 30
0.0
 10
14.81175998674266
 20
11.98489463496232
 30
0.0
 10
14.87243702912295
 20
11.5219238685079
 30
0.0
 10
14.93316721012136
 20
11.05944641134097
 30
0.0
 10
15.17064249350408
 20
10.67308657725765
 30
0.0
 10
15.51798156293475
 20
10.47270945510048
 30
0.0
  0
ENDBLK
  5
161
330
15E
100
AcDbEntity
  8
0
100
AcDbBlockEnd
  0
ENDSEC
  0
SECTION
  2
ENTITIES
  0
INSERT
  5
42
330
1F
100
AcDbEntity
  8
_Calque_
100
AcDbBlockReference
  2
block 2
 10
0.0
 20
0.0
 30
0.0
  0
ENDSEC
  0
SECTION
  2
OBJECTS
  0
DICTIONARY
  5
C
330
0
100
AcDbDictionary
281
     1
  3
ACAD_GROUP
350
D
  3
ACAD_LAYOUT
350
1A
  3
ACAD_MATERIAL
350
3B
  3
ACAD_MLEADERSTYLE
350
167
  3
ACAD_MLINESTYLE
350
17
  3
ACAD_PLOTSETTINGS
350
19
  3
ACAD_PLOTSTYLENAME
350
E
  3
ACAD_TABLESTYLE
350
166
  3
ACAD_VISUALSTYLE
350
2A
  0
SUN
  5
3F
330
29
100
AcDbSun
 90
        1
290
     0
 63
     7
421
 16777215
 40
1.0
291
     1
 91
  2455826
 92
 54000000
292
     0
 70
     2
 71
   256
280
     1
  0
DICTIONARY
  5
D
102
{ACAD_REACTORS
330
C
102
}
330
C
100
AcDbDictionary
281
     1
  0
DICTIONARY
  5
1A
102
{ACAD_REACTORS
330
C
102
}
330
C
100
AcDbDictionary
281
     1
  3
Layout1
350
1E
  3
Layout2
350
26
  3
Model
350
22
  0
DICTIONARY
  5
3B
102
{ACAD_REACTORS
330
C
102
}
330
C
100
AcDbDictionary
281
     1
  3
ByBlock
350
3D
  3
ByLayer
350
3C
  3
Global
350
3E
  0
DICTIONARY
  5
167
102
{ACAD_REACTORS
330
C
102
}
330
C
100
AcDbDictionary
281
     1
  0
DICTIONARY
  5
17
102
{ACAD_REACTORS
330
C
102
}
330
C
100
AcDbDictionary
281
     1
  3
Standard
350
18
  0
DICTIONARY
  5
19
102
{ACAD_REACTORS
330
C
102
}
330
C
100
AcDbDictionary
281
     1
  0
ACDBDICTIONARYWDFLT
  5
E
102
{ACAD_REACTORS
330
C
102
}
330
C
100
AcDbDictionary
281
     1
  3
Normal
350
F
100
AcDbDictionaryWithDefault
340
F
  0
DICTIONARY
  5
166
102
{ACAD_REACTORS
330
C
102
}
330
C
100
AcDbDictionary
281
     1
  0
DICTIONARY
  5
2A
102
{ACAD_REACTORS
330
C
102
}
330
C
100
AcDbDictionary
281
     1
  3
2dWireframe
350
2F
  3
3D Hidden
350
31
  3
3dWireframe
350
30
  3
Basic
350
32
  3
Brighten
350
36
  3
ColorChange
350
3A
  3
Conceptual
350
34
  3
Dim
350
35
  3
Facepattern
350
39
  3
Flat
350
2B
  3
FlatWithEdges
350
2C
  3
Gouraud
350
2D
  3
GouraudWithEdges
350
2E
  3
Linepattern
350
38
  3
Realistic
350
33
  3
Thicken
350
37
  0
LAYOUT
  5
1E
102
{ACAD_REACTORS
330
1A
102
}
330
1A
100
AcDbPlotSettings
  1

  2
none_device
  4

  6

 40
0.0
 41
0.0
 42
0.0
 43
0.0
 44
0.0
 45
0.0
 46
0.0
 47
0.0
 48
0.0
 49
0.0
140
0.0
141
0.0
142
1.0
143
1.0
 70
   688
 72
     0
 73
     0
 74
     5
  7

 75
    16
 76
     0
 77
     2
 78
   300
147
1.0
148
0.0
149
0.0
100
AcDbLayout
  1
Layout1
 70
     1
 71
     1
 10
0.0
 20
0.0
 11
12.0
 21
9.0
 12
0.0
 22
0.0
 32
0.0
 14
1.000000000000000E+20
 24
1.000000000000000E+20
 34
1.000000000000000E+20
 15
-1.000000000000000E+20
 25
-1.000000000000000E+20
 35
-1.000000000000000E+20
146
0.0
 13
0.0
 23
0.0
 33
0.0
 16
1.0
 26
0.0
 36
0.0
 17
0.0
 27
1.0
 37
0.0
 76
     0
330
1B
  0
LAYOUT
  5
26
102
{ACAD_REACTORS
330
1A
102
}
330
1A
100
AcDbPlotSettings
  1

  2
none_device
  4

  6

 40
0.0
 41
0.0
 42
0.0
 43
0.0
 44
0.0
 45
0.0
 46
0.0
 47
0.0
 48
0.0
 49
0.0
140
0.0
141
0.0
142
1.0
143
1.0
 70
   688
 72
     0
 73
     0
 74
     5
  7

 75
    16
 76
     0
 77
     2
 78
   300
147
1.0
148
0.0
149
0.0
100
AcDbLayout
  1
Layout2
 70
     1
 71
     2
 10
0.0
 20
0.0
 11
0.0
 21
0.0
 12
0.0
 22
0.0
 32
0.0
 14
0.0
 24
0.0
 34
0.0
 15
0.0
 25
0.0
 35
0.0
146
0.0
 13
0.0
 23
0.0
 33
0.0
 16
1.0
 26
0.0
 36
0.0
 17
0.0
 27
1.0
 37
0.0
 76
     0
330
23
  0
LAYOUT
  5
22
102
{ACAD_REACTORS
330
1A
102
}
330
1A
100
AcDbPlotSettings
  1

  2
none_device
  4

  6

 40
0.0
 41
0.0
 42
0.0
 43
0.0
 44
0.0
 45
0.0
 46
0.0
 47
0.0
 48
0.0
 49
0.0
140
0.0
141
0.0
142
1.0
143
1.0
 70
  1712
 72
     0
 73
     0
 74
     0
  7

 75
     0
 76
     0
 77
     2
 78
   300
147
1.0
148
0.0
149
0.0
100
AcDbLayout
  1
Model
 70
     1
 71
     0
 10
0.0
 20
0.0
 11
12.0
 21
9.0
 12
0.0
 22
0.0
 32
0.0
 14
1.000000000000000E+20
 24
1.000000000000000E+20
 34
1.000000000000000E+20
 15
-1.000000000000000E+20
 25
-1.000000000000000E+20
 35
-1.000000000000000E+20
146
0.0
 13
0.0
 23
0.0
 33
0.0
 16
1.0
 26
0.0
 36
0.0
 17
0.0
 27
1.0
 37
0.0
 76
     0
330
1F
331
29
  0
MATERIAL
  5
3D
102
{ACAD_REACTORS
330
3B
102
}
330
3B
100
AcDbMaterial
  1
ByBlock
 72
     1
 94
      127
  0
MATERIAL
  5
3C
102
{ACAD_REACTORS
330
3B
102
}
330
3B
100
AcDbMaterial
  1
ByLayer
 72
     1
 94
      127
  0
MATERIAL
  5
3E
102
{ACAD_REACTORS
330
3B
102
}
330
3B
100
AcDbMaterial
  1
Global
 72
     1
 94
      127
  0
MLINESTYLE
  5
18
102
{ACAD_REACTORS
330
17
102
}
330
17
100
AcDbMlineStyle
  2
Standard
 70
     0
  3

 62
   256
 51
90.0
 52
90.0
 71
     2
 49
0.5
 62
   256
  6
BYLAYER
 49
-0.5
 62
   256
  6
BYLAYER
  0
ACDBPLACEHOLDER
  5
F
102
{ACAD_REACTORS
330
E
102
}
330
E
  0
VISUALSTYLE
  5
2F
102
{ACAD_REACTORS
330
2A
102
}
330
2A
100
AcDbVisualStyle
  2
2dWireframe
 70
     4
177
     2
291
     0
 71
     0
176
     1
 72
     2
176
     1
 73
     0
176
     1
 90
        0
176
     1
 40
-0.6
176
     1
 41
-30.0
176
     1
 62
     5
 63
     7
421
 16777215
176
     1
 74
     1
176
     1
 91
        4
176
     1
 64
     7
176
     1
 65
   257
176
     1
 75
     1
176
     1
175
     1
176
     1
 42
1.0
176
     1
 92
        0
176
     1
 66
   257
176
     1
 43
1.0
176
     1
 76
     1
176
     1
 77
     6
176
     1
 78
     2
176
     1
 67
     7
176
     1
 79
     5
176
     1
170
     0
176
     1
171
     0
176
     1
290
     0
176
     1
 93
        1
176
     1
 44
0.0
176
     1
173
     0
176
     1
  0
VISUALSTYLE
  5
31
102
{ACAD_REACTORS
330
2A
102
}
330
2A
100
AcDbVisualStyle
  2
3D Hidden
 70
     6
177
     2
291
     0
 71
     1
176
     1
 72
     2
176
     1
 73
     2
176
     1
 90
        0
176
     1
 40
-0.6
176
     1
 41
-30.0
176
     1
 62
     5
 63
     7
421
 16777215
176
     1
 74
     2
176
     1
 91
        2
176
     1
 64
     7
176
     1
 65
   257
176
     1
 75
     2
176
     1
175
     1
176
     1
 42
40.0
176
     1
 92
        0
176
     1
 66
   257
176
     1
 43
1.0
176
     1
 76
     1
176
     1
 77
     6
176
     1
 78
     2
176
     1
 67
     7
176
     1
 79
     3
176
     1
170
     0
176
     1
171
     0
176
     1
290
     0
176
     1
 93
        1
176
     1
 44
0.0
176
     1
173
     0
176
     1
  0
VISUALSTYLE
  5
30
102
{ACAD_REACTORS
330
2A
102
}
330
2A
100
AcDbVisualStyle
  2
3dWireframe
 70
     5
177
     2
291
     0
 71
     0
176
     1
 72
     2
176
     1
 73
     0
176
     1
 90
        0
176
     1
 40
-0.6
176
     1
 41
-30.0
176
     1
 62
     5
 63
     7
421
 16777215
176
     1
 74
     1
176
     1
 91
        4
176
     1
 64
     7
176
     1
 65
   257
176
     1
 75
     1
176
     1
175
     1
176
     1
 42
1.0
176
     1
 92
        0
176
     1
 66
   257
176
     1
 43
1.0
176
     1
 76
     1
176
     1
 77
     6
176
     1
 78
     2
176
     1
 67
     7
176
     1
 79
     5
176
     1
170
     0
176
     1
171
     0
176
     1
290
     0
176
     1
 93
        1
176
     1
 44
0.0
176
     1
173
     0
176
     1
  0
VISUALSTYLE
  5
32
102
{ACAD_REACTORS
330
2A
102
}
330
2A
100
AcDbVisualStyle
  2
Basic
 70
     7
177
     2
291
     1
 71
     1
176
     1
 72
     0
176
     1
 73
     1
176
     1
 90
        0
176
     1
 40
-0.6
176
     1
 41
-30.0
176
     1
 62
     5
 63
     7
421
 16777215
176
     1
 74
     0
176
     1
 91
        4
176
     1
 64
     7
176
     1
 65
   257
176
     1
 75
     1
176
     1
175
     1
176
     1
 42
1.0
176
     1
 92
        8
176
     1
 66
     7
176
     1
 43
1.0
176
     1
 76
     1
176
     1
 77
     6
176
     1
 78
     2
176
     1
 67
     7
176
     1
 79
     5
176
     1
170
     0
176
     1
171
     0
176
     1
290
     0
176
     1
 93
        1
176
     1
 44
0.0
176
     1
173
     0
176
     1
  0
VISUALSTYLE
  5
36
102
{ACAD_REACTORS
330
2A
102
}
330
2A
100
AcDbVisualStyle
  2
Brighten
 70
    12
177
     2
291
     1
 71
     2
176
     1
 72
     2
176
     1
 73
     0
176
     1
 90
        0
176
     1
 40
-0.6
176
     1
 41
-30.0
176
     1
 62
     5
 63
     7
421
 16777215
176
     1
 74
     1
176
     1
 91
        4
176
     1
 64
     7
176
     1
 65
   257
176
     1
 75
     1
176
     1
175
     1
176
     1
 42
1.0
176
     1
 92
        8
176
     1
 66
     7
176
     1
 43
1.0
176
     1
 76
     1
176
     1
 77
     6
176
     1
 78
     2
176
     1
 67
     7
176
     1
 79
     5
176
     1
170
     0
176
     1
171
     0
176
     1
290
     0
176
     1
 93
        1
176
     1
 44
50.0
176
     1
173
     0
176
     1
  0
VISUALSTYLE
  5
3A
102
{ACAD_REACTORS
330
2A
102
}
330
2A
100
AcDbVisualStyle
  2
ColorChange
 70
    16
177
     2
291
     1
 71
     2
176
     1
 72
     2
176
     1
 73
     3
176
     1
 90
        0
176
     1
 40
-0.6
176
     1
 41
-30.0
176
     1
 62
     5
 63
     8
421
  8421504
176
     1
 74
     1
176
     1
 91
        4
176
     1
 64
     7
176
     1
 65
   257
176
     1
 75
     1
176
     1
175
     1
176
     1
 42
1.0
176
     1
 92
        8
176
     1
 66
     8
424
  8421504
176
     1
 43
1.0
176
     1
 76
     1
176
     1
 77
     6
176
     1
 78
     2
176
     1
 67
     7
176
     1
 79
     5
176
     1
170
     0
176
     1
171
     0
176
     1
290
     0
176
     1
 93
        1
176
     1
 44
0.0
176
     1
173
     0
176
     1
  0
VISUALSTYLE
  5
34
102
{ACAD_REACTORS
330
2A
102
}
330
2A
100
AcDbVisualStyle
  2
Conceptual
 70
     9
177
     2
291
     0
 71
     3
176
     1
 72
     2
176
     1
 73
     0
176
     1
 90
        0
176
     1
 40
-0.6
176
     1
 41
-30.0
176
     1
 62
     5
 63
     7
421
 16777215
176
     1
 74
     2
176
     1
 91
        2
176
     1
 64
     7
176
     1
 65
   257
176
     1
 75
     1
176
     1
175
     1
176
     1
 42
40.0
176
     1
 92
        8
176
     1
 66
     7
176
     1
 43
1.0
176
     1
 76
     1
176
     1
 77
     6
176
     1
 78
     2
176
     1
 67
     7
176
     1
 79
     3
176
     1
170
     0
176
     1
171
     0
176
     1
290
     0
176
     1
 93
        1
176
     1
 44
0.0
176
     1
173
     0
176
     1
  0
VISUALSTYLE
  5
35
102
{ACAD_REACTORS
330
2A
102
}
330
2A
100
AcDbVisualStyle
  2
Dim
 70
    11
177
     2
291
     1
 71
     2
176
     1
 72
     2
176
     1
 73
     0
176
     1
 90
        0
176
     1
 40
-0.6
176
     1
 41
-30.0
176
     1
 62
     5
 63
     7
421
 16777215
176
     1
 74
     1
176
     1
 91
        4
176
     1
 64
     7
176
     1
 65
   257
176
     1
 75
     1
176
     1
175
     1
176
     1
 42
1.0
176
     1
 92
        8
176
     1
 66
     7
176
     1
 43
1.0
176
     1
 76
     1
176
     1
 77
     6
176
     1
 78
     2
176
     1
 67
     7
176
     1
 79
     5
176
     1
170
     0
176
     1
171
     0
176
     1
290
     0
176
     1
 93
        1
176
     1
 44
-50.0
176
     1
173
     0
176
     1
  0
VISUALSTYLE
  5
39
102
{ACAD_REACTORS
330
2A
102
}
330
2A
100
AcDbVisualStyle
  2
Facepattern
 70
    15
177
     2
291
     1
 71
     2
176
     1
 72
     2
176
     1
 73
     0
176
     1
 90
        0
176
     1
 40
-0.6
176
     1
 41
-30.0
176
     1
 62
     5
 63
     7
421
 16777215
176
     1
 74
     1
176
     1
 91
        4
176
     1
 64
     7
176
     1
 65
   257
176
     1
 75
     1
176
     1
175
     1
176
     1
 42
1.0
176
     1
 92
        8
176
     1
 66
     7
176
     1
 43
1.0
176
     1
 76
     1
176
     1
 77
     6
176
     1
 78
     2
176
     1
 67
     7
176
     1
 79
     5
176
     1
170
     0
176
     1
171
     0
176
     1
290
     0
176
     1
 93
        1
176
     1
 44
0.0
176
     1
173
     0
176
     1
  0
VISUALSTYLE
  5
2B
102
{ACAD_REACTORS
330
2A
102
}
330
2A
100
AcDbVisualStyle
  2
Flat
 70
     0
177
     2
291
     1
 71
     2
176
     1
 72
     1
176
     1
 73
     1
176
     1
 90
        2
176
     1
 40
-0.6
176
     1
 41
30.0
176
     1
 62
     5
 63
     7
421
 16777215
176
     1
 74
     0
176
     1
 91
        4
176
     1
 64
     7
176
     1
 65
   257
176
     1
 75
     1
176
     1
175
     1
176
     1
 42
1.0
176
     1
 92
        8
176
     1
 66
     7
176
     1
 43
1.0
176
     1
 76
     1
176
     1
 77
     6
176
     1
 78
     2
176
     1
 67
     7
176
     1
 79
     5
176
     1
170
     0
176
     1
171
     0
176
     1
290
     0
176
     1
 93
       13
176
     1
 44
0.0
176
     1
173
     0
176
     1
  0
VISUALSTYLE
  5
2C
102
{ACAD_REACTORS
330
2A
102
}
330
2A
100
AcDbVisualStyle
  2
FlatWithEdges
 70
     1
177
     2
291
     1
 71
     2
176
     1
 72
     1
176
     1
 73
     1
176
     1
 90
        2
176
     1
 40
-0.6
176
     1
 41
30.0
176
     1
 62
     5
 63
     7
421
 16777215
176
     1
 74
     1
176
     1
 91
        4
176
     1
 64
     7
176
     1
 65
   257
176
     1
 75
     1
176
     1
175
     1
176
     1
 42
1.0
176
     1
 92
        0
176
     1
 66
   257
176
     1
 43
1.0
176
     1
 76
     1
176
     1
 77
     6
176
     1
 78
     2
176
     1
 67
     7
176
     1
 79
     5
176
     1
170
     0
176
     1
171
     0
176
     1
290
     0
176
     1
 93
       13
176
     1
 44
0.0
176
     1
173
     0
176
     1
  0
VISUALSTYLE
  5
2D
102
{ACAD_REACTORS
330
2A
102
}
330
2A
100
AcDbVisualStyle
  2
Gouraud
 70
     2
177
     2
291
     1
 71
     2
176
     1
 72
     2
176
     1
 73
     1
176
     1
 90
        2
176
     1
 40
-0.6
176
     1
 41
30.0
176
     1
 62
     5
 63
     7
421
 16777215
176
     1
 74
     0
176
     1
 91
        4
176
     1
 64
     7
176
     1
 65
   257
176
     1
 75
     1
176
     1
175
     1
176
     1
 42
1.0
176
     1
 92
        0
176
     1
 66
     7
176
     1
 43
1.0
176
     1
 76
     1
176
     1
 77
     6
176
     1
 78
     2
176
     1
 67
     7
176
     1
 79
     5
176
     1
170
     0
176
     1
171
     0
176
     1
290
     0
176
     1
 93
       13
176
     1
 44
0.0
176
     1
173
     0
176
     1
  0
VISUALSTYLE
  5
2E
102
{ACAD_REACTORS
330
2A
102
}
330
2A
100
AcDbVisualStyle
  2
GouraudWithEdges
 70
     3
177
     2
291
     1
 71
     2
176
     1
 72
     2
176
     1
 73
     1
176
     1
 90
        2
176
     1
 40
-0.6
176
     1
 41
30.0
176
     1
 62
     5
 63
     7
421
 16777215
176
     1
 74
     1
176
     1
 91
        4
176
     1
 64
     7
176
     1
 65
   257
176
     1
 75
     1
176
     1
175
     1
176
     1
 42
1.0
176
     1
 92
        0
176
     1
 66
   257
176
     1
 43
1.0
176
     1
 76
     1
176
     1
 77
     6
176
     1
 78
     2
176
     1
 67
     7
176
     1
 79
     5
176
     1
170
     0
176
     1
171
     0
176
     1
290
     0
176
     1
 93
       13
176
     1
 44
0.0
176
     1
173
     0
176
     1
  0
VISUALSTYLE
  5
38
102
{ACAD_REACTORS
330
2A
102
}
330
2A
100
AcDbVisualStyle
  2
Linepattern
 70
    14
177
     2
291
     1
 71
     2
176
     1
 72
     2
176
     1
 73
     0
176
     1
 90
        0
176
     1
 40
-0.6
176
     1
 41
-30.0
176
     1
 62
     5
 63
     7
421
 16777215
176
     1
 74
     1
176
     1
 91
        4
176
     1
 64
     7
176
     1
 65
   257
176
     1
 75
     7
176
     1
175
     7
176
     1
 42
1.0
176
     1
 92
        8
176
     1
 66
     7
176
     1
 43
1.0
176
     1
 76
     1
176
     1
 77
     6
176
     1
 78
     2
176
     1
 67
     7
176
     1
 79
     5
176
     1
170
     0
176
     1
171
     0
176
     1
290
     0
176
     1
 93
        1
176
     1
 44
0.0
176
     1
173
     0
176
     1
  0
VISUALSTYLE
  5
33
102
{ACAD_REACTORS
330
2A
102
}
330
2A
100
AcDbVisualStyle
  2
Realistic
 70
     8
177
     2
291
     0
 71
     2
176
     1
 72
     2
176
     1
 73
     0
176
     1
 90
        0
176
     1
 40
-0.6
176
     1
 41
-30.0
176
     1
 62
     5
 63
     7
421
 16777215
176
     1
 74
     1
176
     1
 91
        0
176
     1
 64
     7
176
     1
 65
   257
176
     1
 75
     1
176
     1
175
     1
176
     1
 42
1.0
176
     1
 92
        8
176
     1
 66
     8
424
  7895160
176
     1
 43
1.0
176
     1
 76
     1
176
     1
 77
     6
176
     1
 78
     2
176
     1
 67
     7
176
     1
 79
     5
176
     1
170
     0
176
     1
171
     0
176
     1
290
     0
176
     1
 93
       13
176
     1
 44
0.0
176
     1
173
     0
176
     1
  0
VISUALSTYLE
  5
37
102
{ACAD_REACTORS
330
2A
102
}
330
2A
100
AcDbVisualStyle
  2
Thicken
 70
    13
177
     2
291
     1
 71
     2
176
     1
 72
     2
176
     1
 73
     0
176
     1
 90
        0
176
     1
 40
-0.6
176
     1
 41
-30.0
176
     1
 62
     5
 63
     7
421
 16777215
176
     1
 74
     1
176
     1
 91
        4
176
     1
 64
     7
176
     1
 65
   257
176
     1
 75
     1
176
     1
175
     1
176
     1
 42
1.0
176
     1
 92
       12
176
     1
 66
     7
176
     1
 43
1.0
176
     1
 76
     1
176
     1
 77
     6
176
     1
 78
     2
176
     1
 67
     7
176
     1
 79
     5
176
     1
170
     0
176
     1
171
     0
176
     1
290
     0
176
     1
 93
        1
176
     1
 44
0.0
176
     1
173
     0
176
     1
  0
ENDSEC
  0
EOF
