999
DXF file: C:\Users\sesa63760\Dev\_Creo\CAD\MCADID0004827_3D-CAD\drw0001_1.dxf
999
Pro/ENGINEER 2019471 by Parametric Technology Corporation
  0
SECTION
  2
HEADER
  9
$ACADVER
  1
AC1024
  9
$DWGCODEPAGE
  3
ANSI_1252
  9
$EXTMAX
 10
86.6425854427
 20
122.5373708404
 30
0.0
  9
$EXTMIN
 10
0.0
 20
0.0
 30
0.0
  9
$LIMMIN
 10
0.0
 20
0.0
  9
$LIMMAX
 10
86.6425854427
 20
122.5373708404
  9
$VIEWCTR
 10
43.3212927214
 20
61.2686854202
  9
$VIEWSIZE
 40
122.5373708404
  9
$CLAYER
  8
0
  9
$LTSCALE
 40
7.9876212103
  9
$CELTYPE
  6
BYLAYER
  9
$DIMSCALE
 40
1.0
  9
$DIMASZ
 40
1.0314593505
  9
$DIMEXO
 40
1.0
  9
$DIMDLI
 40
5.518720109
  9
$DIMEXE
 40
1.0
  9
$DIMCEN
 40
1.307065289
  9
$DIMLFAC
 40
1.0
  9
$DIMBLK
  1
_FILLED
  9
$DIMALT
 70
0
  9
$DIMALTF
 40
0.0393700787
  9
$DIMTXT
 40
1.4440430907
  9
$DIMTOL
 70
1
  9
$DIMLIM
 70
0
  9
$DIMTFAC
 40
1.0
  9
$DIMTP
 40
0.01
  9
$DIMTM
 40
0.01
  9
$DIMGAP
 40
0.625
  9
$DIMDSEP
 70
46
  9
$AUNITS
 70
0
  9
$PDMODE
 70
3
  9
$PDSIZE
 40
0.3125
  9
$HANDSEED
  5
371
  9
$TILEMODE
 70
1
  9
$MEASUREMENT
 70
1
  9
$INSUNITS
 70
4
  0
ENDSEC
  0
SECTION
  2
CLASSES
  0
CLASS
  1
ACDBDICTIONARYWDFLT
  2
AcDbDictionaryWithDefault
  3
AutoCAD 2000
 90
0
 91
1
280
0
281
0
  0
CLASS
  1
ACDBPLACEHOLDER
  2
AcDbPlaceHolder
  3
AutoCAD 2000
 90
0
 91
1
280
0
281
0
  0
CLASS
  1
LAYOUT
  2
AcDbLayout
  3
AutoCAD 2000
 90
0
 91
0
280
0
281
0
  0
ENDSEC
  0
SECTION
  2
TABLES
  0
TABLE
  2
VPORT
  5
8
100
AcDbSymbolTable
 70
2
  0
VPORT
  5
1F4
100
AcDbSymbolTableRecord
100
AcDbViewportTableRecord
  2
*ACTIVE
 70
0
 10
0.0
 20
0.0
 11
1.0
 21
1.0
 12
43.3212927214
 22
61.2686854202
 13
0.0
 23
0.0
 14
1.0
 24
1.0
 15
0.0
 25
0.0
 16
0.0
 26
0.0
 36
1.0
 17
0.0
 27
0.0
 37
0.0
 40
122.5373708404
 41
0.7070707071
 42
50.0
 43
0.0
 44
0.0
 50
0.0
 51
0.0
 71
0
 72
100
 73
1
 74
1
 75
0
 76
0
 77
0
 78
0
  0
ENDTAB
  0
TABLE
  2
LTYPE
  5
5
100
AcDbSymbolTable
 70
6
  0
LTYPE
  5
14
100
AcDbSymbolTableRecord
100
AcDbLinetypeTableRecord
  2
BYBLOCK
 70
0
  3

 72
65
 73
0
 40
0.0
  0
LTYPE
  5
15
100
AcDbSymbolTableRecord
100
AcDbLinetypeTableRecord
  2
BYLAYER
 70
0
  3

 72
65
 73
0
 40
0.0
  0
LTYPE
  5
16
100
AcDbSymbolTableRecord
100
AcDbLinetypeTableRecord
  2
CONTINUOUS
 70
64
  3
Solid line
 72
65
 73
0
 40
0.0
  0
LTYPE
  5
1F5
100
AcDbSymbolTableRecord
100
AcDbLinetypeTableRecord
  2
CENTER
 70
64
  3
____ _ ____ _ ____ _ ____ _ ____ _ ____ _ ____
 72
65
 73
4
 40
0.6
 49
0.375
 74
0
 49
-0.075
 74
0
 49
0.075
 74
0
 49
-0.075
 74
0
  0
LTYPE
  5
1F6
100
AcDbSymbolTableRecord
100
AcDbLinetypeTableRecord
  2
HIDDEN
 70
64
  3
- - - - - - - - - - - - - - - - - - - -
 72
65
 73
2
 40
0.2
 49
0.1
 74
0
 49
-0.1
 74
0
  0
LTYPE
  5
1F7
100
AcDbSymbolTableRecord
100
AcDbLinetypeTableRecord
  2
PHANTOM
 70
64
  3
_____ _ _ _____ _ _ _____ _ _ _____
 72
65
 73
6
 40
0.8
 49
0.45
 74
0
 49
-0.05
 74
0
 49
0.1
 74
0
 49
-0.05
 74
0
 49
0.1
 74
0
 49
-0.05
 74
0
  0
LTYPE
  5
1F8
100
AcDbSymbolTableRecord
100
AcDbLinetypeTableRecord
  2
DOT
 70
64
  3
. . . . . . . . . . . . . . . . . . . .
 72
65
 73
2
 40
0.2
 49
0.1
 74
0
 49
-0.1
 74
0
  0
LTYPE
  5
1F9
100
AcDbSymbolTableRecord
100
AcDbLinetypeTableRecord
  2
DASHED
 70
64
  3
- - - - - - - - - - - - - - - - - - - -
 72
65
 73
2
 40
0.2
 49
0.1
 74
0
 49
-0.1
 74
0
  0
ENDTAB
  0
TABLE
  2
LAYER
  5
2
100
AcDbSymbolTable
 70
36
  0
LAYER
  5
10
100
AcDbSymbolTableRecord
100
AcDbLayerTableRecord
  2
0
 70
0
 62
7
  6
CONTINUOUS
370
-3
390
F
  0
LAYER
  5
1FA
100
AcDbSymbolTableRecord
100
AcDbLayerTableRecord
  2
DEFAULT_1
 70
0
 62
7
  6
CENTER
370
-3
390
F
  0
LAYER
  5
1FB
100
AcDbSymbolTableRecord
100
AcDbLayerTableRecord
  2
DEFAULT_2
 70
0
 62
7
  6
HIDDEN
370
-3
390
F
  0
LAYER
  5
1FC
100
AcDbSymbolTableRecord
100
AcDbLayerTableRecord
  2
DEFAULT_3
 70
0
 62
7
  6
PHANTOM
370
-3
390
F
  0
LAYER
  5
1FD
100
AcDbSymbolTableRecord
100
AcDbLayerTableRecord
  2
00_COMPONENTS
 70
0
 62
7
  6
CONTINUOUS
370
-3
390
F
  0
LAYER
  5
1FE
100
AcDbSymbolTableRecord
100
AcDbLayerTableRecord
  2
01_1_DEFAULT_DATUMS
 70
0
 62
7
  6
CONTINUOUS
370
-3
390
F
  0
LAYER
  5
1FF
100
AcDbSymbolTableRecord
100
AcDbLayerTableRecord
  2
01_PLANES
 70
0
 62
7
  6
CONTINUOUS
370
-3
390
F
  0
LAYER
  5
200
100
AcDbSymbolTableRecord
100
AcDbLayerTableRecord
  2
02_COORD_SYS
 70
0
 62
7
  6
CONTINUOUS
370
-3
390
F
  0
LAYER
  5
201
100
AcDbSymbolTableRecord
100
AcDbLayerTableRecord
  2
03_AXES
 70
0
 62
7
  6
CONTINUOUS
370
-3
390
F
  0
LAYER
  5
202
100
AcDbSymbolTableRecord
100
AcDbLayerTableRecord
  2
04_POINTS
 70
0
 62
7
  6
CONTINUOUS
370
-3
390
F
  0
LAYER
  5
203
100
AcDbSymbolTableRecord
100
AcDbLayerTableRecord
  2
05_CURVES
 70
0
 62
7
  6
CONTINUOUS
370
-3
390
F
  0
LAYER
  5
204
100
AcDbSymbolTableRecord
100
AcDbLayerTableRecord
  2
06_SURFS
 70
0
 62
7
  6
CONTINUOUS
370
-3
390
F
  0
LAYER
  5
205
100
AcDbSymbolTableRecord
100
AcDbLayerTableRecord
  2
07_COSMETICS
 70
0
 62
7
  6
CONTINUOUS
370
-3
390
F
  0
LAYER
  5
206
100
AcDbSymbolTableRecord
100
AcDbLayerTableRecord
  2
10_NOTES
 70
0
 62
7
  6
CONTINUOUS
370
-3
390
F
  0
LAYER
  5
207
100
AcDbSymbolTableRecord
100
AcDbLayerTableRecord
  2
11_NOTES_PUB
 70
0
 62
7
  6
CONTINUOUS
370
-3
390
F
  0
LAYER
  5
208
100
AcDbSymbolTableRecord
100
AcDbLayerTableRecord
  2
13_REF_GTOL
 70
0
 62
7
  6
CONTINUOUS
370
-3
390
F
  0
LAYER
  5
209
100
AcDbSymbolTableRecord
100
AcDbLayerTableRecord
  2
16_MISC
 70
0
 62
7
  6
CONTINUOUS
370
-3
390
F
  0
LAYER
  5
20A
100
AcDbSymbolTableRecord
100
AcDbLayerTableRecord
  2
17_NO_PRINT
 70
0
 62
7
  6
CONTINUOUS
370
-3
390
F
  0
LAYER
  5
20B
100
AcDbSymbolTableRecord
100
AcDbLayerTableRecord
  2
18_DATUM_CAMS_JOINTS
 70
0
 62
7
  6
CONTINUOUS
370
-3
390
F
  0
LAYER
  5
20C
100
AcDbSymbolTableRecord
100
AcDbLayerTableRecord
  2
19_DATUM_FUNCTIONAL
 70
0
 62
7
  6
CONTINUOUS
370
-3
390
F
  0
LAYER
  5
20D
100
AcDbSymbolTableRecord
100
AcDbLayerTableRecord
  2
20_DATUM_KINEMATIC_SCHEME
 70
0
 62
7
  6
CONTINUOUS
370
-3
390
F
  0
ENDTAB
  0
TABLE
  2
STYLE
  5
3
100
AcDbSymbolTable
 70
1
  0
STYLE
  5
11
100
AcDbSymbolTableRecord
100
AcDbTextStyleTableRecord
  2
STANDARD
 70
0
 40
0.0
 41
1.0
 50
0.0
 71
0
 42
0.2
  3
ARIAL.TTF
  4

  0
STYLE
  5
20E
100
AcDbSymbolTableRecord
100
AcDbTextStyleTableRecord
  2
TEXTSTYLE_1
 70
0
 40
0.0
 41
0.8
 50
0.0
 71
0
 42
0.2
  3
gdt
  4

  0
ENDTAB
  0
TABLE
  2
VIEW
  5
6
100
AcDbSymbolTable
 70
0
  0
ENDTAB
  0
TABLE
  2
UCS
  5
7
100
AcDbSymbolTable
 70
0
  0
ENDTAB
  0
TABLE
  2
APPID
  5
9
100
AcDbSymbolTable
 70
1
  0
APPID
  5
20F
100
AcDbSymbolTableRecord
100
AcDbRegAppTableRecord
  2
ACAD
 70
0
  0
ENDTAB
  0
TABLE
  2
BLOCK_RECORD
  5
1
100
AcDbSymbolTable
 70
0
  0
BLOCK_RECORD
  5
210
100
AcDbSymbolTableRecord
100
AcDbBlockTableRecord
  2
*Model_Space
  0
BLOCK_RECORD
  5
211
100
AcDbSymbolTableRecord
100
AcDbBlockTableRecord
  2
*Paper_Space
  0
BLOCK_RECORD
  5
212
100
AcDbSymbolTableRecord
100
AcDbBlockTableRecord
  2
_FILLED
  0
ENDTAB
  0
TABLE
  2
DIMSTYLE
  5
A
100
AcDbSymbolTable
 70
1
100
AcDbDimStyleTable
 71
0
  0
DIMSTYLE
105
213
100
AcDbSymbolTableRecord
100
AcDbDimStyleTableRecord
  2
STANDARD
 70
0
  3

  4

 40
1.0
 41
1.0314593505
 42
1.0
 43
0.38
 44
1.0
 45
0.0
 46
0.0
 47
0.01
 48
0.01
140
1.4440430907
141
0.09
142
0.0
143
25.4
144
1.0
145
0.0
146
1.0
147
0.625
 71
1
 72
0
 73
0
 74
0
 75
0
 76
0
 77
1
 78
8
 79
2
170
0
171
1
172
0
173
0
174
0
175
0
176
0
177
0
178
0
270
2
179
2
271
2
272
2
273
2
274
2
275
0
280
0
281
0
282
0
283
1
284
8
285
0
286
0
287
3
288
0
340
11
278
46
341
212
342
212
343
212
344
212
  0
ENDTAB
  0
ENDSEC
  0
SECTION
  2
BLOCKS
  0
BLOCK
  5
20
100
AcDbEntity
  8
0
100
AcDbBlockBegin
  2
*Model_Space
 70
0
 10
0.0
 20
0.0
 30
0.0
  3
*Model_Space
  1

  0
ENDBLK
  5
21
100
AcDbEntity
  8
0
100
AcDbBlockEnd
  0
BLOCK
  5
1C
100
AcDbEntity
  8
0
100
AcDbBlockBegin
  2
*Paper_Space
 70
0
 10
0.0
 20
0.0
 30
0.0
  3
*Paper_Space
  1

  0
ENDBLK
  5
1D
100
AcDbEntity
  8
0
100
AcDbBlockEnd
  0
BLOCK
  5
214
100
AcDbEntity
  8
0
100
AcDbBlockBegin
  2
_FILLED
 70
64
 10
0.0
 20
0.0
  3
_FILLED
  1

  0
SOLID
  5
215
100
AcDbEntity
  8
0
  6
BYBLOCK
 62
0
100
AcDbTrace
 10
0.0
 20
0.0
 11
-1.0
 21
0.25
 12
-1.0
 22
-0.25
 13
-1.0
 23
-0.25
  0
ENDBLK
  5
216
100
AcDbEntity
  8
0
  6
BYBLOCK
 62
0
100
AcDbBlockEnd
  0
ENDSEC
  0
SECTION
  2
ENTITIES
  0
LINE
  5
217
100
AcDbEntity
  8
0
100
AcDbLine
 62
7
  6
BYLAYER
 10
11.452110202
 20
52.4749858505
 11
11.3981391547
 21
56.014199399
  0
LINE
  5
218
100
AcDbEntity
  8
0
100
AcDbLine
 62
7
  6
BYLAYER
 10
11.4481810262
 20
57.6706756135
 11
11.3981391924
 21
56.0141969211
  0
LINE
  5
219
100
AcDbEntity
  8
0
100
AcDbLine
 62
7
  6
BYLAYER
 10
15.7924515383
 20
40.6259257082
 11
15.4544602444
 21
41.2045732786
  0
LINE
  5
21A
100
AcDbEntity
  8
0
100
AcDbLine
 62
7
  6
BYLAYER
 10
15.9500990765
 20
41.4907167765
 11
16.2495314729
 21
40.9780827775
  0
LINE
  5
21B
100
AcDbEntity
  8
0
100
AcDbLine
 62
7
  6
BYLAYER
 10
13.5194683679
 20
54.7894746575
 11
13.5734393774
 21
51.2502635869
  0
LINE
  5
21C
100
AcDbEntity
  8
0
100
AcDbLine
 62
7
  6
BYLAYER
 10
13.8730214641
 20
51.1748966535
 11
13.8730214641
 21
54.7891743564
  0
LINE
  5
21D
100
AcDbEntity
  8
0
100
AcDbLine
 62
7
  6
BYLAYER
 10
13.5445079642
 20
56.4603880718
 11
13.5194683679
 21
54.7894746575
  0
LINE
  5
21E
100
AcDbEntity
  8
0
100
AcDbLine
 62
7
  6
BYLAYER
 10
31.1264987577
 20
32.8409943024
 11
18.4340081938
 21
40.1688413681
  0
LWPOLYLINE
  5
21F
100
AcDbEntity
  8
0
100
AcDbPolyline
 62
7
  6
BYLAYER
 90
3
 70
0
 10
14.6459725566
 20
51.6289465647
 10
14.3075979836
 20
52.9536284982
 10
14.1912316557
 20
54.6054597728
  0
LINE
  5
220
100
AcDbEntity
  8
0
100
AcDbLine
 62
7
  6
BYLAYER
 10
15.782200647
 20
67.0392403598
 11
15.782200647
 21
57.3634965588
  0
LINE
  5
221
100
AcDbEntity
  8
0
100
AcDbLine
 62
7
  6
BYLAYER
 10
16.1573320963
 20
57.6805467036
 11
16.1599622986
 21
57.7050020869
  0
LINE
  5
222
100
AcDbEntity
  8
0
100
AcDbLine
 62
7
  6
BYLAYER
 10
16.1555715329
 20
57.6819633814
 11
16.1599622986
 21
57.7050020869
  0
LINE
  5
223
100
AcDbEntity
  8
0
100
AcDbLine
 62
7
  6
BYLAYER
 10
35.5812529321
 20
35.4129324718
 11
37.8440040526
 21
34.1065620574
  0
LINE
  5
224
100
AcDbEntity
  8
0
100
AcDbLine
 62
7
  6
BYLAYER
 10
33.5415966746
 20
39.2357730213
 11
31.4202674991
 21
40.4604952848
  0
LINE
  5
225
100
AcDbEntity
  8
0
100
AcDbLine
 62
7
  6
BYLAYER
 10
11.7626171401
 20
51.8095882605
 11
13.3718686084
 21
50.8805075107
  0
LINE
  5
226
100
AcDbEntity
  8
0
100
AcDbLine
 62
7
  6
BYLAYER
 10
33.2310897365
 20
39.9011706113
 11
31.1097605611
 21
41.1258928748
  0
LINE
  5
227
100
AcDbEntity
  8
0
100
AcDbLine
 62
7
  6
BYLAYER
 10
13.5734393774
 20
51.2502635869
 11
11.452110202
 21
52.4749858505
  0
LINE
  5
228
100
AcDbEntity
  8
0
100
AcDbLine
 62
7
  6
BYLAYER
 10
16.5899832909
 20
58.3156517178
 11
16.870047169
 21
58.7571751587
  0
LINE
  5
229
100
AcDbEntity
  8
0
100
AcDbLine
 62
7
  6
BYLAYER
 10
27.2583512238
 20
39.888059338
 11
27.9317573462
 21
39.9262916872
  0
LINE
  5
22A
100
AcDbEntity
  8
0
100
AcDbLine
 62
7
  6
BYLAYER
 10
11.3981391924
 20
56.0141969211
 11
13.5194683679
 21
54.7894746575
  0
LINE
  5
22B
100
AcDbEntity
  8
0
100
AcDbLine
 62
7
  6
BYLAYER
 10
31.0557895515
 20
44.6651039454
 11
33.177118727
 21
43.4403816818
  0
LINE
  5
22C
100
AcDbEntity
  8
0
100
AcDbLine
 62
7
  6
BYLAYER
 10
13.8730214641
 20
54.7891743564
 11
14.1912316557
 21
54.6054597728
  0
LINE
  5
22D
100
AcDbEntity
  8
0
100
AcDbLine
 62
7
  6
BYLAYER
 10
30.808288566
 20
45.0118145297
 11
31.0588176983
 21
44.8671747399
  0
LINE
  5
22E
100
AcDbEntity
  8
0
100
AcDbLine
 62
7
  6
BYLAYER
 10
50.7861731111
 20
86.8941318271
 11
56.1578120881
 21
89.9954305242
  0
LINE
  5
22F
100
AcDbEntity
  8
0
100
AcDbLine
 62
7
  6
BYLAYER
 10
35.9348236921
 20
43.2852342651
 11
35.5459165816
 21
43.5097648105
  0
LINE
  5
230
100
AcDbEntity
  8
0
100
AcDbLine
 62
7
  6
BYLAYER
 10
33.1771560859
 20
45.1257298182
 11
31.0808291444
 21
46.3360171267
  0
LINE
  5
231
100
AcDbEntity
  8
0
100
AcDbLine
 62
7
  6
BYLAYER
 10
11.4481810262
 20
57.6706756135
 11
13.5445079642
 21
56.4603880719
  0
LINE
  5
232
100
AcDbEntity
  8
0
100
AcDbLine
 62
7
  6
BYLAYER
 10
36.8187034886
 20
43.7138892157
 11
36.679075454
 21
43.7945016754
  0
LINE
  5
233
100
AcDbEntity
  8
0
100
AcDbLine
 62
7
  6
BYLAYER
 10
35.9129995414
 20
45.2830446682
 11
35.9348236921
 21
45.270444774
  0
LINE
  5
234
100
AcDbEntity
  8
0
100
AcDbLine
 62
7
  6
BYLAYER
 10
53.5415414326
 20
86.6070118656
 11
52.7625032128
 21
86.1572366245
  0
LINE
  5
235
100
AcDbEntity
  8
0
100
AcDbLine
 62
7
  6
BYLAYER
 10
37.1688871347
 20
43.9333663106
 11
37.8440040526
 21
43.9596250023
  0
LINE
  5
236
100
AcDbEntity
  8
0
100
AcDbLine
 62
7
  6
BYLAYER
 10
31.1097605611
 20
41.1258928748
 11
31.0557895515
 21
44.6651039454
  0
LINE
  5
237
100
AcDbEntity
  8
0
100
AcDbLine
 62
7
  6
BYLAYER
 10
31.1264987577
 20
32.8409943024
 11
31.1264987577
 21
41.0123425598
  0
LINE
  5
238
100
AcDbEntity
  8
0
100
AcDbLine
 62
7
  6
BYLAYER
 10
31.0557895515
 20
44.6651039454
 11
31.0808291426
 21
46.3360170101
  0
LINE
  5
239
100
AcDbEntity
  8
0
100
AcDbLine
 62
7
  6
BYLAYER
 10
59.0988973742
 20
86.2983155476
 11
59.09630721
 21
86.2964756733
  0
LINE
  5
23A
100
AcDbEntity
  8
0
100
AcDbLine
 62
7
  6
BYLAYER
 10
20.8804680741
 20
61.9019277801
 11
18.9037169852
 21
60.7407370335
  0
LINE
  5
23B
100
AcDbEntity
  8
0
100
AcDbLine
 62
7
  6
BYLAYER
 10
61.0722710748
 20
85.7620761158
 11
61.1288393817
 21
85.7947356482
  0
LINE
  5
23C
100
AcDbEntity
  8
0
100
AcDbLine
 62
7
  6
BYLAYER
 10
61.5689609303
 20
85.8855407644
 11
61.4234626586
 21
85.80153925
  0
LINE
  5
23D
100
AcDbEntity
  8
0
100
AcDbLine
 62
7
  6
BYLAYER
 10
61.9349444684
 20
85.329341188
 11
61.8783761614
 21
85.2966816557
  0
LINE
  5
23E
100
AcDbEntity
  8
0
100
AcDbLine
 62
7
  6
BYLAYER
 10
33.1771188884
 20
43.4403710961
 11
33.2310897365
 21
39.9011706113
  0
LINE
  5
23F
100
AcDbEntity
  8
0
100
AcDbLine
 62
7
  6
BYLAYER
 10
33.177118727
 20
43.4403816818
 11
33.1771560859
 21
45.1257298182
  0
LINE
  5
240
100
AcDbEntity
  8
0
100
AcDbLine
 62
7
  6
BYLAYER
 10
59.1024321306
 20
86.2966542199
 11
59.0999649923
 21
86.2947619814
  0
LINE
  5
241
100
AcDbEntity
  8
0
100
AcDbLine
 62
7
  6
BYLAYER
 10
61.1429814585
 20
86.2136427787
 11
61.213692431
 21
86.2677650332
  0
LINE
  5
242
100
AcDbEntity
  8
0
100
AcDbLine
 62
7
  6
BYLAYER
 10
14.3464274565
 20
54.7105539517
 11
14.1912316557
 21
54.6054597728
  0
LINE
  5
243
100
AcDbEntity
  8
0
100
AcDbLine
 62
7
  6
BYLAYER
 10
16.860956008
 20
58.4969773744
 11
17.2347307871
 21
58.7165415963
  0
LINE
  5
244
100
AcDbEntity
  8
0
100
AcDbLine
 62
7
  6
BYLAYER
 10
14.826941277
 20
54.9879770793
 11
14.3464274562
 21
54.7105539515
  0
LINE
  5
245
100
AcDbEntity
  8
0
100
AcDbLine
 62
7
  6
BYLAYER
 10
15.782200647
 20
67.0392403598
 11
33.3185218306
 21
56.9148696477
  0
LINE
  5
246
100
AcDbEntity
  8
0
100
AcDbLine
 62
7
  6
BYLAYER
 10
35.5459165816
 20
42.7707426503
 11
35.5459165816
 21
44.5144151311
  0
LINE
  5
247
100
AcDbEntity
  8
0
100
AcDbLine
 62
7
  6
BYLAYER
 10
35.5812529321
 20
40.5391657225
 11
35.5812529321
 21
35.4129324718
  0
LINE
  5
248
100
AcDbEntity
  8
0
100
AcDbLine
 62
7
  6
BYLAYER
 10
35.9348236921
 20
45.270444774
 11
35.9348236921
 21
43.2852342651
  0
LINE
  5
249
100
AcDbEntity
  8
0
100
AcDbLine
 62
7
  6
BYLAYER
 10
36.8187034886
 20
42.4755074448
 11
36.8187034886
 21
43.7138892157
  0
LINE
  5
24A
100
AcDbEntity
  8
0
100
AcDbLine
 62
7
  6
BYLAYER
 10
37.8440040526
 20
43.9596250023
 11
37.8440040526
 21
34.1065620574
  0
LINE
  5
24B
100
AcDbEntity
  8
0
100
AcDbLine
 62
7
  6
BYLAYER
 10
17.4063510831
 20
54.8161484563
 11
18.0427203047
 21
55.1899669182
  0
LINE
  5
24C
100
AcDbEntity
  8
0
100
AcDbLine
 62
7
  6
BYLAYER
 10
11.8678495735
 20
49.99701085
 11
16.675972581
 21
52.8214170063
  0
LINE
  5
24D
100
AcDbEntity
  8
0
100
AcDbLine
 62
7
  6
BYLAYER
 10
11.111134348
 20
48.8566361882
 11
12.1717497173
 21
49.479666958
  0
LINE
  5
24E
100
AcDbEntity
  8
0
100
AcDbLine
 62
7
  6
BYLAYER
 10
69.0979553859
 20
77.6257152661
 11
68.9486535092
 21
77.539516302
  0
LINE
  5
24F
100
AcDbEntity
  8
0
100
AcDbLine
 62
7
  6
BYLAYER
 10
11.6682942297
 20
47.9081560084
 11
11.9401149092
 21
48.0306687216
  0
LINE
  5
250
100
AcDbEntity
  8
0
100
AcDbLine
 62
7
  6
BYLAYER
 10
61.9467279194
 20
85.1755714916
 11
61.9395953148
 21
85.1642394293
  0
LINE
  5
251
100
AcDbEntity
  8
0
100
AcDbLine
 62
7
  6
BYLAYER
 10
61.1481222454
 20
85.2722953405
 11
61.2683875215
 21
85.4605138165
  0
LINE
  5
252
100
AcDbEntity
  8
0
100
AcDbLine
 62
7
  6
BYLAYER
 10
62.0762177372
 20
85.926912025
 11
61.9439524704
 21
85.7317653924
  0
LWPOLYLINE
  5
253
100
AcDbEntity
  8
0
100
AcDbPolyline
 62
7
  6
BYLAYER
 90
3
 70
0
 10
63.4059829316
 20
80.2488753777
 10
65.9060328206
 20
83.05530547
 10
66.9966443366
 20
86.1477058785
  0
LINE
  5
254
100
AcDbEntity
  8
0
100
AcDbLine
 62
7
  6
BYLAYER
 10
15.4490295406
 20
41.7787649376
 11
16.7423700399
 21
42.5385040005
  0
LINE
  5
255
100
AcDbEntity
  8
0
100
AcDbLine
 62
7
  6
BYLAYER
 10
15.9500990765
 20
41.4907167765
 11
16.6741699984
 21
41.9160533094
  0
LINE
  5
256
100
AcDbEntity
  8
0
100
AcDbLine
 62
7
  6
BYLAYER
 10
70.6536085571
 20
75.0946157894
 11
72.0678162315
 21
75.9111040971
  0
LINE
  5
257
100
AcDbEntity
  8
0
100
AcDbLine
 62
7
  6
BYLAYER
 10
68.1779277483
 20
71.7873662321
 11
77.9367916226
 21
77.421615285
  0
LINE
  5
258
100
AcDbEntity
  8
0
100
AcDbLine
 62
7
  6
BYLAYER
 10
68.159275987
 20
71.7665893577
 11
66.7195771582
 21
70.9453921523
  0
LINE
  5
259
100
AcDbEntity
  8
0
100
AcDbLine
 62
7
  6
BYLAYER
 10
61.1429881707
 20
85.2624374227
 11
61.1481222454
 21
85.2722953405
  0
LINE
  5
25A
100
AcDbEntity
  8
0
100
AcDbLine
 62
7
  6
BYLAYER
 10
30.9635059972
 20
45.1168962203
 11
31.0635875144
 21
45.1854685966
  0
LINE
  5
25B
100
AcDbEntity
  8
0
100
AcDbLine
 62
7
  6
BYLAYER
 10
30.808288566
 20
45.0118145297
 11
31.0636404916
 21
45.1848012108
  0
LINE
  5
25C
100
AcDbEntity
  8
0
100
AcDbLine
 62
7
  6
BYLAYER
 10
16.4800368888
 20
39.7168940963
 11
17.5406522581
 21
40.3399248661
  0
LINE
  5
25D
100
AcDbEntity
  8
0
100
AcDbLine
 62
7
  6
BYLAYER
 10
17.8445524019
 20
39.8225809741
 11
22.6526754094
 21
42.6469871303
  0
LINE
  5
25E
100
AcDbEntity
  8
0
100
AcDbLine
 62
7
  6
BYLAYER
 10
34.6716889777
 20
39.6108648921
 11
36.2742629067
 21
41.2464515949
  0
LINE
  5
25F
100
AcDbEntity
  8
0
100
AcDbLine
 62
7
  6
BYLAYER
 10
68.1779277483
 20
72.2398227971
 11
68.1483081031
 21
72.2107137158
  0
LINE
  5
260
100
AcDbEntity
  8
0
100
AcDbLine
 62
7
  6
BYLAYER
 10
66.8849465738
 20
70.9770400625
 11
66.7653498801
 21
70.8610517681
  0
LINE
  5
261
100
AcDbEntity
  8
0
100
AcDbLine
 62
7
  6
BYLAYER
 10
68.1779277483
 20
72.2398227971
 11
68.1478222007
 21
72.2120318233
  0
LINE
  5
262
100
AcDbEntity
  8
0
100
AcDbLine
 62
7
  6
BYLAYER
 10
66.8664320369
 20
71.0291574604
 11
66.7453940125
 21
70.9174250777
  0
LINE
  5
263
100
AcDbEntity
  8
0
100
AcDbLine
 62
7
  6
BYLAYER
 10
36.0504830781
 20
45.3574730023
 11
35.9348236921
 21
45.270444774
  0
LINE
  5
264
100
AcDbEntity
  8
0
100
AcDbLine
 62
7
  6
BYLAYER
 10
36.0510491432
 20
45.3515681287
 11
35.9348236921
 21
45.270444774
  0
LINE
  5
265
100
AcDbEntity
  8
0
100
AcDbLine
 62
7
  6
BYLAYER
 10
24.7506045587
 20
42.3136710664
 11
25.3869737803
 21
42.6874895282
  0
LINE
  5
266
100
AcDbEntity
  8
0
100
AcDbLine
 62
7
  6
BYLAYER
 10
53.5415414326
 20
86.6070118656
 11
53.5415414326
 21
85.8667641339
  0
LINE
  5
267
100
AcDbEntity
  8
0
100
AcDbLine
 62
7
  6
BYLAYER
 10
58.4904146348
 20
85.3438546301
 11
58.4251030649
 21
84.7354910523
  0
LINE
  5
268
100
AcDbEntity
  8
0
100
AcDbLine
 62
7
  6
BYLAYER
 10
61.5689609303
 20
85.8855407644
 11
61.7568675685
 21
86.5901711835
  0
LINE
  5
269
100
AcDbEntity
  8
0
100
AcDbLine
 62
7
  6
BYLAYER
 10
27.7000611376
 20
40.0450452265
 11
28.0738359167
 21
40.2646094484
  0
LINE
  5
26A
100
AcDbEntity
  8
0
100
AcDbLine
 62
7
  6
BYLAYER
 10
36.3944411863
 20
43.6392422395
 11
36.5712171456
 21
43.7413032779
  0
LWPOLYLINE
  5
26B
100
AcDbEntity
  8
0
100
AcDbPolyline
 62
7
  6
BYLAYER
 90
6
 70
0
 10
28.3746055033
 20
39.6485253832
 10
28.1202160664
 20
39.5135797849
 10
25.8195573482
 20
39.1127038446
 10
23.1688719124
 20
39.8750815174
 10
21.8016220461
 20
40.6672127233
 10
20.7866507713
 20
41.5508397424
  0
LINE
  5
26C
100
AcDbEntity
  8
0
100
AcDbLine
 62
7
  6
BYLAYER
 10
66.5017121605
 20
50.6156820114
 11
66.4805769983
 21
50.6397964661
  0
LINE
  5
26D
100
AcDbEntity
  8
0
100
AcDbLine
 62
7
  6
BYLAYER
 10
66.5108739279
 20
50.6181331802
 11
66.491175967
 21
50.6426400636
  0
LINE
  5
26E
100
AcDbEntity
  8
0
100
AcDbLine
 62
7
  6
BYLAYER
 10
60.4075946454
 20
85.9017675694
 11
60.4075946454
 21
85.3518333568
  0
LINE
  5
26F
100
AcDbEntity
  8
0
100
AcDbLine
 62
7
  6
BYLAYER
 10
60.4368836729
 20
85.3341806304
 11
60.4368836729
 21
85.8733996601
  0
LINE
  5
270
100
AcDbEntity
  8
0
100
AcDbLine
 62
7
  6
BYLAYER
 10
60.9308497185
 20
85.7620757759
 11
60.9308497185
 21
85.6214002424
  0
LINE
  5
271
100
AcDbEntity
  8
0
100
AcDbLine
 62
7
  6
BYLAYER
 10
61.0722710748
 20
85.5778506376
 11
61.0722710748
 21
85.7620761158
  0
LINE
  5
272
100
AcDbEntity
  8
0
100
AcDbLine
 62
7
  6
BYLAYER
 10
61.1429814585
 20
85.7289199613
 11
61.1429795215
 21
86.6721771629
  0
LINE
  5
273
100
AcDbEntity
  8
0
100
AcDbLine
 62
7
  6
BYLAYER
 10
61.1429881707
 20
85.2624374227
 11
61.1429902435
 21
85.1782552488
  0
LINE
  5
274
100
AcDbEntity
  8
0
100
AcDbLine
 62
7
  6
BYLAYER
 10
61.213692431
 20
86.2677650332
 11
61.213692431
 21
85.5778509776
  0
LINE
  5
275
100
AcDbEntity
  8
0
100
AcDbLine
 62
7
  6
BYLAYER
 10
61.3551137872
 20
85.6214012622
 11
61.3551137872
 21
86.4488147356
  0
LINE
  5
276
100
AcDbEntity
  8
0
100
AcDbLine
 62
7
  6
BYLAYER
 10
61.8490871339
 20
85.0651029368
 11
61.8490859564
 21
86.0162879566
  0
LINE
  5
277
100
AcDbEntity
  8
0
100
AcDbLine
 62
7
  6
BYLAYER
 10
61.8783755726
 20
85.2966816557
 11
61.8783755726
 21
85.8636061635
  0
LINE
  5
278
100
AcDbEntity
  8
0
100
AcDbLine
 62
7
  6
BYLAYER
 10
61.8783767502
 20
85.0920406373
 11
61.8783767502
 21
85.2150331649
  0
LINE
  5
279
100
AcDbEntity
  8
0
100
AcDbLine
 62
7
  6
BYLAYER
 10
61.138296609
 20
86.2172285749
 11
61.1288393817
 21
85.7947356482
  0
LINE
  5
27A
100
AcDbEntity
  8
0
100
AcDbLine
 62
7
  6
BYLAYER
 10
61.9349444684
 20
85.329341188
 11
61.9439524704
 21
85.7317653924
  0
LINE
  5
27B
100
AcDbEntity
  8
0
100
AcDbLine
 62
7
  6
BYLAYER
 10
35.5812529321
 20
35.4129324718
 11
31.1264987577
 21
32.8409943024
  0
LINE
  5
27C
100
AcDbEntity
  8
0
100
AcDbLine
 62
7
  6
BYLAYER
 10
66.6231302272
 20
50.7220991199
 11
37.8440040526
 21
34.1065620574
  0
LINE
  5
27D
100
AcDbEntity
  8
0
100
AcDbLine
 62
7
  6
BYLAYER
 10
66.6231302272
 20
50.4771483948
 11
77.9367916226
 21
57.0090548567
  0
LINE
  5
27E
100
AcDbEntity
  8
0
100
AcDbLine
 62
7
  6
BYLAYER
 10
60.4286972981
 20
85.9232495095
 11
60.4370133459
 21
85.8733757376
  0
LINE
  5
27F
100
AcDbEntity
  8
0
100
AcDbLine
 62
7
  6
BYLAYER
 10
63.7955549945
 20
85.3438546301
 11
63.8608665643
 21
84.7354910523
  0
LINE
  5
280
100
AcDbEntity
  8
0
100
AcDbLine
 62
7
  6
BYLAYER
 10
66.6231302272
 20
50.4771483948
 11
66.6231302272
 21
50.7220991199
  0
LINE
  5
281
100
AcDbEntity
  8
0
100
AcDbLine
 62
7
  6
BYLAYER
 10
66.9966443366
 20
82.1468440346
 11
66.9966443366
 21
86.1477058785
  0
LINE
  5
282
100
AcDbEntity
  8
0
100
AcDbLine
 62
7
  6
BYLAYER
 10
67.0017280414
 20
82.2388439506
 11
67.0017280414
 21
86.1477058785
  0
LINE
  5
283
100
AcDbEntity
  8
0
100
AcDbLine
 62
7
  6
BYLAYER
 10
66.9966443366
 20
86.1477058785
 11
67.0013193248
 21
86.2397056253
  0
LINE
  5
284
100
AcDbEntity
  8
0
100
AcDbLine
 62
7
  6
BYLAYER
 10
67.0013193248
 20
82.2388437814
 11
66.9966443366
 21
82.1468440346
  0
LINE
  5
285
100
AcDbEntity
  8
0
100
AcDbLine
 62
7
  6
BYLAYER
 10
59.8273431277
 20
86.740467289
 11
59.8869104207
 21
86.7518913586
  0
LINE
  5
286
100
AcDbEntity
  8
0
100
AcDbLine
 62
7
  6
BYLAYER
 10
68.1460057336
 20
72.2826941992
 11
68.1592777
 21
71.7665883912
  0
LINE
  5
287
100
AcDbEntity
  8
0
100
AcDbLine
 62
7
  6
BYLAYER
 10
68.1779277483
 20
72.2398227971
 11
68.1779277483
 21
71.7873662321
  0
LINE
  5
288
100
AcDbEntity
  8
0
100
AcDbLine
 62
7
  6
BYLAYER
 10
68.9486535092
 20
74.7470694348
 11
68.9486535092
 21
77.539516302
  0
LINE
  5
289
100
AcDbEntity
  8
0
100
AcDbLine
 62
7
  6
BYLAYER
 10
69.0979553859
 20
77.6257152661
 11
69.0979553859
 21
74.7470697937
  0
LINE
  5
28A
100
AcDbEntity
  8
0
100
AcDbLine
 62
7
  6
BYLAYER
 10
46.3795110742
 20
87.8963229906
 11
50.3343410078
 21
87.0626021191
  0
LWPOLYLINE
  5
28B
100
AcDbEntity
  8
0
100
AcDbPolyline
 62
7
  6
BYLAYER
 90
3
 70
0
 10
50.3343410078
 20
87.0626021191
 10
57.4848077579
 20
84.3964763337
 10
57.8701260116
 20
84.1740177688
  0
LINE
  5
28C
100
AcDbEntity
  8
0
100
AcDbLine
 62
7
  6
BYLAYER
 10
59.8940017365
 20
83.0055590074
 11
60.6314523559
 21
82.5798013254
  0
LWPOLYLINE
  5
28D
100
AcDbEntity
  8
0
100
AcDbPolyline
 62
7
  6
BYLAYER
 90
3
 70
0
 10
60.6314523559
 20
82.5798013254
 10
65.9451617751
 20
78.0498944391
 10
68.0664025476
 20
75.3756736112
  0
LINE
  5
28E
100
AcDbEntity
  8
0
100
AcDbLine
 62
7
  6
BYLAYER
 10
68.1779626789
 20
72.2398571307
 11
68.1460049829
 21
72.2826937572
  0
LINE
  5
28F
100
AcDbEntity
  8
0
100
AcDbLine
 62
7
  6
BYLAYER
 10
68.1779626789
 20
72.2398571307
 11
68.14792733
 21
72.2836801405
  0
LINE
  5
290
100
AcDbEntity
  8
0
100
AcDbLine
 62
7
  6
BYLAYER
 10
61.0722771982
 20
85.3982078281
 11
61.1429881707
 21
85.2624374227
  0
LINE
  5
291
100
AcDbEntity
  8
0
100
AcDbLine
 62
7
  6
BYLAYER
 10
60.2184461902
 20
86.0681631249
 11
60.2727391101
 21
85.9310554589
  0
LINE
  5
292
100
AcDbEntity
  8
0
100
AcDbLine
 62
7
  6
BYLAYER
 10
61.138296609
 20
86.2172285749
 11
61.0263452946
 21
86.534601106
  0
LINE
  5
293
100
AcDbEntity
  8
0
100
AcDbLine
 62
7
  6
BYLAYER
 10
61.8622590238
 20
86.1371730662
 11
61.8743620476
 21
86.1337649073
  0
LINE
  5
294
100
AcDbEntity
  8
0
100
AcDbLine
 62
7
  6
BYLAYER
 10
61.8622590238
 20
86.1371730662
 11
61.8742882981
 21
86.1334636947
  0
LINE
  5
295
100
AcDbEntity
  8
0
100
AcDbLine
 62
7
  6
BYLAYER
 10
60.8624985493
 20
85.8015374491
 11
60.9308497185
 21
85.7620757759
  0
LINE
  5
296
100
AcDbEntity
  8
0
100
AcDbLine
 62
7
  6
BYLAYER
 10
61.8783767502
 20
85.2150331649
 11
61.9467279194
 21
85.1755714916
  0
LINE
  5
297
100
AcDbEntity
  8
0
100
AcDbLine
 62
7
  6
BYLAYER
 10
59.709060246
 20
86.6144269705
 11
61.1288393817
 21
85.7947356482
  0
LINE
  5
298
100
AcDbEntity
  8
0
100
AcDbLine
 62
7
  6
BYLAYER
 10
61.9349444684
 20
85.329341188
 11
63.3547236041
 21
84.5096498657
  0
LINE
  5
299
100
AcDbEntity
  8
0
100
AcDbLine
 62
7
  6
BYLAYER
 10
61.8490859564
 20
85.7238141639
 11
61.5689609303
 21
85.8855407644
  0
LINE
  5
29A
100
AcDbEntity
  8
0
100
AcDbLine
 62
7
  6
BYLAYER
 10
61.8783755726
 20
85.8636061635
 11
61.9463811668
 21
85.7330302887
  0
LINE
  5
29B
100
AcDbEntity
  8
0
100
AcDbLine
 62
7
  6
BYLAYER
 10
62.4145848689
 20
87.4534964091
 11
56.1578120881
 21
89.9954305242
  0
LINE
  5
29C
100
AcDbEntity
  8
0
100
AcDbLine
 62
7
  6
BYLAYER
 10
61.138296609
 20
86.2172285749
 11
61.1429814585
 21
86.2136427787
  0
LINE
  5
29D
100
AcDbEntity
  8
0
100
AcDbLine
 62
7
  6
BYLAYER
 10
77.9367916226
 20
77.421615285
 11
77.9367916226
 21
57.0090548567
  0
LWPOLYLINE
  5
29E
100
AcDbEntity
  8
0
100
AcDbPolyline
 62
7
  6
BYLAYER
 90
3
 70
0
 10
77.9367916226
 20
77.421615285
 10
71.9695988053
 20
82.3173154226
 10
67.0017280414
 20
85.1854520595
  0
ARC
  5
29F
100
AcDbEntity
  8
0
100
AcDbCircle
 62
7
  6
BYLAYER
 10
-5545.7905061198
 20
9670.3237974027
 40
11094.8312519803
100
AcDbArc
 50
300.0754136532
 51
300.2672346889
  0
ARC
  5
2A0
100
AcDbEntity
  8
0
100
AcDbCircle
 62
7
  6
BYLAYER
 10
-129.9211090341
 20
273.7828754914
 40
282.6001245717
100
AcDbArc
 50
314.1398248085
 51
314.4978316666
  0
ARC
  5
2A1
100
AcDbEntity
  8
0
100
AcDbCircle
 62
7
  6
BYLAYER
 10
-88.56485472
 20
223.363343106
 40
217.2403829746
100
AcDbArc
 50
304.0836123589
 51
304.9939940914
  0
ARC
  5
2A2
100
AcDbEntity
  8
0
100
AcDbCircle
 62
7
  6
BYLAYER
 10
-106.1573022665
 20
232.2312658794
 40
214.22645602
100
AcDbArc
 50
304.0763020131
 51
304.4380323363
  0
ARC
  5
2A3
100
AcDbEntity
  8
0
100
AcDbCircle
 62
7
  6
BYLAYER
 10
-105.7676750487
 20
231.9415602656
 40
214.0986389954
100
AcDbArc
 50
304.1265234129
 51
304.2881760828
  0
ARC
  5
2A4
100
AcDbEntity
  8
0
100
AcDbCircle
 62
7
  6
BYLAYER
 10
43.0395492782
 20
55.6757660647
 40
32.148769096
100
AcDbArc
 50
62.1071671541
 51
62.4966229802
  0
ARC
  5
2A5
100
AcDbEntity
  8
0
100
AcDbCircle
 62
7
  6
BYLAYER
 10
43.3077587055
 20
56.1777851786
 40
31.5795990166
100
AcDbArc
 50
59.385690539
 51
62.111150986
  0
ARC
  5
2A6
100
AcDbEntity
  8
0
100
AcDbCircle
 62
7
  6
BYLAYER
 10
43.7475476906
 20
56.9334916212
 40
30.7052621332
100
AcDbArc
 50
58.2122217615
 51
59.3738239882
  0
ARC
  5
2A7
100
AcDbEntity
  8
0
100
AcDbCircle
 62
7
  6
BYLAYER
 10
48.6094686582
 20
36.2493160403
 40
22.9548081375
100
AcDbArc
 50
38.3029375955
 51
38.7527650579
  0
ARC
  5
2A8
100
AcDbEntity
  8
0
100
AcDbCircle
 62
7
  6
BYLAYER
 10
19.1686234083
 20
50.574662009
 40
11.0779635889
100
AcDbArc
 50
59.7368601911
 51
60.0003822748
  0
ARC
  5
2A9
100
AcDbEntity
  8
0
100
AcDbCircle
 62
7
  6
BYLAYER
 10
18.4796519426
 20
50.1109690461
 40
10.8693462234
100
AcDbArc
 50
59.7368609965
 51
60.000383083
  0
ARC
  5
2AA
100
AcDbEntity
  8
0
100
AcDbCircle
 62
7
  6
BYLAYER
 10
17.7088642776
 20
49.4939900294
 40
10.2877604229
100
AcDbArc
 50
59.7384106521
 51
60.0003851706
  0
ARC
  5
2AB
100
AcDbEntity
  8
0
100
AcDbCircle
 62
7
  6
BYLAYER
 10
17.4792063169
 20
49.3394243866
 40
10.21822292
100
AcDbArc
 50
59.7384106522
 51
60.0003851705
  0
ARC
  5
2AC
100
AcDbEntity
  8
0
100
AcDbCircle
 62
7
  6
BYLAYER
 10
24.1007328582
 20
56.1805926998
 40
8.0857690457
100
AcDbArc
 50
167.1584087654
 51
169.1329955988
  0
ARC
  5
2AD
100
AcDbEntity
  8
0
100
AcDbCircle
 62
7
  6
BYLAYER
 10
20.4623146974
 20
45.9276102875
 40
7.5106438715
100
AcDbArc
 50
0.0363959082
 51
0.4353154347
  0
ARC
  5
2AE
100
AcDbEntity
  8
0
100
AcDbCircle
 62
7
  6
BYLAYER
 10
19.4409740008
 20
45.5537721684
 40
6.7642445591
100
AcDbArc
 50
0.0363959082
 51
0.4353154347
  0
ARC
  5
2AF
100
AcDbEntity
  8
0
100
AcDbCircle
 62
7
  6
BYLAYER
 10
20.0773432223
 20
45.9275906302
 40
6.7642445591
100
AcDbArc
 50
0.0363959082
 51
0.4353154347
  0
ARC
  5
2B0
100
AcDbEntity
  8
0
100
AcDbCircle
 62
7
  6
BYLAYER
 10
19.2966097905
 20
45.5537649678
 40
6.4843444331
100
AcDbArc
 50
0.0363959082
 51
0.4353154347
  0
ARC
  5
2B1
100
AcDbEntity
  8
0
100
AcDbCircle
 62
7
  6
BYLAYER
 10
24.6874823487
 20
59.0604133525
 40
5.1991655171
100
AcDbArc
 50
146.4361742668
 51
152.1336583906
  0
ARC
  5
2B2
100
AcDbEntity
  8
0
100
AcDbCircle
 62
7
  6
BYLAYER
 10
19.3205205522
 20
55.7999101956
 40
3.6450448105
100
AcDbArc
 50
129.5817974475
 51
132.1833875942
  0
ARC
  5
2B3
100
AcDbEntity
  8
0
100
AcDbCircle
 62
7
  6
BYLAYER
 10
26.5513749251
 20
43.4797552153
 40
3.6165919888
100
AcDbArc
 50
288.588416099
 51
295.472428922
  0
ARC
  5
2B4
100
AcDbEntity
  8
0
100
AcDbCircle
 62
7
  6
BYLAYER
 10
19.2754950682
 20
55.8552503699
 40
3.5737040122
100
AcDbArc
 50
125.3465525902
 51
129.5907718326
  0
ARC
  5
2B5
100
AcDbEntity
  8
0
100
AcDbCircle
 62
7
  6
BYLAYER
 10
37.3459018594
 20
42.4469849827
 40
1.5072339493
100
AcDbArc
 50
112.1631617213
 51
112.8937893336
  0
ARC
  5
2B6
100
AcDbEntity
  8
0
100
AcDbCircle
 62
7
  6
BYLAYER
 10
15.3499219092
 20
41.9741594175
 40
1.4190019758
100
AcDbArc
 50
288.1713446352
 51
293.6653968711
  0
ARC
  5
2B7
100
AcDbEntity
  8
0
100
AcDbCircle
 62
7
  6
BYLAYER
 10
15.2140199904
 20
41.8696165859
 40
1.3974016875
100
AcDbArc
 50
300.4824791829
 51
311.8683141474
  0
ARC
  5
2B8
100
AcDbEntity
  8
0
100
AcDbCircle
 62
7
  6
BYLAYER
 10
15.2192920505
 20
41.8638433962
 40
1.3897529978
100
AcDbArc
 50
288.1000337306
 51
300.4159059312
  0
ARC
  5
2B9
100
AcDbEntity
  8
0
100
AcDbCircle
 62
7
  6
BYLAYER
 10
15.3614542287
 20
41.9467021359
 40
1.3892247733
100
AcDbArc
 50
293.6843148686
 51
296.0196132373
  0
ARC
  5
2BA
100
AcDbEntity
  8
0
100
AcDbCircle
 62
7
  6
BYLAYER
 10
32.536579839
 20
98.0560332953
 40
31.3713863839
100
AcDbArc
 50
335.7641047508
 51
336.3281995054
  0
ARC
  5
2BB
100
AcDbEntity
  8
0
100
AcDbCircle
 62
7
  6
BYLAYER
 10
36.4042374725
 20
95.1911876065
 40
26.7231554939
100
AcDbArc
 50
339.0159285062
 51
339.4290124763
  0
ARC
  5
2BC
100
AcDbEntity
  8
0
100
AcDbCircle
 62
7
  6
BYLAYER
 10
88.332991594
 20
97.4229814055
 40
29.8199512423
100
AcDbArc
 50
203.3339383599
 51
204.2439099337
  0
ARC
  5
2BD
100
AcDbEntity
  8
0
100
AcDbCircle
 62
7
  6
BYLAYER
 10
84.792263602
 20
94.7783990425
 40
25.5581239441
100
AcDbArc
 50
200.5627615382
 51
200.9946844592
  0
ARC
  5
2BE
100
AcDbEntity
  8
0
100
AcDbCircle
 62
7
  6
BYLAYER
 10
56.1054294774
 20
78.2371169802
 40
8.3144794424
100
AcDbArc
 50
57.8563060468
 51
59.9882951835
  0
ARC
  5
2BF
100
AcDbEntity
  8
0
100
AcDbCircle
 62
7
  6
BYLAYER
 10
59.9410587331
 20
78.1271488039
 40
7.8113364786
100
AcDbArc
 50
86.4208671467
 51
90.509144786
  0
ARC
  5
2C0
100
AcDbEntity
  8
0
100
AcDbCircle
 62
7
  6
BYLAYER
 10
62.3487130534
 20
78.1891393511
 40
7.7425693184
100
AcDbArc
 50
89.2731031219
 51
92.0169088385
  0
ARC
  5
2C1
100
AcDbEntity
  8
0
100
AcDbCircle
 62
7
  6
BYLAYER
 10
56.5728256053
 20
79.0467711358
 40
7.3796003451
100
AcDbArc
 50
59.9864229416
 51
62.2766126907
  0
ARC
  5
2C2
100
AcDbEntity
  8
0
100
AcDbCircle
 62
7
  6
BYLAYER
 10
61.704600965
 20
81.5755195224
 40
4.7320716979
100
AcDbArc
 50
108.3040804874
 51
112.7895362309
  0
ARC
  5
2C3
100
AcDbEntity
  8
0
100
AcDbCircle
 62
7
  6
BYLAYER
 10
60.5861596264
 20
81.584432828
 40
4.728201333
100
AcDbArc
 50
66.8244919994
 51
74.1898417427
  0
ARC
  5
2C4
100
AcDbEntity
  8
0
100
AcDbCircle
 62
7
  6
BYLAYER
 10
61.1428480476
 20
82.8265584367
 40
4.1303256047
100
AcDbArc
 50
87.6734892068
 51
95.1191541579
  0
ARC
  5
2C5
100
AcDbEntity
  8
0
100
AcDbCircle
 62
7
  6
BYLAYER
 10
61.1440938795
 20
82.8353850673
 40
4.1214557715
100
AcDbArc
 50
85.754067195
 51
87.6858131199
  0
ARC
  5
2C6
100
AcDbEntity
  8
0
100
AcDbCircle
 62
7
  6
BYLAYER
 10
61.0478051541
 20
87.1439824542
 40
4.06991371
100
AcDbArc
 50
255.5761274748
 51
257.7447548217
  0
ARC
  5
2C7
100
AcDbEntity
  8
0
100
AcDbCircle
 62
7
  6
BYLAYER
 10
61.2429155934
 20
87.1246193872
 40
4.0499829176
100
AcDbArc
 50
282.2219216116
 51
284.1348338993
  0
ARC
  5
2C8
100
AcDbEntity
  8
0
100
AcDbCircle
 62
7
  6
BYLAYER
 10
61.1564263823
 20
82.9847442652
 40
3.971593622
100
AcDbArc
 50
79.1949445861
 51
85.771962334
  0
ARC
  5
2C9
100
AcDbEntity
  8
0
100
AcDbCircle
 62
7
  6
BYLAYER
 10
61.2637938578
 20
87.0407536122
 40
3.9635577242
100
AcDbArc
 50
284.138220294
 51
284.431333071
  0
ARC
  5
2CA
100
AcDbEntity
  8
0
100
AcDbCircle
 62
7
  6
BYLAYER
 10
60.116114886
 20
83.1559541594
 40
3.8069836693
100
AcDbArc
 50
55.3589970037
 51
59.9613634241
  0
ARC
  5
2CB
100
AcDbEntity
  8
0
100
AcDbCircle
 62
7
  6
BYLAYER
 10
60.2585181726
 20
83.402258155
 40
3.5224764569
100
AcDbArc
 50
59.9610545813
 51
64.8260298371
  0
ARC
  5
2CC
100
AcDbEntity
  8
0
100
AcDbCircle
 62
7
  6
BYLAYER
 10
60.9432290855
 20
83.6517528207
 40
3.2841058367
100
AcDbArc
 50
108.8475687272
 51
109.8639733354
  0
ARC
  5
2CD
100
AcDbEntity
  8
0
100
AcDbCircle
 62
7
  6
BYLAYER
 10
61.3251952524
 20
83.718275476
 40
3.2180896961
100
AcDbArc
 50
71.134540621
 51
73.0987750713
  0
ARC
  5
2CE
100
AcDbEntity
  8
0
100
AcDbCircle
 62
7
  6
BYLAYER
 10
61.6322463702
 20
84.297157325
 40
2.5758484661
100
AcDbArc
 50
60.0039727375
 51
61.7575756209
  0
ARC
  5
2CF
100
AcDbEntity
  8
0
100
AcDbCircle
 62
7
  6
BYLAYER
 10
59.9071544928
 20
83.6775484601
 40
2.1796239984
100
AcDbArc
 50
130.7875662589
 51
131.278030028
  0
ARC
  5
2D0
100
AcDbEntity
  8
0
100
AcDbCircle
 62
7
  6
BYLAYER
 10
61.7521125819
 20
84.6660814927
 40
2.176270081
100
AcDbArc
 50
57.8427647648
 51
60.016927319
  0
ARC
  5
2D1
100
AcDbEntity
  8
0
100
AcDbCircle
 62
7
  6
BYLAYER
 10
62.4262173165
 20
83.7309543368
 40
2.1082175197
100
AcDbArc
 50
46.5330503343
 51
48.8042821836
  0
ARC
  5
2D2
100
AcDbEntity
  8
0
100
AcDbCircle
 62
7
  6
BYLAYER
 10
59.8508086369
 20
83.741017452
 40
2.0947538912
100
AcDbArc
 50
131.2650781968
 51
133.2133774941
  0
ARC
  5
2D3
100
AcDbEntity
  8
0
100
AcDbCircle
 62
7
  6
BYLAYER
 10
59.7985391376
 20
83.3647635167
 40
2.0177900774
100
AcDbArc
 50
132.4045528652
 51
135.7911565564
  0
ARC
  5
2D4
100
AcDbEntity
  8
0
100
AcDbCircle
 62
7
  6
BYLAYER
 10
62.5576064537
 20
83.434548603
 40
1.9188490652
100
AcDbArc
 50
44.0035699911
 51
44.4838200317
  0
ARC
  5
2D5
100
AcDbEntity
  8
0
100
AcDbCircle
 62
7
  6
BYLAYER
 10
62.6218931144
 20
83.4955201083
 40
1.8302509712
100
AcDbArc
 50
41.1090902356
 51
44.0287252426
  0
ARC
  5
2D6
100
AcDbEntity
  8
0
100
AcDbCircle
 62
7
  6
BYLAYER
 10
59.6633560731
 20
84.6025283719
 40
1.2453712646
100
AcDbArc
 50
173.8711061227
 51
179.994314173
  0
ARC
  5
2D7
100
AcDbEntity
  8
0
100
AcDbCircle
 62
7
  6
BYLAYER
 10
62.6226135561
 20
84.6025283719
 40
1.2453712646
100
AcDbArc
 50
0.005685827
 51
6.1288938773
  0
ARC
  5
2D8
100
AcDbEntity
  8
0
100
AcDbCircle
 62
7
  6
BYLAYER
 10
59.1099766056
 20
83.8471585505
 40
1.1693136913
100
AcDbArc
 50
160.5249130373
 51
165.8573246238
  0
ARC
  5
2D9
100
AcDbEntity
  8
0
100
AcDbCircle
 62
7
  6
BYLAYER
 10
61.142982242
 20
84.2610382194
 40
1.1221194106
100
AcDbArc
 50
86.3645466652
 51
93.0900495664
  0
ARC
  5
2DA
100
AcDbEntity
  8
0
100
AcDbCircle
 62
7
  6
BYLAYER
 10
59.0243606425
 20
84.301293123
 40
1.0813730145
100
AcDbArc
 50
180.0395814271
 51
191.1352001303
  0
ARC
  5
2DB
100
AcDbEntity
  8
0
100
AcDbCircle
 62
7
  6
BYLAYER
 10
59.4153146797
 20
84.6566171994
 40
0.9975622773
100
AcDbArc
 50
197.085932105
 51
198.3930077873
  0
ARC
  5
2DC
100
AcDbEntity
  8
0
100
AcDbCircle
 62
7
  6
BYLAYER
 10
59.3310857646
 20
84.6381618313
 40
0.9111929242
100
AcDbArc
 50
173.8682503385
 51
182.1026792677
  0
ARC
  5
2DD
100
AcDbEntity
  8
0
100
AcDbCircle
 62
7
  6
BYLAYER
 10
62.9563953995
 20
84.6382460925
 40
0.9096826948
100
AcDbArc
 50
357.7845415329
 51
6.1366345669
  0
ARC
  5
2DE
100
AcDbEntity
  8
0
100
AcDbCircle
 62
7
  6
BYLAYER
 10
61.2328432558
 20
85.7370394895
 40
0.3233767649
100
AcDbArc
 50
200.952822882
 51
204.4541220834
  0
ARC
  5
2DF
100
AcDbEntity
  8
0
100
AcDbCircle
 62
7
  6
BYLAYER
 10
61.5750361398
 20
85.0078374
 40
0.2179484372
100
AcDbArc
 50
1.3781898997
 51
7.6710503904
  0
ARC
  5
2E0
100
AcDbEntity
  8
0
100
AcDbCircle
 62
7
  6
BYLAYER
 10
4459.0681820222
 20
-7635.6808659087
 40
8873.6288761839
100
AcDbArc
 50
119.6590165002
 51
119.8998036466
  0
SPLINE
  5
2E1
100
AcDbEntity
  8
0
100
AcDbSpline
 62
7
  6
BYLAYER
 70
0
 71
3
 72
9
 73
5
 74
0
 42
0.0000001
 43
0.0000001
 44
0.0000000001
 40
0.0
 40
0.0
 40
0.0
 40
0.0
 40
0.2405696931
 40
1.0
 40
1.0
 40
1.0
 40
1.0
 10
61.9396049943
 20
85.1642373235
 30
0.0
 10
61.9349619731
 20
85.1571231895
 30
0.0
 10
61.9147116491
 20
85.1281743971
 30
0.0
 10
61.8909015376
 20
85.1017825089
 30
0.0
 10
61.8715084657
 20
85.083259657
 30
0.0
  0
SPLINE
  5
2E2
100
AcDbEntity
  8
0
100
AcDbSpline
 62
7
  6
BYLAYER
 70
0
 71
3
 72
9
 73
5
 74
0
 42
0.0000001
 43
0.0000001
 44
0.0000000001
 40
0.0
 40
0.0
 40
0.0
 40
0.0
 40
0.2418695185
 40
1.0
 40
1.0
 40
1.0
 40
1.0
 10
61.8715084657
 20
85.083259657
 30
0.0
 10
61.8657533586
 20
85.0777627973
 30
0.0
 10
61.8414576805
 20
85.0555633798
 30
0.0
 10
61.815279484
 20
85.0354553162
 30
0.0
 10
61.7947193168
 20
85.021328996
 30
0.0
  0
SPLINE
  5
2E3
100
AcDbEntity
  8
0
100
AcDbSpline
 62
7
  6
BYLAYER
 70
0
 71
3
 72
11
 73
7
 74
0
 42
0.0000001
 43
0.0000001
 44
0.0000000001
 40
0.0
 40
0.0
 40
0.0
 40
0.0
 40
0.2423162789
 40
0.4939131619
 40
0.7485466085
 40
1.0
 40
1.0
 40
1.0
 40
1.0
 10
62.5769093832
 20
84.0605812964
 30
0.0
 10
62.5689728479
 20
84.0900791222
 30
0.0
 10
62.5488512114
 20
84.1491913447
 30
0.0
 10
62.5084521914
 20
84.2346657326
 30
0.0
 10
62.4585837546
 20
84.3163299055
 30
0.0
 10
62.4197008714
 20
84.3670923994
 30
0.0
 10
62.3990592085
 20
84.3911491885
 30
0.0
  0
SPLINE
  5
2E4
100
AcDbEntity
  8
0
100
AcDbSpline
 62
7
  6
BYLAYER
 70
0
 71
3
 72
9
 73
5
 74
0
 42
0.0000001
 43
0.0000001
 44
0.0000000001
 40
0.0
 40
0.0
 40
0.0
 40
0.0
 40
0.2457358966
 40
1.0
 40
1.0
 40
1.0
 40
1.0
 10
60.930855842
 20
85.5996694111
 30
0.0
 10
60.8968278002
 20
85.5746954222
 30
0.0
 10
60.7594932514
 20
85.4715193557
 30
0.0
 10
60.6266833977
 20
85.3623459644
 30
0.0
 10
60.5291020607
 20
85.2771233206
 30
0.0
  0
SPLINE
  5
2E5
100
AcDbEntity
  8
0
100
AcDbSpline
 62
7
  6
BYLAYER
 70
0
 71
3
 72
9
 73
5
 74
0
 42
0.0000001
 43
0.0000001
 44
0.0000000001
 40
0.0
 40
0.0
 40
0.0
 40
0.0
 40
0.2573909029
 40
1.0
 40
1.0
 40
1.0
 40
1.0
 10
60.95195678
 20
85.6116129578
 30
0.0
 10
60.9500429214
 20
85.6107913574
 30
0.0
 10
60.9426935277
 20
85.6074048793
 30
0.0
 10
60.9357002068
 20
85.6032248056
 30
0.0
 10
60.930855842
 20
85.5996694111
 30
0.0
  0
SPLINE
  5
2E6
100
AcDbEntity
  8
0
100
AcDbSpline
 62
7
  6
BYLAYER
 70
0
 71
3
 72
10
 73
6
 74
0
 42
0.0000001
 43
0.0000001
 44
0.0000000001
 40
0.0
 40
0.0
 40
0.0
 40
0.0
 40
0.5129587469
 40
0.7602405058
 40
1.0
 40
1.0
 40
1.0
 40
1.0
 10
62.3990592085
 20
84.3911491885
 30
0.0
 10
62.225485903
 20
84.5934398864
 30
0.0
 10
61.9532882524
 20
84.8810661302
 30
0.0
 10
61.5661897359
 20
85.2280044456
 30
0.0
 10
61.3681742309
 20
85.3859178742
 30
0.0
 10
61.2683875215
 20
85.4605138165
 30
0.0
  0
SPLINE
  5
2E7
100
AcDbEntity
  8
0
100
AcDbSpline
 62
7
  6
BYLAYER
 70
0
 71
3
 72
11
 73
7
 74
0
 42
0.0000001
 43
0.0000001
 44
0.0000000001
 40
0.0
 40
0.0
 40
0.0
 40
0.0
 40
0.2694079679
 40
0.5253772167
 40
0.7685324113
 40
1.0
 40
1.0
 40
1.0
 40
1.0
 10
60.2184461902
 20
86.0681631249
 30
0.0
 10
60.1227888414
 20
86.1072549188
 30
0.0
 10
59.9329983089
 20
86.1758979101
 30
0.0
 10
59.647232272
 20
86.250123437
 30
0.0
 10
59.3696820234
 20
86.2923916421
 30
0.0
 10
59.1872333033
 20
86.2991210921
 30
0.0
 10
59.0984824367
 20
86.296694967
 30
0.0
  0
SPLINE
  5
2E8
100
AcDbEntity
  8
0
100
AcDbSpline
 62
7
  6
BYLAYER
 70
0
 71
3
 72
11
 73
7
 74
0
 42
0.0000001
 43
0.0000001
 44
0.0000000001
 40
0.0
 40
0.0
 40
0.0
 40
0.0
 40
0.2605184587
 40
0.5107554385
 40
0.7553387138
 40
1.0
 40
1.0
 40
1.0
 40
1.0
 10
59.0984824367
 20
86.296694967
 30
0.0
 10
59.0877749884
 20
86.2964022644
 30
0.0
 10
59.0667786974
 20
86.2942572468
 30
0.0
 10
59.0367049089
 20
86.2858907846
 30
0.0
 10
59.0092422567
 20
86.2724462008
 30
0.0
 10
58.9930533646
 20
86.2602728394
 30
0.0
 10
58.9856030975
 20
86.2535136689
 30
0.0
  0
SPLINE
  5
2E9
100
AcDbEntity
  8
0
100
AcDbSpline
 62
7
  6
BYLAYER
 70
0
 71
3
 72
11
 73
7
 74
0
 42
0.0000001
 43
0.0000001
 44
0.0000000001
 40
0.0
 40
0.0
 40
0.0
 40
0.0
 40
0.2696571143
 40
0.5216517113
 40
0.7623073612
 40
1.0
 40
1.0
 40
1.0
 40
1.0
 10
59.709060246
 20
86.6144269705
 30
0.0
 10
59.7145720658
 20
86.6294790361
 30
0.0
 10
59.7277350726
 20
86.6577915008
 30
0.0
 10
59.7549460378
 20
86.6944602997
 30
0.0
 10
59.7883285431
 20
86.7228244505
 30
0.0
 10
59.8140538055
 20
86.7356680231
 30
0.0
 10
59.8273432776
 20
86.7404669757
 30
0.0
  0
SPLINE
  5
2EA
100
AcDbEntity
  8
0
100
AcDbSpline
 62
7
  6
BYLAYER
 70
0
 71
3
 72
12
 73
8
 74
0
 42
0.0000001
 43
0.0000001
 44
0.0000000001
 40
0.0
 40
0.0
 40
0.0
 40
0.0
 40
0.2569110042
 40
0.5076020579
 40
0.7544945885
 40
0.8772055124
 40
1.0
 40
1.0
 40
1.0
 40
1.0
 10
58.9856373623
 20
86.2535462407
 30
0.0
 10
58.918499019
 20
86.1926832253
 30
0.0
 10
58.7940705967
 20
86.062796497
 30
0.0
 10
58.6430879166
 20
85.8421159128
 30
0.0
 10
58.5541884227
 20
85.6405217456
 30
0.0
 10
58.5088543841
 20
85.472605057
 30
0.0
 10
58.4950379719
 20
85.3869200464
 30
0.0
 10
58.4904146348
 20
85.3438546301
 30
0.0
  0
SPLINE
  5
2EB
100
AcDbEntity
  8
0
100
AcDbSpline
 62
7
  6
BYLAYER
 70
0
 71
3
 72
9
 73
5
 74
0
 42
0.0000001
 43
0.0000001
 44
0.0000000001
 40
0.0
 40
0.0
 40
0.0
 40
0.0
 40
0.5183680826
 40
1.0
 40
1.0
 40
1.0
 40
1.0
 10
59.709060246
 20
86.6144269705
 30
0.0
 10
59.5976267344
 20
86.5727166241
 30
0.0
 10
59.3867774235
 20
86.4805640673
 30
0.0
 10
59.1890732604
 20
86.362268546
 30
0.0
 10
59.0988973742
 20
86.2983155476
 30
0.0
  0
SPLINE
  5
2EC
100
AcDbEntity
  8
0
100
AcDbSpline
 62
7
  6
BYLAYER
 70
0
 71
3
 72
15
 73
11
 74
0
 42
0.0000001
 43
0.0000001
 44
0.0000000001
 40
0.0
 40
0.0
 40
0.0
 40
0.0
 40
0.1165142898
 40
0.2379337477
 40
0.3634704964
 40
0.491797852
 40
0.6213021504
 40
0.7502503833
 40
0.876964446
 40
1.0
 40
1.0
 40
1.0
 40
1.0
 10
62.8511460867
 20
86.566359564
 30
0.0
 10
62.746765115
 20
86.6224511874
 30
0.0
 10
62.5257842069
 20
86.7228389991
 30
0.0
 10
62.1732354678
 20
86.8362295486
 30
0.0
 10
61.799092026
 20
86.9148878801
 30
0.0
 10
61.4109823684
 20
86.9578095299
 30
0.0
 10
61.0171111542
 20
86.9644020124
 30
0.0
 10
60.6259404579
 20
86.9345587291
 30
0.0
 10
60.2458802341
 20
86.8687377542
 30
0.0
 10
60.0007134869
 20
86.800194811
 30
0.0
 10
59.882293698
 20
86.7597694311
 30
0.0
  0
SPLINE
  5
2ED
100
AcDbEntity
  8
0
100
AcDbSpline
 62
7
  6
BYLAYER
 70
0
 71
3
 72
14
 73
10
 74
0
 42
0.0000001
 43
0.0000001
 44
0.0000000001
 40
0.0
 40
0.0
 40
0.0
 40
0.0
 40
0.1200281247
 40
0.240305837
 40
0.361586655
 40
0.4842019106
 40
0.6087931226
 40
0.7360045517
 40
1.0
 40
1.0
 40
1.0
 40
1.0
 10
63.7955549945
 20
85.3438546301
 30
0.0
 10
63.7890298193
 20
85.4046352688
 30
0.0
 10
63.7668287847
 20
85.5255321884
 30
0.0
 10
63.7074190609
 20
85.7004576881
 30
0.0
 10
63.6240678409
 20
85.8667706597
 30
0.0
 10
63.5188443461
 20
86.0227358761
 30
0.0
 10
63.394034869
 20
86.1674632916
 30
0.0
 10
63.2017807831
 20
86.3470278497
 30
0.0
 10
63.036455377
 20
86.4607720012
 30
0.0
 10
62.9200159259
 20
86.5279968289
 30
0.0
  0
SPLINE
  5
2EE
100
AcDbEntity
  8
0
100
AcDbSpline
 62
7
  6
BYLAYER
 70
0
 71
3
 72
9
 73
5
 74
0
 42
0.0000001
 43
0.0000001
 44
0.0000000001
 40
0.0
 40
0.0
 40
0.0
 40
0.0
 40
0.2662544151
 40
1.0
 40
1.0
 40
1.0
 40
1.0
 10
61.8783749838
 20
86.1467165773
 30
0.0
 10
61.8768397701
 20
86.1460706056
 30
0.0
 10
61.8711526024
 20
86.1434701618
 30
0.0
 10
61.8657797253
 20
86.1401180511
 30
0.0
 10
61.8622590238
 20
86.1371730662
 30
0.0
  0
SPLINE
  5
2EF
100
AcDbEntity
  8
0
100
AcDbSpline
 62
7
  6
BYLAYER
 70
0
 71
3
 72
9
 73
5
 74
0
 42
0.0000001
 43
0.0000001
 44
0.0000000001
 40
0.0
 40
0.0
 40
0.0
 40
0.0
 40
0.2438648026
 40
1.0
 40
1.0
 40
1.0
 40
1.0
 10
62.2801287651
 20
86.2880730252
 30
0.0
 10
62.2467900318
 20
86.2786933787
 30
0.0
 10
62.1107261782
 20
86.2379526748
 30
0.0
 10
61.9773542556
 20
86.1883640727
 30
0.0
 10
61.8783749838
 20
86.1467165773
 30
0.0
  0
SPLINE
  5
2F0
100
AcDbEntity
  8
0
100
AcDbSpline
 62
7
  6
BYLAYER
 70
0
 71
3
 72
14
 73
10
 74
0
 42
0.0000001
 43
0.0000001
 44
0.0000000001
 40
0.0
 40
0.0
 40
0.0
 40
0.0
 40
0.1226909558
 40
0.2453240929
 40
0.3684457578
 40
0.4921666737
 40
0.6168048589
 40
0.7427536016
 40
1.0
 40
1.0
 40
1.0
 40
1.0
 10
58.4179848146
 20
84.602651958
 30
0.0
 10
58.4179848146
 20
84.5528770157
 30
0.0
 10
58.4239797614
 20
84.4532460937
 30
0.0
 10
58.4507881409
 20
84.305856795
 30
0.0
 10
58.4946457618
 20
84.1621746527
 30
0.0
 10
58.5546290342
 20
84.0235936371
 30
0.0
 10
58.6296198412
 20
83.8912188375
 30
0.0
 10
58.748757506
 20
83.7228243948
 30
0.0
 10
58.856270808
 20
83.6090817524
 30
0.0
 10
58.9337508162
 20
83.5391637112
 30
0.0
  0
SPLINE
  5
2F1
100
AcDbEntity
  8
0
100
AcDbSpline
 62
7
  6
BYLAYER
 70
0
 71
3
 72
11
 73
7
 74
0
 42
0.0000001
 43
0.0000001
 44
0.0000000001
 40
0.0
 40
0.0
 40
0.0
 40
0.0
 40
0.2895416688
 40
0.549118971
 40
0.7822562702
 40
1.0
 40
1.0
 40
1.0
 40
1.0
 10
61.8783761614
 20
85.2966816557
 30
0.0
 10
61.8739908568
 20
85.294149814
 30
0.0
 10
61.8660329789
 20
85.2886625852
 30
0.0
 10
61.8565137836
 20
85.2786690122
 30
0.0
 10
61.8504911184
 20
85.2676050657
 30
0.0
 10
61.8490927281
 20
85.2596656341
 30
0.0
 10
61.8490927292
 20
85.2558575803
 30
0.0
  0
SPLINE
  5
2F2
100
AcDbEntity
  8
0
100
AcDbSpline
 62
7
  6
BYLAYER
 70
0
 71
3
 72
24
 73
20
 74
0
 42
0.0000001
 43
0.0000001
 44
0.0000000001
 40
0.0
 40
0.0
 40
0.0
 40
0.0
 40
0.0656422305
 40
0.1331439358
 40
0.2019729717
 40
0.2715088534
 40
0.3410791274
 40
0.410008153
 40
0.477667602
 40
0.5435242365
 40
0.6071890034
 40
0.6684630647
 40
0.7273713076
 40
0.7841700434
 40
0.8393064049
 40
0.8933319697
 40
0.9467484358
 40
0.973352792
 40
1.0
 40
1.0
 40
1.0
 40
1.0
 10
59.8056125821
 20
83.0388459881
 30
0.0
 10
59.9076429541
 20
83.0024539804
 30
0.0
 10
60.1182840121
 20
82.9386631157
 30
0.0
 10
60.4448953493
 20
82.8703325076
 30
0.0
 10
60.7824234252
 20
82.8284856276
 30
0.0
 10
61.1256018347
 20
82.8135716766
 30
0.0
 10
61.4690550563
 20
82.8257533619
 30
0.0
 10
61.8073830501
 20
82.8648955303
 30
0.0
 10
62.1353551937
 20
82.9305758402
 30
0.0
 10
62.4480589904
 20
83.0221709988
 30
0.0
 10
62.7410052466
 20
83.1389765679
 30
0.0
 10
63.0101281015
 20
83.2803766686
 30
0.0
 10
63.2516183727
 20
83.4459909289
 30
0.0
 10
63.4614893633
 20
83.6356771869
 30
0.0
 10
63.6350654886
 20
83.8491117376
 30
0.0
 10
63.7664615943
 20
84.0847200071
 30
0.0
 10
63.8354332722
 20
84.2966481275
 30
0.0
 10
63.8633049437
 20
84.4707201633
 30
0.0
 10
63.8679848146
 20
84.5586773411
 30
0.0
 10
63.8679848146
 20
84.602651958
 30
0.0
  0
SPLINE
  5
2F3
100
AcDbEntity
  8
0
100
AcDbSpline
 62
7
  6
BYLAYER
 70
0
 71
3
 72
13
 73
9
 74
0
 42
0.0000001
 43
0.0000001
 44
0.0000000001
 40
0.0
 40
0.0
 40
0.0
 40
0.0
 40
0.281619177
 40
0.5407671562
 40
0.6623573953
 40
0.7790316844
 40
0.8913354379
 40
1.0
 40
1.0
 40
1.0
 40
1.0
 10
59.21747223
 20
83.5265448222
 30
0.0
 10
59.1255776013
 20
83.5795990105
 30
0.0
 10
58.9551132885
 20
83.6924984689
 30
0.0
 10
58.7690619188
 20
83.8606851567
 30
0.0
 10
58.6482991213
 20
84.0043397846
 30
0.0
 10
58.5734040374
 20
84.1134283917
 30
0.0
 10
58.5127665764
 20
84.2255392047
 30
0.0
 10
58.4816313441
 20
84.3030011394
 30
0.0
 10
58.4687133447
 20
84.3418531454
 30
0.0
  0
SPLINE
  5
2F4
100
AcDbEntity
  8
0
100
AcDbSpline
 62
7
  6
BYLAYER
 70
0
 71
3
 72
9
 73
5
 74
0
 42
0.0000001
 43
0.0000001
 44
0.0000000001
 40
0.0
 40
0.0
 40
0.0
 40
0.0
 40
0.5036877593
 40
1.0
 40
1.0
 40
1.0
 40
1.0
 10
58.4617796319
 20
84.3635277766
 30
0.0
 10
58.4496835934
 20
84.4028845442
 30
0.0
 10
58.4305272694
 20
84.4826128262
 30
0.0
 10
58.4220017751
 20
84.564186591
 30
0.0
 10
58.4205063656
 20
84.6047297627
 30
0.0
  0
SPLINE
  5
2F5
100
AcDbEntity
  8
0
100
AcDbSpline
 62
7
  6
BYLAYER
 70
0
 71
3
 72
11
 73
7
 74
0
 42
0.0000001
 43
0.0000001
 44
0.0000000001
 40
0.0
 40
0.0
 40
0.0
 40
0.0
 40
0.2372531816
 40
0.5000006935
 40
0.7627478297
 40
1.0
 40
1.0
 40
1.0
 40
1.0
 10
60.9308497185
 20
85.7620757759
 30
0.0
 10
60.9408892006
 20
85.7562796094
 30
0.0
 10
60.9642343918
 20
85.7478202994
 30
0.0
 10
61.0015605283
 20
85.7437760453
 30
0.0
 10
61.0388865956
 20
85.7478204777
 30
0.0
 10
61.0622316773
 20
85.7562799016
 30
0.0
 10
61.0722710748
 20
85.7620761158
 30
0.0
  0
SPLINE
  5
2F6
100
AcDbEntity
  8
0
100
AcDbSpline
 62
7
  6
BYLAYER
 70
0
 71
3
 72
9
 73
5
 74
0
 42
0.0000001
 43
0.0000001
 44
0.0000000001
 40
0.0
 40
0.0
 40
0.0
 40
0.0
 40
0.4792538609
 40
1.0
 40
1.0
 40
1.0
 40
1.0
 10
60.5410388854
 20
85.6850299156
 30
0.0
 10
60.5884959171
 20
85.7124290821
 30
0.0
 10
60.6933860669
 20
85.7596397576
 30
0.0
 10
60.8041286216
 20
85.7897771621
 30
0.0
 10
60.8624985493
 20
85.8015374491
 30
0.0
  0
SPLINE
  5
2F7
100
AcDbEntity
  8
0
100
AcDbSpline
 62
7
  6
BYLAYER
 70
0
 71
3
 72
9
 73
5
 74
0
 42
0.0000001
 43
0.0000001
 44
0.0000000001
 40
0.0
 40
0.0
 40
0.0
 40
0.0
 40
0.24014978
 40
1.0
 40
1.0
 40
1.0
 40
1.0
 10
60.435182756
 20
85.610562608
 30
0.0
 10
60.4430290832
 20
85.6173418783
 30
0.0
 10
60.4764536006
 20
85.6446974972
 30
0.0
 10
60.5126251399
 20
85.66862533
 30
0.0
 10
60.5410388854
 20
85.6850299156
 30
0.0
  0
SPLINE
  5
2F8
100
AcDbEntity
  8
0
100
AcDbSpline
 62
7
  6
BYLAYER
 70
0
 71
3
 72
16
 73
12
 74
0
 42
0.0000001
 43
0.0000001
 44
0.0000000001
 40
0.0
 40
0.0
 40
0.0
 40
0.0
 40
0.1088535871
 40
0.2187142577
 40
0.3318915088
 40
0.4503645766
 40
0.5121189921
 40
0.5757160214
 40
0.7087854566
 40
0.8502124496
 40
1.0
 40
1.0
 40
1.0
 40
1.0
 10
58.4904173628
 20
85.3438545326
 30
0.0
 10
58.4846391901
 20
85.2900144323
 30
0.0
 10
58.4829076223
 20
85.180501969
 30
0.0
 10
58.5108028531
 20
85.0168936527
 30
0.0
 10
58.5686315688
 20
84.8562798476
 30
0.0
 10
58.6400389343
 20
84.7282751159
 30
0.0
 10
58.7103074848
 20
84.6293174776
 30
0.0
 10
58.7918494317
 20
84.5298169756
 30
0.0
 10
58.9111446495
 20
84.4105955699
 30
0.0
 10
59.0768762771
 20
84.2792959896
 30
0.0
 10
59.1992133576
 20
84.2012150799
 30
0.0
 10
59.2637429148
 20
84.1639597655
 30
0.0
  0
SPLINE
  5
2F9
100
AcDbEntity
  8
0
100
AcDbSpline
 62
7
  6
BYLAYER
 70
0
 71
3
 72
14
 73
10
 74
0
 42
0.0000001
 43
0.0000001
 44
0.0000000001
 40
0.0
 40
0.0
 40
0.0
 40
0.0
 40
0.0993717832
 40
0.2035196126
 40
0.3146600519
 40
0.4342165804
 40
0.5628281482
 40
0.7004896015
 40
1.0
 40
1.0
 40
1.0
 40
1.0
 10
61.7910341067
 20
85.036930347
 30
0.0
 10
61.7888525157
 20
85.053140022
 30
0.0
 10
61.7806296484
 20
85.0859283942
 30
0.0
 10
61.7578331321
 20
85.1327779214
 30
0.0
 10
61.7249478605
 20
85.1773428279
 30
0.0
 10
61.6826039417
 20
85.2189273378
 30
0.0
 10
61.6315347555
 20
85.2569677228
 30
0.0
 10
61.5506693466
 20
85.303464996
 30
0.0
 10
61.482866673
 20
85.3292254869
 30
0.0
 10
61.4355326704
 20
85.3429984391
 30
0.0
  0
SPLINE
  5
2FA
100
AcDbEntity
  8
0
100
AcDbSpline
 62
7
  6
BYLAYER
 70
0
 71
3
 72
11
 73
7
 74
0
 42
0.0000001
 43
0.0000001
 44
0.0000000001
 40
0.0
 40
0.0
 40
0.0
 40
0.0
 40
0.250173085
 40
0.5041560506
 40
0.7560808859
 40
1.0
 40
1.0
 40
1.0
 40
1.0
 10
63.1874871925
 20
84.8463455801
 30
0.0
 10
63.2075789229
 20
84.8219435842
 30
0.0
 10
63.2451958649
 20
84.7703360954
 30
0.0
 10
63.2926173057
 20
84.6871880077
 30
0.0
 10
63.3301243985
 20
84.5999752184
 30
0.0
 10
63.3479695358
 20
84.539719586
 30
0.0
 10
63.3547236041
 20
84.5096498657
 30
0.0
  0
SPLINE
  5
2FB
100
AcDbEntity
  8
0
100
AcDbSpline
 62
7
  6
BYLAYER
 70
0
 71
3
 72
9
 73
5
 74
0
 42
0.0000001
 43
0.0000001
 44
0.0000000001
 40
0.0
 40
0.0
 40
0.0
 40
0.0
 40
0.2495452978
 40
1.0
 40
1.0
 40
1.0
 40
1.0
 10
61.1429814585
 20
85.7289199613
 30
0.0
 10
61.1372722744
 20
85.7162740949
 30
0.0
 10
61.114244172
 20
85.6656665468
 30
0.0
 10
61.090559313
 20
85.6153550881
 30
0.0
 10
61.0722710748
 20
85.5778506376
 30
0.0
  0
SPLINE
  5
2FC
100
AcDbEntity
  8
0
100
AcDbSpline
 62
7
  6
BYLAYER
 70
0
 71
3
 72
9
 73
5
 74
0
 42
0.0000001
 43
0.0000001
 44
0.0000000001
 40
0.0
 40
0.0
 40
0.0
 40
0.0
 40
0.2504709449
 40
1.0
 40
1.0
 40
1.0
 40
1.0
 10
61.213692431
 20
85.5778509776
 30
0.0
 10
61.207588499
 20
85.5903684311
 30
0.0
 10
61.1834508633
 20
85.6404573076
 30
0.0
 10
61.1601296417
 20
85.6909370632
 30
0.0
 10
61.1429814585
 20
85.7289199613
 30
0.0
  0
SPLINE
  5
2FD
100
AcDbEntity
  8
0
100
AcDbSpline
 62
7
  6
BYLAYER
 70
0
 71
3
 72
14
 73
10
 74
0
 42
0.0000001
 43
0.0000001
 44
0.0000000001
 40
0.0
 40
0.0
 40
0.0
 40
0.0
 40
0.123035203
 40
0.2470627805
 40
0.3721457941
 40
0.4978361247
 40
0.6236529137
 40
0.7493539285
 40
1.0
 40
1.0
 40
1.0
 40
1.0
 10
60.9978956343
 20
85.5317252779
 30
0.0
 10
61.0015809787
 20
85.5302159019
 30
0.0
 10
61.009378885
 20
85.5280172692
 30
0.0
 10
61.0216094708
 20
85.5281995913
 30
0.0
 10
61.0332876658
 20
85.5320597687
 30
0.0
 10
61.043613562
 20
85.5387169041
 30
0.0
 10
61.0524992259
 20
85.5471664412
 30
0.0
 10
61.0626452373
 20
85.5599084078
 30
0.0
 10
61.068715172
 20
85.5705583999
 30
0.0
 10
61.0722710748
 20
85.5778506376
 30
0.0
  0
SPLINE
  5
2FE
100
AcDbEntity
  8
0
100
AcDbSpline
 62
7
  6
BYLAYER
 70
0
 71
3
 72
9
 73
5
 74
0
 42
0.0000001
 43
0.0000001
 44
0.0000000001
 40
0.0
 40
0.0
 40
0.0
 40
0.0
 40
0.2562793269
 40
1.0
 40
1.0
 40
1.0
 40
1.0
 10
61.3551137872
 20
86.4488147356
 30
0.0
 10
61.3886607471
 20
86.4629302856
 30
0.0
 10
61.5203406704
 20
86.5161231773
 30
0.0
 10
61.6551948066
 20
86.5615661805
 30
0.0
 10
61.7568675685
 20
86.5901711835
 30
0.0
  0
SPLINE
  5
2FF
100
AcDbEntity
  8
0
100
AcDbSpline
 62
7
  6
BYLAYER
 70
0
 71
3
 72
9
 73
5
 74
0
 42
0.0000001
 43
0.0000001
 44
0.0000000001
 40
0.0
 40
0.0
 40
0.0
 40
0.0
 40
0.2680600244
 40
1.0
 40
1.0
 40
1.0
 40
1.0
 10
61.3240300631
 20
86.4401670368
 30
0.0
 10
61.3268762753
 20
86.4406463207
 30
0.0
 10
61.3374451573
 20
86.4426884522
 30
0.0
 10
61.3478496245
 20
86.4457581948
 30
0.0
 10
61.3551137872
 20
86.4488147356
 30
0.0
  0
SPLINE
  5
300
100
AcDbEntity
  8
0
100
AcDbSpline
 62
7
  6
BYLAYER
 70
0
 71
3
 72
11
 73
7
 74
0
 42
0.0000001
 43
0.0000001
 44
0.0000000001
 40
0.0
 40
0.0
 40
0.0
 40
0.0
 40
0.2336963775
 40
0.4775210488
 40
0.7327005301
 40
1.0
 40
1.0
 40
1.0
 40
1.0
 10
59.8869104207
 20
86.7518913586
 30
0.0
 10
59.9778226469
 20
86.7557461865
 30
0.0
 10
60.1642471471
 20
86.7517630122
 30
0.0
 10
60.4474108174
 20
86.712752219
 30
0.0
 10
60.7375432015
 20
86.6410144388
 30
0.0
 10
60.9297440571
 20
86.5733362005
 30
0.0
 10
61.0263452946
 20
86.534601106
 30
0.0
  0
SPLINE
  5
301
100
AcDbEntity
  8
0
100
AcDbSpline
 62
7
  6
BYLAYER
 70
0
 71
3
 72
22
 73
18
 74
0
 42
0.0000001
 43
0.0000001
 44
0.0000000001
 40
0.0
 40
0.0
 40
0.0
 40
0.0
 40
0.0677208927
 40
0.1324204719
 40
0.194317843
 40
0.2538192647
 40
0.311443156
 40
0.36779549
 40
0.4235601991
 40
0.4794605317
 40
0.5362102666
 40
0.594470181
 40
0.6548139403
 40
0.7177092056
 40
0.7834986417
 40
0.8524200738
 40
1.0
 40
1.0
 40
1.0
 40
1.0
 10
63.1874871925
 20
84.8463455801
 30
0.0
 10
63.2205418623
 20
84.8774086326
 30
0.0
 10
63.2825395306
 20
84.9410536178
 30
0.0
 10
63.3638471814
 20
85.0429759667
 30
0.0
 10
63.4306749394
 20
85.1485182832
 30
0.0
 10
63.4825375975
 20
85.2569678067
 30
0.0
 10
63.5190396536
 20
85.3676345329
 30
0.0
 10
63.5398796752
 20
85.4797669617
 30
0.0
 10
63.544863109
 20
85.5925677043
 30
0.0
 10
63.5339421456
 20
85.7052129551
 30
0.0
 10
63.5072322224
 20
85.8168912005
 30
0.0
 10
63.4649484224
 20
85.9268150091
 30
0.0
 10
63.4074572964
 20
86.0342602707
 30
0.0
 10
63.3351719556
 20
86.1385176762
 30
0.0
 10
63.2486268218
 20
86.2389647
 30
0.0
 10
63.1119104719
 20
86.3698891752
 30
0.0
 10
62.994100849
 20
86.4558707643
 30
0.0
 10
62.9104204523
 20
86.5084914207
 30
0.0
  0
SPLINE
  5
302
100
AcDbEntity
  8
0
100
AcDbSpline
 62
7
  6
BYLAYER
 70
0
 71
3
 72
9
 73
5
 74
0
 42
0.0000001
 43
0.0000001
 44
0.0000000001
 40
0.0
 40
0.0
 40
0.0
 40
0.0
 40
0.4870156902
 40
1.0
 40
1.0
 40
1.0
 40
1.0
 10
62.0762177372
 20
85.926912025
 30
0.0
 10
62.2770704297
 20
85.7746373062
 30
0.0
 10
62.6688060465
 20
85.4341388218
 30
0.0
 10
63.0187333258
 20
85.0513021018
 30
0.0
 10
63.1874871925
 20
84.8463455801
 30
0.0
  0
SPLINE
  5
303
100
AcDbEntity
  8
0
100
AcDbSpline
 62
7
  6
BYLAYER
 70
0
 71
3
 72
27
 73
23
 74
0
 42
0.0000001
 43
0.0000001
 44
0.0000000001
 40
0.0
 40
0.0
 40
0.0
 40
0.0
 40
0.0629439675
 40
0.1299625117
 40
0.2003042095
 40
0.2730352674
 40
0.3471037451
 40
0.42139448
 40
0.4947821629
 40
0.5661834446
 40
0.6346112511
 40
0.6992341164
 40
0.7594445321
 40
0.8149408841
 40
0.8409601633
 40
0.8658804622
 40
0.8897945901
 40
0.9128328686
 40
0.935161172
 40
0.9569789874
 40
0.9785116228
 40
1.0
 40
1.0
 40
1.0
 40
1.0
 10
59.2637429148
 20
84.1639597655
 30
0.0
 10
59.3618197027
 20
84.1073363866
 30
0.0
 10
59.5723438339
 20
84.0039953272
 30
0.0
 10
59.9122831912
 20
83.8824561983
 30
0.0
 10
60.2798229527
 20
83.7916110332
 30
0.0
 10
60.6666947271
 20
83.7335091703
 30
0.0
 10
61.0642592838
 20
83.7094327299
 30
0.0
 10
61.4635900819
 20
83.7199254208
 30
0.0
 10
61.8557245185
 20
83.7647502915
 30
0.0
 10
62.2318751397
 20
83.8429070962
 30
0.0
 10
62.5836360002
 20
83.9526575939
 30
0.0
 10
62.9032169791
 20
84.0916237688
 30
0.0
 10
63.183499995
 20
84.256793355
 30
0.0
 10
63.383454046
 20
84.4169154916
 30
0.0
 10
63.5162987067
 20
84.5551661769
 30
0.0
 10
63.6003256898
 20
84.6606904023
 30
0.0
 10
63.6703506769
 20
84.7696869512
 30
0.0
 10
63.7259585481
 20
84.8815471164
 30
0.0
 10
63.7667609617
 20
84.9956446328
 30
0.0
 10
63.7924924787
 20
85.1113095554
 30
0.0
 10
63.8029398507
 20
85.2278171367
 30
0.0
 10
63.7996825388
 20
85.3054138179
 30
0.0
 10
63.7955538846
 20
85.3438545904
 30
0.0
  0
SPLINE
  5
304
100
AcDbEntity
  8
0
100
AcDbSpline
 62
7
  6
BYLAYER
 70
0
 71
3
 72
10
 73
6
 74
0
 42
0.0000001
 43
0.0000001
 44
0.0000000001
 40
0.0
 40
0.0
 40
0.0
 40
0.0
 40
0.2275239636
 40
0.4653547989
 40
1.0
 40
1.0
 40
1.0
 40
1.0
 10
61.8490927292
 20
85.2558575803
 30
0.0
 10
61.8490927302
 20
85.2528580855
 30
0.0
 10
61.8499360811
 20
85.246692421
 30
0.0
 10
61.8550840058
 20
85.2344311064
 30
0.0
 10
61.8622564521
 20
85.226714457
 30
0.0
 10
61.8677395084
 20
85.2222855582
 30
0.0
  0
SPLINE
  5
305
100
AcDbEntity
  8
0
100
AcDbSpline
 62
7
  6
BYLAYER
 70
0
 71
3
 72
9
 73
5
 74
0
 42
0.0000001
 43
0.0000001
 44
0.0000000001
 40
0.0
 40
0.0
 40
0.0
 40
0.0
 40
0.2422259069
 40
1.0
 40
1.0
 40
1.0
 40
1.0
 10
61.8677395084
 20
85.2222855582
 30
0.0
 10
61.8685486242
 20
85.2216320009
 30
0.0
 10
61.871946502
 20
85.2190054551
 30
0.0
 10
61.8755588419
 20
85.2166600482
 30
0.0
 10
61.8783767502
 20
85.2150331649
 30
0.0
  0
SPLINE
  5
306
100
AcDbEntity
  8
0
100
AcDbSpline
 62
7
  6
BYLAYER
 70
0
 71
3
 72
15
 73
11
 74
0
 42
0.0000001
 43
0.0000001
 44
0.0000000001
 40
0.0
 40
0.0
 40
0.0
 40
0.0
 40
0.1118765105
 40
0.2315850181
 40
0.3574391543
 40
0.4873366331
 40
0.6189415538
 40
0.7498208605
 40
0.8775742219
 40
1.0
 40
1.0
 40
1.0
 40
1.0
 10
59.4462788668
 20
84.5919324852
 30
0.0
 10
59.544487344
 20
84.5352330771
 30
0.0
 10
59.756705535
 20
84.4329577342
 30
0.0
 10
60.1006216244
 20
84.3166644547
 30
0.0
 10
60.4729847324
 20
84.2346518057
 30
0.0
 10
60.8636104785
 20
84.1891880497
 30
0.0
 10
61.2618711693
 20
84.1814891326
 30
0.0
 10
61.6568963961
 20
84.2117923646
 30
0.0
 10
62.0378415824
 20
84.2792328099
 30
0.0
 10
62.2821047778
 20
84.3496652666
 30
0.0
 10
62.3990592085
 20
84.3911491885
 30
0.0
  0
SPLINE
  5
307
100
AcDbEntity
  8
0
100
AcDbSpline
 62
7
  6
BYLAYER
 70
0
 71
3
 72
17
 73
13
 74
0
 42
0.0000001
 43
0.0000001
 44
0.0000000001
 40
0.0
 40
0.0
 40
0.0
 40
0.0
 40
0.0488640878
 40
0.0983567916
 40
0.1489232406
 40
0.2009609916
 40
0.3106033532
 40
0.429329593
 40
0.5579951616
 40
0.6965719711
 40
0.8443297582
 40
1.0
 40
1.0
 40
1.0
 40
1.0
 10
63.8653981273
 20
84.6030801156
 30
0.0
 10
63.8639612041
 20
84.5660099121
 30
0.0
 10
63.8564829993
 20
84.4914922906
 30
0.0
 10
63.8316637673
 20
84.3809284814
 30
0.0
 10
63.7933814439
 20
84.2717133951
 30
0.0
 10
63.7235001387
 20
84.1262037662
 30
0.0
 10
63.6014131354
 20
83.9499988542
 30
0.0
 10
63.4092271019
 20
83.7572240884
 30
0.0
 10
63.1728335136
 20
83.5824571826
 30
0.0
 10
62.8968921239
 20
83.4288342807
 30
0.0
 10
62.5867532715
 20
83.2991240056
 30
0.0
 10
62.366046873
 20
83.2317125638
 30
0.0
 10
62.2515898685
 20
83.2022579597
 30
0.0
  0
SPLINE
  5
308
100
AcDbEntity
  8
0
100
AcDbSpline
 62
7
  6
BYLAYER
 70
0
 71
3
 72
11
 73
7
 74
0
 42
0.0000001
 43
0.0000001
 44
0.0000000001
 40
0.0
 40
0.0
 40
0.0
 40
0.0
 40
0.2473223166
 40
0.500020475
 40
0.7527082961
 40
1.0
 40
1.0
 40
1.0
 40
1.0
 10
62.1002918924
 20
83.1664294581
 30
0.0
 10
61.9448223613
 20
83.1327249876
 30
0.0
 10
61.6263815988
 20
83.082536013
 30
0.0
 10
61.142038745
 20
83.0577088124
 30
0.0
 10
60.657726011
 20
83.0827285893
 30
0.0
 10
60.3393305461
 20
83.1330413078
 30
0.0
 10
60.1838962413
 20
83.1668152466
 30
0.0
  0
SPLINE
  5
309
100
AcDbEntity
  8
0
100
AcDbSpline
 62
7
  6
BYLAYER
 70
0
 71
3
 72
10
 73
6
 74
0
 42
0.0000001
 43
0.0000001
 44
0.0000000001
 40
0.0
 40
0.0
 40
0.0
 40
0.0
 40
0.5179049568
 40
0.7639699227
 40
1.0
 40
1.0
 40
1.0
 40
1.0
 10
60.0340163891
 20
83.2023546246
 30
0.0
 10
59.8867569156
 20
83.2402637254
 30
0.0
 10
59.6723098574
 20
83.3087239085
 30
0.0
 10
59.4029830653
 20
83.4260575938
 30
0.0
 10
59.2774882673
 20
83.4918953308
 30
0.0
 10
59.21747223
 20
83.5265448222
 30
0.0
  0
SPLINE
  5
30A
100
AcDbEntity
  8
0
100
AcDbSpline
 62
7
  6
BYLAYER
 70
0
 71
3
 72
19
 73
15
 74
0
 42
0.0000001
 43
0.0000001
 44
0.0000000001
 40
0.0
 40
0.0
 40
0.0
 40
0.0
 40
0.126828345
 40
0.1904547041
 40
0.2541053822
 40
0.3175738411
 40
0.380537859
 40
0.4429066418
 40
0.5048882426
 40
0.5666920672
 40
0.6284489237
 40
0.7519603463
 40
0.8758069197
 40
1.0
 40
1.0
 40
1.0
 40
1.0
 10
61.213692431
 20
85.5778509776
 30
0.0
 10
61.2176142635
 20
85.5698083985
 30
0.0
 10
61.2243919478
 20
85.5580804897
 30
0.0
 10
61.236018164
 20
85.5443649697
 30
0.0
 10
61.2463687576
 20
85.5356308763
 30
0.0
 10
61.2585063597
 20
85.529531472
 30
0.0
 10
61.2719325443
 20
85.5274994971
 30
0.0
 10
61.2851312938
 20
85.5299923958
 30
0.0
 10
61.2970125169
 20
85.5358510673
 30
0.0
 10
61.3074635738
 20
85.5438277186
 30
0.0
 10
61.3197401708
 20
85.5562574809
 30
0.0
 10
61.3325728633
 20
85.5740302068
 30
0.0
 10
61.3450917474
 20
85.597105095
 30
0.0
 10
61.3519734298
 20
85.6132214453
 30
0.0
 10
61.3551137872
 20
85.6214012622
 30
0.0
  0
SPLINE
  5
30B
100
AcDbEntity
  8
0
100
AcDbSpline
 62
7
  6
BYLAYER
 70
0
 71
3
 72
9
 73
5
 74
0
 42
0.0000001
 43
0.0000001
 44
0.0000000001
 40
0.0
 40
0.0
 40
0.0
 40
0.0
 40
0.2622206438
 40
1.0
 40
1.0
 40
1.0
 40
1.0
 10
61.3240300631
 20
86.4401670368
 30
0.0
 10
61.310288826
 20
86.461943619
 30
0.0
 10
61.2559988413
 20
86.5437606268
 30
0.0
 10
61.1937124995
 20
86.6204571366
 30
0.0
 10
61.1429795215
 20
86.6721771629
 30
0.0
  0
SPLINE
  5
30C
100
AcDbEntity
  8
0
100
AcDbSpline
 62
7
  6
BYLAYER
 70
0
 71
3
 72
9
 73
5
 74
0
 42
0.0000001
 43
0.0000001
 44
0.0000000001
 40
0.0
 40
0.0
 40
0.0
 40
0.0
 40
0.2429227582
 40
1.0
 40
1.0
 40
1.0
 40
1.0
 10
61.1429795215
 20
86.6721771629
 30
0.0
 10
61.1327477606
 20
86.661746042
 30
0.0
 10
61.0914455006
 20
86.6180076616
 30
0.0
 10
61.0533957459
 20
86.5712334223
 30
0.0
 10
61.0263452946
 20
86.534601106
 30
0.0
  0
SPLINE
  5
30D
100
AcDbEntity
  8
0
100
AcDbSpline
 62
7
  6
BYLAYER
 70
0
 71
3
 72
11
 73
7
 74
0
 42
0.0000001
 43
0.0000001
 44
0.0000000001
 40
0.0
 40
0.0
 40
0.0
 40
0.0
 40
0.2752013166
 40
0.5356361888
 40
0.7778832978
 40
1.0
 40
1.0
 40
1.0
 40
1.0
 10
61.4234626586
 20
85.80153925
 30
0.0
 10
61.46702415
 20
85.7927629099
 30
0.0
 10
61.5510296522
 20
85.7713933806
 30
0.0
 10
61.6687935205
 20
85.726866169
 30
0.0
 10
61.7724099137
 20
85.6717359563
 30
0.0
 10
61.8329410747
 20
85.6267917137
 30
0.0
 10
61.859594786
 20
85.602793951
 30
0.0
  0
SPLINE
  5
30E
100
AcDbEntity
  8
0
100
AcDbSpline
 62
7
  6
BYLAYER
 70
0
 71
3
 72
11
 73
7
 74
0
 42
0.0000001
 43
0.0000001
 44
0.0000000001
 40
0.0
 40
0.0
 40
0.0
 40
0.0
 40
0.2691141318
 40
0.5260450129
 40
0.7698266792
 40
1.0
 40
1.0
 40
1.0
 40
1.0
 10
62.5769093832
 20
84.0605812964
 30
0.0
 10
62.652759655
 20
84.0889725862
 30
0.0
 10
62.7990509484
 20
84.1499772736
 30
0.0
 10
63.0051146783
 20
84.2564838078
 30
0.0
 10
63.1908296842
 20
84.374931663
 30
0.0
 10
63.3029922598
 20
84.4635817939
 30
0.0
 10
63.3547236041
 20
84.5096498657
 30
0.0
  0
SPLINE
  5
30F
100
AcDbEntity
  8
0
100
AcDbSpline
 62
7
  6
BYLAYER
 70
0
 71
3
 72
9
 73
5
 74
0
 42
0.0000001
 43
0.0000001
 44
0.0000000001
 40
0.0
 40
0.0
 40
0.0
 40
0.0
 40
0.2681783293
 40
1.0
 40
1.0
 40
1.0
 40
1.0
 10
60.4075946454
 20
85.9017675694
 30
0.0
 10
60.4097708634
 20
85.9033647476
 30
0.0
 10
60.4176611892
 20
85.9096046027
 30
0.0
 10
60.4246576768
 20
85.9170895782
 30
0.0
 10
60.4286972981
 20
85.9232495095
 30
0.0
  0
SPLINE
  5
310
100
AcDbEntity
  8
0
100
AcDbSpline
 62
7
  6
BYLAYER
 70
0
 71
3
 72
9
 73
5
 74
0
 42
0.0000001
 43
0.0000001
 44
0.0000000001
 40
0.0
 40
0.0
 40
0.0
 40
0.0
 40
0.2542242456
 40
1.0
 40
1.0
 40
1.0
 40
1.0
 10
60.0058408641
 20
85.579221479
 30
0.0
 10
60.0387304711
 20
85.6079456115
 30
0.0
 10
60.1692373314
 20
85.7196243275
 30
0.0
 10
60.3043244479
 20
85.8259751163
 30
0.0
 10
60.4075946454
 20
85.9017675694
 30
0.0
  0
SPLINE
  5
311
100
AcDbEntity
  8
0
100
AcDbSpline
 62
7
  6
BYLAYER
 70
0
 71
3
 72
22
 73
18
 74
0
 42
0.0000001
 43
0.0000001
 44
0.0000000001
 40
0.0
 40
0.0
 40
0.0
 40
0.0
 40
0.149627409
 40
0.2194481517
 40
0.2859829649
 40
0.3494432191
 40
0.4101459854
 40
0.4685420268
 40
0.5252048819
 40
0.5808124056
 40
0.6361096393
 40
0.6918642712
 40
0.7488117725
 40
0.8076063512
 40
0.8688079096
 40
0.9328579014
 40
1.0
 40
1.0
 40
1.0
 40
1.0
 10
59.4462788668
 20
84.5919324852
 30
0.0
 10
59.3559213129
 20
84.6440992631
 30
0.0
 10
59.2282225237
 20
84.729966522
 30
0.0
 10
59.0786376941
 20
84.8621771426
 30
0.0
 10
58.9833048125
 20
84.9641173693
 30
0.0
 10
58.9029563991
 20
85.0704025351
 30
0.0
 10
58.8381930738
 20
85.1803511671
 30
0.0
 10
58.7895209046
 20
85.2932070006
 30
0.0
 10
58.7573785599
 20
85.4081840028
 30
0.0
 10
58.7420361525
 20
85.5244237468
 30
0.0
 10
58.7436760614
 20
85.6410344299
 30
0.0
 10
58.7622591782
 20
85.7571016753
 30
0.0
 10
58.797617284
 20
85.8717310387
 30
0.0
 10
58.8494108466
 20
85.9840875995
 30
0.0
 10
58.917220555
 20
86.0934002732
 30
0.0
 10
59.0005076851
 20
86.1988906323
 30
0.0
 10
59.0643650737
 20
86.2646332508
 30
0.0
 10
59.0984824367
 20
86.296694967
 30
0.0
  0
SPLINE
  5
312
100
AcDbEntity
  8
0
100
AcDbSpline
 62
7
  6
BYLAYER
 70
0
 71
3
 72
9
 73
5
 74
0
 42
0.0000001
 43
0.0000001
 44
0.0000000001
 40
0.0
 40
0.0
 40
0.0
 40
0.0
 40
0.4883850032
 40
1.0
 40
1.0
 40
1.0
 40
1.0
 10
59.8869104207
 20
86.7518913586
 30
0.0
 10
60.0263727589
 20
86.8013588709
 30
0.0
 10
60.3194026894
 20
86.882247535
 30
0.0
 10
60.6199174252
 20
86.9265466244
 30
0.0
 10
60.7743103634
 20
86.940409379
 30
0.0
  0
SPLINE
  5
313
100
AcDbEntity
  8
0
100
AcDbSpline
 62
7
  6
BYLAYER
 70
0
 71
3
 72
9
 73
5
 74
0
 42
0.0000001
 43
0.0000001
 44
0.0000000001
 40
0.0
 40
0.0
 40
0.0
 40
0.0
 40
0.2540212675
 40
1.0
 40
1.0
 40
1.0
 40
1.0
 10
61.9009730344
 20
86.8859243663
 30
0.0
 10
61.9317912663
 20
86.8800008075
 30
0.0
 10
62.0528122063
 20
86.8551557075
 30
0.0
 10
62.1725894066
 20
86.8241664049
 30
0.0
 10
62.2607668145
 20
86.797367411
 30
0.0
  0
SPLINE
  5
314
100
AcDbEntity
  8
0
100
AcDbSpline
 62
7
  6
BYLAYER
 70
0
 71
3
 72
9
 73
5
 74
0
 42
0.0000001
 43
0.0000001
 44
0.0000000001
 40
0.0
 40
0.0
 40
0.0
 40
0.0
 40
0.513521919
 40
1.0
 40
1.0
 40
1.0
 40
1.0
 10
62.3657549468
 20
86.7634908731
 30
0.0
 10
62.449970276
 20
86.7346942409
 30
0.0
 10
62.6116765189
 20
86.6716030981
 30
0.0
 10
62.766671035
 20
86.5932650675
 30
0.0
 10
62.8396907624
 20
86.5511080619
 30
0.0
  0
SPLINE
  5
315
100
AcDbEntity
  8
0
100
AcDbSpline
 62
7
  6
BYLAYER
 70
0
 71
3
 72
21
 73
17
 74
0
 42
0.0000001
 43
0.0000001
 44
0.0000000001
 40
0.0
 40
0.0
 40
0.0
 40
0.0
 40
0.1553682633
 40
0.3068142678
 40
0.3799380388
 40
0.4507462245
 40
0.5188861619
 40
0.5840709664
 40
0.6460940463
 40
0.704847784
 40
0.7603452787
 40
0.8127376313
 40
0.8623349812
 40
0.9096207999
 40
0.9552457497
 40
1.0
 40
1.0
 40
1.0
 40
1.0
 10
11.1686998082
 20
42.7702046031
 30
0.0
 10
11.3433396059
 20
42.4712179238
 30
0.0
 10
11.7214651132
 20
41.8995442201
 30
0.0
 10
12.2674120664
 20
41.2495501226
 30
0.0
 10
12.736450769
 20
40.7870950141
 30
0.0
 10
13.0944130133
 20
40.4779167315
 30
0.0
 10
13.4591731134
 20
40.2053664796
 30
0.0
 10
13.8272703813
 20
39.9720332261
 30
0.0
 10
14.1952329166
 20
39.7801727725
 30
0.0
 10
14.5596206847
 20
39.6316731209
 30
0.0
 10
14.917032133
 20
39.5280068575
 30
0.0
 10
15.2641586858
 20
39.4703278373
 30
0.0
 10
15.5977285673
 20
39.4594450956
 30
0.0
 10
15.9145157538
 20
39.4957764548
 30
0.0
 10
16.2111260963
 20
39.5792676797
 30
0.0
 10
16.3940318504
 20
39.6663856431
 30
0.0
 10
16.4800316173
 20
39.7169030728
 30
0.0
  0
SPLINE
  5
316
100
AcDbEntity
  8
0
100
AcDbSpline
 62
7
  6
BYLAYER
 70
0
 71
3
 72
18
 73
14
 74
0
 42
0.0000001
 43
0.0000001
 44
0.0000000001
 40
0.0
 40
0.0
 40
0.0
 40
0.0
 40
0.1522371455
 40
0.3010522627
 40
0.443361999
 40
0.5765303563
 40
0.6391098166
 40
0.6987862045
 40
0.8091603394
 40
0.8601807202
 40
0.9087007419
 40
0.9551387318
 40
1.0
 40
1.0
 40
1.0
 40
1.0
 10
15.8772687133
 20
45.4885678337
 30
0.0
 10
16.0048220661
 20
45.2701940499
 30
0.0
 10
16.2350272068
 20
44.8250234798
 30
0.0
 10
16.5032009364
 20
44.1375666987
 30
0.0
 10
16.6844791807
 20
43.4548080038
 30
0.0
 10
16.7598071235
 20
42.8963688012
 30
0.0
 10
16.7690140877
 20
42.4717049158
 30
0.0
 10
16.7461428436
 20
42.085712739
 30
0.0
 10
16.6766302075
 20
41.7221284933
 30
0.0
 10
16.5542904929
 20
41.3948305005
 30
0.0
 10
16.4419061876
 20
41.1791574033
 30
0.0
 10
16.3073754525
 20
40.988930629
 30
0.0
 10
16.2021930852
 20
40.8787129609
 30
0.0
 10
16.1466749878
 20
40.8289984369
 30
0.0
  0
SPLINE
  5
317
100
AcDbEntity
  8
0
100
AcDbSpline
 62
7
  6
BYLAYER
 70
0
 71
3
 72
18
 73
14
 74
0
 42
0.0000001
 43
0.0000001
 44
0.0000000001
 40
0.0
 40
0.0
 40
0.0
 40
0.0
 40
0.0448461033
 40
0.0913200771
 40
0.1399138755
 40
0.1910319409
 40
0.3016248666
 40
0.3613985087
 40
0.4240565243
 40
0.5573018732
 40
0.6995507894
 40
0.8481468981
 40
1.0
 40
1.0
 40
1.0
 40
1.0
 10
11.9401149092
 20
48.0306687216
 30
0.0
 10
12.0111115886
 20
48.0539831888
 30
0.0
 10
12.1596098505
 20
48.0901821709
 30
0.0
 10
12.3924365523
 20
48.1120446979
 30
0.0
 10
12.636513987
 20
48.1021839167
 30
0.0
 10
12.9830474034
 20
48.0456005446
 30
0.0
 10
13.335047639
 20
47.9254539694
 30
0.0
 10
13.6836194301
 20
47.7538846228
 30
0.0
 10
14.0499528984
 20
47.535519129
 30
0.0
 10
14.5003627318
 20
47.1938247276
 30
0.0
 10
15.0069924184
 20
46.6989428072
 30
0.0
 10
15.4746713214
 20
46.1266856243
 30
0.0
 10
15.7496473973
 20
45.7070579716
 30
0.0
 10
15.8772687133
 20
45.4885678337
 30
0.0
  0
SPLINE
  5
318
100
AcDbEntity
  8
0
100
AcDbSpline
 62
7
  6
BYLAYER
 70
0
 71
3
 72
11
 73
7
 74
0
 42
0.0000001
 43
0.0000001
 44
0.0000000001
 40
0.0
 40
0.0
 40
0.0
 40
0.0
 40
0.2690455921
 40
0.5224226046
 40
0.7642781588
 40
1.0
 40
1.0
 40
1.0
 40
1.0
 10
16.2523334014
 20
39.5901426364
 30
0.0
 10
16.3972323314
 20
39.5639255852
 30
0.0
 10
16.6826952343
 20
39.5323399303
 30
0.0
 10
17.1024498657
 20
39.5542345848
 30
0.0
 10
17.4938831919
 20
39.647368877
 30
0.0
 10
17.733311211
 20
39.7572373494
 30
0.0
 10
17.8445506909
 20
39.8225838867
 30
0.0
  0
SPLINE
  5
319
100
AcDbEntity
  8
0
100
AcDbSpline
 62
7
  6
BYLAYER
 70
0
 71
3
 72
15
 73
11
 74
0
 42
0.0000001
 43
0.0000001
 44
0.0000000001
 40
0.0
 40
0.0
 40
0.0
 40
0.0
 40
0.1422269668
 40
0.2825378234
 40
0.4191446808
 40
0.5504182011
 40
0.6749644676
 40
0.7917223801
 40
0.9000776781
 40
1.0
 40
1.0
 40
1.0
 40
1.0
 10
22.5885931047
 20
49.4224487063
 30
0.0
 10
22.7270365839
 20
49.1854308176
 30
0.0
 10
22.9834247311
 20
48.70340549
 30
0.0
 10
23.304777132
 20
47.9601074575
 30
0.0
 10
23.5559099388
 20
47.2123763803
 30
0.0
 10
23.7319533111
 20
46.4746233851
 30
0.0
 10
23.8295095076
 20
45.7609277822
 30
0.0
 10
23.84656307
 20
45.0847080617
 30
0.0
 10
23.7825981962
 20
44.4588698541
 30
0.0
 10
23.6822077407
 20
44.0674399373
 30
0.0
 10
23.6174445445
 20
43.8857964275
 30
0.0
  0
SPLINE
  5
31A
100
AcDbEntity
  8
0
100
AcDbSpline
 62
7
  6
BYLAYER
 70
0
 71
3
 72
11
 73
7
 74
0
 42
0.0000001
 43
0.0000001
 44
0.0000000001
 40
0.0
 40
0.0
 40
0.0
 40
0.0
 40
0.2683527805
 40
0.5215809986
 40
0.7637315061
 40
1.0
 40
1.0
 40
1.0
 40
1.0
 10
23.6174445445
 20
43.8857964275
 30
0.0
 10
23.5693486397
 20
43.7509002294
 30
0.0
 10
23.4577462805
 20
43.4945721142
 30
0.0
 10
23.236556159
 20
43.149953069
 30
0.0
 10
22.9692932143
 20
42.862339772
 30
0.0
 10
22.761393807
 20
42.710856469
 30
0.0
 10
22.6526737048
 20
42.6469900318
 30
0.0
  0
SPLINE
  5
31B
100
AcDbEntity
  8
0
100
AcDbSpline
 62
7
  6
BYLAYER
 70
0
 71
3
 72
19
 73
15
 74
0
 42
0.0000001
 43
0.0000001
 44
0.0000000001
 40
0.0
 40
0.0
 40
0.0
 40
0.0
 40
0.0446727536
 40
0.090498074
 40
0.1381767158
 40
0.1882671107
 40
0.2969662766
 40
0.356093487
 40
0.4183668135
 40
0.4836638393
 40
0.5517727318
 40
0.6951699364
 40
0.8457372272
 40
1.0
 40
1.0
 40
1.0
 40
1.0
 10
18.3154549334
 20
53.0255303217
 30
0.0
 10
18.4021758122
 20
53.0684675562
 30
0.0
 10
18.5855579538
 20
53.14070088
 30
0.0
 10
18.8792581093
 20
53.2041692914
 30
0.0
 10
19.1908510259
 20
53.2232629953
 30
0.0
 10
19.63792388
 20
53.1887751642
 30
0.0
 10
20.0977554231
 20
53.0628731263
 30
0.0
 10
20.5549788213
 20
52.8636257532
 30
0.0
 10
20.9104210065
 20
52.6695260789
 30
0.0
 10
21.2652188995
 20
52.4368735046
 30
0.0
 10
21.7414554143
 20
52.0718222827
 30
0.0
 10
22.3131468247
 20
51.5313926687
 30
0.0
 10
22.9355447661
 20
50.7836809921
 30
0.0
 10
23.2999198644
 20
50.2310985427
 30
0.0
 10
23.4684586157
 20
49.9425569717
 30
0.0
  0
SPLINE
  5
31C
100
AcDbEntity
  8
0
100
AcDbSpline
 62
7
  6
BYLAYER
 70
0
 71
3
 72
19
 73
15
 74
0
 42
0.0000001
 43
0.0000001
 44
0.0000000001
 40
0.0
 40
0.0
 40
0.0
 40
0.0
 40
0.1544524915
 40
0.305069147
 40
0.4484157593
 40
0.5164760217
 40
0.5817167802
 40
0.6439320144
 40
0.7030053196
 40
0.8116312542
 40
0.8617123479
 40
0.9094043815
 40
0.9552670825
 40
1.0
 40
1.0
 40
1.0
 40
1.0
 10
23.4684586157
 20
49.9425569717
 30
0.0
 10
23.6361933115
 20
49.6553919589
 30
0.0
 10
23.9370904394
 20
49.0697235938
 30
0.0
 10
24.2811601469
 20
48.1655478378
 30
0.0
 10
24.4703365923
 20
47.4069020764
 30
0.0
 10
24.5541213553
 20
46.8166968332
 30
0.0
 10
24.5824801651
 20
46.3962709685
 30
0.0
 10
24.57712703
 20
45.9941094153
 30
0.0
 10
24.5265550705
 20
45.5013325888
 30
0.0
 10
24.41113981
 20
45.0420038821
 30
0.0
 10
24.2227943362
 20
44.6382060048
 30
0.0
 10
24.0541143335
 20
44.3776467279
 30
0.0
 10
23.8556970518
 20
44.1540854734
 30
0.0
 10
23.7035710318
 20
44.0303114432
 30
0.0
 10
23.6240129609
 20
43.9760190658
 30
0.0
  0
SPLINE
  5
31D
100
AcDbEntity
  8
0
100
AcDbSpline
 62
7
  6
BYLAYER
 70
0
 71
3
 72
11
 73
7
 74
0
 42
0.0000001
 43
0.0000001
 44
0.0000000001
 40
0.0
 40
0.0
 40
0.0
 40
0.0
 40
0.2362226977
 40
0.478348217
 40
0.7315887202
 40
1.0
 40
1.0
 40
1.0
 40
1.0
 10
16.6759742856
 20
52.8214141048
 30
0.0
 10
16.78490706
 20
52.885405474
 30
0.0
 10
17.0189477551
 20
52.9934035365
 30
0.0
 10
17.4011452489
 20
53.0867857776
 30
0.0
 10
17.8107839189
 20
53.1118966849
 30
0.0
 10
18.0896242092
 20
53.0842115318
 30
0.0
 10
18.2311763936
 20
53.0603271038
 30
0.0
  0
SPLINE
  5
31E
100
AcDbEntity
  8
0
100
AcDbSpline
 62
7
  6
BYLAYER
 70
0
 71
3
 72
15
 73
11
 74
0
 42
0.0000001
 43
0.0000001
 44
0.0000000001
 40
0.0
 40
0.0
 40
0.0
 40
0.0
 40
0.0998758218
 40
0.2082358879
 40
0.3250385716
 40
0.4496501972
 40
0.5809846054
 40
0.7176198983
 40
0.8578968942
 40
1.0
 40
1.0
 40
1.0
 40
1.0
 10
18.2311763936
 20
53.0603271038
 30
0.0
 10
18.4228007744
 20
53.0279938781
 30
0.0
 10
18.8165491494
 20
52.9236048193
 30
0.0
 10
19.3984932779
 20
52.6713286187
 30
0.0
 10
19.9848219481
 20
52.3225696544
 30
0.0
 10
20.564288345
 20
51.8842420917
 30
0.0
 10
21.1259384544
 20
51.3648599191
 30
0.0
 10
21.6589218986
 20
50.7745045088
 30
0.0
 10
22.1528397443
 20
50.1247381148
 30
0.0
 10
22.4491368953
 20
49.6612004085
 30
0.0
 10
22.5885931047
 20
49.4224487063
 30
0.0
  0
SPLINE
  5
31F
100
AcDbEntity
  8
0
100
AcDbSpline
 62
7
  6
BYLAYER
 70
0
 71
3
 72
11
 73
7
 74
0
 42
0.0000001
 43
0.0000001
 44
0.0000000001
 40
0.0
 40
0.0
 40
0.0
 40
0.0
 40
0.2356967243
 40
0.4775387525
 40
0.7309226914
 40
1.0
 40
1.0
 40
1.0
 40
1.0
 10
11.8678512846
 20
49.9970079374
 30
0.0
 10
11.7564965683
 20
49.9315937056
 30
0.0
 10
11.5437349154
 20
49.7757773413
 30
0.0
 10
11.2715816939
 20
49.4788147015
 30
0.0
 10
11.0479712142
 20
49.1223184771
 30
0.0
 10
10.9365758651
 20
48.85721572
 30
0.0
 10
10.8889436337
 20
48.7176846947
 30
0.0
  0
SPLINE
  5
320
100
AcDbEntity
  8
0
100
AcDbSpline
 62
7
  6
BYLAYER
 70
0
 71
3
 72
14
 73
10
 74
0
 42
0.0000001
 43
0.0000001
 44
0.0000000001
 40
0.0
 40
0.0
 40
0.0
 40
0.0
 40
0.0903135052
 40
0.1871450889
 40
0.2949879756
 40
0.4157332748
 40
0.5490722183
 40
0.6930467472
 40
1.0
 40
1.0
 40
1.0
 40
1.0
 10
15.449031054
 20
41.7787623621
 30
0.0
 10
15.4327973495
 20
41.7692246701
 30
0.0
 10
15.4024748365
 20
41.7432905555
 30
0.0
 10
15.3705119552
 20
41.6897659723
 30
0.0
 10
15.3518236289
 20
41.6239072719
 30
0.0
 10
15.3465522201
 20
41.5482172572
 30
0.0
 10
15.3546166565
 20
41.465292071
 30
0.0
 10
15.3832194635
 20
41.3466212994
 30
0.0
 10
15.4221845156
 20
41.2598299446
 30
0.0
 10
15.4544602444
 20
41.2045732786
 30
0.0
  0
SPLINE
  5
321
100
AcDbEntity
  8
0
100
AcDbSpline
 62
7
  6
BYLAYER
 70
0
 71
3
 72
21
 73
17
 74
0
 42
0.0000001
 43
0.0000001
 44
0.0000000001
 40
0.0
 40
0.0
 40
0.0
 40
0.0
 40
0.0448142745
 40
0.0904910454
 40
0.1378140826
 40
0.187429816
 40
0.2398203291
 40
0.2952971211
 40
0.3540139841
 40
0.415988467
 40
0.4811187049
 40
0.5492040479
 40
0.6199644573
 40
0.6930540935
 40
0.8444994767
 40
1.0
 40
1.0
 40
1.0
 40
1.0
 10
11.1111396195
 20
48.8566272117
 30
0.0
 10
11.0256132919
 20
48.8063878867
 30
0.0
 10
10.8613437339
 20
48.6897886792
 30
0.0
 10
10.6449498762
 20
48.4729413226
 30
0.0
 10
10.4595565062
 20
48.215915129
 30
0.0
 10
10.306835841
 20
47.9216026362
 30
0.0
 10
10.1879818879
 20
47.5929685494
 30
0.0
 10
10.103884994
 20
47.233203883
 30
0.0
 10
10.0551412772
 20
46.8457000574
 30
0.0
 10
10.0421264462
 20
46.4340764281
 30
0.0
 10
10.0648845986
 20
46.0021848241
 30
0.0
 10
10.1231500624
 20
45.5540798775
 30
0.0
 10
10.2163750689
 20
45.0939674707
 30
0.0
 10
10.3881256813
 20
44.4629281745
 30
0.0
 10
10.6847119221
 20
43.6735515211
 30
0.0
 10
10.9951064
 20
43.0673998436
 30
0.0
 10
11.1686998082
 20
42.7702046031
 30
0.0
  0
SPLINE
  5
322
100
AcDbEntity
  8
0
100
AcDbSpline
 62
7
  6
BYLAYER
 70
0
 71
3
 72
21
 73
17
 74
0
 42
0.0000001
 43
0.0000001
 44
0.0000000001
 40
0.0
 40
0.0
 40
0.0
 40
0.0
 40
0.1554999837
 40
0.3069448292
 40
0.3800342831
 40
0.4507947042
 40
0.5188802476
 40
0.5840107572
 40
0.6459855345
 40
0.7047025756
 40
0.7601794453
 40
0.8125700067
 40
0.8621857716
 40
0.9095088484
 40
0.955185678
 40
1.0
 40
1.0
 40
1.0
 40
1.0
 10
17.4830867979
 20
46.4263564512
 30
0.0
 10
17.6566796064
 20
46.1291622374
 30
0.0
 10
17.9670729941
 20
45.5230127127
 30
0.0
 10
18.26365922
 20
44.7336390169
 30
0.0
 10
18.4354095974
 20
44.1026012772
 30
0.0
 10
18.5286354895
 20
43.6424889852
 30
0.0
 10
18.5869015996
 20
43.1943830165
 30
0.0
 10
18.609660009
 20
42.7624897288
 30
0.0
 10
18.5966458604
 20
42.3508644228
 30
0.0
 10
18.5479021268
 20
41.9633593415
 30
0.0
 10
18.4638050656
 20
41.6035940329
 30
0.0
 10
18.3449514733
 20
41.2749594426
 30
0.0
 10
18.1922306713
 20
40.9806466778
 30
0.0
 10
18.0068370201
 20
40.7236203776
 30
0.0
 10
17.7904433505
 20
40.5067723217
 30
0.0
 10
17.6261733378
 20
40.3901733379
 30
0.0
 10
17.5406469785
 20
40.3399338562
 30
0.0
  0
SPLINE
  5
323
100
AcDbEntity
  8
0
100
AcDbSpline
 62
7
  6
BYLAYER
 70
0
 71
3
 72
21
 73
17
 74
0
 42
0.0000001
 43
0.0000001
 44
0.0000000001
 40
0.0
 40
0.0
 40
0.0
 40
0.0
 40
0.0448145214
 40
0.0904913369
 40
0.137814123
 40
0.1874303814
 40
0.2398209362
 40
0.2952972371
 40
0.3540145831
 40
0.4159890191
 40
0.4811187573
 40
0.5492045741
 40
0.6199649439
 40
0.6930539714
 40
0.8445003141
 40
1.0
 40
1.0
 40
1.0
 40
1.0
 10
17.8445506909
 20
39.8225838867
 30
0.0
 10
17.9397586842
 20
39.8785128851
 30
0.0
 10
18.1226209825
 20
40.008319171
 30
0.0
 10
18.3635075348
 20
40.2497181785
 30
0.0
 10
18.5699059352
 20
40.5358309035
 30
0.0
 10
18.7399019562
 20
40.8634711576
 30
0.0
 10
18.8722086866
 20
41.2293088244
 30
0.0
 10
18.9658398169
 20
41.6297989422
 30
0.0
 10
19.0200900646
 20
42.0611730531
 30
0.0
 10
19.0345767513
 20
42.5193949058
 30
0.0
 10
19.0092519087
 20
43.0001805626
 30
0.0
 10
18.9443819142
 20
43.4990134576
 30
0.0
 10
18.8406031194
 20
44.0112133958
 30
0.0
 10
18.6494160324
 20
44.7136941322
 30
0.0
 10
18.3192456892
 20
45.5924303328
 30
0.0
 10
17.9737145913
 20
46.2672042739
 30
0.0
 10
17.7804700972
 20
46.59804255
 30
0.0
  0
SPLINE
  5
324
100
AcDbEntity
  8
0
100
AcDbSpline
 62
7
  6
BYLAYER
 70
0
 71
3
 72
14
 73
10
 74
0
 42
0.0000001
 43
0.0000001
 44
0.0000000001
 40
0.0
 40
0.0
 40
0.0
 40
0.0
 40
0.3068213512
 40
0.4508754264
 40
0.5843216259
 40
0.7051522565
 40
0.8130200104
 40
0.9097977933
 40
1.0
 40
1.0
 40
1.0
 40
1.0
 10
15.9500990765
 20
41.4907167765
 30
0.0
 10
15.9176154481
 20
41.5463293707
 30
0.0
 10
15.8607201724
 20
41.6233887581
 30
0.0
 10
15.7707005361
 20
41.7070889846
 30
0.0
 10
15.7018610177
 20
41.7551333505
 30
0.0
 10
15.6327884638
 20
41.7878792784
 30
0.0
 10
15.565745622
 20
41.8039603959
 30
0.0
 10
15.5030228687
 20
41.8022531638
 30
0.0
 10
15.4653562062
 20
41.7883537818
 30
0.0
 10
15.449031054
 20
41.7787623621
 30
0.0
  0
SPLINE
  5
325
100
AcDbEntity
  8
0
100
AcDbSpline
 62
7
  6
BYLAYER
 70
0
 71
3
 72
21
 73
17
 74
0
 42
0.0000001
 43
0.0000001
 44
0.0000000001
 40
0.0
 40
0.0
 40
0.0
 40
0.0
 40
0.1553682633
 40
0.3068142678
 40
0.3799380388
 40
0.4507462245
 40
0.5188861619
 40
0.5840709664
 40
0.6460940463
 40
0.704847784
 40
0.7603452787
 40
0.8127376313
 40
0.8623349812
 40
0.9096207999
 40
0.9552457497
 40
1.0
 40
1.0
 40
1.0
 40
1.0
 10
16.4224714286
 20
45.8033256815
 30
0.0
 10
16.247831631
 20
46.1023123607
 30
0.0
 10
15.8697061236
 20
46.6739860645
 30
0.0
 10
15.3237591705
 20
47.3239801619
 30
0.0
 10
14.8547204678
 20
47.7864352705
 30
0.0
 10
14.4967582235
 20
48.095613553
 30
0.0
 10
14.1319981234
 20
48.368163805
 30
0.0
 10
13.7639008555
 20
48.6014970585
 30
0.0
 10
13.3959383202
 20
48.7933575121
 30
0.0
 10
13.0315505522
 20
48.9418571636
 30
0.0
 10
12.6741391038
 20
49.045523427
 30
0.0
 10
12.327012551
 20
49.1032024472
 30
0.0
 10
11.9934426696
 20
49.114085189
 30
0.0
 10
11.676655483
 20
49.0777538297
 30
0.0
 10
11.3800451405
 20
48.9942626048
 30
0.0
 10
11.1971393864
 20
48.9071446415
 30
0.0
 10
11.1111396195
 20
48.8566272117
 30
0.0
  0
SPLINE
  5
326
100
AcDbEntity
  8
0
100
AcDbSpline
 62
7
  6
BYLAYER
 70
0
 71
3
 72
18
 73
14
 74
0
 42
0.0000001
 43
0.0000001
 44
0.0000000001
 40
0.0
 40
0.0
 40
0.0
 40
0.0
 40
0.0448461282
 40
0.0913200498
 40
0.1399138613
 40
0.1910319387
 40
0.3016248575
 40
0.3613985021
 40
0.4240565178
 40
0.5573018683
 40
0.6995507859
 40
0.8481468964
 40
1.0
 40
1.0
 40
1.0
 40
1.0
 10
15.6510563276
 20
40.542861563
 30
0.0
 10
15.5800593233
 20
40.5195479551
 30
0.0
 10
15.4315613132
 20
40.4833487435
 30
0.0
 10
15.1987346599
 20
40.4614851667
 30
0.0
 10
14.9546572687
 20
40.4713464065
 30
0.0
 10
14.6081238558
 20
40.5279297812
 30
0.0
 10
14.2561235793
 20
40.6480763032
 30
0.0
 10
13.9075518108
 20
40.8196456675
 30
0.0
 10
13.5412183353
 20
41.0380111523
 30
0.0
 10
13.0908085059
 20
41.3797055586
 30
0.0
 10
12.5841788181
 20
41.8745874769
 30
0.0
 10
12.1164999155
 20
42.4468446603
 30
0.0
 10
11.8415238395
 20
42.866472313
 30
0.0
 10
11.7139025235
 20
43.0849624508
 30
0.0
  0
SPLINE
  5
327
100
AcDbEntity
  8
0
100
AcDbSpline
 62
7
  6
BYLAYER
 70
0
 71
3
 72
21
 73
17
 74
0
 42
0.0000001
 43
0.0000001
 44
0.0000000001
 40
0.0
 40
0.0
 40
0.0
 40
0.0
 40
0.0447542031
 40
0.0903790951
 40
0.1376648741
 40
0.187262189
 40
0.2396544965
 40
0.2951519181
 40
0.3539054808
 40
0.4159282705
 40
0.4811128023
 40
0.5492525318
 40
0.6200607025
 40
0.6931846539
 40
0.8446311944
 40
1.0
 40
1.0
 40
1.0
 40
1.0
 10
12.1717549969
 20
49.4796579679
 30
0.0
 10
12.2577546112
 20
49.5301754468
 30
0.0
 10
12.4406603113
 20
49.6172929617
 30
0.0
 10
12.7372701483
 20
49.7007846765
 30
0.0
 10
13.0540570985
 20
49.7371157779
 30
0.0
 10
13.3876266746
 20
49.7262331416
 30
0.0
 10
13.7347529699
 20
49.6685546368
 30
0.0
 10
14.0921637855
 20
49.5648885186
 30
0.0
 10
14.456550486
 20
49.4163895051
 30
0.0
 10
14.8245118862
 20
49.2245304423
 30
0.0
 10
15.1926077742
 20
48.9911982221
 30
0.0
 10
15.5573673142
 20
48.7186491089
 30
0.0
 10
15.9153300405
 20
48.4094715234
 30
0.0
 10
16.3843699932
 20
47.9470154649
 30
0.0
 10
16.930319533
 20
47.2970198935
 30
0.0
 10
17.3084463935
 20
46.7253441693
 30
0.0
 10
17.4830867979
 20
46.4263564512
 30
0.0
  0
SPLINE
  5
328
100
AcDbEntity
  8
0
100
AcDbSpline
 62
7
  6
BYLAYER
 70
0
 71
3
 72
20
 73
16
 74
0
 42
0.0000001
 43
0.0000001
 44
0.0000000001
 40
0.0
 40
0.0
 40
0.0
 40
0.0
 40
0.1555113649
 40
0.3069664721
 40
0.450749119
 40
0.5188394173
 40
0.5839747232
 40
0.6459535685
 40
0.7046751661
 40
0.7601565302
 40
0.8125506086
 40
0.8621710806
 40
0.9094978218
 40
0.9551748433
 40
1.0
 40
1.0
 40
1.0
 40
1.0
 10
11.7139025235
 20
43.0849624508
 30
0.0
 10
11.576339125
 20
43.3204736246
 30
0.0
 10
11.3303360669
 20
43.8008822126
 30
0.0
 10
11.0517348265
 20
44.5424702625
 30
0.0
 10
10.9019018278
 20
45.1639673969
 30
0.0
 10
10.8391825221
 20
45.6461270318
 30
0.0
 10
10.8211447711
 20
45.9883875083
 30
0.0
 10
10.8314623141
 20
46.3145769036
 30
0.0
 10
10.8700839393
 20
46.6216559727
 30
0.0
 10
10.9367196532
 20
46.9067541709
 30
0.0
 10
11.0309108879
 20
47.1671802079
 30
0.0
 10
11.1519270665
 20
47.4004132681
 30
0.0
 10
11.2988380096
 20
47.604092797
 30
0.0
 10
11.4703190275
 20
47.7759434437
 30
0.0
 10
11.6004977402
 20
47.8683537883
 30
0.0
 10
11.6682885485
 20
47.9081656805
 30
0.0
  0
SPLINE
  5
329
100
AcDbEntity
  8
0
100
AcDbSpline
 62
7
  6
BYLAYER
 70
0
 71
3
 72
21
 73
17
 74
0
 42
0.0000001
 43
0.0000001
 44
0.0000000001
 40
0.0
 40
0.0
 40
0.0
 40
0.0
 40
0.1553673956
 40
0.3068144303
 40
0.3799376189
 40
0.4507457316
 40
0.5188861355
 40
0.584070436
 40
0.6460932878
 40
0.7048475652
 40
0.760344663
 40
0.8127369244
 40
0.862334917
 40
0.9096206159
 40
0.95524553
 40
1.0
 40
1.0
 40
1.0
 40
1.0
 10
17.7804700972
 20
46.59804255
 30
0.0
 10
17.5860608041
 20
46.9308749842
 30
0.0
 10
17.1651263642
 20
47.5672652056
 30
0.0
 10
16.5573811698
 20
48.2908486921
 30
0.0
 10
16.0352381308
 20
48.8056533265
 30
0.0
 10
15.6367513969
 20
49.149831315
 30
0.0
 10
15.2307035575
 20
49.4532441145
 30
0.0
 10
14.8209304509
 20
49.7129850275
 30
0.0
 10
14.4113119484
 20
49.9265635214
 30
0.0
 10
14.0056778945
 20
50.0918875952
 30
0.0
 10
13.6078006054
 20
50.2072785394
 30
0.0
 10
13.2213770136
 20
50.2714838433
 30
0.0
 10
12.8500434928
 20
50.2836183815
 30
0.0
 10
12.4973927176
 20
50.2431583051
 30
0.0
 10
12.1672076501
 20
50.1502097227
 30
0.0
 10
11.963586251
 20
50.0532465009
 30
0.0
 10
11.8678512846
 20
49.9970079374
 30
0.0
  0
SPLINE
  5
32A
100
AcDbEntity
  8
0
100
AcDbSpline
 62
7
  6
BYLAYER
 70
0
 71
3
 72
21
 73
17
 74
0
 42
0.0000001
 43
0.0000001
 44
0.0000000001
 40
0.0
 40
0.0
 40
0.0
 40
0.0
 40
0.0448142745
 40
0.0904910454
 40
0.1378140826
 40
0.187429816
 40
0.2398203291
 40
0.2952971211
 40
0.3540139841
 40
0.415988467
 40
0.4811187049
 40
0.5492040479
 40
0.6199644573
 40
0.6930540935
 40
0.8444994767
 40
1.0
 40
1.0
 40
1.0
 40
1.0
 10
16.4800316173
 20
39.7169030728
 30
0.0
 10
16.5655579449
 20
39.7671423979
 30
0.0
 10
16.7298275029
 20
39.8837416054
 30
0.0
 10
16.9462213607
 20
40.1005889619
 30
0.0
 10
17.1316147306
 20
40.3576151556
 30
0.0
 10
17.2843353959
 20
40.6519276484
 30
0.0
 10
17.403189349
 20
40.9805617352
 30
0.0
 10
17.4872862428
 20
41.3403264015
 30
0.0
 10
17.5360299597
 20
41.7278302271
 30
0.0
 10
17.5490447906
 20
42.1394538564
 30
0.0
 10
17.5262866383
 20
42.5713454605
 30
0.0
 10
17.4680211745
 20
43.0194504071
 30
0.0
 10
17.3747961679
 20
43.4795628139
 30
0.0
 10
17.2030455556
 20
44.1106021101
 30
0.0
 10
16.9064593147
 20
44.8999787634
 30
0.0
 10
16.5960648368
 20
45.506130441
 30
0.0
 10
16.4224714286
 20
45.8033256815
 30
0.0
  0
SPLINE
  5
32B
100
AcDbEntity
  8
0
100
AcDbSpline
 62
7
  6
BYLAYER
 70
0
 71
3
 72
15
 73
11
 74
0
 42
0.0000001
 43
0.0000001
 44
0.0000000001
 40
0.0
 40
0.0
 40
0.0
 40
0.0
 40
0.149166589
 40
0.2905087126
 40
0.4239651853
 40
0.5499405268
 40
0.669173543
 40
0.7828236785
 40
0.8924634132
 40
1.0
 40
1.0
 40
1.0
 40
1.0
 10
22.3465336369
 20
40.5728874602
 30
0.0
 10
22.5890932523
 20
40.432848769
 30
0.0
 10
23.0730579366
 20
40.1794058385
 30
0.0
 10
23.8108495965
 20
39.8771425124
 30
0.0
 10
24.5347182977
 20
39.6658817718
 30
0.0
 10
25.2377379106
 20
39.5479595682
 30
0.0
 10
25.9133343756
 20
39.5249785896
 30
0.0
 10
26.554927104
 20
39.5978690976
 30
0.0
 10
27.1555976886
 20
39.7665046342
 30
0.0
 10
27.5259534043
 20
39.9427884508
 30
0.0
 10
27.7000536966
 20
40.0450578966
 30
0.0
  0
SPLINE
  5
32C
100
AcDbEntity
  8
0
100
AcDbSpline
 62
7
  6
BYLAYER
 70
0
 71
3
 72
11
 73
7
 74
0
 42
0.0000001
 43
0.0000001
 44
0.0000000001
 40
0.0
 40
0.0
 40
0.0
 40
0.0
 40
0.2499861916
 40
0.4998240149
 40
0.7497111414
 40
1.0
 40
1.0
 40
1.0
 40
1.0
 10
18.9037169813
 20
60.7407370312
 30
0.0
 10
18.6977850071
 20
60.6197676769
 30
0.0
 10
18.3005067042
 20
60.3522403909
 30
0.0
 10
17.7586702863
 20
59.8812114157
 30
0.0
 10
17.2764945499
 20
59.3489845816
 30
0.0
 10
16.9981315177
 20
58.9591013819
 30
0.0
 10
16.8700472018
 20
58.7571752104
 30
0.0
  0
SPLINE
  5
32D
100
AcDbEntity
  8
0
100
AcDbSpline
 62
7
  6
BYLAYER
 70
0
 71
3
 72
9
 73
5
 74
0
 42
0.0000001
 43
0.0000001
 44
0.0000000001
 40
0.0
 40
0.0
 40
0.0
 40
0.0
 40
0.4963007453
 40
1.0
 40
1.0
 40
1.0
 40
1.0
 10
16.8609634491
 20
58.4969647042
 30
0.0
 10
16.7094670424
 20
58.4079731617
 30
0.0
 10
16.417357097
 20
58.2053086321
 30
0.0
 10
16.1586668772
 20
57.961585644
 30
0.0
 10
16.0377448495
 20
57.830529258
 30
0.0
  0
SPLINE
  5
32E
100
AcDbEntity
  8
0
100
AcDbSpline
 62
7
  6
BYLAYER
 70
0
 71
3
 72
15
 73
11
 74
0
 42
0.0000001
 43
0.0000001
 44
0.0000000001
 40
0.0
 40
0.0
 40
0.0
 40
0.0
 40
0.1027163954
 40
0.2103517232
 40
0.3241127635
 40
0.4447923505
 40
0.572794784
 40
0.7081859793
 40
0.8507430561
 40
1.0
 40
1.0
 40
1.0
 40
1.0
 10
16.0377448495
 20
57.830529258
 30
0.0
 10
15.8907405105
 20
57.6712046274
 30
0.0
 10
15.6171900421
 20
57.3186391147
 30
0.0
 10
15.2849284378
 20
56.7180879449
 30
0.0
 10
15.0254209015
 20
56.0421386181
 30
0.0
 10
14.8408876088
 20
55.2980385101
 30
0.0
 10
14.7326748023
 20
54.493261159
 30
0.0
 10
14.7016199828
 20
53.635845491
 30
0.0
 10
14.7478833181
 20
52.734418446
 30
0.0
 10
14.828180742
 20
52.1231038883
 30
0.0
 10
14.8803253792
 20
51.812443765
 30
0.0
  0
SPLINE
  5
32F
100
AcDbEntity
  8
0
100
AcDbSpline
 62
7
  6
BYLAYER
 70
0
 71
3
 72
9
 73
5
 74
0
 42
0.0000001
 43
0.0000001
 44
0.0000000001
 40
0.0
 40
0.0
 40
0.0
 40
0.0
 40
0.5108434335
 40
1.0
 40
1.0
 40
1.0
 40
1.0
 10
20.909378039
 20
41.5600057026
 30
0.0
 10
21.1415704769
 20
41.3746636619
 30
0.0
 10
21.6085305516
 20
41.0270886161
 30
0.0
 10
22.1001638635
 20
40.7151258973
 30
0.0
 10
22.3465336369
 20
40.5728874602
 30
0.0
  0
SPLINE
  5
330
100
AcDbEntity
  8
0
100
AcDbSpline
 62
7
  6
BYLAYER
 70
0
 71
3
 72
13
 73
9
 74
0
 42
0.0000001
 43
0.0000001
 44
0.0000000001
 40
0.0
 40
0.0
 40
0.0
 40
0.0
 40
0.1164396401
 40
0.2336770952
 40
0.3527160552
 40
0.4744036863
 40
0.7281470983
 40
1.0
 40
1.0
 40
1.0
 40
1.0
 10
17.4063510831
 20
54.8161484563
 30
0.0
 10
17.3112872752
 20
54.7603057077
 30
0.0
 10
17.1275320078
 20
54.6357757089
 30
0.0
 10
16.8764292804
 20
54.4143199674
 30
0.0
 10
16.6512517083
 20
54.1598578157
 30
0.0
 10
16.3834520772
 20
53.774683737
 30
0.0
 10
16.1203867953
 20
53.2159760911
 30
0.0
 10
15.9955352061
 20
52.7314416764
 30
0.0
 10
15.9503440796
 20
52.4780327301
 30
0.0
  0
SPLINE
  5
331
100
AcDbEntity
  8
0
100
AcDbSpline
 62
7
  6
BYLAYER
 70
0
 71
3
 72
13
 73
9
 74
0
 42
0.0000001
 43
0.0000001
 44
0.0000000001
 40
0.0
 40
0.0
 40
0.0
 40
0.0
 40
0.2718706036
 40
0.525607965
 40
0.6472923652
 40
0.7663300732
 40
0.8835648798
 40
1.0
 40
1.0
 40
1.0
 40
1.0
 10
21.998785558
 20
42.1806148311
 30
0.0
 10
22.242196196
 20
42.0966510417
 30
0.0
 10
22.7263066667
 20
41.9696513921
 30
0.0
 10
23.3425552999
 20
41.9273176377
 30
0.0
 10
23.809485866
 20
41.9736543839
 30
0.0
 10
24.1414664582
 20
42.0464256616
 30
0.0
 10
24.457235341
 20
42.1579327373
 30
0.0
 10
24.6555217101
 20
42.2578171328
 30
0.0
 10
24.7506045587
 20
42.3136710664
 30
0.0
  0
SPLINE
  5
332
100
AcDbEntity
  8
0
100
AcDbSpline
 62
7
  6
BYLAYER
 70
0
 71
3
 72
34
 73
30
 74
0
 42
0.0000001
 43
0.0000001
 44
0.0000000001
 40
0.0
 40
0.0
 40
0.0
 40
0.0
 40
0.0261877654
 40
0.0510936605
 40
0.0748988244
 40
0.0978523571
 40
0.1202594373
 40
0.1424649326
 40
0.1648294963
 40
0.1877015125
 40
0.2113917037
 40
0.2361557927
 40
0.2621852565
 40
0.289609371
 40
0.3184958743
 40
0.3488614403
 40
0.3806753114
 40
0.4138683109
 40
0.4483383539
 40
0.4839549932
 40
0.5579718313
 40
0.6345335192
 40
0.7120489909
 40
0.7888637698
 40
0.8633717681
 40
0.8993106839
 40
0.9341499124
 40
0.967759132
 40
1.0
 40
1.0
 40
1.0
 40
1.0
 10
16.803560515
 20
54.2633909912
 30
0.0
 10
16.8485232753
 20
54.4186500559
 30
0.0
 10
16.9520662869
 20
54.7173459312
 30
0.0
 10
17.1542612891
 20
55.1343498239
 30
0.0
 10
17.3980448806
 20
55.5050868625
 30
0.0
 10
17.6815672349
 20
55.8262947492
 30
0.0
 10
18.002704399
 20
56.0949444194
 30
0.0
 10
18.3586297535
 20
56.3085482774
 30
0.0
 10
18.746147292
 20
56.465075503
 30
0.0
 10
19.1616748057
 20
56.5633095104
 30
0.0
 10
19.6015445495
 20
56.6027166015
 30
0.0
 10
20.0620722843
 20
56.5832398851
 30
0.0
 10
20.5395891435
 20
56.5054334706
 30
0.0
 10
21.0303618004
 20
56.3700349423
 30
0.0
 10
21.530640631
 20
56.1783585458
 30
0.0
 10
22.0365471493
 20
55.9319307129
 30
0.0
 10
22.5441842192
 20
55.6327734701
 30
0.0
 10
23.0496010275
 20
55.283266514
 30
0.0
 10
23.5488423421
 20
54.8861400571
 30
0.0
 10
24.2094139611
 20
54.2898096453
 30
0.0
 10
24.992569347
 20
53.4450754088
 30
0.0
 10
25.8358124522
 20
52.3146562459
 30
0.0
 10
26.5684741089
 20
51.0893661559
 30
0.0
 10
27.1676135677
 20
49.8076253886
 30
0.0
 10
27.5447381982
 20
48.7122891804
 30
0.0
 10
27.761736573
 20
47.841721305
 30
0.0
 10
27.8791289311
 20
47.2077374855
 30
0.0
 10
27.9520858402
 20
46.5901054767
 30
0.0
 10
27.9712312831
 20
46.1836676251
 30
0.0
 10
27.9727417945
 20
45.9846732645
 30
0.0
  0
SPLINE
  5
333
100
AcDbEntity
  8
0
100
AcDbSpline
 62
7
  6
BYLAYER
 70
0
 71
3
 72
32
 73
28
 74
0
 42
0.0000001
 43
0.0000001
 44
0.0000000001
 40
0.0
 40
0.0
 40
0.0
 40
0.0
 40
0.0323184966
 40
0.0660271324
 40
0.1370192489
 40
0.2117989613
 40
0.2888521958
 40
0.3665133251
 40
0.4430732657
 40
0.5168977222
 40
0.5865443801
 40
0.6194569983
 40
0.6509431586
 40
0.6809424832
 40
0.7094358155
 40
0.7364564819
 40
0.76209412
 40
0.786503586
 40
0.8099072317
 40
0.8325911984
 40
0.8548946437
 40
0.8771861465
 40
0.8998348451
 40
0.9231825456
 40
0.9475205598
 40
0.9730736889
 40
1.0
 40
1.0
 40
1.0
 40
1.0
 10
25.7807670706
 20
45.6030305172
 30
0.0
 10
25.779442066
 20
45.7775862539
 30
0.0
 10
25.7624254125
 20
46.1342192524
 30
0.0
 10
25.6743097218
 20
46.8695234888
 30
0.0
 10
25.4621375094
 20
47.8183096334
 30
0.0
 10
25.0646559467
 20
48.9567916289
 30
0.0
 10
24.5323994707
 20
50.0788047891
 30
0.0
 10
23.8825479502
 20
51.1481990871
 30
0.0
 10
23.1358702923
 20
52.1307562129
 30
0.0
 10
22.316410217
 20
52.9948549914
 30
0.0
 10
21.5807226975
 20
53.6047954167
 30
0.0
 10
20.9774063001
 20
54.0060797237
 30
0.0
 10
20.5323232427
 20
54.2559139935
 30
0.0
 10
20.0897908314
 20
54.4582784052
 30
0.0
 10
19.6532782573
 20
54.6114110927
 30
0.0
 10
19.2262812259
 20
54.7140453006
 30
0.0
 10
18.8121705051
 20
54.7651244009
 30
0.0
 10
18.4142996536
 20
54.7640211749
 30
0.0
 10
18.0359879778
 20
54.7104610804
 30
0.0
 10
17.6805911045
 20
54.6045447278
 30
0.0
 10
17.3513920388
 20
54.4470837089
 30
0.0
 10
17.0515799657
 20
54.2393771505
 30
0.0
 10
16.7838786886
 20
53.9835386174
 30
0.0
 10
16.5506014288
 20
53.6820324837
 30
0.0
 10
16.3535501764
 20
53.3376789172
 30
0.0
 10
16.194072654
 20
52.9536022514
 30
0.0
 10
16.1156732312
 20
52.6805351267
 30
0.0
 10
16.0825393488
 20
52.5389236251
 30
0.0
  0
SPLINE
  5
334
100
AcDbEntity
  8
0
100
AcDbSpline
 62
7
  6
BYLAYER
 70
0
 71
3
 72
16
 73
12
 74
0
 42
0.0000001
 43
0.0000001
 44
0.0000000001
 40
0.0
 40
0.0
 40
0.0
 40
0.0
 40
0.1501726362
 40
0.2919454497
 40
0.4253077857
 40
0.4890164315
 40
0.5508504284
 40
0.6693657363
 40
0.7823827484
 40
0.8918335578
 40
1.0
 40
1.0
 40
1.0
 40
1.0
 10
22.8526845951
 20
58.4034864832
 30
0.0
 10
22.5936965427
 20
58.5530099223
 30
0.0
 10
22.0770923243
 20
58.8219263162
 30
0.0
 10
21.2891675901
 20
59.1365478802
 30
0.0
 10
20.6365359095
 20
59.3150195244
 30
0.0
 10
20.1279904355
 20
59.4020640123
 30
0.0
 10
19.6441826812
 20
59.4513797854
 30
0.0
 10
19.0575741785
 20
59.448289979
 30
0.0
 10
18.3847511384
 20
59.3352976673
 30
0.0
 10
17.7611319906
 20
59.1136411129
 30
0.0
 10
17.3837356929
 20
58.8948115206
 30
0.0
 10
17.2080338859
 20
58.7702057085
 30
0.0
  0
SPLINE
  5
335
100
AcDbEntity
  8
0
100
AcDbSpline
 62
7
  6
BYLAYER
 70
0
 71
3
 72
21
 73
17
 74
0
 42
0.0000001
 43
0.0000001
 44
0.0000000001
 40
0.0
 40
0.0
 40
0.0
 40
0.0
 40
0.1311131519
 40
0.1923536786
 40
0.25118811
 40
0.3081677539
 40
0.3639506325
 40
0.4192703064
 40
0.4748913643
 40
0.5315570172
 40
0.58994541
 40
0.7138724697
 40
0.7803904759
 40
0.8502081298
 40
0.9234360837
 40
1.0
 40
1.0
 40
1.0
 40
1.0
 10
22.1047948447
 20
42.2697223333
 30
0.0
 10
22.3531655646
 20
42.1978639386
 30
0.0
 10
22.7289035159
 20
42.1240988786
 30
0.0
 10
23.2250651719
 20
42.1131172144
 30
0.0
 10
23.5734375892
 20
42.1481944289
 30
0.0
 10
23.903746374
 20
42.2263364661
 30
0.0
 10
24.2136000305
 20
42.3471654973
 30
0.0
 10
24.500618217
 20
42.5098715165
 30
0.0
 10
24.762613664
 20
42.7132074502
 30
0.0
 10
24.9976685154
 20
42.9556212423
 30
0.0
 10
25.2784364211
 20
43.3355839941
 30
0.0
 10
25.4921973652
 20
43.7830046546
 30
0.0
 10
25.640501873
 20
44.2748068726
 30
0.0
 10
25.7221618228
 20
44.6805846425
 30
0.0
 10
25.7708330949
 20
45.1113566269
 30
0.0
 10
25.7810477488
 20
45.4068989946
 30
0.0
 10
25.7809529153
 20
45.5578840074
 30
0.0
  0
SPLINE
  5
336
100
AcDbEntity
  8
0
100
AcDbSpline
 62
7
  6
BYLAYER
 70
0
 71
3
 72
27
 73
23
 74
0
 42
0.0000001
 43
0.0000001
 44
0.0000000001
 40
0.0
 40
0.0
 40
0.0
 40
0.0
 40
0.0626507853
 40
0.1292484422
 40
0.1990776682
 40
0.271255998
 40
0.3447933228
 40
0.4186391137
 40
0.4917297771
 40
0.5630343336
 40
0.6316019489
 40
0.6966133266
 40
0.7574393228
 40
0.8137107561
 40
0.8401370662
 40
0.8654501844
 40
0.8897174736
 40
0.9130378575
 40
0.9355456082
 40
0.9574070644
 40
0.9788190388
 40
1.0
 40
1.0
 40
1.0
 40
1.0
 10
22.6286664402
 20
58.1652467325
 30
0.0
 10
23.0115110754
 20
57.9418761261
 30
0.0
 10
23.7721287938
 20
57.4298616885
 30
0.0
 10
24.8501949274
 20
56.5199897805
 30
0.0
 10
25.8817201554
 20
55.4614293868
 30
0.0
 10
26.844802183
 20
54.2766098428
 30
0.0
 10
27.7192085714
 20
52.9905080562
 30
0.0
 10
28.486419695
 20
51.6303369885
 30
0.0
 10
29.1302064868
 20
50.2248828043
 30
0.0
 10
29.6369540742
 20
48.8038444221
 30
0.0
 10
29.9959631903
 20
47.3971781524
 30
0.0
 10
30.1996026934
 20
46.034234049
 30
0.0
 10
30.2434117755
 20
44.7435506707
 30
0.0
 10
30.1432999522
 20
43.7290985795
 30
0.0
 10
29.9778071937
 20
42.9822741229
 30
0.0
 10
29.8167563447
 20
42.4684613947
 30
0.0
 10
29.6170531841
 20
41.9920552003
 30
0.0
 10
29.3795508358
 20
41.5556663828
 30
0.0
 10
29.1054943578
 20
41.1617001985
 30
0.0
 10
28.7961515793
 20
40.8124790709
 30
0.0
 10
28.4533332779
 20
40.5100648231
 30
0.0
 10
28.2030387793
 20
40.3405179181
 30
0.0
 10
28.0738302278
 20
40.2646191329
 30
0.0
  0
SPLINE
  5
337
100
AcDbEntity
  8
0
100
AcDbSpline
 62
7
  6
BYLAYER
 70
0
 71
3
 72
15
 73
11
 74
0
 42
0.0000001
 43
0.0000001
 44
0.0000000001
 40
0.0
 40
0.0
 40
0.0
 40
0.0
 40
0.1113736274
 40
0.2298857905
 40
0.3541996656
 40
0.4826634786
 40
0.6134292336
 40
0.7445417886
 40
0.8740309515
 40
1.0
 40
1.0
 40
1.0
 40
1.0
 10
23.9574987234
 20
59.4990403054
 30
0.0
 10
24.3739811513
 20
59.2560286584
 30
0.0
 10
25.2011584923
 20
58.697447985
 30
0.0
 10
26.3715407016
 20
57.7025963716
 30
0.0
 10
27.4891293807
 20
56.5437020652
 30
0.0
 10
28.5291522964
 20
55.2463789475
 30
0.0
 10
29.4687993322
 20
53.8391953053
 30
0.0
 10
30.28731314
 20
52.3531733167
 30
0.0
 10
30.9665571056
 20
50.8213395443
 30
0.0
 10
31.3232342005
 20
49.7724103437
 30
0.0
 10
31.47328682
 20
49.2480719959
 30
0.0
  0
SPLINE
  5
338
100
AcDbEntity
  8
0
100
AcDbSpline
 62
7
  6
BYLAYER
 70
0
 71
3
 72
15
 73
11
 74
0
 42
0.0000001
 43
0.0000001
 44
0.0000000001
 40
0.0
 40
0.0
 40
0.0
 40
0.0
 40
0.1299929606
 40
0.2613307917
 40
0.3925752828
 40
0.5222910109
 40
0.6490951176
 40
0.7716980065
 40
0.8889782513
 40
1.0
 40
1.0
 40
1.0
 40
1.0
 10
31.7683701316
 20
51.5479423558
 30
0.0
 10
31.5837302374
 20
52.0003844642
 30
0.0
 10
31.1774639312
 20
52.8960276373
 30
0.0
 10
30.4701220347
 20
54.1926415034
 30
0.0
 10
29.670773044
 20
55.4335190991
 30
0.0
 10
28.7923878824
 20
56.598520895
 30
0.0
 10
27.8491326242
 20
57.6688325829
 30
0.0
 10
26.8561472245
 20
58.6272852942
 30
0.0
 10
25.8295008036
 20
59.4582806059
 30
0.0
 10
25.1120827443
 20
59.9325880153
 30
0.0
 10
24.7516076465
 20
60.1429201719
 30
0.0
  0
SPLINE
  5
339
100
AcDbEntity
  8
0
100
AcDbSpline
 62
7
  6
BYLAYER
 70
0
 71
3
 72
27
 73
23
 74
0
 42
0.0000001
 43
0.0000001
 44
0.0000000001
 40
0.0
 40
0.0
 40
0.0
 40
0.0
 40
0.0212969773
 40
0.0426771899
 40
0.0643798756
 40
0.0866266818
 40
0.1096119837
 40
0.1334965953
 40
0.1584046653
 40
0.1844248466
 40
0.239944964
 40
0.30018667
 40
0.3648344463
 40
0.433276486
 40
0.5046840647
 40
0.5780775539
 40
0.6523836493
 40
0.7264878302
 40
0.7992843324
 40
0.8697281393
 40
0.9368853205
 40
1.0
 40
1.0
 40
1.0
 40
1.0
 10
28.106786936
 20
40.2147236549
 30
0.0
 10
28.2456496872
 20
40.2809639953
 30
0.0
 10
28.5156082972
 20
40.4320256992
 30
0.0
 10
28.8892415159
 20
40.7110904961
 30
0.0
 10
29.2289106379
 20
41.0405863342
 30
0.0
 10
29.5325706453
 20
41.418382996
 30
0.0
 10
29.7986285854
 20
41.8421477728
 30
0.0
 10
30.0256726102
 20
42.3093677917
 30
0.0
 10
30.2126407498
 20
42.8173477959
 30
0.0
 10
30.4114168171
 20
43.5611459703
 30
0.0
 10
30.5482730328
 20
44.5807933643
 30
0.0
 10
30.5395525471
 20
45.8874826466
 30
0.0
 10
30.362587358
 20
47.2758988637
 30
0.0
 10
30.0214941415
 20
48.7158327656
 30
0.0
 10
29.5238576787
 20
50.1760585963
 30
0.0
 10
28.880621399
 20
51.6245391014
 30
0.0
 10
28.1059543671
 20
53.0294016643
 30
0.0
 10
27.2169259206
 20
54.3596731259
 30
0.0
 10
26.2331556018
 20
55.5860298986
 30
0.0
 10
25.1761747786
 20
56.6815310365
 30
0.0
 10
24.0693693738
 20
57.6220050842
 30
0.0
 10
23.2871879973
 20
58.1500999188
 30
0.0
 10
22.8933677348
 20
58.3798742522
 30
0.0
  0
SPLINE
  5
33A
100
AcDbEntity
  8
0
100
AcDbSpline
 62
7
  6
BYLAYER
 70
0
 71
3
 72
25
 73
21
 74
0
 42
0.0000001
 43
0.0000001
 44
0.0000000001
 40
0.0
 40
0.0
 40
0.0
 40
0.0
 40
0.0622758002
 40
0.1285811486
 40
0.1982021431
 40
0.2702616891
 40
0.3437619073
 40
0.4176428344
 40
0.4908271177
 40
0.5622681474
 40
0.6309981623
 40
0.6961807512
 40
0.7571704498
 40
0.8135837454
 40
0.8653848841
 40
0.9129829514
 40
0.9355130992
 40
0.9573900105
 40
0.9788118234
 40
1.0
 40
1.0
 40
1.0
 40
1.0
 10
26.2050233283
 20
45.6051642911
 30
0.0
 10
26.2027445741
 20
45.9053667398
 30
0.0
 10
26.1572465497
 20
46.5252958406
 30
0.0
 10
25.9825271074
 20
47.4662641152
 30
0.0
 10
25.7027999774
 20
48.4306748347
 30
0.0
 10
25.3240949166
 20
49.3978242694
 30
0.0
 10
24.8544782001
 20
50.3471421473
 30
0.0
 10
24.3040152541
 20
51.2582955988
 30
0.0
 10
23.6844860956
 20
52.1117792447
 30
0.0
 10
23.0091412215
 20
52.8893368308
 30
0.0
 10
22.2923667168
 20
53.5743791562
 30
0.0
 10
21.5493003614
 20
54.1523351897
 30
0.0
 10
20.7954566527
 20
54.6109270364
 30
0.0
 10
20.0461130155
 20
54.9402418372
 30
0.0
 10
19.3164992264
 20
55.132706172
 30
0.0
 10
18.7256428652
 20
55.1747281332
 30
0.0
 10
18.2833313933
 20
55.1316863325
 30
0.0
 10
17.97247749
 20
55.0639963993
 30
0.0
 10
17.6785011224
 20
54.9605342522
 30
0.0
 10
17.494420035
 20
54.8678851647
 30
0.0
 10
17.406351475
 20
54.8161477892
 30
0.0
  0
SPLINE
  5
33B
100
AcDbEntity
  8
0
100
AcDbSpline
 62
7
  6
BYLAYER
 70
0
 71
3
 72
15
 73
11
 74
0
 42
0.0000001
 43
0.0000001
 44
0.0000000001
 40
0.0
 40
0.0
 40
0.0
 40
0.0
 40
0.149166542
 40
0.2905084625
 40
0.4239646815
 40
0.54993993
 40
0.6691733038
 40
0.7828238847
 40
0.8924635483
 40
1.0
 40
1.0
 40
1.0
 40
1.0
 10
24.7075411933
 20
60.1684968548
 30
0.0
 10
24.4445793767
 20
60.3203144958
 30
0.0
 10
23.9199077206
 20
60.5950749385
 30
0.0
 10
23.1200596529
 20
60.922762284
 30
0.0
 10
22.3353057894
 20
61.1517926172
 30
0.0
 10
21.5731536701
 20
61.2796351411
 30
0.0
 10
20.840729685
 20
61.3045486756
 30
0.0
 10
20.1451693541
 20
61.2255286082
 30
0.0
 10
19.4939744225
 20
61.0427084886
 30
0.0
 10
19.0924672955
 20
60.8515978333
 30
0.0
 10
18.9037231155
 20
60.7407266008
 30
0.0
  0
SPLINE
  5
33C
100
AcDbEntity
  8
0
100
AcDbSpline
 62
7
  6
BYLAYER
 70
0
 71
3
 72
21
 73
17
 74
0
 42
0.0000001
 43
0.0000001
 44
0.0000000001
 40
0.0
 40
0.0
 40
0.0
 40
0.0
 40
0.0588244061
 40
0.1161051206
 40
0.1722744304
 40
0.2278086891
 40
0.2832138025
 40
0.3390008645
 40
0.3956640474
 40
0.4536593557
 40
0.5133903104
 40
0.5751963742
 40
0.639348431
 40
0.7060430777
 40
0.8474796078
 40
1.0
 40
1.0
 40
1.0
 40
1.0
 10
16.8700535595
 20
58.7571675628
 30
0.0
 10
16.953065998
 20
58.8880354774
 30
0.0
 10
17.1299050522
 20
59.1384186862
 30
0.0
 10
17.4305815081
 20
59.479573288
 30
0.0
 10
17.7612764234
 20
59.7791033431
 30
0.0
 10
18.1204950949
 20
60.0353757594
 30
0.0
 10
18.5064588095
 20
60.2471919777
 30
0.0
 10
18.917307828
 20
60.4134633782
 30
0.0
 10
19.351001333
 20
60.5334845953
 30
0.0
 10
19.8054524503
 20
60.6067554722
 30
0.0
 10
20.2785150088
 20
60.6330429717
 30
0.0
 10
20.76800782
 20
60.6123548135
 30
0.0
 10
21.2717159634
 20
60.5448553142
 30
0.0
 10
21.9728927674
 20
60.3900241154
 30
0.0
 10
22.8733116585
 20
60.0755997582
 30
0.0
 10
23.566271836
 20
59.7250430955
 30
0.0
 10
23.9142621319
 20
59.5241353497
 30
0.0
  0
SPLINE
  5
33D
100
AcDbEntity
  8
0
100
AcDbSpline
 62
7
  6
BYLAYER
 70
0
 71
3
 72
15
 73
11
 74
0
 42
0.0000001
 43
0.0000001
 44
0.0000000001
 40
0.0
 40
0.0
 40
0.0
 40
0.0
 40
0.1075364723
 40
0.2171761502
 40
0.3308267137
 40
0.4500600472
 40
0.576035368
 40
0.7094915859
 40
0.8508332799
 40
1.0
 40
1.0
 40
1.0
 40
1.0
 10
17.234736476
 20
58.7165319118
 30
0.0
 10
17.4088369248
 20
58.8188007819
 30
0.0
 10
17.7791921113
 20
58.9950851352
 30
0.0
 10
18.3798638393
 20
59.163719521
 30
0.0
 10
19.0214580229
 20
59.2366092659
 30
0.0
 10
19.6970561302
 20
59.2136290674
 30
0.0
 10
20.4000757029
 20
59.0957046445
 30
0.0
 10
21.1239432419
 20
58.8844441978
 30
0.0
 10
21.8617342066
 20
58.5821812273
 30
0.0
 10
22.3456983892
 20
58.3287382173
 30
0.0
 10
22.5882582878
 20
58.1886993626
 30
0.0
  0
SPLINE
  5
33E
100
AcDbEntity
  8
0
100
AcDbSpline
 62
7
  6
BYLAYER
 70
0
 71
3
 72
15
 73
11
 74
0
 42
0.0000001
 43
0.0000001
 44
0.0000000001
 40
0.0
 40
0.0
 40
0.0
 40
0.0
 40
0.1486193931
 40
0.2895557952
 40
0.4227480141
 40
0.5486316409
 40
0.6679730156
 40
0.7819059978
 40
0.8919657026
 40
1.0
 40
1.0
 40
1.0
 40
1.0
 10
26.8415864167
 20
45.9318874704
 30
0.0
 10
26.8417021292
 20
45.7476607943
 30
0.0
 10
26.8271766712
 20
45.3884787142
 30
0.0
 10
26.7573389195
 20
44.8682994667
 30
0.0
 10
26.6403565871
 20
44.3854055455
 30
0.0
 10
26.4771266744
 20
43.9443725186
 30
0.0
 10
26.2689245761
 20
43.5492634321
 30
0.0
 10
26.0172094565
 20
43.2040393717
 30
0.0
 10
25.7243064013
 20
42.9124411466
 30
0.0
 10
25.5024405944
 20
42.7553233721
 30
0.0
 10
25.3869733884
 20
42.6874901954
 30
0.0
  0
SPLINE
  5
33F
100
AcDbEntity
  8
0
100
AcDbSpline
 62
7
  6
BYLAYER
 70
0
 71
3
 72
27
 73
23
 74
0
 42
0.0000001
 43
0.0000001
 44
0.0000000001
 40
0.0
 40
0.0
 40
0.0
 40
0.0
 40
0.0211827149
 40
0.0425974882
 40
0.0644637331
 40
0.0869790254
 40
0.1103102259
 40
0.1345919036
 40
0.1599230084
 40
0.1863707612
 40
0.2426938195
 40
0.3035796005
 40
0.3686534836
 40
0.4372800879
 40
0.5086336054
 40
0.5817568612
 40
0.6556129557
 40
0.7291332767
 40
0.8012631972
 40
0.8710110091
 40
0.9374941163
 40
1.0
 40
1.0
 40
1.0
 40
1.0
 10
27.7000536966
 20
40.0450578966
 30
0.0
 10
27.8295567388
 20
40.1211301662
 30
0.0
 10
28.0804070943
 20
40.29110692
 30
0.0
 10
28.4239000272
 20
40.5943830891
 30
0.0
 10
28.7337552283
 20
40.9446696799
 30
0.0
 10
29.0081491042
 20
41.339890553
 30
0.0
 10
29.2458098677
 20
41.7777039856
 30
0.0
 10
29.4454846326
 20
42.255687495
 30
0.0
 10
29.606319707
 20
42.7712095215
 30
0.0
 10
29.7712626144
 20
43.5205404233
 30
0.0
 10
29.8701702946
 20
44.5383165672
 30
0.0
 10
29.8242146268
 20
45.8330046614
 30
0.0
 10
29.6177501301
 20
47.1998921868
 30
0.0
 10
29.2553157982
 20
48.6102277401
 30
0.0
 10
28.7446486456
 20
50.0344502583
 30
0.0
 10
28.0965788894
 20
51.4424003469
 30
0.0
 10
27.3248732975
 20
52.8041932148
 30
0.0
 10
26.4459290401
 20
54.0908782718
 30
0.0
 10
25.4784430262
 20
55.2751116798
 30
0.0
 10
24.4428265069
 20
56.3318191889
 30
0.0
 10
23.3611631395
 20
57.2385102482
 30
0.0
 10
22.5982993833
 20
57.7475439552
 30
0.0
 10
22.2144835087
 20
57.9691351407
 30
0.0
  0
SPLINE
  5
340
100
AcDbEntity
  8
0
100
AcDbSpline
 62
7
  6
BYLAYER
 70
0
 71
3
 72
15
 73
11
 74
0
 42
0.0000001
 43
0.0000001
 44
0.0000000001
 40
0.0
 40
0.0
 40
0.0
 40
0.0
 40
0.149166589
 40
0.2905087126
 40
0.4239651853
 40
0.5499405268
 40
0.669173543
 40
0.7828236785
 40
0.8924634132
 40
1.0
 40
1.0
 40
1.0
 40
1.0
 10
22.2144835087
 20
57.9691351407
 30
0.0
 10
21.9719238933
 20
58.1091738318
 30
0.0
 10
21.487959209
 20
58.3626167624
 30
0.0
 10
20.7501675491
 20
58.6648800885
 30
0.0
 10
20.0262988479
 20
58.8761408291
 30
0.0
 10
19.323279235
 20
58.9940630327
 30
0.0
 10
18.64768277
 20
59.0170440113
 30
0.0
 10
18.0060900416
 20
58.9441535033
 30
0.0
 10
17.405419457
 20
58.7755179666
 30
0.0
 10
17.0350637413
 20
58.59923415
 30
0.0
 10
16.8609634491
 20
58.4969647042
 30
0.0
  0
SPLINE
  5
341
100
AcDbEntity
  8
0
100
AcDbSpline
 62
7
  6
BYLAYER
 70
0
 71
3
 72
15
 73
11
 74
0
 42
0.0000001
 43
0.0000001
 44
0.0000000001
 40
0.0
 40
0.0
 40
0.0
 40
0.0
 40
0.1080342974
 40
0.2180940022
 40
0.3320269844
 40
0.4513683591
 40
0.5772519859
 40
0.7104442048
 40
0.8513806069
 40
1.0
 40
1.0
 40
1.0
 40
1.0
 10
24.7506041669
 20
42.3136717335
 30
0.0
 10
24.8660713728
 20
42.3815049103
 30
0.0
 10
25.0879371797
 20
42.5386226848
 30
0.0
 10
25.3808402349
 20
42.8302209098
 30
0.0
 10
25.6325553545
 20
43.1754449702
 30
0.0
 10
25.8407574528
 20
43.5705540568
 30
0.0
 10
26.0039873656
 20
44.0115870837
 30
0.0
 10
26.1209696979
 20
44.4944810049
 30
0.0
 10
26.1908074497
 20
45.0146602523
 30
0.0
 10
26.2053329077
 20
45.3738423324
 30
0.0
 10
26.2052171951
 20
45.5580690085
 30
0.0
  0
SPLINE
  5
342
100
AcDbEntity
  8
0
100
AcDbSpline
 62
7
  6
BYLAYER
 70
0
 71
3
 72
22
 73
18
 74
0
 42
0.0000001
 43
0.0000001
 44
0.0000000001
 40
0.0
 40
0.0
 40
0.0
 40
0.0
 40
0.0769035212
 40
0.1506100855
 40
0.2881464141
 40
0.3523912354
 40
0.4139181177
 40
0.4731099992
 40
0.5304686118
 40
0.586588628
 40
0.6421356062
 40
0.697808875
 40
0.7543006452
 40
0.8122560127
 40
0.8722352032
 40
0.9347007573
 40
1.0
 40
1.0
 40
1.0
 40
1.0
 10
27.9729570535
 20
45.9323812617
 30
0.0
 10
27.9730622226
 20
45.7649409283
 30
0.0
 10
27.9622085868
 20
45.4368176294
 30
0.0
 10
27.8949371543
 20
44.8127674739
 30
0.0
 10
27.759393776
 20
44.2244791102
 30
0.0
 10
27.5483791654
 20
43.6904768168
 30
0.0
 10
27.3607722059
 20
43.3331522752
 30
0.0
 10
27.1412028481
 20
43.0124478747
 30
0.0
 10
26.891026194
 20
42.7304176989
 30
0.0
 10
26.6116711135
 20
42.4891245117
 30
0.0
 10
26.3050522993
 20
42.2901798246
 30
0.0
 10
25.9731858269
 20
42.1351155111
 30
0.0
 10
25.6184436413
 20
42.0248036617
 30
0.0
 10
25.2432126924
 20
41.9599936321
 30
0.0
 10
24.8499826769
 20
41.940794701
 30
0.0
 10
24.4412954176
 20
41.967283765
 30
0.0
 10
24.1665294542
 20
42.0140234459
 30
0.0
 10
24.027624726
 20
42.0443401065
 30
0.0
  0
SPLINE
  5
343
100
AcDbEntity
  8
0
100
AcDbSpline
 62
7
  6
BYLAYER
 70
0
 71
3
 72
25
 73
21
 74
0
 42
0.0000001
 43
0.0000001
 44
0.0000000001
 40
0.0
 40
0.0
 40
0.0
 40
0.0
 40
0.0211881766
 40
0.0426099895
 40
0.0644869008
 40
0.0870170486
 40
0.1346151159
 40
0.1864162546
 40
0.2428295502
 40
0.3038192488
 40
0.3690018377
 40
0.4377318526
 40
0.5091728823
 40
0.5823571656
 40
0.6562380927
 40
0.7297383109
 40
0.8017978569
 40
0.8714188514
 40
0.9377241998
 40
1.0
 40
1.0
 40
1.0
 40
1.0
 10
18.0427206966
 20
55.1899662511
 30
0.0
 10
18.1307892566
 20
55.2417036266
 30
0.0
 10
18.314870344
 20
55.334352714
 30
0.0
 10
18.6088467116
 20
55.4378148612
 30
0.0
 10
18.9197006148
 20
55.5055047943
 30
0.0
 10
19.3620120868
 20
55.5485465951
 30
0.0
 10
19.952868448
 20
55.5065246338
 30
0.0
 10
20.682482237
 20
55.3140602991
 30
0.0
 10
21.4318258743
 20
54.9847454982
 30
0.0
 10
22.1856695829
 20
54.5261536515
 30
0.0
 10
22.9287359384
 20
53.9481976181
 30
0.0
 10
23.6455104431
 20
53.2631552927
 30
0.0
 10
24.3208553172
 20
52.4855977066
 30
0.0
 10
24.9403844757
 20
51.6321140607
 30
0.0
 10
25.4908474217
 20
50.7209606092
 30
0.0
 10
25.9604641382
 20
49.7716427313
 30
0.0
 10
26.339169199
 20
48.8044932965
 30
0.0
 10
26.618896329
 20
47.8400825771
 30
0.0
 10
26.7936157713
 20
46.8991143024
 30
0.0
 10
26.8391137957
 20
46.2791852016
 30
0.0
 10
26.8413925498
 20
45.9789827529
 30
0.0
  0
SPLINE
  5
344
100
AcDbEntity
  8
0
100
AcDbSpline
 62
7
  6
BYLAYER
 70
0
 71
3
 72
11
 73
7
 74
0
 42
0.0000001
 43
0.0000001
 44
0.0000000001
 40
0.0
 40
0.0
 40
0.0
 40
0.0
 40
0.2187370765
 40
0.4522702605
 40
0.7113463774
 40
1.0
 40
1.0
 40
1.0
 40
1.0
 10
11.7626288385
 20
51.8096084082
 30
0.0
 10
11.7142788605
 20
51.8375474365
 30
0.0
 10
11.6236541994
 20
51.9130105148
 30
0.0
 10
11.526015885
 20
52.0689950555
 30
0.0
 10
11.4665344707
 20
52.2611914743
 30
0.0
 10
11.4532338177
 20
52.4013034547
 30
0.0
 10
11.452110202
 20
52.4749858505
 30
0.0
  0
SPLINE
  5
345
100
AcDbEntity
  8
0
100
AcDbSpline
 62
7
  6
BYLAYER
 70
0
 71
3
 72
11
 73
7
 74
0
 42
0.0000001
 43
0.0000001
 44
0.0000000001
 40
0.0
 40
0.0
 40
0.0
 40
0.0
 40
0.2660843817
 40
0.5233093365
 40
0.7687441207
 40
1.0
 40
1.0
 40
1.0
 40
1.0
 10
14.2667753574
 20
69.228192792
 30
0.0
 10
13.8416719131
 20
68.256090654
 30
0.0
 10
13.0818649686
 20
66.3096776919
 30
0.0
 10
12.2141644731
 20
63.3656263422
 30
0.0
 10
11.6491752874
 20
60.4898752118
 30
0.0
 10
11.4760268189
 20
58.5923674826
 30
0.0
 10
11.4481810262
 20
57.6706756135
 30
0.0
  0
SPLINE
  5
346
100
AcDbEntity
  8
0
100
AcDbSpline
 62
7
  6
BYLAYER
 70
0
 71
3
 72
11
 73
7
 74
0
 42
0.0000001
 43
0.0000001
 44
0.0000000001
 40
0.0
 40
0.0
 40
0.0
 40
0.0
 40
0.2343548633
 40
0.4937547945
 40
0.7565082598
 40
1.0
 40
1.0
 40
1.0
 40
1.0
 10
35.5459165816
 20
44.5144151311
 30
0.0
 10
35.5459165816
 20
44.5951750468
 30
0.0
 10
35.5741888421
 20
44.7654692215
 30
0.0
 10
35.6745234551
 20
45.0079533498
 30
0.0
 10
35.8234840593
 20
45.2278181612
 30
0.0
 10
35.9517026608
 20
45.3492784713
 30
0.0
 10
36.0204557577
 20
45.3973789215
 30
0.0
  0
SPLINE
  5
347
100
AcDbEntity
  8
0
100
AcDbSpline
 62
7
  6
BYLAYER
 70
0
 71
3
 72
11
 73
7
 74
0
 42
0.0000001
 43
0.0000001
 44
0.0000000001
 40
0.0
 40
0.0
 40
0.0
 40
0.0
 40
0.2559658765
 40
0.5180122696
 40
0.7706041832
 40
1.0
 40
1.0
 40
1.0
 40
1.0
 10
36.2742629067
 20
41.2464515949
 30
0.0
 10
36.3562428919
 20
41.330120355
 30
0.0
 10
36.5055976751
 20
41.5161971187
 30
0.0
 10
36.6770096823
 20
41.8262637311
 30
0.0
 10
36.7886665969
 20
42.149710485
 30
0.0
 10
36.8187034886
 20
42.3705292397
 30
0.0
 10
36.8187034886
 20
42.4755074448
 30
0.0
  0
SPLINE
  5
348
100
AcDbEntity
  8
0
100
AcDbSpline
 62
7
  6
BYLAYER
 70
0
 71
3
 72
11
 73
7
 74
0
 42
0.0000001
 43
0.0000001
 44
0.0000000001
 40
0.0
 40
0.0
 40
0.0
 40
0.0
 40
0.2419969573
 40
0.489575942
 40
0.7423770532
 40
1.0
 40
1.0
 40
1.0
 40
1.0
 10
36.0200771604
 20
45.3975192595
 30
0.0
 10
38.6618693274
 20
47.2471574832
 30
0.0
 10
43.9246070969
 20
51.10722009
 30
0.0
 10
51.6542117903
 20
57.2861864617
 30
0.0
 10
59.289328678
 20
63.9038889814
 30
0.0
 10
64.2565796533
 20
68.5536688522
 30
0.0
 10
66.7195770404
 20
70.9453922187
 30
0.0
  0
SPLINE
  5
349
100
AcDbEntity
  8
0
100
AcDbSpline
 62
7
  6
BYLAYER
 70
0
 71
3
 72
16
 73
12
 74
0
 42
0.0000001
 43
0.0000001
 44
0.0000000001
 40
0.0
 40
0.0
 40
0.0
 40
0.0
 40
0.044685464
 40
0.0902998374
 40
0.18705701
 40
0.2952535857
 40
0.4166248225
 40
0.550562775
 40
0.6947661546
 40
0.8459503207
 40
1.0
 40
1.0
 40
1.0
 40
1.0
 10
67.0016986985
 20
86.23970568
 30
0.0
 10
67.0016774022
 20
86.2889770473
 30
0.0
 10
66.9927309498
 20
86.3887589798
 30
0.0
 10
66.9388119644
 20
86.5887694088
 30
0.0
 10
66.8001064459
 20
86.8331325588
 30
0.0
 10
66.543419278
 20
87.0897641813
 30
0.0
 10
66.205418923
 20
87.3095317068
 30
0.0
 10
65.7994445921
 20
87.4848858277
 30
0.0
 10
65.341360892
 20
87.6097323435
 30
0.0
 10
64.8494925954
 20
87.6789921597
 30
0.0
 10
64.5121003051
 20
87.6863851461
 30
0.0
 10
64.3423564598
 20
87.6801250308
 30
0.0
  0
SPLINE
  5
34A
100
AcDbEntity
  8
0
100
AcDbSpline
 62
7
  6
BYLAYER
 70
0
 71
3
 72
11
 73
7
 74
0
 42
0.0000001
 43
0.0000001
 44
0.0000000001
 40
0.0
 40
0.0
 40
0.0
 40
0.0
 40
0.2329016997
 40
0.4785349086
 40
0.735007088
 40
1.0
 40
1.0
 40
1.0
 40
1.0
 10
31.0808291426
 20
46.3360170101
 30
0.0
 10
31.0934683273
 20
47.1794407653
 30
0.0
 10
31.2155012299
 20
48.9118674955
 30
0.0
 10
31.6558945396
 20
51.5406984423
 30
0.0
 10
32.3516328987
 20
54.2337040236
 30
0.0
 10
32.9704545709
 20
56.0204642344
 30
0.0
 10
33.3185218306
 20
56.9148696477
 30
0.0
  0
SPLINE
  5
34B
100
AcDbEntity
  8
0
100
AcDbSpline
 62
7
  6
BYLAYER
 70
0
 71
3
 72
18
 73
14
 74
0
 42
0.0000001
 43
0.0000001
 44
0.0000000001
 40
0.0
 40
0.0
 40
0.0
 40
0.0
 40
0.044205115
 40
0.0893971775
 40
0.1364550313
 40
0.1860849532
 40
0.2387762926
 40
0.2948171856
 40
0.4170303475
 40
0.551919124
 40
0.6967245291
 40
0.8475672309
 40
1.0
 40
1.0
 40
1.0
 40
1.0
 10
64.3429592249
 20
84.3005460795
 30
0.0
 10
64.3429570916
 20
84.2344971781
 30
0.0
 10
64.330442809
 20
84.1006029012
 30
0.0
 10
64.274477106
 20
83.9034918956
 30
0.0
 10
64.1824499321
 20
83.711463237
 30
0.0
 10
64.0555786457
 20
83.526876404
 30
0.0
 10
63.895682099
 20
83.3515600782
 30
0.0
 10
63.6333427556
 20
83.1263126212
 30
0.0
 10
63.2304951311
 20
82.8820057218
 30
0.0
 10
62.6697041448
 20
82.6611295016
 30
0.0
 10
62.041631618
 20
82.5129631243
 30
0.0
 10
61.3740571668
 20
82.4439679456
 30
0.0
 10
60.9196427282
 20
82.4527899436
 30
0.0
 10
60.6926509863
 20
82.4714426515
 30
0.0
  0
SPLINE
  5
34C
100
AcDbEntity
  8
0
100
AcDbSpline
 62
7
  6
BYLAYER
 70
0
 71
3
 72
22
 73
18
 74
0
 42
0.0000001
 43
0.0000001
 44
0.0000000001
 40
0.0
 40
0.0
 40
0.0
 40
0.0
 40
0.0437387637
 40
0.0885581037
 40
0.1354130165
 40
0.1850450079
 40
0.2379513711
 40
0.2943938017
 40
0.3544235927
 40
0.4179166558
 40
0.4846072721
 40
0.554114074
 40
0.6259645506
 40
0.6996185893
 40
0.7744860479
 40
0.8499442702
 40
1.0
 40
1.0
 40
1.0
 40
1.0
 10
18.5004016001
 20
61.405275092
 30
0.0
 10
18.7284672315
 20
61.5369607009
 30
0.0
 10
19.2179109659
 20
61.7584322231
 30
0.0
 10
20.0156563601
 20
61.9473429898
 30
0.0
 10
20.8693634831
 20
61.9935110858
 30
0.0
 10
21.767151091
 20
61.8977606054
 30
0.0
 10
22.6979313284
 20
61.6626414528
 30
0.0
 10
23.650413248
 20
61.2918248596
 30
0.0
 10
24.6131278453
 20
60.7903938876
 30
0.0
 10
25.5743840975
 20
60.1648294004
 30
0.0
 10
26.5223499261
 20
59.422989107
 30
0.0
 10
27.4452495846
 20
58.574171549
 30
0.0
 10
28.3315997929
 20
57.6290571187
 30
0.0
 10
29.1702620612
 20
56.5995420742
 30
0.0
 10
29.9507430644
 20
55.4984273359
 30
0.0
 10
30.8984207792
 20
53.9570321501
 30
0.0
 10
31.4969015201
 20
52.7324348256
 30
0.0
 10
31.8378241683
 20
51.8957315421
 30
0.0
  0
SPLINE
  5
34D
100
AcDbEntity
  8
0
100
AcDbSpline
 62
7
  6
BYLAYER
 70
0
 71
3
 72
11
 73
7
 74
0
 42
0.0000001
 43
0.0000001
 44
0.0000000001
 40
0.0
 40
0.0
 40
0.0
 40
0.0
 40
0.2187370765
 40
0.4522702605
 40
0.7113463774
 40
1.0
 40
1.0
 40
1.0
 40
1.0
 10
31.4202791975
 20
40.4605154326
 30
0.0
 10
31.3719292196
 20
40.4884544608
 30
0.0
 10
31.2813045585
 20
40.5639175392
 30
0.0
 10
31.1836662441
 20
40.7199020798
 30
0.0
 10
31.1241848298
 20
40.9120984986
 30
0.0
 10
31.1108841768
 20
41.052210479
 30
0.0
 10
31.1097605611
 20
41.1258928748
 30
0.0
  0
SPLINE
  5
34E
100
AcDbEntity
  8
0
100
AcDbSpline
 62
7
  6
BYLAYER
 70
0
 71
3
 72
13
 73
9
 74
0
 42
0.0000001
 43
0.0000001
 44
0.0000000001
 40
0.0
 40
0.0
 40
0.0
 40
0.0
 40
0.0983922518
 40
0.2006744223
 40
0.3100438509
 40
0.4285711801
 40
0.6955457144
 40
1.0
 40
1.0
 40
1.0
 40
1.0
 10
33.541608373
 20
39.235793169
 30
0.0
 10
33.5777508526
 20
39.214908242
 30
0.0
 10
33.6572385647
 20
39.1816192353
 30
0.0
 10
33.7883095187
 20
39.1612811574
 30
0.0
 10
33.9290680447
 20
39.1700329968
 30
0.0
 10
34.1336250167
 20
39.2214146533
 30
0.0
 10
34.3960406773
 20
39.3596962313
 30
0.0
 10
34.5812918585
 20
39.5186056062
 30
0.0
 10
34.6716889777
 20
39.6108648921
 30
0.0
  0
SPLINE
  5
34F
100
AcDbEntity
  8
0
100
AcDbSpline
 62
7
  6
BYLAYER
 70
0
 71
3
 72
11
 73
7
 74
0
 42
0.0000001
 43
0.0000001
 44
0.0000000001
 40
0.0
 40
0.0
 40
0.0
 40
0.0
 40
0.2392498658
 40
0.4840367069
 40
0.7368715487
 40
1.0
 40
1.0
 40
1.0
 40
1.0
 10
66.9966443366
 20
82.1468440346
 30
0.0
 10
66.9616119219
 20
81.8301754723
 30
0.0
 10
66.8449210509
 20
81.1937480335
 30
0.0
 10
66.5372570091
 20
80.2590426689
 30
0.0
 10
66.0980690351
 20
79.3432801623
 30
0.0
 10
65.7280851799
 20
78.7622308603
 30
0.0
 10
65.5242941338
 20
78.4771896991
 30
0.0
  0
LINE
  5
350
100
AcDbEntity
  8
0
100
AcDbLine
 62
7
  6
BYLAYER
 10
68.0664492272
 20
75.3756255734
 11
68.1460057336
 21
72.2826941992
  0
SPLINE
  5
351
100
AcDbEntity
  8
0
100
AcDbSpline
 62
7
  6
BYLAYER
 70
0
 71
3
 72
11
 73
7
 74
0
 42
0.0000001
 43
0.0000001
 44
0.0000000001
 40
0.0
 40
0.0
 40
0.0
 40
0.0
 40
0.2599239098
 40
0.5151719748
 40
0.7627537071
 40
1.0
 40
1.0
 40
1.0
 40
1.0
 10
64.3423564598
 20
87.6801250308
 30
0.0
 10
63.4408743498
 20
87.6468785707
 30
0.0
 10
61.6558736649
 20
87.5110265099
 30
0.0
 10
59.0380618883
 20
87.0984734873
 30
0.0
 10
56.5405369124
 20
86.4857732845
 30
0.0
 10
54.946477177
 20
85.9375551546
 30
0.0
 10
54.1825924002
 20
85.6302267551
 30
0.0
  0
SPLINE
  5
352
100
AcDbEntity
  8
0
100
AcDbSpline
 62
7
  6
BYLAYER
 70
0
 71
3
 72
11
 73
7
 74
0
 42
0.0000001
 43
0.0000001
 44
0.0000000001
 40
0.0
 40
0.0
 40
0.0
 40
0.0
 40
0.2325988465
 40
0.4784216284
 40
0.7351621575
 40
1.0
 40
1.0
 40
1.0
 40
1.0
 10
33.1771849698
 20
45.1257130249
 30
0.0
 10
33.1772040393
 20
46.0612459027
 30
0.0
 10
33.2946236835
 20
47.9866912991
 30
0.0
 10
33.782517039
 20
50.9076473994
 30
0.0
 10
34.5776807812
 20
53.8943480168
 30
0.0
 10
35.2945432262
 20
55.8690989612
 30
0.0
 10
35.6992400829
 20
56.8544280877
 30
0.0
  0
SPLINE
  5
353
100
AcDbEntity
  8
0
100
AcDbSpline
 62
7
  6
BYLAYER
 70
0
 71
3
 72
11
 73
7
 74
0
 42
0.0000001
 43
0.0000001
 44
0.0000000001
 40
0.0
 40
0.0
 40
0.0
 40
0.0
 40
0.2886536226
 40
0.5477297395
 40
0.7812629235
 40
1.0
 40
1.0
 40
1.0
 40
1.0
 10
33.2310897365
 20
39.9011706113
 30
0.0
 10
33.2322133523
 20
39.8274882154
 30
0.0
 10
33.2455140053
 20
39.6873762351
 30
0.0
 10
33.3049954196
 20
39.4951798163
 30
0.0
 10
33.4026337339
 20
39.3391952756
 30
0.0
 10
33.493258395
 20
39.2637321973
 30
0.0
 10
33.541608373
 20
39.235793169
 30
0.0
  0
SPLINE
  5
354
100
AcDbEntity
  8
0
100
AcDbSpline
 62
7
  6
BYLAYER
 70
0
 71
3
 72
11
 73
7
 74
0
 42
0.0000001
 43
0.0000001
 44
0.0000000001
 40
0.0
 40
0.0
 40
0.0
 40
0.0
 40
0.2309519792
 40
0.470335962
 40
0.7250962608
 40
1.0
 40
1.0
 40
1.0
 40
1.0
 10
57.9429878861
 20
84.3005460822
 30
0.0
 10
57.9429888734
 20
84.3856912476
 30
0.0
 10
57.9641731882
 20
84.5597414022
 30
0.0
 10
58.0576182352
 20
84.8124372384
 30
0.0
 10
58.2098441554
 20
85.0537109233
 30
0.0
 10
58.3426360333
 20
85.198291237
 30
0.0
 10
58.4164944338
 20
85.2676924769
 30
0.0
  0
SPLINE
  5
355
100
AcDbEntity
  8
0
100
AcDbSpline
 62
7
  6
BYLAYER
 70
0
 71
3
 72
11
 73
7
 74
0
 42
0.0000001
 43
0.0000001
 44
0.0000000001
 40
0.0
 40
0.0
 40
0.0
 40
0.0
 40
0.2649929113
 40
0.5214650903
 40
0.7670982994
 40
1.0
 40
1.0
 40
1.0
 40
1.0
 10
15.782200647
 20
67.0392403598
 30
0.0
 10
15.4341333995
 20
66.1448349778
 30
0.0
 10
14.8153117465
 20
64.3580748293
 30
0.0
 10
14.1195733974
 20
61.665069341
 30
0.0
 10
13.6791800861
 20
59.0362384796
 30
0.0
 10
13.5571471528
 20
57.3038118032
 30
0.0
 10
13.5445079642
 20
56.4603880718
 30
0.0
  0
SPLINE
  5
356
100
AcDbEntity
  8
0
100
AcDbSpline
 62
7
  6
BYLAYER
 70
0
 71
3
 72
9
 73
5
 74
0
 42
0.0000001
 43
0.0000001
 44
0.0000000001
 40
0.0
 40
0.0
 40
0.0
 40
0.0
 40
0.2604110849
 40
1.0
 40
1.0
 40
1.0
 40
1.0
 10
13.5734393774
 20
51.2502635869
 30
0.0
 10
13.5737559643
 20
51.2295030398
 30
0.0
 10
13.5767977665
 20
51.1498328782
 30
0.0
 10
13.587334282
 20
51.0703434267
 30
0.0
 10
13.6002501896
 20
51.0128067824
 30
0.0
  0
SPLINE
  5
357
100
AcDbEntity
  8
0
100
AcDbSpline
 62
7
  6
BYLAYER
 70
0
 71
3
 72
9
 73
5
 74
0
 42
0.0000001
 43
0.0000001
 44
0.0000000001
 40
0.0
 40
0.0
 40
0.0
 40
0.0
 40
0.2468854841
 40
1.0
 40
1.0
 40
1.0
 40
1.0
 10
64.3290297768
 20
84.0401142876
 30
0.0
 10
64.3258628295
 20
84.0596384497
 30
0.0
 10
64.3108888271
 20
84.1383628291
 30
0.0
 10
64.2873792721
 20
84.2154176357
 30
0.0
 10
64.2655521674
 20
84.2716672977
 30
0.0
  0
SPLINE
  5
358
100
AcDbEntity
  8
0
100
AcDbSpline
 62
7
  6
BYLAYER
 70
0
 71
3
 72
9
 73
5
 74
0
 42
0.0000001
 43
0.0000001
 44
0.0000000001
 40
0.0
 40
0.0
 40
0.0
 40
0.0
 40
0.4842030897
 40
1.0
 40
1.0
 40
1.0
 40
1.0
 10
64.2655521674
 20
84.2716672977
 30
0.0
 10
64.2360976787
 20
84.3475731519
 30
0.0
 10
64.1594614694
 20
84.4984967518
 30
0.0
 10
64.05792889
 20
84.6335422746
 30
0.0
 10
64.0009123406
 20
84.6989005932
 30
0.0
  0
SPLINE
  5
359
100
AcDbEntity
  8
0
100
AcDbSpline
 62
7
  6
BYLAYER
 70
0
 71
3
 72
13
 73
9
 74
0
 42
0.0000001
 43
0.0000001
 44
0.0000000001
 40
0.0
 40
0.0
 40
0.0
 40
0.0
 40
0.2750614189
 40
0.529711276
 40
0.6509589052
 40
0.7691042068
 40
0.885100976
 40
1.0
 40
1.0
 40
1.0
 40
1.0
 10
16.2172028487
 20
57.9777058428
 30
0.0
 10
16.303592033
 20
58.3562753621
 30
0.0
 10
16.5242310662
 20
59.0747868598
 30
0.0
 10
16.9510341509
 20
59.8958372932
 30
0.0
 10
17.3678869665
 20
60.4565470515
 30
0.0
 10
17.7107808587
 20
60.8243128485
 30
0.0
 10
18.0872264081
 20
61.1439316378
 30
0.0
 10
18.359933902
 20
61.3241687269
 30
0.0
 10
18.5004016001
 20
61.405275092
 30
0.0
  0
SPLINE
  5
35A
100
AcDbEntity
  8
0
100
AcDbSpline
 62
7
  6
BYLAYER
 70
0
 71
3
 72
11
 73
7
 74
0
 42
0.0000001
 43
0.0000001
 44
0.0000000001
 40
0.0
 40
0.0
 40
0.0
 40
0.0
 40
0.2746384194
 40
0.5292767468
 40
0.7687823086
 40
1.0
 40
1.0
 40
1.0
 40
1.0
 10
63.8765361248
 20
85.2610381463
 30
0.0
 10
63.9493567465
 20
85.1919686509
 30
0.0
 10
64.08024444
 20
85.0481676097
 30
0.0
 10
64.2301162525
 20
84.8084984385
 30
0.0
 10
64.3221488145
 20
84.5577142606
 30
0.0
 10
64.3429619541
 20
84.3850445078
 30
0.0
 10
64.3429592249
 20
84.3005460795
 30
0.0
  0
SPLINE
  5
35B
100
AcDbEntity
  8
0
100
AcDbSpline
 62
7
  6
BYLAYER
 70
0
 71
3
 72
9
 73
5
 74
0
 42
0.0000001
 43
0.0000001
 44
0.0000000001
 40
0.0
 40
0.0
 40
0.0
 40
0.0
 40
0.2424673674
 40
1.0
 40
1.0
 40
1.0
 40
1.0
 10
36.8187034886
 20
43.7138892157
 30
0.0
 10
36.8033508626
 20
43.7111177147
 30
0.0
 10
36.7402839341
 20
43.6983121446
 30
0.0
 10
36.6783264169
 20
43.6802298355
 30
0.0
 10
36.6323204385
 20
43.6641321869
 30
0.0
  0
SPLINE
  5
35C
100
AcDbEntity
  8
0
100
AcDbSpline
 62
7
  6
BYLAYER
 70
0
 71
3
 72
9
 73
5
 74
0
 42
0.0000001
 43
0.0000001
 44
0.0000000001
 40
0.0
 40
0.0
 40
0.0
 40
0.0
 40
0.2431192924
 40
1.0
 40
1.0
 40
1.0
 40
1.0
 10
36.6323204385
 20
43.6641321869
 30
0.0
 10
36.6166478658
 20
43.6586483003
 30
0.0
 10
36.5525921919
 20
43.6349314715
 30
0.0
 10
36.4902223798
 20
43.6067299238
 30
0.0
 10
36.4441322307
 20
43.5833242973
 30
0.0
  0
SPLINE
  5
35D
100
AcDbEntity
  8
0
100
AcDbSpline
 62
7
  6
BYLAYER
 70
0
 71
3
 72
9
 73
5
 74
0
 42
0.0000001
 43
0.0000001
 44
0.0000000001
 40
0.0
 40
0.0
 40
0.0
 40
0.0
 40
0.2363645355
 40
1.0
 40
1.0
 40
1.0
 40
1.0
 10
36.4441322307
 20
43.5833242973
 30
0.0
 10
36.4045201015
 20
43.5632083568
 30
0.0
 10
36.2402495398
 20
43.4715959181
 30
0.0
 10
36.0895301481
 20
43.3567041171
 30
0.0
 10
35.9826390628
 20
43.2609123424
 30
0.0
  0
SPLINE
  5
35E
100
AcDbEntity
  8
0
100
AcDbSpline
 62
7
  6
BYLAYER
 70
0
 71
3
 72
9
 73
5
 74
0
 42
0.0000001
 43
0.0000001
 44
0.0000000001
 40
0.0
 40
0.0
 40
0.0
 40
0.0
 40
0.2422791892
 40
1.0
 40
1.0
 40
1.0
 40
1.0
 10
35.9826390628
 20
43.2609123424
 30
0.0
 10
35.9431115831
 20
43.2254893002
 30
0.0
 10
35.7843624743
 20
43.0744086933
 30
0.0
 10
35.6429103417
 20
42.9054555434
 30
0.0
 10
35.5459165816
 20
42.7707426503
 30
0.0
  0
SPLINE
  5
35F
100
AcDbEntity
  8
0
100
AcDbSpline
 62
7
  6
BYLAYER
 70
0
 71
3
 72
9
 73
5
 74
0
 42
0.0000001
 43
0.0000001
 44
0.0000000001
 40
0.0
 40
0.0
 40
0.0
 40
0.0
 40
0.5201906042
 40
1.0
 40
1.0
 40
1.0
 40
1.0
 10
58.3521811696
 20
84.7717196016
 30
0.0
 10
58.2748688664
 20
84.6921395844
 30
0.0
 10
58.13890394
 20
84.5258686913
 30
0.0
 10
58.0416602318
 20
84.3334952998
 30
0.0
 10
58.0075633893
 20
84.2370041729
 30
0.0
  0
SPLINE
  5
360
100
AcDbEntity
  8
0
100
AcDbSpline
 62
7
  6
BYLAYER
 70
0
 71
3
 72
11
 73
7
 74
0
 42
0.0000001
 43
0.0000001
 44
0.0000000001
 40
0.0
 40
0.0
 40
0.0
 40
0.0
 40
0.2541578946
 40
0.5049789403
 40
0.7535070981
 40
1.0
 40
1.0
 40
1.0
 40
1.0
 10
35.6992400829
 20
56.8544280877
 30
0.0
 10
34.0881332508
 20
58.2136865483
 30
0.0
 10
30.7806140549
 20
60.7922755039
 30
0.0
 10
25.5177692393
 20
64.1790720239
 30
0.0
 10
20.0109486348
 20
67.0168140725
 30
0.0
 10
16.1951921859
 20
68.5495941392
 30
0.0
 10
14.2667753574
 20
69.228192792
 30
0.0
  0
SPLINE
  5
361
100
AcDbEntity
  8
0
100
AcDbSpline
 62
7
  6
BYLAYER
 70
0
 71
3
 72
12
 73
8
 74
0
 42
0.0000001
 43
0.0000001
 44
0.0000000001
 40
0.0
 40
0.0
 40
0.0
 40
0.0
 40
0.1119405094
 40
0.2317736224
 40
0.4873490976
 40
0.7497768449
 40
1.0
 40
1.0
 40
1.0
 40
1.0
 10
70.6536085571
 20
75.0946157894
 30
0.0
 10
70.5678939441
 20
75.0451287299
 30
0.0
 10
70.382628932
 20
74.9558144515
 30
0.0
 10
69.9737574831
 20
74.8173658473
 30
0.0
 10
69.4127814953
 20
74.7260546412
 30
0.0
 10
68.7303858082
 20
74.7441734545
 30
0.0
 10
68.2838985411
 20
74.8433364082
 30
0.0
 10
68.0752209241
 20
74.9168267134
 30
0.0
  0
SPLINE
  5
362
100
AcDbEntity
  8
0
100
AcDbSpline
 62
7
  6
BYLAYER
 70
0
 71
3
 72
12
 73
8
 74
0
 42
0.0000001
 43
0.0000001
 44
0.0000000001
 40
0.0
 40
0.0
 40
0.0
 40
0.0
 40
0.1081623742
 40
0.2183733491
 40
0.4513427441
 40
0.7104806646
 40
1.0
 40
1.0
 40
1.0
 40
1.0
 10
72.6828734979
 20
76.7684096913
 30
0.0
 10
72.6828804119
 20
76.7286546486
 30
0.0
 10
72.675956152
 20
76.6482239955
 30
0.0
 10
72.6341531284
 20
76.4870060552
 30
0.0
 10
72.5269488256
 20
76.2892555327
 30
0.0
 10
72.3271528701
 20
76.0794908417
 30
0.0
 10
72.1599724981
 20
75.9643102249
 30
0.0
 10
72.0678162315
 20
75.9111040971
 30
0.0
  0
SPLINE
  5
363
100
AcDbEntity
  8
0
100
AcDbSpline
 62
7
  6
BYLAYER
 70
0
 71
3
 72
9
 73
5
 74
0
 42
0.0000001
 43
0.0000001
 44
0.0000000001
 40
0.0
 40
0.0
 40
0.0
 40
0.0
 40
0.2565419973
 40
1.0
 40
1.0
 40
1.0
 40
1.0
 10
36.5712171456
 20
43.7413032779
 30
0.0
 10
36.5868171604
 20
43.7503098969
 30
0.0
 10
36.6481256681
 20
43.7845393524
 30
0.0
 10
36.7114606252
 20
43.815183566
 30
0.0
 10
36.759551537
 20
43.8354904661
 30
0.0
  0
SPLINE
  5
364
100
AcDbEntity
  8
0
100
AcDbSpline
 62
7
  6
BYLAYER
 70
0
 71
3
 72
9
 73
5
 74
0
 42
0.0000001
 43
0.0000001
 44
0.0000000001
 40
0.0
 40
0.0
 40
0.0
 40
0.0
 40
0.2662946278
 40
1.0
 40
1.0
 40
1.0
 40
1.0
 10
36.7773047537
 20
43.8428544284
 30
0.0
 10
36.8104338943
 20
43.8563484113
 30
0.0
 10
36.9365217431
 20
43.9025270384
 30
0.0
 10
37.0704015142
 20
43.9295357096
 30
0.0
 10
37.1688871347
 20
43.9333663106
 30
0.0
  0
SPLINE
  5
365
100
AcDbEntity
  8
0
100
AcDbSpline
 62
7
  6
BYLAYER
 70
0
 71
3
 72
9
 73
5
 74
0
 42
0.0000001
 43
0.0000001
 44
0.0000000001
 40
0.0
 40
0.0
 40
0.0
 40
0.0
 40
0.2624308417
 40
1.0
 40
1.0
 40
1.0
 40
1.0
 10
35.9348236921
 20
43.2852342651
 30
0.0
 10
35.9712257165
 20
43.3206960514
 30
0.0
 10
36.113526855
 20
43.4519994702
 30
0.0
 10
36.2707463506
 20
43.5678274191
 30
0.0
 10
36.3944411863
 20
43.6392422395
 30
0.0
  0
SPLINE
  5
366
100
AcDbEntity
  8
0
100
AcDbSpline
 62
7
  6
BYLAYER
 70
0
 71
3
 72
15
 73
11
 74
0
 42
0.0000001
 43
0.0000001
 44
0.0000000001
 40
0.0
 40
0.0
 40
0.0
 40
0.0
 40
0.1485130212
 40
0.2894167577
 40
0.4226103611
 40
0.5485132328
 40
0.6678857078
 40
0.7818494476
 40
0.8919379679
 40
1.0
 40
1.0
 40
1.0
 40
1.0
 10
30.808288566
 20
45.0118145297
 30
0.0
 10
30.8078619006
 20
44.7067199162
 30
0.0
 10
30.7823992471
 20
44.1117902852
 30
0.0
 10
30.6641912919
 20
43.2503174344
 30
0.0
 10
30.4674967895
 20
42.450726307
 30
0.0
 10
30.1939082311
 20
41.7208259113
 30
0.0
 10
29.8456479499
 20
41.0675093632
 30
0.0
 10
29.4252061177
 20
40.4975246385
 30
0.0
 10
28.9366448691
 20
40.0171423798
 30
0.0
 10
28.5669696256
 20
39.7593313349
 30
0.0
 10
28.3747230255
 20
39.6483218377
 30
0.0
  0
SPLINE
  5
367
100
AcDbEntity
  8
0
100
AcDbSpline
 62
7
  6
BYLAYER
 70
0
 71
3
 72
19
 73
15
 74
0
 42
0.0000001
 43
0.0000001
 44
0.0000000001
 40
0.0
 40
0.0
 40
0.0
 40
0.0
 40
0.128638122
 40
0.2701619577
 40
0.4172568512
 40
0.5615397607
 40
0.6301896907
 40
0.6953295835
 40
0.7563243111
 40
0.8128037423
 40
0.864743517
 40
0.9125520484
 40
0.9571601194
 40
1.0
 40
1.0
 40
1.0
 40
1.0
 10
69.0979553859
 20
77.6257152661
 30
0.0
 10
69.2534129969
 20
77.715468224
 30
0.0
 10
69.6053761641
 20
77.8606920598
 30
0.0
 10
70.1790463388
 20
77.9754444486
 30
0.0
 10
70.7856756926
 20
77.9922208171
 30
0.0
 10
71.2860393751
 20
77.922036509
 30
0.0
 10
71.6594256819
 20
77.814439951
 30
0.0
 10
71.9120538979
 20
77.7126799915
 30
0.0
 10
72.1364659522
 20
77.5906001144
 30
0.0
 10
72.3279952933
 20
77.4506392292
 30
0.0
 10
72.4825816701
 20
77.2954344277
 30
0.0
 10
72.5965859342
 20
77.1276720916
 30
0.0
 10
72.6669038224
 20
76.9507412701
 30
0.0
 10
72.6828631013
 20
76.8281901528
 30
0.0
 10
72.6828734979
 20
76.7684096913
 30
0.0
  0
SPLINE
  5
368
100
AcDbEntity
  8
0
100
AcDbSpline
 62
7
  6
BYLAYER
 70
0
 71
3
 72
15
 73
11
 74
0
 42
0.0000001
 43
0.0000001
 44
0.0000000001
 40
0.0
 40
0.0
 40
0.0
 40
0.0
 40
0.1173236605
 40
0.2447825727
 40
0.3788026851
 40
0.5151429158
 40
0.6492955692
 40
0.7769876679
 40
0.8946510846
 40
1.0
 40
1.0
 40
1.0
 40
1.0
 10
53.5415414326
 20
86.6070118656
 30
0.0
 10
53.6578677752
 20
86.6741725099
 30
0.0
 10
53.9149157033
 20
86.790028431
 30
0.0
 10
54.3345332389
 20
86.9049065733
 30
0.0
 10
54.7874826451
 20
86.9642091289
 30
0.0
 10
55.2518494679
 20
86.9650771399
 30
0.0
 10
55.7053815409
 20
86.9074741984
 30
0.0
 10
56.1264466068
 20
86.7940768953
 30
0.0
 10
56.4949054514
 20
86.6303124427
 30
0.0
 10
56.7066108534
 20
86.4833388007
 30
0.0
 10
56.7960946738
 20
86.4024688438
 30
0.0
  0
SPLINE
  5
369
100
AcDbEntity
  8
0
100
AcDbSpline
 62
7
  6
BYLAYER
 70
0
 71
3
 72
11
 73
7
 74
0
 42
0.0000001
 43
0.0000001
 44
0.0000000001
 40
0.0
 40
0.0
 40
0.0
 40
0.0
 40
0.2278482063
 40
0.4769681813
 40
0.7380220804
 40
1.0
 40
1.0
 40
1.0
 40
1.0
 10
66.9766379863
 20
77.2174677129
 30
0.0
 10
67.1101454094
 20
77.2945477995
 30
0.0
 10
67.4084888416
 20
77.4239453492
 30
0.0
 10
67.8959014406
 20
77.5410458846
 30
0.0
 10
68.4183144603
 20
77.5851617548
 30
0.0
 10
68.7730568064
 20
77.5636900105
 30
0.0
 10
68.9486535092
 20
77.539516302
 30
0.0
  0
SPLINE
  5
36A
100
AcDbEntity
  8
0
100
AcDbSpline
 62
7
  6
BYLAYER
 70
0
 71
3
 72
9
 73
5
 74
0
 42
0.0000001
 43
0.0000001
 44
0.0000000001
 40
0.0
 40
0.0
 40
0.0
 40
0.0
 40
0.2411944944
 40
1.0
 40
1.0
 40
1.0
 40
1.0
 10
66.7339716175
 20
77.0494345527
 30
0.0
 10
66.7521991421
 20
77.0646562518
 30
0.0
 10
66.8292853956
 20
77.1259442388
 30
0.0
 10
66.9119368537
 20
77.1801127196
 30
0.0
 10
66.9766379863
 20
77.2174677129
 30
0.0
  0
SPLINE
  5
36B
100
AcDbEntity
  8
0
100
AcDbSpline
 62
7
  6
BYLAYER
 70
0
 71
3
 72
11
 73
7
 74
0
 42
0.0000001
 43
0.0000001
 44
0.0000000001
 40
0.0
 40
0.0
 40
0.0
 40
0.0
 40
0.2576395231
 40
0.5104414168
 40
0.7580131045
 40
1.0
 40
1.0
 40
1.0
 40
1.0
 10
66.7653498801
 20
70.8610517681
 30
0.0
 10
64.3007731377
 20
68.4722516574
 30
0.0
 10
59.3307277112
 20
63.8283807902
 30
0.0
 10
51.691863041
 20
57.2198412047
 30
0.0
 10
43.9588845238
 20
51.0506274986
 30
0.0
 10
38.6939523259
 20
47.1975433355
 30
0.0
 10
36.0510491432
 20
45.3515681287
 30
0.0
  0
ELLIPSE
  5
36C
100
AcDbEntity
  8
0
100
AcDbEllipse
 62
7
  6
BYLAYER
 10
61.0015668145
 20
85.5100651823
 30
0.0
 11
-0.0997350413
 21
0.1758654326
 31
0.0
 40
0.0413652604
 41
-2.2833788144
 42
-0.9788831494
  0
ELLIPSE
  5
36D
100
AcDbEntity
  8
0
100
AcDbEllipse
 62
7
  6
BYLAYER
 10
61.9490859564
 20
86.0571123485
 30
0.0
 11
0.0208567035
 21
0.2362280367
 31
0.0
 40
0.4140101603
 41
1.2618125315
 42
2.5663081965
  0
ELLIPSE
  5
36E
100
AcDbEntity
  8
0
100
AcDbEllipse
 62
7
  6
BYLAYER
 10
61.2844028147
 20
86.4612712182
 30
0.0
 11
0.0913113651
 21
0.2000690333
 31
0.0
 40
0.2037822185
 41
-2.7761297217
 42
-1.5832823378
  0
ENDSEC
  0
SECTION
  2
OBJECTS
  0
DICTIONARY
  5
C
100
AcDbDictionary
280
0
281
1
  3
ACAD_GROUP
350
D
  3
ACAD_MLINESTYLE
350
17
  3
ACAD_LAYOUT
350
1A
  3
ACAD_PLOTSETTINGS
350
19
  3
ACAD_PLOTSTYLENAME
350
E
  0
DICTIONARY
  5
D
102
{ACAD_REACTORS
330
C
102
}
100
AcDbDictionary
280
0
281
1
  0
ACDBDICTIONARYWDFLT
  5
E
102
{ACAD_REACTORS
330
C
102
}
100
AcDbDictionary
281
1
  3
Normal
350
F
100
AcDbDictionaryWithDefault
340
F
  0
DICTIONARY
  5
17
102
{ACAD_REACTORS
330
C
102
}
100
AcDbDictionary
280
0
281
1
  3
Standard
350
18
  0
DICTIONARY
  5
19
102
{ACAD_REACTORS
330
C
102
}
100
AcDbDictionary
281
1
  0
DICTIONARY
  5
1A
102
{ACAD_REACTORS
330
C
102
}
100
AcDbDictionary
281
1
  3
Model
350
36F
  3
Layout1
350
370
  0
ACDBPLACEHOLDER
  5
F
102
{ACAD_REACTORS
330
E
102
}
  0
MLINESTYLE
  5
18
102
{ACAD_REACTORS
330
17
102
}
100
AcDbMlineStyle
  2
STANDARD
 70
0
  3

 62
256
 51
90.0
 52
90.0
 71
2
 49
0.5
 62
256
  6
BYLAYER
 49
-0.5
 62
256
  6
BYLAYER
  0
LAYOUT
  5
36F
102
{ACAD_REACTORS
330
1A
102
}
100
AcDbPlotSettings
  1

  2
none_device
  4

  6

 40
0.0
 41
0.0
 42
0.0
 43
0.0
 44
210.0
 45
297.0
 46
0.0
 47
0.0
 48
0.0
 49
0.0
140
0.0
141
0.0
142
1.0
143
1.0
 70
1024
 72
1
 73
0
 74
0
  7

 75
0
147
1.0
148
0.0
149
0.0
100
AcDbLayout
  1
Model
 70
0
 71
0
 10
0.0
 20
0.0
 11
210.0
 21
297.0
 12
0.0
 22
0.0
 32
0.0
 14
0.0
 24
0.0
 34
0.0
 15
0.0
 25
0.0
 35
0.0
146
0.0
 13
0.0
 23
0.0
 33
0.0
 16
1.0
 26
0.0
 36
0.0
 17
0.0
 27
1.0
 37
0.0
 76
0
330
210
345
0
346
0
  0
LAYOUT
  5
370
102
{ACAD_REACTORS
330
1A
102
}
100
AcDbPlotSettings
  1

  2
none_device
  4

  6

 40
0.0
 41
0.0
 42
0.0
 43
0.0
 44
210.0
 45
297.0
 46
0.0
 47
0.0
 48
0.0
 49
0.0
140
0.0
141
0.0
142
1.0
143
1.0
 70
0
 72
1
 73
0
 74
0
  7

 75
0
147
1.0
148
0.0
149
0.0
100
AcDbLayout
  1
Layout1
 70
0
 71
1
 10
0.0
 20
0.0
 11
210.0
 21
297.0
 12
0.0
 22
0.0
 32
0.0
 14
0.0
 24
0.0
 34
0.0
 15
0.0
 25
0.0
 35
0.0
146
0.0
 13
0.0
 23
0.0
 33
0.0
 16
1.0
 26
0.0
 36
0.0
 17
0.0
 27
1.0
 37
0.0
 76
0
330
211
345
0
346
0
  0
ENDSEC
  0
EOF
