999
DXF file: C:\Users\sesa63760\Dev\_Creo\CAD\MCADID0004776_3D-CAD\drw0001_1.dxf
999
Pro/ENGINEER 2019471 by Parametric Technology Corporation
  0
SECTION
  2
HEADER
  9
$ACADVER
  1
AC1024
  9
$DWGCODEPAGE
  3
ANSI_1252
  9
$EXTMAX
 10
71.4942028847
 20
101.1132297941
 30
0.0
  9
$EXTMIN
 10
0.0
 20
0.0
 30
0.0
  9
$LIMMIN
 10
0.0
 20
0.0
  9
$LIMMAX
 10
71.4942028847
 20
101.1132297941
  9
$VIEWCTR
 10
35.7471014424
 20
50.556614897
  9
$VIEWSIZE
 40
101.1132297941
  9
$CLAYER
  8
0
  9
$LTSCALE
 40
6.5910846088
  9
$CELTYPE
  6
BYLAYER
  9
$DIMSCALE
 40
1.0
  9
$DIMASZ
 40
0.8511214629
  9
$DIMEXO
 40
1.0
  9
$DIMDLI
 40
4.5538402752
  9
$DIMEXE
 40
1.0
  9
$DIMCEN
 40
1.0785411178
  9
$DIMLFAC
 40
1.0
  9
$DIMBLK
  1
_FILLED
  9
$DIMALT
 70
0
  9
$DIMALTF
 40
0.0393700787
  9
$DIMTXT
 40
1.1915700481
  9
$DIMTOL
 70
1
  9
$DIMLIM
 70
0
  9
$DIMTFAC
 40
1.0
  9
$DIMTP
 40
0.01
  9
$DIMTM
 40
0.01
  9
$DIMGAP
 40
0.625
  9
$DIMDSEP
 70
46
  9
$AUNITS
 70
0
  9
$PDMODE
 70
3
  9
$PDSIZE
 40
0.3125
  9
$HANDSEED
  5
34D
  9
$TILEMODE
 70
1
  9
$MEASUREMENT
 70
1
  9
$INSUNITS
 70
4
  0
ENDSEC
  0
SECTION
  2
CLASSES
  0
CLASS
  1
ACDBDICTIONARYWDFLT
  2
AcDbDictionaryWithDefault
  3
AutoCAD 2000
 90
0
 91
1
280
0
281
0
  0
CLASS
  1
ACDBPLACEHOLDER
  2
AcDbPlaceHolder
  3
AutoCAD 2000
 90
0
 91
1
280
0
281
0
  0
CLASS
  1
LAYOUT
  2
AcDbLayout
  3
AutoCAD 2000
 90
0
 91
0
280
0
281
0
  0
ENDSEC
  0
SECTION
  2
TABLES
  0
TABLE
  2
VPORT
  5
8
100
AcDbSymbolTable
 70
2
  0
VPORT
  5
1F4
100
AcDbSymbolTableRecord
100
AcDbViewportTableRecord
  2
*ACTIVE
 70
0
 10
0.0
 20
0.0
 11
1.0
 21
1.0
 12
35.7471014424
 22
50.556614897
 13
0.0
 23
0.0
 14
1.0
 24
1.0
 15
0.0
 25
0.0
 16
0.0
 26
0.0
 36
1.0
 17
0.0
 27
0.0
 37
0.0
 40
101.1132297941
 41
0.7070707071
 42
50.0
 43
0.0
 44
0.0
 50
0.0
 51
0.0
 71
0
 72
100
 73
1
 74
1
 75
0
 76
0
 77
0
 78
0
  0
ENDTAB
  0
TABLE
  2
LTYPE
  5
5
100
AcDbSymbolTable
 70
6
  0
LTYPE
  5
14
100
AcDbSymbolTableRecord
100
AcDbLinetypeTableRecord
  2
BYBLOCK
 70
0
  3

 72
65
 73
0
 40
0.0
  0
LTYPE
  5
15
100
AcDbSymbolTableRecord
100
AcDbLinetypeTableRecord
  2
BYLAYER
 70
0
  3

 72
65
 73
0
 40
0.0
  0
LTYPE
  5
16
100
AcDbSymbolTableRecord
100
AcDbLinetypeTableRecord
  2
CONTINUOUS
 70
64
  3
Solid line
 72
65
 73
0
 40
0.0
  0
LTYPE
  5
1F5
100
AcDbSymbolTableRecord
100
AcDbLinetypeTableRecord
  2
CENTER
 70
64
  3
____ _ ____ _ ____ _ ____ _ ____ _ ____ _ ____
 72
65
 73
4
 40
0.6
 49
0.375
 74
0
 49
-0.075
 74
0
 49
0.075
 74
0
 49
-0.075
 74
0
  0
LTYPE
  5
1F6
100
AcDbSymbolTableRecord
100
AcDbLinetypeTableRecord
  2
HIDDEN
 70
64
  3
- - - - - - - - - - - - - - - - - - - -
 72
65
 73
2
 40
0.2
 49
0.1
 74
0
 49
-0.1
 74
0
  0
LTYPE
  5
1F7
100
AcDbSymbolTableRecord
100
AcDbLinetypeTableRecord
  2
PHANTOM
 70
64
  3
_____ _ _ _____ _ _ _____ _ _ _____
 72
65
 73
6
 40
0.8
 49
0.45
 74
0
 49
-0.05
 74
0
 49
0.1
 74
0
 49
-0.05
 74
0
 49
0.1
 74
0
 49
-0.05
 74
0
  0
LTYPE
  5
1F8
100
AcDbSymbolTableRecord
100
AcDbLinetypeTableRecord
  2
DOT
 70
64
  3
. . . . . . . . . . . . . . . . . . . .
 72
65
 73
2
 40
0.2
 49
0.1
 74
0
 49
-0.1
 74
0
  0
LTYPE
  5
1F9
100
AcDbSymbolTableRecord
100
AcDbLinetypeTableRecord
  2
DASHED
 70
64
  3
- - - - - - - - - - - - - - - - - - - -
 72
65
 73
2
 40
0.2
 49
0.1
 74
0
 49
-0.1
 74
0
  0
ENDTAB
  0
TABLE
  2
LAYER
  5
2
100
AcDbSymbolTable
 70
36
  0
LAYER
  5
10
100
AcDbSymbolTableRecord
100
AcDbLayerTableRecord
  2
0
 70
0
 62
7
  6
CONTINUOUS
370
-3
390
F
  0
LAYER
  5
1FA
100
AcDbSymbolTableRecord
100
AcDbLayerTableRecord
  2
DEFAULT_1
 70
0
 62
7
  6
CENTER
370
-3
390
F
  0
LAYER
  5
1FB
100
AcDbSymbolTableRecord
100
AcDbLayerTableRecord
  2
DEFAULT_2
 70
0
 62
7
  6
HIDDEN
370
-3
390
F
  0
LAYER
  5
1FC
100
AcDbSymbolTableRecord
100
AcDbLayerTableRecord
  2
DEFAULT_3
 70
0
 62
7
  6
PHANTOM
370
-3
390
F
  0
LAYER
  5
1FD
100
AcDbSymbolTableRecord
100
AcDbLayerTableRecord
  2
00_COMPONENTS
 70
0
 62
7
  6
CONTINUOUS
370
-3
390
F
  0
LAYER
  5
1FE
100
AcDbSymbolTableRecord
100
AcDbLayerTableRecord
  2
01_1_DEFAULT_DATUMS
 70
0
 62
7
  6
CONTINUOUS
370
-3
390
F
  0
LAYER
  5
1FF
100
AcDbSymbolTableRecord
100
AcDbLayerTableRecord
  2
01_PLANES
 70
0
 62
7
  6
CONTINUOUS
370
-3
390
F
  0
LAYER
  5
200
100
AcDbSymbolTableRecord
100
AcDbLayerTableRecord
  2
02_COORD_SYS
 70
0
 62
7
  6
CONTINUOUS
370
-3
390
F
  0
LAYER
  5
201
100
AcDbSymbolTableRecord
100
AcDbLayerTableRecord
  2
03_AXES
 70
0
 62
7
  6
CONTINUOUS
370
-3
390
F
  0
LAYER
  5
202
100
AcDbSymbolTableRecord
100
AcDbLayerTableRecord
  2
04_POINTS
 70
0
 62
7
  6
CONTINUOUS
370
-3
390
F
  0
LAYER
  5
203
100
AcDbSymbolTableRecord
100
AcDbLayerTableRecord
  2
05_CURVES
 70
0
 62
7
  6
CONTINUOUS
370
-3
390
F
  0
LAYER
  5
204
100
AcDbSymbolTableRecord
100
AcDbLayerTableRecord
  2
06_SURFS
 70
0
 62
7
  6
CONTINUOUS
370
-3
390
F
  0
LAYER
  5
205
100
AcDbSymbolTableRecord
100
AcDbLayerTableRecord
  2
07_COSMETICS
 70
0
 62
7
  6
CONTINUOUS
370
-3
390
F
  0
LAYER
  5
206
100
AcDbSymbolTableRecord
100
AcDbLayerTableRecord
  2
10_NOTES
 70
0
 62
7
  6
CONTINUOUS
370
-3
390
F
  0
LAYER
  5
207
100
AcDbSymbolTableRecord
100
AcDbLayerTableRecord
  2
11_NOTES_PUB
 70
0
 62
7
  6
CONTINUOUS
370
-3
390
F
  0
LAYER
  5
208
100
AcDbSymbolTableRecord
100
AcDbLayerTableRecord
  2
13_REF_GTOL
 70
0
 62
7
  6
CONTINUOUS
370
-3
390
F
  0
LAYER
  5
209
100
AcDbSymbolTableRecord
100
AcDbLayerTableRecord
  2
16_MISC
 70
0
 62
7
  6
CONTINUOUS
370
-3
390
F
  0
LAYER
  5
20A
100
AcDbSymbolTableRecord
100
AcDbLayerTableRecord
  2
17_NO_PRINT
 70
0
 62
7
  6
CONTINUOUS
370
-3
390
F
  0
LAYER
  5
20B
100
AcDbSymbolTableRecord
100
AcDbLayerTableRecord
  2
18_DATUM_CAMS_JOINTS
 70
0
 62
7
  6
CONTINUOUS
370
-3
390
F
  0
LAYER
  5
20C
100
AcDbSymbolTableRecord
100
AcDbLayerTableRecord
  2
19_DATUM_FUNCTIONAL
 70
0
 62
7
  6
CONTINUOUS
370
-3
390
F
  0
LAYER
  5
20D
100
AcDbSymbolTableRecord
100
AcDbLayerTableRecord
  2
20_DATUM_KINEMATIC_SCHEME
 70
0
 62
7
  6
CONTINUOUS
370
-3
390
F
  0
ENDTAB
  0
TABLE
  2
STYLE
  5
3
100
AcDbSymbolTable
 70
1
  0
STYLE
  5
11
100
AcDbSymbolTableRecord
100
AcDbTextStyleTableRecord
  2
STANDARD
 70
0
 40
0.0
 41
1.0
 50
0.0
 71
0
 42
0.2
  3
ARIAL.TTF
  4

  0
STYLE
  5
20E
100
AcDbSymbolTableRecord
100
AcDbTextStyleTableRecord
  2
TEXTSTYLE_1
 70
0
 40
0.0
 41
0.8
 50
0.0
 71
0
 42
0.2
  3
gdt
  4

  0
ENDTAB
  0
TABLE
  2
VIEW
  5
6
100
AcDbSymbolTable
 70
0
  0
ENDTAB
  0
TABLE
  2
UCS
  5
7
100
AcDbSymbolTable
 70
0
  0
ENDTAB
  0
TABLE
  2
APPID
  5
9
100
AcDbSymbolTable
 70
1
  0
APPID
  5
20F
100
AcDbSymbolTableRecord
100
AcDbRegAppTableRecord
  2
ACAD
 70
0
  0
ENDTAB
  0
TABLE
  2
BLOCK_RECORD
  5
1
100
AcDbSymbolTable
 70
0
  0
BLOCK_RECORD
  5
210
100
AcDbSymbolTableRecord
100
AcDbBlockTableRecord
  2
*Model_Space
  0
BLOCK_RECORD
  5
211
100
AcDbSymbolTableRecord
100
AcDbBlockTableRecord
  2
*Paper_Space
  0
BLOCK_RECORD
  5
212
100
AcDbSymbolTableRecord
100
AcDbBlockTableRecord
  2
_FILLED
  0
ENDTAB
  0
TABLE
  2
DIMSTYLE
  5
A
100
AcDbSymbolTable
 70
1
100
AcDbDimStyleTable
 71
0
  0
DIMSTYLE
105
213
100
AcDbSymbolTableRecord
100
AcDbDimStyleTableRecord
  2
STANDARD
 70
0
  3

  4

 40
1.0
 41
0.8511214629
 42
1.0
 43
0.38
 44
1.0
 45
0.0
 46
0.0
 47
0.01
 48
0.01
140
1.1915700481
141
0.09
142
0.0
143
25.4
144
1.0
145
0.0
146
1.0
147
0.625
 71
1
 72
0
 73
0
 74
0
 75
0
 76
0
 77
1
 78
8
 79
2
170
0
171
1
172
0
173
0
174
0
175
0
176
0
177
0
178
0
270
2
179
2
271
2
272
2
273
2
274
2
275
0
280
0
281
0
282
0
283
1
284
8
285
0
286
0
287
3
288
0
340
11
278
46
341
212
342
212
343
212
344
212
  0
ENDTAB
  0
ENDSEC
  0
SECTION
  2
BLOCKS
  0
BLOCK
  5
20
100
AcDbEntity
  8
0
100
AcDbBlockBegin
  2
*Model_Space
 70
0
 10
0.0
 20
0.0
 30
0.0
  3
*Model_Space
  1

  0
ENDBLK
  5
21
100
AcDbEntity
  8
0
100
AcDbBlockEnd
  0
BLOCK
  5
1C
100
AcDbEntity
  8
0
100
AcDbBlockBegin
  2
*Paper_Space
 70
0
 10
0.0
 20
0.0
 30
0.0
  3
*Paper_Space
  1

  0
ENDBLK
  5
1D
100
AcDbEntity
  8
0
100
AcDbBlockEnd
  0
BLOCK
  5
214
100
AcDbEntity
  8
0
100
AcDbBlockBegin
  2
_FILLED
 70
64
 10
0.0
 20
0.0
  3
_FILLED
  1

  0
SOLID
  5
215
100
AcDbEntity
  8
0
  6
BYBLOCK
 62
0
100
AcDbTrace
 10
0.0
 20
0.0
 11
-1.0
 21
0.25
 12
-1.0
 22
-0.25
 13
-1.0
 23
-0.25
  0
ENDBLK
  5
216
100
AcDbEntity
  8
0
  6
BYBLOCK
 62
0
100
AcDbBlockEnd
  0
ENDSEC
  0
SECTION
  2
ENTITIES
  0
LINE
  5
217
100
AcDbEntity
  8
0
100
AcDbLine
 62
7
  6
BYLAYER
 10
23.9989479826
 20
76.707713555
 11
30.4921714016
 21
80.4565554663
  0
LINE
  5
218
100
AcDbEntity
  8
0
100
AcDbLine
 62
7
  6
BYLAYER
 10
24.6282346036
 20
76.7328337882
 11
30.9921691385
 21
80.407031173
  0
LINE
  5
219
100
AcDbEntity
  8
0
100
AcDbLine
 62
7
  6
BYLAYER
 10
27.9870964722
 20
21.1497510334
 11
19.7299824135
 21
25.9168902108
  0
LINE
  5
21A
100
AcDbEntity
  8
0
100
AcDbLine
 62
7
  6
BYLAYER
 10
10.380064316
 20
42.1116125478
 11
10.380064316
 21
51.6458560075
  0
LINE
  5
21B
100
AcDbEntity
  8
0
100
AcDbLine
 62
7
  6
BYLAYER
 10
27.3152515591
 20
75.181518921
 11
33.6791860941
 21
78.8557163059
  0
LWPOLYLINE
  5
21C
100
AcDbEntity
  8
0
100
AcDbPolyline
 62
7
  6
BYLAYER
 90
3
 70
0
 10
22.6045942594
 20
27.5765382271
 10
23.5006706539
 20
27.1448464624
 10
26.2544481318
 20
26.6463581293
  0
LINE
  5
21D
100
AcDbEntity
  8
0
100
AcDbLine
 62
7
  6
BYLAYER
 10
35.9066983093
 20
20.3332851614
 11
31.2397741234
 21
23.0276741412
  0
LINE
  5
21E
100
AcDbEntity
  8
0
100
AcDbLine
 62
7
  6
BYLAYER
 10
13.6327419672
 20
53.5237791153
 11
13.6327419672
 21
58.9126950683
  0
LINE
  5
21F
100
AcDbEntity
  8
0
100
AcDbLine
 62
7
  6
BYLAYER
 10
29.7448901835
 20
26.7485808984
 11
33.7146852459
 21
24.4566705005
  0
LINE
  5
220
100
AcDbEntity
  8
0
100
AcDbLine
 62
7
  6
BYLAYER
 10
16.1076530897
 20
50.3688372983
 11
16.1076530897
 21
54.9527754746
  0
LINE
  5
221
100
AcDbEntity
  8
0
100
AcDbLine
 62
7
  6
BYLAYER
 10
17.1672614067
 20
60.749265943
 11
23.4796958933
 21
76.0697145035
  0
LINE
  5
222
100
AcDbEntity
  8
0
100
AcDbLine
 62
7
  6
BYLAYER
 10
26.2544481318
 20
26.6463581293
 11
27.9773787662
 21
27.1354415671
  0
LWPOLYLINE
  5
223
100
AcDbEntity
  8
0
100
AcDbPolyline
 62
7
  6
BYLAYER
 90
7
 70
0
 10
12.993116789
 20
41.4605578892
 10
12.6252478609
 20
40.5027075105
 10
12.6270398012
 20
38.1384032019
 10
13.3266357935
 20
35.5154880531
 10
14.6425261316
 20
32.942837039
 10
16.4129396121
 20
30.7372514081
 10
18.4411452112
 20
29.1514228862
  0
LINE
  5
224
100
AcDbEntity
  8
0
100
AcDbLine
 62
7
  6
BYLAYER
 10
27.3152515591
 20
75.181518921
 11
20.1199591023
 21
57.7183502821
  0
LINE
  5
225
100
AcDbEntity
  8
0
100
AcDbLine
 62
7
  6
BYLAYER
 10
17.5518622079
 20
61.682702449
 11
13.9434099126
 21
59.5993739808
  0
LINE
  5
226
100
AcDbEntity
  8
0
100
AcDbLine
 62
7
  6
BYLAYER
 10
14.6934065549
 20
59.5250875622
 11
17.2776014899
 21
61.0170642977
  0
LINE
  5
227
100
AcDbEntity
  8
0
100
AcDbLine
 62
7
  6
BYLAYER
 10
17.167273636
 20
60.749244761
 11
14.8701840069
 21
59.4230273606
  0
LINE
  5
228
100
AcDbEntity
  8
0
100
AcDbLine
 62
7
  6
BYLAYER
 10
25.6078314461
 20
62.2293148874
 11
29.1628772784
 21
66.3734417282
  0
LINE
  5
229
100
AcDbEntity
  8
0
100
AcDbLine
 62
7
  6
BYLAYER
 10
25.6954259091
 20
62.2075286063
 11
29.2504717409
 21
66.3516554466
  0
LINE
  5
22A
100
AcDbEntity
  8
0
100
AcDbLine
 62
7
  6
BYLAYER
 10
38.558296189
 20
68.6904909241
 11
44.9222307239
 21
72.364688309
  0
LINE
  5
22B
100
AcDbEntity
  8
0
100
AcDbLine
 62
7
  6
BYLAYER
 10
25.559629594
 20
60.858926758
 11
20.1199591023
 21
57.7183502821
  0
LINE
  5
22C
100
AcDbEntity
  8
0
100
AcDbLine
 62
7
  6
BYLAYER
 10
19.3603307409
 20
56.8306985824
 11
16.1076530897
 21
54.9527754746
  0
LINE
  5
22D
100
AcDbEntity
  8
0
100
AcDbLine
 62
7
  6
BYLAYER
 10
13.6327419672
 20
53.5237791153
 11
10.380064316
 21
51.6458560075
  0
LINE
  5
22E
100
AcDbEntity
  8
0
100
AcDbLine
 62
7
  6
BYLAYER
 10
25.559629594
 20
60.2395594675
 11
25.559629594
 21
62.0990946037
  0
LINE
  5
22F
100
AcDbEntity
  8
0
100
AcDbLine
 62
7
  6
BYLAYER
 10
25.6182088265
 20
60.1579106367
 11
25.6182088265
 21
62.0174457729
  0
LINE
  5
230
100
AcDbEntity
  8
0
100
AcDbLine
 62
7
  6
BYLAYER
 10
26.3374632148
 20
59.6750158165
 11
20.3856398424
 21
56.2387494883
  0
LINE
  5
231
100
AcDbEntity
  8
0
100
AcDbLine
 62
7
  6
BYLAYER
 10
47.6092476794
 20
70.8133734418
 11
41.2453131445
 21
67.139176057
  0
LINE
  5
232
100
AcDbEntity
  8
0
100
AcDbLine
 62
7
  6
BYLAYER
 10
14.2704341578
 20
49.3998007446
 11
10.380064316
 21
51.6458560075
  0
LINE
  5
233
100
AcDbEntity
  8
0
100
AcDbLine
 62
7
  6
BYLAYER
 10
29.7448901835
 20
40.4658215062
 11
33.7146852459
 21
38.1739111083
  0
LINE
  5
234
100
AcDbEntity
  8
0
100
AcDbLine
 62
7
  6
BYLAYER
 10
27.9870964722
 20
25.6417436192
 11
27.9870964722
 21
21.1497510334
  0
LINE
  5
235
100
AcDbEntity
  8
0
100
AcDbLine
 62
7
  6
BYLAYER
 10
27.9870964722
 20
43.5103926224
 11
27.9870964722
 21
48.0943307987
  0
LINE
  5
236
100
AcDbEntity
  8
0
100
AcDbLine
 62
7
  6
BYLAYER
 10
41.5109938846
 20
65.6595752633
 11
48.3161678642
 21
69.5885208396
  0
LINE
  5
237
100
AcDbEntity
  8
0
100
AcDbLine
 62
7
  6
BYLAYER
 10
14.4653017223
 20
49.5508861721
 11
16.1076530897
 21
50.4990925162
  0
LINE
  5
238
100
AcDbEntity
  8
0
100
AcDbLine
 62
7
  6
BYLAYER
 10
36.9673628971
 20
40.0518342161
 11
32.9975678347
 21
42.343744614
  0
LINE
  5
239
100
AcDbEntity
  8
0
100
AcDbLine
 62
7
  6
BYLAYER
 10
16.1076530897
 20
52.0949208376
 11
13.6327419672
 21
53.5237791153
  0
LINE
  5
23A
100
AcDbEntity
  8
0
100
AcDbLine
 62
7
  6
BYLAYER
 10
10.2306469545
 20
42.0253469088
 11
17.3723957104
 21
46.1486128629
  0
LINE
  5
23B
100
AcDbEntity
  8
0
100
AcDbLine
 62
7
  6
BYLAYER
 10
52.4743862421
 20
45.2774792608
 11
48.8504392441
 21
44.9614710921
  0
LINE
  5
23C
100
AcDbEntity
  8
0
100
AcDbLine
 62
7
  6
BYLAYER
 10
48.9744871229
 20
45.0790668666
 11
52.5983366123
 21
45.3950600854
  0
LWPOLYLINE
  5
23D
100
AcDbEntity
  8
0
100
AcDbPolyline
 62
7
  6
BYLAYER
 90
4
 70
0
 10
52.4744781094
 20
45.277505528
 10
53.696697945
 20
45.2779997666
 10
54.4905849142
 20
45.220654507
 10
54.5868133408
 20
45.2113351982
  0
LINE
  5
23E
100
AcDbEntity
  8
0
100
AcDbLine
 62
7
  6
BYLAYER
 10
16.1076530897
 20
54.9527754746
 11
27.9870964722
 21
48.0943307987
  0
LINE
  5
23F
100
AcDbEntity
  8
0
100
AcDbLine
 62
7
  6
BYLAYER
 10
25.6596312907
 20
60.0663534071
 11
25.6182088265
 21
60.1579106367
  0
LINE
  5
240
100
AcDbEntity
  8
0
100
AcDbLine
 62
7
  6
BYLAYER
 10
31.2397741234
 20
23.0276741412
 11
31.2397741234
 21
25.8855287782
  0
LINE
  5
241
100
AcDbEntity
  8
0
100
AcDbLine
 62
7
  6
BYLAYER
 10
31.2397741234
 20
45.3883157302
 11
31.2397741234
 21
49.9722539065
  0
LINE
  5
242
100
AcDbEntity
  8
0
100
AcDbLine
 62
7
  6
BYLAYER
 10
33.7146852459
 20
38.1739111083
 11
33.7146852459
 21
24.4566705005
  0
LINE
  5
243
100
AcDbEntity
  8
0
100
AcDbLine
 62
7
  6
BYLAYER
 10
31.3630037321
 20
51.2273222852
 11
38.558296189
 21
68.6904909241
  0
LINE
  5
244
100
AcDbEntity
  8
0
100
AcDbLine
 62
7
  6
BYLAYER
 10
31.3630098406
 20
51.2273117049
 11
30.2144650219
 21
50.5642030005
  0
LINE
  5
245
100
AcDbEntity
  8
0
100
AcDbLine
 62
7
  6
BYLAYER
 10
14.6934065549
 20
59.5250875622
 11
20.3856398424
 21
56.2387494883
  0
LINE
  5
246
100
AcDbEntity
  8
0
100
AcDbLine
 62
7
  6
BYLAYER
 10
30.2144650219
 20
50.5642030005
 11
35.9066983093
 21
47.2778649266
  0
LINE
  5
247
100
AcDbEntity
  8
0
100
AcDbLine
 62
7
  6
BYLAYER
 10
25.6182088265
 20
60.1579106367
 11
25.559629594
 21
60.2395594675
  0
LINE
  5
248
100
AcDbEntity
  8
0
100
AcDbLine
 62
7
  6
BYLAYER
 10
41.5109938846
 20
65.6595752633
 11
35.1985593979
 21
50.3391267027
  0
LINE
  5
249
100
AcDbEntity
  8
0
100
AcDbLine
 62
7
  6
BYLAYER
 10
31.2397741234
 20
49.9722539065
 11
27.9870964722
 21
48.0943307987
  0
LINE
  5
24A
100
AcDbEntity
  8
0
100
AcDbLine
 62
7
  6
BYLAYER
 10
45.8051169561
 20
56.4627890108
 11
35.1985593979
 21
50.3391267027
  0
LINE
  5
24B
100
AcDbEntity
  8
0
100
AcDbLine
 62
7
  6
BYLAYER
 10
25.559629594
 20
62.0990946037
 11
25.6182088265
 21
62.0174457729
  0
LINE
  5
24C
100
AcDbEntity
  8
0
100
AcDbLine
 62
7
  6
BYLAYER
 10
36.9673628971
 20
45.4407501692
 11
36.9673628971
 21
40.0518342161
  0
LINE
  5
24D
100
AcDbEntity
  8
0
100
AcDbLine
 62
7
  6
BYLAYER
 10
36.9673628971
 20
26.3345936083
 11
36.9673628971
 21
20.9456776553
  0
LINE
  5
24E
100
AcDbEntity
  8
0
100
AcDbLine
 62
7
  6
BYLAYER
 10
31.2397741234
 20
45.3883157302
 11
27.9870964722
 21
43.5103926224
  0
LINE
  5
24F
100
AcDbEntity
  8
0
100
AcDbLine
 62
7
  6
BYLAYER
 10
46.3364784682
 20
53.5035874063
 11
35.7299208854
 21
47.3799251113
  0
LINE
  5
250
100
AcDbEntity
  8
0
100
AcDbLine
 62
7
  6
BYLAYER
 10
46.5132558675
 20
53.4015272347
 11
35.9066983093
 21
47.2778649266
  0
LINE
  5
251
100
AcDbEntity
  8
0
100
AcDbLine
 62
7
  6
BYLAYER
 10
48.7330668745
 20
44.9875089571
 11
47.3668136741
 21
45.7762977654
  0
LINE
  5
252
100
AcDbEntity
  8
0
100
AcDbLine
 62
7
  6
BYLAYER
 10
48.7019421256
 20
45.0238381021
 11
47.3668136741
 21
45.7946574347
  0
LINE
  5
253
100
AcDbEntity
  8
0
100
AcDbLine
 62
7
  6
BYLAYER
 10
47.3668136741
 20
47.1909224382
 11
47.8822166344
 21
46.893361132
  0
LINE
  5
254
100
AcDbEntity
  8
0
100
AcDbLine
 62
7
  6
BYLAYER
 10
33.2090722263
 20
55.7077802549
 11
25.6596312907
 21
60.0663534071
  0
LINE
  5
255
100
AcDbEntity
  8
0
100
AcDbLine
 62
7
  6
BYLAYER
 10
33.2315869736
 20
55.7624241532
 11
25.6182088265
 21
60.1579106367
  0
LINE
  5
256
100
AcDbEntity
  8
0
100
AcDbLine
 62
7
  6
BYLAYER
 10
36.9673628971
 20
45.4407501692
 11
47.2203685367
 21
51.3602904003
  0
LINE
  5
257
100
AcDbEntity
  8
0
100
AcDbLine
 62
7
  6
BYLAYER
 10
29.7448901835
 20
40.4658215062
 11
32.9975678347
 21
42.343744614
  0
LINE
  5
258
100
AcDbEntity
  8
0
100
AcDbLine
 62
7
  6
BYLAYER
 10
47.8231350569
 20
48.8128816624
 11
47.3668136741
 21
49.0763329756
  0
LINE
  5
259
100
AcDbEntity
  8
0
100
AcDbLine
 62
7
  6
BYLAYER
 10
25.6182088265
 20
62.0174457729
 11
33.8505316301
 21
57.2646195094
  0
LINE
  5
25A
100
AcDbEntity
  8
0
100
AcDbLine
 62
7
  6
BYLAYER
 10
54.383034269
 20
45.4200667665
 11
54.5951671866
 21
45.2975945401
  0
LINE
  5
25B
100
AcDbEntity
  8
0
100
AcDbLine
 62
7
  6
BYLAYER
 10
33.9286390488
 20
57.4541883187
 11
25.6954259091
 21
62.2075286063
  0
LINE
  5
25C
100
AcDbEntity
  8
0
100
AcDbLine
 62
7
  6
BYLAYER
 10
45.8051169561
 20
56.4627890108
 11
46.9595053336
 21
59.264520703
  0
LINE
  5
25D
100
AcDbEntity
  8
0
100
AcDbLine
 62
7
  6
BYLAYER
 10
46.472282455
 20
54.7829312431
 11
46.4576034574
 21
54.7597219272
  0
LINE
  5
25E
100
AcDbEntity
  8
0
100
AcDbLine
 62
7
  6
BYLAYER
 10
57.1758917262
 20
59.7937010425
 11
54.9752134765
 21
59.7308760287
  0
LINE
  5
25F
100
AcDbEntity
  8
0
100
AcDbLine
 62
7
  6
BYLAYER
 10
47.3668136741
 20
51.6796854046
 11
48.3760367165
 21
51.097023391
  0
LINE
  5
260
100
AcDbEntity
  8
0
100
AcDbLine
 62
7
  6
BYLAYER
 10
46.3364784669
 20
53.5035874056
 11
46.5132558675
 21
53.4015272347
  0
LINE
  5
261
100
AcDbEntity
  8
0
100
AcDbLine
 62
7
  6
BYLAYER
 10
48.2494687238
 20
53.4134775829
 11
45.5753649282
 21
54.9573372023
  0
LINE
  5
262
100
AcDbEntity
  8
0
100
AcDbLine
 62
7
  6
BYLAYER
 10
45.5696890896
 20
55.0392250269
 11
46.422213086
 21
54.547031203
  0
LINE
  5
263
100
AcDbEntity
  8
0
100
AcDbLine
 62
7
  6
BYLAYER
 10
46.4576034574
 20
54.7597219272
 11
45.553417168
 21
55.2817423151
  0
LINE
  5
264
100
AcDbEntity
  8
0
100
AcDbLine
 62
7
  6
BYLAYER
 10
47.2203685367
 20
51.3602904003
 11
47.2203685367
 21
26.8652178864
  0
LINE
  5
265
100
AcDbEntity
  8
0
100
AcDbLine
 62
7
  6
BYLAYER
 10
47.3668136741
 20
26.5415155611
 11
47.3668136741
 21
52.0922334801
  0
LINE
  5
266
100
AcDbEntity
  8
0
100
AcDbLine
 62
7
  6
BYLAYER
 10
58.2513741324
 20
54.4996526164
 11
58.7364978908
 21
54.8386155182
  0
LINE
  5
267
100
AcDbEntity
  8
0
100
AcDbLine
 62
7
  6
BYLAYER
 10
36.9673628971
 20
40.0518342161
 11
33.7146852459
 21
38.1739111083
  0
LINE
  5
268
100
AcDbEntity
  8
0
100
AcDbLine
 62
7
  6
BYLAYER
 10
57.0951594813
 20
60.0578816667
 11
54.9577940906
 21
59.9968694695
  0
LINE
  5
269
100
AcDbEntity
  8
0
100
AcDbLine
 62
7
  6
BYLAYER
 10
54.4677342401
 20
60.9682592607
 11
58.3363116632
 21
61.0786897981
  0
LINE
  5
26A
100
AcDbEntity
  8
0
100
AcDbLine
 62
7
  6
BYLAYER
 10
58.2698991521
 20
61.0960699138
 11
54.4577337239
 21
60.9872496859
  0
LINE
  5
26B
100
AcDbEntity
  8
0
100
AcDbLine
 62
7
  6
BYLAYER
 10
29.2504717409
 20
66.3516554466
 11
35.9911676802
 21
62.460000873
  0
LINE
  5
26C
100
AcDbEntity
  8
0
100
AcDbLine
 62
7
  6
BYLAYER
 10
46.5319741227
 20
54.6695802302
 11
46.5807058106
 21
54.6198708608
  0
LINE
  5
26D
100
AcDbEntity
  8
0
100
AcDbLine
 62
7
  6
BYLAYER
 10
46.5319741227
 20
54.6695802302
 11
45.7248292633
 21
56.2023033573
  0
LINE
  5
26E
100
AcDbEntity
  8
0
100
AcDbLine
 62
7
  6
BYLAYER
 10
46.5807058255
 20
54.6198708323
 11
45.7331564371
 21
56.2293200672
  0
LINE
  5
26F
100
AcDbEntity
  8
0
100
AcDbLine
 62
7
  6
BYLAYER
 10
46.5319365763
 20
54.669652154
 11
46.5351589433
 21
54.6632275091
  0
LINE
  5
270
100
AcDbEntity
  8
0
100
AcDbLine
 62
7
  6
BYLAYER
 10
47.8822166344
 20
46.893361132
 11
48.7019421256
 21
45.0238381021
  0
LINE
  5
271
100
AcDbEntity
  8
0
100
AcDbLine
 62
7
  6
BYLAYER
 10
48.1547639806
 20
46.9485845397
 11
48.9744871229
 21
45.0790668666
  0
LINE
  5
272
100
AcDbEntity
  8
0
100
AcDbLine
 62
7
  6
BYLAYER
 10
48.3760367165
 20
51.097023391
 11
47.8231350569
 21
48.8128816624
  0
LINE
  5
273
100
AcDbEntity
  8
0
100
AcDbLine
 62
7
  6
BYLAYER
 10
48.6519556626
 20
51.0425564219
 11
48.099058082
 21
48.758431544
  0
LINE
  5
274
100
AcDbEntity
  8
0
100
AcDbLine
 62
7
  6
BYLAYER
 10
19.5806050957
 20
25.8306476909
 11
26.7223538515
 21
29.953913645
  0
LINE
  5
275
100
AcDbEntity
  8
0
100
AcDbLine
 62
7
  6
BYLAYER
 10
29.772719873
 20
68.1401264827
 11
36.6868171456
 21
64.148360867
  0
LINE
  5
276
100
AcDbEntity
  8
0
100
AcDbLine
 62
7
  6
BYLAYER
 10
46.1732139034
 20
57.3561702185
 11
48.2494687238
 21
53.4134775829
  0
LINE
  5
277
100
AcDbEntity
  8
0
100
AcDbLine
 62
7
  6
BYLAYER
 10
46.3057404685
 20
57.6778157625
 11
48.5190584831
 21
53.4748477306
  0
LINE
  5
278
100
AcDbEntity
  8
0
100
AcDbLine
 62
7
  6
BYLAYER
 10
54.9607475862
 20
59.9398512221
 11
54.9595240531
 21
59.9362658188
  0
LINE
  5
279
100
AcDbEntity
  8
0
100
AcDbLine
 62
7
  6
BYLAYER
 10
58.2698991521
 20
61.0960699138
 11
59.9077430268
 21
60.7055509416
  0
LINE
  5
27A
100
AcDbEntity
  8
0
100
AcDbLine
 62
7
  6
BYLAYER
 10
58.2698991521
 20
61.0960699138
 11
58.3363116632
 21
61.0786897981
  0
LINE
  5
27B
100
AcDbEntity
  8
0
100
AcDbLine
 62
7
  6
BYLAYER
 10
24.6282346036
 20
76.7328337882
 11
27.3152515591
 21
75.181518921
  0
LINE
  5
27C
100
AcDbEntity
  8
0
100
AcDbLine
 62
7
  6
BYLAYER
 10
38.558296189
 20
68.6904909241
 11
41.2453131445
 21
67.139176057
  0
LINE
  5
27D
100
AcDbEntity
  8
0
100
AcDbLine
 62
7
  6
BYLAYER
 10
28.2152401652
 20
25.7351520281
 11
29.8577264994
 21
26.6834362949
  0
LINE
  5
27E
100
AcDbEntity
  8
0
100
AcDbLine
 62
7
  6
BYLAYER
 10
56.4540834629
 20
50.2662246
 11
56.4030939849
 21
50.7969499694
  0
LINE
  5
27F
100
AcDbEntity
  8
0
100
AcDbLine
 62
7
  6
BYLAYER
 10
36.9673628971
 20
26.3345936083
 11
33.7146852459
 21
24.4566705005
  0
LINE
  5
280
100
AcDbEntity
  8
0
100
AcDbLine
 62
7
  6
BYLAYER
 10
31.2397741234
 20
23.0276741412
 11
27.9870964722
 21
21.1497510334
  0
LINE
  5
281
100
AcDbEntity
  8
0
100
AcDbLine
 62
7
  6
BYLAYER
 10
58.3363116632
 20
61.0786897981
 11
60.8111957012
 21
59.6498471573
  0
LINE
  5
282
100
AcDbEntity
  8
0
100
AcDbLine
 62
7
  6
BYLAYER
 10
59.9077430268
 20
60.7055509416
 11
62.5950314504
 21
59.1540793671
  0
LINE
  5
283
100
AcDbEntity
  8
0
100
AcDbLine
 62
7
  6
BYLAYER
 10
54.9042543779
 20
59.897004612
 11
52.3022726089
 21
64.8380235359
  0
LINE
  5
284
100
AcDbEntity
  8
0
100
AcDbLine
 62
7
  6
BYLAYER
 10
52.3472119668
 20
64.9950133318
 11
54.9400712131
 21
60.0713143256
  0
LINE
  5
285
100
AcDbEntity
  8
0
100
AcDbLine
 62
7
  6
BYLAYER
 10
55.1096977816
 20
65.7850290248
 11
60.0594658576
 21
62.9273437431
  0
LINE
  5
286
100
AcDbEntity
  8
0
100
AcDbLine
 62
7
  6
BYLAYER
 10
30.9921691385
 20
80.407031173
 11
33.6791860941
 21
78.8557163059
  0
LINE
  5
287
100
AcDbEntity
  8
0
100
AcDbLine
 62
7
  6
BYLAYER
 10
44.9222307239
 20
72.364688309
 11
47.6092476794
 21
70.8133734418
  0
LINE
  5
288
100
AcDbEntity
  8
0
100
AcDbLine
 62
7
  6
BYLAYER
 10
34.4921097539
 20
80.753726365
 11
37.1791267095
 21
79.2024114978
  0
LINE
  5
289
100
AcDbEntity
  8
0
100
AcDbLine
 62
7
  6
BYLAYER
 10
37.6033925445
 20
78.9574670451
 11
47.9271945317
 21
72.9971520291
  0
LINE
  5
28A
100
AcDbEntity
  8
0
100
AcDbLine
 62
7
  6
BYLAYER
 10
48.4221713393
 20
72.7113835009
 11
51.1091882949
 21
71.1600686337
  0
LINE
  5
28B
100
AcDbEntity
  8
0
100
AcDbLine
 62
7
  6
BYLAYER
 10
47.2203685367
 20
26.8652178864
 11
36.9673628971
 21
20.9456776553
  0
LINE
  5
28C
100
AcDbEntity
  8
0
100
AcDbLine
 62
7
  6
BYLAYER
 10
47.2606417575
 20
26.3811537413
 11
36.6566949517
 21
20.2589987428
  0
ARC
  5
28D
100
AcDbEntity
  8
0
100
AcDbCircle
 62
7
  6
BYLAYER
 10
66.6632346305
 20
153.4941664561
 40
108.9465960613
100
AcDbArc
 50
263.635193999
 51
263.9174394194
  0
ARC
  5
28E
100
AcDbEntity
  8
0
100
AcDbCircle
 62
7
  6
BYLAYER
 10
56.5007316244
 20
26.3632718435
 40
33.564507991
100
AcDbArc
 50
82.6215110345
 51
82.8082970291
  0
ARC
  5
28F
100
AcDbEntity
  8
0
100
AcDbCircle
 62
7
  6
BYLAYER
 10
11.6069923071
 20
32.0235412293
 40
23.7500172485
100
AcDbArc
 50
25.7556811485
 51
34.2445943009
  0
ARC
  5
290
100
AcDbEntity
  8
0
100
AcDbCircle
 62
7
  6
BYLAYER
 10
24.8216853552
 20
43.2571743129
 40
13.2041731592
100
AcDbArc
 50
180.0036659364
 51
181.6370016352
  0
ARC
  5
291
100
AcDbEntity
  8
0
100
AcDbCircle
 62
7
  6
BYLAYER
 10
27.7021626179
 20
37.6348673938
 40
11.3056826926
100
AcDbArc
 50
239.9886087214
 51
243.2097140823
  0
ARC
  5
292
100
AcDbEntity
  8
0
100
AcDbCircle
 62
7
  6
BYLAYER
 10
53.6383066771
 20
54.0761689726
 40
9.8060903586
100
AcDbArc
 50
308.5379754136
 51
309.4481016615
  0
ARC
  5
293
100
AcDbEntity
  8
0
100
AcDbCircle
 62
7
  6
BYLAYER
 10
53.9229302164
 20
53.8154382157
 40
9.3767931424
100
AcDbArc
 50
308.1933142358
 51
308.5353655725
  0
ARC
  5
294
100
AcDbEntity
  8
0
100
AcDbCircle
 62
7
  6
BYLAYER
 10
38.7232522461
 20
71.0280327979
 40
8.8893465715
100
AcDbArc
 50
130.1702533735
 51
130.5179263347
  0
ARC
  5
295
100
AcDbEntity
  8
0
100
AcDbCircle
 62
7
  6
BYLAYER
 10
38.6992647077
 20
71.0564166119
 40
8.8521841916
100
AcDbArc
 50
129.8888470245
 51
130.1701217911
  0
ARC
  5
296
100
AcDbEntity
  8
0
100
AcDbCircle
 62
7
  6
BYLAYER
 10
38.6434351036
 20
71.1232778612
 40
8.7650786826
100
AcDbArc
 50
129.4476116466
 51
129.8891126908
  0
ARC
  5
297
100
AcDbEntity
  8
0
100
AcDbCircle
 62
7
  6
BYLAYER
 10
38.534769803
 20
71.1485001612
 40
8.7476398688
100
AcDbArc
 50
129.4483333714
 51
130.1711040556
  0
ARC
  5
298
100
AcDbEntity
  8
0
100
AcDbCircle
 62
7
  6
BYLAYER
 10
49.0811770633
 20
65.0092728376
 40
8.6743292148
100
AcDbArc
 50
129.4542325782
 51
131.8019654794
  0
ARC
  5
299
100
AcDbEntity
  8
0
100
AcDbCircle
 62
7
  6
BYLAYER
 10
48.8411949238
 20
65.3169349853
 40
8.5660967919
100
AcDbArc
 50
128.4048404924
 51
129.4509503055
  0
ARC
  5
29A
100
AcDbEntity
  8
0
100
AcDbCircle
 62
7
  6
BYLAYER
 10
48.8564921178
 20
65.2815305455
 40
8.3213315563
100
AcDbArc
 50
128.4048402387
 51
129.4509468531
  0
ARC
  5
29B
100
AcDbEntity
  8
0
100
AcDbCircle
 62
7
  6
BYLAYER
 10
18.5602370357
 20
33.4372650016
 40
8.0138096076
100
AcDbArc
 50
239.9896127728
 51
243.0830724746
  0
ARC
  5
29C
100
AcDbEntity
  8
0
100
AcDbCircle
 62
7
  6
BYLAYER
 10
16.1922606876
 20
37.3414442106
 40
7.8981090106
100
AcDbArc
 50
176.893415199
 51
180.033648005
  0
ARC
  5
29D
100
AcDbEntity
  8
0
100
AcDbCircle
 62
7
  6
BYLAYER
 10
13.509581458
 20
30.507364045
 40
7.3002441686
100
AcDbArc
 50
356.8019534346
 51
357.9668535079
  0
ARC
  5
29E
100
AcDbEntity
  8
0
100
AcDbCircle
 62
7
  6
BYLAYER
 10
11.2489011062
 20
34.4349957132
 40
7.2935199683
100
AcDbArc
 50
61.5094035943
 51
63.3093054893
  0
ARC
  5
29F
100
AcDbEntity
  8
0
100
AcDbCircle
 62
7
  6
BYLAYER
 10
51.8357465868
 20
50.3264952173
 40
5.191196752
100
AcDbArc
 50
277.1156321785
 51
279.7942343502
  0
ARC
  5
2A0
100
AcDbEntity
  8
0
100
AcDbCircle
 62
7
  6
BYLAYER
 10
17.9332998566
 20
45.1947506271
 40
4.256989429
100
AcDbArc
 50
126.8134307888
 51
130.3900532111
  0
ARC
  5
2A1
100
AcDbEntity
  8
0
100
AcDbCircle
 62
7
  6
BYLAYER
 10
60.9157464148
 20
55.9930664744
 40
3.658274978
100
AcDbArc
 50
91.6376927448
 51
92.8992230708
  0
ARC
  5
2A2
100
AcDbEntity
  8
0
100
AcDbCircle
 62
7
  6
BYLAYER
 10
32.3060896142
 20
69.3738132882
 40
3.0902143476
100
AcDbArc
 50
209.8406211066
 51
213.2063842511
  0
ARC
  5
2A3
100
AcDbEntity
  8
0
100
AcDbCircle
 62
7
  6
BYLAYER
 10
32.3291681639
 20
69.3152971846
 40
3.0635121597
100
AcDbArc
 50
208.4763223996
 51
211.3213748828
  0
ARC
  5
2A4
100
AcDbEntity
  8
0
100
AcDbCircle
 62
7
  6
BYLAYER
 10
56.0155276892
 20
47.7627691381
 40
2.8450851931
100
AcDbArc
 50
240.0507293432
 51
253.4577622987
  0
ARC
  5
2A5
100
AcDbEntity
  8
0
100
AcDbCircle
 62
7
  6
BYLAYER
 10
55.9415617856
 20
47.6268892584
 40
2.6904674255
100
AcDbArc
 50
233.3714158794
 51
234.7628368865
  0
ARC
  5
2A6
100
AcDbEntity
  8
0
100
AcDbCircle
 62
7
  6
BYLAYER
 10
55.9327155634
 20
47.6142545328
 40
2.6750438149
100
AcDbArc
 50
234.7614570368
 51
239.9995528397
  0
ARC
  5
2A7
100
AcDbEntity
  8
0
100
AcDbCircle
 62
7
  6
BYLAYER
 10
46.6936476737
 20
70.8608314974
 40
2.4668812831
100
AcDbArc
 50
56.0457639986
 51
59.9971513314
  0
ARC
  5
2A8
100
AcDbEntity
  8
0
100
AcDbCircle
 62
7
  6
BYLAYER
 10
35.9998838043
 20
77.1617298137
 40
2.3568735679
100
AcDbArc
 50
50.7852898254
 51
59.9777936375
  0
ARC
  5
2A9
100
AcDbEntity
  8
0
100
AcDbCircle
 62
7
  6
BYLAYER
 10
58.1471504033
 20
51.3988137242
 40
1.7411326899
100
AcDbArc
 50
188.0414652744
 51
191.6215781431
  0
ARC
  5
2AA
100
AcDbEntity
  8
0
100
AcDbCircle
 62
7
  6
BYLAYER
 10
25.9597221933
 20
61.9833878596
 40
0.3466040578
100
AcDbArc
 50
144.847849103
 51
151.704075435
  0
ARC
  5
2AB
100
AcDbEntity
  8
0
100
AcDbCircle
 62
7
  6
BYLAYER
 10
25.9459862149
 20
61.9931878512
 40
0.3297308389
100
AcDbArc
 50
139.454805854
 51
144.8659628452
  0
ARC
  5
2AC
100
AcDbEntity
  8
0
100
AcDbCircle
 62
7
  6
BYLAYER
 10
48.8330651778
 20
45.1607150175
 40
0.2
100
AcDbArc
 50
240.0005612632
 51
274.9835848794
  0
ARC
  5
2AD
100
AcDbEntity
  8
0
100
AcDbCircle
 62
7
  6
BYLAYER
 10
25.759629594
 20
62.0990946037
 40
0.2
100
AcDbArc
 50
139.3729605249
 51
179.9999999995
  0
ARC
  5
2AE
100
AcDbEntity
  8
0
100
AcDbCircle
 62
7
  6
BYLAYER
 10
25.759629594
 20
60.2395594675
 40
0.2
100
AcDbArc
 50
180.0000000009
 51
240.0005612632
  0
ARC
  5
2AF
100
AcDbEntity
  8
0
100
AcDbCircle
 62
7
  6
BYLAYER
 10
54.7628321632
 20
59.9786532749
 40
0.2
100
AcDbArc
 50
348.9783935744
 51
27.6006891906
  0
ARC
  5
2B0
100
AcDbEntity
  8
0
100
AcDbCircle
 62
7
  6
BYLAYER
 10
54.7612225106
 20
60.030681572
 40
0.1953943953
100
AcDbArc
 50
328.7917410064
 51
334.8004475565
  0
SPLINE
  5
2B1
100
AcDbEntity
  8
0
100
AcDbSpline
 62
7
  6
BYLAYER
 70
0
 71
3
 72
15
 73
11
 74
0
 42
0.0000001
 43
0.0000001
 44
0.0000000001
 40
0.0
 40
0.0
 40
0.0
 40
0.0
 40
0.1432762849
 40
0.2801791618
 40
0.4110207048
 40
0.5363220232
 40
0.6568193217
 40
0.7734712627
 40
0.8874296914
 40
1.0
 40
1.0
 40
1.0
 40
1.0
 10
62.0483391051
 20
59.5436714436
 30
0.0
 10
62.020626234
 20
59.7356688532
 30
0.0
 10
61.9516224204
 20
60.1092176323
 30
0.0
 10
61.8025962059
 20
60.6461754742
 30
0.0
 10
61.6112016022
 20
61.1436999118
 30
0.0
 10
61.3785108441
 20
61.5986230462
 30
0.0
 10
61.1057594221
 20
62.0079733256
 30
0.0
 10
60.7945560105
 20
62.3690568738
 30
0.0
 10
60.4468348951
 20
62.6792387742
 30
0.0
 10
60.1914588514
 20
62.8511359811
 30
0.0
 10
60.0594619234
 20
62.9273369195
 30
0.0
  0
SPLINE
  5
2B2
100
AcDbEntity
  8
0
100
AcDbSpline
 62
7
  6
BYLAYER
 70
0
 71
3
 72
12
 73
8
 74
0
 42
0.0000001
 43
0.0000001
 44
0.0000000001
 40
0.0
 40
0.0
 40
0.0
 40
0.0
 40
0.2655302205
 40
0.5181316831
 40
0.7614033013
 40
0.8810132754
 40
1.0
 40
1.0
 40
1.0
 40
1.0
 10
52.6970308973
 20
66.2172919829
 30
0.0
 10
52.9160206831
 20
66.2443149353
 30
0.0
 10
53.3475905997
 20
66.2690535093
 30
0.0
 10
53.9800046372
 20
66.2099493989
 30
0.0
 10
54.4771546059
 20
66.0785591538
 30
0.0
 10
54.8478216354
 20
65.9259826486
 30
0.0
 10
55.0240628892
 20
65.8344566314
 30
0.0
 10
55.1096939779
 20
65.7850224241
 30
0.0
  0
SPLINE
  5
2B3
100
AcDbEntity
  8
0
100
AcDbSpline
 62
7
  6
BYLAYER
 70
0
 71
3
 72
9
 73
5
 74
0
 42
0.0000001
 43
0.0000001
 44
0.0000000001
 40
0.0
 40
0.0
 40
0.0
 40
0.0
 40
0.2443815908
 40
1.0
 40
1.0
 40
1.0
 40
1.0
 10
51.7147416466
 20
45.1421664906
 30
0.0
 10
51.7770246994
 20
45.1395131176
 30
0.0
 10
52.0321098777
 20
45.1343208056
 30
0.0
 10
52.2875218186
 20
45.1514266157
 30
0.0
 10
52.4787916167
 20
45.1752801366
 30
0.0
  0
SPLINE
  5
2B4
100
AcDbEntity
  8
0
100
AcDbSpline
 62
7
  6
BYLAYER
 70
0
 71
3
 72
15
 73
11
 74
0
 42
0.0000001
 43
0.0000001
 44
0.0000000001
 40
0.0
 40
0.0
 40
0.0
 40
0.0
 40
0.1080128644
 40
0.2180624559
 40
0.3319996311
 40
0.4513578861
 40
0.5772788539
 40
0.7104939106
 40
0.8514110617
 40
1.0
 40
1.0
 40
1.0
 40
1.0
 10
60.0594619234
 20
62.9273369195
 30
0.0
 10
59.8955084329
 20
63.0219861664
 30
0.0
 10
59.547420716
 20
63.1850083231
 30
0.0
 10
58.9841791333
 20
63.3407343674
 30
0.0
 10
58.3837604895
 20
63.4077043943
 30
0.0
 10
57.752541911
 20
63.3857514457
 30
0.0
 10
57.096623667
 20
63.2757037565
 30
0.0
 10
56.422088737
 20
63.0790672314
 30
0.0
 10
55.7353233608
 20
62.7979770359
 30
0.0
 10
55.2850896629
 20
62.5622791054
 30
0.0
 10
55.0595506927
 20
62.4320648975
 30
0.0
  0
SPLINE
  5
2B5
100
AcDbEntity
  8
0
100
AcDbSpline
 62
7
  6
BYLAYER
 70
0
 71
3
 72
11
 73
7
 74
0
 42
0.0000001
 43
0.0000001
 44
0.0000000001
 40
0.0
 40
0.0
 40
0.0
 40
0.0
 40
0.2366925656
 40
0.4790188735
 40
0.7321002481
 40
1.0
 40
1.0
 40
1.0
 40
1.0
 10
56.9208746685
 20
50.3057212949
 30
0.0
 10
56.874507678
 20
50.3324957902
 30
0.0
 10
56.7856946719
 20
50.3959393266
 30
0.0
 10
56.6709219434
 20
50.5165606241
 30
0.0
 10
56.5751695509
 20
50.6612004792
 30
0.0
 10
56.5263199334
 20
50.7690101776
 30
0.0
 10
56.5050905776
 20
50.8257717022
 30
0.0
  0
SPLINE
  5
2B6
100
AcDbEntity
  8
0
100
AcDbSpline
 62
7
  6
BYLAYER
 70
0
 71
3
 72
9
 73
5
 74
0
 42
0.0000001
 43
0.0000001
 44
0.0000000001
 40
0.0
 40
0.0
 40
0.0
 40
0.0
 40
0.2432562928
 40
1.0
 40
1.0
 40
1.0
 40
1.0
 10
56.5050905776
 20
50.8257717022
 30
0.0
 10
56.4985208714
 20
50.84333731
 30
0.0
 10
56.4730297578
 20
50.9161104182
 30
0.0
 10
56.4534812589
 20
50.9909259664
 30
0.0
 10
56.4417118872
 20
51.048068073
 30
0.0
  0
SPLINE
  5
2B7
100
AcDbEntity
  8
0
100
AcDbSpline
 62
7
  6
BYLAYER
 70
0
 71
3
 72
12
 73
8
 74
0
 42
0.0000001
 43
0.0000001
 44
0.0000000001
 40
0.0
 40
0.0
 40
0.0
 40
0.0
 40
0.2830114303
 40
0.5399147377
 40
0.775669617
 40
0.888618132
 40
1.0
 40
1.0
 40
1.0
 40
1.0
 10
58.3622259577
 20
54.610530499
 30
0.0
 10
58.4566452963
 20
54.6531665476
 30
0.0
 10
58.6436873547
 20
54.7207495528
 30
0.0
 10
58.9265276914
 20
54.7634119329
 30
0.0
 10
59.1501043748
 20
54.7427705701
 30
0.0
 10
59.3112427202
 20
54.6921061009
 30
0.0
 10
59.3855001306
 20
54.656220888
 30
0.0
 10
59.4208087152
 20
54.6358320397
 30
0.0
  0
SPLINE
  5
2B8
100
AcDbEntity
  8
0
100
AcDbSpline
 62
7
  6
BYLAYER
 70
0
 71
3
 72
15
 73
11
 74
0
 42
0.0000001
 43
0.0000001
 44
0.0000000001
 40
0.0
 40
0.0
 40
0.0
 40
0.0
 40
0.1120571792
 40
0.23207738
 40
0.358287768
 40
0.4884901582
 40
0.6202524574
 40
0.7510305733
 40
0.878383067
 40
1.0
 40
1.0
 40
1.0
 40
1.0
 10
56.4030915111
 20
50.796948541
 30
0.0
 10
56.4030840669
 20
50.9559321732
 30
0.0
 10
56.4281488839
 20
51.2854612978
 30
0.0
 10
56.5297701048
 20
51.7846150216
 30
0.0
 10
56.6939068638
 20
52.2939223341
 30
0.0
 10
56.9159198811
 20
52.7989167711
 30
0.0
 10
57.1895244636
 20
53.2853413926
 30
0.0
 10
57.5069749603
 20
53.7394818181
 30
0.0
 10
57.8592474271
 20
54.148336326
 30
0.0
 10
58.1181316682
 20
54.3900222113
 30
0.0
 10
58.2513741324
 20
54.4996526164
 30
0.0
  0
SPLINE
  5
2B9
100
AcDbEntity
  8
0
100
AcDbSpline
 62
7
  6
BYLAYER
 70
0
 71
3
 72
15
 73
11
 74
0
 42
0.0000001
 43
0.0000001
 44
0.0000000001
 40
0.0
 40
0.0
 40
0.0
 40
0.0
 40
0.1476877763
 40
0.2889308252
 40
0.4232187731
 40
0.5505267032
 40
0.6710942471
 40
0.7854963722
 40
0.8947043739
 40
1.0
 40
1.0
 40
1.0
 40
1.0
 10
59.7478266251
 20
46.4058903514
 30
0.0
 10
59.5582647185
 20
46.2549161621
 30
0.0
 10
59.1761033616
 20
45.9733478162
 30
0.0
 10
58.5839086538
 20
45.6089964066
 30
0.0
 10
57.9903760101
 20
45.3156594884
 30
0.0
 10
57.4013772793
 20
45.0968475594
 30
0.0
 10
56.8224459561
 20
44.9554603326
 30
0.0
 10
56.2591615734
 20
44.8941949201
 30
0.0
 10
55.7178482461
 20
44.9152489644
 30
0.0
 10
55.3710348909
 20
44.9860490228
 30
0.0
 10
55.2054690672
 20
45.0354417311
 30
0.0
  0
SPLINE
  5
2BA
100
AcDbEntity
  8
0
100
AcDbSpline
 62
7
  6
BYLAYER
 70
0
 71
3
 72
24
 73
20
 74
0
 42
0.0000001
 43
0.0000001
 44
0.0000000001
 40
0.0
 40
0.0
 40
0.0
 40
0.0
 40
0.0222041305
 40
0.0445679749
 40
0.0903166049
 40
0.1384189765
 40
0.1897071011
 40
0.2446840147
 40
0.3035290753
 40
0.3661345089
 40
0.4321546042
 40
0.5010578174
 40
0.5721736462
 40
0.6447330601
 40
0.7179060962
 40
0.7908395685
 40
0.8626806593
 40
0.9326514895
 40
1.0
 40
1.0
 40
1.0
 40
1.0
 10
62.596475247
 20
59.153222861
 30
0.0
 10
62.6896730378
 20
59.0993234232
 30
0.0
 10
62.8706630201
 20
58.9801950213
 30
0.0
 10
63.207241298
 20
58.6988171534
 30
0.0
 10
63.5754458497
 20
58.2659073722
 30
0.0
 10
63.9152028479
 20
57.6449268123
 30
0.0
 10
64.1541612865
 20
56.9320370363
 30
0.0
 10
64.2911489167
 20
56.1406149535
 30
0.0
 10
64.326213262
 20
55.2837879576
 30
0.0
 10
64.2601116955
 20
54.3754821263
 30
0.0
 10
64.0947488624
 20
53.4306303684
 30
0.0
 10
63.8333758659
 20
52.4650847696
 30
0.0
 10
63.4807222481
 20
51.4953289205
 30
0.0
 10
63.0430297842
 20
50.5381321706
 30
0.0
 10
62.5279893378
 20
49.6101710921
 30
0.0
 10
61.9446306414
 20
48.7277354741
 30
0.0
 10
61.3031254449
 20
47.9061338546
 30
0.0
 10
60.61459764
 20
47.1599769307
 30
0.0
 10
60.1210588963
 20
46.7113829137
 30
0.0
 10
59.8688908012
 20
46.5039018356
 30
0.0
  0
SPLINE
  5
2BB
100
AcDbEntity
  8
0
100
AcDbSpline
 62
7
  6
BYLAYER
 70
0
 71
3
 72
15
 73
11
 74
0
 42
0.0000001
 43
0.0000001
 44
0.0000000001
 40
0.0
 40
0.0
 40
0.0
 40
0.0
 40
0.1079047228
 40
0.1741233865
 40
0.1910913419
 40
0.231014424
 40
0.3361724921
 40
0.5065249779
 40
0.7313874548
 40
1.0
 40
1.0
 40
1.0
 40
1.0
 10
54.9525174059
 20
59.9189232721
 30
0.0
 10
54.9526888073
 20
59.9178729904
 30
0.0
 10
54.9529064435
 20
59.9160399095
 30
0.0
 10
54.9530978353
 20
59.9144798231
 30
0.0
 10
54.9530241943
 20
59.9128346104
 30
0.0
 10
54.953258952
 20
59.9158070813
 30
0.0
 10
54.9537629713
 20
59.9177645904
 30
0.0
 10
54.9549135321
 20
59.92316961
 30
0.0
 10
54.9567827782
 20
59.9291958464
 30
0.0
 10
54.9585116431
 20
59.9338209491
 30
0.0
 10
54.9595273703
 20
59.9362675909
 30
0.0
  0
SPLINE
  5
2BC
100
AcDbEntity
  8
0
100
AcDbSpline
 62
7
  6
BYLAYER
 70
0
 71
3
 72
13
 73
9
 74
0
 42
0.0000001
 43
0.0000001
 44
0.0000000001
 40
0.0
 40
0.0
 40
0.0
 40
0.0
 40
0.1033773747
 40
0.2169239182
 40
0.3388373873
 40
0.46715906
 40
0.7340641075
 40
1.0
 40
1.0
 40
1.0
 40
1.0
 10
29.7663092326
 20
67.9706366665
 30
0.0
 10
29.7715236446
 20
67.9106905794
 30
0.0
 10
29.7728991988
 20
67.7839860573
 30
0.0
 10
29.7511276028
 20
67.5875800155
 30
0.0
 10
29.7053187687
 20
67.3804553449
 30
0.0
 10
29.6120882993
 20
67.0938436926
 30
0.0
 10
29.4440507783
 20
66.7454234921
 30
0.0
 10
29.2636627138
 20
66.4909275913
 30
0.0
 10
29.1628772784
 20
66.3734417282
 30
0.0
  0
SPLINE
  5
2BD
100
AcDbEntity
  8
0
100
AcDbSpline
 62
7
  6
BYLAYER
 70
0
 71
3
 72
15
 73
11
 74
0
 42
0.0000001
 43
0.0000001
 44
0.0000000001
 40
0.0
 40
0.0
 40
0.0
 40
0.0
 40
0.1510739992
 40
0.2943663223
 40
0.4292893225
 40
0.5559194485
 40
0.6748225546
 40
0.7872089481
 40
0.8948384765
 40
1.0
 40
1.0
 40
1.0
 40
1.0
 10
32.9766756008
 20
77.9034089032
 30
0.0
 10
33.1725306188
 20
78.0645562136
 30
0.0
 10
33.568209396
 20
78.3620591721
 30
0.0
 10
34.185372241
 20
78.7367248319
 30
0.0
 10
34.8036382744
 20
79.0229272611
 30
0.0
 10
35.4147015478
 20
79.2156314449
 30
0.0
 10
36.0106149323
 20
79.3103786951
 30
0.0
 10
36.5827310982
 20
79.3030816023
 30
0.0
 10
37.1206764385
 20
79.1911972589
 30
0.0
 10
37.4504955133
 20
79.0457401902
 30
0.0
 10
37.6033925445
 20
78.9574670451
 30
0.0
  0
SPLINE
  5
2BE
100
AcDbEntity
  8
0
100
AcDbSpline
 62
7
  6
BYLAYER
 70
0
 71
3
 72
20
 73
16
 74
0
 42
0.0000001
 43
0.0000001
 44
0.0000000001
 40
0.0
 40
0.0
 40
0.0
 40
0.0
 40
0.0470289486
 40
0.0967036251
 40
0.1493268797
 40
0.2050195462
 40
0.2637363345
 40
0.3252955083
 40
0.3893942085
 40
0.455639377
 40
0.5925728269
 40
0.7319230151
 40
0.8691277756
 40
0.9356297911
 40
1.0
 40
1.0
 40
1.0
 40
1.0
 10
29.6255978418
 20
67.8361564434
 30
0.0
 10
29.5381359069
 20
67.9884891226
 30
0.0
 10
29.3840984528
 20
68.3170445686
 30
0.0
 10
29.2213834461
 20
68.8521444557
 30
0.0
 10
29.1215957305
 20
69.4351664418
 30
0.0
 10
29.0849141425
 20
70.0590805657
 30
0.0
 10
29.1109446282
 20
70.7167685608
 30
0.0
 10
29.1989801505
 20
71.4005817936
 30
0.0
 10
29.347610307
 20
72.1025258406
 30
0.0
 10
29.6270203624
 20
73.0617048754
 30
0.0
 10
30.1146320787
 20
74.2491891899
 30
0.0
 10
30.8834993933
 20
75.5931562585
 30
0.0
 10
31.6608432797
 20
76.6172021556
 30
0.0
 10
32.3473968045
 20
77.3469909184
 30
0.0
 10
32.7081910116
 20
77.6776710708
 30
0.0
 10
32.8919087508
 20
77.8327594634
 30
0.0
  0
SPLINE
  5
2BF
100
AcDbEntity
  8
0
100
AcDbSpline
 62
7
  6
BYLAYER
 70
0
 71
3
 72
24
 73
20
 74
0
 42
0.0000001
 43
0.0000001
 44
0.0000000001
 40
0.0
 40
0.0
 40
0.0
 40
0.0
 40
0.0213522683
 40
0.0428952022
 40
0.0871992026
 40
0.1342252482
 40
0.1848410848
 40
0.239515457
 40
0.298361685
 40
0.3612012348
 40
0.4276258355
 40
0.4970520814
 40
0.5687668572
 40
0.6419658638
 40
0.7157886145
 40
0.7893538532
 40
0.8617808808
 40
0.932258022
 40
1.0
 40
1.0
 40
1.0
 40
1.0
 10
54.383038283
 20
45.4200737186
 30
0.0
 10
54.2935102648
 20
45.4717722172
 30
0.0
 10
54.1195437076
 20
45.5862536566
 30
0.0
 10
53.795281332
 20
45.8578328681
 30
0.0
 10
53.4391544306
 20
46.2786005655
 30
0.0
 10
53.1094505543
 20
46.8862207435
 30
0.0
 10
52.8765627431
 20
47.5894805935
 30
0.0
 10
52.7432734046
 20
48.3755606368
 30
0.0
 10
52.7108845408
 20
49.2309244072
 30
0.0
 10
52.7795075539
 20
50.140835017
 30
0.0
 10
52.9477006601
 20
51.0895018344
 30
0.0
 10
53.2124150201
 20
52.0603141008
 30
0.0
 10
53.5689470464
 20
53.0361631727
 30
0.0
 10
54.0109795939
 20
53.9997728648
 30
0.0
 10
54.5306720101
 20
54.9340545764
 30
0.0
 10
55.1187905371
 20
55.8223701774
 30
0.0
 10
55.764894664
 20
56.6490819981
 30
0.0
 10
56.4574910181
 20
57.3992983552
 30
0.0
 10
56.9535668697
 20
57.8501638249
 30
0.0
 10
57.2068451659
 20
58.0585583641
 30
0.0
  0
LINE
  5
2C0
100
AcDbEntity
  8
0
100
AcDbLine
 62
7
  6
BYLAYER
 10
54.5855797054
 20
45.2190952492
 11
54.5030274902
 21
45.2282535848
  0
SPLINE
  5
2C1
100
AcDbEntity
  8
0
100
AcDbSpline
 62
7
  6
BYLAYER
 70
0
 71
3
 72
11
 73
7
 74
0
 42
0.0000001
 43
0.0000001
 44
0.0000000001
 40
0.0
 40
0.0
 40
0.0
 40
0.0
 40
0.2689701742
 40
0.5284193401
 40
0.7741982744
 40
1.0
 40
1.0
 40
1.0
 40
1.0
 10
54.5030274902
 20
45.2282535848
 30
0.0
 10
54.3326022445
 20
45.2471739779
 30
0.0
 10
53.9977992743
 20
45.2844589222
 30
0.0
 10
53.5068973074
 20
45.3358084015
 30
0.0
 10
53.0426003732
 20
45.3762414482
 30
0.0
 10
52.742235823
 20
45.3923960595
 30
0.0
 10
52.5983088599
 20
45.3950695825
 30
0.0
  0
SPLINE
  5
2C2
100
AcDbEntity
  8
0
100
AcDbSpline
 62
7
  6
BYLAYER
 70
0
 71
3
 72
11
 73
7
 74
0
 42
0.0000001
 43
0.0000001
 44
0.0000000001
 40
0.0
 40
0.0
 40
0.0
 40
0.0
 40
0.2354164484
 40
0.4838177311
 40
0.7419966033
 40
1.0
 40
1.0
 40
1.0
 40
1.0
 10
52.4743806515
 20
45.2775418092
 30
0.0
 10
52.4884965594
 20
45.2788239825
 30
0.0
 10
52.5172972063
 20
45.2868742229
 30
0.0
 10
52.5538596386
 20
45.3139240892
 30
0.0
 10
52.5817063188
 20
45.3512518992
 30
0.0
 10
52.5937809554
 20
45.3802114125
 30
0.0
 10
52.5982888164
 20
45.3950768926
 30
0.0
  0
SPLINE
  5
2C3
100
AcDbEntity
  8
0
100
AcDbSpline
 62
7
  6
BYLAYER
 70
0
 71
3
 72
14
 73
10
 74
0
 42
0.0000001
 43
0.0000001
 44
0.0000000001
 40
0.0
 40
0.0
 40
0.0
 40
0.0
 40
0.1079491362
 40
0.2107030605
 40
0.3145734908
 40
0.4260591911
 40
0.5496203699
 40
0.6871617604
 40
1.0
 40
1.0
 40
1.0
 40
1.0
 10
54.9752134765
 20
59.7308760287
 30
0.0
 10
54.9676000084
 20
59.7306586984
 30
0.0
 10
54.9525669456
 20
59.7321777432
 30
0.0
 10
54.931877595
 20
59.7412439461
 30
0.0
 10
54.9151711155
 20
59.7568215876
 30
0.0
 10
54.9031280295
 20
59.7778194431
 30
0.0
 10
54.8959540684
 20
59.8033348192
 30
0.0
 10
54.8927975727
 20
59.8438894452
 30
0.0
 10
54.8982264721
 20
59.8757707059
 30
0.0
 10
54.9042543779
 20
59.897004612
 30
0.0
  0
SPLINE
  5
2C4
100
AcDbEntity
  8
0
100
AcDbSpline
 62
7
  6
BYLAYER
 70
0
 71
3
 72
23
 73
19
 74
0
 42
0.0000001
 43
0.0000001
 44
0.0000000001
 40
0.0
 40
0.0
 40
0.0
 40
0.0
 40
0.0434021937
 40
0.08949604
 40
0.1390973624
 40
0.1926638214
 40
0.2502956304
 40
0.3118167462
 40
0.3768281966
 40
0.4447617518
 40
0.5149238926
 40
0.5865333792
 40
0.6587547099
 40
0.7307296782
 40
0.8016113136
 40
0.8705848536
 40
0.936931766
 40
1.0
 40
1.0
 40
1.0
 40
1.0
 10
52.5983366123
 20
45.3950600854
 30
0.0
 10
52.4238365707
 20
45.5609970135
 30
0.0
 10
52.1025743519
 20
45.9455372484
 30
0.0
 10
51.7357358292
 20
46.6294421733
 30
0.0
 10
51.4771359061
 20
47.4200839191
 30
0.0
 10
51.3297818954
 20
48.3028651735
 30
0.0
 10
51.2951881297
 20
49.2628278795
 30
0.0
 10
51.3734140472
 20
50.2834992276
 30
0.0
 10
51.5628640444
 20
51.3472975635
 30
0.0
 10
51.8601207239
 20
52.4357159877
 30
0.0
 10
52.2599337009
 20
53.5297052893
 30
0.0
 10
52.7552654793
 20
54.6100364474
 30
0.0
 10
53.3373928366
 20
55.6576673675
 30
0.0
 10
53.9960485277
 20
56.6541359835
 30
0.0
 10
54.7196169922
 20
57.5818231422
 30
0.0
 10
55.4953826862
 20
58.4245421778
 30
0.0
 10
56.3096577066
 20
59.167222224
 30
0.0
 10
56.8849739963
 20
59.5992663778
 30
0.0
 10
57.1758917262
 20
59.7937010425
 30
0.0
  0
SPLINE
  5
2C5
100
AcDbEntity
  8
0
100
AcDbSpline
 62
7
  6
BYLAYER
 70
0
 71
3
 72
11
 73
7
 74
0
 42
0.0000001
 43
0.0000001
 44
0.0000000001
 40
0.0
 40
0.0
 40
0.0
 40
0.0
 40
0.2819404099
 40
0.5438706401
 40
0.7832730735
 40
1.0
 40
1.0
 40
1.0
 40
1.0
 10
48.099058082
 20
48.758431544
 30
0.0
 10
48.0583881824
 20
48.5904164675
 30
0.0
 10
47.9980605486
 20
48.2614692221
 30
0.0
 10
47.9739833525
 20
47.7802139088
 30
0.0
 10
48.0200304002
 20
47.340432116
 30
0.0
 10
48.1014032636
 20
47.0702827062
 30
0.0
 10
48.1547639806
 20
46.9485845397
 30
0.0
  0
SPLINE
  5
2C6
100
AcDbEntity
  8
0
100
AcDbSpline
 62
7
  6
BYLAYER
 70
0
 71
3
 72
13
 73
9
 74
0
 42
0.0000001
 43
0.0000001
 44
0.0000000001
 40
0.0
 40
0.0
 40
0.0
 40
0.0
 40
0.2138163955
 40
0.3298731548
 40
0.45216396
 40
0.5806652824
 40
0.7151583975
 40
1.0
 40
1.0
 40
1.0
 40
1.0
 10
48.5190584831
 20
53.4748477306
 30
0.0
 10
48.6015658104
 20
53.3181708966
 30
0.0
 10
48.6956701148
 20
53.0581313981
 30
0.0
 10
48.7671447713
 20
52.6903126098
 30
0.0
 10
48.7965305598
 20
52.3874279336
 30
0.0
 10
48.7998396673
 20
52.0680176705
 30
0.0
 10
48.7690076178
 20
51.6150280292
 30
0.0
 10
48.7074535773
 20
51.2718288442
 30
0.0
 10
48.6519556626
 20
51.0425564219
 30
0.0
  0
SPLINE
  5
2C7
100
AcDbEntity
  8
0
100
AcDbSpline
 62
7
  6
BYLAYER
 70
0
 71
3
 72
11
 73
7
 74
0
 42
0.0000001
 43
0.0000001
 44
0.0000000001
 40
0.0
 40
0.0
 40
0.0
 40
0.0
 40
0.2276674165
 40
0.4665455318
 40
0.7240394576
 40
1.0
 40
1.0
 40
1.0
 40
1.0
 10
48.8504392453
 20
44.9614710794
 30
0.0
 10
48.8641077246
 20
44.9626686979
 30
0.0
 10
48.8918874559
 20
44.9703347936
 30
0.0
 10
48.9281176529
 20
44.9959482552
 30
0.0
 10
48.9568930774
 20
45.0332634571
 30
0.0
 10
48.9696608085
 20
45.0631512185
 30
0.0
 10
48.9744871229
 20
45.0790668666
 30
0.0
  0
SPLINE
  5
2C8
100
AcDbEntity
  8
0
100
AcDbSpline
 62
7
  6
BYLAYER
 70
0
 71
3
 72
9
 73
5
 74
0
 42
0.0000001
 43
0.0000001
 44
0.0000000001
 40
0.0
 40
0.0
 40
0.0
 40
0.0
 40
0.4980235695
 40
1.0
 40
1.0
 40
1.0
 40
1.0
 10
54.9752116921
 20
59.7308759777
 30
0.0
 10
54.9833201988
 20
59.7552577648
 30
0.0
 10
54.9915576433
 20
59.8071246486
 30
0.0
 10
54.9842830314
 20
59.8590959068
 30
0.0
 10
54.9767155985
 20
59.8838643429
 30
0.0
  0
SPLINE
  5
2C9
100
AcDbEntity
  8
0
100
AcDbSpline
 62
7
  6
BYLAYER
 70
0
 71
3
 72
9
 73
5
 74
0
 42
0.0000001
 43
0.0000001
 44
0.0000000001
 40
0.0
 40
0.0
 40
0.0
 40
0.0
 40
0.2535468043
 40
1.0
 40
1.0
 40
1.0
 40
1.0
 10
54.9767155985
 20
59.8838643429
 30
0.0
 10
54.9756711252
 20
59.8872829354
 30
0.0
 10
54.9712514891
 20
59.9006718565
 30
0.0
 10
54.9656305396
 20
59.9136690797
 30
0.0
 10
54.9607646445
 20
59.9230003446
 30
0.0
  0
SPLINE
  5
2CA
100
AcDbEntity
  8
0
100
AcDbSpline
 62
7
  6
BYLAYER
 70
0
 71
3
 72
9
 73
5
 74
0
 42
0.0000001
 43
0.0000001
 44
0.0000000001
 40
0.0
 40
0.0
 40
0.0
 40
0.0
 40
0.2435543205
 40
1.0
 40
1.0
 40
1.0
 40
1.0
 10
43.3981478356
 20
71.9314079533
 30
0.0
 10
43.3123565945
 20
71.8608198831
 30
0.0
 10
42.9657007047
 20
71.564236589
 30
0.0
 10
42.6410356672
 20
71.2421895076
 30
0.0
 10
42.4081470712
 20
70.9875795845
 30
0.0
  0
SPLINE
  5
2CB
100
AcDbEntity
  8
0
100
AcDbSpline
 62
7
  6
BYLAYER
 70
0
 71
3
 72
11
 73
7
 74
0
 42
0.0000001
 43
0.0000001
 44
0.0000000001
 40
0.0
 40
0.0
 40
0.0
 40
0.0
 40
0.2612407921
 40
0.5131806272
 40
0.7583442096
 40
1.0
 40
1.0
 40
1.0
 40
1.0
 10
58.3363116632
 20
61.0786897981
 30
0.0
 10
58.4786155244
 20
61.0827519352
 30
0.0
 10
58.7589988406
 20
61.0741262137
 30
0.0
 10
59.1680883442
 20
61.0073564878
 30
0.0
 10
59.5536749273
 20
60.8870465905
 30
0.0
 10
59.7936917633
 20
60.7713865205
 30
0.0
 10
59.9077413349
 20
60.7055480111
 30
0.0
  0
SPLINE
  5
2CC
100
AcDbEntity
  8
0
100
AcDbSpline
 62
7
  6
BYLAYER
 70
0
 71
3
 72
10
 73
6
 74
0
 42
0.0000001
 43
0.0000001
 44
0.0000000001
 40
0.0
 40
0.0
 40
0.0
 40
0.0
 40
0.2309664464
 40
0.6005072333
 40
1.0
 40
1.0
 40
1.0
 40
1.0
 10
46.5562004382
 20
73.0564567616
 30
0.0
 10
46.4196434605
 20
73.0492036733
 30
0.0
 10
46.0655929012
 20
73.0072024334
 30
0.0
 10
45.4913964755
 20
72.8527252157
 30
0.0
 10
45.0721682404
 20
72.671061928
 30
0.0
 10
44.8611988377
 20
72.564112391
 30
0.0
  0
SPLINE
  5
2CD
100
AcDbEntity
  8
0
100
AcDbSpline
 62
7
  6
BYLAYER
 70
0
 71
3
 72
9
 73
5
 74
0
 42
0.0000001
 43
0.0000001
 44
0.0000000001
 40
0.0
 40
0.0
 40
0.0
 40
0.0
 40
0.4858427346
 40
1.0
 40
1.0
 40
1.0
 40
1.0
 10
44.8611988377
 20
72.564112391
 30
0.0
 10
44.6587994853
 20
72.461507384
 30
0.0
 10
44.254305981
 20
72.2259495164
 30
0.0
 10
43.87535627
 20
71.951644888
 30
0.0
 10
43.6871645979
 20
71.8024669707
 30
0.0
  0
SPLINE
  5
2CE
100
AcDbEntity
  8
0
100
AcDbSpline
 62
7
  6
BYLAYER
 70
0
 71
3
 72
12
 73
8
 74
0
 42
0.0000001
 43
0.0000001
 44
0.0000000001
 40
0.0
 40
0.0
 40
0.0
 40
0.0
 40
0.3676840564
 40
0.6583754421
 40
0.7715565006
 40
0.864067356
 40
1.0
 40
1.0
 40
1.0
 40
1.0
 10
25.6954259091
 20
62.2075286063
 30
0.0
 10
25.6854101586
 20
62.2133110717
 30
0.0
 10
25.6670465897
 20
62.2229356386
 30
0.0
 10
25.644319543
 20
62.2317627481
 30
0.0
 10
25.62889076
 20
62.2347228432
 30
0.0
 10
25.6182403673
 20
62.2351700335
 30
0.0
 10
25.6106261366
 20
62.2325615369
 30
0.0
 10
25.6078413905
 20
62.2293171357
 30
0.0
  0
SPLINE
  5
2CF
100
AcDbEntity
  8
0
100
AcDbSpline
 62
7
  6
BYLAYER
 70
0
 71
3
 72
9
 73
5
 74
0
 42
0.0000001
 43
0.0000001
 44
0.0000000001
 40
0.0
 40
0.0
 40
0.0
 40
0.0
 40
0.2355119388
 40
1.0
 40
1.0
 40
1.0
 40
1.0
 10
25.6182088265
 20
62.0174457728
 30
0.0
 10
25.6182088265
 20
62.0225284483
 30
0.0
 10
25.619103706
 20
62.044107336
 30
0.0
 10
25.6231774824
 20
62.0654961152
 30
0.0
 10
25.6276019336
 20
62.0813905128
 30
0.0
  0
SPLINE
  5
2D0
100
AcDbEntity
  8
0
100
AcDbSpline
 62
7
  6
BYLAYER
 70
0
 71
3
 72
9
 73
5
 74
0
 42
0.0000001
 43
0.0000001
 44
0.0000000001
 40
0.0
 40
0.0
 40
0.0
 40
0.0
 40
0.2441974598
 40
1.0
 40
1.0
 40
1.0
 40
1.0
 10
25.6276019336
 20
62.0813905128
 30
0.0
 10
25.6291657673
 20
62.0870084286
 30
0.0
 10
25.6362699267
 20
62.1098153929
 30
0.0
 10
25.6459789162
 20
62.1317943195
 30
0.0
 10
25.6545334824
 20
62.1476870491
 30
0.0
  0
SPLINE
  5
2D1
100
AcDbEntity
  8
0
100
AcDbSpline
 62
7
  6
BYLAYER
 70
0
 71
3
 72
11
 73
7
 74
0
 42
0.0000001
 43
0.0000001
 44
0.0000000001
 40
0.0
 40
0.0
 40
0.0
 40
0.0
 40
0.1877300113
 40
0.3969878888
 40
0.6639219437
 40
1.0
 40
1.0
 40
1.0
 40
1.0
 10
54.9594580902
 20
59.935989974
 30
0.0
 10
54.9578230582
 20
59.9320011719
 30
0.0
 10
54.9526815592
 20
59.9241408926
 30
0.0
 10
54.9400718264
 20
59.9152606731
 30
0.0
 10
54.9235276045
 20
59.9066948886
 30
0.0
 10
54.9111702116
 20
59.9004314524
 30
0.0
 10
54.9042549966
 20
59.8970052249
 30
0.0
  0
SPLINE
  5
2D2
100
AcDbEntity
  8
0
100
AcDbSpline
 62
7
  6
BYLAYER
 70
0
 71
3
 72
10
 73
6
 74
0
 42
0.0000001
 43
0.0000001
 44
0.0000000001
 40
0.0
 40
0.0
 40
0.0
 40
0.0
 40
0.2371881077
 40
0.4804008747
 40
1.0
 40
1.0
 40
1.0
 40
1.0
 10
54.9400724739
 20
60.0713149845
 30
0.0
 10
54.9447297351
 20
60.0623559172
 30
0.0
 10
54.9518201909
 20
60.0428826965
 30
0.0
 10
54.9560443705
 20
60.0001841613
 30
0.0
 10
54.9474216871
 20
59.9675109232
 30
0.0
 10
54.9380212953
 20
59.9474880658
 30
0.0
  0
SPLINE
  5
2D3
100
AcDbEntity
  8
0
100
AcDbSpline
 62
7
  6
BYLAYER
 70
0
 71
3
 72
9
 73
5
 74
0
 42
0.0000001
 43
0.0000001
 44
0.0000000001
 40
0.0
 40
0.0
 40
0.0
 40
0.0
 40
0.2465373793
 40
1.0
 40
1.0
 40
1.0
 40
1.0
 10
54.9283413008
 20
59.929437907
 30
0.0
 10
54.9266219436
 20
59.9265946685
 30
0.0
 10
54.9193676456
 20
59.9152332465
 30
0.0
 10
54.9110314361
 20
59.9045672571
 30
0.0
 10
54.9042541082
 20
59.897005124
 30
0.0
  0
SPLINE
  5
2D4
100
AcDbEntity
  8
0
100
AcDbSpline
 62
7
  6
BYLAYER
 70
0
 71
3
 72
11
 73
7
 74
0
 42
0.0000001
 43
0.0000001
 44
0.0000000001
 40
0.0
 40
0.0
 40
0.0
 40
0.0
 40
0.2295704901
 40
0.4682078787
 40
0.7235329679
 40
1.0
 40
1.0
 40
1.0
 40
1.0
 10
59.4208087152
 20
54.6358320397
 30
0.0
 10
59.4810577807
 20
54.601041377
 30
0.0
 10
59.5953919334
 20
54.5141250586
 30
0.0
 10
59.7339774502
 20
54.3418035031
 30
0.0
 10
59.8386246075
 20
54.1313798686
 30
0.0
 10
59.8830694062
 20
53.9755475049
 30
0.0
 10
59.8999714964
 20
53.8934852616
 30
0.0
  0
SPLINE
  5
2D5
100
AcDbEntity
  8
0
100
AcDbSpline
 62
7
  6
BYLAYER
 70
0
 71
3
 72
18
 73
14
 74
0
 42
0.0000001
 43
0.0000001
 44
0.0000000001
 40
0.0
 40
0.0
 40
0.0
 40
0.0
 40
0.1493105441
 40
0.2849761569
 40
0.4082675632
 40
0.4663494813
 40
0.5227528604
 40
0.5781942739
 40
0.6334529657
 40
0.6893184676
 40
0.746536337
 40
0.8673787399
 40
1.0
 40
1.0
 40
1.0
 40
1.0
 10
58.7364978907
 20
54.838618378
 30
0.0
 10
58.8629735888
 20
54.9116457998
 30
0.0
 10
59.1147454345
 20
55.0344819893
 30
0.0
 10
59.50080933
 20
55.1451485576
 30
0.0
 10
59.8135231372
 20
55.1653669045
 30
0.0
 10
60.0447034005
 20
55.1345984132
 30
0.0
 10
60.205413466
 20
55.0900285952
 30
0.0
 10
60.3555127124
 20
55.0238590004
 30
0.0
 10
60.4937257922
 20
54.9364786596
 30
0.0
 10
60.6189912441
 20
54.8287144986
 30
0.0
 10
60.7701036906
 20
54.6559990749
 30
0.0
 10
60.9213983594
 20
54.3885755179
 30
0.0
 10
60.992790241
 20
54.1492066596
 30
0.0
 10
61.0189590641
 20
54.0221530054
 30
0.0
  0
SPLINE
  5
2D6
100
AcDbEntity
  8
0
100
AcDbSpline
 62
7
  6
BYLAYER
 70
0
 71
3
 72
9
 73
5
 74
0
 42
0.0000001
 43
0.0000001
 44
0.0000000001
 40
0.0
 40
0.0
 40
0.0
 40
0.0
 40
0.5176182464
 40
1.0
 40
1.0
 40
1.0
 40
1.0
 10
48.7019421256
 20
45.023838102
 30
0.0
 10
48.7052996313
 20
45.0161807407
 30
0.0
 10
48.7137194074
 20
45.002089048
 30
0.0
 10
48.7263176929
 20
44.9914028835
 30
0.0
 10
48.7330657602
 20
44.987507027
 30
0.0
  0
SPLINE
  5
2D7
100
AcDbEntity
  8
0
100
AcDbSpline
 62
7
  6
BYLAYER
 70
0
 71
3
 72
9
 73
5
 74
0
 42
0.0000001
 43
0.0000001
 44
0.0000000001
 40
0.0
 40
0.0
 40
0.0
 40
0.0
 40
0.2453865883
 40
1.0
 40
1.0
 40
1.0
 40
1.0
 10
48.9744871229
 20
45.0790668666
 30
0.0
 10
48.9657612569
 20
45.0699580974
 30
0.0
 10
48.9271411946
 20
45.0358694075
 30
0.0
 10
48.8781107694
 20
45.0138049072
 30
0.0
 10
48.8400850275
 20
45.0061413991
 30
0.0
  0
SPLINE
  5
2D8
100
AcDbEntity
  8
0
100
AcDbSpline
 62
7
  6
BYLAYER
 70
0
 71
3
 72
9
 73
5
 74
0
 42
0.0000001
 43
0.0000001
 44
0.0000000001
 40
0.0
 40
0.0
 40
0.0
 40
0.0
 40
0.2625598612
 40
1.0
 40
1.0
 40
1.0
 40
1.0
 10
48.8400850275
 20
45.0061413991
 30
0.0
 10
48.8306919035
 20
45.0042483583
 30
0.0
 10
48.7945833715
 20
44.9990643302
 30
0.0
 10
48.7569138329
 20
45.0023686047
 30
0.0
 10
48.7313535621
 20
45.0107920478
 30
0.0
  0
SPLINE
  5
2D9
100
AcDbEntity
  8
0
100
AcDbSpline
 62
7
  6
BYLAYER
 70
0
 71
3
 72
9
 73
5
 74
0
 42
0.0000001
 43
0.0000001
 44
0.0000000001
 40
0.0
 40
0.0
 40
0.0
 40
0.0
 40
0.2560240902
 40
1.0
 40
1.0
 40
1.0
 40
1.0
 10
48.7313535621
 20
45.0107920478
 30
0.0
 10
48.7287431449
 20
45.0116523165
 30
0.0
 10
48.7186296308
 20
45.0152542678
 30
0.0
 10
48.7088589922
 20
45.0198447376
 30
0.0
 10
48.7019421256
 20
45.023838102
 30
0.0
  0
SPLINE
  5
2DA
100
AcDbEntity
  8
0
100
AcDbSpline
 62
7
  6
BYLAYER
 70
0
 71
3
 72
11
 73
7
 74
0
 42
0.0000001
 43
0.0000001
 44
0.0000000001
 40
0.0
 40
0.0
 40
0.0
 40
0.0
 40
0.218352029
 40
0.4802616553
 40
0.7526432684
 40
1.0
 40
1.0
 40
1.0
 40
1.0
 10
48.0990561444
 20
48.7584235395
 30
0.0
 10
48.0786762185
 20
48.754303582
 30
0.0
 10
48.0324834914
 20
48.7525047019
 30
0.0
 10
47.9612105548
 20
48.7615551813
 30
0.0
 10
47.8891826538
 20
48.7811960688
 30
0.0
 10
47.8435336379
 20
48.8011048026
 30
0.0
 10
47.8231350569
 20
48.8128816624
 30
0.0
  0
SPLINE
  5
2DB
100
AcDbEntity
  8
0
100
AcDbSpline
 62
7
  6
BYLAYER
 70
0
 71
3
 72
12
 73
8
 74
0
 42
0.0000001
 43
0.0000001
 44
0.0000000001
 40
0.0
 40
0.0
 40
0.0
 40
0.0
 40
0.2274262742
 40
0.4783825879
 40
0.6096592744
 40
0.7420166783
 40
1.0
 40
1.0
 40
1.0
 40
1.0
 10
47.8822166344
 20
46.893361132
 30
0.0
 10
47.901673254
 20
46.8821281016
 30
0.0
 10
47.948313473
 20
46.868043184
 30
0.0
 10
48.0094341858
 20
46.8715140747
 30
0.0
 10
48.0584927753
 20
46.8854436659
 30
0.0
 10
48.1055836068
 20
46.9066503954
 30
0.0
 10
48.1371319476
 20
46.9301865973
 30
0.0
 10
48.1547616317
 20
46.9485898966
 30
0.0
  0
SPLINE
  5
2DC
100
AcDbEntity
  8
0
100
AcDbSpline
 62
7
  6
BYLAYER
 70
0
 71
3
 72
11
 73
7
 74
0
 42
0.0000001
 43
0.0000001
 44
0.0000000001
 40
0.0
 40
0.0
 40
0.0
 40
0.0
 40
0.2819406563
 40
0.543871057
 40
0.783273298
 40
1.0
 40
1.0
 40
1.0
 40
1.0
 10
47.8231350569
 20
48.8128816624
 30
0.0
 10
47.7800005838
 20
48.6346849645
 30
0.0
 10
47.7160163164
 20
48.2858039168
 30
0.0
 10
47.6904792654
 20
47.7753850914
 30
0.0
 10
47.7393173074
 20
47.3089532609
 30
0.0
 10
47.8256223954
 20
47.0224338941
 30
0.0
 10
47.8822166344
 20
46.893361132
 30
0.0
  0
SPLINE
  5
2DD
100
AcDbEntity
  8
0
100
AcDbSpline
 62
7
  6
BYLAYER
 70
0
 71
3
 72
11
 73
7
 74
0
 42
0.0000001
 43
0.0000001
 44
0.0000000001
 40
0.0
 40
0.0
 40
0.0
 40
0.0
 40
0.2605464701
 40
0.5235112274
 40
0.7731908794
 40
1.0
 40
1.0
 40
1.0
 40
1.0
 10
48.5190614116
 20
53.4748421695
 30
0.0
 10
48.501928008
 20
53.4557247415
 30
0.0
 10
48.460933642
 20
53.4228462353
 30
0.0
 10
48.3892045582
 20
53.3941459148
 30
0.0
 10
48.3153283277
 20
53.3885066012
 30
0.0
 10
48.2688222837
 20
53.4023040526
 30
0.0
 10
48.2494687238
 20
53.4134775829
 30
0.0
  0
SPLINE
  5
2DE
100
AcDbEntity
  8
0
100
AcDbSpline
 62
7
  6
BYLAYER
 70
0
 71
3
 72
11
 73
7
 74
0
 42
0.0000001
 43
0.0000001
 44
0.0000000001
 40
0.0
 40
0.0
 40
0.0
 40
0.0
 40
0.2473567316
 40
0.5197383447
 40
0.781647971
 40
1.0
 40
1.0
 40
1.0
 40
1.0
 10
48.3760367165
 20
51.097023391
 30
0.0
 10
48.3964352975
 20
51.0852465312
 30
0.0
 10
48.4420843133
 20
51.0653377974
 30
0.0
 10
48.5141122144
 20
51.0456969099
 30
0.0
 10
48.585385151
 20
51.0366464305
 30
0.0
 10
48.631577878
 20
51.0384453106
 30
0.0
 10
48.6519578039
 20
51.0425652681
 30
0.0
  0
SPLINE
  5
2DF
100
AcDbEntity
  8
0
100
AcDbSpline
 62
7
  6
BYLAYER
 70
0
 71
3
 72
13
 73
9
 74
0
 42
0.0000001
 43
0.0000001
 44
0.0000000001
 40
0.0
 40
0.0
 40
0.0
 40
0.0
 40
0.2138160919
 40
0.3298726596
 40
0.4521633824
 40
0.5806647684
 40
0.7151580643
 40
1.0
 40
1.0
 40
1.0
 40
1.0
 10
48.2494687238
 20
53.4134775829
 30
0.0
 10
48.3280465894
 20
53.2642625786
 30
0.0
 10
48.4176706172
 20
53.0166082979
 30
0.0
 10
48.4857423573
 20
52.6663072016
 30
0.0
 10
48.5137289634
 20
52.3778473679
 30
0.0
 10
48.5168801299
 20
52.0736486333
 30
0.0
 10
48.487515324
 20
51.6422318867
 30
0.0
 10
48.428891646
 20
51.31537714
 30
0.0
 10
48.3760367165
 20
51.097023391
 30
0.0
  0
SPLINE
  5
2E0
100
AcDbEntity
  8
0
100
AcDbSpline
 62
7
  6
BYLAYER
 70
0
 71
3
 72
12
 73
8
 74
0
 42
0.0000001
 43
0.0000001
 44
0.0000000001
 40
0.0
 40
0.0
 40
0.0
 40
0.0
 40
0.1359160831
 40
0.2284148673
 40
0.3415886645
 40
0.6322876178
 40
1.0
 40
1.0
 40
1.0
 40
1.0
 10
29.1628818769
 20
66.3734377835
 30
0.0
 10
29.1656644457
 20
66.3766838323
 30
0.0
 10
29.1732777736
 20
66.3792962078
 30
0.0
 10
29.183928071
 20
66.3788507952
 30
0.0
 10
29.1993581139
 20
66.375892183
 30
0.0
 10
29.2220881969
 20
66.3670644805
 30
0.0
 10
29.24045439
 20
66.3574388368
 30
0.0
 10
29.2504717414
 20
66.3516554471
 30
0.0
  0
SPLINE
  5
2E1
100
AcDbEntity
  8
0
100
AcDbSpline
 62
7
  6
BYLAYER
 70
0
 71
3
 72
15
 73
11
 74
0
 42
0.0000001
 43
0.0000001
 44
0.0000000001
 40
0.0
 40
0.0
 40
0.0
 40
0.0
 40
0.1539724257
 40
0.2995698083
 40
0.4360286809
 40
0.5632766453
 40
0.6817587406
 40
0.7926364493
 40
0.8978420999
 40
1.0
 40
1.0
 40
1.0
 40
1.0
 10
33.0743458485
 20
77.8917229693
 30
0.0
 10
33.2699501505
 20
78.0526639934
 30
0.0
 10
33.6644442272
 20
78.3494545374
 30
0.0
 10
34.2783700399
 20
78.7228899517
 30
0.0
 10
34.8904637226
 20
79.0073263162
 30
0.0
 10
35.4915984559
 20
79.1981996706
 30
0.0
 10
36.0731713632
 20
79.2920854075
 30
0.0
 10
36.6266185075
 20
79.2864793756
 30
0.0
 10
37.1427618816
 20
79.1801838163
 30
0.0
 10
37.4578302707
 20
79.0414713371
 30
0.0
 10
37.6033791792
 20
78.9574438948
 30
0.0
  0
SPLINE
  5
2E2
100
AcDbEntity
  8
0
100
AcDbSpline
 62
7
  6
BYLAYER
 70
0
 71
3
 72
18
 73
14
 74
0
 42
0.0000001
 43
0.0000001
 44
0.0000000001
 40
0.0
 40
0.0
 40
0.0
 40
0.0
 40
0.0948675346
 40
0.1471498877
 40
0.2027144741
 40
0.2614554016
 40
0.3231375194
 40
0.3874204474
 40
0.4538848936
 40
0.5913003072
 40
0.7311410767
 40
0.868819237
 40
1.0
 40
1.0
 40
1.0
 40
1.0
 10
29.6362973987
 20
67.8546282301
 30
0.0
 10
29.468581149
 20
68.1635954504
 30
0.0
 10
29.2879868908
 20
68.687902535
 30
0.0
 10
29.172527419
 20
69.4306731047
 30
0.0
 10
29.1435537593
 20
70.0486356785
 30
0.0
 10
29.175662733
 20
70.7008330655
 30
0.0
 10
29.268262708
 20
71.3798054369
 30
0.0
 10
29.4201531383
 20
72.0772479382
 30
0.0
 10
29.7024180319
 20
73.0308156797
 30
0.0
 10
30.1905844752
 20
74.2117362837
 30
0.0
 10
30.9564668202
 20
75.5497434498
 30
0.0
 10
31.8723504204
 20
76.7610133413
 30
0.0
 10
32.5784175749
 20
77.4699151763
 30
0.0
 10
32.9479688742
 20
77.7857383584
 30
0.0
  0
SPLINE
  5
2E3
100
AcDbEntity
  8
0
100
AcDbSpline
 62
7
  6
BYLAYER
 70
0
 71
3
 72
9
 73
5
 74
0
 42
0.0000001
 43
0.0000001
 44
0.0000000001
 40
0.0
 40
0.0
 40
0.0
 40
0.0
 40
0.2494780705
 40
1.0
 40
1.0
 40
1.0
 40
1.0
 10
29.772719873
 20
68.1401264827
 30
0.0
 10
29.771070423
 20
68.1261082471
 30
0.0
 10
29.7648644308
 20
68.0699124077
 30
0.0
 10
29.7626182206
 20
68.0129517996
 30
0.0
 10
29.7662828737
 20
67.9706472819
 30
0.0
  0
SPLINE
  5
2E4
100
AcDbEntity
  8
0
100
AcDbSpline
 62
7
  6
BYLAYER
 70
0
 71
3
 72
13
 73
9
 74
0
 42
0.0000001
 43
0.0000001
 44
0.0000000001
 40
0.0
 40
0.0
 40
0.0
 40
0.0
 40
0.2669768655
 40
0.533512984
 40
0.66119553
 40
0.7824032125
 40
0.8956253237
 40
1.0
 40
1.0
 40
1.0
 40
1.0
 10
29.2504717411
 20
66.3516554468
 30
0.0
 10
29.3537535515
 20
66.4720513412
 30
0.0
 10
29.5365040144
 20
66.7336412559
 30
0.0
 10
29.701129351
 20
67.0929873127
 30
0.0
 10
29.7862422601
 20
67.387669394
 30
0.0
 10
29.8234440112
 20
67.600075274
 30
0.0
 10
29.8339768285
 20
67.8016193478
 30
0.0
 10
29.8224070051
 20
67.9310153605
 30
0.0
 10
29.811489117
 20
67.9920617306
 30
0.0
  0
SPLINE
  5
2E5
100
AcDbEntity
  8
0
100
AcDbSpline
 62
7
  6
BYLAYER
 70
0
 71
3
 72
9
 73
5
 74
0
 42
0.0000001
 43
0.0000001
 44
0.0000000001
 40
0.0
 40
0.0
 40
0.0
 40
0.0
 40
0.2581821631
 40
1.0
 40
1.0
 40
1.0
 40
1.0
 10
29.811489117
 20
67.9920617306
 30
0.0
 10
29.8091686803
 20
68.0050362392
 30
0.0
 10
29.7992397411
 20
68.0551120727
 30
0.0
 10
29.7854364904
 20
68.1044550968
 30
0.0
 10
29.772719873
 20
68.1401264827
 30
0.0
  0
SPLINE
  5
2E6
100
AcDbEntity
  8
0
100
AcDbSpline
 62
7
  6
BYLAYER
 70
0
 71
3
 72
13
 73
9
 74
0
 42
0.0000001
 43
0.0000001
 44
0.0000000001
 40
0.0
 40
0.0
 40
0.0
 40
0.0
 40
0.1063945656
 40
0.2221179174
 40
0.3441824037
 40
0.4707878605
 40
0.7325111182
 40
1.0
 40
1.0
 40
1.0
 40
1.0
 10
57.0951296323
 20
60.0578988978
 30
0.0
 10
57.2278000558
 20
60.0616963968
 30
0.0
 10
57.5050977027
 20
60.0583356822
 30
0.0
 10
57.9337333052
 20
60.0321289673
 30
0.0
 10
58.3864063216
 20
59.9899562965
 30
0.0
 10
59.0188651581
 20
59.9162434657
 30
0.0
 10
59.8290834129
 20
59.8022122973
 30
0.0
 10
60.4814425059
 20
59.7009285475
 30
0.0
 10
60.8111957012
 20
59.6498471573
 30
0.0
  0
SPLINE
  5
2E7
100
AcDbEntity
  8
0
100
AcDbSpline
 62
7
  6
BYLAYER
 70
0
 71
3
 72
15
 73
11
 74
0
 42
0.0000001
 43
0.0000001
 44
0.0000000001
 40
0.0
 40
0.0
 40
0.0
 40
0.0
 40
0.1028185652
 40
0.208559392
 40
0.3197526269
 40
0.4382926096
 40
0.5653549497
 40
0.701435566
 40
0.846535798
 40
1.0
 40
1.0
 40
1.0
 40
1.0
 10
47.9271870553
 20
72.9971390789
 30
0.0
 10
47.785329029
 20
73.0790321998
 30
0.0
 10
47.4789819116
 20
73.2149243981
 30
0.0
 10
46.9777721639
 20
73.3222972138
 30
0.0
 10
46.4405808591
 20
73.3340823198
 30
0.0
 10
45.8759176754
 20
73.251221758
 30
0.0
 10
45.2917388895
 20
73.0759050946
 30
0.0
 10
44.6960190495
 20
72.811180354
 30
0.0
 10
44.0972081081
 20
72.4611093634
 30
0.0
 10
43.7114055055
 20
72.1815509756
 30
0.0
 10
43.5198157872
 20
72.0296794563
 30
0.0
  0
SPLINE
  5
2E8
100
AcDbEntity
  8
0
100
AcDbSpline
 62
7
  6
BYLAYER
 70
0
 71
3
 72
13
 73
9
 74
0
 42
0.0000001
 43
0.0000001
 44
0.0000000001
 40
0.0
 40
0.0
 40
0.0
 40
0.0
 40
0.2633076493
 40
0.5227861196
 40
0.6492274814
 40
0.7720508999
 40
0.8897176095
 40
1.0
 40
1.0
 40
1.0
 40
1.0
 10
60.7026577339
 20
59.6637224958
 30
0.0
 10
60.3946601538
 20
59.7025826174
 30
0.0
 10
59.7820010314
 20
59.7710703566
 30
0.0
 10
59.0183405279
 20
59.8272567442
 30
0.0
 10
58.4188199678
 20
59.8480020865
 30
0.0
 10
57.9861144083
 20
59.8494285138
 30
0.0
 10
57.5727171606
 20
59.8345010254
 30
0.0
 10
57.3047842574
 20
59.8106169811
 30
0.0
 10
57.1758679905
 20
59.7936899179
 30
0.0
  0
SPLINE
  5
2E9
100
AcDbEntity
  8
0
100
AcDbSpline
 62
7
  6
BYLAYER
 70
0
 71
3
 72
11
 73
7
 74
0
 42
0.0000001
 43
0.0000001
 44
0.0000000001
 40
0.0
 40
0.0
 40
0.0
 40
0.0
 40
0.2819269815
 40
0.4154310588
 40
0.5435511259
 40
1.0
 40
1.0
 40
1.0
 40
1.0
 10
57.2068451659
 20
58.0585583641
 30
0.0
 10
57.4911426897
 20
58.2924751755
 30
0.0
 10
57.9296942878
 20
58.6146520386
 30
0.0
 10
58.5415053364
 20
58.9761569627
 30
0.0
 10
59.3794221375
 20
59.3945015555
 30
0.0
 10
60.1354109317
 20
59.6165370824
 30
0.0
 10
60.7307130707
 20
59.6466590182
 30
0.0
  0
SPLINE
  5
2EA
100
AcDbEntity
  8
0
100
AcDbSpline
 62
7
  6
BYLAYER
 70
0
 71
3
 72
11
 73
7
 74
0
 42
0.0000001
 43
0.0000001
 44
0.0000000001
 40
0.0
 40
0.0
 40
0.0
 40
0.0
 40
0.2407369146
 40
0.4853734896
 40
0.737540735
 40
1.0
 40
1.0
 40
1.0
 40
1.0
 10
62.5950265827
 20
59.1540709365
 30
0.0
 10
62.4741612777
 20
59.2238655515
 30
0.0
 10
62.2189024942
 20
59.3455039933
 30
0.0
 10
61.8075800071
 20
59.4680174002
 30
0.0
 10
61.3703327966
 20
59.5302556372
 30
0.0
 10
61.0709808266
 20
59.5315700442
 30
0.0
 10
60.9190641423
 20
59.5229069552
 30
0.0
  0
SPLINE
  5
2EB
100
AcDbEntity
  8
0
100
AcDbSpline
 62
7
  6
BYLAYER
 70
0
 71
3
 72
11
 73
7
 74
0
 42
0.0000001
 43
0.0000001
 44
0.0000000001
 40
0.0
 40
0.0
 40
0.0
 40
0.0
 40
0.4568194704
 40
0.5849178323
 40
0.7183508395
 40
1.0
 40
1.0
 40
1.0
 40
1.0
 10
60.9190641423
 20
59.5229069552
 30
0.0
 10
60.3270586181
 20
59.4891476839
 30
0.0
 10
59.5764528399
 20
59.2658497755
 30
0.0
 10
58.7439770983
 20
58.8483128047
 30
0.0
 10
58.1367050246
 20
58.4884917699
 30
0.0
 10
57.7012908298
 20
58.1683698965
 30
0.0
 10
57.4189780834
 20
57.9360861377
 30
0.0
  0
SPLINE
  5
2EC
100
AcDbEntity
  8
0
100
AcDbSpline
 62
7
  6
BYLAYER
 70
0
 71
3
 72
26
 73
22
 74
0
 42
0.0000001
 43
0.0000001
 44
0.0000000001
 40
0.0
 40
0.0
 40
0.0
 40
0.0
 40
0.0687897182
 40
0.1404493581
 40
0.2141000293
 40
0.2888289406
 40
0.3636525693
 40
0.4375949491
 40
0.5097095281
 40
0.5791279711
 40
0.6451033476
 40
0.7070591152
 40
0.7646486318
 40
0.8178262288
 40
0.8669264674
 40
0.8902063124
 40
0.9127998865
 40
0.9348776879
 40
0.9566311716
 40
0.9782677387
 40
1.0
 40
1.0
 40
1.0
 40
1.0
 10
57.5897635
 20
57.7116446081
 30
0.0
 10
57.3308420063
 20
57.4986069094
 30
0.0
 10
56.8243929323
 20
57.0361209572
 30
0.0
 10
56.1203726036
 20
56.2640811263
 30
0.0
 10
55.4672569638
 20
55.4117400904
 30
0.0
 10
54.8777729327
 20
54.4959198966
 30
0.0
 10
54.3633922676
 20
53.5342843808
 30
0.0
 10
53.9341205646
 20
52.5455940338
 30
0.0
 10
53.5983078421
 20
51.5490440993
 30
0.0
 10
53.3624730518
 20
50.5639485886
 30
0.0
 10
53.2312262522
 20
49.6092681757
 30
0.0
 10
53.207233551
 20
48.703242387
 30
0.0
 10
53.2914130413
 20
47.8629181952
 30
0.0
 10
53.4828165246
 20
47.1043005841
 30
0.0
 10
53.7347917748
 20
46.5421024723
 30
0.0
 10
53.9875237371
 20
46.1533212499
 30
0.0
 10
54.1975768166
 20
45.896325506
 30
0.0
 10
54.4303307517
 20
45.6702060553
 30
0.0
 10
54.6846843669
 20
45.4762004426
 30
0.0
 10
54.9592639728
 20
45.3154451603
 30
0.0
 10
55.1538700372
 20
45.2313531993
 30
0.0
 10
55.2534362174
 20
45.1951943339
 30
0.0
  0
SPLINE
  5
2ED
100
AcDbEntity
  8
0
100
AcDbSpline
 62
7
  6
BYLAYER
 70
0
 71
3
 72
15
 73
11
 74
0
 42
0.0000001
 43
0.0000001
 44
0.0000000001
 40
0.0
 40
0.0
 40
0.0
 40
0.0
 40
0.1028596729
 40
0.2099323926
 40
0.3228659597
 40
0.4428223274
 40
0.5704541195
 40
0.7060002431
 40
0.8493773335
 40
1.0
 40
1.0
 40
1.0
 40
1.0
 10
55.2534362174
 20
45.1951943339
 30
0.0
 10
55.4091748732
 20
45.1386356402
 30
0.0
 10
55.7384752536
 20
45.052763539
 30
0.0
 10
56.2590209229
 20
45.009884808
 30
0.0
 10
56.8071596266
 20
45.0507053151
 30
0.0
 10
57.376305137
 20
45.1741667496
 30
0.0
 10
57.960211074
 20
45.3782104033
 30
0.0
 10
58.5524565316
 20
45.660412726
 30
0.0
 10
59.1462894812
 20
46.0173591969
 30
0.0
 10
59.5300678197
 20
46.2959231041
 30
0.0
 10
59.7207579207
 20
46.4459440983
 30
0.0
  0
SPLINE
  5
2EE
100
AcDbEntity
  8
0
100
AcDbSpline
 62
7
  6
BYLAYER
 70
0
 71
3
 72
11
 73
7
 74
0
 42
0.0000001
 43
0.0000001
 44
0.0000000001
 40
0.0
 40
0.0
 40
0.0
 40
0.0
 40
0.4568197356
 40
0.584918163
 40
0.7183511522
 40
1.0
 40
1.0
 40
1.0
 40
1.0
 10
61.0023840219
 20
59.2588228077
 30
0.0
 10
60.4251715314
 20
59.2259071132
 30
0.0
 10
59.6933231325
 20
59.0081827774
 30
0.0
 10
58.8816508427
 20
58.601076787
 30
0.0
 10
58.2895547162
 20
58.2502459653
 30
0.0
 10
57.8650213502
 20
57.9381236775
 30
0.0
 10
57.5897635
 20
57.7116446081
 30
0.0
  0
SPLINE
  5
2EF
100
AcDbEntity
  8
0
100
AcDbSpline
 62
7
  6
BYLAYER
 70
0
 71
3
 72
26
 73
22
 74
0
 42
0.0000001
 43
0.0000001
 44
0.0000000001
 40
0.0
 40
0.0
 40
0.0
 40
0.0
 40
0.0709637319
 40
0.1450990725
 40
0.2212908476
 40
0.2983290197
 40
0.3749555695
 40
0.449935031
 40
0.5221142177
 40
0.5904933038
 40
0.6543025828
 40
0.7130949028
 40
0.7668575462
 40
0.8161370288
 40
0.8394894638
 40
0.8622277163
 40
0.8845961126
 40
0.9068587021
 40
0.929288676
 40
0.9521542311
 40
1.0
 40
1.0
 40
1.0
 40
1.0
 10
59.8831671975
 20
46.5766375516
 30
0.0
 10
60.1727895684
 20
46.8149355875
 30
0.0
 10
60.7372355641
 20
47.336630507
 30
0.0
 10
61.5129013386
 20
48.2142521799
 30
0.0
 10
62.22161015
 20
49.1868246722
 30
0.0
 10
62.8461635848
 20
50.2307213271
 30
0.0
 10
63.3715165976
 20
51.3208297846
 30
0.0
 10
63.7850006201
 20
52.4308400061
 30
0.0
 10
64.0766491336
 20
53.5340835613
 30
0.0
 10
64.2393994981
 20
54.6042319497
 30
0.0
 10
64.2691673068
 20
55.6160071727
 30
0.0
 10
64.1644859316
 20
56.5459746756
 30
0.0
 10
63.9265747589
 20
57.3723477691
 30
0.0
 10
63.6131215907
 20
57.969203899
 30
0.0
 10
63.3008071719
 20
58.3663398416
 30
0.0
 10
63.0420973298
 20
58.6207840661
 30
0.0
 10
62.7564210855
 20
58.8351161173
 30
0.0
 10
62.4457402195
 20
59.0079465826
 30
0.0
 10
62.1120017155
 20
59.1380004645
 30
0.0
 10
61.6327486767
 20
59.2551403204
 30
0.0
 10
61.2548473619
 20
59.2732195963
 30
0.0
 10
61.0023840219
 20
59.2588228077
 30
0.0
  0
SPLINE
  5
2F0
100
AcDbEntity
  8
0
100
AcDbSpline
 62
7
  6
BYLAYER
 70
0
 71
3
 72
21
 73
17
 74
0
 42
0.0000001
 43
0.0000001
 44
0.0000000001
 40
0.0
 40
0.0
 40
0.0
 40
0.0
 40
0.1577678852
 40
0.3010111659
 40
0.3670286372
 40
0.4294281423
 40
0.4885358896
 40
0.544892357
 40
0.5992242169
 40
0.6524279548
 40
0.705497376
 40
0.7594338989
 40
0.8151650714
 40
0.8734875946
 40
0.9350017298
 40
1.0
 40
1.0
 40
1.0
 40
1.0
 10
59.2216683946
 20
49.7887249891
 30
0.0
 10
59.078402984
 20
49.670847816
 30
0.0
 10
58.7894757635
 20
49.4638640601
 30
0.0
 10
58.3995798277
 20
49.2724495073
 30
0.0
 10
58.0936577901
 20
49.1783855305
 30
0.0
 10
57.8762657434
 20
49.1381941348
 30
0.0
 10
57.6667535644
 20
49.1270870002
 30
0.0
 10
57.467148212
 20
49.1452323979
 30
0.0
 10
57.2795028648
 20
49.1927880464
 30
0.0
 10
57.1058336765
 20
49.2692945558
 30
0.0
 10
56.9481830093
 20
49.374112706
 30
0.0
 10
56.808202952
 20
49.5058755034
 30
0.0
 10
56.6873781563
 20
49.6631539346
 30
0.0
 10
56.5867011682
 20
49.8441855563
 30
0.0
 10
56.5071327045
 20
50.0470504595
 30
0.0
 10
56.4695027343
 20
50.19136167
 30
0.0
 10
56.4540834629
 20
50.2662246
 30
0.0
  0
SPLINE
  5
2F1
100
AcDbEntity
  8
0
100
AcDbSpline
 62
7
  6
BYLAYER
 70
0
 71
3
 72
15
 73
11
 74
0
 42
0.0000001
 43
0.0000001
 44
0.0000000001
 40
0.0
 40
0.0
 40
0.0
 40
0.0
 40
0.1040349022
 40
0.2189076313
 40
0.3430497918
 40
0.4739417611
 40
0.608470399
 40
0.7432297416
 40
0.8747960093
 40
1.0
 40
1.0
 40
1.0
 40
1.0
 10
61.0189590641
 20
54.0221530054
 30
0.0
 10
61.0524608213
 20
53.8594968299
 30
0.0
 10
61.0848126822
 20
53.5089813477
 30
0.0
 10
61.0421086943
 20
52.9610933039
 30
0.0
 10
60.9130553328
 20
52.3830586727
 30
0.0
 10
60.7024795194
 20
51.7963857702
 30
0.0
 10
60.4182830954
 20
51.222759933
 30
0.0
 10
60.0710551941
 20
50.6836321522
 30
0.0
 10
59.6739202056
 20
50.1992875015
 30
0.0
 10
59.3760044471
 20
49.9157109621
 30
0.0
 10
59.2216683946
 20
49.7887249891
 30
0.0
  0
SPLINE
  5
2F2
100
AcDbEntity
  8
0
100
AcDbSpline
 62
7
  6
BYLAYER
 70
0
 71
3
 72
23
 73
19
 74
0
 42
0.0000001
 43
0.0000001
 44
0.0000000001
 40
0.0
 40
0.0
 40
0.0
 40
0.0
 40
0.0670106213
 40
0.1366734674
 40
0.208248173
 40
0.280992984
 40
0.3540909125
 40
0.4267211797
 40
0.498079877
 40
0.5674060857
 40
0.6340132577
 40
0.6973235625
 40
0.7569053416
 40
0.8125163689
 40
0.8641561155
 40
0.9121248545
 40
0.9570708799
 40
1.0
 40
1.0
 40
1.0
 40
1.0
 10
57.4189780834
 20
57.9360861377
 30
0.0
 10
57.1737767112
 20
57.7343372009
 30
0.0
 10
56.6930861976
 20
57.2988013643
 30
0.0
 10
56.0200707653
 20
56.5757140893
 30
0.0
 10
55.3900167198
 20
55.7799298452
 30
0.0
 10
54.813450481
 20
54.9249644858
 30
0.0
 10
54.2999919725
 20
54.0249171952
 30
0.0
 10
53.8581947568
 20
53.0948623629
 30
0.0
 10
53.4954087401
 20
52.150301336
 30
0.0
 10
53.2176913939
 20
51.2069442116
 30
0.0
 10
53.0296984194
 20
50.2804333022
 30
0.0
 10
52.9345766319
 20
49.3860548459
 30
0.0
 10
52.9340235505
 20
48.5384464509
 30
0.0
 10
53.0283860707
 20
47.7513592739
 30
0.0
 10
53.2167722427
 20
47.0375703086
 30
0.0
 10
53.4972872487
 20
46.4088216963
 30
0.0
 10
53.8664482151
 20
45.8765859487
 30
0.0
 10
54.1731106562
 20
45.5891003178
 30
0.0
 10
54.3363608077
 20
45.467735538
 30
0.0
  0
LINE
  5
2F3
100
AcDbEntity
  8
0
100
AcDbLine
 62
7
  6
BYLAYER
 10
59.8831671975
 20
46.5766375516
 11
59.8387522559
 21
46.5405386229
  0
LINE
  5
2F4
100
AcDbEntity
  8
0
100
AcDbLine
 62
7
  6
BYLAYER
 10
59.8387522559
 20
46.5405386229
 11
59.8042833044
 21
46.5121669716
  0
LINE
  5
2F5
100
AcDbEntity
  8
0
100
AcDbLine
 62
7
  6
BYLAYER
 10
59.8042833044
 20
46.5121669716
 11
59.7646496478
 21
46.480687796
  0
SPLINE
  5
2F6
100
AcDbEntity
  8
0
100
AcDbSpline
 62
7
  6
BYLAYER
 70
0
 71
3
 72
15
 73
11
 74
0
 42
0.0000001
 43
0.0000001
 44
0.0000000001
 40
0.0
 40
0.0
 40
0.0
 40
0.0
 40
0.1539146491
 40
0.2995706141
 40
0.4360453182
 40
0.5632715073
 40
0.6817555882
 40
0.7926357049
 40
0.8978420731
 40
1.0
 40
1.0
 40
1.0
 40
1.0
 10
58.5383795832
 20
50.6863238017
 30
0.0
 10
58.4685473567
 20
50.6288666298
 30
0.0
 10
58.327639771
 20
50.522894509
 30
0.0
 10
58.1083990703
 20
50.3894783994
 30
0.0
 10
57.8897605625
 20
50.2878892936
 30
0.0
 10
57.6750694445
 20
50.2197356539
 30
0.0
 10
57.4673766162
 20
50.1861986516
 30
0.0
 10
57.2697154033
 20
50.1882059888
 30
0.0
 10
57.0853733389
 20
50.2261526497
 30
0.0
 10
56.972853259
 20
50.275706396
 30
0.0
 10
56.9208746685
 20
50.3057212949
 30
0.0
  0
SPLINE
  5
2F7
100
AcDbEntity
  8
0
100
AcDbSpline
 62
7
  6
BYLAYER
 70
0
 71
3
 72
15
 73
11
 74
0
 42
0.0000001
 43
0.0000001
 44
0.0000000001
 40
0.0
 40
0.0
 40
0.0
 40
0.0
 40
0.1040257592
 40
0.218912724
 40
0.3430485636
 40
0.473941901
 40
0.6084728005
 40
0.7432235938
 40
0.8748073917
 40
1.0
 40
1.0
 40
1.0
 40
1.0
 10
59.8999714964
 20
53.8934852616
 30
0.0
 10
59.9253495027
 20
53.7702711444
 30
0.0
 10
59.9498448347
 20
53.5047216009
 30
0.0
 10
59.9175231539
 20
53.0896515756
 30
0.0
 10
59.819719439
 20
52.651740455
 30
0.0
 10
59.6602155008
 20
52.207284793
 30
0.0
 10
59.444896096
 20
51.7727332516
 30
0.0
 10
59.1818623758
 20
51.3642730192
 30
0.0
 10
58.8809815051
 20
50.9973623961
 30
0.0
 10
58.6552907484
 20
50.7825169958
 30
0.0
 10
58.5383795832
 20
50.6863238017
 30
0.0
  0
SPLINE
  5
2F8
100
AcDbEntity
  8
0
100
AcDbSpline
 62
7
  6
BYLAYER
 70
0
 71
3
 72
12
 73
8
 74
0
 42
0.0000001
 43
0.0000001
 44
0.0000000001
 40
0.0
 40
0.0
 40
0.0
 40
0.0
 40
0.2170856306
 40
0.3429785935
 40
0.4767458621
 40
0.7499224474
 40
1.0
 40
1.0
 40
1.0
 40
1.0
 10
57.0951638446
 20
60.0578817869
 30
0.0
 10
57.1136952408
 20
60.0471762066
 30
0.0
 10
57.1393015452
 20
60.0233768818
 30
0.0
 10
57.1639272885
 20
59.9831885837
 30
0.0
 10
57.1835331868
 20
59.9341803935
 30
0.0
 10
57.1921635708
 20
59.8688310772
 30
0.0
 10
57.183633081
 20
59.81710108
 30
0.0
 10
57.1758530127
 20
59.7937068771
 30
0.0
  0
SPLINE
  5
2F9
100
AcDbEntity
  8
0
100
AcDbSpline
 62
7
  6
BYLAYER
 70
0
 71
3
 72
18
 73
14
 74
0
 42
0.0000001
 43
0.0000001
 44
0.0000000001
 40
0.0
 40
0.0
 40
0.0
 40
0.0
 40
0.1974760653
 40
0.3597754454
 40
0.4833907959
 40
0.5319765028
 40
0.5735796505
 40
0.6109302223
 40
0.6476937976
 40
0.6876684085
 40
0.7337138253
 40
0.8496589915
 40
1.0
 40
1.0
 40
1.0
 40
1.0
 10
46.422213086
 20
54.547031203
 30
0.0
 10
46.4396718012
 20
54.5369516254
 30
0.0
 10
46.4722607696
 20
54.5198248123
 30
0.0
 10
46.5183308895
 20
54.501943104
 30
0.0
 10
46.5522530847
 20
54.4952027525
 30
0.0
 10
46.5741733584
 20
54.4966262381
 30
0.0
 10
46.586764638
 20
54.5005178427
 30
0.0
 10
46.5966385569
 20
54.5074144415
 30
0.0
 10
46.6033502141
 20
54.5172281217
 30
0.0
 10
46.6067590105
 20
54.5294710678
 30
0.0
 10
46.6072568113
 20
54.550229012
 30
0.0
 10
46.5992197035
 20
54.5815473116
 30
0.0
 10
46.5878568496
 20
54.6062909325
 30
0.0
 10
46.5807058255
 20
54.6198708323
 30
0.0
  0
SPLINE
  5
2FA
100
AcDbEntity
  8
0
100
AcDbSpline
 62
7
  6
BYLAYER
 70
0
 71
3
 72
11
 73
7
 74
0
 42
0.0000001
 43
0.0000001
 44
0.0000000001
 40
0.0
 40
0.0
 40
0.0
 40
0.0
 40
0.2706827736
 40
0.5457464197
 40
0.7949555586
 40
1.0
 40
1.0
 40
1.0
 40
1.0
 10
46.4576033835
 20
54.7597219813
 30
0.0
 10
46.4468204283
 20
54.7426728225
 30
0.0
 10
46.4282742552
 20
54.706248595
 30
0.0
 10
46.4105086445
 20
54.6492342967
 30
0.0
 10
46.4073478037
 20
54.5945195712
 30
0.0
 10
46.415092689
 20
54.5605519708
 30
0.0
 10
46.4222129707
 20
54.5470310679
 30
0.0
  0
SPLINE
  5
2FB
100
AcDbEntity
  8
0
100
AcDbSpline
 62
7
  6
BYLAYER
 70
0
 71
3
 72
9
 73
5
 74
0
 42
0.0000001
 43
0.0000001
 44
0.0000000001
 40
0.0
 40
0.0
 40
0.0
 40
0.0
 40
0.2698482001
 40
1.0
 40
1.0
 40
1.0
 40
1.0
 10
46.4576033784
 20
54.759721956
 30
0.0
 10
46.4605405967
 20
54.7580261778
 30
0.0
 10
46.4715837938
 20
54.7520310995
 30
0.0
 10
46.483308991
 20
54.7472126492
 30
0.0
 10
46.4921451551
 20
54.7447350873
 30
0.0
  0
SPLINE
  5
2FC
100
AcDbEntity
  8
0
100
AcDbSpline
 62
7
  6
BYLAYER
 70
0
 71
3
 72
12
 73
8
 74
0
 42
0.0000001
 43
0.0000001
 44
0.0000000001
 40
0.0
 40
0.0
 40
0.0
 40
0.0
 40
0.1081617188
 40
0.2183713965
 40
0.451337205
 40
0.7104781219
 40
1.0
 40
1.0
 40
1.0
 40
1.0
 10
47.2913807966
 20
62.9142640342
 30
0.0
 10
47.2577670756
 20
62.9336627332
 30
0.0
 10
47.1931486919
 20
62.97877593
 30
0.0
 10
47.0772528555
 20
63.0928064306
 30
0.0
 10
46.962392878
 20
63.2799637824
 30
0.0
 10
46.8825726047
 20
63.5512680677
 30
0.0
 10
46.8667945383
 20
63.7488314247
 30
0.0
 10
46.8667945383
 20
63.852715252
 30
0.0
  0
SPLINE
  5
2FD
100
AcDbEntity
  8
0
100
AcDbSpline
 62
7
  6
BYLAYER
 70
0
 71
3
 72
20
 73
16
 74
0
 42
0.0000001
 43
0.0000001
 44
0.0000000001
 40
0.0
 40
0.0
 40
0.0
 40
0.0
 40
0.062393073
 40
0.1288129064
 40
0.2703073279
 40
0.4173680809
 40
0.5616178538
 40
0.6302538576
 40
0.6953805984
 40
0.7563632694
 40
0.8128326608
 40
0.8647652978
 40
0.9125668126
 40
0.9571676556
 40
1.0
 40
1.0
 40
1.0
 40
1.0
 10
46.8667945383
 20
63.852715252
 30
0.0
 10
46.8667945383
 20
63.9377247021
 30
0.0
 10
46.8783577937
 20
64.1133534017
 30
0.0
 10
46.9428856847
 20
64.4765036428
 30
0.0
 10
47.0988739573
 20
64.9375610583
 30
0.0
 10
47.3806757615
 20
65.4583419029
 30
0.0
 10
47.6842451944
 20
65.8471456732
 30
0.0
 10
47.9574454123
 20
66.1102812759
 30
0.0
 10
48.1667786585
 20
66.274187906
 30
0.0
 10
48.3795166249
 20
66.4043278906
 30
0.0
 10
48.5913310966
 20
66.4979330839
 30
0.0
 10
48.7980014602
 20
66.5528762998
 30
0.0
 10
48.99548347
 20
66.5673730514
 30
0.0
 10
49.1793901142
 20
66.5404617156
 30
0.0
 10
49.290788904
 20
66.4941374144
 30
0.0
 10
49.3413340126
 20
66.4649675006
 30
0.0
  0
SPLINE
  5
2FE
100
AcDbEntity
  8
0
100
AcDbSpline
 62
7
  6
BYLAYER
 70
0
 71
3
 72
15
 73
11
 74
0
 42
0.0000001
 43
0.0000001
 44
0.0000000001
 40
0.0
 40
0.0
 40
0.0
 40
0.0
 40
0.1485541249
 40
0.2895082741
 40
0.4227311632
 40
0.5486381674
 40
0.6679988585
 40
0.7819380265
 40
0.8919874018
 40
1.0
 40
1.0
 40
1.0
 40
1.0
 10
44.9222307239
 20
72.364688309
 30
0.0
 10
45.0800706049
 20
72.4558166628
 30
0.0
 10
45.3952512104
 20
72.6207739446
 30
0.0
 10
45.8759746126
 20
72.817593502
 30
0.0
 10
46.3481894936
 20
72.9552423709
 30
0.0
 10
46.8073295943
 20
73.0322449864
 30
0.0
 10
47.2491691852
 20
73.0476334007
 30
0.0
 10
47.6694646827
 20
73.0007407282
 30
0.0
 10
48.0637397495
 20
72.8917500377
 30
0.0
 10
48.3073934574
 20
72.7776185542
 30
0.0
 10
48.4221581363
 20
72.7113606321
 30
0.0
  0
SPLINE
  5
2FF
100
AcDbEntity
  8
0
100
AcDbSpline
 62
7
  6
BYLAYER
 70
0
 71
3
 72
14
 73
10
 74
0
 42
0.0000001
 43
0.0000001
 44
0.0000000001
 40
0.0
 40
0.0
 40
0.0
 40
0.0
 40
0.0959266863
 40
0.1963791599
 40
0.304907021
 40
0.4236514799
 40
0.5533650361
 40
0.6936598366
 40
1.0
 40
1.0
 40
1.0
 40
1.0
 10
15.7397466687
 20
56.4880512102
 30
0.0
 10
15.7966309594
 20
56.5208804688
 30
0.0
 10
15.9230998109
 20
56.5720385966
 30
0.0
 10
16.1324223081
 20
56.5970188212
 30
0.0
 10
16.3570981131
 20
56.5720462957
 30
0.0
 10
16.5915548739
 20
56.4987593802
 30
0.0
 10
16.8306201317
 20
56.3795401367
 30
0.0
 10
17.157586595
 20
56.157112564
 30
0.0
 10
17.3781399628
 20
55.9408385653
 30
0.0
 10
17.5140414638
 20
55.7810821394
 30
0.0
  0
SPLINE
  5
300
100
AcDbEntity
  8
0
100
AcDbSpline
 62
7
  6
BYLAYER
 70
0
 71
3
 72
11
 73
7
 74
0
 42
0.0000001
 43
0.0000001
 44
0.0000000001
 40
0.0
 40
0.0
 40
0.0
 40
0.0
 40
0.228769877
 40
0.474769156
 40
0.7336531337
 40
1.0
 40
1.0
 40
1.0
 40
1.0
 10
46.5132558675
 20
53.4015272347
 30
0.0
 10
46.5805096869
 20
53.3626991024
 30
0.0
 10
46.7135956915
 20
53.2706154824
 30
0.0
 10
46.8984055392
 20
53.1028033123
 30
0.0
 10
47.0705902359
 20
52.904875453
 30
0.0
 10
47.1726641004
 20
52.7582161916
 30
0.0
 10
47.2203655927
 20
52.6814103087
 30
0.0
  0
SPLINE
  5
301
100
AcDbEntity
  8
0
100
AcDbSpline
 62
7
  6
BYLAYER
 70
0
 71
3
 72
20
 73
16
 74
0
 42
0.0000001
 43
0.0000001
 44
0.0000000001
 40
0.0
 40
0.0
 40
0.0
 40
0.0
 40
0.0428304254
 40
0.0874303405
 40
0.1352310825
 40
0.1871629639
 40
0.2436317115
 40
0.3046125673
 40
0.369737712
 40
0.4383722151
 40
0.5826223941
 40
0.7296883436
 40
0.87118735
 40
0.9376078468
 40
1.0
 40
1.0
 40
1.0
 40
1.0
 10
32.7103800723
 20
46.6902731017
 30
0.0
 10
32.7633882229
 20
46.720865349
 30
0.0
 10
32.8802153892
 20
46.769453502
 30
0.0
 10
33.0730890493
 20
46.7976773874
 30
0.0
 10
33.2802012294
 20
46.7824782837
 30
0.0
 10
33.4969537705
 20
46.724865316
 30
0.0
 10
33.7190973238
 20
46.6266955739
 30
0.0
 10
33.9422142196
 20
46.4902195276
 30
0.0
 10
34.1617570176
 20
46.3183244115
 30
0.0
 10
34.4482869519
 20
46.042359644
 30
0.0
 10
34.7666782718
 20
45.6345906346
 30
0.0
 10
35.0622433628
 20
45.0883954351
 30
0.0
 10
35.2258498293
 20
44.6048324089
 30
0.0
 10
35.2935278023
 20
44.2239602067
 30
0.0
 10
35.305655043
 20
44.0397639483
 30
0.0
 10
35.305655043
 20
43.9506086909
 30
0.0
  0
SPLINE
  5
302
100
AcDbEntity
  8
0
100
AcDbSpline
 62
7
  6
BYLAYER
 70
0
 71
3
 72
9
 73
5
 74
0
 42
0.0000001
 43
0.0000001
 44
0.0000000001
 40
0.0
 40
0.0
 40
0.0
 40
0.0
 40
0.5216908277
 40
1.0
 40
1.0
 40
1.0
 40
1.0
 10
35.1305613472
 20
25.2735415395
 30
0.0
 10
35.1860073347
 20
25.1199643901
 30
0.0
 10
35.2714923652
 20
24.8175201316
 30
0.0
 10
35.305655043
 20
24.5042525397
 30
0.0
 10
35.305655043
 20
24.3545506798
 30
0.0
  0
SPLINE
  5
303
100
AcDbEntity
  8
0
100
AcDbSpline
 62
7
  6
BYLAYER
 70
0
 71
3
 72
12
 73
8
 74
0
 42
0.0000001
 43
0.0000001
 44
0.0000000001
 40
0.0
 40
0.0
 40
0.0
 40
0.0
 40
0.2895278714
 40
0.5486649467
 40
0.7816297549
 40
0.8918388778
 40
1.0
 40
1.0
 40
1.0
 40
1.0
 10
35.305655043
 20
43.9506086909
 30
0.0
 10
35.305655043
 20
43.8416551057
 30
0.0
 10
35.2891076876
 20
43.6344537336
 30
0.0
 10
35.2053922904
 20
43.3499144249
 30
0.0
 10
35.0849286498
 20
43.15363168
 30
0.0
 10
34.9633842634
 20
43.0340342564
 30
0.0
 10
34.8956111575
 20
42.9867248359
 30
0.0
 10
34.8603581955
 20
42.9663795245
 30
0.0
  0
SPLINE
  5
304
100
AcDbEntity
  8
0
100
AcDbSpline
 62
7
  6
BYLAYER
 70
0
 71
3
 72
9
 73
5
 74
0
 42
0.0000001
 43
0.0000001
 44
0.0000000001
 40
0.0
 40
0.0
 40
0.0
 40
0.0
 40
0.4994482239
 40
1.0
 40
1.0
 40
1.0
 40
1.0
 10
47.2203655927
 20
52.6814103087
 30
0.0
 10
47.2741934255
 20
52.5947401854
 30
0.0
 10
47.3476936169
 20
52.3994063239
 30
0.0
 10
47.3668202409
 20
52.1944842975
 30
0.0
 10
47.3668195842
 20
52.0922336467
 30
0.0
  0
SPLINE
  5
305
100
AcDbEntity
  8
0
100
AcDbSpline
 62
7
  6
BYLAYER
 70
0
 71
3
 72
11
 73
7
 74
0
 42
0.0000001
 43
0.0000001
 44
0.0000000001
 40
0.0
 40
0.0
 40
0.0
 40
0.0
 40
0.289702329
 40
0.5490881649
 40
0.7822156415
 40
1.0
 40
1.0
 40
1.0
 40
1.0
 10
35.9066983093
 20
20.3332851614
 30
0.0
 10
35.9725165455
 20
20.2952858447
 30
0.0
 10
36.1034502405
 20
20.232998119
 30
0.0
 10
36.3046979352
 20
20.1844004065
 30
0.0
 10
36.493527148
 20
20.1891815279
 30
0.0
 10
36.6072124164
 20
20.2304387921
 30
0.0
 10
36.6566912093
 20
20.2590052249
 30
0.0
  0
SPLINE
  5
306
100
AcDbEntity
  8
0
100
AcDbSpline
 62
7
  6
BYLAYER
 70
0
 71
3
 72
12
 73
8
 74
0
 42
0.0000001
 43
0.0000001
 44
0.0000000001
 40
0.0
 40
0.0
 40
0.0
 40
0.0
 40
0.2895278714
 40
0.5486649467
 40
0.7816297549
 40
0.8918388778
 40
1.0
 40
1.0
 40
1.0
 40
1.0
 10
35.305655043
 20
24.3545506798
 30
0.0
 10
35.305655043
 20
24.2455970946
 30
0.0
 10
35.2891076876
 20
24.0383957225
 30
0.0
 10
35.2053922904
 20
23.7538564138
 30
0.0
 10
35.0849286498
 20
23.5575736689
 30
0.0
 10
34.9633842634
 20
23.4379762453
 30
0.0
 10
34.8956111575
 20
23.3906668248
 30
0.0
 10
34.8603581955
 20
23.3703215134
 30
0.0
  0
SPLINE
  5
307
100
AcDbEntity
  8
0
100
AcDbSpline
 62
7
  6
BYLAYER
 70
0
 71
3
 72
15
 73
11
 74
0
 42
0.0000001
 43
0.0000001
 44
0.0000000001
 40
0.0
 40
0.0
 40
0.0
 40
0.0
 40
0.1496177296
 40
0.2913215495
 40
0.4250638929
 40
0.5511566503
 40
0.6703202033
 40
0.7837160824
 40
0.8929512401
 40
1.0
 40
1.0
 40
1.0
 40
1.0
 10
21.0192378629
 20
26.6075946034
 30
0.0
 10
21.3421574788
 20
26.4088308256
 30
0.0
 10
21.9875149177
 20
26.0477923276
 30
0.0
 10
22.9747755622
 20
25.6123918763
 30
0.0
 10
23.9462210841
 20
25.3020494614
 30
0.0
 10
24.8920256949
 20
25.1203874856
 30
0.0
 10
25.8026394242
 20
25.0699111794
 30
0.0
 10
26.6686064194
 20
25.1522949414
 30
0.0
 10
27.4799351071
 20
25.367458997
 30
0.0
 10
27.9802818601
 20
25.5995064462
 30
0.0
 10
28.2152371456
 20
25.7351572578
 30
0.0
  0
SPLINE
  5
308
100
AcDbEntity
  8
0
100
AcDbSpline
 62
7
  6
BYLAYER
 70
0
 71
3
 72
26
 73
22
 74
0
 42
0.0000001
 43
0.0000001
 44
0.0000000001
 40
0.0
 40
0.0
 40
0.0
 40
0.0
 40
0.0623767326
 40
0.1287150622
 40
0.1983013173
 40
0.2702731961
 40
0.3436454928
 40
0.417373752
 40
0.4903942862
 40
0.5616770387
 40
0.6302704398
 40
0.695354119
 40
0.756297883
 40
0.8127315889
 40
0.8646289006
 40
0.8890145364
 40
0.9124622694
 40
0.9351058685
 40
0.9571097264
 40
0.9786690667
 40
1.0
 40
1.0
 40
1.0
 40
1.0
 10
21.3402709437
 20
47.8492993142
 30
0.0
 10
21.7893582072
 20
47.5900245273
 30
0.0
 10
22.6815355523
 20
46.9937932039
 30
0.0
 10
23.9449933002
 20
45.9305695887
 30
0.0
 10
25.1527046583
 20
44.6905390696
 30
0.0
 10
26.2788996752
 20
43.3003559999
 30
0.0
 10
27.2996979143
 20
41.7894251624
 30
0.0
 10
28.1933524462
 20
40.1900345077
 30
0.0
 10
28.9407734708
 20
38.5362756317
 30
0.0
 10
29.5260348409
 20
36.8634094572
 30
0.0
 10
29.936658539
 20
35.20694116
 30
0.0
 10
30.1638659528
 20
33.6018625793
 30
0.0
 10
30.2025074911
 20
32.081585768
 30
0.0
 10
30.0511868549
 20
30.6779087301
 30
0.0
 10
29.761614787
 20
29.6069591025
 30
0.0
 10
29.4333443471
 20
28.8443103452
 30
0.0
 10
29.1478349321
 20
28.3314229032
 30
0.0
 10
28.819598331
 20
27.8687325557
 30
0.0
 10
28.4500852139
 20
27.4590072211
 30
0.0
 10
28.0415153451
 20
27.1046682128
 30
0.0
 10
27.7438111447
 20
26.906359967
 30
0.0
 10
27.5902319162
 20
26.8177048131
 30
0.0
  0
SPLINE
  5
309
100
AcDbEntity
  8
0
100
AcDbSpline
 62
7
  6
BYLAYER
 70
0
 71
3
 72
17
 73
13
 74
0
 42
0.0000001
 43
0.0000001
 44
0.0000000001
 40
0.0
 40
0.0
 40
0.0
 40
0.0
 40
0.0558417707
 40
0.1142242437
 40
0.237370565
 40
0.3669999614
 40
0.5000010808
 40
0.6330020497
 40
0.7626310066
 40
0.8857766356
 40
0.944158687
 40
1.0
 40
1.0
 40
1.0
 40
1.0
 10
20.809995174
 20
30.1109445454
 30
0.0
 10
20.809995174
 20
30.3529699879
 30
0.0
 10
20.7884521998
 20
30.8482252623
 30
0.0
 10
20.6646939888
 20
31.8703377784
 30
0.0
 10
20.3580981165
 20
33.1882096657
 30
0.0
 10
19.7795753365
 20
34.7609135282
 30
0.0
 10
19.0051188011
 20
36.2949141527
 30
0.0
 10
18.0638577755
 20
37.7326074529
 30
0.0
 10
16.9911144441
 20
39.0199649294
 30
0.0
 10
16.003100834
 20
39.9444098706
 30
0.0
 10
15.1798051207
 20
40.5626333513
 30
0.0
 10
14.7616737555
 20
40.8289119384
 30
0.0
 10
14.5520741065
 20
40.9499216145
 30
0.0
  0
SPLINE
  5
30A
100
AcDbEntity
  8
0
100
AcDbSpline
 62
7
  6
BYLAYER
 70
0
 71
3
 72
14
 73
10
 74
0
 42
0.0000001
 43
0.0000001
 44
0.0000000001
 40
0.0
 40
0.0
 40
0.0
 40
0.0
 40
0.1099544165
 40
0.2216614978
 40
0.3367382539
 40
0.4565680349
 40
0.5822105325
 40
0.714436516
 40
1.0
 40
1.0
 40
1.0
 40
1.0
 10
10.7306554137
 20
41.1593016838
 30
0.0
 10
10.8562632662
 20
41.231820774
 30
0.0
 10
11.1214180957
 20
41.3583457566
 30
0.0
 10
11.5485591586
 20
41.4859680142
 30
0.0
 10
12.0026362235
 20
41.5514987364
 30
0.0
 10
12.4795659118
 20
41.5544362069
 30
0.0
 10
12.9754874708
 20
41.4953476358
 30
0.0
 10
13.6742695049
 20
41.3304498951
 30
0.0
 10
14.1884037503
 20
41.1205229119
 30
0.0
 10
14.5249599076
 20
40.9513499284
 30
0.0
  0
SPLINE
  5
30B
100
AcDbEntity
  8
0
100
AcDbSpline
 62
7
  6
BYLAYER
 70
0
 71
3
 72
17
 73
13
 74
0
 42
0.0000001
 43
0.0000001
 44
0.0000000001
 40
0.0
 40
0.0
 40
0.0
 40
0.0
 40
0.0558417707
 40
0.1142242437
 40
0.237370565
 40
0.3669999614
 40
0.5000010808
 40
0.6330020497
 40
0.7626310066
 40
0.8857766356
 40
0.944158687
 40
1.0
 40
1.0
 40
1.0
 40
1.0
 10
8.2941530389
 20
37.3368059005
 30
0.0
 10
8.2941530389
 20
37.094780458
 30
0.0
 10
8.3156960132
 20
36.5995251836
 30
0.0
 10
8.4394542242
 20
35.5774126675
 30
0.0
 10
8.7460500964
 20
34.2595407802
 30
0.0
 10
9.3245728765
 20
32.6868369177
 30
0.0
 10
10.0990294119
 20
31.1528362932
 30
0.0
 10
11.0402904375
 20
29.715142993
 30
0.0
 10
12.1130337688
 20
28.4277855165
 30
0.0
 10
13.101047379
 20
27.5033405753
 30
0.0
 10
13.9243430923
 20
26.8851170946
 30
0.0
 10
14.3424744575
 20
26.6188385075
 30
0.0
 10
14.5520741065
 20
26.4978288314
 30
0.0
  0
SPLINE
  5
30C
100
AcDbEntity
  8
0
100
AcDbSpline
 62
7
  6
BYLAYER
 70
0
 71
3
 72
14
 73
10
 74
0
 42
0.0000001
 43
0.0000001
 44
0.0000000001
 40
0.0
 40
0.0
 40
0.0
 40
0.0
 40
0.2856265845
 40
0.4179079232
 40
0.5435738748
 40
0.6633925699
 40
0.77843867
 40
0.8901004518
 40
1.0
 40
1.0
 40
1.0
 40
1.0
 10
20.7984567138
 20
30.1001019344
 30
0.0
 10
20.7773332165
 20
29.7226440091
 30
0.0
 10
20.7027588911
 20
29.17026012
 30
0.0
 10
20.4966340019
 20
28.479761251
 30
0.0
 10
20.2998714904
 20
28.0187718379
 30
0.0
 10
20.0585908365
 20
27.605506482
 30
0.0
 10
19.7742758638
 20
27.2435936372
 30
0.0
 10
19.4494049725
 20
26.9363410886
 30
0.0
 10
19.2065693298
 20
26.7694226453
 30
0.0
 10
19.0805966365
 20
26.696692916
 30
0.0
  0
SPLINE
  5
30D
100
AcDbEntity
  8
0
100
AcDbSpline
 62
7
  6
BYLAYER
 70
0
 71
3
 72
15
 73
11
 74
0
 42
0.0000001
 43
0.0000001
 44
0.0000000001
 40
0.0
 40
0.0
 40
0.0
 40
0.0
 40
0.1486037745
 40
0.2894995004
 40
0.4227218323
 40
0.5486418163
 40
0.6680006703
 40
0.7819376318
 40
0.8919874939
 40
1.0
 40
1.0
 40
1.0
 40
1.0
 10
14.9054567224
 20
26.293797447
 30
0.0
 10
15.1163654666
 20
26.1720257292
 30
0.0
 10
15.5373473226
 20
25.9516454624
 30
0.0
 10
16.179499718
 20
25.6887979611
 30
0.0
 10
16.8101987259
 20
25.5049412276
 30
0.0
 10
17.4235214062
 20
25.4020323812
 30
0.0
 10
18.0137405192
 20
25.3814815452
 30
0.0
 10
18.575157285
 20
25.4441264643
 30
0.0
 10
19.101823336
 20
25.5897047955
 30
0.0
 10
19.4272930872
 20
25.7421608962
 30
0.0
 10
19.580593117
 20
25.8306684388
 30
0.0
  0
SPLINE
  5
30E
100
AcDbEntity
  8
0
100
AcDbSpline
 62
7
  6
BYLAYER
 70
0
 71
3
 72
15
 73
11
 74
0
 42
0.0000001
 43
0.0000001
 44
0.0000000001
 40
0.0
 40
0.0
 40
0.0
 40
0.0
 40
0.1080124352
 40
0.2180618367
 40
0.3320011043
 40
0.451362035
 40
0.5772693389
 40
0.7104922434
 40
0.8514459498
 40
1.0
 40
1.0
 40
1.0
 40
1.0
 10
10.2306589332
 20
42.025326161
 30
0.0
 10
10.0773609987
 20
41.9368198282
 30
0.0
 10
9.7825991078
 20
41.7311877214
 30
0.0
 10
9.3931860635
 20
41.3478820374
 30
0.0
 10
9.0582294014
 20
40.8930002821
 30
0.0
 10
8.7809341777
 20
40.3715971065
 30
0.0
 10
8.5633601517
 20
39.7890298585
 30
0.0
 10
8.4072113559
 20
39.1508338565
 30
0.0
 10
8.3138281042
 20
38.4632770051
 30
0.0
 10
8.294150095
 20
37.9885018861
 30
0.0
 10
8.294150095
 20
37.7450483546
 30
0.0
  0
SPLINE
  5
30F
100
AcDbEntity
  8
0
100
AcDbSpline
 62
7
  6
BYLAYER
 70
0
 71
3
 72
15
 73
11
 74
0
 42
0.0000001
 43
0.0000001
 44
0.0000000001
 40
0.0
 40
0.0
 40
0.0
 40
0.0
 40
0.108013983
 40
0.2180616032
 40
0.331997582
 40
0.4513592818
 40
0.5772696829
 40
0.7104892043
 40
0.851435413
 40
1.0
 40
1.0
 40
1.0
 40
1.0
 10
15.0903099713
 20
48.4683333871
 30
0.0
 10
15.2952590318
 20
48.5866422931
 30
0.0
 10
15.7303636275
 20
48.7904380949
 30
0.0
 10
16.434419977
 20
48.9850864418
 30
0.0
 10
17.18494782
 20
49.0688525497
 30
0.0
 10
17.9739589401
 20
49.0413438554
 30
0.0
 10
18.7938686001
 20
48.9038644469
 30
0.0
 10
19.6371016253
 20
48.658056636
 30
0.0
 10
20.4955601084
 20
48.3066253638
 30
0.0
 10
21.0583893342
 20
48.0120400557
 30
0.0
 10
21.3402709437
 20
47.8492993142
 30
0.0
  0
SPLINE
  5
310
100
AcDbEntity
  8
0
100
AcDbSpline
 62
7
  6
BYLAYER
 70
0
 71
3
 72
11
 73
7
 74
0
 42
0.0000001
 43
0.0000001
 44
0.0000000001
 40
0.0
 40
0.0
 40
0.0
 40
0.0
 40
0.2255420459
 40
0.4509466128
 40
0.7005419679
 40
1.0
 40
1.0
 40
1.0
 40
1.0
 10
47.3668202226
 20
26.5415124812
 30
0.0
 10
47.366821171
 20
26.5263199287
 30
0.0
 10
47.3632767977
 20
26.4957204459
 30
0.0
 10
47.3439499041
 20
26.4518509741
 30
0.0
 10
47.3088836985
 20
26.4122915663
 30
0.0
 10
47.2780904726
 20
26.3912784507
 30
0.0
 10
47.2606291217
 20
26.3811793162
 30
0.0
  0
SPLINE
  5
311
100
AcDbEntity
  8
0
100
AcDbSpline
 62
7
  6
BYLAYER
 70
0
 71
3
 72
15
 73
11
 74
0
 42
0.0000001
 43
0.0000001
 44
0.0000000001
 40
0.0
 40
0.0
 40
0.0
 40
0.0
 40
0.1080137143
 40
0.2180613488
 40
0.33199708
 40
0.4513580809
 40
0.5772718564
 40
0.7104887939
 40
0.8514266003
 40
1.0
 40
1.0
 40
1.0
 40
1.0
 10
14.4653047418
 20
49.5508809424
 30
0.0
 10
14.2398637245
 20
49.4207231684
 30
0.0
 10
13.8064461578
 20
49.1182478754
 30
0.0
 10
13.2337266798
 20
48.554639929
 30
0.0
 10
12.741156621
 20
47.8856932172
 30
0.0
 10
12.3333847374
 20
47.1189105254
 30
0.0
 10
12.0134057762
 20
46.2621972764
 30
0.0
 10
11.7838064673
 20
45.3237053155
 30
0.0
 10
11.6464148231
 20
44.31260656
 30
0.0
 10
11.617512223
 20
43.6143961599
 30
0.0
 10
11.617512223
 20
43.2563294748
 30
0.0
  0
SPLINE
  5
312
100
AcDbEntity
  8
0
100
AcDbSpline
 62
7
  6
BYLAYER
 70
0
 71
3
 72
11
 73
7
 74
0
 42
0.0000001
 43
0.0000001
 44
0.0000000001
 40
0.0
 40
0.0
 40
0.0
 40
0.0
 40
0.2177833598
 40
0.4509104088
 40
0.7102966711
 40
1.0
 40
1.0
 40
1.0
 40
1.0
 10
13.943413655
 20
59.5993674987
 30
0.0
 10
13.8939337665
 20
59.5708004334
 30
0.0
 10
13.8013589287
 20
59.4929729521
 30
0.0
 10
13.7028020421
 20
59.3318279547
 30
0.0
 10
13.6442650473
 20
59.1332374091
 30
0.0
 10
13.6327419672
 20
58.9886972849
 30
0.0
 10
13.6327419672
 20
58.9126950683
 30
0.0
  0
SPLINE
  5
313
100
AcDbEntity
  8
0
100
AcDbSpline
 62
7
  6
BYLAYER
 70
0
 71
3
 72
14
 73
10
 74
0
 42
0.0000001
 43
0.0000001
 44
0.0000000001
 40
0.0
 40
0.0
 40
0.0
 40
0.0
 40
0.2687771467
 40
0.396858978
 40
0.5214062999
 40
0.6432239703
 40
0.7631593629
 40
0.8817425065
 40
1.0
 40
1.0
 40
1.0
 40
1.0
 10
30.4921714031
 20
80.4565554672
 30
0.0
 10
30.818037596
 20
80.6446932764
 30
0.0
 10
31.3250849588
 20
80.8831317251
 30
0.0
 10
32.0286027823
 20
81.082548065
 30
0.0
 10
32.5478164682
 20
81.1645159134
 30
0.0
 10
33.0621081364
 20
81.1769762316
 30
0.0
 10
33.5647790167
 20
81.115649066
 30
0.0
 10
34.0472223433
 20
80.9787160518
 30
0.0
 10
34.3487334289
 20
80.8365028521
 30
0.0
 10
34.4921097539
 20
80.753726365
 30
0.0
  0
SPLINE
  5
314
100
AcDbEntity
  8
0
100
AcDbSpline
 62
7
  6
BYLAYER
 70
0
 71
3
 72
17
 73
13
 74
0
 42
0.0000001
 43
0.0000001
 44
0.0000000001
 40
0.0
 40
0.0
 40
0.0
 40
0.0
 40
0.1248914777
 40
0.2553128923
 40
0.388587792
 40
0.521590692
 40
0.6512469651
 40
0.7140230061
 40
0.7750697622
 40
0.8342238842
 40
0.8914042757
 40
1.0
 40
1.0
 40
1.0
 40
1.0
 10
52.7715589672
 20
66.4774143291
 30
0.0
 10
52.7101803028
 20
66.0562592059
 30
0.0
 10
52.5182087405
 20
65.2041293876
 30
0.0
 10
52.0594925657
 20
63.9584779965
 30
0.0
 10
51.4405930599
 20
62.7528662301
 30
0.0
 10
50.6847078367
 20
61.6314801209
 30
0.0
 10
49.9548385647
 20
60.7920201223
 30
0.0
 10
49.3243863648
 20
60.2006193064
 30
0.0
 10
48.8397618704
 20
59.8073684216
 30
0.0
 10
48.3417063535
 20
59.4634669297
 30
0.0
 10
47.676292104
 20
59.0821597913
 30
0.0
 10
47.1475077693
 20
58.8688572108
 30
0.0
 10
46.7904843596
 20
58.7714541791
 30
0.0
  0
SPLINE
  5
315
100
AcDbEntity
  8
0
100
AcDbSpline
 62
7
  6
BYLAYER
 70
0
 71
3
 72
16
 73
12
 74
0
 42
0.0000001
 43
0.0000001
 44
0.0000000001
 40
0.0
 40
0.0
 40
0.0
 40
0.0
 40
0.1150917671
 40
0.2308974788
 40
0.3485884406
 40
0.4692081465
 40
0.5310298273
 40
0.5940054897
 40
0.7237310172
 40
0.8590909036
 40
1.0
 40
1.0
 40
1.0
 40
1.0
 10
51.1091882949
 20
71.1600686337
 30
0.0
 10
51.2844017015
 20
71.0589114147
 30
0.0
 10
51.6162027018
 20
70.8194743049
 30
0.0
 10
52.0346714245
 20
70.3668893715
 30
0.0
 10
52.3679565212
 20
69.8372960671
 30
0.0
 10
52.5711991942
 20
69.3479010803
 30
0.0
 10
52.6920791259
 20
68.9334789741
 30
0.0
 10
52.7873777087
 20
68.4959947037
 30
0.0
 10
52.85446289
 20
67.9216081545
 30
0.0
 10
52.8556672405
 20
67.206650981
 30
0.0
 10
52.8072813561
 20
66.7225266538
 30
0.0
 10
52.7715589672
 20
66.4774143291
 30
0.0
  0
SPLINE
  5
316
100
AcDbEntity
  8
0
100
AcDbSpline
 62
7
  6
BYLAYER
 70
0
 71
3
 72
11
 73
7
 74
0
 42
0.0000001
 43
0.0000001
 44
0.0000000001
 40
0.0
 40
0.0
 40
0.0
 40
0.0
 40
0.3045404528
 40
0.5717976558
 40
0.8021171709
 40
1.0
 40
1.0
 40
1.0
 40
1.0
 10
47.2203685367
 20
26.8652178864
 30
0.0
 10
47.2413689965
 20
26.8353410404
 30
0.0
 10
47.2794710683
 20
26.778280276
 30
0.0
 10
47.3264014801
 20
26.6941198731
 30
0.0
 10
47.3577150234
 20
26.6165542585
 30
0.0
 10
47.3668187414
 20
26.5652416913
 30
0.0
 10
47.3668202226
 20
26.5415124812
 30
0.0
  0
SPLINE
  5
317
100
AcDbEntity
  8
0
100
AcDbSpline
 62
7
  6
BYLAYER
 70
0
 71
3
 72
11
 73
7
 74
0
 42
0.0000001
 43
0.0000001
 44
0.0000000001
 40
0.0
 40
0.0
 40
0.0
 40
0.0
 40
0.289702329
 40
0.5490881649
 40
0.7822156415
 40
1.0
 40
1.0
 40
1.0
 40
1.0
 10
14.6934065549
 20
59.5250875622
 30
0.0
 10
14.6275883188
 20
59.5630868789
 30
0.0
 10
14.4966546237
 20
59.6253746046
 30
0.0
 10
14.2954069291
 20
59.6739723171
 30
0.0
 10
14.1065777163
 20
59.6691911957
 30
0.0
 10
13.9928924479
 20
59.6279339315
 30
0.0
 10
13.943413655
 20
59.5993674987
 30
0.0
  0
SPLINE
  5
318
100
AcDbEntity
  8
0
100
AcDbSpline
 62
7
  6
BYLAYER
 70
0
 71
3
 72
12
 73
8
 74
0
 42
0.0000001
 43
0.0000001
 44
0.0000000001
 40
0.0
 40
0.0
 40
0.0
 40
0.0
 40
0.2895278714
 40
0.5486649467
 40
0.7816297549
 40
0.8918388778
 40
1.0
 40
1.0
 40
1.0
 40
1.0
 10
15.2944498213
 20
55.5038220438
 30
0.0
 10
15.2944498213
 20
55.612775629
 30
0.0
 10
15.3109971767
 20
55.8199770011
 30
0.0
 10
15.3947125738
 20
56.1045163098
 30
0.0
 10
15.5151762145
 20
56.3007990547
 30
0.0
 10
15.6367206009
 20
56.4203964783
 30
0.0
 10
15.7044937067
 20
56.4677058988
 30
0.0
 10
15.7397466687
 20
56.4880512102
 30
0.0
  0
SPLINE
  5
319
100
AcDbEntity
  8
0
100
AcDbSpline
 62
7
  6
BYLAYER
 70
0
 71
3
 72
11
 73
7
 74
0
 42
0.0000001
 43
0.0000001
 44
0.0000000001
 40
0.0
 40
0.0
 40
0.0
 40
0.0
 40
0.2243255736
 40
0.4647012175
 40
0.7231748475
 40
1.0
 40
1.0
 40
1.0
 40
1.0
 10
20.7872356122
 20
29.6749633556
 30
0.0
 10
20.6029113902
 20
29.6646727971
 30
0.0
 10
20.2184214162
 20
29.6803615879
 30
0.0
 10
19.6337208426
 20
29.8024901072
 30
0.0
 10
19.0319506641
 20
30.0209268154
 30
0.0
 10
18.6384410914
 20
30.2214451384
 30
0.0
 10
18.4411452112
 20
30.335351391
 30
0.0
  0
SPLINE
  5
31A
100
AcDbEntity
  8
0
100
AcDbSpline
 62
7
  6
BYLAYER
 70
0
 71
3
 72
11
 73
7
 74
0
 42
0.0000001
 43
0.0000001
 44
0.0000000001
 40
0.0
 40
0.0
 40
0.0
 40
0.0
 40
0.2665446117
 40
0.5246800925
 40
0.7702788343
 40
1.0
 40
1.0
 40
1.0
 40
1.0
 10
29.7448901835
 20
40.4658215062
 30
0.0
 10
30.0668365142
 20
39.7981811734
 30
0.0
 10
30.6388841134
 20
38.4530407742
 30
0.0
 10
31.2779805662
 20
36.4046770967
 30
0.0
 10
31.6730884516
 20
34.3995486684
 30
0.0
 10
31.7701335017
 20
33.0767643208
 30
0.0
 10
31.7701335017
 20
32.4379528793
 30
0.0
  0
SPLINE
  5
31B
100
AcDbEntity
  8
0
100
AcDbSpline
 62
7
  6
BYLAYER
 70
0
 71
3
 72
14
 73
10
 74
0
 42
0.0000001
 43
0.0000001
 44
0.0000000001
 40
0.0
 40
0.0
 40
0.0
 40
0.0
 40
0.1454356854
 40
0.284647197
 40
0.5439840693
 40
0.6649392146
 40
0.7806808476
 40
0.8920435161
 40
1.0
 40
1.0
 40
1.0
 40
1.0
 10
31.7701335017
 20
32.4379528793
 30
0.0
 10
31.7701335017
 20
32.1370224965
 30
0.0
 10
31.7496113144
 20
31.5476582229
 30
0.0
 10
31.6238125571
 20
30.4285579183
 30
0.0
 10
31.371173531
 20
29.3759648002
 30
0.0
 10
30.9785213828
 20
28.4257897101
 30
0.0
 10
30.6297847969
 20
27.79369763
 30
0.0
 10
30.2223295448
 20
27.2306161883
 30
0.0
 10
29.909356947
 20
26.8997403947
 30
0.0
 10
29.7448901835
 20
26.7485808984
 30
0.0
  0
SPLINE
  5
31C
100
AcDbEntity
  8
0
100
AcDbSpline
 62
7
  6
BYLAYER
 70
0
 71
3
 72
26
 73
22
 74
0
 42
0.0000001
 43
0.0000001
 44
0.0000000001
 40
0.0
 40
0.0
 40
0.0
 40
0.0
 40
0.06237924
 40
0.1287164251
 40
0.198304859
 40
0.2702775062
 40
0.3436513698
 40
0.4173803743
 40
0.4904017523
 40
0.5616851429
 40
0.6302791339
 40
0.6953634915
 40
0.7563080512
 40
0.8127426119
 40
0.8392667572
 40
0.8646885845
 40
0.9124613277
 40
0.9351048515
 40
0.9571093313
 40
0.9786687715
 40
1.0
 40
1.0
 40
1.0
 40
1.0
 10
31.0630296645
 20
32.0297087255
 30
0.0
 10
31.0630296645
 20
32.6001342844
 30
0.0
 10
30.9857432394
 20
33.7779636961
 30
0.0
 10
30.6677595457
 20
35.5663317013
 30
0.0
 10
30.1507370986
 20
37.3988315091
 30
0.0
 10
29.4457984796
 20
39.2362719586
 30
0.0
 10
28.567891822
 20
41.0397148937
 30
0.0
 10
27.5357730413
 20
42.7706842092
 30
0.0
 10
26.3714469539
 20
44.392245348
 30
0.0
 10
25.0997231992
 20
45.8698405669
 30
0.0
 10
23.7476060221
 20
47.172045375
 30
0.0
 10
22.3434611127
 20
48.2713049124
 30
0.0
 10
20.9167535659
 20
49.1441723655
 30
0.0
 10
19.708471501
 20
49.6782078273
 30
0.0
 10
18.7593909612
 20
49.967688872
 30
0.0
 10
17.8669614623
 20
50.1583491972
 30
0.0
 10
16.9857292605
 20
50.2230331741
 30
0.0
 10
16.1427311175
 20
50.1438636498
 30
0.0
 10
15.5491265638
 20
50.017313758
 30
0.0
 10
14.9868988082
 20
49.8229027748
 30
0.0
 10
14.6342344162
 20
49.6484120423
 30
0.0
 10
14.4653047418
 20
49.5508809424
 30
0.0
  0
SPLINE
  5
31D
100
AcDbEntity
  8
0
100
AcDbSpline
 62
7
  6
BYLAYER
 70
0
 71
3
 72
15
 73
11
 74
0
 42
0.0000001
 43
0.0000001
 44
0.0000000001
 40
0.0
 40
0.0
 40
0.0
 40
0.0
 40
0.1465735613
 40
0.2859034396
 40
0.4181564878
 40
0.5437915647
 40
0.6635642169
 40
0.7785598799
 40
0.8901620991
 40
1.0
 40
1.0
 40
1.0
 40
1.0
 10
12.5181249195
 20
43.3637157384
 30
0.0
 10
12.5341036885
 20
43.6542589389
 30
0.0
 10
12.588383609
 20
44.2200892921
 30
0.0
 10
12.7432599235
 20
45.0369189808
 30
0.0
 10
12.9687610324
 20
45.7941483814
 30
0.0
 10
13.2631600747
 20
46.4856011063
 30
0.0
 10
13.6246536099
 20
47.1054194916
 30
0.0
 10
14.0505415667
 20
47.6482965385
 30
0.0
 10
14.5375081768
 20
48.108980847
 30
0.0
 10
14.9014627124
 20
48.3593194081
 30
0.0
 10
15.0903099713
 20
48.4683333871
 30
0.0
  0
SPLINE
  5
31E
100
AcDbEntity
  8
0
100
AcDbSpline
 62
7
  6
BYLAYER
 70
0
 71
3
 72
12
 73
8
 74
0
 42
0.0000001
 43
0.0000001
 44
0.0000000001
 40
0.0
 40
0.0
 40
0.0
 40
0.0
 40
0.2450137656
 40
0.5001222679
 40
0.7551183241
 40
0.8794491491
 40
1.0
 40
1.0
 40
1.0
 40
1.0
 10
16.9520703275
 20
38.8756135202
 30
0.0
 10
17.072224953
 20
38.346485731
 30
0.0
 10
17.4104911797
 20
37.2861636519
 30
0.0
 10
18.1474051048
 20
35.7794564499
 30
0.0
 10
18.9382535131
 20
34.6115794773
 30
0.0
 10
19.6575665479
 20
33.7690210249
 30
0.0
 10
20.0412800067
 20
33.384760224
 30
0.0
 10
20.2378218034
 20
33.2040864356
 30
0.0
  0
SPLINE
  5
31F
100
AcDbEntity
  8
0
100
AcDbSpline
 62
7
  6
BYLAYER
 70
0
 71
3
 72
23
 73
19
 74
0
 42
0.0000001
 43
0.0000001
 44
0.0000000001
 40
0.0
 40
0.0
 40
0.0
 40
0.0
 40
0.0785865588
 40
0.1533726101
 40
0.2240014691
 40
0.290429595
 40
0.3528072161
 40
0.4114950107
 40
0.467132276
 40
0.520622575
 40
0.5730898385
 40
0.6257703297
 40
0.6798772886
 40
0.736467695
 40
0.7963476779
 40
0.8600800975
 40
0.9279801326
 40
1.0
 40
1.0
 40
1.0
 40
1.0
 10
52.489122365
 20
66.2133889208
 30
0.0
 10
52.5164649663
 20
66.4010025928
 30
0.0
 10
52.5554312752
 20
66.7694769309
 30
0.0
 10
52.5649718167
 20
67.3105563697
 30
0.0
 10
52.5237314592
 20
67.820907519
 30
0.0
 10
52.4321539941
 20
68.2943826319
 30
0.0
 10
52.291078067
 20
68.7255745903
 30
0.0
 10
52.1016501691
 20
69.1092920518
 30
0.0
 10
51.8657208885
 20
69.4406803416
 30
0.0
 10
51.5856389991
 20
69.7150027294
 30
0.0
 10
51.2650308829
 20
69.9282597285
 30
0.0
 10
50.908304641
 20
70.0770591716
 30
0.0
 10
50.5207541559
 20
70.1597066482
 30
0.0
 10
50.1077064466
 20
70.1755917861
 30
0.0
 10
49.6743482246
 20
70.1252870712
 30
0.0
 10
49.2256595609
 20
70.0098269184
 30
0.0
 10
48.767021434
 20
69.8308464638
 30
0.0
 10
48.466642631
 20
69.6753969673
 30
0.0
 10
48.3161678642
 20
69.5885208396
 30
0.0
  0
SPLINE
  5
320
100
AcDbEntity
  8
0
100
AcDbSpline
 62
7
  6
BYLAYER
 70
0
 71
3
 72
15
 73
11
 74
0
 42
0.0000001
 43
0.0000001
 44
0.0000000001
 40
0.0
 40
0.0
 40
0.0
 40
0.0
 40
0.1485543838
 40
0.2895087704
 40
0.4227318319
 40
0.548638914
 40
0.667999567
 40
0.7819385784
 40
0.8919877039
 40
1.0
 40
1.0
 40
1.0
 40
1.0
 10
28.6588507111
 20
34.2342121992
 30
0.0
 10
28.6588507111
 20
33.9907584291
 30
0.0
 10
28.6391717327
 20
33.5159822837
 30
0.0
 10
28.5457877819
 20
32.8284244476
 30
0.0
 10
28.3896366961
 20
32.1902287993
 30
0.0
 10
28.172061295
 20
31.6076634609
 30
0.0
 10
27.894764298
 20
31.0862635352
 30
0.0
 10
27.5598085096
 20
30.6313837597
 30
0.0
 10
27.1703956354
 20
30.2480803118
 30
0.0
 10
26.8756338674
 20
30.0424501097
 30
0.0
 10
26.7223362159
 20
29.953944191
 30
0.0
  0
SPLINE
  5
321
100
AcDbEntity
  8
0
100
AcDbSpline
 62
7
  6
BYLAYER
 70
0
 71
3
 72
19
 73
15
 74
0
 42
0.0000001
 43
0.0000001
 44
0.0000000001
 40
0.0
 40
0.0
 40
0.0
 40
0.0
 40
0.0558338304
 40
0.1142082235
 40
0.1748262285
 40
0.2374054631
 40
0.3670165188
 40
0.4999989101
 40
0.6329814532
 40
0.7625929526
 40
0.8251725067
 40
0.8857908899
 40
0.9441657099
 40
1.0
 40
1.0
 40
1.0
 40
1.0
 10
22.047374781
 20
45.6855608541
 30
0.0
 10
22.26881673
 20
45.5577141775
 30
0.0
 10
22.7105554873
 20
45.2763899408
 30
0.0
 10
23.3513523213
 20
44.795266182
 30
0.0
 10
23.9796068337
 20
44.2494824898
 30
0.0
 10
24.8018600042
 20
43.4334424162
 30
0.0
 10
25.7576512319
 20
42.2863448986
 30
0.0
 10
26.7519922715
 20
40.7675520454
 30
0.0
 10
27.5701435692
 20
39.1470331049
 30
0.0
 10
28.0856723581
 20
37.7457436881
 30
0.0
 10
28.3812654317
 20
36.6256282945
 30
0.0
 10
28.539807339
 20
35.8086481314
 30
0.0
 10
28.6360812463
 20
35.0131349332
 30
0.0
 10
28.6588507111
 20
34.4899119963
 30
0.0
 10
28.6588507111
 20
34.2342121992
 30
0.0
  0
SPLINE
  5
322
100
AcDbEntity
  8
0
100
AcDbSpline
 62
7
  6
BYLAYER
 70
0
 71
3
 72
23
 73
19
 74
0
 42
0.0000001
 43
0.0000001
 44
0.0000000001
 40
0.0
 40
0.0
 40
0.0
 40
0.0
 40
0.0467423656
 40
0.096947861
 40
0.1508270861
 40
0.2083472754
 40
0.2692742837
 40
0.3332145268
 40
0.3996548812
 40
0.4679894971
 40
0.5375479079
 40
0.6076207402
 40
0.6774802327
 40
0.7464108017
 40
0.8137209322
 40
0.8787696432
 40
0.9410305279
 40
1.0
 40
1.0
 40
1.0
 40
1.0
 10
13.6703558216
 20
41.2279983093
 30
0.0
 10
13.5770501144
 20
41.0448433277
 30
0.0
 10
13.4173522507
 20
40.6471337558
 30
0.0
 10
13.2649903205
 20
39.999553455
 30
0.0
 10
13.1929876617
 20
39.2907570665
 30
0.0
 10
13.2022060181
 20
38.531584456
 30
0.0
 10
13.292248615
 20
37.7333856386
 30
0.0
 10
13.4615904135
 20
36.9082603204
 30
0.0
 10
13.7076316263
 20
36.0687835813
 30
0.0
 10
14.0266128647
 20
35.2278261237
 30
0.0
 10
14.4135722441
 20
34.3982904092
 30
0.0
 10
14.862566207
 20
33.5929563513
 30
0.0
 10
15.3667107896
 20
32.8242399362
 30
0.0
 10
15.9182202506
 20
32.1039651899
 30
0.0
 10
16.5085754485
 20
31.4432121439
 30
0.0
 10
17.128853071
 20
30.8520505037
 30
0.0
 10
17.769438547
 20
30.3397972023
 30
0.0
 10
18.2165648657
 20
30.047450721
 30
0.0
 10
18.4411452112
 20
29.9177921314
 30
0.0
  0
SPLINE
  5
323
100
AcDbEntity
  8
0
100
AcDbSpline
 62
7
  6
BYLAYER
 70
0
 71
3
 72
16
 73
12
 74
0
 42
0.0000001
 43
0.0000001
 44
0.0000000001
 40
0.0
 40
0.0
 40
0.0
 40
0.0
 40
0.0995863007
 40
0.1541021697
 40
0.2116219363
 40
0.334683604
 40
0.4662026629
 40
0.602572063
 40
0.7397126998
 40
0.8734597642
 40
1.0
 40
1.0
 40
1.0
 40
1.0
 10
46.9595053336
 20
59.264520703
 30
0.0
 10
47.2643902625
 20
59.3217118224
 30
0.0
 10
47.7248133557
 20
59.4766980154
 30
0.0
 10
48.311317207
 20
59.7783549768
 30
0.0
 10
48.9296156529
 20
60.1727413154
 30
0.0
 10
49.6792988815
 20
60.7982584119
 30
0.0
 10
50.4978995441
 20
61.7044666292
 30
0.0
 10
51.2197067019
 20
62.7431987529
 30
0.0
 10
51.812568824
 20
63.8683805746
 30
0.0
 10
52.2502486519
 20
65.0297494999
 30
0.0
 10
52.432278195
 20
65.8233476309
 30
0.0
 10
52.489122365
 20
66.2133889208
 30
0.0
  0
SPLINE
  5
324
100
AcDbEntity
  8
0
100
AcDbSpline
 62
7
  6
BYLAYER
 70
0
 71
3
 72
25
 73
21
 74
0
 42
0.0000001
 43
0.0000001
 44
0.0000000001
 40
0.0
 40
0.0
 40
0.0
 40
0.0
 40
0.0623793109
 40
0.1287250069
 40
0.1983140874
 40
0.2702915515
 40
0.3436681212
 40
0.4173996795
 40
0.4904239733
 40
0.5617102805
 40
0.6303072467
 40
0.6953947184
 40
0.7563425649
 40
0.8127804413
 40
0.8646816058
 40
0.9124568328
 40
0.9351015834
 40
0.9571070864
 40
0.9786677859
 40
1.0
 40
1.0
 40
1.0
 40
1.0
 10
21.5171019552
 20
30.1109462451
 30
0.0
 10
21.5171019552
 20
30.498817585
 30
0.0
 10
21.4645270123
 20
31.299754686
 30
0.0
 10
21.2483297417
 20
32.5158494903
 30
0.0
 10
20.8967142472
 20
33.761964857
 30
0.0
 10
20.4173794534
 20
35.011418389
 30
0.0
 10
19.8204047555
 20
36.237758638
 30
0.0
 10
19.1185803629
 20
37.414810241
 30
0.0
 10
18.3268466062
 20
38.5174636394
 30
0.0
 10
17.4620789733
 20
39.522217459
 30
0.0
 10
16.5426318295
 20
40.4077173184
 30
0.0
 10
15.5878457381
 20
41.1551955711
 30
0.0
 10
14.6175759771
 20
41.7488222026
 30
0.0
 10
13.6514211236
 20
42.175788277
 30
0.0
 10
12.7089696235
 20
42.4262930727
 30
0.0
 10
11.9445872757
 20
42.4823918464
 30
0.0
 10
11.3712917412
 20
42.4285937786
 30
0.0
 10
10.967662164
 20
42.3424844856
 30
0.0
 10
10.5853154662
 20
42.2103621356
 30
0.0
 10
10.345530889
 20
42.0916473126
 30
0.0
 10
10.2306589332
 20
42.025326161
 30
0.0
  0
SPLINE
  5
325
100
AcDbEntity
  8
0
100
AcDbSpline
 62
7
  6
BYLAYER
 70
0
 71
3
 72
15
 73
11
 74
0
 42
0.0000001
 43
0.0000001
 44
0.0000000001
 40
0.0
 40
0.0
 40
0.0
 40
0.0
 40
0.1080129431
 40
0.2180627746
 40
0.3320023316
 40
0.4513633686
 40
0.5772705847
 40
0.710493219
 40
0.8514464968
 40
1.0
 40
1.0
 40
1.0
 40
1.0
 10
19.0805966365
 20
26.696692916
 30
0.0
 10
18.9436970315
 20
26.6176545866
 30
0.0
 10
18.6530485564
 20
26.4815087825
 30
0.0
 10
18.1827277342
 20
26.3514938659
 30
0.0
 10
17.6813673806
 20
26.2955529422
 30
0.0
 10
17.1543075538
 20
26.3139077391
 30
0.0
 10
16.6066110281
 20
26.4057592582
 30
0.0
 10
16.0433193768
 20
26.5699538279
 30
0.0
 10
15.4698783405
 20
26.8047294725
 30
0.0
 10
15.093908889
 20
27.0014994139
 30
0.0
 10
14.9056260251
 20
27.1102021169
 30
0.0
  0
SPLINE
  5
326
100
AcDbEntity
  8
0
100
AcDbSpline
 62
7
  6
BYLAYER
 70
0
 71
3
 72
22
 73
18
 74
0
 42
0.0000001
 43
0.0000001
 44
0.0000000001
 40
0.0
 40
0.0
 40
0.0
 40
0.0
 40
0.0749624152
 40
0.1462486482
 40
0.2137812141
 40
0.2777357931
 40
0.3384487929
 40
0.3964135864
 40
0.452303841
 40
0.506950972
 40
0.5612883189
 40
0.6162739964
 40
0.672812264
 40
0.7316859687
 40
0.7935015959
 40
0.8586961902
 40
1.0
 40
1.0
 40
1.0
 40
1.0
 10
14.5520741065
 20
40.9499216145
 30
0.0
 10
14.3600572511
 20
41.0607800897
 30
0.0
 10
13.97657107
 20
41.2622374702
 30
0.0
 10
13.3918999902
 20
41.5054007493
 30
0.0
 10
12.8168173198
 20
41.6795589665
 30
0.0
 10
12.2565078327
 20
41.7830597718
 30
0.0
 10
11.7157098662
 20
41.8146877463
 30
0.0
 10
11.1992168792
 20
41.7737848111
 30
0.0
 10
10.7118865921
 20
41.6602017388
 30
0.0
 10
10.2585910788
 20
41.4746349245
 30
0.0
 10
9.8439768648
 20
41.218830637
 30
0.0
 10
9.4723545945
 20
40.8953579603
 30
0.0
 10
9.1471369843
 20
40.5078073367
 30
0.0
 10
8.8712750783
 20
40.0600900812
 30
0.0
 10
8.6466585231
 20
39.55662084
 30
0.0
 10
8.4117767393
 20
38.7970829079
 30
0.0
 10
8.3284936699
 20
38.1867946319
 30
0.0
 10
8.3057583538
 20
37.7694709413
 30
0.0
  0
SPLINE
  5
327
100
AcDbEntity
  8
0
100
AcDbSpline
 62
7
  6
BYLAYER
 70
0
 71
3
 72
25
 73
21
 74
0
 42
0.0000001
 43
0.0000001
 44
0.0000000001
 40
0.0
 40
0.0
 40
0.0
 40
0.0
 40
0.0623788462
 40
0.1287241723
 40
0.1983129897
 40
0.2702902977
 40
0.3436668119
 40
0.417398403
 40
0.4904228017
 40
0.5617092666
 40
0.6303064226
 40
0.6953940954
 40
0.7563421341
 40
0.8127801766
 40
0.864681468
 40
0.9124567763
 40
0.9351015516
 40
0.9571070707
 40
0.9786677797
 40
1.0
 40
1.0
 40
1.0
 40
1.0
 10
14.9056260251
 20
27.1102021169
 30
0.0
 10
14.6056438333
 20
27.2833929979
 30
0.0
 10
14.0096695
 20
27.6816877034
 30
0.0
 10
13.1656706925
 20
28.3919069668
 30
0.0
 10
12.3589207697
 20
29.2202670961
 30
0.0
 10
11.6066185774
 20
30.1488991587
 30
0.0
 10
10.9247213906
 20
31.1581961875
 30
0.0
 10
10.3277625022
 20
32.2265778613
 30
0.0
 10
9.8284907949
 20
33.3312767892
 30
0.0
 10
9.4375472429
 20
34.4487469689
 30
0.0
 10
9.1632519179
 20
35.5552572826
 30
0.0
 10
9.0114838795
 20
36.627468917
 30
0.0
 10
8.9856203155
 20
37.6429567146
 30
0.0
 10
9.0868164624
 20
38.5808430789
 30
0.0
 10
9.3139054627
 20
39.4216015319
 30
0.0
 10
9.6118371508
 20
40.0378312803
 30
0.0
 10
9.909438419
 20
40.4572001121
 30
0.0
 10
10.1562685956
 20
40.7309197479
 30
0.0
 10
10.429182313
 20
40.9676325302
 30
0.0
 10
10.6280683274
 20
41.1000735223
 30
0.0
 10
10.7306554137
 20
41.1593016838
 30
0.0
  0
SPLINE
  5
328
100
AcDbEntity
  8
0
100
AcDbSpline
 62
7
  6
BYLAYER
 70
0
 71
3
 72
10
 73
6
 74
0
 42
0.0000001
 43
0.0000001
 44
0.0000000001
 40
0.0
 40
0.0
 40
0.0
 40
0.0
 40
0.2674036618
 40
0.5234142996
 40
1.0
 40
1.0
 40
1.0
 40
1.0
 10
18.4411452112
 20
29.1514228862
 30
0.0
 10
18.600467438
 20
29.0594402366
 30
0.0
 10
18.9188751714
 20
28.890245741
 30
0.0
 10
19.5498339633
 20
28.6153210597
 30
0.0
 10
20.0371078539
 20
28.471988591
 30
0.0
 10
20.3597707459
 20
28.4137224082
 30
0.0
  0
SPLINE
  5
329
100
AcDbEntity
  8
0
100
AcDbSpline
 62
7
  6
BYLAYER
 70
0
 71
3
 72
12
 73
8
 74
0
 42
0.0000001
 43
0.0000001
 44
0.0000000001
 40
0.0
 40
0.0
 40
0.0
 40
0.0
 40
0.2602834906
 40
0.5216158719
 40
0.7716080066
 40
0.8891408108
 40
1.0
 40
1.0
 40
1.0
 40
1.0
 10
16.0934676047
 20
53.497207417
 30
0.0
 10
15.9713536571
 20
53.6436961773
 30
0.0
 10
15.7505841457
 20
53.9580035245
 30
0.0
 10
15.4987859032
 20
54.4663897211
 30
0.0
 10
15.3610313841
 20
54.9087618612
 30
0.0
 10
15.3045151688
 20
55.2551475887
 30
0.0
 10
15.2944498213
 20
55.4225948702
 30
0.0
 10
15.2944498213
 20
55.5038220438
 30
0.0
  0
SPLINE
  5
32A
100
AcDbEntity
  8
0
100
AcDbSpline
 62
7
  6
BYLAYER
 70
0
 71
3
 72
10
 73
6
 74
0
 42
0.0000001
 43
0.0000001
 44
0.0000000001
 40
0.0
 40
0.0
 40
0.0
 40
0.0
 40
0.472526992
 40
0.7295242596
 40
1.0
 40
1.0
 40
1.0
 40
1.0
 10
20.5192403944
 20
28.8360821965
 30
0.0
 10
20.172238755
 20
28.8743445916
 30
0.0
 10
19.643115255
 20
29.0055417403
 30
0.0
 10
18.9599665122
 20
29.2877798978
 30
0.0
 10
18.6142027735
 20
29.469069576
 30
0.0
 10
18.4411452112
 20
29.5689821459
 30
0.0
  0
SPLINE
  5
32B
100
AcDbEntity
  8
0
100
AcDbSpline
 62
7
  6
BYLAYER
 70
0
 71
3
 72
23
 73
19
 74
0
 42
0.0000001
 43
0.0000001
 44
0.0000000001
 40
0.0
 40
0.0
 40
0.0
 40
0.0
 40
0.0590811409
 40
0.1214758322
 40
0.1866746111
 40
0.2541420199
 40
0.3232270767
 40
0.3932268637
 40
0.4634134953
 40
0.5330500932
 40
0.6014190681
 40
0.6678431957
 40
0.7317123165
 40
0.7925131729
 40
0.8498570766
 40
0.9035200631
 40
0.9534881005
 40
1.0
 40
1.0
 40
1.0
 40
1.0
 10
18.2997244437
 20
29.7229759891
 30
0.0
 10
18.0694924409
 20
29.8558974909
 30
0.0
 10
17.6111458467
 20
30.1558048283
 30
0.0
 10
16.9547374168
 20
30.6816472972
 30
0.0
 10
16.3193953271
 20
31.2887451935
 30
0.0
 10
15.7150754716
 20
31.9674207538
 30
0.0
 10
15.1510437868
 20
32.7072194809
 30
0.0
 10
14.6361072585
 20
33.4966014448
 30
0.0
 10
14.1783233543
 20
34.3232763281
 30
0.0
 10
13.7848065223
 20
35.1743466956
 30
0.0
 10
13.4616614083
 20
36.036540759
 30
0.0
 10
13.2139731198
 20
36.8964700928
 30
0.0
 10
13.0455902479
 20
37.740795611
 30
0.0
 10
12.9591227502
 20
38.5564949679
 30
0.0
 10
12.9560574127
 20
39.3310600142
 30
0.0
 10
13.0367505012
 20
40.052779486
 30
0.0
 10
13.2002195631
 20
40.710475016
 30
0.0
 10
13.3691272849
 20
41.1129746871
 30
0.0
 10
13.4673349823
 20
41.2977919397
 30
0.0
  0
SPLINE
  5
32C
100
AcDbEntity
  8
0
100
AcDbSpline
 62
7
  6
BYLAYER
 70
0
 71
3
 72
9
 73
5
 74
0
 42
0.0000001
 43
0.0000001
 44
0.0000000001
 40
0.0
 40
0.0
 40
0.0
 40
0.0
 40
0.2752362762
 40
1.0
 40
1.0
 40
1.0
 40
1.0
 10
18.2997244437
 20
29.7229759891
 30
0.0
 10
18.4946197058
 20
29.6104557027
 30
0.0
 10
19.2197046983
 20
29.2358919234
 30
0.0
 10
20.03577586
 20
29.0063753814
 30
0.0
 10
20.6282801592
 20
28.9959311182
 30
0.0
  0
SPLINE
  5
32D
100
AcDbEntity
  8
0
100
AcDbSpline
 62
7
  6
BYLAYER
 70
0
 71
3
 72
9
 73
5
 74
0
 42
0.0000001
 43
0.0000001
 44
0.0000000001
 40
0.0
 40
0.0
 40
0.0
 40
0.0
 40
0.2749404709
 40
1.0
 40
1.0
 40
1.0
 40
1.0
 10
18.4411452112
 20
29.9177921314
 30
0.0
 10
18.6305324745
 20
29.8084518175
 30
0.0
 10
19.335778169
 20
29.4437497366
 30
0.0
 10
20.1282686564
 20
29.218564459
 30
0.0
 10
20.7048022395
 20
29.2045613844
 30
0.0
  0
SPLINE
  5
32E
100
AcDbEntity
  8
0
100
AcDbSpline
 62
7
  6
BYLAYER
 70
0
 71
3
 72
23
 73
19
 74
0
 42
0.0000001
 43
0.0000001
 44
0.0000000001
 40
0.0
 40
0.0
 40
0.0
 40
0.0
 40
0.0594184763
 40
0.1222187302
 40
0.1878707561
 40
0.2558106472
 40
0.3253538659
 40
0.3957662268
 40
0.4662889886
 40
0.5361538302
 40
0.6046168087
 40
0.6709819718
 40
0.7346276801
 40
0.7950415977
 40
0.851852653
 40
0.904871641
 40
0.9541444325
 40
1.0
 40
1.0
 40
1.0
 40
1.0
 10
18.4411452112
 20
30.335351391
 30
0.0
 10
18.2267915631
 20
30.4591057278
 30
0.0
 10
17.8001398938
 20
30.7389010454
 30
0.0
 10
17.1898177865
 20
31.2304103817
 30
0.0
 10
16.5998046147
 20
31.7985659326
 30
0.0
 10
16.0396721602
 20
32.4339839012
 30
0.0
 10
15.5183415896
 20
33.1265295245
 30
0.0
 10
15.044240349
 20
33.8650041658
 30
0.0
 10
14.6250328883
 20
34.6374879502
 30
0.0
 10
14.2675074037
 20
35.4315100824
 30
0.0
 10
13.9773996745
 20
36.2342275283
 30
0.0
 10
13.7594147848
 20
37.0327191279
 30
0.0
 10
13.6171080329
 20
37.8141733505
 30
0.0
 10
13.5527670302
 20
38.5661164485
 30
0.0
 10
13.5675430754
 20
39.2766254114
 30
0.0
 10
13.661604272
 20
39.9346034805
 30
0.0
 10
13.8338141862
 20
40.5294530051
 30
0.0
 10
14.0052623831
 20
40.8894018558
 30
0.0
 10
14.1036388053
 20
41.0531362679
 30
0.0
  0
SPLINE
  5
32F
100
AcDbEntity
  8
0
100
AcDbSpline
 62
7
  6
BYLAYER
 70
0
 71
3
 72
22
 73
18
 74
0
 42
0.0000001
 43
0.0000001
 44
0.0000000001
 40
0.0
 40
0.0
 40
0.0
 40
0.0
 40
0.1413039484
 40
0.2064985213
 40
0.2683140554
 40
0.3271876062
 40
0.383725672
 40
0.438711124
 40
0.4930482518
 40
0.547695202
 40
0.6035853419
 40
0.6615501048
 40
0.7222631683
 40
0.7862179018
 40
0.8537507029
 40
0.9250372374
 40
1.0
 40
1.0
 40
1.0
 40
1.0
 10
14.9324001464
 20
26.2916408908
 30
0.0
 10
15.3051866242
 20
26.1026584243
 30
0.0
 10
15.8753631206
 20
25.8696258929
 30
0.0
 10
16.6505983794
 20
25.6932566173
 30
0.0
 10
17.1989347002
 20
25.6360382341
 30
0.0
 10
17.724610817
 20
25.6510783814
 30
0.0
 10
18.2228584492
 20
25.7389480259
 30
0.0
 10
18.6888144947
 20
25.8990471136
 30
0.0
 10
19.1176628548
 20
26.1302153942
 30
0.0
 10
19.5050230957
 20
26.4300040511
 30
0.0
 10
19.847059375
 20
26.7952620721
 30
0.0
 10
20.1407324835
 20
27.2221180028
 30
0.0
 10
20.3837426382
 20
27.7062901023
 30
0.0
 10
20.5742630173
 20
28.2432977603
 30
0.0
 10
20.7109769592
 20
28.8284294698
 30
0.0
 10
20.7927230536
 20
29.4563685781
 30
0.0
 10
20.809995174
 20
29.8892178357
 30
0.0
 10
20.809995174
 20
30.1109445454
 30
0.0
  0
SPLINE
  5
330
100
AcDbEntity
  8
0
100
AcDbSpline
 62
7
  6
BYLAYER
 70
0
 71
3
 72
20
 73
16
 74
0
 42
0.0000001
 43
0.0000001
 44
0.0000000001
 40
0.0
 40
0.0
 40
0.0
 40
0.0
 40
0.062393073
 40
0.1288129064
 40
0.2703073279
 40
0.4173680809
 40
0.5616178538
 40
0.6302538576
 40
0.6953805984
 40
0.7563632694
 40
0.8128326608
 40
0.8647652978
 40
0.9125668126
 40
0.9571676556
 40
1.0
 40
1.0
 40
1.0
 40
1.0
 10
49.7659202709
 20
65.5265162828
 30
0.0
 10
49.7659202709
 20
65.4415068326
 30
0.0
 10
49.7543570155
 20
65.2658781331
 30
0.0
 10
49.6898291245
 20
64.902727892
 30
0.0
 10
49.5338408519
 20
64.4416704765
 30
0.0
 10
49.2520390477
 20
63.9208896319
 30
0.0
 10
48.9484696148
 20
63.5320858615
 30
0.0
 10
48.6752693969
 20
63.2689502589
 30
0.0
 10
48.4659361507
 20
63.1050436288
 30
0.0
 10
48.2531981843
 20
62.9749036442
 30
0.0
 10
48.0413837126
 20
62.8812984508
 30
0.0
 10
47.834713349
 20
62.826355235
 30
0.0
 10
47.6372313392
 20
62.8118584834
 30
0.0
 10
47.453324695
 20
62.8387698192
 30
0.0
 10
47.3419259052
 20
62.8850941203
 30
0.0
 10
47.2913807966
 20
62.9142640342
 30
0.0
  0
SPLINE
  5
331
100
AcDbEntity
  8
0
100
AcDbSpline
 62
7
  6
BYLAYER
 70
0
 71
3
 72
15
 73
11
 74
0
 42
0.0000001
 43
0.0000001
 44
0.0000000001
 40
0.0
 40
0.0
 40
0.0
 40
0.0
 40
0.1141217032
 40
0.2373437542
 40
0.366969704
 40
0.499998918
 40
0.6330282826
 40
0.7626546718
 40
0.8858774158
 40
1.0
 40
1.0
 40
1.0
 40
1.0
 10
47.6092477041
 20
70.813373456
 30
0.0
 10
47.6576408954
 20
70.7854342661
 30
0.0
 10
47.7532484149
 20
70.7183904027
 30
0.0
 10
47.8848271298
 20
70.5953348553
 30
0.0
 10
48.0060587216
 20
70.4498159968
 30
0.0
 10
48.1124234517
 20
70.2873878705
 30
0.0
 10
48.1999088888
 20
70.1140594729
 30
0.0
 10
48.26531727
 20
69.9363101639
 30
0.0
 10
48.3060984783
 20
69.760831186
 30
0.0
 10
48.3163574292
 20
69.6445100438
 30
0.0
 10
48.3163574292
 20
69.5886302844
 30
0.0
  0
SPLINE
  5
332
100
AcDbEntity
  8
0
100
AcDbSpline
 62
7
  6
BYLAYER
 70
0
 71
3
 72
15
 73
11
 74
0
 42
0.0000001
 43
0.0000001
 44
0.0000000001
 40
0.0
 40
0.0
 40
0.0
 40
0.0
 40
0.1080124352
 40
0.2180618367
 40
0.3320011043
 40
0.451362035
 40
0.5772693389
 40
0.7104922434
 40
0.8514459498
 40
1.0
 40
1.0
 40
1.0
 40
1.0
 10
19.580593117
 20
25.8306684388
 30
0.0
 10
19.7338910515
 20
25.9191747716
 30
0.0
 10
20.0286529423
 20
26.1248068784
 30
0.0
 10
20.4180659866
 20
26.5081125624
 30
0.0
 10
20.7530226487
 20
26.9629943177
 30
0.0
 10
21.0303178725
 20
27.4843974932
 30
0.0
 10
21.2478918984
 20
28.0669647413
 30
0.0
 10
21.4040406942
 20
28.7051607433
 30
0.0
 10
21.497423946
 20
29.3927175946
 30
0.0
 10
21.5171019552
 20
29.8674927137
 30
0.0
 10
21.5171019552
 20
30.1109462451
 30
0.0
  0
SPLINE
  5
333
100
AcDbEntity
  8
0
100
AcDbSpline
 62
7
  6
BYLAYER
 70
0
 71
3
 72
20
 73
16
 74
0
 42
0.0000001
 43
0.0000001
 44
0.0000000001
 40
0.0
 40
0.0
 40
0.0
 40
0.0
 40
0.0428304254
 40
0.0874303405
 40
0.1352310825
 40
0.1871629639
 40
0.2436317115
 40
0.3046125673
 40
0.369737712
 40
0.4383722151
 40
0.5826223941
 40
0.7296883436
 40
0.87118735
 40
0.9376078468
 40
1.0
 40
1.0
 40
1.0
 40
1.0
 10
34.8603581955
 20
42.9663795245
 30
0.0
 10
34.8073500449
 20
42.9357872772
 30
0.0
 10
34.6905228786
 20
42.8871991242
 30
0.0
 10
34.4976492185
 20
42.8589752388
 30
0.0
 10
34.2905370384
 20
42.8741743425
 30
0.0
 10
34.0737844973
 20
42.9317873102
 30
0.0
 10
33.851640944
 20
43.0299570524
 30
0.0
 10
33.6285240482
 20
43.1664330986
 30
0.0
 10
33.4089812502
 20
43.3383282147
 30
0.0
 10
33.1224513159
 20
43.6142929822
 30
0.0
 10
32.804059996
 20
44.0220619916
 30
0.0
 10
32.508494905
 20
44.5682571911
 30
0.0
 10
32.3448884385
 20
45.0518202174
 30
0.0
 10
32.2772104655
 20
45.4326924195
 30
0.0
 10
32.2650832248
 20
45.6168886779
 30
0.0
 10
32.2650832248
 20
45.7060439353
 30
0.0
  0
SPLINE
  5
334
100
AcDbEntity
  8
0
100
AcDbSpline
 62
7
  6
BYLAYER
 70
0
 71
3
 72
15
 73
11
 74
0
 42
0.0000001
 43
0.0000001
 44
0.0000000001
 40
0.0
 40
0.0
 40
0.0
 40
0.0
 40
0.1080128002
 40
0.2180623532
 40
0.3320016531
 40
0.4513624104
 40
0.5772694035
 40
0.7104921984
 40
0.8514461641
 40
1.0
 40
1.0
 40
1.0
 40
1.0
 10
17.372413346
 20
46.1485823169
 30
0.0
 10
17.5257076057
 20
46.2370862773
 30
0.0
 10
17.8511625659
 20
46.3895377988
 30
0.0
 10
18.3778071968
 20
46.5351243492
 30
0.0
 10
18.9392085475
 20
46.5977650013
 30
0.0
 10
19.5293873769
 20
46.577215212
 30
0.0
 10
20.1426753353
 20
46.474365652
 30
0.0
 10
20.7734279221
 20
46.2905092288
 30
0.0
 10
21.415545746
 20
46.0276168382
 30
0.0
 10
21.8365428659
 20
45.8072819634
 30
0.0
 10
22.047374781
 20
45.6855608541
 30
0.0
  0
SPLINE
  5
335
100
AcDbEntity
  8
0
100
AcDbSpline
 62
7
  6
BYLAYER
 70
0
 71
3
 72
12
 73
8
 74
0
 42
0.0000001
 43
0.0000001
 44
0.0000000001
 40
0.0
 40
0.0
 40
0.0
 40
0.0
 40
0.1081617188
 40
0.2183713965
 40
0.451337205
 40
0.7104781219
 40
1.0
 40
1.0
 40
1.0
 40
1.0
 10
49.3413340126
 20
66.4649675006
 30
0.0
 10
49.3749477336
 20
66.4455688016
 30
0.0
 10
49.4395661173
 20
66.4004556048
 30
0.0
 10
49.5554619537
 20
66.2864251042
 30
0.0
 10
49.6703219312
 20
66.0992677524
 30
0.0
 10
49.7501422045
 20
65.8279634671
 30
0.0
 10
49.7659202709
 20
65.6304001101
 30
0.0
 10
49.7659202709
 20
65.5265162828
 30
0.0
  0
SPLINE
  5
336
100
AcDbEntity
  8
0
100
AcDbSpline
 62
7
  6
BYLAYER
 70
0
 71
3
 72
14
 73
10
 74
0
 42
0.0000001
 43
0.0000001
 44
0.0000000001
 40
0.0
 40
0.0
 40
0.0
 40
0.0
 40
0.1096081182
 40
0.2220857853
 40
0.3384357988
 40
0.4594783789
 40
0.5858378412
 40
0.7179414513
 40
1.0
 40
1.0
 40
1.0
 40
1.0
 10
15.1748231313
 20
48.4370900841
 30
0.0
 10
15.0302201348
 20
48.3141063245
 30
0.0
 10
14.7534376796
 20
48.0452093454
 30
0.0
 10
14.3869714972
 20
47.5859905739
 30
0.0
 10
14.0669107267
 20
47.0699022455
 30
0.0
 10
13.795174141
 20
46.500267204
 30
0.0
 10
13.5731239786
 20
45.8805176176
 30
0.0
 10
13.3398687396
 20
44.9729030475
 30
0.0
 10
13.2517916456
 20
44.25711248
 30
0.0
 10
13.2250844512
 20
43.769349365
 30
0.0
  0
SPLINE
  5
337
100
AcDbEntity
  8
0
100
AcDbSpline
 62
7
  6
BYLAYER
 70
0
 71
3
 72
14
 73
10
 74
0
 42
0.0000001
 43
0.0000001
 44
0.0000000001
 40
0.0
 40
0.0
 40
0.0
 40
0.0
 40
0.1099209665
 40
0.2215965216
 40
0.3366505996
 40
0.4564707383
 40
0.5821235972
 40
0.7143702705
 40
1.0
 40
1.0
 40
1.0
 40
1.0
 10
27.5902319162
 20
26.8177048131
 30
0.0
 10
27.4018741749
 20
26.708973413
 30
0.0
 10
27.0042246273
 20
26.5193237967
 30
0.0
 10
26.3636271379
 20
26.3281356649
 30
0.0
 10
25.6825793787
 20
26.230296381
 30
0.0
 10
24.9672360127
 20
26.2264140798
 30
0.0
 10
24.2234036896
 20
26.3157392805
 30
0.0
 10
23.1753048633
 20
26.564148899
 30
0.0
 10
22.4042865068
 20
26.8799235349
 30
0.0
 10
21.8996276462
 20
27.1342985063
 30
0.0
  0
SPLINE
  5
338
100
AcDbEntity
  8
0
100
AcDbSpline
 62
7
  6
BYLAYER
 70
0
 71
3
 72
15
 73
11
 74
0
 42
0.0000001
 43
0.0000001
 44
0.0000000001
 40
0.0
 40
0.0
 40
0.0
 40
0.0
 40
0.1080137143
 40
0.2180613488
 40
0.33199708
 40
0.4513580809
 40
0.5772718564
 40
0.7104887939
 40
0.8514266003
 40
1.0
 40
1.0
 40
1.0
 40
1.0
 10
28.2152371456
 20
25.7351572578
 30
0.0
 10
28.440678163
 20
25.8653150318
 30
0.0
 10
28.8740957297
 20
26.1677903248
 30
0.0
 10
29.4468152077
 20
26.7313982713
 30
0.0
 10
29.9393852665
 20
27.400344983
 30
0.0
 10
30.3471571501
 20
28.1671276748
 30
0.0
 10
30.6671361112
 20
29.0238409238
 30
0.0
 10
30.8967354202
 20
29.9623328847
 30
0.0
 10
31.0341270644
 20
30.9734316402
 30
0.0
 10
31.0630296645
 20
31.6716420404
 30
0.0
 10
31.0630296645
 20
32.0297087255
 30
0.0
  0
SPLINE
  5
339
100
AcDbEntity
  8
0
100
AcDbSpline
 62
7
  6
BYLAYER
 70
0
 71
3
 72
15
 73
11
 74
0
 42
0.0000001
 43
0.0000001
 44
0.0000000001
 40
0.0
 40
0.0
 40
0.0
 40
0.0
 40
0.1485537688
 40
0.2895072193
 40
0.4227299353
 40
0.5486371437
 40
0.6679980985
 40
0.7819375009
 40
0.8919871476
 40
1.0
 40
1.0
 40
1.0
 40
1.0
 10
30.9921691385
 20
80.407031173
 30
0.0
 10
31.1500088394
 20
80.4981594224
 30
0.0
 10
31.4651883706
 20
80.6631169199
 30
0.0
 10
31.9459107949
 20
80.8599365481
 30
0.0
 10
32.4181249643
 20
80.9975870731
 30
0.0
 10
32.8772657387
 20
81.0745912552
 30
0.0
 10
33.3191066928
 20
81.0899819473
 30
0.0
 10
33.7394037687
 20
81.0430899304
 30
0.0
 10
34.1336805975
 20
80.9341001261
 30
0.0
 10
34.3773352478
 20
80.8199682219
 30
0.0
 10
34.4921003401
 20
80.7537100594
 30
0.0
  0
SPLINE
  5
33A
100
AcDbEntity
  8
0
100
AcDbSpline
 62
7
  6
BYLAYER
 70
0
 71
3
 72
11
 73
7
 74
0
 42
0.0000001
 43
0.0000001
 44
0.0000000001
 40
0.0
 40
0.0
 40
0.0
 40
0.0
 40
0.2177833598
 40
0.4509104088
 40
0.7102966711
 40
1.0
 40
1.0
 40
1.0
 40
1.0
 10
36.6566912093
 20
20.2590052249
 30
0.0
 10
36.7061710978
 20
20.2875722902
 30
0.0
 10
36.7987459355
 20
20.3653997715
 30
0.0
 10
36.8973028222
 20
20.5265447688
 30
0.0
 10
36.9558398169
 20
20.7251353145
 30
0.0
 10
36.9673628971
 20
20.8696754387
 30
0.0
 10
36.9673628971
 20
20.9456776553
 30
0.0
  0
SPLINE
  5
33B
100
AcDbEntity
  8
0
100
AcDbSpline
 62
7
  6
BYLAYER
 70
0
 71
3
 72
9
 73
5
 74
0
 42
0.0000001
 43
0.0000001
 44
0.0000000001
 40
0.0
 40
0.0
 40
0.0
 40
0.0
 40
0.5025855068
 40
1.0
 40
1.0
 40
1.0
 40
1.0
 10
47.3668195842
 20
52.0922336467
 30
0.0
 10
47.3668187776
 20
51.9666616583
 30
0.0
 10
47.3377100077
 20
51.7164636585
 30
0.0
 10
47.2653231279
 20
51.4761549903
 30
0.0
 10
47.2203685367
 20
51.3602904003
 30
0.0
  0
SPLINE
  5
33C
100
AcDbEntity
  8
0
100
AcDbSpline
 62
7
  6
BYLAYER
 70
0
 71
3
 72
17
 73
13
 74
0
 42
0.0000001
 43
0.0000001
 44
0.0000000001
 40
0.0
 40
0.0
 40
0.0
 40
0.0
 40
0.0434943562
 40
0.0881420355
 40
0.1349557062
 40
0.1847014932
 40
0.2945118038
 40
0.4189440573
 40
0.5560597011
 40
0.7019927021
 40
0.8517734095
 40
1.0
 40
1.0
 40
1.0
 40
1.0
 10
34.8603581955
 20
23.3703215134
 30
0.0
 10
34.8183113031
 20
23.3460552653
 30
0.0
 10
34.7278083024
 20
23.3054976054
 30
0.0
 10
34.5800024274
 20
23.2721725683
 30
0.0
 10
34.4216918834
 20
23.2661587786
 30
0.0
 10
34.1923222548
 20
23.295253004
 30
0.0
 10
33.8906401106
 20
23.4043161109
 30
0.0
 10
33.5382691911
 20
23.6269018299
 30
0.0
 10
33.1996464356
 20
23.933452096
 30
0.0
 10
32.8921303256
 20
24.3081084221
 30
0.0
 10
32.6316040815
 20
24.7312349122
 30
0.0
 10
32.4959681132
 20
25.036316615
 30
0.0
 10
32.4398332504
 20
25.1919474254
 30
0.0
  0
SPLINE
  5
33D
100
AcDbEntity
  8
0
100
AcDbSpline
 62
7
  6
BYLAYER
 70
0
 71
3
 72
9
 73
5
 74
0
 42
0.0000001
 43
0.0000001
 44
0.0000000001
 40
0.0
 40
0.0
 40
0.0
 40
0.0
 40
0.474656275
 40
1.0
 40
1.0
 40
1.0
 40
1.0
 10
35.4193181819
 20
79.4955253771
 30
0.0
 10
35.1276591705
 20
79.453610117
 30
0.0
 10
34.5231619005
 20
79.2905254386
 30
0.0
 10
33.9616156642
 20
79.0187761209
 30
0.0
 10
33.6791860941
 20
78.8557163059
 30
0.0
  0
SPLINE
  5
33E
100
AcDbEntity
  8
0
100
AcDbSpline
 62
7
  6
BYLAYER
 70
0
 71
3
 72
11
 73
7
 74
0
 42
0.0000001
 43
0.0000001
 44
0.0000000001
 40
0.0
 40
0.0
 40
0.0
 40
0.0
 40
0.2376382123
 40
0.480532507
 40
0.7334915936
 40
1.0
 40
1.0
 40
1.0
 40
1.0
 10
37.1791115821
 20
79.2023853121
 30
0.0
 10
37.0545325775
 20
79.2743119402
 30
0.0
 10
36.7884385495
 20
79.3965568851
 30
0.0
 10
36.355903698
 20
79.5062807345
 30
0.0
 10
35.8938378489
 20
79.5424392087
 30
0.0
 10
35.5790057345
 20
79.518474592
 30
0.0
 10
35.4193181819
 20
79.4955253771
 30
0.0
  0
SPLINE
  5
33F
100
AcDbEntity
  8
0
100
AcDbSpline
 62
7
  6
BYLAYER
 70
0
 71
3
 72
11
 73
7
 74
0
 42
0.0000001
 43
0.0000001
 44
0.0000000001
 40
0.0
 40
0.0
 40
0.0
 40
0.0
 40
0.2177868452
 40
0.4509169606
 40
0.7103006454
 40
1.0
 40
1.0
 40
1.0
 40
1.0
 10
30.4921714029
 20
80.456555467
 30
0.0
 10
30.5251578342
 20
80.4756000738
 30
0.0
 10
30.6009497306
 20
80.5031047251
 30
0.0
 10
30.7268371426
 20
80.5062896866
 30
0.0
 10
30.8610023089
 20
80.4738901144
 30
0.0
 10
30.9482905392
 20
80.4323639495
 30
0.0
 10
30.9921691631
 20
80.4070311873
 30
0.0
  0
SPLINE
  5
340
100
AcDbEntity
  8
0
100
AcDbSpline
 62
7
  6
BYLAYER
 70
0
 71
3
 72
18
 73
14
 74
0
 42
0.0000001
 43
0.0000001
 44
0.0000000001
 40
0.0
 40
0.0
 40
0.0
 40
0.0
 40
0.0460543285
 40
0.0935688869
 40
0.1429501264
 40
0.1945507774
 40
0.3051965907
 40
0.3645761415
 40
0.4266336714
 40
0.5583440536
 40
0.6991659697
 40
0.8471716439
 40
1.0
 40
1.0
 40
1.0
 40
1.0
 10
16.1076530897
 20
50.3688372983
 30
0.0
 10
16.3207748289
 20
50.4356893703
 30
0.0
 10
16.7638059992
 20
50.5412812148
 30
0.0
 10
17.4551749188
 20
50.6126607937
 30
0.0
 10
18.1769580034
 20
50.5986245931
 30
0.0
 10
19.1961771679
 20
50.4636213423
 30
0.0
 10
20.2339606445
 20
50.1560982665
 30
0.0
 10
21.2661417023
 20
49.7055590314
 30
0.0
 10
22.3511031511
 20
49.128375948
 30
0.0
 10
23.6975067473
 20
48.2133900368
 30
0.0
 10
25.236614026
 20
46.8686339396
 30
0.0
 10
26.6909607674
 20
45.2909926653
 30
0.0
 10
27.5698741118
 20
44.1230230057
 30
0.0
 10
27.9870964722
 20
43.5103926224
 30
0.0
  0
SPLINE
  5
341
100
AcDbEntity
  8
0
100
AcDbSpline
 62
7
  6
BYLAYER
 70
0
 71
3
 72
15
 73
11
 74
0
 42
0.0000001
 43
0.0000001
 44
0.0000000001
 40
0.0
 40
0.0
 40
0.0
 40
0.0
 40
0.1080128524
 40
0.2180624991
 40
0.3320019015
 40
0.4513628563
 40
0.5772700647
 40
0.7104927807
 40
0.8514462312
 40
1.0
 40
1.0
 40
1.0
 40
1.0
 10
51.109178881
 20
71.1600523281
 30
0.0
 10
50.9944137888
 20
71.2263104907
 30
0.0
 10
50.7507591385
 20
71.3404423949
 30
0.0
 10
50.3564823096
 20
71.4494321991
 30
0.0
 10
49.9361852337
 20
71.496324216
 30
0.0
 10
49.4943442796
 20
71.480933524
 30
0.0
 10
49.0352035052
 20
71.4039293419
 30
0.0
 10
48.5629893359
 20
71.2662788169
 30
0.0
 10
48.0822669115
 20
71.0694591887
 30
0.0
 10
47.7670873804
 20
70.9045016912
 30
0.0
 10
47.6092476794
 20
70.8133734418
 30
0.0
  0
SPLINE
  5
342
100
AcDbEntity
  8
0
100
AcDbSpline
 62
7
  6
BYLAYER
 70
0
 71
3
 72
15
 73
11
 74
0
 42
0.0000001
 43
0.0000001
 44
0.0000000001
 40
0.0
 40
0.0
 40
0.0
 40
0.0
 40
0.1141241598
 40
0.2373483675
 40
0.3669736385
 40
0.5000010132
 40
0.6330282465
 40
0.7626531028
 40
0.8858766831
 40
1.0
 40
1.0
 40
1.0
 40
1.0
 10
36.9673628971
 20
45.4407501692
 30
0.0
 10
36.9673628971
 20
45.5245708742
 30
0.0
 10
36.9519722513
 20
45.6990545124
 30
0.0
 10
36.8907991254
 20
45.9622737595
 30
0.0
 10
36.7926849272
 20
46.2288955285
 30
0.0
 10
36.6614579577
 20
46.4888840856
 30
0.0
 10
36.5019137867
 20
46.7325232619
 30
0.0
 10
36.3200690905
 20
46.9508019395
 30
0.0
 10
36.122700928
 20
47.1353868494
 30
0.0
 10
35.9792890437
 20
47.2359555947
 30
0.0
 10
35.9066983093
 20
47.2778649266
 30
0.0
  0
SPLINE
  5
343
100
AcDbEntity
  8
0
100
AcDbSpline
 62
7
  6
BYLAYER
 70
0
 71
3
 72
12
 73
8
 74
0
 42
0.0000001
 43
0.0000001
 44
0.0000000001
 40
0.0
 40
0.0
 40
0.0
 40
0.0
 40
0.2895278714
 40
0.5486649467
 40
0.7816297549
 40
0.8918388778
 40
1.0
 40
1.0
 40
1.0
 40
1.0
 10
32.2650832248
 20
45.7060439353
 30
0.0
 10
32.2650832248
 20
45.8149975205
 30
0.0
 10
32.2816305802
 20
46.0221988926
 30
0.0
 10
32.3653459774
 20
46.3067382013
 30
0.0
 10
32.485809618
 20
46.5030209462
 30
0.0
 10
32.6073540044
 20
46.6226183698
 30
0.0
 10
32.6751271103
 20
46.6699277903
 30
0.0
 10
32.7103800723
 20
46.6902731017
 30
0.0
  0
ELLIPSE
  5
344
100
AcDbEntity
  8
0
100
AcDbEllipse
 62
7
  6
BYLAYER
 10
47.2193364064
 20
55.6463075017
 30
0.0
 11
0.6194107853
 21
2.2531834488
 31
0.0
 40
0.6869535623
 41
1.3933816062
 42
2.9641779547
  0
ELLIPSE
  5
345
100
AcDbEntity
  8
0
100
AcDbEllipse
 62
7
  6
BYLAYER
 10
40.8038841594
 20
66.0678160178
 30
0.0
 11
0.3097053927
 21
1.1265917244
 31
0.0
 40
0.6869535623
 41
-1.7482110474
 42
-0.1774147206
  0
ELLIPSE
  5
346
100
AcDbEntity
  8
0
100
AcDbEllipse
 62
7
  6
BYLAYER
 10
24.1868056185
 20
75.661473749
 30
0.0
 11
0.3097053927
 21
1.1265917244
 31
0.0
 40
0.6869535623
 41
-0.1774147206
 42
1.3933816062
  0
ELLIPSE
  5
347
100
AcDbEntity
  8
0
100
AcDbEllipse
 62
7
  6
BYLAYER
 10
30.655894007
 20
51.6355630397
 30
0.0
 11
0.3097053927
 21
1.1265917244
 31
0.0
 40
0.6869535623
 41
-3.3190073742
 42
-1.7482110474
  0
ELLIPSE
  5
348
100
AcDbEntity
  8
0
100
AcDbEllipse
 62
7
  6
BYLAYER
 10
36.6127788482
 20
49.5226451937
 30
0.0
 11
0.6194107853
 21
2.2531834488
 31
0.0
 40
0.6869535623
 41
1.3933816062
 42
2.9641779363
  0
ELLIPSE
  5
349
100
AcDbEntity
  8
0
100
AcDbEllipse
 62
7
  6
BYLAYER
 10
15.7530419564
 20
61.565747452
 30
0.0
 11
0.6194107853
 21
2.2531834488
 31
0.0
 40
0.6869535623
 41
-3.319007359
 42
-1.7482110474
  0
ELLIPSE
  5
34A
100
AcDbEntity
  8
0
100
AcDbEllipse
 62
7
  6
BYLAYER
 10
20.8270688274
 20
57.3101095275
 30
0.0
 11
0.3097053927
 21
1.1265917244
 31
0.0
 40
0.6869535623
 41
1.3933816062
 42
2.964177933
  0
ENDSEC
  0
SECTION
  2
OBJECTS
  0
DICTIONARY
  5
C
100
AcDbDictionary
280
0
281
1
  3
ACAD_GROUP
350
D
  3
ACAD_MLINESTYLE
350
17
  3
ACAD_LAYOUT
350
1A
  3
ACAD_PLOTSETTINGS
350
19
  3
ACAD_PLOTSTYLENAME
350
E
  0
DICTIONARY
  5
D
102
{ACAD_REACTORS
330
C
102
}
100
AcDbDictionary
280
0
281
1
  0
ACDBDICTIONARYWDFLT
  5
E
102
{ACAD_REACTORS
330
C
102
}
100
AcDbDictionary
281
1
  3
Normal
350
F
100
AcDbDictionaryWithDefault
340
F
  0
DICTIONARY
  5
17
102
{ACAD_REACTORS
330
C
102
}
100
AcDbDictionary
280
0
281
1
  3
Standard
350
18
  0
DICTIONARY
  5
19
102
{ACAD_REACTORS
330
C
102
}
100
AcDbDictionary
281
1
  0
DICTIONARY
  5
1A
102
{ACAD_REACTORS
330
C
102
}
100
AcDbDictionary
281
1
  3
Model
350
34B
  3
Layout1
350
34C
  0
ACDBPLACEHOLDER
  5
F
102
{ACAD_REACTORS
330
E
102
}
  0
MLINESTYLE
  5
18
102
{ACAD_REACTORS
330
17
102
}
100
AcDbMlineStyle
  2
STANDARD
 70
0
  3

 62
256
 51
90.0
 52
90.0
 71
2
 49
0.5
 62
256
  6
BYLAYER
 49
-0.5
 62
256
  6
BYLAYER
  0
LAYOUT
  5
34B
102
{ACAD_REACTORS
330
1A
102
}
100
AcDbPlotSettings
  1

  2
none_device
  4

  6

 40
0.0
 41
0.0
 42
0.0
 43
0.0
 44
210.0
 45
297.0
 46
0.0
 47
0.0
 48
0.0
 49
0.0
140
0.0
141
0.0
142
1.0
143
1.0
 70
1024
 72
1
 73
0
 74
0
  7

 75
0
147
1.0
148
0.0
149
0.0
100
AcDbLayout
  1
Model
 70
0
 71
0
 10
0.0
 20
0.0
 11
210.0
 21
297.0
 12
0.0
 22
0.0
 32
0.0
 14
0.0
 24
0.0
 34
0.0
 15
0.0
 25
0.0
 35
0.0
146
0.0
 13
0.0
 23
0.0
 33
0.0
 16
1.0
 26
0.0
 36
0.0
 17
0.0
 27
1.0
 37
0.0
 76
0
330
210
345
0
346
0
  0
LAYOUT
  5
34C
102
{ACAD_REACTORS
330
1A
102
}
100
AcDbPlotSettings
  1

  2
none_device
  4

  6

 40
0.0
 41
0.0
 42
0.0
 43
0.0
 44
210.0
 45
297.0
 46
0.0
 47
0.0
 48
0.0
 49
0.0
140
0.0
141
0.0
142
1.0
143
1.0
 70
0
 72
1
 73
0
 74
0
  7

 75
0
147
1.0
148
0.0
149
0.0
100
AcDbLayout
  1
Layout1
 70
0
 71
1
 10
0.0
 20
0.0
 11
210.0
 21
297.0
 12
0.0
 22
0.0
 32
0.0
 14
0.0
 24
0.0
 34
0.0
 15
0.0
 25
0.0
 35
0.0
146
0.0
 13
0.0
 23
0.0
 33
0.0
 16
1.0
 26
0.0
 36
0.0
 17
0.0
 27
1.0
 37
0.0
 76
0
330
211
345
0
346
0
  0
ENDSEC
  0
EOF
