999
DXF file: C:\Users\sesa63760\Dev\_Creo\CAD\MCADID0004755_3D-CAD\drw0001_1.dxf
999
Pro/ENGINEER 2019471 by Parametric Technology Corporation
  0
SECTION
  2
HEADER
  9
$ACADVER
  1
AC1024
  9
$DWGCODEPAGE
  3
ANSI_1252
  9
$EXTMAX
 10
147.5695760523
 20
208.705543274
 30
0.0
  9
$EXTMIN
 10
0.0
 20
0.0
 30
0.0
  9
$LIMMIN
 10
0.0
 20
0.0
  9
$LIMMAX
 10
147.5695760523
 20
208.705543274
  9
$VIEWCTR
 10
73.7847880262
 20
104.352771637
  9
$VIEWSIZE
 40
208.705543274
  9
$CLAYER
  8
0
  9
$LTSCALE
 40
13.6045094875
  9
$CELTYPE
  6
BYLAYER
  9
$DIMSCALE
 40
1.0
  9
$DIMASZ
 40
1.7567806673
  9
$DIMEXO
 40
1.0
  9
$DIMDLI
 40
9.3994792823
  9
$DIMEXE
 40
1.0
  9
$DIMCEN
 40
2.2261924616
  9
$DIMLFAC
 40
1.0
  9
$DIMBLK
  1
_FILLED
  9
$DIMALT
 70
0
  9
$DIMALTF
 40
0.0393700787
  9
$DIMTXT
 40
2.4594929342
  9
$DIMTOL
 70
1
  9
$DIMLIM
 70
0
  9
$DIMTFAC
 40
1.0
  9
$DIMTP
 40
0.01
  9
$DIMTM
 40
0.01
  9
$DIMGAP
 40
0.625
  9
$DIMDSEP
 70
46
  9
$AUNITS
 70
0
  9
$PDMODE
 70
3
  9
$PDSIZE
 40
0.3125
  9
$HANDSEED
  5
353
  9
$TILEMODE
 70
1
  9
$MEASUREMENT
 70
1
  9
$INSUNITS
 70
4
  0
ENDSEC
  0
SECTION
  2
CLASSES
  0
CLASS
  1
ACDBDICTIONARYWDFLT
  2
AcDbDictionaryWithDefault
  3
AutoCAD 2000
 90
0
 91
1
280
0
281
0
  0
CLASS
  1
ACDBPLACEHOLDER
  2
AcDbPlaceHolder
  3
AutoCAD 2000
 90
0
 91
1
280
0
281
0
  0
CLASS
  1
LAYOUT
  2
AcDbLayout
  3
AutoCAD 2000
 90
0
 91
0
280
0
281
0
  0
ENDSEC
  0
SECTION
  2
TABLES
  0
TABLE
  2
VPORT
  5
8
100
AcDbSymbolTable
 70
2
  0
VPORT
  5
1F4
100
AcDbSymbolTableRecord
100
AcDbViewportTableRecord
  2
*ACTIVE
 70
0
 10
0.0
 20
0.0
 11
1.0
 21
1.0
 12
73.7847880262
 22
104.352771637
 13
0.0
 23
0.0
 14
1.0
 24
1.0
 15
0.0
 25
0.0
 16
0.0
 26
0.0
 36
1.0
 17
0.0
 27
0.0
 37
0.0
 40
208.705543274
 41
0.7070707071
 42
50.0
 43
0.0
 44
0.0
 50
0.0
 51
0.0
 71
0
 72
100
 73
1
 74
1
 75
0
 76
0
 77
0
 78
0
  0
ENDTAB
  0
TABLE
  2
LTYPE
  5
5
100
AcDbSymbolTable
 70
6
  0
LTYPE
  5
14
100
AcDbSymbolTableRecord
100
AcDbLinetypeTableRecord
  2
BYBLOCK
 70
0
  3

 72
65
 73
0
 40
0.0
  0
LTYPE
  5
15
100
AcDbSymbolTableRecord
100
AcDbLinetypeTableRecord
  2
BYLAYER
 70
0
  3

 72
65
 73
0
 40
0.0
  0
LTYPE
  5
16
100
AcDbSymbolTableRecord
100
AcDbLinetypeTableRecord
  2
CONTINUOUS
 70
64
  3
Solid line
 72
65
 73
0
 40
0.0
  0
LTYPE
  5
1F5
100
AcDbSymbolTableRecord
100
AcDbLinetypeTableRecord
  2
CENTER
 70
64
  3
____ _ ____ _ ____ _ ____ _ ____ _ ____ _ ____
 72
65
 73
4
 40
0.6
 49
0.375
 74
0
 49
-0.075
 74
0
 49
0.075
 74
0
 49
-0.075
 74
0
  0
LTYPE
  5
1F6
100
AcDbSymbolTableRecord
100
AcDbLinetypeTableRecord
  2
HIDDEN
 70
64
  3
- - - - - - - - - - - - - - - - - - - -
 72
65
 73
2
 40
0.2
 49
0.1
 74
0
 49
-0.1
 74
0
  0
LTYPE
  5
1F7
100
AcDbSymbolTableRecord
100
AcDbLinetypeTableRecord
  2
PHANTOM
 70
64
  3
_____ _ _ _____ _ _ _____ _ _ _____
 72
65
 73
6
 40
0.8
 49
0.45
 74
0
 49
-0.05
 74
0
 49
0.1
 74
0
 49
-0.05
 74
0
 49
0.1
 74
0
 49
-0.05
 74
0
  0
LTYPE
  5
1F8
100
AcDbSymbolTableRecord
100
AcDbLinetypeTableRecord
  2
DOT
 70
64
  3
. . . . . . . . . . . . . . . . . . . .
 72
65
 73
2
 40
0.2
 49
0.1
 74
0
 49
-0.1
 74
0
  0
LTYPE
  5
1F9
100
AcDbSymbolTableRecord
100
AcDbLinetypeTableRecord
  2
DASHED
 70
64
  3
- - - - - - - - - - - - - - - - - - - -
 72
65
 73
2
 40
0.2
 49
0.1
 74
0
 49
-0.1
 74
0
  0
ENDTAB
  0
TABLE
  2
LAYER
  5
2
100
AcDbSymbolTable
 70
36
  0
LAYER
  5
10
100
AcDbSymbolTableRecord
100
AcDbLayerTableRecord
  2
0
 70
0
 62
7
  6
CONTINUOUS
370
-3
390
F
  0
LAYER
  5
1FA
100
AcDbSymbolTableRecord
100
AcDbLayerTableRecord
  2
DEFAULT_1
 70
0
 62
7
  6
CENTER
370
-3
390
F
  0
LAYER
  5
1FB
100
AcDbSymbolTableRecord
100
AcDbLayerTableRecord
  2
DEFAULT_2
 70
0
 62
7
  6
HIDDEN
370
-3
390
F
  0
LAYER
  5
1FC
100
AcDbSymbolTableRecord
100
AcDbLayerTableRecord
  2
DEFAULT_3
 70
0
 62
7
  6
PHANTOM
370
-3
390
F
  0
LAYER
  5
1FD
100
AcDbSymbolTableRecord
100
AcDbLayerTableRecord
  2
00_COMPONENTS
 70
0
 62
7
  6
CONTINUOUS
370
-3
390
F
  0
LAYER
  5
1FE
100
AcDbSymbolTableRecord
100
AcDbLayerTableRecord
  2
01_1_DEFAULT_DATUMS
 70
0
 62
7
  6
CONTINUOUS
370
-3
390
F
  0
LAYER
  5
1FF
100
AcDbSymbolTableRecord
100
AcDbLayerTableRecord
  2
01_PLANES
 70
0
 62
7
  6
CONTINUOUS
370
-3
390
F
  0
LAYER
  5
200
100
AcDbSymbolTableRecord
100
AcDbLayerTableRecord
  2
02_COORD_SYS
 70
0
 62
7
  6
CONTINUOUS
370
-3
390
F
  0
LAYER
  5
201
100
AcDbSymbolTableRecord
100
AcDbLayerTableRecord
  2
03_AXES
 70
0
 62
7
  6
CONTINUOUS
370
-3
390
F
  0
LAYER
  5
202
100
AcDbSymbolTableRecord
100
AcDbLayerTableRecord
  2
04_POINTS
 70
0
 62
7
  6
CONTINUOUS
370
-3
390
F
  0
LAYER
  5
203
100
AcDbSymbolTableRecord
100
AcDbLayerTableRecord
  2
05_CURVES
 70
0
 62
7
  6
CONTINUOUS
370
-3
390
F
  0
LAYER
  5
204
100
AcDbSymbolTableRecord
100
AcDbLayerTableRecord
  2
06_SURFS
 70
0
 62
7
  6
CONTINUOUS
370
-3
390
F
  0
LAYER
  5
205
100
AcDbSymbolTableRecord
100
AcDbLayerTableRecord
  2
07_COSMETICS
 70
0
 62
7
  6
CONTINUOUS
370
-3
390
F
  0
LAYER
  5
206
100
AcDbSymbolTableRecord
100
AcDbLayerTableRecord
  2
10_NOTES
 70
0
 62
7
  6
CONTINUOUS
370
-3
390
F
  0
LAYER
  5
207
100
AcDbSymbolTableRecord
100
AcDbLayerTableRecord
  2
11_NOTES_PUB
 70
0
 62
7
  6
CONTINUOUS
370
-3
390
F
  0
LAYER
  5
208
100
AcDbSymbolTableRecord
100
AcDbLayerTableRecord
  2
13_REF_GTOL
 70
0
 62
7
  6
CONTINUOUS
370
-3
390
F
  0
LAYER
  5
209
100
AcDbSymbolTableRecord
100
AcDbLayerTableRecord
  2
16_MISC
 70
0
 62
7
  6
CONTINUOUS
370
-3
390
F
  0
LAYER
  5
20A
100
AcDbSymbolTableRecord
100
AcDbLayerTableRecord
  2
17_NO_PRINT
 70
0
 62
7
  6
CONTINUOUS
370
-3
390
F
  0
LAYER
  5
20B
100
AcDbSymbolTableRecord
100
AcDbLayerTableRecord
  2
18_DATUM_CAMS_JOINTS
 70
0
 62
7
  6
CONTINUOUS
370
-3
390
F
  0
LAYER
  5
20C
100
AcDbSymbolTableRecord
100
AcDbLayerTableRecord
  2
19_DATUM_FUNCTIONAL
 70
0
 62
7
  6
CONTINUOUS
370
-3
390
F
  0
LAYER
  5
20D
100
AcDbSymbolTableRecord
100
AcDbLayerTableRecord
  2
20_DATUM_KINEMATIC_SCHEME
 70
0
 62
7
  6
CONTINUOUS
370
-3
390
F
  0
ENDTAB
  0
TABLE
  2
STYLE
  5
3
100
AcDbSymbolTable
 70
1
  0
STYLE
  5
11
100
AcDbSymbolTableRecord
100
AcDbTextStyleTableRecord
  2
STANDARD
 70
0
 40
0.0
 41
1.0
 50
0.0
 71
0
 42
0.2
  3
ARIAL.TTF
  4

  0
STYLE
  5
20E
100
AcDbSymbolTableRecord
100
AcDbTextStyleTableRecord
  2
TEXTSTYLE_1
 70
0
 40
0.0
 41
0.8
 50
0.0
 71
0
 42
0.2
  3
gdt
  4

  0
ENDTAB
  0
TABLE
  2
VIEW
  5
6
100
AcDbSymbolTable
 70
0
  0
ENDTAB
  0
TABLE
  2
UCS
  5
7
100
AcDbSymbolTable
 70
0
  0
ENDTAB
  0
TABLE
  2
APPID
  5
9
100
AcDbSymbolTable
 70
1
  0
APPID
  5
20F
100
AcDbSymbolTableRecord
100
AcDbRegAppTableRecord
  2
ACAD
 70
0
  0
ENDTAB
  0
TABLE
  2
BLOCK_RECORD
  5
1
100
AcDbSymbolTable
 70
0
  0
BLOCK_RECORD
  5
210
100
AcDbSymbolTableRecord
100
AcDbBlockTableRecord
  2
*Model_Space
  0
BLOCK_RECORD
  5
211
100
AcDbSymbolTableRecord
100
AcDbBlockTableRecord
  2
*Paper_Space
  0
BLOCK_RECORD
  5
212
100
AcDbSymbolTableRecord
100
AcDbBlockTableRecord
  2
_FILLED
  0
ENDTAB
  0
TABLE
  2
DIMSTYLE
  5
A
100
AcDbSymbolTable
 70
1
100
AcDbDimStyleTable
 71
0
  0
DIMSTYLE
105
213
100
AcDbSymbolTableRecord
100
AcDbDimStyleTableRecord
  2
STANDARD
 70
0
  3

  4

 40
1.0
 41
1.7567806673
 42
1.0
 43
0.38
 44
1.0
 45
0.0
 46
0.0
 47
0.01
 48
0.01
140
2.4594929342
141
0.09
142
0.0
143
25.4
144
1.0
145
0.0
146
1.0
147
0.625
 71
1
 72
0
 73
0
 74
0
 75
0
 76
0
 77
1
 78
8
 79
2
170
0
171
1
172
0
173
0
174
0
175
0
176
0
177
0
178
0
270
2
179
2
271
2
272
2
273
2
274
2
275
0
280
0
281
0
282
0
283
1
284
8
285
0
286
0
287
3
288
0
340
11
278
46
341
212
342
212
343
212
344
212
  0
ENDTAB
  0
ENDSEC
  0
SECTION
  2
BLOCKS
  0
BLOCK
  5
20
100
AcDbEntity
  8
0
100
AcDbBlockBegin
  2
*Model_Space
 70
0
 10
0.0
 20
0.0
 30
0.0
  3
*Model_Space
  1

  0
ENDBLK
  5
21
100
AcDbEntity
  8
0
100
AcDbBlockEnd
  0
BLOCK
  5
1C
100
AcDbEntity
  8
0
100
AcDbBlockBegin
  2
*Paper_Space
 70
0
 10
0.0
 20
0.0
 30
0.0
  3
*Paper_Space
  1

  0
ENDBLK
  5
1D
100
AcDbEntity
  8
0
100
AcDbBlockEnd
  0
BLOCK
  5
214
100
AcDbEntity
  8
0
100
AcDbBlockBegin
  2
_FILLED
 70
64
 10
0.0
 20
0.0
  3
_FILLED
  1

  0
SOLID
  5
215
100
AcDbEntity
  8
0
  6
BYBLOCK
 62
0
100
AcDbTrace
 10
0.0
 20
0.0
 11
-1.0
 21
0.25
 12
-1.0
 22
-0.25
 13
-1.0
 23
-0.25
  0
ENDBLK
  5
216
100
AcDbEntity
  8
0
  6
BYBLOCK
 62
0
100
AcDbBlockEnd
  0
ENDSEC
  0
SECTION
  2
ENTITIES
  0
LINE
  5
217
100
AcDbEntity
  8
0
100
AcDbLine
 62
7
  6
BYLAYER
 10
17.1197677839
 20
137.9466903745
 11
17.1197677839
 21
123.2568411315
  0
LINE
  5
218
100
AcDbEntity
  8
0
100
AcDbLine
 62
7
  6
BYLAYER
 10
18.7697677839
 20
120.3926482219
 11
18.7697677839
 21
119.5009300127
  0
LINE
  5
219
100
AcDbEntity
  8
0
100
AcDbLine
 62
7
  6
BYLAYER
 10
18.7697677839
 20
118.5211271121
 11
18.7697677839
 21
118.0312256618
  0
LINE
  5
21A
100
AcDbEntity
  8
0
100
AcDbLine
 62
7
  6
BYLAYER
 10
19.3697677839
 20
116.5380021228
 11
19.3697677839
 21
115.0918169602
  0
LINE
  5
21B
100
AcDbEntity
  8
0
100
AcDbLine
 62
7
  6
BYLAYER
 10
19.4629370862
 20
124.3811351538
 11
19.4629370862
 21
134.2583942266
  0
LINE
  5
21C
100
AcDbEntity
  8
0
100
AcDbLine
 62
7
  6
BYLAYER
 10
30.8697677839
 20
116.589371846
 11
30.8697677839
 21
115.0918169602
  0
LINE
  5
21D
100
AcDbEntity
  8
0
100
AcDbLine
 62
7
  6
BYLAYER
 10
132.0176310764
 20
66.6043259144
 11
132.3176165416
 21
66.6340262331
  0
LINE
  5
21E
100
AcDbEntity
  8
0
100
AcDbLine
 62
7
  6
BYLAYER
 10
132.6176020068
 20
67.6435294523
 11
132.3176165416
 21
67.6138291336
  0
LINE
  5
21F
100
AcDbEntity
  8
0
100
AcDbLine
 62
7
  6
BYLAYER
 10
35.4789723608
 20
125.0117411367
 11
35.4789723608
 21
115.134482064
  0
LINE
  5
220
100
AcDbEntity
  8
0
100
AcDbLine
 62
7
  6
BYLAYER
 10
46.7926337562
 20
131.5436475986
 11
46.7926337562
 21
127.1045701949
  0
LWPOLYLINE
  5
221
100
AcDbEntity
  8
0
100
AcDbPolyline
 62
7
  6
BYLAYER
 90
5
 70
0
 10
52.9686616385
 20
116.881576744
 10
52.087022517
 20
115.8047377108
 10
51.7635746035
 20
115.1333418068
 10
51.4616034099
 20
113.7289336852
 10
51.6963698897
 20
112.5157603441
  0
LWPOLYLINE
  5
222
100
AcDbEntity
  8
0
100
AcDbPolyline
 62
7
  6
BYLAYER
 90
5
 70
0
 10
56.0756307941
 20
115.5476247945
 10
55.0424663401
 20
114.5214719355
 10
54.3791104413
 20
113.126887474
 10
54.2404884016
 20
111.6774768401
 10
54.7276721742
 20
110.5063175451
  0
LWPOLYLINE
  5
223
100
AcDbEntity
  8
0
100
AcDbPolyline
 62
7
  6
BYLAYER
 90
5
 70
0
 10
57.9399589764
 20
114.5042278565
 10
56.9165047004
 20
113.511873076
 10
56.2353604604
 20
112.1201569373
 10
56.0746172
 20
110.6569596566
 10
56.5445450508
 20
109.4661201264
  0
LWPOLYLINE
  5
224
100
AcDbEntity
  8
0
100
AcDbPolyline
 62
7
  6
BYLAYER
 90
5
 70
0
 10
57.1134268843
 20
115.0882561672
 10
56.0954193861
 20
114.1732149358
 10
55.3523750123
 20
112.7681109262
 10
55.1456292087
 20
111.2804456982
 10
55.5836619404
 20
110.0521417374
  0
LINE
  5
225
100
AcDbEntity
  8
0
100
AcDbLine
 62
7
  6
BYLAYER
 10
54.0276710877
 20
117.4335731701
 11
52.9686616385
 21
116.881576744
  0
LWPOLYLINE
  5
226
100
AcDbEntity
  8
0
100
AcDbPolyline
 62
7
  6
BYLAYER
 90
7
 70
0
 10
53.179801852
 20
117.9771025234
 10
52.2423896959
 20
117.5664489915
 10
51.2913896479
 20
116.5332740406
 10
50.6800925837
 20
115.1654916167
 10
50.5685715225
 20
113.7518427752
 10
51.0515407644
 20
112.627622463
 10
51.4717167357
 20
112.2780009141
  0
LINE
  5
227
100
AcDbEntity
  8
0
100
AcDbLine
 62
7
  6
BYLAYER
 10
35.4789723608
 20
115.134482064
 11
36.6358813824
 21
113.9726917049
  0
LWPOLYLINE
  5
228
100
AcDbEntity
  8
0
100
AcDbPolyline
 62
7
  6
BYLAYER
 90
4
 70
0
 10
60.5711241211
 20
112.8277891298
 10
59.6181348613
 20
111.8376341078
 10
58.9942977485
 20
110.5374744434
 10
58.822498783
 20
109.1790435357
  0
LWPOLYLINE
  5
229
100
AcDbEntity
  8
0
100
AcDbPolyline
 62
7
  6
BYLAYER
 90
4
 70
0
 10
61.5514554755
 20
112.3397908877
 10
60.6062559749
 20
111.4050442733
 10
59.9381835071
 20
110.0818908832
 10
59.7380234248
 20
108.6866037063
  0
LINE
  5
22A
100
AcDbEntity
  8
0
100
AcDbLine
 62
7
  6
BYLAYER
 10
58.822498783
 20
109.1790435357
 11
59.1830784226
 21
108.0367656201
  0
LWPOLYLINE
  5
22B
100
AcDbEntity
  8
0
100
AcDbPolyline
 62
7
  6
BYLAYER
 90
3
 70
0
 10
55.3840433145
 20
116.8434655225
 10
55.3436449817
 20
116.9739910742
 10
54.9814862599
 20
117.2948601286
  0
LINE
  5
22C
100
AcDbEntity
  8
0
100
AcDbLine
 62
7
  6
BYLAYER
 10
59.7380234248
 20
108.6866037063
 11
60.092204472
 21
107.5222381225
  0
LWPOLYLINE
  5
22D
100
AcDbEntity
  8
0
100
AcDbPolyline
 62
7
  6
BYLAYER
 90
3
 70
0
 10
57.1929798984
 20
115.8605687458
 10
57.1760316272
 20
115.9182016637
 10
56.8111616498
 20
116.2358840025
  0
LINE
  5
22E
100
AcDbEntity
  8
0
100
AcDbLine
 62
7
  6
BYLAYER
 10
57.8970672605
 20
109.8637339726
 11
58.227255309
 21
108.6206566173
  0
LINE
  5
22F
100
AcDbEntity
  8
0
100
AcDbLine
 62
7
  6
BYLAYER
 10
66.130856555
 20
107.972101323
 11
66.041304552
 21
107.7404914818
  0
LWPOLYLINE
  5
230
100
AcDbEntity
  8
0
100
AcDbPolyline
 62
7
  6
BYLAYER
 90
4
 70
0
 10
65.1062009712
 20
108.6148237643
 10
64.556760883
 20
107.4918725822
 10
64.3427190193
 20
106.0315125349
 10
64.7439866898
 20
104.7971884877
  0
LWPOLYLINE
  5
231
100
AcDbEntity
  8
0
100
AcDbPolyline
 62
7
  6
BYLAYER
 90
6
 70
0
 10
66.7464021707
 20
108.5490700015
 10
66.4287927069
 20
107.9739200182
 10
66.2551849277
 20
106.5298197
 10
66.3779715633
 20
105.7723474775
 10
66.9556884968
 20
104.441123799
 10
67.6724554699
 20
103.7535945131
  0
LINE
  5
232
100
AcDbEntity
  8
0
100
AcDbLine
 62
7
  6
BYLAYER
 10
66.0629686253
 20
107.8916574461
 11
66.0630336527
 21
107.8917588054
  0
LINE
  5
233
100
AcDbEntity
  8
0
100
AcDbLine
 62
7
  6
BYLAYER
 10
65.1062009712
 20
108.6148237643
 11
65.1060317902
 21
108.6145640849
  0
LINE
  5
234
100
AcDbEntity
  8
0
100
AcDbLine
 62
7
  6
BYLAYER
 10
66.041304552
 20
107.7404914818
 11
65.8685740645
 21
107.4866668268
  0
LINE
  5
235
100
AcDbEntity
  8
0
100
AcDbLine
 62
7
  6
BYLAYER
 10
66.7463292778
 20
108.5489760169
 11
66.7464021707
 21
108.5490700015
  0
LINE
  5
236
100
AcDbEntity
  8
0
100
AcDbLine
 62
7
  6
BYLAYER
 10
66.0635330657
 20
107.8912200804
 11
66.5802128936
 21
108.511950036
  0
LWPOLYLINE
  5
237
100
AcDbEntity
  8
0
100
AcDbPolyline
 62
7
  6
BYLAYER
 90
5
 70
0
 10
64.3336716993
 20
110.7619299128
 10
63.2785627975
 20
109.6922181436
 10
62.628957009
 20
108.2649839691
 10
62.5205989701
 20
106.8545362637
 10
62.999749465
 20
105.7287488778
  0
LWPOLYLINE
  5
238
100
AcDbEntity
  8
0
100
AcDbPolyline
 62
7
  6
BYLAYER
 90
6
 70
0
 10
63.469163452
 20
111.3285832542
 10
62.4115878767
 20
110.29842922
 10
61.7299132743
 20
108.8642454605
 10
61.5972998698
 20
107.4095942805
 10
62.0781416597
 20
106.2609109057
 10
62.493898289
 20
105.915659312
  0
LWPOLYLINE
  5
239
100
AcDbEntity
  8
0
100
AcDbPolyline
 62
7
  6
BYLAYER
 90
6
 70
0
 10
65.3078587751
 20
110.2651491278
 10
64.2627660819
 20
109.2538702578
 10
63.5794874704
 20
107.8465553879
 10
63.4312606907
 20
106.3809073133
 10
63.9127554294
 20
105.2079345013
 10
64.3456118161
 20
104.8470966377
  0
LWPOLYLINE
  5
23A
100
AcDbEntity
  8
0
100
AcDbPolyline
 62
7
  6
BYLAYER
 90
3
 70
0
 10
66.3982631722
 20
109.8299504518
 10
65.3916094753
 20
108.9959203856
 10
65.1067775135
 20
108.6139749666
  0
LWPOLYLINE
  5
23B
100
AcDbEntity
  8
0
100
AcDbPolyline
 62
7
  6
BYLAYER
 90
6
 70
0
 10
62.8888373066
 20
112.0293160493
 10
61.835819241
 20
111.2579671118
 10
61.3748322118
 20
110.654305086
 10
60.7613331631
 20
109.2074790628
 10
60.7078226448
 20
107.7612739615
 10
60.8412309755
 20
107.314349997
  0
LINE
  5
23C
100
AcDbEntity
  8
0
100
AcDbLine
 62
7
  6
BYLAYER
 10
36.6358794101
 20
113.9726882891
 11
24.0477613442
 21
121.2402772282
  0
LINE
  5
23D
100
AcDbEntity
  8
0
100
AcDbLine
 62
7
  6
BYLAYER
 10
35.4789723608
 20
115.134482064
 11
19.4629370862
 21
124.3811351538
  0
LINE
  5
23E
100
AcDbEntity
  8
0
100
AcDbLine
 62
7
  6
BYLAYER
 10
38.0222654375
 20
114.9043170626
 11
38.3758203
 21
114.7001966853
  0
LINE
  5
23F
100
AcDbEntity
  8
0
100
AcDbLine
 62
7
  6
BYLAYER
 10
39.5071958603
 20
114.0470114781
 11
41.0628372556
 21
113.1488818182
  0
LINE
  5
240
100
AcDbEntity
  8
0
100
AcDbLine
 62
7
  6
BYLAYER
 10
55.5836619404
 20
110.0521417374
 11
56.0668396432
 21
109.6249365538
  0
LINE
  5
241
100
AcDbEntity
  8
0
100
AcDbLine
 62
7
  6
BYLAYER
 10
58.227255309
 20
108.6206566173
 11
58.8227366997
 21
108.0372261865
  0
LWPOLYLINE
  5
242
100
AcDbEntity
  8
0
100
AcDbPolyline
 62
7
  6
BYLAYER
 90
3
 70
0
 10
51.6963698897
 20
112.5157603441
 10
52.4451810588
 20
111.7193130899
 10
52.3828317948
 20
111.7534315972
  0
LWPOLYLINE
  5
243
100
AcDbEntity
  8
0
100
AcDbPolyline
 62
7
  6
BYLAYER
 90
3
 70
0
 10
53.5201565598
 20
111.4838911051
 10
54.2788126585
 20
110.6597286763
 10
54.2341111562
 20
110.6845740548
  0
LWPOLYLINE
  5
244
100
AcDbEntity
  8
0
100
AcDbPolyline
 62
7
  6
BYLAYER
 90
3
 70
0
 10
52.5973425606
 20
112.0195910521
 10
53.3556756991
 20
111.1946762199
 10
53.3092942126
 20
111.2204332017
  0
LWPOLYLINE
  5
245
100
AcDbEntity
  8
0
100
AcDbPolyline
 62
7
  6
BYLAYER
 90
3
 70
0
 10
57.1905645046
 20
109.3723510167
 10
57.9509268857
 20
108.5417469884
 10
57.9066774357
 20
108.5663642678
  0
LINE
  5
246
100
AcDbEntity
  8
0
100
AcDbLine
 62
7
  6
BYLAYER
 10
60.9992790391
 20
107.1390120081
 11
60.8420295913
 21
107.3124148452
  0
LINE
  5
247
100
AcDbEntity
  8
0
100
AcDbLine
 62
7
  6
BYLAYER
 10
60.9992790392
 20
107.139012008
 11
61.5835830912
 21
106.4401169034
  0
LWPOLYLINE
  5
248
100
AcDbEntity
  8
0
100
AcDbPolyline
 62
7
  6
BYLAYER
 90
3
 70
0
 10
60.8420295913
 20
107.3124148452
 10
61.3034088059
 20
106.6456979946
 10
61.5835718981
 20
106.440123365
  0
LWPOLYLINE
  5
249
100
AcDbEntity
  8
0
100
AcDbPolyline
 62
7
  6
BYLAYER
 90
3
 70
0
 10
58.0855005367
 20
115.3238983498
 10
58.0058096907
 20
115.4901156115
 10
57.7320214851
 20
115.7035504156
  0
LINE
  5
24A
100
AcDbEntity
  8
0
100
AcDbLine
 62
7
  6
BYLAYER
 10
60.8420295913
 20
107.3124148452
 11
60.8412026082
 21
107.3143950795
  0
LWPOLYLINE
  5
24B
100
AcDbEntity
  8
0
100
AcDbPolyline
 62
7
  6
BYLAYER
 90
3
 70
0
 10
61.7970479473
 20
113.1808476168
 10
61.7643508974
 20
113.2784733638
 10
61.416354949
 20
113.5775879473
  0
LINE
  5
24C
100
AcDbEntity
  8
0
100
AcDbLine
 62
7
  6
BYLAYER
 10
67.693318389
 20
107.8114549704
 11
67.6952448655
 21
107.8139334724
  0
LWPOLYLINE
  5
24D
100
AcDbEntity
  8
0
100
AcDbPolyline
 62
7
  6
BYLAYER
 90
3
 70
0
 10
67.6932922949
 20
107.8114212911
 10
67.7935442897
 20
107.9174233853
 10
67.8854074798
 20
107.982235055
  0
LINE
  5
24E
100
AcDbEntity
  8
0
100
AcDbLine
 62
7
  6
BYLAYER
 10
67.9394343368
 20
108.030891495
 11
67.9063139071
 21
107.9962796778
  0
LWPOLYLINE
  5
24F
100
AcDbEntity
  8
0
100
AcDbPolyline
 62
7
  6
BYLAYER
 90
3
 70
0
 10
66.2750362959
 20
106.4073563723
 10
65.918993382
 20
106.0768507889
 10
65.591751025
 20
105.9599604338
  0
LWPOLYLINE
  5
250
100
AcDbEntity
  8
0
100
AcDbPolyline
 62
7
  6
BYLAYER
 90
5
 70
0
 10
68.0869570698
 20
105.007350685
 10
68.5463609007
 20
105.4002464862
 10
68.9946539431
 20
106.0257127207
 10
69.5308545777
 20
107.3700862327
 10
69.4918877602
 20
108.5284967794
  0
LWPOLYLINE
  5
251
100
AcDbEntity
  8
0
100
AcDbPolyline
 62
7
  6
BYLAYER
 90
3
 70
0
 10
67.2813849004
 20
109.0180806077
 10
67.0528856713
 20
108.8618043401
 10
66.7463510167
 20
108.5490040719
  0
LINE
  5
252
100
AcDbEntity
  8
0
100
AcDbLine
 62
7
  6
BYLAYER
 10
67.9063139071
 20
107.9962796778
 11
67.8857377887
 21
107.9823211277
  0
LINE
  5
253
100
AcDbEntity
  8
0
100
AcDbLine
 62
7
  6
BYLAYER
 10
66.5802128936
 20
108.511950036
 11
66.8801381747
 21
108.6855258592
  0
LWPOLYLINE
  5
254
100
AcDbEntity
  8
0
100
AcDbPolyline
 62
7
  6
BYLAYER
 90
3
 70
0
 10
67.9063139071
 20
107.9962796778
 10
68.230650063
 20
108.1808433081
 10
68.3357750249
 20
108.1991683996
  0
LINE
  5
255
100
AcDbEntity
  8
0
100
AcDbLine
 62
7
  6
BYLAYER
 10
68.1972344238
 20
109.3891710814
 11
67.2661635215
 21
109.0085961988
  0
LINE
  5
256
100
AcDbEntity
  8
0
100
AcDbLine
 62
7
  6
BYLAYER
 10
60.6614032213
 20
106.9722910451
 11
60.6642703782
 21
106.9706441054
  0
LINE
  5
257
100
AcDbEntity
  8
0
100
AcDbLine
 62
7
  6
BYLAYER
 10
56.0667714372
 20
109.6249758904
 11
56.0668496146
 21
109.6249307969
  0
LINE
  5
258
100
AcDbEntity
  8
0
100
AcDbLine
 62
7
  6
BYLAYER
 10
52.3811886885
 20
111.7543797906
 11
52.3828041345
 21
111.7534475702
  0
LINE
  5
259
100
AcDbEntity
  8
0
100
AcDbLine
 62
7
  6
BYLAYER
 10
51.4717288664
 20
112.277993911
 11
51.4721806449
 21
112.2777331126
  0
LINE
  5
25A
100
AcDbEntity
  8
0
100
AcDbLine
 62
7
  6
BYLAYER
 10
62.4930146009
 20
105.9161694642
 11
62.4938805294
 21
105.9156695666
  0
LINE
  5
25B
100
AcDbEntity
  8
0
100
AcDbLine
 62
7
  6
BYLAYER
 10
67.6707701815
 20
103.7541410672
 11
132.0176216317
 21
66.6043095024
  0
LINE
  5
25C
100
AcDbEntity
  8
0
100
AcDbLine
 62
7
  6
BYLAYER
 10
56.9775175003
 20
109.1010998859
 11
56.9786665187
 21
109.1004362377
  0
LINE
  5
25D
100
AcDbEntity
  8
0
100
AcDbLine
 62
7
  6
BYLAYER
 10
53.3076350531
 20
111.2213915198
 11
53.3092976663
 21
111.2204312077
  0
LINE
  5
25E
100
AcDbEntity
  8
0
100
AcDbLine
 62
7
  6
BYLAYER
 10
57.9051031235
 20
108.5672735721
 11
57.9066926208
 21
108.5663555008
  0
LINE
  5
25F
100
AcDbEntity
  8
0
100
AcDbLine
 62
7
  6
BYLAYER
 10
64.344938705
 20
104.8474853979
 11
64.3456415515
 21
104.8470794719
  0
LINE
  5
260
100
AcDbEntity
  8
0
100
AcDbLine
 62
7
  6
BYLAYER
 10
58.8209843204
 20
108.0382381334
 11
58.8227270525
 21
108.0372317569
  0
LINE
  5
261
100
AcDbEntity
  8
0
100
AcDbLine
 62
7
  6
BYLAYER
 10
61.5835830912
 20
106.4401169034
 11
61.5839736747
 21
106.4398912791
  0
LINE
  5
262
100
AcDbEntity
  8
0
100
AcDbLine
 62
7
  6
BYLAYER
 10
63.4182894225
 20
105.3841189281
 11
63.4197698532
 21
105.3832635751
  0
LINE
  5
263
100
AcDbEntity
  8
0
100
AcDbLine
 62
7
  6
BYLAYER
 10
54.232301014
 20
110.6856203033
 11
54.2341344998
 21
110.6845605783
  0
LINE
  5
264
100
AcDbEntity
  8
0
100
AcDbLine
 62
7
  6
BYLAYER
 10
55.1511809599
 20
110.1560515504
 11
55.1528449178
 21
110.1550898696
  0
LINE
  5
265
100
AcDbEntity
  8
0
100
AcDbLine
 62
7
  6
BYLAYER
 10
59.747726239
 20
107.5019724137
 11
59.7494583708
 21
107.5009713017
  0
LINE
  5
266
100
AcDbEntity
  8
0
100
AcDbLine
 62
7
  6
BYLAYER
 10
65.2804625848
 20
104.3084528668
 11
65.2810668389
 21
104.3081034702
  0
LWPOLYLINE
  5
267
100
AcDbEntity
  8
0
100
AcDbPolyline
 62
7
  6
BYLAYER
 90
3
 70
0
 10
52.3811886885
 20
111.7543797906
 10
52.304685177
 20
111.8015112422
 10
52.3867705594
 20
111.7814394093
  0
LINE
  5
268
100
AcDbEntity
  8
0
100
AcDbLine
 62
7
  6
BYLAYER
 10
56.0667714372
 20
109.6249758904
 11
55.9896721607
 21
109.672507175
  0
LWPOLYLINE
  5
269
100
AcDbEntity
  8
0
100
AcDbPolyline
 62
7
  6
BYLAYER
 90
3
 70
0
 10
58.8209843204
 20
108.0382381334
 10
58.7351522671
 20
108.0914779514
 10
58.7783616754
 20
108.0807031783
  0
LWPOLYLINE
  5
26A
100
AcDbEntity
  8
0
100
AcDbPolyline
 62
7
  6
BYLAYER
 90
3
 70
0
 10
56.9775175003
 20
109.1010998859
 10
56.8919680888
 20
109.1542024168
 10
56.9249972995
 20
109.1456512141
  0
LINE
  5
26B
100
AcDbEntity
  8
0
100
AcDbLine
 62
7
  6
BYLAYER
 10
60.6614032213
 20
106.9722910451
 11
60.5758420253
 21
107.0254104527
  0
LWPOLYLINE
  5
26C
100
AcDbEntity
  8
0
100
AcDbPolyline
 62
7
  6
BYLAYER
 90
3
 70
0
 10
59.747726239
 20
107.5019724137
 10
59.6453743664
 20
107.5664159977
 10
59.6939168045
 20
107.5535057935
  0
LINE
  5
26D
100
AcDbEntity
  8
0
100
AcDbLine
 62
7
  6
BYLAYER
 10
55.1511809599
 20
110.1560515504
 11
55.047996709
 21
110.2210405438
  0
LINE
  5
26E
100
AcDbEntity
  8
0
100
AcDbLine
 62
7
  6
BYLAYER
 10
65.2804625848
 20
104.3084528668
 11
65.1736314022
 21
104.37574261
  0
LWPOLYLINE
  5
26F
100
AcDbEntity
  8
0
100
AcDbPolyline
 62
7
  6
BYLAYER
 90
3
 70
0
 10
63.4182894225
 20
105.3841189281
 10
63.3133165374
 20
105.4502661284
 10
63.350217287
 20
105.4404752667
  0
LINE
  5
270
100
AcDbEntity
  8
0
100
AcDbLine
 62
7
  6
BYLAYER
 10
62.999749465
 20
105.7287488778
 11
63.4197778552
 21
105.3832589549
  0
LINE
  5
271
100
AcDbEntity
  8
0
100
AcDbLine
 62
7
  6
BYLAYER
 10
54.7276721742
 20
110.5063175451
 11
55.1528264144
 21
110.1551005519
  0
LINE
  5
272
100
AcDbEntity
  8
0
100
AcDbLine
 62
7
  6
BYLAYER
 10
56.5445450508
 20
109.4661201264
 11
56.9786945301
 21
109.1004200631
  0
LINE
  5
273
100
AcDbEntity
  8
0
100
AcDbLine
 62
7
  6
BYLAYER
 10
64.7439866898
 20
104.7971884877
 11
65.2810534372
 21
104.3080994415
  0
LINE
  5
274
100
AcDbEntity
  8
0
100
AcDbLine
 62
7
  6
BYLAYER
 10
59.1830784226
 20
108.0367656201
 11
59.7494351535
 21
107.5009847053
  0
LWPOLYLINE
  5
275
100
AcDbEntity
  8
0
100
AcDbPolyline
 62
7
  6
BYLAYER
 90
6
 70
0
 10
68.2698914857
 20
104.7934497697
 10
67.9716457538
 20
105.0807481323
 10
67.6403198014
 20
105.7301807358
 10
67.4568982927
 20
106.5489115884
 10
67.5086130794
 20
107.4201915504
 10
67.6952448655
 20
107.8139334724
  0
LINE
  5
276
100
AcDbEntity
  8
0
100
AcDbLine
 62
7
  6
BYLAYER
 10
60.092204472
 20
107.5222381225
 11
60.664272457
 21
106.9706429046
  0
LWPOLYLINE
  5
277
100
AcDbEntity
  8
0
100
AcDbPolyline
 62
7
  6
BYLAYER
 90
5
 70
0
 10
65.8802270781
 20
105.3466706327
 10
65.6852082159
 20
105.5435904288
 10
65.533885005
 20
106.2177648344
 10
65.6973536235
 20
107.1299858943
 10
66.0630336527
 20
107.8917588054
  0
LINE
  5
278
100
AcDbEntity
  8
0
100
AcDbLine
 62
7
  6
BYLAYER
 10
56.2478230434
 20
116.3255137684
 11
55.8556945822
 21
116.7862749457
  0
LINE
  5
279
100
AcDbEntity
  8
0
100
AcDbLine
 62
7
  6
BYLAYER
 10
60.8072929377
 20
113.7080717055
 11
60.4451865772
 21
114.1360442875
  0
LWPOLYLINE
  5
27A
100
AcDbEntity
  8
0
100
AcDbPolyline
 62
7
  6
BYLAYER
 90
3
 70
0
 10
62.6267504147
 20
112.6730294569
 10
62.294833629
 20
113.0689066398
 10
62.3278783725
 20
113.0505113657
  0
LWPOLYLINE
  5
27B
100
AcDbEntity
  8
0
100
AcDbPolyline
 62
7
  6
BYLAYER
 90
3
 70
0
 10
59.9347557067
 20
114.1974105266
 10
59.5563751453
 20
114.65304677
 10
59.5783603099
 20
114.6406657159
  0
LWPOLYLINE
  5
27C
100
AcDbEntity
  8
0
100
AcDbPolyline
 62
7
  6
BYLAYER
 90
3
 70
0
 10
63.6051727902
 20
112.0716279501
 10
63.22577127
 20
112.5344292576
 10
63.2462742213
 20
112.5228587914
  0
LWPOLYLINE
  5
27D
100
AcDbEntity
  8
0
100
AcDbPolyline
 62
7
  6
BYLAYER
 90
3
 70
0
 10
58.965113705
 20
114.7795141154
 10
58.6366035992
 20
115.1837682764
 10
58.6493907824
 20
115.176489597
  0
LINE
  5
27E
100
AcDbEntity
  8
0
100
AcDbLine
 62
7
  6
BYLAYER
 10
67.5541778441
 20
103.9398391332
 11
67.6707701815
 21
103.7541410672
  0
LWPOLYLINE
  5
27F
100
AcDbEntity
  8
0
100
AcDbPolyline
 62
7
  6
BYLAYER
 90
6
 70
0
 10
68.3308269158
 20
108.198305859
 10
68.3615654138
 20
108.136856056
 10
68.3503798714
 20
107.5585301592
 10
67.9722362392
 20
106.6422090638
 10
67.6450814329
 20
106.1842304502
 10
67.5561235832
 20
106.1060038441
  0
LWPOLYLINE
  5
280
100
AcDbEntity
  8
0
100
AcDbPolyline
 62
7
  6
BYLAYER
 90
3
 70
0
 10
68.2640059784
 20
109.3755409674
 10
68.2093391169
 20
109.5465942394
 10
67.8435286336
 20
109.8690052677
  0
LWPOLYLINE
  5
281
100
AcDbEntity
  8
0
100
AcDbPolyline
 62
7
  6
BYLAYER
 90
3
 70
0
 10
66.406579493
 20
110.5491318465
 10
66.4004715133
 20
110.5726292108
 10
66.012105751
 20
110.9240037621
  0
LWPOLYLINE
  5
282
100
AcDbEntity
  8
0
100
AcDbPolyline
 62
7
  6
BYLAYER
 90
3
 70
0
 10
66.5403761624
 20
105.3981212168
 10
66.1719815097
 20
105.2754077492
 10
65.8807620595
 20
105.3463544869
  0
LINE
  5
283
100
AcDbEntity
  8
0
100
AcDbLine
 62
7
  6
BYLAYER
 10
60.5758420253
 20
107.0254104527
 11
61.1388568258
 21
106.8834841247
  0
LINE
  5
284
100
AcDbEntity
  8
0
100
AcDbLine
 62
7
  6
BYLAYER
 10
55.047996709
 20
110.2210405438
 11
55.5729846126
 21
110.0820824315
  0
LWPOLYLINE
  5
285
100
AcDbEntity
  8
0
100
AcDbPolyline
 62
7
  6
BYLAYER
 90
3
 70
0
 10
65.1736314022
 20
104.37574261
 10
66.2427310993
 20
104.0794632308
 10
67.0653094317
 20
104.3359744186
  0
LWPOLYLINE
  5
286
100
AcDbEntity
  8
0
100
AcDbPolyline
 62
7
  6
BYLAYER
 90
3
 70
0
 10
64.344938705
 20
104.8474853979
 10
64.8874073702
 20
104.6530081891
 10
64.9000561411
 20
104.6550611647
  0
LWPOLYLINE
  5
287
100
AcDbEntity
  8
0
100
AcDbPolyline
 62
7
  6
BYLAYER
 90
3
 70
0
 10
61.5839736747
 20
106.4398912791
 10
62.0818141786
 20
106.2551432575
 10
62.0846666102
 20
106.2554924724
  0
LWPOLYLINE
  5
288
100
AcDbEntity
  8
0
100
AcDbPolyline
 62
7
  6
BYLAYER
 90
3
 70
0
 10
62.4930146009
 20
105.9161694642
 10
62.9523153764
 20
105.7366306972
 10
62.9946317168
 20
105.7407732759
  0
LWPOLYLINE
  5
289
100
AcDbEntity
  8
0
100
AcDbPolyline
 62
7
  6
BYLAYER
 90
3
 70
0
 10
54.232301014
 20
110.6856203033
 10
54.6757445251
 20
110.510946342
 10
54.7238005582
 20
110.5156246677
  0
LWPOLYLINE
  5
28A
100
AcDbEntity
  8
0
100
AcDbPolyline
 62
7
  6
BYLAYER
 90
3
 70
0
 10
53.3076350531
 20
111.2213915198
 10
53.7604409221
 20
111.0423345625
 10
53.9114190764
 20
111.0588449393
  0
LWPOLYLINE
  5
28B
100
AcDbEntity
  8
0
100
AcDbPolyline
 62
7
  6
BYLAYER
 90
3
 70
0
 10
57.9051031235
 20
108.5672735721
 10
58.3422701323
 20
108.39206257
 10
58.4694974108
 20
108.3833168515
  0
LINE
  5
28C
100
AcDbEntity
  8
0
100
AcDbLine
 62
7
  6
BYLAYER
 10
68.2701911962
 20
104.7937050355
 11
132.6176114515
 21
67.6435458644
  0
LINE
  5
28D
100
AcDbEntity
  8
0
100
AcDbLine
 62
7
  6
BYLAYER
 10
19.4629370862
 20
134.2583942266
 11
35.4789723608
 21
125.0117411367
  0
LINE
  5
28E
100
AcDbEntity
  8
0
100
AcDbLine
 62
7
  6
BYLAYER
 10
65.880232323
 20
105.3466604752
 11
65.8807620595
 21
105.3463544869
  0
LINE
  5
28F
100
AcDbEntity
  8
0
100
AcDbLine
 62
7
  6
BYLAYER
 10
65.4899581297
 20
111.0868173407
 11
65.0919484837
 21
111.4578628806
  0
LWPOLYLINE
  5
290
100
AcDbEntity
  8
0
100
AcDbPolyline
 62
7
  6
BYLAYER
 90
3
 70
0
 10
67.2815812424
 20
109.9540976282
 10
66.9019739048
 20
110.4096112404
 10
66.9234660536
 20
110.3974928202
  0
LWPOLYLINE
  5
291
100
AcDbEntity
  8
0
100
AcDbPolyline
 62
7
  6
BYLAYER
 90
3
 70
0
 10
64.477356558
 20
111.597947967
 10
64.1521430888
 20
111.9994137523
 10
64.1750087105
 20
111.986550708
  0
LWPOLYLINE
  5
292
100
AcDbEntity
  8
0
100
AcDbPolyline
 62
7
  6
BYLAYER
 90
3
 70
0
 10
69.4918877602
 20
108.5284967794
 10
68.91659538
 20
109.2487504258
 10
68.9289976327
 20
109.2416937161
  0
LWPOLYLINE
  5
293
100
AcDbEntity
  8
0
100
AcDbPolyline
 62
7
  6
BYLAYER
 90
3
 70
0
 10
67.84974747
 20
109.8653891398
 10
66.9291997781
 20
110.0091153774
 10
66.3982631722
 20
109.8299504518
  0
LINE
  5
294
100
AcDbEntity
  8
0
100
AcDbLine
 62
7
  6
BYLAYER
 10
68.9341383932
 20
109.2387464705
 11
68.1972344238
 21
109.3891710814
  0
LINE
  5
295
100
AcDbEntity
  8
0
100
AcDbLine
 62
7
  6
BYLAYER
 10
55.9896721607
 20
109.672507175
 11
56.5109669915
 21
109.5512099552
  0
LWPOLYLINE
  5
296
100
AcDbEntity
  8
0
100
AcDbPolyline
 62
7
  6
BYLAYER
 90
3
 70
0
 10
63.2502584286
 20
112.5205431376
 10
62.568646941
 20
112.6872393542
 10
61.5514554755
 20
112.3397908877
  0
LWPOLYLINE
  5
297
100
AcDbEntity
  8
0
100
AcDbPolyline
 62
7
  6
BYLAYER
 90
3
 70
0
 10
62.3296969115
 20
113.0494594458
 10
61.6408196471
 20
113.2193843492
 10
60.5711241211
 20
112.8277891298
  0
LWPOLYLINE
  5
298
100
AcDbEntity
  8
0
100
AcDbPolyline
 62
7
  6
BYLAYER
 90
3
 70
0
 10
65.0928722242
 20
111.4573293218
 10
64.5607904051
 20
111.6202394646
 10
63.469163452
 20
111.3285832542
  0
LWPOLYLINE
  5
299
100
AcDbEntity
  8
0
100
AcDbPolyline
 62
7
  6
BYLAYER
 90
3
 70
0
 10
59.5786535094
 20
114.6404964231
 10
59.0543151758
 20
114.8034675134
 10
57.9399589764
 20
114.5042278565
  0
LWPOLYLINE
  5
29A
100
AcDbEntity
  8
0
100
AcDbPolyline
 62
7
  6
BYLAYER
 90
3
 70
0
 10
66.0121310506
 20
110.9239891572
 10
65.4811549817
 20
111.0895624096
 10
64.3336716993
 20
110.7619299128
  0
LWPOLYLINE
  5
29B
100
AcDbEntity
  8
0
100
AcDbPolyline
 62
7
  6
BYLAYER
 90
3
 70
0
 10
66.9234582369
 20
110.3974973367
 10
66.4375814796
 20
110.5571448277
 10
65.3078587751
 20
110.2651491278
  0
LWPOLYLINE
  5
29C
100
AcDbEntity
  8
0
100
AcDbPolyline
 62
7
  6
BYLAYER
 90
3
 70
0
 10
64.1776506964
 20
111.9850198961
 10
63.938464103
 20
112.0913145206
 10
62.8888373066
 20
112.0293160493
  0
LINE
  5
29D
100
AcDbEntity
  8
0
100
AcDbLine
 62
7
  6
BYLAYER
 10
60.4451865772
 20
114.1360442875
 11
60.4946360439
 21
114.1090218598
  0
LINE
  5
29E
100
AcDbEntity
  8
0
100
AcDbLine
 62
7
  6
BYLAYER
 10
55.8556945822
 20
116.7862749457
 11
55.8993685719
 21
116.7622583292
  0
LINE
  5
29F
100
AcDbEntity
  8
0
100
AcDbLine
 62
7
  6
BYLAYER
 10
55.8998611407
 20
116.761974227
 11
55.8893654349
 21
116.7679639366
  0
LWPOLYLINE
  5
2A0
100
AcDbEntity
  8
0
100
AcDbPolyline
 62
7
  6
BYLAYER
 90
3
 70
0
 10
54.9814940107
 20
117.2948556538
 10
54.9710908607
 20
117.3007923989
 10
54.0276710877
 20
117.4335731701
  0
LINE
  5
2A1
100
AcDbEntity
  8
0
100
AcDbLine
 62
7
  6
BYLAYER
 10
60.4952091968
 20
114.1086913013
 11
60.4884868841
 21
114.1125436503
  0
LINE
  5
2A2
100
AcDbEntity
  8
0
100
AcDbLine
 62
7
  6
BYLAYER
 10
57.7324890616
 20
115.7032807827
 11
57.7320214851
 21
115.7035504156
  0
LINE
  5
2A3
100
AcDbEntity
  8
0
100
AcDbLine
 62
7
  6
BYLAYER
 10
55.8998365062
 20
116.7619884481
 11
55.899617002
 21
116.7621150966
  0
LINE
  5
2A4
100
AcDbEntity
  8
0
100
AcDbLine
 62
7
  6
BYLAYER
 10
59.5786338668
 20
114.640507763
 11
59.5783603099
 21
114.6406657159
  0
LINE
  5
2A5
100
AcDbEntity
  8
0
100
AcDbLine
 62
7
  6
BYLAYER
 10
65.0928648953
 20
111.4573335532
 11
65.0919484837
 21
111.4578628806
  0
LINE
  5
2A6
100
AcDbEntity
  8
0
100
AcDbLine
 62
7
  6
BYLAYER
 10
58.6495091362
 20
115.1764212542
 11
58.6493907824
 21
115.176489597
  0
LINE
  5
2A7
100
AcDbEntity
  8
0
100
AcDbLine
 62
7
  6
BYLAYER
 10
56.8111616498
 20
116.2358840025
 11
56.8133468691
 21
116.2346201183
  0
LINE
  5
2A8
100
AcDbEntity
  8
0
100
AcDbLine
 62
7
  6
BYLAYER
 10
62.3297052989
 20
113.0494546024
 11
62.3278783725
 21
113.0505113657
  0
LINE
  5
2A9
100
AcDbEntity
  8
0
100
AcDbLine
 62
7
  6
BYLAYER
 10
64.1776227684
 20
111.9850360238
 11
64.1750087105
 21
111.986550708
  0
LINE
  5
2AA
100
AcDbEntity
  8
0
100
AcDbLine
 62
7
  6
BYLAYER
 10
61.4194282222
 20
113.5758069565
 11
61.416354949
 21
113.5775879473
  0
LINE
  5
2AB
100
AcDbEntity
  8
0
100
AcDbLine
 62
7
  6
BYLAYER
 10
63.2502855456
 20
112.5205274721
 11
63.2462742213
 21
112.5228587914
  0
LINE
  5
2AC
100
AcDbEntity
  8
0
100
AcDbLine
 62
7
  6
BYLAYER
 10
67.8434785428
 20
109.8690341901
 11
67.84974747
 21
109.8653891398
  0
LWPOLYLINE
  5
2AD
100
AcDbEntity
  8
0
100
AcDbPolyline
 62
7
  6
BYLAYER
 90
7
 70
0
 10
55.8893654349
 20
116.7679639366
 10
54.9586842158
 20
116.9070196106
 10
53.9798190009
 20
116.4260503556
 10
53.0765293468
 20
115.3892704706
 10
52.7243293204
 20
114.7046458327
 10
52.3850071422
 20
113.2725605967
 10
52.5973425606
 20
112.0195910521
  0
LWPOLYLINE
  5
2AE
100
AcDbEntity
  8
0
100
AcDbPolyline
 62
7
  6
BYLAYER
 90
7
 70
0
 10
60.4884868841
 20
114.1125436503
 10
59.5609032897
 20
114.2547085227
 10
58.5849027417
 20
113.7795479504
 10
57.6810341792
 20
112.7487654992
 10
57.3266377496
 20
112.065724565
 10
56.9821056365
 20
110.6340605705
 10
57.1905645046
 20
109.3723510167
  0
LWPOLYLINE
  5
2AF
100
AcDbEntity
  8
0
100
AcDbPolyline
 62
7
  6
BYLAYER
 90
7
 70
0
 10
56.8133468691
 20
116.2346201183
 10
55.905126312
 20
116.3805935995
 10
54.9251427879
 20
115.917165566
 10
53.9942655774
 20
114.8545888801
 10
53.6434070991
 20
114.1766220955
 10
53.3051723928
 20
112.7497362147
 10
53.5201565598
 20
111.4838911051
  0
LINE
  5
2B0
100
AcDbEntity
  8
0
100
AcDbLine
 62
7
  6
BYLAYER
 10
53.1795873515
 20
117.978684442
 11
53.4217185023
 21
117.93108409
  0
LWPOLYLINE
  5
2B1
100
AcDbEntity
  8
0
100
AcDbPolyline
 62
7
  6
BYLAYER
 90
6
 70
0
 10
61.4194488473
 20
113.5757950454
 10
60.6401141481
 20
113.7441962476
 10
59.4878261464
 20
113.2358244627
 10
58.5104991586
 20
112.0686567586
 10
58.1696680374
 20
111.3434591703
 10
57.8970672605
 20
109.8637339726
  0
LWPOLYLINE
  5
2B2
100
AcDbEntity
  8
0
100
AcDbPolyline
 62
7
  6
BYLAYER
 90
3
 70
0
 10
58.6494869663
 20
115.1764340548
 10
58.1359656862
 20
115.3361317006
 10
57.1134268843
 20
115.0882561672
  0
LWPOLYLINE
  5
2B3
100
AcDbEntity
  8
0
100
AcDbPolyline
 62
7
  6
BYLAYER
 90
3
 70
0
 10
57.7324839712
 20
115.7032837215
 10
57.2157053676
 20
115.8669336304
 10
56.0756307941
 20
115.5476247945
  0
LINE
  5
2B4
100
AcDbEntity
  8
0
100
AcDbLine
 62
7
  6
BYLAYER
 10
45.5221381848
 20
127.8947715879
 11
45.8756930473
 21
127.6906512107
  0
LINE
  5
2B5
100
AcDbEntity
  8
0
100
AcDbLine
 62
7
  6
BYLAYER
 10
47.0070686076
 20
127.0374660034
 11
48.5627100029
 21
126.1393363435
  0
LINE
  5
2B6
100
AcDbEntity
  8
0
100
AcDbLine
 62
7
  6
BYLAYER
 10
46.7926337562
 20
131.5436475986
 11
30.7765984816
 21
140.7903006885
  0
ARC
  5
2B7
100
AcDbEntity
  8
0
100
AcDbCircle
 62
7
  6
BYLAYER
 10
46.8418528785
 20
120.4579040597
 40
7.1687361951
100
AcDbArc
 50
120.2672961558
 51
120.8190626749
  0
ARC
  5
2B8
100
AcDbEntity
  8
0
100
AcDbCircle
 62
7
  6
BYLAYER
 10
46.8068892415
 20
120.5176550971
 40
7.0995073299
100
AcDbArc
 50
120.0000311498
 51
120.2666431416
  0
ARC
  5
2B9
100
AcDbEntity
  8
0
100
AcDbCircle
 62
7
  6
BYLAYER
 10
45.6409597236
 20
121.2307351623
 40
7.0303598825
100
AcDbArc
 50
119.6190008979
 51
120.0002174655
  0
ARC
  5
2BA
100
AcDbEntity
  8
0
100
AcDbCircle
 62
7
  6
BYLAYER
 10
26.513871161
 20
122.5186273567
 40
4.9922319254
100
AcDbArc
 50
299.9852132989
 51
302.060221846
  0
ARC
  5
2BB
100
AcDbEntity
  8
0
100
AcDbCircle
 62
7
  6
BYLAYER
 10
69.4500977918
 20
105.785055933
 40
4.9313966891
100
AcDbArc
 50
146.1378062893
 51
146.4959711065
  0
ARC
  5
2BC
100
AcDbEntity
  8
0
100
AcDbCircle
 62
7
  6
BYLAYER
 10
55.6137340304
 20
114.1039028726
 40
3.6125627555
100
AcDbArc
 50
129.6459829351
 51
132.5642495026
  0
ARC
  5
2BD
100
AcDbEntity
  8
0
100
AcDbCircle
 62
7
  6
BYLAYER
 10
61.9092767784
 20
110.5394867897
 40
3.4072343878
100
AcDbArc
 50
127.7380247073
 51
129.6162893107
  0
ARC
  5
2BE
100
AcDbEntity
  8
0
100
AcDbCircle
 62
7
  6
BYLAYER
 10
62.7973747529
 20
110.0300638992
 40
3.3721680855
100
AcDbArc
 50
127.4498808702
 51
131.915072026
  0
ARC
  5
2BF
100
AcDbEntity
  8
0
100
AcDbCircle
 62
7
  6
BYLAYER
 10
53.4846115838
 20
115.4184185543
 40
2.8053773638
100
AcDbArc
 50
120.0014455683
 51
120.7956825505
  0
ARC
  5
2C0
100
AcDbEntity
  8
0
100
AcDbCircle
 62
7
  6
BYLAYER
 10
44.534796943
 20
125.3729575813
 40
2.6776306919
100
AcDbArc
 50
45.9657604015
 51
59.9485748489
  0
ARC
  5
2C1
100
AcDbEntity
  8
0
100
AcDbCircle
 62
7
  6
BYLAYER
 10
39.6379672237
 20
116.884481725
 40
2.5227121245
100
AcDbArc
 50
231.0450947689
 51
239.9793598211
  0
ARC
  5
2C2
100
AcDbEntity
  8
0
100
AcDbCircle
 62
7
  6
BYLAYER
 10
44.6191896763
 20
125.5138851246
 40
2.5133785892
100
AcDbArc
 50
60.0049970376
 51
69.1037321946
  0
ARC
  5
2C3
100
AcDbEntity
  8
0
100
AcDbCircle
 62
7
  6
BYLAYER
 10
28.2911328674
 20
118.7341771132
 40
2.4721015511
100
AcDbArc
 50
326.7701025128
 51
331.7423374977
  0
ARC
  5
2C4
100
AcDbEntity
  8
0
100
AcDbCircle
 62
7
  6
BYLAYER
 10
20.9325747146
 20
118.5180338863
 40
2.1627978695
100
AcDbArc
 50
166.4908465345
 51
179.9180567704
  0
ARC
  5
2C5
100
AcDbEntity
  8
0
100
AcDbCircle
 62
7
  6
BYLAYER
 10
62.8592715172
 20
107.8987047015
 40
2.0091510556
100
AcDbArc
 50
197.4478491896
 51
202.2173749507
  0
ARC
  5
2C6
100
AcDbEntity
  8
0
100
AcDbCircle
 62
7
  6
BYLAYER
 10
63.4932486707
 20
107.2482325018
 40
1.6989184955
100
AcDbArc
 50
206.3642956373
 51
208.0213632453
  0
ARC
  5
2C7
100
AcDbEntity
  8
0
100
AcDbCircle
 62
7
  6
BYLAYER
 10
56.0467655863
 20
111.462208883
 40
1.6031773235
100
AcDbArc
 50
208.7769929995
 51
210.2955171739
  0
ARC
  5
2C8
100
AcDbEntity
  8
0
100
AcDbCircle
 62
7
  6
BYLAYER
 10
59.4578641994
 20
109.1365244384
 40
1.2695860473
100
AcDbArc
 50
225.5016853205
 51
239.8917100889
  0
ARC
  5
2C9
100
AcDbEntity
  8
0
100
AcDbCircle
 62
7
  6
BYLAYER
 10
53.9415450197
 20
112.316029127
 40
1.264940058
100
AcDbArc
 50
230.8137768005
 51
239.9244856666
  0
ARC
  5
2CA
100
AcDbEntity
  8
0
100
AcDbCircle
 62
7
  6
BYLAYER
 10
60.3771208048
 20
108.5874287658
 40
1.2547323007
100
AcDbArc
 50
231.0069858787
 51
239.8917598883
  0
ARC
  5
2CB
100
AcDbEntity
  8
0
100
AcDbCircle
 62
7
  6
BYLAYER
 10
57.5916305433
 20
110.1629685349
 40
1.2266620561
100
AcDbArc
 50
238.9904535649
 51
239.9593228807
  0
ARC
  5
2CC
100
AcDbEntity
  8
0
100
AcDbCircle
 62
7
  6
BYLAYER
 10
52.9894623637
 20
112.806556618
 40
1.2153488788
100
AcDbArc
 50
232.8021273343
 51
239.9688828048
  0
ARC
  5
2CD
100
AcDbEntity
  8
0
100
AcDbCircle
 62
7
  6
BYLAYER
 10
53.0586546014
 20
117.1385751285
 40
0.9870064156
100
AcDbArc
 50
63.2892089426
 51
67.1885790168
  0
ARC
  5
2CE
100
AcDbEntity
  8
0
100
AcDbCircle
 62
7
  6
BYLAYER
 10
60.069406952
 20
113.3710094868
 40
0.8517523227
100
AcDbArc
 50
60.0490605189
 51
61.7707441442
  0
ARC
  5
2CF
100
AcDbEntity
  8
0
100
AcDbCircle
 62
7
  6
BYLAYER
 10
60.9950768909
 20
112.8470289084
 40
0.8433218209
100
AcDbArc
 50
60.0284309233
 51
61.3666181999
  0
ARC
  5
2D0
100
AcDbEntity
  8
0
100
AcDbCircle
 62
7
  6
BYLAYER
 10
68.3403160124
 20
107.3450075132
 40
0.7945672861
100
AcDbArc
 50
123.7619286983
 51
125.5534737346
  0
ARC
  5
2D1
100
AcDbEntity
  8
0
100
AcDbCircle
 62
7
  6
BYLAYER
 10
68.3321821532
 20
107.357268545
 40
0.7798536929
100
AcDbArc
 50
120.2455340988
 51
123.7657396412
  0
ARC
  5
2D2
100
AcDbEntity
  8
0
100
AcDbCircle
 62
7
  6
BYLAYER
 10
67.3178452866
 20
108.5319003556
 40
0.5276829245
100
AcDbArc
 50
59.9994210362
 51
61.208660398
  0
ARC
  5
2D3
100
AcDbEntity
  8
0
100
AcDbCircle
 62
7
  6
BYLAYER
 10
68.1508922317
 20
107.8890278635
 40
0.3608748946
100
AcDbArc
 50
59.3107511046
 51
59.7771759528
  0
SPLINE
  5
2D4
100
AcDbEntity
  8
0
100
AcDbSpline
 62
7
  6
BYLAYER
 70
0
 71
3
 72
25
 73
21
 74
0
 42
0.0000001
 43
0.0000001
 44
0.0000000001
 40
0.0
 40
0.0
 40
0.0
 40
0.0
 40
0.0213320643
 40
0.042892634
 40
0.0648979117
 40
0.0875428128
 40
0.1353179575
 40
0.1872189678
 40
0.2436567466
 40
0.3046047363
 40
0.3696926029
 40
0.4382899826
 40
0.5095764756
 40
0.5826007157
 40
0.6563321352
 40
0.7297091982
 40
0.8016853379
 40
0.8712782392
 40
0.9376162687
 40
1.0
 40
1.0
 40
1.0
 40
1.0
 10
38.0222706071
 20
114.9043260157
 30
0.0
 10
37.9301269324
 20
114.9575241307
 30
0.0
 10
37.7514958368
 20
115.0764938439
 30
0.0
 10
37.5063577702
 20
115.2890975342
 30
0.0
 10
37.2846502122
 20
115.5349497474
 30
0.0
 10
37.0173588799
 20
115.9116374769
 30
0.0
 10
36.7497547336
 20
116.4651332656
 30
0.0
 10
36.5457794188
 20
117.2203013631
 30
0.0
 10
36.4548746305
 20
118.0627099538
 30
0.0
 10
36.4780985848
 20
118.9748246636
 30
0.0
 10
36.6144146497
 20
119.9378913601
 30
0.0
 10
36.8607883772
 20
120.9317651118
 30
0.0
 10
37.2119355198
 20
121.9354812702
 30
0.0
 10
37.66037802
 20
122.9277260269
 30
0.0
 10
38.1965545204
 20
123.8873598583
 30
0.0
 10
38.809032389
 20
124.793911565
 30
0.0
 10
39.484738347
 20
125.6280478291
 30
0.0
 10
40.2093723964
 20
126.3720444424
 30
0.0
 10
40.9674305302
 20
127.0100074369
 30
0.0
 10
41.5027367416
 20
127.3677376519
 30
0.0
 10
41.7722018111
 20
127.5233124537
 30
0.0
  0
SPLINE
  5
2D5
100
AcDbEntity
  8
0
100
AcDbSpline
 62
7
  6
BYLAYER
 70
0
 71
3
 72
9
 73
5
 74
0
 42
0.0000001
 43
0.0000001
 44
0.0000000001
 40
0.0
 40
0.0
 40
0.0
 40
0.0
 40
0.5021517232
 40
1.0
 40
1.0
 40
1.0
 40
1.0
 10
39.0065624322
 20
114.4373767751
 30
0.0
 10
38.8960617287
 20
114.4677860009
 30
0.0
 10
38.6795163773
 20
114.5420179874
 30
0.0
 10
38.4742241904
 20
114.643384458
 30
0.0
 10
38.3758203
 20
114.7001966853
 30
0.0
  0
SPLINE
  5
2D6
100
AcDbEntity
  8
0
100
AcDbSpline
 62
7
  6
BYLAYER
 70
0
 71
3
 72
15
 73
11
 74
0
 42
0.0000001
 43
0.0000001
 44
0.0000000001
 40
0.0
 40
0.0
 40
0.0
 40
0.0
 40
0.146086562
 40
0.2851508611
 40
0.4172395159
 40
0.5428288535
 40
0.6626732022
 40
0.7778681241
 40
0.8897732877
 40
1.0
 40
1.0
 40
1.0
 40
1.0
 10
43.128518372
 20
126.6593023422
 30
0.0
 10
43.3001434374
 20
126.7594572236
 30
0.0
 10
43.6435299178
 20
126.9411164467
 30
0.0
 10
44.1688050283
 20
127.1584115602
 30
0.0
 10
44.6875091827
 20
127.3113654896
 30
0.0
 10
45.1950518196
 20
127.3978001434
 30
0.0
 10
45.6868406837
 20
127.4157852284
 30
0.0
 10
46.1577727824
 20
127.3637758833
 30
0.0
 10
46.6019937641
 20
127.2412508222
 30
0.0
 10
46.8772215411
 20
127.1124315463
 30
0.0
 10
47.0070686076
 20
127.0374660034
 30
0.0
  0
SPLINE
  5
2D7
100
AcDbEntity
  8
0
100
AcDbSpline
 62
7
  6
BYLAYER
 70
0
 71
3
 72
15
 73
11
 74
0
 42
0.0000001
 43
0.0000001
 44
0.0000000001
 40
0.0
 40
0.0
 40
0.0
 40
0.0
 40
0.1485844664
 40
0.2895066675
 40
0.4227213014
 40
0.5486406016
 40
0.667999669
 40
0.7819371397
 40
0.8919867621
 40
1.0
 40
1.0
 40
1.0
 40
1.0
 10
41.7722018111
 20
127.5233124537
 30
0.0
 10
41.9413509023
 20
127.6209701441
 30
0.0
 10
42.2790285912
 20
127.7977402192
 30
0.0
 10
42.7941001333
 20
128.0085632776
 30
0.0
 10
43.3000044097
 20
128.1560454467
 30
0.0
 10
43.7919430386
 20
128.2385706402
 30
0.0
 10
44.2653549574
 20
128.2550403682
 30
0.0
 10
44.7156725543
 20
128.2048222114
 30
0.0
 10
45.1381000357
 20
128.0880132289
 30
0.0
 10
45.3991699271
 20
127.9657539916
 30
0.0
 10
45.5221330151
 20
127.8947626348
 30
0.0
  0
SPLINE
  5
2D8
100
AcDbEntity
  8
0
100
AcDbSpline
 62
7
  6
BYLAYER
 70
0
 71
3
 72
25
 73
21
 74
0
 42
0.0000001
 43
0.0000001
 44
0.0000000001
 40
0.0
 40
0.0
 40
0.0
 40
0.0
 40
0.0222436599
 40
0.044669178
 40
0.0674670437
 40
0.090804358
 40
0.1396044174
 40
0.1920515388
 40
0.2486213749
 40
0.3093810699
 40
0.3740513484
 40
0.4420800226
 40
0.5127109112
 40
0.5850453425
 40
0.6580976471
 40
0.73084688
 40
0.8022866172
 40
0.8714770931
 40
0.9375948523
 40
1.0
 40
1.0
 40
1.0
 40
1.0
 10
39.5071958603
 20
114.0470114781
 30
0.0
 10
39.411200865
 20
114.1024329606
 30
0.0
 10
39.2252817111
 20
114.2261040151
 30
0.0
 10
38.9701857669
 20
114.4463415871
 30
0.0
 10
38.7400263609
 20
114.6999591312
 30
0.0
 10
38.4640594469
 20
115.0853186716
 30
0.0
 10
38.1886569833
 20
115.647006312
 30
0.0
 10
37.9782678917
 20
116.4085407553
 30
0.0
 10
37.8826560838
 20
117.2521440971
 30
0.0
 10
37.9013702522
 20
118.1611924709
 30
0.0
 10
38.0325559249
 20
119.118185686
 30
0.0
 10
38.2728472924
 20
120.1041806142
 30
0.0
 10
38.616945794
 20
121.0992336625
 30
0.0
 10
39.0575445824
 20
122.0828649638
 30
0.0
 10
39.5853727589
 20
123.0346179495
 30
0.0
 10
40.1893857537
 20
123.9345974485
 30
0.0
 10
40.8570031214
 20
124.7639748556
 30
0.0
 10
41.5745609787
 20
125.5054666003
 30
0.0
 10
42.3273933003
 20
126.1435681371
 30
0.0
 10
42.8599295598
 20
126.5025625294
 30
0.0
 10
43.128518372
 20
126.6593023422
 30
0.0
  0
SPLINE
  5
2D9
100
AcDbEntity
  8
0
100
AcDbSpline
 62
7
  6
BYLAYER
 70
0
 71
3
 72
12
 73
8
 74
0
 42
0.0000001
 43
0.0000001
 44
0.0000000001
 40
0.0
 40
0.0
 40
0.0
 40
0.0
 40
0.12232584
 40
0.2446183782
 40
0.4909113952
 40
0.741714986
 40
1.0
 40
1.0
 40
1.0
 40
1.0
 10
48.5627100029
 20
126.1393363435
 30
0.0
 10
48.6663127003
 20
126.0795226514
 30
0.0
 10
48.8670349868
 20
125.9482646381
 30
0.0
 10
49.2380682565
 20
125.6423821073
 30
0.0
 10
49.6402120723
 20
125.1828288908
 30
0.0
 10
50.008298532
 20
124.5375800318
 30
0.0
 10
50.1757024285
 20
124.0658688381
 30
0.0
 10
50.2419447356
 20
123.8221179517
 30
0.0
  0
SPLINE
  5
2DA
100
AcDbEntity
  8
0
100
AcDbSpline
 62
7
  6
BYLAYER
 70
0
 71
3
 72
12
 73
8
 74
0
 42
0.0000001
 43
0.0000001
 44
0.0000000001
 40
0.0
 40
0.0
 40
0.0
 40
0.0
 40
0.2582939315
 40
0.5090982258
 40
0.7553911003
 40
0.8776985464
 40
1.0
 40
1.0
 40
1.0
 40
1.0
 10
43.9107770046
 20
112.853687
 30
0.0
 10
43.6664402413
 20
112.7890668248
 30
0.0
 10
43.1739763864
 20
112.697984068
 30
0.0
 10
42.4307160589
 20
112.6939150933
 30
0.0
 10
41.8312951919
 20
112.8123764611
 30
0.0
 10
41.380623162
 20
112.9808019095
 30
0.0
 10
41.1664755152
 20
113.0890475947
 30
0.0
 10
41.0628372556
 20
113.1488818182
 30
0.0
  0
SPLINE
  5
2DB
100
AcDbEntity
  8
0
100
AcDbSpline
 62
7
  6
BYLAYER
 70
0
 71
3
 72
23
 73
19
 74
0
 42
0.0000001
 43
0.0000001
 44
0.0000000001
 40
0.0
 40
0.0
 40
0.0
 40
0.0
 40
0.0624184672
 40
0.1246497338
 40
0.1868691764
 40
0.2492035427
 40
0.3116959209
 40
0.3743198253
 40
0.4370309574
 40
0.4997632302
 40
0.5624501608
 40
0.6250238142
 40
0.6874483979
 40
0.7497350521
 40
0.8119551046
 40
0.8742610383
 40
0.9368720824
 40
1.0
 40
1.0
 40
1.0
 40
1.0
 10
47.2083522601
 20
123.0199971915
 30
0.0
 10
47.4377347301
 20
123.1524304318
 30
0.0
 10
47.9117672964
 20
123.3905089986
 30
0.0
 10
48.6615855351
 20
123.6551131754
 30
0.0
 10
49.440292867
 20
123.816253467
 30
0.0
 10
50.2354186573
 20
123.8643883683
 30
0.0
 10
51.0307442148
 20
123.7927173115
 30
0.0
 10
51.8071193254
 20
123.5983977803
 30
0.0
 10
52.5440894952
 20
123.2834596291
 30
0.0
 10
53.2217409564
 20
122.8550187298
 30
0.0
 10
53.8222478805
 20
122.3247981938
 30
0.0
 10
54.3314049616
 20
121.7082061068
 30
0.0
 10
54.7395833253
 20
121.0228113471
 30
0.0
 10
55.0421506165
 20
120.2866043489
 30
0.0
 10
55.2392037652
 20
119.5162699947
 30
0.0
 10
55.3342279597
 20
118.7257365887
 30
0.0
 10
55.3328292998
 20
117.9260456087
 30
0.0
 10
55.2719714211
 20
117.3947391769
 30
0.0
 10
55.2277220783
 20
117.1305409466
 30
0.0
  0
SPLINE
  5
2DC
100
AcDbEntity
  8
0
100
AcDbSpline
 62
7
  6
BYLAYER
 70
0
 71
3
 72
9
 73
5
 74
0
 42
0.0000001
 43
0.0000001
 44
0.0000000001
 40
0.0
 40
0.0
 40
0.0
 40
0.0
 40
0.25155993
 40
1.0
 40
1.0
 40
1.0
 40
1.0
 10
52.2443482083
 20
111.9205931079
 30
0.0
 10
52.1629128696
 20
111.852361036
 30
0.0
 10
51.8336864085
 20
111.5877983094
 30
0.0
 10
51.4820769961
 20
111.3508135651
 30
0.0
 10
51.2083343525
 20
111.1927691196
 30
0.0
  0
SPLINE
  5
2DD
100
AcDbEntity
  8
0
100
AcDbSpline
 62
7
  6
BYLAYER
 70
0
 71
3
 72
32
 73
28
 74
0
 42
0.0000001
 43
0.0000001
 44
0.0000000001
 40
0.0
 40
0.0
 40
0.0
 40
0.0
 40
0.0309143146
 40
0.0617374098
 40
0.0925319527
 40
0.1233427049
 40
0.1542046397
 40
0.1851289698
 40
0.2161097152
 40
0.247134258
 40
0.2781876597
 40
0.3092479402
 40
0.3402949813
 40
0.3713079647
 40
0.4022688435
 40
0.4331696542
 40
0.4640149701
 40
0.4948242507
 40
0.525628254
 40
0.5564894188
 40
0.6185890054
 40
0.6816345871
 40
0.7456559247
 40
0.810155874
 40
0.8743698833
 40
0.937685149
 40
1.0
 40
1.0
 40
1.0
 40
1.0
 10
51.2083343525
 20
111.1927691196
 30
0.0
 10
51.0287949205
 20
111.0891125989
 30
0.0
 10
50.6605645905
 20
110.8982970892
 30
0.0
 10
50.0836106205
 20
110.6671993589
 30
0.0
 10
49.4865325035
 20
110.496529402
 30
0.0
 10
48.8741594304
 20
110.3912499664
 30
0.0
 10
48.2528422688
 20
110.3556187996
 30
0.0
 10
47.6303878432
 20
110.3929112961
 30
0.0
 10
47.0157715757
 20
110.5049038741
 30
0.0
 10
46.4186405325
 20
110.6916638473
 30
0.0
 10
45.8487844314
 20
110.9513052045
 30
0.0
 10
45.315641147
 20
111.2801011212
 30
0.0
 10
44.8278424975
 20
111.672577457
 30
0.0
 10
44.3927105791
 20
112.1217546481
 30
0.0
 10
44.0160545897
 20
112.6196789275
 30
0.0
 10
43.7018214253
 20
113.1577737749
 30
0.0
 10
43.4520269975
 20
113.7274233031
 30
0.0
 10
43.2669645283
 20
114.32046
 30
0.0
 10
43.1455247162
 20
114.9297416921
 30
0.0
 10
43.065213072
 20
115.7569790023
 30
0.0
 10
43.112607483
 20
116.8082273956
 30
0.0
 10
43.3811055256
 20
118.0532391904
 30
0.0
 10
43.8389936737
 20
119.258421628
 30
0.0
 10
44.4662446348
 20
120.3933243774
 30
0.0
 10
45.2438763054
 20
121.4254093265
 30
0.0
 10
46.1543837219
 20
122.3219144557
 30
0.0
 10
46.8464495911
 20
122.8110538354
 30
0.0
 10
47.2083522601
 20
123.0199971915
 30
0.0
  0
SPLINE
  5
2DE
100
AcDbEntity
  8
0
100
AcDbSpline
 62
7
  6
BYLAYER
 70
0
 71
3
 72
10
 73
6
 74
0
 42
0.0000001
 43
0.0000001
 44
0.0000000001
 40
0.0
 40
0.0
 40
0.0
 40
0.0
 40
0.3746425646
 40
0.748627932
 40
1.0
 40
1.0
 40
1.0
 40
1.0
 10
52.0252928257
 20
118.011210873
 30
0.0
 10
52.0208581319
 20
118.0086505166
 30
0.0
 10
52.0120636661
 20
118.0034190942
 30
0.0
 10
52.000175477
 20
117.9966713083
 30
0.0
 10
51.992876942
 20
117.9922211781
 30
0.0
 10
51.9899255166
 20
117.9904621874
 30
0.0
  0
SPLINE
  5
2DF
100
AcDbEntity
  8
0
100
AcDbSpline
 62
7
  6
BYLAYER
 70
0
 71
3
 72
11
 73
7
 74
0
 42
0.0000001
 43
0.0000001
 44
0.0000000001
 40
0.0
 40
0.0
 40
0.0
 40
0.0
 40
0.2806607679
 40
0.5398582617
 40
0.7785059788
 40
1.0
 40
1.0
 40
1.0
 40
1.0
 10
52.0818616056
 20
117.8479112281
 30
0.0
 10
52.1775739801
 20
117.9031704634
 30
0.0
 10
52.3683048954
 20
117.9986730838
 30
0.0
 10
52.6604074638
 20
118.0956875974
 30
0.0
 10
52.9419245471
 20
118.1385418919
 30
0.0
 10
53.124572441
 20
118.1294929558
 30
0.0
 10
53.2105694029
 20
118.1149366193
 30
0.0
  0
SPLINE
  5
2E0
100
AcDbEntity
  8
0
100
AcDbSpline
 62
7
  6
BYLAYER
 70
0
 71
3
 72
9
 73
5
 74
0
 42
0.0000001
 43
0.0000001
 44
0.0000000001
 40
0.0
 40
0.0
 40
0.0
 40
0.0
 40
0.2539671116
 40
1.0
 40
1.0
 40
1.0
 40
1.0
 10
53.2105694029
 20
118.1149366193
 30
0.0
 10
53.2306394266
 20
118.1115394525
 30
0.0
 10
53.3092800369
 20
118.0960035386
 30
0.0
 10
53.3861999535
 20
118.0715696053
 30
0.0
 10
53.4413163346
 20
118.0483837141
 30
0.0
  0
SPLINE
  5
2E1
100
AcDbEntity
  8
0
100
AcDbSpline
 62
7
  6
BYLAYER
 70
0
 71
3
 72
11
 73
7
 74
0
 42
0.0000001
 43
0.0000001
 44
0.0000000001
 40
0.0
 40
0.0
 40
0.0
 40
0.0
 40
0.2386339344
 40
0.4814071192
 40
0.7337315497
 40
1.0
 40
1.0
 40
1.0
 40
1.0
 10
53.5023013987
 20
118.0202548797
 30
0.0
 10
53.5588644451
 20
117.9917873287
 30
0.0
 10
53.6676633492
 20
117.923045415
 30
0.0
 10
53.8099884075
 20
117.7885674758
 30
0.0
 10
53.9299220132
 20
117.6247455295
 30
0.0
 10
53.9921264715
 20
117.5012743952
 30
0.0
 10
54.0193811781
 20
117.4360868059
 30
0.0
  0
SPLINE
  5
2E2
100
AcDbEntity
  8
0
100
AcDbSpline
 62
7
  6
BYLAYER
 70
0
 71
3
 72
14
 73
10
 74
0
 42
0.0000001
 43
0.0000001
 44
0.0000000001
 40
0.0
 40
0.0
 40
0.0
 40
0.0
 40
0.1109137063
 40
0.2285107364
 40
0.3517181827
 40
0.4791980638
 40
0.6094311324
 40
0.7407903028
 40
1.0
 40
1.0
 40
1.0
 40
1.0
 10
52.0252928257
 20
118.2236409117
 30
0.0
 10
51.9120219297
 20
118.1582443198
 30
0.0
 10
51.686816486
 20
118.0090426515
 30
0.0
 10
51.3664081284
 20
117.7446886663
 30
0.0
 10
51.0584791971
 20
117.4375720363
 30
0.0
 10
50.768873476
 20
117.0935229395
 30
0.0
 10
50.5029688277
 20
116.7189440773
 30
0.0
 10
50.1884200671
 20
116.1910083305
 30
0.0
 10
49.9997705769
 20
115.7678628567
 30
0.0
 10
49.8997756712
 20
115.4790111953
 30
0.0
  0
SPLINE
  5
2E3
100
AcDbEntity
  8
0
100
AcDbSpline
 62
7
  6
BYLAYER
 70
0
 71
3
 72
21
 73
17
 74
0
 42
0.0000001
 43
0.0000001
 44
0.0000000001
 40
0.0
 40
0.0
 40
0.0
 40
0.0
 40
0.1637927981
 40
0.3156663732
 40
0.3862398089
 40
0.4529167588
 40
0.5156795134
 40
0.5747042278
 40
0.6303876084
 40
0.6833675201
 40
0.7345130725
 40
0.7848753572
 40
0.8355899103
 40
0.8877532054
 40
0.9423136966
 40
1.0
 40
1.0
 40
1.0
 40
1.0
 10
49.8997756712
 20
115.4790111953
 30
0.0
 10
49.8262959581
 20
115.26675301
 30
0.0
 10
49.7105501545
 20
114.8480728245
 30
0.0
 10
49.6452929449
 20
114.3198886348
 30
0.0
 10
49.6502427611
 20
113.922887008
 30
0.0
 10
49.6808674738
 20
113.6498014233
 30
0.0
 10
49.7381816003
 20
113.3971689217
 30
0.0
 10
49.8217333807
 20
113.1678080528
 30
0.0
 10
49.9307949855
 20
112.9643628996
 30
0.0
 10
50.0643687682
 20
112.7893262108
 30
0.0
 10
50.2210900275
 20
112.645065395
 30
0.0
 10
50.3990473544
 20
112.5336408396
 30
0.0
 10
50.5958425831
 20
112.4566238838
 30
0.0
 10
50.8087795601
 20
112.4148780535
 30
0.0
 10
51.0350592274
 20
112.408612863
 30
0.0
 10
51.1884379439
 20
112.4273736316
 30
0.0
 10
51.2661836437
 20
112.4419916525
 30
0.0
  0
SPLINE
  5
2E4
100
AcDbEntity
  8
0
100
AcDbSpline
 62
7
  6
BYLAYER
 70
0
 71
3
 72
18
 73
14
 74
0
 42
0.0000001
 43
0.0000001
 44
0.0000000001
 40
0.0
 40
0.0
 40
0.0
 40
0.0
 40
0.1325929104
 40
0.2533943866
 40
0.3106134808
 40
0.3664774785
 40
0.4217361264
 40
0.4771818781
 40
0.5335931349
 40
0.5916838945
 40
0.7149925883
 40
0.8506769749
 40
1.0
 40
1.0
 40
1.0
 40
1.0
 10
54.3490493487
 20
117.3937720259
 30
0.0
 10
54.3223370176
 20
117.5230310599
 30
0.0
 10
54.2495411751
 20
117.766530035
 30
0.0
 10
54.0953748557
 20
118.0385020854
 30
0.0
 10
53.9415008697
 20
118.2141455262
 30
0.0
 10
53.8139504925
 20
118.3237444065
 30
0.0
 10
53.6732137787
 20
118.4125559876
 30
0.0
 10
53.5204195318
 20
118.4798431937
 30
0.0
 10
53.3568146896
 20
118.5251094727
 30
0.0
 10
53.121498517
 20
118.556356769
 30
0.0
 10
52.8032072216
 20
118.5356885806
 30
0.0
 10
52.4102753998
 20
118.4229997635
 30
0.0
 10
52.1540228533
 20
118.2979627842
 30
0.0
 10
52.0252928257
 20
118.2236409117
 30
0.0
  0
SPLINE
  5
2E5
100
AcDbEntity
  8
0
100
AcDbSpline
 62
7
  6
BYLAYER
 70
0
 71
3
 72
15
 73
11
 74
0
 42
0.0000001
 43
0.0000001
 44
0.0000000001
 40
0.0
 40
0.0
 40
0.0
 40
0.0
 40
0.1508887215
 40
0.2890153983
 40
0.4152677476
 40
0.5321957659
 40
0.6439754481
 40
0.7558932823
 40
0.8731993473
 40
1.0
 40
1.0
 40
1.0
 40
1.0
 10
52.0252928257
 20
118.011210873
 30
0.0
 10
52.1358919523
 20
118.0750649274
 30
0.0
 10
52.3561401935
 20
118.1838277459
 30
0.0
 10
52.6937507557
 20
118.2876617905
 30
0.0
 10
53.0170831255
 20
118.3218786263
 30
0.0
 10
53.3182386728
 20
118.2838798825
 30
0.0
 10
53.5881739212
 20
118.1726647924
 30
0.0
 10
53.8172409976
 20
117.9911341992
 30
0.0
 10
53.9982093024
 20
117.746467907
 30
0.0
 10
54.0808234302
 20
117.5551824803
 30
0.0
 10
54.1142188192
 20
117.4531895043
 30
0.0
  0
SPLINE
  5
2E6
100
AcDbEntity
  8
0
100
AcDbSpline
 62
7
  6
BYLAYER
 70
0
 71
3
 72
25
 73
21
 74
0
 42
0.0000001
 43
0.0000001
 44
0.0000000001
 40
0.0
 40
0.0
 40
0.0
 40
0.0
 40
0.0461560583
 40
0.0684233562
 40
0.0904890141
 40
0.1126516025
 40
0.1352041066
 40
0.1824179452
 40
0.2338764923
 40
0.2904527392
 40
0.3523234385
 40
0.4191175691
 40
0.4900593742
 40
0.5640864709
 40
0.6399474478
 40
0.7162852312
 40
0.7917174569
 40
0.8649122475
 40
0.934670183
 40
1.0
 40
1.0
 40
1.0
 40
1.0
 10
51.0099283703
 20
112.6506061037
 30
0.0
 10
50.9068650872
 20
112.6532958092
 30
0.0
 10
50.7533190961
 20
112.6756070531
 30
0.0
 10
50.5633323653
 20
112.7461330078
 30
0.0
 10
50.4323744754
 20
112.8173426065
 30
0.0
 10
50.3124875844
 20
112.9069534874
 30
0.0
 10
50.1663975666
 20
113.0520990131
 30
0.0
 10
50.0153331746
 20
113.2806196463
 30
0.0
 10
49.8945721276
 20
113.6082669411
 30
0.0
 10
49.8323311119
 20
113.9845535502
 30
0.0
 10
49.8293838555
 20
114.3997245453
 30
0.0
 10
49.8853040891
 20
114.8432009621
 30
0.0
 10
49.9984814327
 20
115.3034467101
 30
0.0
 10
50.165865632
 20
115.7683303725
 30
0.0
 10
50.3829905798
 20
116.2254826379
 30
0.0
 10
50.6440506626
 20
116.6626939745
 30
0.0
 10
50.9420628976
 20
117.0682603306
 30
0.0
 10
51.2691015625
 20
117.4313891683
 30
0.0
 10
51.6163958994
 20
117.7423277569
 30
0.0
 10
51.8645726996
 20
117.91575441
 30
0.0
 10
51.9899255166
 20
117.9904621874
 30
0.0
  0
SPLINE
  5
2E7
100
AcDbEntity
  8
0
100
AcDbSpline
 62
7
  6
BYLAYER
 70
0
 71
3
 72
28
 73
24
 74
0
 42
0.0000001
 43
0.0000001
 44
0.0000000001
 40
0.0
 40
0.0
 40
0.0
 40
0.0
 40
0.0651035493
 40
0.1347992092
 40
0.2080823745
 40
0.2837014922
 40
0.3602681192
 40
0.4363365576
 40
0.5104906921
 40
0.5814283974
 40
0.6480539853
 40
0.7095856572
 40
0.7656864675
 40
0.7917913367
 40
0.8166995734
 40
0.8405658905
 40
0.8635960006
 40
0.8860442633
 40
0.9082018098
 40
0.9303794753
 40
0.9528866758
 40
0.9760106715
 40
1.0
 40
1.0
 40
1.0
 40
1.0
 10
45.5905943269
 20
124.4206597205
 30
0.0
 10
45.3259750429
 20
124.2678826176
 30
0.0
 10
44.8014965244
 20
123.9099743697
 30
0.0
 10
44.0676108014
 20
123.2625770075
 30
0.0
 10
43.376191625
 20
122.501953673
 30
0.0
 10
42.7465780787
 20
121.649286679
 30
0.0
 10
42.1961755492
 20
120.7282553219
 30
0.0
 10
41.7403356085
 20
119.7645122778
 30
0.0
 10
41.391739159
 20
118.7848565971
 30
0.0
 10
41.1600704169
 20
117.8164369947
 30
0.0
 10
41.0518632437
 20
116.8857072925
 30
0.0
 10
41.0703626431
 20
116.018124326
 30
0.0
 10
41.1950034901
 20
115.3508769461
 30
0.0
 10
41.3616460056
 20
114.8756660319
 30
0.0
 10
41.514034356
 20
114.5581108426
 30
0.0
 10
41.6957697999
 20
114.2732555078
 30
0.0
 10
41.9057603418
 20
114.023301653
 30
0.0
 10
42.1425175859
 20
113.810231874
 30
0.0
 10
42.4043074576
 20
113.6358278702
 30
0.0
 10
42.689060746
 20
113.501532513
 30
0.0
 10
42.9944844794
 20
113.4083225436
 30
0.0
 10
43.3181141004
 20
113.3568431512
 30
0.0
 10
43.5398125527
 20
113.3505579513
 30
0.0
 10
43.6523526487
 20
113.3539428694
 30
0.0
  0
SPLINE
  5
2E8
100
AcDbEntity
  8
0
100
AcDbSpline
 62
7
  6
BYLAYER
 70
0
 71
3
 72
18
 73
14
 74
0
 42
0.0000001
 43
0.0000001
 44
0.0000000001
 40
0.0
 40
0.0
 40
0.0
 40
0.0
 40
0.1189882902
 40
0.1761636063
 40
0.2323555279
 40
0.288090511
 40
0.3439157634
 40
0.4003745151
 40
0.4579792425
 40
0.5782449125
 40
0.707755429
 40
0.8481669494
 40
1.0
 40
1.0
 40
1.0
 40
1.0
 10
49.6749036652
 20
123.8035163178
 30
0.0
 10
49.5866364007
 20
123.96615636
 30
0.0
 10
49.4317676989
 20
124.1955162876
 30
0.0
 10
49.1807163064
 20
124.456304199
 30
0.0
 10
48.9767411875
 20
124.6233532828
 30
0.0
 10
48.7558209419
 20
124.7633202434
 30
0.0
 10
48.5190893057
 20
124.8754521994
 30
0.0
 10
48.267829114
 20
124.959182757
 30
0.0
 10
47.9103292622
 20
125.0334942517
 30
0.0
 10
47.4287016683
 20
125.0505082204
 30
0.0
 10
46.8265181095
 20
124.9534898252
 30
0.0
 10
46.2025744591
 20
124.7433447293
 30
0.0
 10
45.7950873993
 20
124.5387231461
 30
0.0
 10
45.5905943269
 20
124.4206597205
 30
0.0
  0
SPLINE
  5
2E9
100
AcDbEntity
  8
0
100
AcDbSpline
 62
7
  6
BYLAYER
 70
0
 71
3
 72
16
 73
12
 74
0
 42
0.0000001
 43
0.0000001
 44
0.0000000001
 40
0.0
 40
0.0
 40
0.0
 40
0.0
 40
0.1499420935
 40
0.2914299946
 40
0.4244582384
 40
0.4880057063
 40
0.5496983124
 40
0.668032253
 40
0.781104014
 40
0.8909670239
 40
1.0
 40
1.0
 40
1.0
 40
1.0
 10
45.5905943269
 20
123.3592065782
 30
0.0
 10
45.7157470762
 20
123.4314631204
 30
0.0
 10
45.9655314773
 20
123.5610694177
 30
0.0
 10
46.3468227045
 20
123.7113685303
 30
0.0
 10
46.6627068393
 20
123.7949948349
 30
0.0
 10
46.9087050844
 20
123.8342091591
 30
0.0
 10
47.1427084742
 20
123.854839178
 30
0.0
 10
47.4263647772
 20
123.848487222
 30
0.0
 10
47.7510792224
 20
123.7866019977
 30
0.0
 10
48.0512446501
 20
123.6709267532
 30
0.0
 10
48.2318014636
 20
123.559046035
 30
0.0
 10
48.3156714962
 20
123.4957308609
 30
0.0
  0
SPLINE
  5
2EA
100
AcDbEntity
  8
0
100
AcDbSpline
 62
7
  6
BYLAYER
 70
0
 71
3
 72
25
 73
21
 74
0
 42
0.0000001
 43
0.0000001
 44
0.0000000001
 40
0.0
 40
0.0
 40
0.0
 40
0.0
 40
0.0215087223
 40
0.0430480498
 40
0.064860254
 40
0.0871733259
 40
0.1340032046
 40
0.1848241477
 40
0.2402606756
 40
0.3004248816
 40
0.3650206092
 40
0.433442325
 40
0.5048580203
 40
0.5782782292
 40
0.6526160826
 40
0.7267410625
 40
0.7995322762
 40
0.8699339277
 40
0.9370097713
 40
1.0
 40
1.0
 40
1.0
 40
1.0
 10
43.2150775244
 20
114.6905138145
 30
0.0
 10
43.1468685876
 20
114.7200894537
 30
0.0
 10
43.0140286432
 20
114.7882399545
 30
0.0
 10
42.8292542975
 20
114.9162765444
 30
0.0
 10
42.6605017939
 20
115.0690106299
 30
0.0
 10
42.4551105691
 20
115.3079676965
 30
0.0
 10
42.2438240198
 20
115.6691404085
 30
0.0
 10
42.0738896431
 20
116.1733417718
 30
0.0
 10
41.9848009924
 20
116.7440230732
 30
0.0
 10
41.9776761197
 20
117.3686350982
 30
0.0
 10
42.0521247735
 20
118.0336816201
 30
0.0
 10
42.2063254127
 20
118.7245416033
 30
0.0
 10
42.4367671384
 20
119.4258683552
 30
0.0
 10
42.7382665229
 20
120.1219587712
 30
0.0
 10
43.1040388186
 20
120.7971575961
 30
0.0
 10
43.5258420267
 20
121.4362564952
 30
0.0
 10
43.9941734112
 20
122.0248516073
 30
0.0
 10
44.4985570736
 20
122.5497551179
 30
0.0
 10
45.0276093354
 20
122.9991029413
 30
0.0
 10
45.4020378052
 20
123.2503440694
 30
0.0
 10
45.5905943269
 20
123.3592065782
 30
0.0
  0
SPLINE
  5
2EB
100
AcDbEntity
  8
0
100
AcDbSpline
 62
7
  6
BYLAYER
 70
0
 71
3
 72
9
 73
5
 74
0
 42
0.0000001
 43
0.0000001
 44
0.0000000001
 40
0.0
 40
0.0
 40
0.0
 40
0.0
 40
0.4855341317
 40
1.0
 40
1.0
 40
1.0
 40
1.0
 10
44.8127736292
 20
125.7678772093
 30
0.0
 10
44.5636611755
 20
125.6240529256
 30
0.0
 10
44.0683124594
 20
125.296521872
 30
0.0
 10
43.6097239815
 20
124.919833296
 30
0.0
 10
43.3832400915
 20
124.7158673729
 30
0.0
  0
SPLINE
  5
2EC
100
AcDbEntity
  8
0
100
AcDbSpline
 62
7
  6
BYLAYER
 70
0
 71
3
 72
25
 73
21
 74
0
 42
0.0000001
 43
0.0000001
 44
0.0000000001
 40
0.0
 40
0.0
 40
0.0
 40
0.0
 40
0.069228302
 40
0.1407878877
 40
0.2139292643
 40
0.2878485516
 40
0.3617142824
 40
0.4346971022
 40
0.505998065
 40
0.5748785199
 40
0.6406921794
 40
0.7029211242
 40
0.7612175888
 40
0.8154532866
 40
0.8657758266
 40
0.9126651433
 40
0.9351022765
 40
0.9570291843
 40
0.9786044208
 40
1.0
 40
1.0
 40
1.0
 40
1.0
 10
43.3832400915
 20
124.7158673729
 30
0.0
 10
43.1571114654
 20
124.5122213919
 30
0.0
 10
42.7158968365
 20
124.076957228
 30
0.0
 10
42.102466475
 20
123.3629585217
 30
0.0
 10
41.5343651164
 20
122.5866634895
 30
0.0
 10
41.0211600168
 20
121.7611331056
 30
0.0
 10
40.5714214669
 20
120.9001592123
 30
0.0
 10
40.1926801052
 20
120.0181565975
 30
0.0
 10
39.8912689994
 20
119.12986481
 30
0.0
 10
39.672228067
 20
118.2500920127
 30
0.0
 10
39.5392332496
 20
117.3934407065
 30
0.0
 10
39.4945810737
 20
116.5740318422
 30
0.0
 10
39.5392012845
 20
115.8052777138
 30
0.0
 10
39.6728509802
 20
115.0996181201
 30
0.0
 10
39.8939954605
 20
114.4687430203
 30
0.0
 10
40.1534273055
 20
114.0072749631
 30
0.0
 10
40.4010144056
 20
113.690870038
 30
0.0
 10
40.603002127
 20
113.482180505
 30
0.0
 10
40.8230020084
 20
113.2997008315
 30
0.0
 10
40.9813909863
 20
113.1959130705
 30
0.0
 10
41.0628412668
 20
113.1488887659
 30
0.0
  0
SPLINE
  5
2ED
100
AcDbEntity
  8
0
100
AcDbSpline
 62
7
  6
BYLAYER
 70
0
 71
3
 72
14
 73
10
 74
0
 42
0.0000001
 43
0.0000001
 44
0.0000000001
 40
0.0
 40
0.0
 40
0.0
 40
0.0
 40
0.1079915536
 40
0.2190434378
 40
0.3343757318
 40
0.4549633444
 40
0.5815008242
 40
0.7144506707
 40
1.0
 40
1.0
 40
1.0
 40
1.0
 10
45.5156543766
 20
127.8619530482
 30
0.0
 10
45.3980469173
 20
127.9069244053
 30
0.0
 10
45.1524196098
 20
127.9805925167
 30
0.0
 10
44.7658638586
 20
128.0393706799
 30
0.0
 10
44.3603081018
 20
128.0474708567
 30
0.0
 10
43.9389242675
 20
128.0049659714
 30
0.0
 10
43.5046886243
 20
127.9124618464
 30
0.0
 10
42.8985900276
 20
127.7189055814
 30
0.0
 10
42.4557757437
 20
127.506990343
 30
0.0
 10
42.1663436338
 20
127.3424454881
 30
0.0
  0
SPLINE
  5
2EE
100
AcDbEntity
  8
0
100
AcDbSpline
 62
7
  6
BYLAYER
 70
0
 71
3
 72
15
 73
11
 74
0
 42
0.0000001
 43
0.0000001
 44
0.0000000001
 40
0.0
 40
0.0
 40
0.0
 40
0.0
 40
0.1485845904
 40
0.2895063525
 40
0.4227207426
 40
0.5486400377
 40
0.6679994202
 40
0.7819373304
 40
0.8919868962
 40
1.0
 40
1.0
 40
1.0
 40
1.0
 10
43.2571322339
 20
126.6660068692
 30
0.0
 10
43.4262815144
 20
126.7636646689
 30
0.0
 10
43.7639588242
 20
126.9404348023
 30
0.0
 10
44.2790298765
 20
127.151257592
 30
0.0
 10
44.7849333543
 20
127.2987395733
 30
0.0
 10
45.2768719848
 20
127.3812663293
 30
0.0
 10
45.7502850866
 20
127.3977354832
 30
0.0
 10
46.2006037064
 20
127.3475178552
 30
0.0
 10
46.6230319952
 20
127.2307097374
 30
0.0
 10
46.8841014509
 20
127.1084500411
 30
0.0
 10
47.007064626
 20
127.0374591071
 30
0.0
  0
SPLINE
  5
2EF
100
AcDbEntity
  8
0
100
AcDbSpline
 62
7
  6
BYLAYER
 70
0
 71
3
 72
15
 73
11
 74
0
 42
0.0000001
 43
0.0000001
 44
0.0000000001
 40
0.0
 40
0.0
 40
0.0
 40
0.0
 40
0.1082031561
 40
0.2184637219
 40
0.3325784065
 40
0.4520377699
 40
0.5779522432
 40
0.7110483274
 40
0.8517417189
 40
1.0
 40
1.0
 40
1.0
 40
1.0
 10
45.9030224145
 20
127.4438603959
 30
0.0
 10
45.7846028872
 20
127.5111813356
 30
0.0
 10
45.5335242134
 20
127.6270966237
 30
0.0
 10
45.1280102429
 20
127.7380311557
 30
0.0
 10
44.6961626743
 20
127.7860541009
 30
0.0
 10
44.2424439328
 20
127.77107345
 30
0.0
 10
43.7711029656
 20
127.693666074
 30
0.0
 10
43.286389354
 20
127.5548207109
 30
0.0
 10
42.792776156
 20
127.3560229999
 30
0.0
 10
42.4689388727
 20
127.1891205743
 30
0.0
 10
42.3066832598
 20
127.0968767445
 30
0.0
  0
SPLINE
  5
2F0
100
AcDbEntity
  8
0
100
AcDbSpline
 62
7
  6
BYLAYER
 70
0
 71
3
 72
25
 73
21
 74
0
 42
0.0000001
 43
0.0000001
 44
0.0000000001
 40
0.0
 40
0.0
 40
0.0
 40
0.0
 40
0.062215244
 40
0.12843466
 40
0.1979609491
 40
0.2699187422
 40
0.3433185089
 40
0.4171035977
 40
0.4902008713
 40
0.5615677843
 40
0.6302414143
 40
0.6953911035
 40
0.7563786987
 40
0.8128300636
 40
0.8647205711
 40
0.9124706237
 40
0.9351033442
 40
0.9571002229
 40
0.9786593006
 40
1.0
 40
1.0
 40
1.0
 40
1.0
 10
42.3066832598
 20
127.0968767445
 30
0.0
 10
42.0429853415
 20
126.9469620176
 30
0.0
 10
41.5188336484
 20
126.6010649086
 30
0.0
 10
40.7762561719
 20
125.9819569992
 30
0.0
 10
40.0658870484
 20
125.2580269654
 30
0.0
 10
39.4030708654
 20
124.4448865696
 30
0.0
 10
38.8019685232
 20
123.5599824152
 30
0.0
 10
38.275537154
 20
122.6223706065
 30
0.0
 10
37.8351121643
 20
121.6522502454
 30
0.0
 10
37.490176302
 20
120.6704931245
 30
0.0
 10
37.2481470571
 20
119.6981513452
 30
0.0
 10
37.1142660759
 20
118.7559360112
 30
0.0
 10
37.0915426694
 20
117.8637466793
 30
0.0
 10
37.1810065595
 20
117.0401019363
 30
0.0
 10
37.3816130433
 20
116.3023068176
 30
0.0
 10
37.644757055
 20
115.762197301
 30
0.0
 10
37.9074894648
 20
115.3952714543
 30
0.0
 10
38.1253785749
 20
115.1561351367
 30
0.0
 10
38.3662480684
 20
114.9497476044
 30
0.0
 10
38.5416803709
 20
114.8346135636
 30
0.0
 10
38.6321527168
 20
114.7832263842
 30
0.0
  0
SPLINE
  5
2F1
100
AcDbEntity
  8
0
100
AcDbSpline
 62
7
  6
BYLAYER
 70
0
 71
3
 72
24
 73
20
 74
0
 42
0.0000001
 43
0.0000001
 44
0.0000000001
 40
0.0
 40
0.0
 40
0.0
 40
0.0
 40
0.0214354958
 40
0.0433903175
 40
0.0894118576
 40
0.1390847367
 40
0.1929155692
 40
0.2510154671
 40
0.3131746049
 40
0.3789338517
 40
0.4476458875
 40
0.5185266778
 40
0.5906998388
 40
0.6632367981
 40
0.7351944921
 40
0.8056528924
 40
0.8737531824
 40
0.9387391479
 40
1.0
 40
1.0
 40
1.0
 40
1.0
 10
38.3794280505
 20
115.3317115036
 30
0.0
 10
38.3073735484
 20
115.3957029836
 30
0.0
 10
38.1691090368
 20
115.5340593821
 30
0.0
 10
37.9185728164
 20
115.8492999416
 30
0.0
 10
37.6594179607
 20
116.31496544
 30
0.0
 10
37.4461256088
 20
116.95575846
 30
0.0
 10
37.3274259871
 20
117.6751499159
 30
0.0
 10
37.3047647976
 20
118.4594972143
 30
0.0
 10
37.3780110079
 20
119.2942334481
 30
0.0
 10
37.5455784821
 20
120.1636268669
 30
0.0
 10
37.8041799398
 20
121.0511546879
 30
0.0
 10
38.1488307107
 20
121.9398246685
 30
0.0
 10
38.5728938522
 20
122.8125520093
 30
0.0
 10
39.0681963583
 20
123.6525190934
 30
0.0
 10
39.6251909686
 20
124.4435344455
 30
0.0
 10
40.2331405658
 20
125.1703490573
 30
0.0
 10
40.8804156214
 20
125.8190210393
 30
0.0
 10
41.5545086334
 20
126.3770047943
 30
0.0
 10
42.0286651501
 20
126.6915877237
 30
0.0
 10
42.2671786187
 20
126.829292717
 30
0.0
  0
SPLINE
  5
2F2
100
AcDbEntity
  8
0
100
AcDbSpline
 62
7
  6
BYLAYER
 70
0
 71
3
 72
13
 73
9
 74
0
 42
0.0000001
 43
0.0000001
 44
0.0000000001
 40
0.0
 40
0.0
 40
0.0
 40
0.0
 40
0.2844472705
 40
0.4173611187
 40
0.5441388645
 40
0.7805845615
 40
0.8919834915
 40
1.0
 40
1.0
 40
1.0
 40
1.0
 10
42.2671786187
 20
126.829292717
 30
0.0
 10
42.5260315321
 20
126.9787406241
 30
0.0
 10
42.9217856802
 20
127.1730701034
 30
0.0
 10
43.4638559045
 20
127.3572148054
 30
0.0
 10
43.9713200447
 20
127.4786772599
 30
0.0
 10
44.4732406993
 20
127.5216284395
 30
0.0
 10
44.9508950613
 20
127.4733550517
 30
0.0
 10
45.1761253428
 20
127.420241053
 30
0.0
 10
45.2845204343
 20
127.3865720557
 30
0.0
  0
SPLINE
  5
2F3
100
AcDbEntity
  8
0
100
AcDbSpline
 62
7
  6
BYLAYER
 70
0
 71
3
 72
24
 73
20
 74
0
 42
0.0000001
 43
0.0000001
 44
0.0000000001
 40
0.0
 40
0.0
 40
0.0
 40
0.0
 40
0.0615256683
 40
0.1268294108
 40
0.1952812334
 40
0.2660990697
 40
0.3383958055
 40
0.4112227758
 40
0.4836097674
 40
0.5546043978
 40
0.6233121457
 40
0.6889389748
 40
0.7508387995
 40
0.8085687152
 40
0.8619549247
 40
0.9111694884
 40
0.956807192
 40
0.9786334218
 40
1.0
 40
1.0
 40
1.0
 40
1.0
 10
42.1257566737
 20
127.3191920765
 30
0.0
 10
41.8669764598
 20
127.1697861421
 30
0.0
 10
41.3526148214
 20
126.8279550947
 30
0.0
 10
40.6220204138
 20
126.2208604121
 30
0.0
 10
39.9212062652
 20
125.5145567103
 30
0.0
 10
39.264047032
 20
124.7230257459
 30
0.0
 10
38.6634178939
 20
123.8618259512
 30
0.0
 10
38.1311826322
 20
122.9479620535
 30
0.0
 10
37.6778486536
 20
121.9994791409
 30
0.0
 10
37.3123654734
 20
121.0350961562
 30
0.0
 10
37.0419416422
 20
120.0737975504
 30
0.0
 10
36.8719191992
 20
119.1344202913
 30
0.0
 10
36.805732344
 20
118.2352254845
 30
0.0
 10
36.8449181898
 20
117.3935356164
 30
0.0
 10
36.989422289
 20
116.6253356293
 30
0.0
 10
37.2374641173
 20
115.945584466
 30
0.0
 10
37.5330983127
 20
115.4567311514
 30
0.0
 10
37.815940972
 20
115.1298968718
 30
0.0
 10
37.971206414
 20
114.9879431305
 30
0.0
 10
38.0519165627
 20
114.9227172734
 30
0.0
  0
SPLINE
  5
2F4
100
AcDbEntity
  8
0
100
AcDbSpline
 62
7
  6
BYLAYER
 70
0
 71
3
 72
9
 73
5
 74
0
 42
0.0000001
 43
0.0000001
 44
0.0000000001
 40
0.0
 40
0.0
 40
0.0
 40
0.0
 40
0.4969844444
 40
1.0
 40
1.0
 40
1.0
 40
1.0
 10
39.5071998418
 20
114.0470183745
 30
0.0
 10
39.4090275643
 20
114.1036966578
 30
0.0
 10
39.2190557999
 20
114.2313706283
 30
0.0
 10
39.0480517556
 20
114.3834406848
 30
0.0
 10
38.9673755461
 20
114.4650210197
 30
0.0
  0
SPLINE
  5
2F5
100
AcDbEntity
  8
0
100
AcDbSpline
 62
7
  6
BYLAYER
 70
0
 71
3
 72
9
 73
5
 74
0
 42
0.0000001
 43
0.0000001
 44
0.0000000001
 40
0.0
 40
0.0
 40
0.0
 40
0.0
 40
0.4908937401
 40
1.0
 40
1.0
 40
1.0
 40
1.0
 10
38.9673755461
 20
114.4650210197
 30
0.0
 10
38.8755702424
 20
114.5578551709
 30
0.0
 10
38.7022146887
 20
114.760879037
 30
0.0
 10
38.5580012308
 20
114.9853350233
 30
0.0
 10
38.4918693377
 20
115.1034929575
 30
0.0
  0
SPLINE
  5
2F6
100
AcDbEntity
  8
0
100
AcDbSpline
 62
7
  6
BYLAYER
 70
0
 71
3
 72
9
 73
5
 74
0
 42
0.0000001
 43
0.0000001
 44
0.0000000001
 40
0.0
 40
0.0
 40
0.0
 40
0.0
 40
0.2464309269
 40
1.0
 40
1.0
 40
1.0
 40
1.0
 10
38.4918693377
 20
115.1034929575
 30
0.0
 10
38.4776550613
 20
115.1288896226
 30
0.0
 10
38.4213257363
 20
115.2326999694
 30
0.0
 10
38.3703798021
 20
115.3394159223
 30
0.0
 10
38.334921851
 20
115.421045126
 30
0.0
  0
SPLINE
  5
2F7
100
AcDbEntity
  8
0
100
AcDbSpline
 62
7
  6
BYLAYER
 70
0
 71
3
 72
22
 73
18
 74
0
 42
0.0000001
 43
0.0000001
 44
0.0000000001
 40
0.0
 40
0.0
 40
0.0
 40
0.0
 40
0.0983574212
 40
0.152922324
 40
0.2109484106
 40
0.2721759253
 40
0.3362106418
 40
0.4025541498
 40
0.4706300315
 40
0.5398071019
 40
0.6094207918
 40
0.6787937072
 40
0.7472552566
 40
0.8141636482
 40
0.8789211347
 40
0.941010295
 40
1.0
 40
1.0
 40
1.0
 40
1.0
 10
38.334921851
 20
115.421045126
 30
0.0
 10
38.1647959983
 20
115.8126988289
 30
0.0
 10
38.0032604013
 20
116.4682388799
 30
0.0
 10
37.9415957922
 20
117.3824466075
 30
0.0
 10
37.9706603978
 20
118.1380826743
 30
0.0
 10
38.0763911443
 20
118.9277359788
 30
0.0
 10
38.2570936628
 20
119.7406898411
 30
0.0
 10
38.5101681533
 20
120.5651216388
 30
0.0
 10
38.8319462699
 20
121.3891995009
 30
0.0
 10
39.2177795477
 20
122.2010062051
 30
0.0
 10
39.6620859844
 20
122.9888006941
 30
0.0
 10
40.1584330104
 20
123.7411772203
 30
0.0
 10
40.6996361496
 20
124.4472593618
 30
0.0
 10
41.2778737528
 20
125.0968163538
 30
0.0
 10
41.8848332903
 20
125.6805245915
 30
0.0
 10
42.5117309502
 20
126.1898798996
 30
0.0
 10
42.9491687949
 20
126.4831366759
 30
0.0
 10
43.1691041708
 20
126.6143393565
 30
0.0
  0
SPLINE
  5
2F8
100
AcDbEntity
  8
0
100
AcDbSpline
 62
7
  6
BYLAYER
 70
0
 71
3
 72
15
 73
11
 74
0
 42
0.0000001
 43
0.0000001
 44
0.0000000001
 40
0.0
 40
0.0
 40
0.0
 40
0.0
 40
0.1080131034
 40
0.2180626503
 40
0.3320005748
 40
0.4513599967
 40
0.577279215
 40
0.7104936063
 40
0.8514155933
 40
1.0
 40
1.0
 40
1.0
 40
1.0
 10
48.5627059917
 20
126.1393293957
 30
0.0
 10
48.4397429582
 20
126.2103205709
 30
0.0
 10
48.1786731737
 20
126.3325795214
 30
0.0
 10
47.7562452143
 20
126.4493885583
 30
0.0
 10
47.3059264321
 20
126.4996058043
 30
0.0
 10
46.8325134249
 20
126.4831363668
 30
0.0
 10
46.3405747657
 20
126.4006101073
 30
0.0
 10
45.8346711217
 20
126.2531279242
 30
0.0
 10
45.3196001339
 20
126.0423048815
 30
0.0
 10
44.9819226987
 20
125.8655348871
 30
0.0
 10
44.8127736292
 20
125.7678772093
 30
0.0
  0
SPLINE
  5
2F9
100
AcDbEntity
  8
0
100
AcDbSpline
 62
7
  6
BYLAYER
 70
0
 71
3
 72
23
 73
19
 74
0
 42
0.0000001
 43
0.0000001
 44
0.0000000001
 40
0.0
 40
0.0
 40
0.0
 40
0.0
 40
0.0443993507
 40
0.0881232639
 40
0.1333331832
 40
0.1818560102
 40
0.2348853553
 40
0.2929442063
 40
0.3559871143
 40
0.4235305456
 40
0.4947681555
 40
0.56866551
 40
0.6440402474
 40
0.7196321218
 40
0.7941724376
 40
0.8664389957
 40
0.9353531208
 40
1.0
 40
1.0
 40
1.0
 40
1.0
 10
50.9480700923
 20
112.7807242836
 30
0.0
 10
50.8579194617
 20
112.7964152698
 30
0.0
 10
50.6817876418
 20
112.8503488448
 30
0.0
 10
50.4486713568
 20
113.0023388071
 30
0.0
 10
50.2599925417
 20
113.2179954713
 30
0.0
 10
50.1204421466
 20
113.4891774726
 30
0.0
 10
50.0318815633
 20
113.8079430629
 30
0.0
 10
49.9952934806
 20
114.1663815401
 30
0.0
 10
50.0109506231
 20
114.5559692049
 30
0.0
 10
50.0782238144
 20
114.9673632749
 30
0.0
 10
50.1953753304
 20
115.3905446395
 30
0.0
 10
50.3594843204
 20
115.815089578
 30
0.0
 10
50.5664718407
 20
116.2304678873
 30
0.0
 10
50.8111836466
 20
116.6263564969
 30
0.0
 10
51.0875330995
 20
116.9928794497
 30
0.0
 10
51.3886729158
 20
117.3209904649
 30
0.0
 10
51.7071045101
 20
117.6024468642
 30
0.0
 10
51.9338686132
 20
117.7600228751
 30
0.0
 10
52.0483197058
 20
117.8282334424
 30
0.0
  0
SPLINE
  5
2FA
100
AcDbEntity
  8
0
100
AcDbSpline
 62
7
  6
BYLAYER
 70
0
 71
3
 72
13
 73
9
 74
0
 42
0.0000001
 43
0.0000001
 44
0.0000000001
 40
0.0
 40
0.0
 40
0.0
 40
0.0
 40
0.1143598618
 40
0.2298911108
 40
0.3476971652
 40
0.4687773516
 40
0.7237217862
 40
1.0
 40
1.0
 40
1.0
 40
1.0
 10
36.6358799292
 20
113.9726891878
 30
0.0
 10
36.7437693453
 20
113.9104051192
 30
0.0
 10
36.9687412619
 20
113.7986641588
 30
0.0
 10
37.3269734718
 20
113.6729459734
 30
0.0
 10
37.7048591851
 20
113.5894715618
 30
0.0
 10
38.2409548318
 20
113.5339090187
 30
0.0
 10
38.9553899118
 20
113.5772209227
 30
0.0
 10
39.5197432662
 20
113.7183152347
 30
0.0
 10
39.8055032573
 20
113.8127559149
 30
0.0
  0
SPLINE
  5
2FB
100
AcDbEntity
  8
0
100
AcDbSpline
 62
7
  6
BYLAYER
 70
0
 71
3
 72
9
 73
5
 74
0
 42
0.0000001
 43
0.0000001
 44
0.0000000001
 40
0.0
 40
0.0
 40
0.0
 40
0.0
 40
0.2389515414
 40
1.0
 40
1.0
 40
1.0
 40
1.0
 10
30.4798126983
 20
117.5352148979
 30
0.0
 10
30.4165528055
 20
117.4777163781
 30
0.0
 10
30.1444406007
 20
117.2452289278
 30
0.0
 10
29.845706974
 20
117.0447352349
 30
0.0
 10
29.6099145386
 20
116.9086012215
 30
0.0
  0
SPLINE
  5
2FC
100
AcDbEntity
  8
0
100
AcDbSpline
 62
7
  6
BYLAYER
 70
0
 71
3
 72
24
 73
20
 74
0
 42
0.0000001
 43
0.0000001
 44
0.0000000001
 40
0.0
 40
0.0
 40
0.0
 40
0.0
 40
0.0623836129
 40
0.1287343978
 40
0.198329277
 40
0.2703120366
 40
0.3436941381
 40
0.4174328955
 40
0.4904640499
 40
0.5617566743
 40
0.6303592825
 40
0.6954516478
 40
0.7564036943
 40
0.812845159
 40
0.8647494083
 40
0.9125273438
 40
0.9571045687
 40
0.978666499
 40
1.0
 40
1.0
 40
1.0
 40
1.0
 10
29.1856487035
 20
112.7444326217
 30
0.0
 10
28.9790764808
 20
112.6251688052
 30
0.0
 10
28.5363462994
 20
112.4068938747
 30
0.0
 10
27.8221968619
 20
112.148106045
 30
0.0
 10
27.0504188749
 20
111.9522093215
 30
0.0
 10
26.2375922661
 20
111.8233034273
 30
0.0
 10
25.4008982939
 20
111.7641598725
 30
0.0
 10
24.5582091424
 20
111.7760090456
 30
0.0
 10
23.727493476
 20
111.8586215827
 30
0.0
 10
22.9264649007
 20
112.0102322383
 30
0.0
 10
22.1721398381
 20
112.2276332277
 30
0.0
 10
21.4804617977
 20
112.5062857207
 30
0.0
 10
20.8659597403
 20
112.8405125262
 30
0.0
 10
20.3414995519
 20
113.2237134446
 30
0.0
 10
19.9182580403
 20
113.6488055103
 30
0.0
 10
19.6059748311
 20
114.1078776816
 30
0.0
 10
19.443834224
 20
114.5169062545
 30
0.0
 10
19.3803062727
 20
114.8460298115
 30
0.0
 10
19.36978745
 20
115.0102466096
 30
0.0
 10
19.3697872718
 20
115.091816946
 30
0.0
  0
SPLINE
  5
2FD
100
AcDbEntity
  8
0
100
AcDbSpline
 62
7
  6
BYLAYER
 70
0
 71
3
 72
23
 73
19
 74
0
 42
0.0000001
 43
0.0000001
 44
0.0000000001
 40
0.0
 40
0.0
 40
0.0
 40
0.0
 40
0.0623907604
 40
0.1287441031
 40
0.1983463182
 40
0.2703347844
 40
0.3437235709
 40
0.4174683299
 40
0.4905055579
 40
0.5618044696
 40
0.6304133024
 40
0.6955114549
 40
0.756468616
 40
0.8129145776
 40
0.8648230121
 40
0.9126050605
 40
0.9571862398
 40
1.0
 40
1.0
 40
1.0
 40
1.0
 10
29.6099145386
 20
115.4388968706
 30
0.0
 10
29.3817802405
 20
115.3071842584
 30
0.0
 10
28.8928599727
 20
115.0661281628
 30
0.0
 10
28.1041858988
 20
114.7803477646
 30
0.0
 10
27.2518865197
 20
114.5639993344
 30
0.0
 10
26.3542353976
 20
114.4216505702
 30
0.0
 10
25.4302354764
 20
114.3563367815
 30
0.0
 10
24.4996135157
 20
114.3694264453
 30
0.0
 10
23.5822152628
 20
114.4606557668
 30
0.0
 10
22.6975976372
 20
114.6280787611
 30
0.0
 10
21.8645552702
 20
114.8681603265
 30
0.0
 10
21.1007001518
 20
115.1758933921
 30
0.0
 10
20.4220790682
 20
115.5449941743
 30
0.0
 10
19.8429015743
 20
115.968211421
 30
0.0
 10
19.3754969544
 20
116.4375835519
 30
0.0
 10
19.0306402231
 20
116.9448198194
 30
0.0
 10
18.8181189142
 20
117.4798869048
 30
0.0
 10
18.7697676062
 20
117.8504572748
 30
0.0
 10
18.7697791389
 20
118.0312256253
 30
0.0
  0
SPLINE
  5
2FE
100
AcDbEntity
  8
0
100
AcDbSpline
 62
7
  6
BYLAYER
 70
0
 71
3
 72
11
 73
7
 74
0
 42
0.0000001
 43
0.0000001
 44
0.0000000001
 40
0.0
 40
0.0
 40
0.0
 40
0.0
 40
0.2233413876
 40
0.4631672303
 40
0.7218695986
 40
1.0
 40
1.0
 40
1.0
 40
1.0
 10
31.2560099554
 20
117.0880217367
 30
0.0
 10
31.1823124792
 20
116.9281894995
 30
0.0
 10
30.9946494599
 20
116.6120983475
 30
0.0
 10
30.6214905198
 20
116.1796154122
 30
0.0
 10
30.1550154864
 20
115.7803332673
 30
0.0
 10
29.7997314275
 20
115.5484870484
 30
0.0
 10
29.6099145386
 20
115.4388968706
 30
0.0
  0
SPLINE
  5
2FF
100
AcDbEntity
  8
0
100
AcDbSpline
 62
7
  6
BYLAYER
 70
0
 71
3
 72
23
 73
19
 74
0
 42
0.0000001
 43
0.0000001
 44
0.0000000001
 40
0.0
 40
0.0
 40
0.0
 40
0.0
 40
0.0623907604
 40
0.1287441031
 40
0.1983463182
 40
0.2703347844
 40
0.3437235709
 40
0.4174683299
 40
0.4905055579
 40
0.5618044696
 40
0.6304133024
 40
0.6955114549
 40
0.756468616
 40
0.8129145776
 40
0.8648230121
 40
0.9126050605
 40
0.9571862398
 40
1.0
 40
1.0
 40
1.0
 40
1.0
 10
29.6099145386
 20
116.9086012215
 30
0.0
 10
29.3817802405
 20
116.7768886093
 30
0.0
 10
28.8928599727
 20
116.5358325136
 30
0.0
 10
28.1041858988
 20
116.2500521154
 30
0.0
 10
27.2518865197
 20
116.0337036852
 30
0.0
 10
26.3542353976
 20
115.891354921
 30
0.0
 10
25.4302354764
 20
115.8260411324
 30
0.0
 10
24.4996135157
 20
115.8391307962
 30
0.0
 10
23.5822152628
 20
115.9303601177
 30
0.0
 10
22.6975976372
 20
116.097783112
 30
0.0
 10
21.8645552702
 20
116.3378646774
 30
0.0
 10
21.1007001518
 20
116.645597743
 30
0.0
 10
20.4220790682
 20
117.0146985251
 30
0.0
 10
19.8429015743
 20
117.4379157718
 30
0.0
 10
19.3754969544
 20
117.9072879027
 30
0.0
 10
19.0306402231
 20
118.4145241703
 30
0.0
 10
18.8181189142
 20
118.9495912556
 30
0.0
 10
18.7697676062
 20
119.3201616256
 30
0.0
 10
18.7697791389
 20
119.5009299761
 30
0.0
  0
SPLINE
  5
300
100
AcDbEntity
  8
0
100
AcDbSpline
 62
7
  6
BYLAYER
 70
0
 71
3
 72
14
 73
10
 74
0
 42
0.0000001
 43
0.0000001
 44
0.0000000001
 40
0.0
 40
0.0
 40
0.0
 40
0.0
 40
0.1080458639
 40
0.2181277492
 40
0.3321015967
 40
0.4515002437
 40
0.5774484329
 40
0.7107159422
 40
1.0
 40
1.0
 40
1.0
 40
1.0
 10
30.869748296
 20
115.0918169744
 30
0.0
 10
30.8697485337
 20
114.9829638783
 30
0.0
 10
30.8508688438
 20
114.7627618712
 30
0.0
 10
30.7664733979
 20
114.4375234133
 30
0.0
 10
30.6272079522
 20
114.1192778962
 30
0.0
 10
30.4347986423
 20
113.8112894711
 30
0.0
 10
30.1914206755
 20
113.5162620534
 30
0.0
 10
29.7915237607
 20
113.133519805
 30
0.0
 10
29.4380481629
 20
112.8901546477
 30
0.0
 10
29.1856487035
 20
112.7444326217
 30
0.0
  0
SPLINE
  5
301
100
AcDbEntity
  8
0
100
AcDbSpline
 62
7
  6
BYLAYER
 70
0
 71
3
 72
19
 73
15
 74
0
 42
0.0000001
 43
0.0000001
 44
0.0000000001
 40
0.0
 40
0.0
 40
0.0
 40
0.0
 40
0.1306263527
 40
0.269560863
 40
0.4115801729
 40
0.5510758079
 40
0.6182425979
 40
0.6828617756
 40
0.7444430602
 40
0.8026146008
 40
0.8571585001
 40
0.9080505283
 40
0.9555020648
 40
1.0
 40
1.0
 40
1.0
 40
1.0
 10
29.0333437081
 20
118.3616657338
 30
0.0
 10
28.5705625451
 20
118.1693647999
 30
0.0
 10
27.5770671836
 20
117.8621768639
 30
0.0
 10
26.0101295082
 20
117.6294211725
 30
0.0
 10
24.3919859545
 20
117.6181095674
 30
0.0
 10
23.0609076506
 20
117.7960992903
 30
0.0
 10
22.0511084116
 20
118.0519606303
 30
0.0
 10
21.3483992148
 20
118.2925973482
 30
0.0
 10
20.7013043568
 20
118.5807775198
 30
0.0
 10
20.1192552491
 20
118.9124469368
 30
0.0
 10
19.6107679086
 20
119.2829481997
 30
0.0
 10
19.1833063689
 20
119.6873287261
 30
0.0
 10
18.8435078833
 20
120.1199846624
 30
0.0
 10
18.6746348604
 20
120.4323146892
 30
0.0
 10
18.6085127791
 20
120.5897045115
 30
0.0
  0
SPLINE
  5
302
100
AcDbEntity
  8
0
100
AcDbSpline
 62
7
  6
BYLAYER
 70
0
 71
3
 72
20
 73
16
 74
0
 42
0.0000001
 43
0.0000001
 44
0.0000000001
 40
0.0
 40
0.0
 40
0.0
 40
0.0
 40
0.1461097309
 40
0.2951545156
 40
0.4413687514
 40
0.5117420576
 40
0.5794471267
 40
0.6439836992
 40
0.7049742994
 40
0.7621977433
 40
0.8156286733
 40
0.8654821222
 40
0.9122541403
 40
0.9567394644
 40
1.0
 40
1.0
 40
1.0
 40
1.0
 10
27.9766534837
 20
118.9426646024
 30
0.0
 10
27.3604106586
 20
118.8066275566
 30
0.0
 10
26.0927366999
 20
118.6279109099
 30
0.0
 10
24.1809730021
 20
118.62561093
 30
0.0
 10
22.6104866122
 20
118.842792423
 30
0.0
 10
21.4202366138
 20
119.1489918566
 30
0.0
 10
20.5921543304
 20
119.4353924985
 30
0.0
 10
19.829462459
 20
119.7772515349
 30
0.0
 10
19.1430270978
 20
120.1698206258
 30
0.0
 10
18.5426750246
 20
120.6077272672
 30
0.0
 10
18.0370872843
 20
121.0851726413
 30
0.0
 10
17.6338649963
 20
121.5959391268
 30
0.0
 10
17.3396563698
 20
122.133455333
 30
0.0
 10
17.1602109258
 20
122.6898655855
 30
0.0
 10
17.1197712753
 20
123.069989539
 30
0.0
 10
17.1197712979
 20
123.2568411315
 30
0.0
  0
SPLINE
  5
303
100
AcDbEntity
  8
0
100
AcDbSpline
 62
7
  6
BYLAYER
 70
0
 71
3
 72
14
 73
10
 74
0
 42
0.0000001
 43
0.0000001
 44
0.0000000001
 40
0.0
 40
0.0
 40
0.0
 40
0.0
 40
0.2711601102
 40
0.3999775084
 40
0.5248645804
 40
0.6465174458
 40
0.7657020619
 40
0.8832476316
 40
1.0
 40
1.0
 40
1.0
 40
1.0
 10
19.4628899827
 20
141.6280618845
 30
0.0
 10
19.1051846839
 20
141.4215418667
 30
0.0
 10
18.6058749705
 20
141.0600460139
 30
0.0
 10
18.0551701156
 20
140.4781775775
 30
0.0
 10
17.7175668261
 20
140.0145912618
 30
0.0
 10
17.451974058
 20
139.5229496365
 30
0.0
 10
17.260791719
 20
139.0096745799
 30
0.0
 10
17.145501386
 20
138.4819496296
 30
0.0
 10
17.1197793909
 20
138.1245333399
 30
0.0
 10
17.119779141
 20
137.9466914801
 30
0.0
  0
SPLINE
  5
304
100
AcDbEntity
  8
0
100
AcDbSpline
 62
7
  6
BYLAYER
 70
0
 71
3
 72
16
 73
12
 74
0
 42
0.0000001
 43
0.0000001
 44
0.0000000001
 40
0.0
 40
0.0
 40
0.0
 40
0.0
 40
0.0562417263
 40
0.1155015808
 40
0.2410339052
 40
0.3725988346
 40
0.5061861037
 40
0.6382515347
 40
0.7658747022
 40
0.886870793
 40
1.0
 40
1.0
 40
1.0
 40
1.0
 10
30.7765984816
 20
140.7903006885
 30
0.0
 10
30.5852189654
 20
140.9007912041
 30
0.0
 10
30.1847787937
 20
141.1150487541
 30
0.0
 10
29.3256140668
 20
141.5143963195
 30
0.0
 10
28.1584855741
 20
141.9486856189
 30
0.0
 10
26.6728446749
 20
142.3441644326
 30
0.0
 10
25.1292341862
 20
142.5936034682
 30
0.0
 10
23.5822450229
 20
142.6697384813
 30
0.0
 10
22.0862030388
 20
142.5504246196
 30
0.0
 10
20.6969638134
 20
142.2226338025
 30
0.0
 10
19.8478447873
 20
141.8503143179
 30
0.0
 10
19.4628899827
 20
141.6280618845
 30
0.0
  0
SPLINE
  5
305
100
AcDbEntity
  8
0
100
AcDbSpline
 62
7
  6
BYLAYER
 70
0
 71
3
 72
10
 73
6
 74
0
 42
0.0000001
 43
0.0000001
 44
0.0000000001
 40
0.0
 40
0.0
 40
0.0
 40
0.0
 40
0.4694924144
 40
0.7271610206
 40
1.0
 40
1.0
 40
1.0
 40
1.0
 10
30.3589926049
 20
117.3794660056
 30
0.0
 10
30.2109037448
 20
117.1529268753
 30
0.0
 10
29.9262013202
 20
116.8367809548
 30
0.0
 10
29.474123421
 20
116.4785993908
 30
0.0
 10
29.2157937477
 20
116.3136201653
 30
0.0
 10
29.0795822447
 20
116.2349788868
 30
0.0
  0
SPLINE
  5
306
100
AcDbEntity
  8
0
100
AcDbSpline
 62
7
  6
BYLAYER
 70
0
 71
3
 72
16
 73
12
 74
0
 42
0.0000001
 43
0.0000001
 44
0.0000000001
 40
0.0
 40
0.0
 40
0.0
 40
0.0
 40
0.1169597591
 40
0.2439163301
 40
0.3774567199
 40
0.513440143
 40
0.6474843407
 40
0.7754002396
 40
0.8359649366
 40
0.8937578732
 40
1.0
 40
1.0
 40
1.0
 40
1.0
 10
29.0088712722
 20
118.1945836425
 30
0.0
 10
28.7080365494
 20
118.0208976711
 30
0.0
 10
28.0440370344
 20
117.7206025318
 30
0.0
 10
26.9602053627
 20
117.4207565411
 30
0.0
 10
25.7898474087
 20
117.262641374
 30
0.0
 10
24.5880881013
 20
117.2539443812
 30
0.0
 10
23.4114309692
 20
117.3949625498
 30
0.0
 10
22.4806516972
 20
117.6360864453
 30
0.0
 10
21.7979642657
 20
117.9010440728
 30
0.0
 10
21.1982493329
 20
118.193831584
 30
0.0
 10
20.7891146654
 20
118.4667852101
 30
0.0
 10
20.5501151559
 20
118.6728092283
 30
0.0
  0
SPLINE
  5
307
100
AcDbEntity
  8
0
100
AcDbSpline
 62
7
  6
BYLAYER
 70
0
 71
3
 72
23
 73
19
 74
0
 42
0.0000001
 43
0.0000001
 44
0.0000000001
 40
0.0
 40
0.0
 40
0.0
 40
0.0
 40
0.042824961
 40
0.0875513481
 40
0.1355522341
 40
0.1876966999
 40
0.2443538299
 40
0.3054707458
 40
0.3706635585
 40
0.4392981313
 40
0.510557423
 40
0.5834985687
 40
0.6571033822
 40
0.7303232004
 40
0.8021297619
 40
0.8715523319
 40
0.9377436751
 40
1.0
 40
1.0
 40
1.0
 40
1.0
 10
18.7704315236
 20
120.3872149195
 30
0.0
 10
18.7749019076
 20
120.207203436
 30
0.0
 10
18.8320772613
 20
119.8388825618
 30
0.0
 10
19.0552078538
 20
119.3092046104
 30
0.0
 10
19.4082804652
 20
118.8078498559
 30
0.0
 10
19.8816307289
 20
118.344544412
 30
0.0
 10
20.4645921573
 20
117.9274016599
 30
0.0
 10
21.1449315229
 20
117.5642168304
 30
0.0
 10
21.9085712135
 20
117.2620652117
 30
0.0
 10
22.7396523598
 20
117.0270553228
 30
0.0
 10
23.6208086291
 20
116.8640347299
 30
0.0
 10
24.5335406689
 20
116.7764051003
 30
0.0
 10
25.4586241925
 20
116.7660139884
 30
0.0
 10
26.3765704236
 20
116.833064787
 30
0.0
 10
27.2680162932
 20
116.9761717502
 30
0.0
 10
28.1143219507
 20
117.1923173058
 30
0.0
 10
28.8975517043
 20
117.4770009074
 30
0.0
 10
29.3832143546
 20
117.7166943702
 30
0.0
 10
29.6099145386
 20
117.8475790012
 30
0.0
  0
SPLINE
  5
308
100
AcDbEntity
  8
0
100
AcDbSpline
 62
7
  6
BYLAYER
 70
0
 71
3
 72
14
 73
10
 74
0
 42
0.0000001
 43
0.0000001
 44
0.0000000001
 40
0.0
 40
0.0
 40
0.0
 40
0.0
 40
0.1166719712
 40
0.2342292201
 40
0.3534885094
 40
0.4752343889
 40
0.6001906906
 40
0.7290240409
 40
1.0
 40
1.0
 40
1.0
 40
1.0
 10
17.119779141
 20
137.9466914801
 30
0.0
 10
17.119778891
 20
137.7687493173
 30
0.0
 10
17.1455338897
 20
137.4109925921
 30
0.0
 10
17.2608651407
 20
136.8825826343
 30
0.0
 10
17.452053337
 20
136.3682991524
 30
0.0
 10
17.7175502909
 20
135.8754125114
 30
0.0
 10
18.0550449374
 20
135.4105214394
 30
0.0
 10
18.6055426069
 20
134.8272807774
 30
0.0
 10
19.1050251523
 20
134.4650301032
 30
0.0
 10
19.4629370862
 20
134.2583942266
 30
0.0
  0
SPLINE
  5
309
100
AcDbEntity
  8
0
100
AcDbSpline
 62
7
  6
BYLAYER
 70
0
 71
3
 72
9
 73
5
 74
0
 42
0.0000001
 43
0.0000001
 44
0.0000000001
 40
0.0
 40
0.0
 40
0.0
 40
0.0
 40
0.248989825
 40
1.0
 40
1.0
 40
1.0
 40
1.0
 10
18.7697790571
 20
118.5211270737
 30
0.0
 10
18.769776607
 20
118.4832597537
 30
0.0
 10
18.7738325562
 20
118.3311972952
 30
0.0
 10
18.7943921139
 20
118.1796197958
 30
0.0
 10
18.8184805088
 20
118.0679723386
 30
0.0
  0
SPLINE
  5
30A
100
AcDbEntity
  8
0
100
AcDbSpline
 62
7
  6
BYLAYER
 70
0
 71
3
 72
23
 73
19
 74
0
 42
0.0000001
 43
0.0000001
 44
0.0000000001
 40
0.0
 40
0.0
 40
0.0
 40
0.0
 40
0.043373084
 40
0.0894834516
 40
0.139259107
 40
0.1931885847
 40
0.2513704497
 40
0.3135874847
 40
0.3793774469
 40
0.4480931791
 40
0.5189530626
 40
0.591084707
 40
0.6635642538
 40
0.7354527287
 40
0.8058393575
 40
0.8738662463
 40
0.9387948567
 40
1.0
 40
1.0
 40
1.0
 40
1.0
 10
18.8184805088
 20
118.0679723386
 30
0.0
 10
18.8557166911
 20
117.895386117
 30
0.0
 10
18.9759720087
 20
117.5476406084
 30
0.0
 10
19.2728688728
 20
117.0606013293
 30
0.0
 10
19.682342224
 20
116.6046386955
 30
0.0
 10
20.1955597883
 20
116.187667652
 30
0.0
 10
20.8025565148
 20
115.816567238
 30
0.0
 10
21.4918479146
 20
115.4978852567
 30
0.0
 10
22.2504226908
 20
115.2374080961
 30
0.0
 10
23.0638911756
 20
115.0399935056
 30
0.0
 10
23.9167464407
 20
114.9093751196
 30
0.0
 10
24.7926721181
 20
114.8480477348
 30
0.0
 10
25.6748670445
 20
114.8571921885
 30
0.0
 10
26.546421049
 20
114.9366140691
 30
0.0
 10
27.3906011354
 20
115.0848199843
 30
0.0
 10
28.1913699557
 20
115.2989537173
 30
0.0
 10
28.9332549891
 20
115.5749837331
 30
0.0
 10
29.3941475645
 20
115.804225944
 30
0.0
 10
29.6099145386
 20
115.9287983209
 30
0.0
  0
SPLINE
  5
30B
100
AcDbEntity
  8
0
100
AcDbSpline
 62
7
  6
BYLAYER
 70
0
 71
3
 72
10
 73
6
 74
0
 42
0.0000001
 43
0.0000001
 44
0.0000000001
 40
0.0
 40
0.0
 40
0.0
 40
0.0
 40
0.2726751441
 40
0.530270336
 40
1.0
 40
1.0
 40
1.0
 40
1.0
 10
29.6099145386
 20
115.9287983209
 30
0.0
 10
29.7632744166
 20
116.0173401593
 30
0.0
 10
30.0542254578
 20
116.2030093565
 30
0.0
 10
30.5639698667
 20
116.6059610574
 30
0.0
 10
30.8856193387
 20
116.9612513743
 30
0.0
 10
31.0536497615
 20
117.2158616082
 30
0.0
  0
SPLINE
  5
30C
100
AcDbEntity
  8
0
100
AcDbSpline
 62
7
  6
BYLAYER
 70
0
 71
3
 72
21
 73
17
 74
0
 42
0.0000001
 43
0.0000001
 44
0.0000000001
 40
0.0
 40
0.0
 40
0.0
 40
0.0
 40
0.0597846461
 40
0.1230149513
 40
0.1891510621
 40
0.2575931422
 40
0.3983709437
 40
0.5392487602
 40
0.6078084218
 40
0.6741089717
 40
0.737521183
 40
0.7975348366
 40
0.8537985737
 40
0.9061683375
 40
0.9547592996
 40
1.0
 40
1.0
 40
1.0
 40
1.0
 10
29.0795822447
 20
116.2349788868
 30
0.0
 10
28.9023353036
 20
116.1326459285
 30
0.0
 10
28.5252147348
 20
115.943106136
 30
0.0
 10
27.9198735654
 20
115.7107095012
 30
0.0
 10
27.2676158153
 20
115.5254459086
 30
0.0
 10
26.3417372472
 20
115.3437476616
 30
0.0
 10
25.1417992885
 20
115.2523972997
 30
0.0
 10
23.9410809684
 20
115.3383289629
 30
0.0
 10
23.0130347944
 20
115.5157246988
 30
0.0
 10
22.3583180469
 20
115.6980133583
 30
0.0
 10
21.7497435167
 20
115.9276229449
 30
0.0
 10
21.1973589414
 20
116.200862161
 30
0.0
 10
20.7103083596
 20
116.5133708087
 30
0.0
 10
20.2966167676
 20
116.8603906485
 30
0.0
 10
19.9634134985
 20
117.2364991126
 30
0.0
 10
19.7937323252
 20
117.5118392406
 30
0.0
 10
19.7262703153
 20
117.6512515224
 30
0.0
  0
SPLINE
  5
30D
100
AcDbEntity
  8
0
100
AcDbSpline
 62
7
  6
BYLAYER
 70
0
 71
3
 72
11
 73
7
 74
0
 42
0.0000001
 43
0.0000001
 44
0.0000000001
 40
0.0
 40
0.0
 40
0.0
 40
0.0
 40
0.2260149959
 40
0.4685263411
 40
0.7269853593
 40
1.0
 40
1.0
 40
1.0
 40
1.0
 10
46.7926337562
 20
131.5436475986
 30
0.0
 10
45.8365755245
 20
131.2795952907
 30
0.0
 10
43.8943702249
 20
130.5820157959
 30
0.0
 10
41.0447650687
 20
129.1325059138
 30
0.0
 10
38.1990101815
 20
127.267302476
 30
0.0
 10
36.379074629
 20
125.8024855932
 30
0.0
 10
35.4789723608
 20
125.0117411367
 30
0.0
  0
SPLINE
  5
30E
100
AcDbEntity
  8
0
100
AcDbSpline
 62
7
  6
BYLAYER
 70
0
 71
3
 72
13
 73
9
 74
0
 42
0.0000001
 43
0.0000001
 44
0.0000000001
 40
0.0
 40
0.0
 40
0.0
 40
0.0
 40
0.111645533
 40
0.2327239673
 40
0.3589227257
 40
0.4873408659
 40
0.7451159691
 40
1.0
 40
1.0
 40
1.0
 40
1.0
 10
19.4629370862
 20
124.3811351538
 30
0.0
 10
19.642140367
 20
124.277674432
 30
0.0
 10
20.0074011271
 20
124.0476162594
 30
0.0
 10
20.5523738872
 20
123.6659415307
 30
0.0
 10
21.1127148643
 20
123.252525084
 30
0.0
 10
21.873849129
 20
122.6846202426
 30
0.0
 10
22.8365847785
 20
121.9879141529
 30
0.0
 10
23.638644139
 20
121.4764738336
 30
0.0
 10
24.0477619416
 20
121.2402773975
 30
0.0
  0
SPLINE
  5
30F
100
AcDbEntity
  8
0
100
AcDbSpline
 62
7
  6
BYLAYER
 70
0
 71
3
 72
15
 73
11
 74
0
 42
0.0000001
 43
0.0000001
 44
0.0000000001
 40
0.0
 40
0.0
 40
0.0
 40
0.0
 40
0.1287594946
 40
0.2706314204
 40
0.417882011
 40
0.5623894944
 40
0.6962075843
 40
0.8135924465
 40
0.9130628059
 40
1.0
 40
1.0
 40
1.0
 40
1.0
 10
132.3176165416
 20
66.6340262331
 30
0.0
 10
132.3620056403
 20
66.6596541382
 30
0.0
 10
132.4481911416
 20
66.7260612641
 30
0.0
 10
132.5586059383
 20
66.8515266113
 30
0.0
 10
132.6493869747
 20
66.9993245207
 30
0.0
 10
132.7132222932
 20
67.1571431893
 30
0.0
 10
132.7448801406
 20
67.3125400825
 30
0.0
 10
132.7415321235
 20
67.4535814835
 30
0.0
 10
132.7019551455
 20
67.5706723311
 30
0.0
 10
132.6475700048
 20
67.6262203642
 30
0.0
 10
132.6176066108
 20
67.643537424
 30
0.0
  0
SPLINE
  5
310
100
AcDbEntity
  8
0
100
AcDbSpline
 62
7
  6
BYLAYER
 70
0
 71
3
 72
11
 73
7
 74
0
 42
0.0000001
 43
0.0000001
 44
0.0000000001
 40
0.0
 40
0.0
 40
0.0
 40
0.0
 40
0.2267896336
 40
0.4747469159
 40
0.7362924732
 40
1.0
 40
1.0
 40
1.0
 40
1.0
 10
53.4212183062
 20
117.9293854854
 30
0.0
 10
53.4722308109
 20
117.8999327661
 30
0.0
 10
53.5659996623
 20
117.8152171144
 30
0.0
 10
53.6640739788
 20
117.6482374019
 30
0.0
 10
53.7144662965
 20
117.4513833689
 30
0.0
 10
53.7141715094
 20
117.3132361068
 30
0.0
 10
53.7050036076
 20
117.2453592108
 30
0.0
  0
SPLINE
  5
311
100
AcDbEntity
  8
0
100
AcDbSpline
 62
7
  6
BYLAYER
 70
0
 71
3
 72
12
 73
8
 74
0
 42
0.0000001
 43
0.0000001
 44
0.0000000001
 40
0.0
 40
0.0
 40
0.0
 40
0.0
 40
0.3896853105
 40
0.6908376531
 40
0.804523976
 40
0.8924947932
 40
1.0
 40
1.0
 40
1.0
 40
1.0
 10
65.355162257
 20
108.532816691
 30
0.0
 10
65.3247167976
 20
108.5503939499
 30
0.0
 10
65.2697141614
 20
108.5799377575
 30
0.0
 10
65.2033743334
 20
108.6092348698
 30
0.0
 10
65.1592463991
 20
108.6217863439
 30
0.0
 10
65.1327116509
 20
108.6264879783
 30
0.0
 10
65.1115591491
 20
108.6228965065
 30
0.0
 10
65.1061957884
 20
108.6148159552
 30
0.0
  0
SPLINE
  5
312
100
AcDbEntity
  8
0
100
AcDbSpline
 62
7
  6
BYLAYER
 70
0
 71
3
 72
13
 73
9
 74
0
 42
0.0000001
 43
0.0000001
 44
0.0000000001
 40
0.0
 40
0.0
 40
0.0
 40
0.0
 40
0.1008753288
 40
0.205119438
 40
0.3154644939
 40
0.4337248437
 40
0.6973107275
 40
1.0
 40
1.0
 40
1.0
 40
1.0
 10
67.8434603798
 20
109.8690446769
 30
0.0
 10
67.7922498821
 20
109.8986110898
 30
0.0
 10
67.680991247
 20
109.9472109057
 30
0.0
 10
67.4983340676
 20
109.9831017488
 30
0.0
 10
67.3021986549
 20
109.9840347154
 30
0.0
 10
67.0162755574
 20
109.9381837717
 30
0.0
 10
66.6386232062
 20
109.7896211066
 30
0.0
 10
66.3610337824
 20
109.603602265
 30
0.0
 10
66.2223513652
 20
109.4929201011
 30
0.0
  0
SPLINE
  5
313
100
AcDbEntity
  8
0
100
AcDbSpline
 62
7
  6
BYLAYER
 70
0
 71
3
 72
9
 73
5
 74
0
 42
0.0000001
 43
0.0000001
 44
0.0000000001
 40
0.0
 40
0.0
 40
0.0
 40
0.0
 40
0.4803004399
 40
1.0
 40
1.0
 40
1.0
 40
1.0
 10
66.2223513652
 20
109.4929201011
 30
0.0
 10
66.0599903018
 20
109.3633400563
 30
0.0
 10
65.7473655287
 20
109.0612774714
 30
0.0
 10
65.4816944064
 20
108.7182163614
 30
0.0
 10
65.3558489245
 20
108.5319774469
 30
0.0
  0
SPLINE
  5
314
100
AcDbEntity
  8
0
100
AcDbSpline
 62
7
  6
BYLAYER
 70
0
 71
3
 72
12
 73
8
 74
0
 42
0.0000001
 43
0.0000001
 44
0.0000000001
 40
0.0
 40
0.0
 40
0.0
 40
0.0
 40
0.1018157632
 40
0.206746611
 40
0.4343752974
 40
0.6969369194
 40
1.0
 40
1.0
 40
1.0
 40
1.0
 10
64.1750369282
 20
111.9865344188
 30
0.0
 10
64.1246097893
 20
112.0156296392
 30
0.0
 10
64.015516394
 20
112.0637848168
 30
0.0
 10
63.771354082
 20
112.1165256224
 30
0.0
 10
63.4249811596
 20
112.0922750554
 30
0.0
 10
62.996062561
 20
111.9317126474
 30
0.0
 10
62.7238501249
 20
111.7526336483
 30
0.0
 10
62.586794678
 20
111.6465850865
 30
0.0
  0
SPLINE
  5
315
100
AcDbEntity
  8
0
100
AcDbSpline
 62
7
  6
BYLAYER
 70
0
 71
3
 72
15
 73
11
 74
0
 42
0.0000001
 43
0.0000001
 44
0.0000000001
 40
0.0
 40
0.0
 40
0.0
 40
0.0
 40
0.1182103046
 40
0.2458441355
 40
0.3793994712
 40
0.5150372051
 40
0.6484368631
 40
0.7754531582
 40
0.8930287578
 40
1.0
 40
1.0
 40
1.0
 40
1.0
 10
62.586794678
 20
111.6465850865
 30
0.0
 10
62.4344182915
 20
111.528681734
 30
0.0
 10
62.1386242083
 20
111.2556797485
 30
0.0
 10
61.745013462
 20
110.7765924636
 30
0.0
 10
61.4028873208
 20
110.2255191097
 30
0.0
 10
61.1288103086
 20
109.6275204099
 30
0.0
 10
60.9329212391
 20
109.0107045603
 30
0.0
 10
60.8269487724
 20
108.4013664086
 30
0.0
 10
60.8230649364
 20
107.825676297
 30
0.0
 10
60.8902179564
 20
107.4625897918
 30
0.0
 10
60.9425609812
 20
107.2962856736
 30
0.0
  0
SPLINE
  5
316
100
AcDbEntity
  8
0
100
AcDbSpline
 62
7
  6
BYLAYER
 70
0
 71
3
 72
12
 73
8
 74
0
 42
0.0000001
 43
0.0000001
 44
0.0000000001
 40
0.0
 40
0.0
 40
0.0
 40
0.0
 40
0.1016697031
 40
0.2061871703
 40
0.4338536708
 40
0.6977842753
 40
1.0
 40
1.0
 40
1.0
 40
1.0
 10
56.8111349969
 20
116.235899391
 30
0.0
 10
56.7610059935
 20
116.2648153372
 30
0.0
 10
56.6529534215
 20
116.3130572507
 30
0.0
 10
56.4101682891
 20
116.3662639971
 30
0.0
 10
56.0646895351
 20
116.3363120134
 30
0.0
 10
55.6399214477
 20
116.1719444678
 30
0.0
 10
55.3673505314
 20
115.9959679647
 30
0.0
 10
55.2307587089
 20
115.8913995661
 30
0.0
  0
SPLINE
  5
317
100
AcDbEntity
  8
0
100
AcDbSpline
 62
7
  6
BYLAYER
 70
0
 71
3
 72
15
 73
11
 74
0
 42
0.0000001
 43
0.0000001
 44
0.0000000001
 40
0.0
 40
0.0
 40
0.0
 40
0.0
 40
0.1244168989
 40
0.2605314599
 40
0.4019765507
 40
0.5421362474
 40
0.675424939
 40
0.7971546891
 40
0.9045886049
 40
1.0
 40
1.0
 40
1.0
 40
1.0
 10
55.2307587089
 20
115.8913995661
 30
0.0
 10
55.0447117413
 20
115.7489705896
 30
0.0
 10
54.6878301556
 20
115.40707936
 30
0.0
 10
54.2353340685
 20
114.7969021043
 30
0.0
 10
53.8607752098
 20
114.1018904364
 30
0.0
 10
53.5980939039
 20
113.3624176348
 30
0.0
 10
53.4676430248
 20
112.626138926
 30
0.0
 10
53.4729212522
 20
111.938456358
 30
0.0
 10
53.6291289594
 20
111.3393410559
 30
0.0
 10
53.8454693422
 20
111.0125911605
 30
0.0
 10
53.9726772848
 20
110.8856903063
 30
0.0
  0
SPLINE
  5
318
100
AcDbEntity
  8
0
100
AcDbSpline
 62
7
  6
BYLAYER
 70
0
 71
3
 72
9
 73
5
 74
0
 42
0.0000001
 43
0.0000001
 44
0.0000000001
 40
0.0
 40
0.0
 40
0.0
 40
0.0
 40
0.2527454313
 40
1.0
 40
1.0
 40
1.0
 40
1.0
 10
53.9726772848
 20
110.8856903063
 30
0.0
 10
53.992255998
 20
110.8661588574
 30
0.0
 10
54.0720797172
 20
110.791292745
 30
0.0
 10
54.161523241
 20
110.7266105323
 30
0.0
 10
54.2322777155
 20
110.6856337508
 30
0.0
  0
SPLINE
  5
319
100
AcDbEntity
  8
0
100
AcDbSpline
 62
7
  6
BYLAYER
 70
0
 71
3
 72
13
 73
9
 74
0
 42
0.0000001
 43
0.0000001
 44
0.0000000001
 40
0.0
 40
0.0
 40
0.0
 40
0.0
 40
0.1015029068
 40
0.2062056363
 40
0.3168288042
 40
0.4351855678
 40
0.6984320518
 40
1.0
 40
1.0
 40
1.0
 40
1.0
 10
63.2462475344
 20
112.5228742001
 30
0.0
 10
63.1962546792
 20
112.5517393446
 30
0.0
 10
63.0880037294
 20
112.5995914575
 30
0.0
 10
62.9103248308
 20
112.6359593462
 30
0.0
 10
62.7195962469
 20
112.6387186713
 30
0.0
 10
62.4417021055
 20
112.5973934157
 30
0.0
 10
62.0742322648
 20
112.4585290949
 30
0.0
 10
61.8026414647
 20
112.2831266098
 30
0.0
 10
61.6667883334
 20
112.1784377123
 30
0.0
  0
SPLINE
  5
31A
100
AcDbEntity
  8
0
100
AcDbSpline
 62
7
  6
BYLAYER
 70
0
 71
3
 72
19
 73
15
 74
0
 42
0.0000001
 43
0.0000001
 44
0.0000000001
 40
0.0
 40
0.0
 40
0.0
 40
0.0
 40
0.1276847774
 40
0.2673598271
 40
0.4116008965
 40
0.5532737683
 40
0.6210442692
 40
0.6856730592
 40
0.746563459
 40
0.8035326948
 40
0.8567929928
 40
0.9067580323
 40
0.954129663
 40
1.0
 40
1.0
 40
1.0
 40
1.0
 10
61.6667883334
 20
112.1784377123
 30
0.0
 10
61.4652163646
 20
112.0231056491
 30
0.0
 10
61.0821472881
 20
111.6467106896
 30
0.0
 10
60.6004181085
 20
110.9788432733
 30
0.0
 10
60.2196868384
 20
110.216568225
 30
0.0
 10
60.0132028476
 20
109.5385494645
 30
0.0
 10
59.9257413251
 20
108.9986649792
 30
0.0
 10
59.9024579675
 20
108.6133743287
 30
0.0
 10
59.9230629127
 20
108.2492771046
 30
0.0
 10
59.9886646825
 20
107.9134085671
 30
0.0
 10
60.0965543458
 20
107.6114935555
 30
0.0
 10
60.2449158835
 20
107.3486457295
 30
0.0
 10
60.4318308697
 20
107.1304073042
 30
0.0
 10
60.5821969395
 20
107.0179383572
 30
0.0
 10
60.6614051528
 20
106.9722899298
 30
0.0
  0
SPLINE
  5
31B
100
AcDbEntity
  8
0
100
AcDbSpline
 62
7
  6
BYLAYER
 70
0
 71
3
 72
13
 73
9
 74
0
 42
0.0000001
 43
0.0000001
 44
0.0000000001
 40
0.0
 40
0.0
 40
0.0
 40
0.0
 40
0.1122589512
 40
0.2419103165
 40
0.512184673
 40
0.7758439797
 40
0.8942318075
 40
1.0
 40
1.0
 40
1.0
 40
1.0
 10
67.5816902718
 20
108.9888590942
 30
0.0
 10
67.6080900868
 20
108.9640860197
 30
0.0
 10
67.6683298737
 20
108.9144928591
 30
0.0
 10
67.7978500808
 20
108.8112082964
 30
0.0
 10
67.919364582
 20
108.6290989621
 30
0.0
 10
67.987596669
 20
108.4280154054
 30
0.0
 10
68.0084808255
 20
108.2716846054
 30
0.0
 10
68.0053469309
 20
108.1987098352
 30
0.0
 10
67.9989814439
 20
108.1651993183
 30
0.0
  0
SPLINE
  5
31C
100
AcDbEntity
  8
0
100
AcDbSpline
 62
7
  6
BYLAYER
 70
0
 71
3
 72
9
 73
5
 74
0
 42
0.0000001
 43
0.0000001
 44
0.0000000001
 40
0.0
 40
0.0
 40
0.0
 40
0.0
 40
0.2642563067
 40
1.0
 40
1.0
 40
1.0
 40
1.0
 10
67.9989814439
 20
108.1651993183
 30
0.0
 10
67.9965533944
 20
108.1524170771
 30
0.0
 10
67.9847283449
 20
108.1046185042
 30
0.0
 10
67.9619411242
 20
108.0592759505
 30
0.0
 10
67.9394343368
 20
108.030891495
 30
0.0
  0
SPLINE
  5
31D
100
AcDbEntity
  8
0
100
AcDbSpline
 62
7
  6
BYLAYER
 70
0
 71
3
 72
11
 73
7
 74
0
 42
0.0000001
 43
0.0000001
 44
0.0000000001
 40
0.0
 40
0.0
 40
0.0
 40
0.0
 40
0.2054508258
 40
0.4330597751
 40
0.6972366975
 40
1.0
 40
1.0
 40
1.0
 40
1.0
 10
62.3278697498
 20
113.0505163438
 30
0.0
 10
62.2266168501
 20
113.1089175011
 30
0.0
 10
61.9843522793
 20
113.1870384476
 30
0.0
 10
61.5815479599
 20
113.1529938832
 30
0.0
 10
61.1562174085
 20
112.9881718225
 30
0.0
 10
60.8836590293
 20
112.8118680299
 30
0.0
 10
60.7468698958
 20
112.7071794043
 30
0.0
  0
SPLINE
  5
31E
100
AcDbEntity
  8
0
100
AcDbSpline
 62
7
  6
BYLAYER
 70
0
 71
3
 72
16
 73
12
 74
0
 42
0.0000001
 43
0.0000001
 44
0.0000000001
 40
0.0
 40
0.0
 40
0.0
 40
0.0
 40
0.1303133254
 40
0.2701180775
 40
0.4129057442
 40
0.5523213543
 40
0.6832892154
 40
0.7443643993
 40
0.8019455085
 40
0.9062583196
 40
1.0
 40
1.0
 40
1.0
 40
1.0
 10
60.5446709439
 20
112.5394150395
 30
0.0
 10
60.3660024506
 20
112.3793645359
 30
0.0
 10
60.0288157696
 20
112.0098087094
 30
0.0
 10
59.6084314283
 20
111.3737880362
 30
0.0
 10
59.2738299142
 20
110.6695167166
 30
0.0
 10
59.0568592763
 20
109.9372932955
 30
0.0
 10
58.9833041316
 20
109.3278568551
 30
0.0
 10
58.9974545395
 20
108.8677058526
 30
0.0
 10
59.0565103723
 20
108.4608686177
 30
0.0
 10
59.2160674571
 20
108.0104006171
 30
0.0
 10
59.4534570006
 20
107.7207459019
 30
0.0
 10
59.5876110803
 20
107.6122223561
 30
0.0
  0
SPLINE
  5
31F
100
AcDbEntity
  8
0
100
AcDbSpline
 62
7
  6
BYLAYER
 70
0
 71
3
 72
8
 73
4
 74
0
 42
0.0000001
 43
0.0000001
 44
0.0000000001
 40
0.0
 40
0.0
 40
0.0
 40
0.0
 40
1.0
 40
1.0
 40
1.0
 40
1.0
 10
67.2813520777
 20
109.0183640601
 30
0.0
 10
67.2967612531
 20
109.0274824274
 30
0.0
 10
67.3136033756
 20
109.034491127
 30
0.0
 10
67.3309082209
 20
109.0390878257
 30
0.0
  0
SPLINE
  5
320
100
AcDbEntity
  8
0
100
AcDbSpline
 62
7
  6
BYLAYER
 70
0
 71
3
 72
9
 73
5
 74
0
 42
0.0000001
 43
0.0000001
 44
0.0000000001
 40
0.0
 40
0.0
 40
0.0
 40
0.0
 40
0.2383212691
 40
1.0
 40
1.0
 40
1.0
 40
1.0
 10
67.3309082209
 20
109.0390878257
 30
0.0
 10
67.3391276612
 20
109.0412711616
 30
0.0
 10
67.3741895377
 20
109.0482888924
 30
0.0
 10
67.4106128695
 20
109.0468776161
 30
0.0
 10
67.4374423678
 20
109.0425238678
 30
0.0
  0
SPLINE
  5
321
100
AcDbEntity
  8
0
100
AcDbSpline
 62
7
  6
BYLAYER
 70
0
 71
3
 72
9
 73
5
 74
0
 42
0.0000001
 43
0.0000001
 44
0.0000000001
 40
0.0
 40
0.0
 40
0.0
 40
0.0
 40
0.2335239671
 40
1.0
 40
1.0
 40
1.0
 40
1.0
 10
67.4374423678
 20
109.0425238678
 30
0.0
 10
67.4484534737
 20
109.0407370441
 30
0.0
 10
67.495215038
 20
109.0307103938
 30
0.0
 10
67.5398774329
 20
109.0119401819
 30
0.0
 10
67.5719895818
 20
108.9943514276
 30
0.0
  0
SPLINE
  5
322
100
AcDbEntity
  8
0
100
AcDbSpline
 62
7
  6
BYLAYER
 70
0
 71
3
 72
15
 73
11
 74
0
 42
0.0000001
 43
0.0000001
 44
0.0000000001
 40
0.0
 40
0.0
 40
0.0
 40
0.0
 40
0.1399624868
 40
0.2810474009
 40
0.4198304485
 40
0.5531942403
 40
0.678938883
 40
0.7955686121
 40
0.9023171691
 40
1.0
 40
1.0
 40
1.0
 40
1.0
 10
65.3380674114
 20
108.5071653092
 30
0.0
 10
65.2321285693
 20
108.3471349722
 30
0.0
 10
65.0377733376
 20
108.0132805494
 30
0.0
 10
64.8025574525
 20
107.4867280945
 30
0.0
 10
64.6288707279
 20
106.9460281056
 30
0.0
 10
64.5270910107
 20
106.4084150021
 30
0.0
 10
64.5016044473
 20
105.8920366043
 30
0.0
 10
64.5516072423
 20
105.4137199065
 30
0.0
 10
64.6771275697
 20
104.9886531355
 30
0.0
 10
64.8195370598
 20
104.7428432374
 30
0.0
 10
64.9025431842
 20
104.6377194548
 30
0.0
  0
SPLINE
  5
323
100
AcDbEntity
  8
0
100
AcDbSpline
 62
7
  6
BYLAYER
 70
0
 71
3
 72
9
 73
5
 74
0
 42
0.0000001
 43
0.0000001
 44
0.0000000001
 40
0.0
 40
0.0
 40
0.0
 40
0.0
 40
0.5052842281
 40
1.0
 40
1.0
 40
1.0
 40
1.0
 10
64.9025431842
 20
104.6377194548
 30
0.0
 10
64.9550956486
 20
104.5711639581
 30
0.0
 10
65.0711867685
 20
104.4484538844
 30
0.0
 10
65.2085883926
 20
104.3500384521
 30
0.0
 10
65.2804545158
 20
104.3084575246
 30
0.0
  0
SPLINE
  5
324
100
AcDbEntity
  8
0
100
AcDbSpline
 62
7
  6
BYLAYER
 70
0
 71
3
 72
11
 73
7
 74
0
 42
0.0000001
 43
0.0000001
 44
0.0000000001
 40
0.0
 40
0.0
 40
0.0
 40
0.0
 40
0.2057919863
 40
0.433449569
 40
0.6968151517
 40
1.0
 40
1.0
 40
1.0
 40
1.0
 10
61.3991994981
 20
113.5872157848
 30
0.0
 10
61.2967959362
 20
113.6431261125
 30
0.0
 10
61.0539519392
 20
113.7149054535
 30
0.0
 10
60.6534310742
 20
113.6824096824
 30
0.0
 10
60.229541457
 20
113.517246171
 30
0.0
 10
59.9598221813
 20
113.3391696449
 30
0.0
 10
59.8238721365
 20
113.2339874211
 30
0.0
  0
SPLINE
  5
325
100
AcDbEntity
  8
0
100
AcDbSpline
 62
7
  6
BYLAYER
 70
0
 71
3
 72
16
 73
12
 74
0
 42
0.0000001
 43
0.0000001
 44
0.0000000001
 40
0.0
 40
0.0
 40
0.0
 40
0.0
 40
0.2625736219
 40
0.404179019
 40
0.544091059
 40
0.6763139134
 40
0.7970173509
 40
0.8524777563
 40
0.9045392204
 40
0.9534710101
 40
1.0
 40
1.0
 40
1.0
 40
1.0
 10
59.736677545
 20
113.1641884383
 30
0.0
 10
59.3635807448
 20
112.8554602559
 30
0.0
 10
58.8814574601
 20
112.2635665372
 30
0.0
 10
58.4259077945
 20
111.3682009274
 30
0.0
 10
58.1775827332
 20
110.6430674158
 30
0.0
 10
58.058421267
 20
109.9248530314
 30
0.0
 10
58.0745957768
 20
109.3514121023
 30
0.0
 10
58.1619854731
 20
108.9386136574
 30
0.0
 10
58.2601418663
 20
108.666107741
 30
0.0
 10
58.3931170029
 20
108.4272161069
 30
0.0
 10
58.5067835375
 20
108.2910765545
 30
0.0
 10
58.5680262131
 20
108.2309654455
 30
0.0
  0
SPLINE
  5
326
100
AcDbEntity
  8
0
100
AcDbSpline
 62
7
  6
BYLAYER
 70
0
 71
3
 72
12
 73
8
 74
0
 42
0.0000001
 43
0.0000001
 44
0.0000000001
 40
0.0
 40
0.0
 40
0.0
 40
0.0
 40
0.2322432909
 40
0.3583452207
 40
0.4865024028
 40
0.7439697356
 40
1.0
 40
1.0
 40
1.0
 40
1.0
 10
67.5541778484
 20
103.9398391367
 30
0.0
 10
67.3341502058
 20
104.0666083205
 30
0.0
 10
67.0509932575
 20
104.3584445455
 30
0.0
 10
66.7713085124
 20
104.8101356818
 30
0.0
 10
66.5352645004
 20
105.3191906018
 30
0.0
 10
66.3368435467
 20
105.9960334469
 30
0.0
 10
66.2731498731
 20
106.5574466796
 30
0.0
 10
66.2689209
 20
106.8373575742
 30
0.0
  0
SPLINE
  5
327
100
AcDbEntity
  8
0
100
AcDbSpline
 62
7
  6
BYLAYER
 70
0
 71
3
 72
9
 73
5
 74
0
 42
0.0000001
 43
0.0000001
 44
0.0000000001
 40
0.0
 40
0.0
 40
0.0
 40
0.0
 40
0.2539246423
 40
1.0
 40
1.0
 40
1.0
 40
1.0
 10
66.2689209
 20
106.8373575742
 30
0.0
 10
66.2681235743
 20
106.8901316525
 30
0.0
 10
66.2689297326
 20
107.0979865537
 30
0.0
 10
66.2860009593
 20
107.3059326948
 30
0.0
 10
66.3095990466
 20
107.4592039598
 30
0.0
  0
SPLINE
  5
328
100
AcDbEntity
  8
0
100
AcDbSpline
 62
7
  6
BYLAYER
 70
0
 71
3
 72
9
 73
5
 74
0
 42
0.0000001
 43
0.0000001
 44
0.0000000001
 40
0.0
 40
0.0
 40
0.0
 40
0.0
 40
0.2594326985
 40
1.0
 40
1.0
 40
1.0
 40
1.0
 10
66.3095990466
 20
107.4592039598
 30
0.0
 10
66.3191647643
 20
107.52133398
 30
0.0
 10
66.3629287587
 20
107.7596262453
 30
0.0
 10
66.4369545745
 20
107.9929753517
 30
0.0
 10
66.5113399619
 20
108.1562754372
 30
0.0
  0
SPLINE
  5
329
100
AcDbEntity
  8
0
100
AcDbSpline
 62
7
  6
BYLAYER
 70
0
 71
3
 72
9
 73
5
 74
0
 42
0.0000001
 43
0.0000001
 44
0.0000000001
 40
0.0
 40
0.0
 40
0.0
 40
0.0
 40
0.2547251803
 40
1.0
 40
1.0
 40
1.0
 40
1.0
 10
66.5113399619
 20
108.1562754372
 30
0.0
 10
66.5274671076
 20
108.1916797602
 30
0.0
 10
66.5943733689
 20
108.3289782776
 30
0.0
 10
66.6764755509
 20
108.4590788316
 30
0.0
 10
66.7462613623
 20
108.5490032169
 30
0.0
  0
SPLINE
  5
32A
100
AcDbEntity
  8
0
100
AcDbSpline
 62
7
  6
BYLAYER
 70
0
 71
3
 72
9
 73
5
 74
0
 42
0.0000001
 43
0.0000001
 44
0.0000000001
 40
0.0
 40
0.0
 40
0.0
 40
0.0
 40
0.2513040063
 40
1.0
 40
1.0
 40
1.0
 40
1.0
 10
67.6952547571
 20
107.8139516434
 30
0.0
 10
67.7084180654
 20
107.8308226688
 30
0.0
 10
67.7628954983
 20
107.8962670616
 30
0.0
 10
67.8264366767
 20
107.9543787252
 30
0.0
 10
67.8783049233
 20
107.9914461612
 30
0.0
  0
SPLINE
  5
32B
100
AcDbEntity
  8
0
100
AcDbSpline
 62
7
  6
BYLAYER
 70
0
 71
3
 72
10
 73
6
 74
0
 42
0.0000001
 43
0.0000001
 44
0.0000000001
 40
0.0
 40
0.0
 40
0.0
 40
0.0
 40
0.5228440276
 40
0.7720588147
 40
1.0
 40
1.0
 40
1.0
 40
1.0
 10
61.7005843739
 20
107.1883512328
 30
0.0
 10
61.5921366744
 20
107.1216734465
 30
0.0
 10
61.4044813331
 20
107.0590632144
 30
0.0
 10
61.1595872049
 20
107.0727705942
 30
0.0
 10
61.0473435651
 20
107.1112626628
 30
0.0
 10
60.9992785833
 20
107.1390133887
 30
0.0
  0
SPLINE
  5
32C
100
AcDbEntity
  8
0
100
AcDbSpline
 62
7
  6
BYLAYER
 70
0
 71
3
 72
12
 73
8
 74
0
 42
0.0000001
 43
0.0000001
 44
0.0000000001
 40
0.0
 40
0.0
 40
0.0
 40
0.0
 40
0.1012918317
 40
0.2054817597
 40
0.4327735488
 40
0.6970250834
 40
1.0
 40
1.0
 40
1.0
 40
1.0
 10
66.9234469924
 20
110.3975038254
 30
0.0
 10
66.8725504022
 20
110.4268734032
 30
0.0
 10
66.7627211491
 20
110.4757486511
 30
0.0
 10
66.515693216
 20
110.5290687835
 30
0.0
 10
66.1638371792
 20
110.4963112068
 30
0.0
 10
65.7321303591
 20
110.3244058745
 30
0.0
 10
65.4555828256
 20
110.1419903833
 30
0.0
 10
65.3170912524
 20
110.0337616078
 30
0.0
  0
SPLINE
  5
32D
100
AcDbEntity
  8
0
100
AcDbSpline
 62
7
  6
BYLAYER
 70
0
 71
3
 72
17
 73
13
 74
0
 42
0.0000001
 43
0.0000001
 44
0.0000000001
 40
0.0
 40
0.0
 40
0.0
 40
0.0
 40
0.1281445902
 40
0.2683448429
 40
0.4129682231
 40
0.5543563725
 40
0.6863116258
 40
0.747249034
 40
0.8042226713
 40
0.9066841508
 40
0.9540269695
 40
1.0
 40
1.0
 40
1.0
 40
1.0
 10
65.3170912524
 20
110.0337616078
 30
0.0
 10
65.1169132398
 20
109.8773259439
 30
0.0
 10
64.735898806
 20
109.4998528395
 30
0.0
 10
64.2630301584
 20
108.8276998315
 30
0.0
 10
63.8858966118
 20
108.0673661737
 30
0.0
 10
63.6466042752
 20
107.2698435538
 30
0.0
 10
63.5733482495
 20
106.6062548459
 30
0.0
 10
63.6029770106
 20
106.1104427512
 30
0.0
 10
63.6858338429
 20
105.6807465508
 30
0.0
 10
63.857821916
 20
105.2972706004
 30
0.0
 10
64.1157913081
 20
105.0041333671
 30
0.0
 10
64.2659975505
 20
104.8931121982
 30
0.0
 10
64.3449089613
 20
104.847502567
 30
0.0
  0
SPLINE
  5
32E
100
AcDbEntity
  8
0
100
AcDbSpline
 62
7
  6
BYLAYER
 70
0
 71
3
 72
9
 73
5
 74
0
 42
0.0000001
 43
0.0000001
 44
0.0000000001
 40
0.0
 40
0.0
 40
0.0
 40
0.0
 40
0.5018040676
 40
1.0
 40
1.0
 40
1.0
 40
1.0
 10
65.6850989791
 20
106.8780739029
 30
0.0
 10
65.8192024716
 20
107.0043570659
 30
0.0
 10
66.0626416316
 20
107.2818939811
 30
0.0
 10
66.2580443869
 20
107.5948767729
 30
0.0
 10
66.3406093825
 20
107.7580576761
 30
0.0
  0
SPLINE
  5
32F
100
AcDbEntity
  8
0
100
AcDbSpline
 62
7
  6
BYLAYER
 70
0
 71
3
 72
9
 73
5
 74
0
 42
0.0000001
 43
0.0000001
 44
0.0000000001
 40
0.0
 40
0.0
 40
0.0
 40
0.0
 40
0.2468839246
 40
1.0
 40
1.0
 40
1.0
 40
1.0
 10
66.0121298471
 20
110.9239898518
 30
0.0
 10
65.9896227189
 20
110.9369791022
 30
0.0
 10
65.8960726151
 20
110.985406075
 30
0.0
 10
65.7936596635
 20
111.0162042715
 30
0.0
 10
65.7155064377
 20
111.0294698686
 30
0.0
  0
SPLINE
  5
330
100
AcDbEntity
  8
0
100
AcDbSpline
 62
7
  6
BYLAYER
 70
0
 71
3
 72
11
 73
7
 74
0
 42
0.0000001
 43
0.0000001
 44
0.0000000001
 40
0.0
 40
0.0
 40
0.0
 40
0.0
 40
0.2097312104
 40
0.4434912652
 40
0.7070087135
 40
1.0
 40
1.0
 40
1.0
 40
1.0
 10
65.7155064377
 20
111.0294698686
 30
0.0
 10
65.6176871816
 20
111.0460735446
 30
0.0
 10
65.4047345774
 20
111.0491882586
 30
0.0
 10
65.0771939745
 20
110.9690128394
 30
0.0
 10
64.7379337933
 20
110.8072850445
 30
0.0
 10
64.5198423434
 20
110.6581015675
 30
0.0
 10
64.4104807128
 20
110.5729439778
 30
0.0
  0
SPLINE
  5
331
100
AcDbEntity
  8
0
100
AcDbSpline
 62
7
  6
BYLAYER
 70
0
 71
3
 72
18
 73
14
 74
0
 42
0.0000001
 43
0.0000001
 44
0.0000000001
 40
0.0
 40
0.0
 40
0.0
 40
0.0
 40
0.127893925
 40
0.1966795664
 40
0.2676771149
 40
0.4123312372
 40
0.5539875378
 40
0.6857913805
 40
0.7467749502
 40
0.8039810272
 40
0.9067709442
 40
0.9540403063
 40
1.0
 40
1.0
 40
1.0
 40
1.0
 10
64.4104807128
 20
110.5729439778
 30
0.0
 10
64.2101948301
 20
110.4169855954
 30
0.0
 10
63.92829078
 20
110.1422654668
 30
0.0
 10
63.599657485
 20
109.724351763
 30
0.0
 10
63.2906335897
 20
109.2510847833
 30
0.0
 10
62.975543544
 20
108.6122819082
 30
0.0
 10
62.7281574883
 20
107.8161302081
 30
0.0
 10
62.6539335627
 20
107.1511626734
 30
0.0
 10
62.6838846513
 20
106.6545517798
 30
0.0
 10
62.7650114343
 20
106.2231510546
 30
0.0
 10
62.9303296652
 20
105.8348148655
 30
0.0
 10
63.1889368792
 20
105.5405322121
 30
0.0
 10
63.3393432325
 20
105.4298037307
 30
0.0
 10
63.4182976281
 20
105.3841141912
 30
0.0
  0
SPLINE
  5
332
100
AcDbEntity
  8
0
100
AcDbSpline
 62
7
  6
BYLAYER
 70
0
 71
3
 72
11
 73
7
 74
0
 42
0.0000001
 43
0.0000001
 44
0.0000000001
 40
0.0
 40
0.0
 40
0.0
 40
0.0
 40
0.2046428398
 40
0.4319445821
 40
0.6962694577
 40
1.0
 40
1.0
 40
1.0
 40
1.0
 10
60.4722864024
 20
114.1214561323
 30
0.0
 10
60.367903571
 20
114.1774950751
 30
0.0
 10
60.1199838596
 20
114.2485735568
 30
0.0
 10
59.7116132931
 20
114.208539856
 30
0.0
 10
59.2815107263
 20
114.0316917258
 30
0.0
 10
59.0073757259
 20
113.8465591016
 30
0.0
 10
58.8695824458
 20
113.7373233867
 30
0.0
  0
SPLINE
  5
333
100
AcDbEntity
  8
0
100
AcDbSpline
 62
7
  6
BYLAYER
 70
0
 71
3
 72
15
 73
11
 74
0
 42
0.0000001
 43
0.0000001
 44
0.0000000001
 40
0.0
 40
0.0
 40
0.0
 40
0.0
 40
0.2557184685
 40
0.3948146284
 40
0.5337774196
 40
0.601502242
 40
0.6672398736
 40
0.7305860226
 40
0.7911848348
 40
1.0
 40
1.0
 40
1.0
 40
1.0
 10
58.8695824458
 20
113.7373233867
 30
0.0
 10
58.5141185895
 20
113.4555291772
 30
0.0
 10
58.0485920628
 20
112.9112126229
 30
0.0
 10
57.590205925
 20
112.0818583281
 30
0.0
 10
57.3663825026
 20
111.5080022512
 30
0.0
 10
57.2428152308
 20
111.0403502608
 30
0.0
 10
57.1818642477
 20
110.6962913453
 30
0.0
 10
57.1519508101
 20
110.3602205606
 30
0.0
 10
57.1534307384
 20
109.7722373648
 30
0.0
 10
57.2684233803
 20
109.2743538007
 30
0.0
 10
57.477422916
 20
108.9685384893
 30
0.0
  0
SPLINE
  5
334
100
AcDbEntity
  8
0
100
AcDbSpline
 62
7
  6
BYLAYER
 70
0
 71
3
 72
9
 73
5
 74
0
 42
0.0000001
 43
0.0000001
 44
0.0000000001
 40
0.0
 40
0.0
 40
0.0
 40
0.0
 40
0.5078338951
 40
1.0
 40
1.0
 40
1.0
 40
1.0
 10
57.477422916
 20
108.9685384893
 30
0.0
 10
57.5337898126
 20
108.8860605068
 30
0.0
 10
57.6620175227
 20
108.7345610871
 30
0.0
 10
57.8212860484
 20
108.6157667546
 30
0.0
 10
57.9050881546
 20
108.5672822127
 30
0.0
  0
SPLINE
  5
335
100
AcDbEntity
  8
0
100
AcDbSpline
 62
7
  6
BYLAYER
 70
0
 71
3
 72
15
 73
11
 74
0
 42
0.0000001
 43
0.0000001
 44
0.0000000001
 40
0.0
 40
0.0
 40
0.0
 40
0.0
 40
0.1287594946
 40
0.2706314204
 40
0.417882011
 40
0.5623894944
 40
0.6962075843
 40
0.8135924465
 40
0.9130628059
 40
1.0
 40
1.0
 40
1.0
 40
1.0
 10
132.3176165416
 20
67.6138291336
 30
0.0
 10
132.2732274429
 20
67.5882012285
 30
0.0
 10
132.1870419416
 20
67.5217941026
 30
0.0
 10
132.0766271449
 20
67.3963287555
 30
0.0
 10
131.9858461086
 20
67.248530846
 30
0.0
 10
131.92201079
 20
67.0907121775
 30
0.0
 10
131.8903529427
 20
66.9353152843
 30
0.0
 10
131.8937009598
 20
66.7942738832
 30
0.0
 10
131.9332779377
 20
66.6771830356
 30
0.0
 10
131.9876630785
 20
66.6216350025
 30
0.0
 10
132.0176264724
 20
66.6043179427
 30
0.0
  0
SPLINE
  5
336
100
AcDbEntity
  8
0
100
AcDbSpline
 62
7
  6
BYLAYER
 70
0
 71
3
 72
9
 73
5
 74
0
 42
0.0000001
 43
0.0000001
 44
0.0000000001
 40
0.0
 40
0.0
 40
0.0
 40
0.0
 40
0.2469808839
 40
1.0
 40
1.0
 40
1.0
 40
1.0
 10
58.6493686382
 20
115.1765023826
 30
0.0
 10
58.6278092726
 20
115.1889493105
 30
0.0
 10
58.5382772088
 20
115.2354158007
 30
0.0
 10
58.4400767072
 20
115.2647187288
 30
0.0
 10
58.3651809856
 20
115.2770280264
 30
0.0
  0
SPLINE
  5
337
100
AcDbEntity
  8
0
100
AcDbSpline
 62
7
  6
BYLAYER
 70
0
 71
3
 72
10
 73
6
 74
0
 42
0.0000001
 43
0.0000001
 44
0.0000000001
 40
0.0
 40
0.0
 40
0.0
 40
0.0
 40
0.443311069
 40
0.707208215
 40
1.0
 40
1.0
 40
1.0
 40
1.0
 10
58.3651809856
 20
115.2770280264
 30
0.0
 10
58.1584458569
 20
115.3110054576
 30
0.0
 10
57.8112073605
 20
115.2530866792
 30
0.0
 10
57.3835684623
 20
115.0533238437
 30
0.0
 10
57.1642076701
 20
114.9050531692
 30
0.0
 10
57.0550603403
 20
114.820000067
 30
0.0
  0
SPLINE
  5
338
100
AcDbEntity
  8
0
100
AcDbSpline
 62
7
  6
BYLAYER
 70
0
 71
3
 72
19
 73
15
 74
0
 42
0.0000001
 43
0.0000001
 44
0.0000000001
 40
0.0
 40
0.0
 40
0.0
 40
0.0
 40
0.1280375063
 40
0.2679263665
 40
0.4121959107
 40
0.5537277129
 40
0.6214132861
 40
0.6859671625
 40
0.7467952541
 40
0.8036822875
 40
0.8568607386
 40
0.9067712605
 40
0.9541255103
 40
1.0
 40
1.0
 40
1.0
 40
1.0
 10
57.0550603403
 20
114.820000067
 30
0.0
 10
56.8543752607
 20
114.6636161351
 30
0.0
 10
56.4735190056
 20
114.2856748994
 30
0.0
 10
55.995378771
 20
113.616869715
 30
0.0
 10
55.6175994765
 20
112.8557642553
 30
0.0
 10
55.4139601447
 20
112.1794722244
 30
0.0
 10
55.3285667622
 20
111.6415126818
 30
0.0
 10
55.3065159048
 20
111.2577570687
 30
0.0
 10
55.3276900068
 20
110.8952232264
 30
0.0
 10
55.3938439848
 20
110.5609445182
 30
0.0
 10
55.5022608169
 20
110.2606864148
 30
0.0
 10
55.6509473816
 20
109.9994125517
 30
0.0
 10
55.8378254501
 20
109.7824775239
 30
0.0
 10
55.9878007744
 20
109.6705309803
 30
0.0
 10
56.0667614671
 20
109.6249816465
 30
0.0
  0
SPLINE
  5
339
100
AcDbEntity
  8
0
100
AcDbSpline
 62
7
  6
BYLAYER
 70
0
 71
3
 72
9
 73
5
 74
0
 42
0.0000001
 43
0.0000001
 44
0.0000000001
 40
0.0
 40
0.0
 40
0.0
 40
0.0
 40
0.2327887066
 40
1.0
 40
1.0
 40
1.0
 40
1.0
 10
65.6207061517
 20
105.7975672609
 30
0.0
 10
65.6799775073
 20
105.8092181436
 30
0.0
 10
65.9312758873
 20
105.8760409726
 30
0.0
 10
66.1643286593
 20
106.002601898
 30
0.0
 10
66.3261647247
 20
106.1185433469
 30
0.0
  0
SPLINE
  5
33A
100
AcDbEntity
  8
0
100
AcDbSpline
 62
7
  6
BYLAYER
 70
0
 71
3
 72
9
 73
5
 74
0
 42
0.0000001
 43
0.0000001
 44
0.0000000001
 40
0.0
 40
0.0
 40
0.0
 40
0.0
 40
0.4802752879
 40
1.0
 40
1.0
 40
1.0
 40
1.0
 10
65.8807535147
 20
105.3463594205
 30
0.0
 10
65.9782240809
 20
105.2901031137
 30
0.0
 10
66.2060355005
 20
105.2119875603
 30
0.0
 10
66.4448770694
 20
105.221678182
 30
0.0
 10
66.5648753582
 20
105.2424574269
 30
0.0
  0
SPLINE
  5
33B
100
AcDbEntity
  8
0
100
AcDbSpline
 62
7
  6
BYLAYER
 70
0
 71
3
 72
17
 73
13
 74
0
 42
0.0000001
 43
0.0000001
 44
0.0000000001
 40
0.0
 40
0.0
 40
0.0
 40
0.0
 40
0.1601191913
 40
0.3195445237
 40
0.4721934573
 40
0.6129293896
 40
0.737136663
 40
0.84134601
 40
0.8862189417
 40
0.9269398672
 40
0.9644292484
 40
1.0
 40
1.0
 40
1.0
 40
1.0
 10
67.6248892746
 20
105.8161444194
 30
0.0
 10
67.7318299341
 20
105.9154317567
 30
0.0
 10
67.9313275222
 20
106.1289795353
 30
0.0
 10
68.1836167654
 20
106.4790012557
 30
0.0
 10
68.3786157681
 20
106.8441981316
 30
0.0
 10
68.5092784464
 20
107.2031333846
 30
0.0
 10
68.5743562492
 20
107.534699241
 30
0.0
 10
68.5703447656
 20
107.7869700198
 30
0.0
 10
68.5265750263
 20
107.9551250872
 30
0.0
 10
68.4789763158
 20
108.0575058069
 30
0.0
 10
68.4157651885
 20
108.1408112658
 30
0.0
 10
68.3629536096
 20
108.1828161969
 30
0.0
 10
68.3350761249
 20
108.1993615275
 30
0.0
  0
SPLINE
  5
33C
100
AcDbEntity
  8
0
100
AcDbSpline
 62
7
  6
BYLAYER
 70
0
 71
3
 72
12
 73
8
 74
0
 42
0.0000001
 43
0.0000001
 44
0.0000000001
 40
0.0
 40
0.0
 40
0.0
 40
0.0
 40
0.1003931246
 40
0.2042133496
 40
0.4311146948
 40
0.6947874898
 40
1.0
 40
1.0
 40
1.0
 40
1.0
 10
54.9814930761
 20
117.2948561934
 30
0.0
 10
54.9286641592
 20
117.3253603316
 30
0.0
 10
54.8136969814
 20
117.3751933774
 30
0.0
 10
54.5550707335
 20
117.4262323496
 30
0.0
 10
54.1879638779
 20
117.3898603638
 30
0.0
 10
53.7362600232
 20
117.2046142846
 30
0.0
 10
53.4515974261
 20
117.0038816615
 30
0.0
 10
53.3087666774
 20
116.8855813522
 30
0.0
  0
SPLINE
  5
33D
100
AcDbEntity
  8
0
100
AcDbSpline
 62
7
  6
BYLAYER
 70
0
 71
3
 72
9
 73
5
 74
0
 42
0.0000001
 43
0.0000001
 44
0.0000000001
 40
0.0
 40
0.0
 40
0.0
 40
0.0
 40
0.2426351006
 40
1.0
 40
1.0
 40
1.0
 40
1.0
 10
53.170136831
 20
116.7646250282
 30
0.0
 10
53.1336060887
 20
116.7311170482
 30
0.0
 10
52.9857438433
 20
116.5900930022
 30
0.0
 10
52.8484539477
 20
116.4380897155
 30
0.0
 10
52.7504772765
 20
116.3183298629
 30
0.0
  0
SPLINE
  5
33E
100
AcDbEntity
  8
0
100
AcDbSpline
 62
7
  6
BYLAYER
 70
0
 71
3
 72
16
 73
12
 74
0
 42
0.0000001
 43
0.0000001
 44
0.0000000001
 40
0.0
 40
0.0
 40
0.0
 40
0.0
 40
0.1394008241
 40
0.2828618498
 40
0.4254909959
 40
0.5622374287
 40
0.6888481608
 40
0.8034581983
 40
0.9061689987
 40
0.9539017639
 40
1.0
 40
1.0
 40
1.0
 40
1.0
 10
52.7504772765
 20
116.3183298629
 30
0.0
 10
52.6059464362
 20
116.1416654397
 30
0.0
 10
52.3380807492
 20
115.7616145661
 30
0.0
 10
52.0183458704
 20
115.1403526773
 30
0.0
 10
51.7839669615
 20
114.4867666769
 30
0.0
 10
51.6466338834
 20
113.8338123169
 30
0.0
 10
51.6221163943
 20
113.2118071709
 30
0.0
 10
51.713035482
 20
112.651876831
 30
0.0
 10
51.8861993477
 20
112.2469802505
 30
0.0
 10
52.0807644754
 20
111.9888740292
 30
0.0
 10
52.1945811874
 20
111.8841088461
 30
0.0
 10
52.254699451
 20
111.8384675936
 30
0.0
  0
SPLINE
  5
33F
100
AcDbEntity
  8
0
100
AcDbSpline
 62
7
  6
BYLAYER
 70
0
 71
3
 72
12
 73
8
 74
0
 42
0.0000001
 43
0.0000001
 44
0.0000000001
 40
0.0
 40
0.0
 40
0.0
 40
0.0
 40
0.1013039977
 40
0.2058422569
 40
0.4332425439
 40
0.6961974301
 40
1.0
 40
1.0
 40
1.0
 40
1.0
 10
59.5783799757
 20
114.640654363
 30
0.0
 10
59.527114676
 20
114.6702419344
 30
0.0
 10
59.4159598864
 20
114.7189707881
 30
0.0
 10
59.166707837
 20
114.7710636146
 30
0.0
 10
58.8130789637
 20
114.7425211508
 30
0.0
 10
58.3761195337
 20
114.5735494974
 30
0.0
 10
58.0994882864
 20
114.3870075527
 30
0.0
 10
57.9604052018
 20
114.2767116251
 30
0.0
  0
SPLINE
  5
340
100
AcDbEntity
  8
0
100
AcDbSpline
 62
7
  6
BYLAYER
 70
0
 71
3
 72
17
 73
13
 74
0
 42
0.0000001
 43
0.0000001
 44
0.0000000001
 40
0.0
 40
0.0
 40
0.0
 40
0.0
 40
0.1282401834
 40
0.2677009286
 40
0.4118861245
 40
0.5534595485
 40
0.6852881184
 40
0.8031249364
 40
0.8566481911
 40
0.9067630458
 40
0.9541394721
 40
1.0
 40
1.0
 40
1.0
 40
1.0
 10
57.9604052018
 20
114.2767116251
 30
0.0
 10
57.7624884686
 20
114.1197593274
 30
0.0
 10
57.38513115
 20
113.746142876
 30
0.0
 10
56.9111747607
 20
113.0834333283
 30
0.0
 10
56.5415554982
 20
112.3277545551
 30
0.0
 10
56.2977485875
 20
111.5383684135
 30
0.0
 10
56.2046692461
 20
110.7684200229
 30
0.0
 10
56.2700534968
 20
110.1672882286
 30
0.0
 10
56.4109672591
 20
109.752741317
 30
0.0
 10
56.5531104891
 20
109.4895352197
 30
0.0
 10
56.7348452444
 20
109.2707461599
 30
0.0
 10
56.882255811
 20
109.1581568654
 30
0.0
 10
56.9596776982
 20
109.1116192107
 30
0.0
  0
SPLINE
  5
341
100
AcDbEntity
  8
0
100
AcDbSpline
 62
7
  6
BYLAYER
 70
0
 71
3
 72
9
 73
5
 74
0
 42
0.0000001
 43
0.0000001
 44
0.0000000001
 40
0.0
 40
0.0
 40
0.0
 40
0.0
 40
0.2478558023
 40
1.0
 40
1.0
 40
1.0
 40
1.0
 10
65.0919560268
 20
111.4578585259
 30
0.0
 10
65.0746640607
 20
111.4678312843
 30
0.0
 10
65.0034119165
 20
111.5054610577
 30
0.0
 10
64.9266055622
 20
111.5323491585
 30
0.0
 10
64.8677110306
 20
111.5465214802
 30
0.0
  0
SPLINE
  5
342
100
AcDbEntity
  8
0
100
AcDbSpline
 62
7
  6
BYLAYER
 70
0
 71
3
 72
11
 73
7
 74
0
 42
0.0000001
 43
0.0000001
 44
0.0000000001
 40
0.0
 40
0.0
 40
0.0
 40
0.0
 40
0.2090063927
 40
0.4420549626
 40
0.7049260445
 40
1.0
 40
1.0
 40
1.0
 40
1.0
 10
64.8677110306
 20
111.5465214802
 30
0.0
 10
64.7674174114
 20
111.5706560372
 30
0.0
 10
64.5458352615
 20
111.5852513856
 30
0.0
 10
64.202097872
 20
111.5145728919
 30
0.0
 10
63.8427777921
 20
111.355684025
 30
0.0
 10
63.6137114303
 20
111.2004180911
 30
0.0
 10
63.498818943
 20
111.1109221362
 30
0.0
  0
SPLINE
  5
343
100
AcDbEntity
  8
0
100
AcDbSpline
 62
7
  6
BYLAYER
 70
0
 71
3
 72
13
 73
9
 74
0
 42
0.0000001
 43
0.0000001
 44
0.0000000001
 40
0.0
 40
0.0
 40
0.0
 40
0.0
 40
0.1134130985
 40
0.2344216742
 40
0.4906464672
 40
0.6219402845
 40
0.7521994945
 40
1.0
 40
1.0
 40
1.0
 40
1.0
 10
63.498818943
 20
111.1109221362
 30
0.0
 10
63.3841060882
 20
111.0215661069
 30
0.0
 10
63.1591444767
 20
110.8209284229
 30
0.0
 10
62.7374977017
 20
110.3530150107
 30
0.0
 10
62.3764809099
 20
109.8039699074
 30
0.0
 10
62.0953359373
 20
109.2016293286
 30
0.0
 10
61.8760312283
 20
108.5860668823
 30
0.0
 10
61.778522309
 20
108.1059503979
 30
0.0
 10
61.7563138344
 20
107.789019806
 30
0.0
  0
SPLINE
  5
344
100
AcDbEntity
  8
0
100
AcDbSpline
 62
7
  6
BYLAYER
 70
0
 71
3
 72
9
 73
5
 74
0
 42
0.0000001
 43
0.0000001
 44
0.0000000001
 40
0.0
 40
0.0
 40
0.0
 40
0.0
 40
0.5310114054
 40
1.0
 40
1.0
 40
1.0
 40
1.0
 10
61.7563138344
 20
107.789019806
 30
0.0
 10
61.739930213
 20
107.5552139764
 30
0.0
 10
61.753081412
 20
107.1100670752
 30
0.0
 10
61.8790958878
 20
106.6792469226
 30
0.0
 10
61.9710369567
 20
106.493782005
 30
0.0
  0
SPLINE
  5
345
100
AcDbEntity
  8
0
100
AcDbSpline
 62
7
  6
BYLAYER
 70
0
 71
3
 72
9
 73
5
 74
0
 42
0.0000001
 43
0.0000001
 44
0.0000000001
 40
0.0
 40
0.0
 40
0.0
 40
0.0
 40
0.5131877062
 40
1.0
 40
1.0
 40
1.0
 40
1.0
 10
61.9934901689
 20
106.4500793268
 30
0.0
 10
62.0528560892
 20
106.3385517264
 30
0.0
 10
62.193841727
 20
106.1328045393
 30
0.0
 10
62.3892613378
 20
105.9761229567
 30
0.0
 10
62.4930323292
 20
105.9161592288
 30
0.0
  0
SPLINE
  5
346
100
AcDbEntity
  8
0
100
AcDbSpline
 62
7
  6
BYLAYER
 70
0
 71
3
 72
12
 73
8
 74
0
 42
0.0000001
 43
0.0000001
 44
0.0000000001
 40
0.0
 40
0.0
 40
0.0
 40
0.0
 40
0.1026774685
 40
0.2081302898
 40
0.4365756225
 40
0.699048712
 40
1.0
 40
1.0
 40
1.0
 40
1.0
 10
68.9289551784
 20
109.2417182298
 30
0.0
 10
68.8862193279
 20
109.2663933324
 30
0.0
 10
68.7942933954
 20
109.3078503032
 30
0.0
 10
68.5883776229
 20
109.3541476784
 30
0.0
 10
68.2967398494
 20
109.336748835
 30
0.0
 10
67.9339919421
 20
109.211964413
 30
0.0
 10
67.6997064222
 20
109.0724966187
 30
0.0
 10
67.5817042564
 20
108.9888525433
 30
0.0
  0
SPLINE
  5
347
100
AcDbEntity
  8
0
100
AcDbSpline
 62
7
  6
BYLAYER
 70
0
 71
3
 72
9
 73
5
 74
0
 42
0.0000001
 43
0.0000001
 44
0.0000000001
 40
0.0
 40
0.0
 40
0.0
 40
0.0
 40
0.2483827423
 40
1.0
 40
1.0
 40
1.0
 40
1.0
 10
57.7320163011
 20
115.7035534083
 30
0.0
 10
57.715294104
 20
115.7131893933
 30
0.0
 10
57.6466757947
 20
115.7497049099
 30
0.0
 10
57.5730622817
 20
115.7767439116
 30
0.0
 10
57.51653495
 20
115.7914230604
 30
0.0
  0
SPLINE
  5
348
100
AcDbEntity
  8
0
100
AcDbSpline
 62
7
  6
BYLAYER
 70
0
 71
3
 72
11
 73
7
 74
0
 42
0.0000001
 43
0.0000001
 44
0.0000000001
 40
0.0
 40
0.0
 40
0.0
 40
0.0
 40
0.2077744565
 40
0.4407682693
 40
0.7049093033
 40
1.0
 40
1.0
 40
1.0
 40
1.0
 10
57.51653495
 20
115.7914230604
 30
0.0
 10
57.4168460119
 20
115.8173105155
 30
0.0
 10
57.1947318704
 20
115.8352345287
 30
0.0
 10
56.849756125
 20
115.760931675
 30
0.0
 10
56.4898122846
 20
115.5985709851
 30
0.0
 10
56.2584490502
 20
115.443631477
 30
0.0
 10
56.1425892774
 20
115.3543344145
 30
0.0
  0
SPLINE
  5
349
100
AcDbEntity
  8
0
100
AcDbSpline
 62
7
  6
BYLAYER
 70
0
 71
3
 72
13
 73
9
 74
0
 42
0.0000001
 43
0.0000001
 44
0.0000000001
 40
0.0
 40
0.0
 40
0.0
 40
0.0
 40
0.2517774847
 40
0.3893078404
 40
0.5273602313
 40
0.6609690596
 40
0.7862918124
 40
1.0
 40
1.0
 40
1.0
 40
1.0
 10
56.1425892774
 20
115.3543344145
 30
0.0
 10
55.7961765437
 20
115.0873423536
 30
0.0
 10
55.3413662619
 20
114.5668992387
 30
0.0
 10
54.8812869382
 20
113.7740396965
 30
0.0
 10
54.6061756372
 20
113.116035413
 30
0.0
 10
54.436144384
 20
112.4438468221
 30
0.0
 10
54.3605488676
 20
111.6277522707
 30
0.0
 10
54.4628528452
 20
111.0158136383
 30
0.0
 10
54.6415805716
 20
110.690436504
 30
0.0
  0
SPLINE
  5
34A
100
AcDbEntity
  8
0
100
AcDbSpline
 62
7
  6
BYLAYER
 70
0
 71
3
 72
9
 73
5
 74
0
 42
0.0000001
 43
0.0000001
 44
0.0000000001
 40
0.0
 40
0.0
 40
0.0
 40
0.0
 40
0.5109161426
 40
1.0
 40
1.0
 40
1.0
 40
1.0
 10
54.6625261383
 20
110.6534699379
 30
0.0
 10
54.7229447555
 20
110.5500689128
 30
0.0
 10
54.8648790432
 20
110.3601658242
 30
0.0
 10
55.0519503637
 20
110.2135042613
 30
0.0
 10
55.151162509
 20
110.1560622003
 30
0.0
  0
SPLINE
  5
34B
100
AcDbEntity
  8
0
100
AcDbSpline
 62
7
  6
BYLAYER
 70
0
 71
3
 72
11
 73
7
 74
0
 42
0.0000001
 43
0.0000001
 44
0.0000000001
 40
0.0
 40
0.0
 40
0.0
 40
0.0
 40
0.289365988
 40
0.5490101627
 40
0.7822679825
 40
1.0
 40
1.0
 40
1.0
 40
1.0
 10
67.9706312011
 20
104.7637379983
 30
0.0
 10
67.9968874001
 20
104.7788913761
 30
0.0
 10
68.0491771164
 20
104.8037301481
 30
0.0
 10
68.129520099
 20
104.8232472765
 30
0.0
 10
68.2049640355
 20
104.8214277765
 30
0.0
 10
68.2504045558
 20
104.8050548468
 30
0.0
 10
68.2701854289
 20
104.7936953625
 30
0.0
  0
SPLINE
  5
34C
100
AcDbEntity
  8
0
100
AcDbSpline
 62
7
  6
BYLAYER
 70
0
 71
3
 72
11
 73
7
 74
0
 42
0.0000001
 43
0.0000001
 44
0.0000000001
 40
0.0
 40
0.0
 40
0.0
 40
0.0
 40
0.2058551918
 40
0.4330286032
 40
0.6964664904
 40
1.0
 40
1.0
 40
1.0
 40
1.0
 10
55.8996416374
 20
116.7621008754
 30
0.0
 10
55.7978516659
 20
116.8208111078
 30
0.0
 10
55.5550174481
 20
116.898558469
 30
0.0
 10
55.1511131311
 20
116.8707018235
 30
0.0
 10
54.7235733665
 20
116.7060854459
 30
0.0
 10
54.451007591
 20
116.5278937557
 30
0.0
 10
54.3136520138
 20
116.4222797756
 30
0.0
  0
SPLINE
  5
34D
100
AcDbEntity
  8
0
100
AcDbSpline
 62
7
  6
BYLAYER
 70
0
 71
3
 72
16
 73
12
 74
0
 42
0.0000001
 43
0.0000001
 44
0.0000000001
 40
0.0
 40
0.0
 40
0.0
 40
0.0
 40
0.2619678467
 40
0.4047940805
 40
0.5458908966
 40
0.6787335908
 40
0.7991908673
 40
0.8541350368
 40
0.9054897378
 40
0.9537740359
 40
1.0
 40
1.0
 40
1.0
 40
1.0
 10
54.3136520138
 20
116.4222797756
 30
0.0
 10
53.9142967057
 20
116.1152117673
 30
0.0
 10
53.3993699541
 20
115.5029443331
 30
0.0
 10
52.9157728029
 20
114.5701600814
 30
0.0
 10
52.6544247683
 20
113.8081487524
 30
0.0
 10
52.5378948322
 20
113.0546713821
 30
0.0
 10
52.5665263666
 20
112.4567379183
 30
0.0
 10
52.672786883
 20
112.0324731166
 30
0.0
 10
52.7888725781
 20
111.757218231
 30
0.0
 10
52.9442526481
 20
111.5217078566
 30
0.0
 10
53.0733949425
 20
111.3917361268
 30
0.0
 10
53.1423015637
 20
111.3355785937
 30
0.0
  0
SPLINE
  5
34E
100
AcDbEntity
  8
0
100
AcDbSpline
 62
7
  6
BYLAYER
 70
0
 71
3
 72
14
 73
10
 74
0
 42
0.0000001
 43
0.0000001
 44
0.0000000001
 40
0.0
 40
0.0
 40
0.0
 40
0.0
 40
0.038115874
 40
0.0700079855
 40
0.1112508098
 40
0.2209977543
 40
0.3604962415
 40
0.6867928941
 40
1.0
 40
1.0
 40
1.0
 40
1.0
 10
66.0630268247
 20
107.8917480488
 30
0.0
 10
66.069669509
 20
107.9021779835
 30
0.0
 10
66.062241014
 20
107.9285854552
 30
0.0
 10
66.0455656369
 20
107.9589544771
 30
0.0
 10
66.0110243452
 20
108.0081525138
 30
0.0
 10
65.9477838118
 20
108.0777441677
 30
0.0
 10
65.8126204555
 20
108.2069922642
 30
0.0
 10
65.6152445102
 20
108.3652687243
 30
0.0
 10
65.4431627241
 20
108.4820138267
 30
0.0
 10
65.3551642279
 20
108.5328185341
 30
0.0
  0
SPLINE
  5
34F
100
AcDbEntity
  8
0
100
AcDbSpline
 62
7
  6
BYLAYER
 70
0
 71
3
 72
22
 73
18
 74
0
 42
0.0000001
 43
0.0000001
 44
0.0000000001
 40
0.0
 40
0.0
 40
0.0
 40
0.0
 40
0.0483214382
 40
0.1023710394
 40
0.2271915105
 40
0.2968943277
 40
0.3696279919
 40
0.443925685
 40
0.5183640235
 40
0.5916368793
 40
0.662468833
 40
0.7296642169
 40
0.7922644042
 40
0.8499180829
 40
0.9030740988
 40
0.9526168097
 40
1.0
 40
1.0
 40
1.0
 40
1.0
 10
53.4212071505
 20
117.9293887315
 30
0.0
 10
53.3091763272
 20
117.9122322216
 30
0.0
 10
53.0760692371
 20
117.846215631
 30
0.0
 10
52.597255546
 20
117.6074979432
 30
0.0
 10
52.1463144021
 20
117.2242399064
 30
0.0
 10
51.740085555
 20
116.7465156187
 30
0.0
 10
51.450814594
 20
116.3272700533
 30
0.0
 10
51.1983346016
 20
115.8723921858
 30
0.0
 10
50.9928048352
 20
115.3929193085
 30
0.0
 10
50.840589383
 20
114.9024826855
 30
0.0
 10
50.7443595056
 20
114.4152928257
 30
0.0
 10
50.7074254921
 20
113.9449617905
 30
0.0
 10
50.7334093658
 20
113.5043302897
 30
0.0
 10
50.8260220718
 20
113.1060136688
 30
0.0
 10
50.9808530076
 20
112.7602831243
 30
0.0
 10
51.1942126846
 20
112.4762664218
 30
0.0
 10
51.3754788823
 20
112.3335845393
 30
0.0
 10
51.4717167462
 20
112.278000908
 30
0.0
  0
SPLINE
  5
350
100
AcDbEntity
  8
0
100
AcDbSpline
 62
7
  6
BYLAYER
 70
0
 71
3
 72
11
 73
7
 74
0
 42
0.0000001
 43
0.0000001
 44
0.0000000001
 40
0.0
 40
0.0
 40
0.0
 40
0.0
 40
0.243714399
 40
0.5133182099
 40
0.7755178227
 40
1.0
 40
1.0
 40
1.0
 40
1.0
 10
67.9706312014
 20
104.7637379981
 30
0.0
 10
67.9026324215
 20
104.7242857568
 30
0.0
 10
67.7757743344
 20
104.6129191761
 30
0.0
 10
67.6350367226
 20
104.4033480947
 30
0.0
 10
67.5507479816
 20
104.1721054868
 30
0.0
 10
67.5408850438
 20
104.011019803
 30
0.0
 10
67.5541778441
 20
103.9398391332
 30
0.0
  0
ENDSEC
  0
SECTION
  2
OBJECTS
  0
DICTIONARY
  5
C
100
AcDbDictionary
280
0
281
1
  3
ACAD_GROUP
350
D
  3
ACAD_MLINESTYLE
350
17
  3
ACAD_LAYOUT
350
1A
  3
ACAD_PLOTSETTINGS
350
19
  3
ACAD_PLOTSTYLENAME
350
E
  0
DICTIONARY
  5
D
102
{ACAD_REACTORS
330
C
102
}
100
AcDbDictionary
280
0
281
1
  0
ACDBDICTIONARYWDFLT
  5
E
102
{ACAD_REACTORS
330
C
102
}
100
AcDbDictionary
281
1
  3
Normal
350
F
100
AcDbDictionaryWithDefault
340
F
  0
DICTIONARY
  5
17
102
{ACAD_REACTORS
330
C
102
}
100
AcDbDictionary
280
0
281
1
  3
Standard
350
18
  0
DICTIONARY
  5
19
102
{ACAD_REACTORS
330
C
102
}
100
AcDbDictionary
281
1
  0
DICTIONARY
  5
1A
102
{ACAD_REACTORS
330
C
102
}
100
AcDbDictionary
281
1
  3
Model
350
351
  3
Layout1
350
352
  0
ACDBPLACEHOLDER
  5
F
102
{ACAD_REACTORS
330
E
102
}
  0
MLINESTYLE
  5
18
102
{ACAD_REACTORS
330
17
102
}
100
AcDbMlineStyle
  2
STANDARD
 70
0
  3

 62
256
 51
90.0
 52
90.0
 71
2
 49
0.5
 62
256
  6
BYLAYER
 49
-0.5
 62
256
  6
BYLAYER
  0
LAYOUT
  5
351
102
{ACAD_REACTORS
330
1A
102
}
100
AcDbPlotSettings
  1

  2
none_device
  4

  6

 40
0.0
 41
0.0
 42
0.0
 43
0.0
 44
210.0
 45
297.0
 46
0.0
 47
0.0
 48
0.0
 49
0.0
140
0.0
141
0.0
142
1.0
143
1.0
 70
1024
 72
1
 73
0
 74
0
  7

 75
0
147
1.0
148
0.0
149
0.0
100
AcDbLayout
  1
Model
 70
0
 71
0
 10
0.0
 20
0.0
 11
210.0
 21
297.0
 12
0.0
 22
0.0
 32
0.0
 14
0.0
 24
0.0
 34
0.0
 15
0.0
 25
0.0
 35
0.0
146
0.0
 13
0.0
 23
0.0
 33
0.0
 16
1.0
 26
0.0
 36
0.0
 17
0.0
 27
1.0
 37
0.0
 76
0
330
210
345
0
346
0
  0
LAYOUT
  5
352
102
{ACAD_REACTORS
330
1A
102
}
100
AcDbPlotSettings
  1

  2
none_device
  4

  6

 40
0.0
 41
0.0
 42
0.0
 43
0.0
 44
210.0
 45
297.0
 46
0.0
 47
0.0
 48
0.0
 49
0.0
140
0.0
141
0.0
142
1.0
143
1.0
 70
0
 72
1
 73
0
 74
0
  7

 75
0
147
1.0
148
0.0
149
0.0
100
AcDbLayout
  1
Layout1
 70
0
 71
1
 10
0.0
 20
0.0
 11
210.0
 21
297.0
 12
0.0
 22
0.0
 32
0.0
 14
0.0
 24
0.0
 34
0.0
 15
0.0
 25
0.0
 35
0.0
146
0.0
 13
0.0
 23
0.0
 33
0.0
 16
1.0
 26
0.0
 36
0.0
 17
0.0
 27
1.0
 37
0.0
 76
0
330
211
345
0
346
0
  0
ENDSEC
  0
EOF
