999
DXF file: C:\Users\sesa63760\Dev\_Creo\CAD\MCADID0004134_3D-CAD\drw0001_1.dxf
999
Pro/ENGINEER 2019471 by Parametric Technology Corporation
  0
SECTION
  2
HEADER
  9
$ACADVER
  1
AC1024
  9
$DWGCODEPAGE
  3
ANSI_1252
  9
$EXTMAX
 10
65.8820803873
 20
93.1760851191
 30
0.0
  9
$EXTMIN
 10
0.0
 20
0.0
 30
0.0
  9
$LIMMIN
 10
0.0
 20
0.0
  9
$LIMMAX
 10
65.8820803873
 20
93.1760851191
  9
$VIEWCTR
 10
32.9410401936
 20
46.5880425596
  9
$VIEWSIZE
 40
93.1760851191
  9
$CLAYER
  8
0
  9
$LTSCALE
 40
6.0737003633
  9
$CELTYPE
  6
BYLAYER
  9
$DIMSCALE
 40
1.0
  9
$DIMASZ
 40
0.7843104808
  9
$DIMEXO
 40
1.0
  9
$DIMDLI
 40
4.1963747965
  9
$DIMEXE
 40
1.0
  9
$DIMCEN
 40
0.9938782413
  9
$DIMLFAC
 40
1.0
  9
$DIMBLK
  1
_FILLED
  9
$DIMALT
 70
0
  9
$DIMALTF
 40
0.0393700787
  9
$DIMTXT
 40
1.0980346731
  9
$DIMTOL
 70
1
  9
$DIMLIM
 70
0
  9
$DIMTFAC
 40
1.0
  9
$DIMTP
 40
0.01
  9
$DIMTM
 40
0.01
  9
$DIMGAP
 40
0.625
  9
$DIMDSEP
 70
46
  9
$AUNITS
 70
0
  9
$PDMODE
 70
3
  9
$PDSIZE
 40
0.3125
  9
$HANDSEED
  5
31D
  9
$TILEMODE
 70
1
  9
$MEASUREMENT
 70
1
  9
$INSUNITS
 70
4
  0
ENDSEC
  0
SECTION
  2
CLASSES
  0
CLASS
  1
ACDBDICTIONARYWDFLT
  2
AcDbDictionaryWithDefault
  3
AutoCAD 2000
 90
0
 91
1
280
0
281
0
  0
CLASS
  1
ACDBPLACEHOLDER
  2
AcDbPlaceHolder
  3
AutoCAD 2000
 90
0
 91
1
280
0
281
0
  0
CLASS
  1
LAYOUT
  2
AcDbLayout
  3
AutoCAD 2000
 90
0
 91
0
280
0
281
0
  0
ENDSEC
  0
SECTION
  2
TABLES
  0
TABLE
  2
VPORT
  5
8
100
AcDbSymbolTable
 70
2
  0
VPORT
  5
1F4
100
AcDbSymbolTableRecord
100
AcDbViewportTableRecord
  2
*ACTIVE
 70
0
 10
0.0
 20
0.0
 11
1.0
 21
1.0
 12
32.9410401936
 22
46.5880425596
 13
0.0
 23
0.0
 14
1.0
 24
1.0
 15
0.0
 25
0.0
 16
0.0
 26
0.0
 36
1.0
 17
0.0
 27
0.0
 37
0.0
 40
93.1760851191
 41
0.7070707071
 42
50.0
 43
0.0
 44
0.0
 50
0.0
 51
0.0
 71
0
 72
100
 73
1
 74
1
 75
0
 76
0
 77
0
 78
0
  0
ENDTAB
  0
TABLE
  2
LTYPE
  5
5
100
AcDbSymbolTable
 70
6
  0
LTYPE
  5
14
100
AcDbSymbolTableRecord
100
AcDbLinetypeTableRecord
  2
BYBLOCK
 70
0
  3

 72
65
 73
0
 40
0.0
  0
LTYPE
  5
15
100
AcDbSymbolTableRecord
100
AcDbLinetypeTableRecord
  2
BYLAYER
 70
0
  3

 72
65
 73
0
 40
0.0
  0
LTYPE
  5
16
100
AcDbSymbolTableRecord
100
AcDbLinetypeTableRecord
  2
CONTINUOUS
 70
64
  3
Solid line
 72
65
 73
0
 40
0.0
  0
LTYPE
  5
1F5
100
AcDbSymbolTableRecord
100
AcDbLinetypeTableRecord
  2
CENTER
 70
64
  3
____ _ ____ _ ____ _ ____ _ ____ _ ____ _ ____
 72
65
 73
4
 40
0.6
 49
0.375
 74
0
 49
-0.075
 74
0
 49
0.075
 74
0
 49
-0.075
 74
0
  0
LTYPE
  5
1F6
100
AcDbSymbolTableRecord
100
AcDbLinetypeTableRecord
  2
HIDDEN
 70
64
  3
- - - - - - - - - - - - - - - - - - - -
 72
65
 73
2
 40
0.2
 49
0.1
 74
0
 49
-0.1
 74
0
  0
LTYPE
  5
1F7
100
AcDbSymbolTableRecord
100
AcDbLinetypeTableRecord
  2
PHANTOM
 70
64
  3
_____ _ _ _____ _ _ _____ _ _ _____
 72
65
 73
6
 40
0.8
 49
0.45
 74
0
 49
-0.05
 74
0
 49
0.1
 74
0
 49
-0.05
 74
0
 49
0.1
 74
0
 49
-0.05
 74
0
  0
LTYPE
  5
1F8
100
AcDbSymbolTableRecord
100
AcDbLinetypeTableRecord
  2
DOT
 70
64
  3
. . . . . . . . . . . . . . . . . . . .
 72
65
 73
2
 40
0.2
 49
0.1
 74
0
 49
-0.1
 74
0
  0
LTYPE
  5
1F9
100
AcDbSymbolTableRecord
100
AcDbLinetypeTableRecord
  2
DASHED
 70
64
  3
- - - - - - - - - - - - - - - - - - - -
 72
65
 73
2
 40
0.2
 49
0.1
 74
0
 49
-0.1
 74
0
  0
ENDTAB
  0
TABLE
  2
LAYER
  5
2
100
AcDbSymbolTable
 70
36
  0
LAYER
  5
10
100
AcDbSymbolTableRecord
100
AcDbLayerTableRecord
  2
0
 70
0
 62
7
  6
CONTINUOUS
370
-3
390
F
  0
LAYER
  5
1FA
100
AcDbSymbolTableRecord
100
AcDbLayerTableRecord
  2
DEFAULT_1
 70
0
 62
7
  6
CENTER
370
-3
390
F
  0
LAYER
  5
1FB
100
AcDbSymbolTableRecord
100
AcDbLayerTableRecord
  2
DEFAULT_2
 70
0
 62
7
  6
HIDDEN
370
-3
390
F
  0
LAYER
  5
1FC
100
AcDbSymbolTableRecord
100
AcDbLayerTableRecord
  2
DEFAULT_3
 70
0
 62
7
  6
PHANTOM
370
-3
390
F
  0
LAYER
  5
1FD
100
AcDbSymbolTableRecord
100
AcDbLayerTableRecord
  2
00_COMPONENTS
 70
0
 62
7
  6
CONTINUOUS
370
-3
390
F
  0
LAYER
  5
1FE
100
AcDbSymbolTableRecord
100
AcDbLayerTableRecord
  2
01_1_DEFAULT_DATUMS
 70
0
 62
7
  6
CONTINUOUS
370
-3
390
F
  0
LAYER
  5
1FF
100
AcDbSymbolTableRecord
100
AcDbLayerTableRecord
  2
01_PLANES
 70
0
 62
7
  6
CONTINUOUS
370
-3
390
F
  0
LAYER
  5
200
100
AcDbSymbolTableRecord
100
AcDbLayerTableRecord
  2
02_COORD_SYS
 70
0
 62
7
  6
CONTINUOUS
370
-3
390
F
  0
LAYER
  5
201
100
AcDbSymbolTableRecord
100
AcDbLayerTableRecord
  2
03_AXES
 70
0
 62
7
  6
CONTINUOUS
370
-3
390
F
  0
LAYER
  5
202
100
AcDbSymbolTableRecord
100
AcDbLayerTableRecord
  2
04_POINTS
 70
0
 62
7
  6
CONTINUOUS
370
-3
390
F
  0
LAYER
  5
203
100
AcDbSymbolTableRecord
100
AcDbLayerTableRecord
  2
05_CURVES
 70
0
 62
7
  6
CONTINUOUS
370
-3
390
F
  0
LAYER
  5
204
100
AcDbSymbolTableRecord
100
AcDbLayerTableRecord
  2
06_SURFS
 70
0
 62
7
  6
CONTINUOUS
370
-3
390
F
  0
LAYER
  5
205
100
AcDbSymbolTableRecord
100
AcDbLayerTableRecord
  2
07_COSMETICS
 70
0
 62
7
  6
CONTINUOUS
370
-3
390
F
  0
LAYER
  5
206
100
AcDbSymbolTableRecord
100
AcDbLayerTableRecord
  2
10_NOTES
 70
0
 62
7
  6
CONTINUOUS
370
-3
390
F
  0
LAYER
  5
207
100
AcDbSymbolTableRecord
100
AcDbLayerTableRecord
  2
11_NOTES_PUB
 70
0
 62
7
  6
CONTINUOUS
370
-3
390
F
  0
LAYER
  5
208
100
AcDbSymbolTableRecord
100
AcDbLayerTableRecord
  2
13_REF_GTOL
 70
0
 62
7
  6
CONTINUOUS
370
-3
390
F
  0
LAYER
  5
209
100
AcDbSymbolTableRecord
100
AcDbLayerTableRecord
  2
16_MISC
 70
0
 62
7
  6
CONTINUOUS
370
-3
390
F
  0
LAYER
  5
20A
100
AcDbSymbolTableRecord
100
AcDbLayerTableRecord
  2
17_NO_PRINT
 70
0
 62
7
  6
CONTINUOUS
370
-3
390
F
  0
LAYER
  5
20B
100
AcDbSymbolTableRecord
100
AcDbLayerTableRecord
  2
18_DATUM_CAMS_JOINTS
 70
0
 62
7
  6
CONTINUOUS
370
-3
390
F
  0
LAYER
  5
20C
100
AcDbSymbolTableRecord
100
AcDbLayerTableRecord
  2
19_DATUM_FUNCTIONAL
 70
0
 62
7
  6
CONTINUOUS
370
-3
390
F
  0
LAYER
  5
20D
100
AcDbSymbolTableRecord
100
AcDbLayerTableRecord
  2
20_DATUM_KINEMATIC_SCHEME
 70
0
 62
7
  6
CONTINUOUS
370
-3
390
F
  0
ENDTAB
  0
TABLE
  2
STYLE
  5
3
100
AcDbSymbolTable
 70
1
  0
STYLE
  5
11
100
AcDbSymbolTableRecord
100
AcDbTextStyleTableRecord
  2
STANDARD
 70
0
 40
0.0
 41
1.0
 50
0.0
 71
0
 42
0.2
  3
ARIAL.TTF
  4

  0
STYLE
  5
20E
100
AcDbSymbolTableRecord
100
AcDbTextStyleTableRecord
  2
TEXTSTYLE_1
 70
0
 40
0.0
 41
0.8
 50
0.0
 71
0
 42
0.2
  3
gdt
  4

  0
ENDTAB
  0
TABLE
  2
VIEW
  5
6
100
AcDbSymbolTable
 70
0
  0
ENDTAB
  0
TABLE
  2
UCS
  5
7
100
AcDbSymbolTable
 70
0
  0
ENDTAB
  0
TABLE
  2
APPID
  5
9
100
AcDbSymbolTable
 70
1
  0
APPID
  5
20F
100
AcDbSymbolTableRecord
100
AcDbRegAppTableRecord
  2
ACAD
 70
0
  0
ENDTAB
  0
TABLE
  2
BLOCK_RECORD
  5
1
100
AcDbSymbolTable
 70
0
  0
BLOCK_RECORD
  5
210
100
AcDbSymbolTableRecord
100
AcDbBlockTableRecord
  2
*Model_Space
  0
BLOCK_RECORD
  5
211
100
AcDbSymbolTableRecord
100
AcDbBlockTableRecord
  2
*Paper_Space
  0
BLOCK_RECORD
  5
212
100
AcDbSymbolTableRecord
100
AcDbBlockTableRecord
  2
_FILLED
  0
ENDTAB
  0
TABLE
  2
DIMSTYLE
  5
A
100
AcDbSymbolTable
 70
1
100
AcDbDimStyleTable
 71
0
  0
DIMSTYLE
105
213
100
AcDbSymbolTableRecord
100
AcDbDimStyleTableRecord
  2
STANDARD
 70
0
  3

  4

 40
1.0
 41
0.7843104808
 42
1.0
 43
0.38
 44
1.0
 45
0.0
 46
0.0
 47
0.01
 48
0.01
140
1.0980346731
141
0.09
142
0.0
143
25.4
144
1.0
145
0.0
146
1.0
147
0.625
 71
1
 72
0
 73
0
 74
0
 75
0
 76
0
 77
1
 78
8
 79
2
170
0
171
1
172
0
173
0
174
0
175
0
176
0
177
0
178
0
270
2
179
2
271
2
272
2
273
2
274
2
275
0
280
0
281
0
282
0
283
1
284
8
285
0
286
0
287
3
288
0
340
11
278
46
341
212
342
212
343
212
344
212
  0
ENDTAB
  0
ENDSEC
  0
SECTION
  2
BLOCKS
  0
BLOCK
  5
20
100
AcDbEntity
  8
0
100
AcDbBlockBegin
  2
*Model_Space
 70
0
 10
0.0
 20
0.0
 30
0.0
  3
*Model_Space
  1

  0
ENDBLK
  5
21
100
AcDbEntity
  8
0
100
AcDbBlockEnd
  0
BLOCK
  5
1C
100
AcDbEntity
  8
0
100
AcDbBlockBegin
  2
*Paper_Space
 70
0
 10
0.0
 20
0.0
 30
0.0
  3
*Paper_Space
  1

  0
ENDBLK
  5
1D
100
AcDbEntity
  8
0
100
AcDbBlockEnd
  0
BLOCK
  5
214
100
AcDbEntity
  8
0
100
AcDbBlockBegin
  2
_FILLED
 70
64
 10
0.0
 20
0.0
  3
_FILLED
  1

  0
SOLID
  5
215
100
AcDbEntity
  8
0
  6
BYBLOCK
 62
0
100
AcDbTrace
 10
0.0
 20
0.0
 11
-1.0
 21
0.25
 12
-1.0
 22
-0.25
 13
-1.0
 23
-0.25
  0
ENDBLK
  5
216
100
AcDbEntity
  8
0
  6
BYBLOCK
 62
0
100
AcDbBlockEnd
  0
ENDSEC
  0
SECTION
  2
ENTITIES
  0
LINE
  5
217
100
AcDbEntity
  8
0
100
AcDbLine
 62
7
  6
BYLAYER
 10
10.2423487975
 20
76.2354800509
 11
7.6430793163
 21
74.6551252765
  0
LINE
  5
218
100
AcDbEntity
  8
0
100
AcDbLine
 62
7
  6
BYLAYER
 10
18.0617690396
 20
82.9567474738
 11
14.9026683924
 21
81.132850752
  0
LINE
  5
219
100
AcDbEntity
  8
0
100
AcDbLine
 62
7
  6
BYLAYER
 10
25.767602777
 20
76.4583358483
 11
25.6561289862
 21
76.3953025181
  0
LINE
  5
21A
100
AcDbEntity
  8
0
100
AcDbLine
 62
7
  6
BYLAYER
 10
25.9775188264
 20
76.5745352807
 11
25.8704153695
 21
76.5140256223
  0
LINE
  5
21B
100
AcDbEntity
  8
0
100
AcDbLine
 62
7
  6
BYLAYER
 10
7.6430793163
 20
74.6551252765
 11
8.5355525202
 21
34.7850421429
  0
LWPOLYLINE
  5
21C
100
AcDbEntity
  8
0
100
AcDbPolyline
 62
7
  6
BYLAYER
 90
4
 70
0
 10
40.0914483762
 20
23.8238337859
 10
40.3309461548
 20
23.8502950722
 10
40.5119794794
 20
23.6917734369
 10
40.5409627817
 20
23.5593502029
  0
LINE
  5
21D
100
AcDbEntity
  8
0
100
AcDbLine
 62
7
  6
BYLAYER
 10
8.5355525202
 20
34.7850421429
 11
33.8064746933
 21
20.1951984899
  0
LINE
  5
21E
100
AcDbEntity
  8
0
100
AcDbLine
 62
7
  6
BYLAYER
 10
36.9537833079
 20
69.9845929909
 11
36.8300601706
 21
69.9147613896
  0
LINE
  5
21F
100
AcDbEntity
  8
0
100
AcDbLine
 62
7
  6
BYLAYER
 10
43.205374558
 20
70.8669669992
 11
43.1818289389
 21
70.8536530285
  0
LINE
  5
220
100
AcDbEntity
  8
0
100
AcDbLine
 62
7
  6
BYLAYER
 10
35.1443908138
 20
66.2129836451
 11
35.1208451946
 21
66.1996696743
  0
LINE
  5
221
100
AcDbEntity
  8
0
100
AcDbLine
 62
7
  6
BYLAYER
 10
43.3453073606
 20
70.9444401739
 11
43.3246865278
 21
70.9328017646
  0
LINE
  5
222
100
AcDbEntity
  8
0
100
AcDbLine
 62
7
  6
BYLAYER
 10
35.2843236164
 20
66.2904568198
 11
35.2637027835
 21
66.2788184105
  0
LINE
  5
223
100
AcDbEntity
  8
0
100
AcDbLine
 62
7
  6
BYLAYER
 10
43.3452889444
 20
70.9444514891
 11
43.2053745581
 21
70.8669669991
  0
LINE
  5
224
100
AcDbEntity
  8
0
100
AcDbLine
 62
7
  6
BYLAYER
 10
35.2843052002
 20
66.290468135
 11
35.1443908139
 21
66.212983645
  0
LINE
  5
225
100
AcDbEntity
  8
0
100
AcDbLine
 62
7
  6
BYLAYER
 10
23.4375051123
 20
73.3072114163
 11
23.4324545914
 21
72.7386053317
  0
LINE
  5
226
100
AcDbEntity
  8
0
100
AcDbLine
 62
7
  6
BYLAYER
 10
39.3494200426
 20
73.0724811115
 11
38.7768738127
 21
71.648499713
  0
LINE
  5
227
100
AcDbEntity
  8
0
100
AcDbLine
 62
7
  6
BYLAYER
 10
42.9989011202
 20
56.9379431633
 11
59.2622893762
 21
66.3275587024
  0
LINE
  5
228
100
AcDbEntity
  8
0
100
AcDbLine
 62
7
  6
BYLAYER
 10
39.0037282292
 20
54.3454801692
 11
40.3437601209
 21
55.1191433245
  0
LWPOLYLINE
  5
229
100
AcDbEntity
  8
0
100
AcDbPolyline
 62
7
  6
BYLAYER
 90
4
 70
0
 10
23.0511352618
 20
71.9715168373
 10
22.6232676201
 20
73.7553450374
 10
23.3248803915
 20
75.5003282079
 10
25.0749583404
 20
76.9826451892
  0
LINE
  5
22A
100
AcDbEntity
  8
0
100
AcDbLine
 62
7
  6
BYLAYER
 10
41.34106978
 20
54.0619320533
 11
39.0037282292
 21
52.712475335
  0
LINE
  5
22B
100
AcDbEntity
  8
0
100
AcDbLine
 62
7
  6
BYLAYER
 10
34.6464529455
 20
64.8975639561
 11
34.6522249704
 21
65.5473996065
  0
LINE
  5
22C
100
AcDbEntity
  8
0
100
AcDbLine
 62
7
  6
BYLAYER
 10
40.5343820347
 20
23.5598768698
 11
40.534400668
 21
23.5594519399
  0
LINE
  5
22D
100
AcDbEntity
  8
0
100
AcDbLine
 62
7
  6
BYLAYER
 10
38.296621448
 20
54.3454784695
 11
38.296621448
 21
52.7124736353
  0
LINE
  5
22E
100
AcDbEntity
  8
0
100
AcDbLine
 62
7
  6
BYLAYER
 10
39.0037282292
 20
52.712475335
 11
39.0037282292
 21
54.3454801692
  0
LINE
  5
22F
100
AcDbEntity
  8
0
100
AcDbLine
 62
7
  6
BYLAYER
 10
37.8463267233
 20
64.8691420181
 11
37.852098746
 21
65.5189774184
  0
LINE
  5
230
100
AcDbEntity
  8
0
100
AcDbLine
 62
7
  6
BYLAYER
 10
38.5869075182
 20
73.1726501193
 11
38.5818569974
 21
72.6040440347
  0
LINE
  5
231
100
AcDbEntity
  8
0
100
AcDbLine
 62
7
  6
BYLAYER
 10
40.5343820347
 20
23.5598768698
 11
40.5343820347
 21
18.6065372513
  0
LINE
  5
232
100
AcDbEntity
  8
0
100
AcDbLine
 62
7
  6
BYLAYER
 10
41.2843820347
 20
10.8054075152
 11
41.2843820347
 21
11.2589339746
  0
LINE
  5
233
100
AcDbEntity
  8
0
100
AcDbLine
 62
7
  6
BYLAYER
 10
41.8978549099
 20
50.7529185114
 11
41.8978549099
 21
52.3859233457
  0
LINE
  5
234
100
AcDbEntity
  8
0
100
AcDbLine
 62
7
  6
BYLAYER
 10
42.0443029913
 20
50.5487976363
 11
42.0443029913
 21
52.1818024706
  0
LINE
  5
235
100
AcDbEntity
  8
0
100
AcDbLine
 62
7
  6
BYLAYER
 10
42.9989011202
 20
25.5026001038
 11
42.9989011202
 21
56.9379431633
  0
LINE
  5
236
100
AcDbEntity
  8
0
100
AcDbLine
 62
7
  6
BYLAYER
 10
42.7074366898
 20
69.5515473103
 11
42.7132087147
 21
70.2013829607
  0
LINE
  5
237
100
AcDbEntity
  8
0
100
AcDbLine
 62
7
  6
BYLAYER
 10
45.9073104675
 20
69.5231253722
 11
45.9130824902
 21
70.1729607725
  0
LINE
  5
238
100
AcDbEntity
  8
0
100
AcDbLine
 62
7
  6
BYLAYER
 10
42.9989011202
 20
56.9379431633
 11
10.2423487975
 21
76.2354800509
  0
LINE
  5
239
100
AcDbEntity
  8
0
100
AcDbLine
 62
7
  6
BYLAYER
 10
51.7843820347
 20
10.8054075152
 11
51.7843820347
 21
11.0633669452
  0
LINE
  5
23A
100
AcDbEntity
  8
0
100
AcDbLine
 62
7
  6
BYLAYER
 10
52.5343820347
 20
30.834631702
 11
52.5343820347
 21
19.0147898942
  0
LINE
  5
23B
100
AcDbEntity
  8
0
100
AcDbLine
 62
7
  6
BYLAYER
 10
37.2333174945
 20
66.2731564539
 11
37.3718334356
 21
66.1931988666
  0
LINE
  5
23C
100
AcDbEntity
  8
0
100
AcDbLine
 62
7
  6
BYLAYER
 10
34.7141012852
 20
64.7881597233
 11
34.6979764223
 21
64.7975102554
  0
LINE
  5
23D
100
AcDbEntity
  8
0
100
AcDbLine
 62
7
  6
BYLAYER
 10
52.5343817819
 20
30.8345807811
 11
52.5343820347
 21
30.834631702
  0
LWPOLYLINE
  5
23E
100
AcDbEntity
  8
0
100
AcDbPolyline
 62
7
  6
BYLAYER
 90
4
 70
0
 10
52.5333006623
 20
30.8346053086
 10
52.5416891601
 20
30.9043008112
 10
52.5948582216
 20
31.0160522844
 10
52.6832436411
 20
31.0937926106
  0
LINE
  5
23F
100
AcDbEntity
  8
0
100
AcDbLine
 62
7
  6
BYLAYER
 10
33.8064746933
 20
20.1951984899
 11
59.2622893762
 21
34.8922156429
  0
LINE
  5
240
100
AcDbEntity
  8
0
100
AcDbLine
 62
7
  6
BYLAYER
 10
42.7750850295
 20
69.4421430774
 11
42.7589601665
 21
69.4514936096
  0
LINE
  5
241
100
AcDbEntity
  8
0
100
AcDbLine
 62
7
  6
BYLAYER
 10
59.2622893762
 20
66.3275587024
 11
59.2622893762
 21
34.8922156429
  0
LINE
  5
242
100
AcDbEntity
  8
0
100
AcDbLine
 62
7
  6
BYLAYER
 10
52.1613959065
 20
13.8091158382
 11
52.5343820347
 21
14.9321795808
  0
LINE
  5
243
100
AcDbEntity
  8
0
100
AcDbLine
 62
7
  6
BYLAYER
 10
52.0762512876
 20
14.3699735863
 11
52.5343820347
 21
15.7486811993
  0
LINE
  5
244
100
AcDbEntity
  8
0
100
AcDbLine
 62
7
  6
BYLAYER
 10
52.0766812293
 20
12.7375921721
 11
52.4056236785
 21
13.728001368
  0
LINE
  5
245
100
AcDbEntity
  8
0
100
AcDbLine
 62
7
  6
BYLAYER
 10
52.0760358222
 20
17.6356730864
 11
52.5343820347
 21
19.014694855
  0
LINE
  5
246
100
AcDbEntity
  8
0
100
AcDbLine
 62
7
  6
BYLAYER
 10
52.075312888
 20
16.8181245636
 11
52.5343820347
 21
18.19819141
  0
LINE
  5
247
100
AcDbEntity
  8
0
100
AcDbLine
 62
7
  6
BYLAYER
 10
52.0755072329
 20
15.1853995625
 11
52.5343820347
 21
16.5651838069
  0
LINE
  5
248
100
AcDbEntity
  8
0
100
AcDbLine
 62
7
  6
BYLAYER
 10
52.074946742
 20
16.0010921511
 11
52.5343820347
 21
17.3816873937
  0
LINE
  5
249
100
AcDbEntity
  8
0
100
AcDbLine
 62
7
  6
BYLAYER
 10
45.2943012388
 20
70.9271398081
 11
45.4328171798
 21
70.8471822208
  0
LINE
  5
24A
100
AcDbEntity
  8
0
100
AcDbLine
 62
7
  6
BYLAYER
 10
26.5057370534
 20
85.6250955899
 11
59.2622893762
 21
66.3275587024
  0
LINE
  5
24B
100
AcDbEntity
  8
0
100
AcDbLine
 62
7
  6
BYLAYER
 10
50.7770403863
 20
16.4631848697
 11
52.0760358222
 21
17.6356730864
  0
LINE
  5
24C
100
AcDbEntity
  8
0
100
AcDbLine
 62
7
  6
BYLAYER
 10
50.7770403859
 20
15.6466824523
 11
52.075312888
 21
16.8181245636
  0
LINE
  5
24D
100
AcDbEntity
  8
0
100
AcDbLine
 62
7
  6
BYLAYER
 10
50.7770403859
 20
11.5641703666
 11
52.0766812293
 21
12.7375921721
  0
LINE
  5
24E
100
AcDbEntity
  8
0
100
AcDbLine
 62
7
  6
BYLAYER
 10
50.7770403849
 20
13.1971752002
 11
52.0762512876
 21
14.3699735863
  0
LINE
  5
24F
100
AcDbEntity
  8
0
100
AcDbLine
 62
7
  6
BYLAYER
 10
50.7770403851
 20
14.0136776175
 11
52.0755072329
 21
15.1853995625
  0
LINE
  5
250
100
AcDbEntity
  8
0
100
AcDbLine
 62
7
  6
BYLAYER
 10
50.7770403856
 20
14.830180035
 11
52.074946742
 21
16.0010921511
  0
LINE
  5
251
100
AcDbEntity
  8
0
100
AcDbLine
 62
7
  6
BYLAYER
 10
50.2467080922
 20
9.8868971789
 11
50.6964442904
 21
10.1465599188
  0
ARC
  5
252
100
AcDbEntity
  8
0
100
AcDbCircle
 62
7
  6
BYLAYER
 10
47.7870742904
 20
20.6822203803
 40
5.7572261808
100
AcDbArc
 50
300.8908507538
 51
301.2880864939
  0
ARC
  5
253
100
AcDbEntity
  8
0
100
AcDbCircle
 62
7
  6
BYLAYER
 10
47.7901996127
 20
19.8598074226
 40
5.7505500414
100
AcDbArc
 50
300.8944176865
 51
301.2920725327
  0
ARC
  5
254
100
AcDbEntity
  8
0
100
AcDbCircle
 62
7
  6
BYLAYER
 10
47.7963955327
 20
19.031932872
 40
5.737616111
100
AcDbArc
 50
300.8995525582
 51
301.298172489
  0
ARC
  5
255
100
AcDbEntity
  8
0
100
AcDbCircle
 62
7
  6
BYLAYER
 10
47.8019913835
 20
18.2049508971
 40
5.7257525878
100
AcDbArc
 50
300.9053794449
 51
301.3048145952
  0
ARC
  5
256
100
AcDbEntity
  8
0
100
AcDbCircle
 62
7
  6
BYLAYER
 10
47.8055548762
 20
17.3819436836
 40
5.718345205
100
AcDbArc
 50
300.9081712805
 51
301.3081605316
  0
ARC
  5
257
100
AcDbEntity
  8
0
100
AcDbCircle
 62
7
  6
BYLAYER
 10
47.8062001406
 20
15.7477359126
 40
5.7169820315
100
AcDbArc
 50
300.9088245462
 51
301.3089006734
  0
ARC
  5
258
100
AcDbEntity
  8
0
100
AcDbCircle
 62
7
  6
BYLAYER
 10
47.8065791912
 20
16.5634487246
 40
5.7161086003
100
AcDbArc
 50
300.9096400211
 51
301.3097785717
  0
ARC
  5
259
100
AcDbEntity
  8
0
100
AcDbCircle
 62
7
  6
BYLAYER
 10
42.4023095341
 20
13.8225933946
 40
1.8679276042
100
AcDbArc
 50
168.9810427789
 51
179.9865750175
  0
ARC
  5
25A
100
AcDbEntity
  8
0
100
AcDbCircle
 62
7
  6
BYLAYER
 10
42.4023020396
 20
15.455598863
 40
1.8679201104
100
AcDbArc
 50
168.9820483612
 51
179.9865752023
  0
ARC
  5
25B
100
AcDbEntity
  8
0
100
AcDbCircle
 62
7
  6
BYLAYER
 10
42.4022850634
 20
17.0886046756
 40
1.8679031345
100
AcDbArc
 50
168.9850860051
 51
179.9866056063
  0
ARC
  5
25C
100
AcDbEntity
  8
0
100
AcDbCircle
 62
7
  6
BYLAYER
 10
42.4021628367
 20
14.6391060754
 40
1.8677808985
100
AcDbArc
 50
168.984518839
 51
179.9867440547
  0
ARC
  5
25D
100
AcDbEntity
  8
0
100
AcDbCircle
 62
7
  6
BYLAYER
 10
42.4021574221
 20
13.0061018662
 40
1.8677754843
100
AcDbArc
 50
168.9865384507
 51
179.9867668048
  0
ARC
  5
25E
100
AcDbEntity
  8
0
100
AcDbCircle
 62
7
  6
BYLAYER
 10
42.4021497174
 20
16.2721108124
 40
1.8677677786
100
AcDbArc
 50
168.9880270979
 51
179.986759939
  0
ARC
  5
25F
100
AcDbEntity
  8
0
100
AcDbCircle
 62
7
  6
BYLAYER
 10
42.4021452294
 20
17.905115179
 40
1.8677632899
100
AcDbArc
 50
168.9889523423
 51
179.9867845537
  0
ARC
  5
260
100
AcDbEntity
  8
0
100
AcDbCircle
 62
7
  6
BYLAYER
 10
42.3859782179
 20
13.0066074096
 40
1.8515962318
100
AcDbArc
 50
180.0022947053
 51
183.1939458581
  0
ARC
  5
261
100
AcDbEntity
  8
0
100
AcDbCircle
 62
7
  6
BYLAYER
 10
42.38597563
 20
14.639611944
 40
1.8515936433
100
AcDbArc
 50
180.0022817819
 51
183.1940033547
  0
ARC
  5
262
100
AcDbEntity
  8
0
100
AcDbCircle
 62
7
  6
BYLAYER
 10
42.3859712494
 20
16.2726164063
 40
1.8515892621
100
AcDbArc
 50
180.0022894052
 51
183.1940377521
  0
ARC
  5
263
100
AcDbEntity
  8
0
100
AcDbCircle
 62
7
  6
BYLAYER
 10
42.3859659705
 20
17.9056207696
 40
1.8515839829
100
AcDbArc
 50
180.0023141713
 51
183.1939734948
  0
ARC
  5
264
100
AcDbEntity
  8
0
100
AcDbCircle
 62
7
  6
BYLAYER
 10
42.3859402215
 20
17.0891103766
 40
1.8515582429
100
AcDbArc
 50
180.0021360965
 51
183.1934265777
  0
ARC
  5
265
100
AcDbEntity
  8
0
100
AcDbCircle
 62
7
  6
BYLAYER
 10
42.3859396099
 20
15.456104974
 40
1.8515576307
100
AcDbArc
 50
180.0021179887
 51
183.1934171859
  0
ARC
  5
266
100
AcDbEntity
  8
0
100
AcDbCircle
 62
7
  6
BYLAYER
 10
42.3859384524
 20
13.8230996933
 40
1.8515564726
100
AcDbArc
 50
180.002123556
 51
183.1933484245
  0
ARC
  5
267
100
AcDbEntity
  8
0
100
AcDbCircle
 62
7
  6
BYLAYER
 10
27.282615405
 20
63.1831992003
 40
21.8050595244
100
AcDbArc
 50
121.2769896814
 51
123.424811913
  0
ARC
  5
268
100
AcDbEntity
  8
0
100
AcDbCircle
 62
7
  6
BYLAYER
 10
26.6767016068
 20
64.1013056186
 40
20.7050363769
100
AcDbArc
 50
123.4248961073
 51
124.6562789485
  0
ARC
  5
269
100
AcDbEntity
  8
0
100
AcDbCircle
 62
7
  6
BYLAYER
 10
29.1029118675
 20
76.4160512089
 40
7.5237405897
100
AcDbArc
 50
238.1699708339
 51
239.2085804924
  0
ARC
  5
26A
100
AcDbEntity
  8
0
100
AcDbCircle
 62
7
  6
BYLAYER
 10
32.7334786254
 20
70.6394122409
 40
6.7480308966
100
AcDbArc
 50
57.9307928859
 51
60.0207806735
  0
ARC
  5
26B
100
AcDbEntity
  8
0
100
AcDbCircle
 62
7
  6
BYLAYER
 10
29.1686472758
 20
70.7999810263
 40
6.5976237657
100
AcDbArc
 50
119.9941842979
 51
122.2257956638
  0
ARC
  5
26C
100
AcDbEntity
  8
0
100
AcDbCircle
 62
7
  6
BYLAYER
 10
26.471681947
 20
73.9367704523
 40
3.9449158922
100
AcDbArc
 50
209.879250843
 51
214.0303819313
  0
ARC
  5
26D
100
AcDbEntity
  8
0
100
AcDbCircle
 62
7
  6
BYLAYER
 10
26.4524713297
 20
73.5707894481
 40
3.5957219789
100
AcDbArc
 50
208.9897224738
 51
209.8006628498
  0
ARC
  5
26E
100
AcDbEntity
  8
0
100
AcDbCircle
 62
7
  6
BYLAYER
 10
35.8203353561
 20
66.7083971907
 40
2.2161522505
100
AcDbArc
 50
241.4430004748
 51
241.8469749053
  0
ARC
  5
26F
100
AcDbEntity
  8
0
100
AcDbCircle
 62
7
  6
BYLAYER
 10
43.8813191001
 20
71.3623805444
 40
2.21615225
100
AcDbArc
 50
241.4430004747
 51
241.8469749053
  0
ARC
  5
270
100
AcDbEntity
  8
0
100
AcDbCircle
 62
7
  6
BYLAYER
 10
44.7674821161
 20
71.3505959398
 40
2.2118750426
100
AcDbArc
 50
297.1284094711
 51
297.8426778238
  0
ARC
  5
271
100
AcDbEntity
  8
0
100
AcDbCircle
 62
7
  6
BYLAYER
 10
36.7064983722
 20
66.6966125851
 40
2.2118750419
100
AcDbArc
 50
297.128409471
 51
297.8426778239
  0
ARC
  5
272
100
AcDbEntity
  8
0
100
AcDbCircle
 62
7
  6
BYLAYER
 10
43.864396127
 20
71.3313208885
 40
2.1807815141
100
AcDbArc
 50
240.8785444064
 51
241.4434372288
  0
ARC
  5
273
100
AcDbEntity
  8
0
100
AcDbCircle
 62
7
  6
BYLAYER
 10
35.8034123826
 20
66.6773375341
 40
2.1807815138
100
AcDbArc
 50
240.8785444064
 51
241.4434372288
  0
ARC
  5
274
100
AcDbEntity
  8
0
100
AcDbCircle
 62
7
  6
BYLAYER
 10
36.7359027404
 20
66.6411039476
 40
2.1490592805
100
AcDbArc
 50
297.8406711069
 51
298.969270333
  0
ARC
  5
275
100
AcDbEntity
  8
0
100
AcDbCircle
 62
7
  6
BYLAYER
 10
44.7968864846
 20
71.2950873017
 40
2.1490592805
100
AcDbArc
 50
297.8406711069
 51
298.969270333
  0
ARC
  5
276
100
AcDbEntity
  8
0
100
AcDbCircle
 62
7
  6
BYLAYER
 10
35.7781032708
 20
66.6320001322
 40
2.1288582145
100
AcDbArc
 50
240.0119034372
 51
240.8797763226
  0
ARC
  5
277
100
AcDbEntity
  8
0
100
AcDbCircle
 62
7
  6
BYLAYER
 10
43.8390870149
 20
71.2859834862
 40
2.1288582143
100
AcDbArc
 50
240.0119034371
 51
240.8797763227
  0
ARC
  5
278
100
AcDbEntity
  8
0
100
AcDbCircle
 62
7
  6
BYLAYER
 10
43.7675683055
 20
71.1644071527
 40
1.9878036081
100
AcDbArc
 50
236.0691911891
 51
239.5093144122
  0
ARC
  5
279
100
AcDbEntity
  8
0
100
AcDbCircle
 62
7
  6
BYLAYER
 10
35.7065845612
 20
66.5104237986
 40
1.9878036081
100
AcDbArc
 50
236.0691911891
 51
239.5093144122
  0
ARC
  5
27A
100
AcDbEntity
  8
0
100
AcDbCircle
 62
7
  6
BYLAYER
 10
44.8849614104
 20
71.1398487047
 40
1.9705868325
100
AcDbArc
 50
298.9149973708
 51
302.9779711029
  0
ARC
  5
27B
100
AcDbEntity
  8
0
100
AcDbCircle
 62
7
  6
BYLAYER
 10
36.8239776662
 20
66.4858653506
 40
1.9705868325
100
AcDbArc
 50
298.9149973708
 51
302.9779711029
  0
ARC
  5
27C
100
AcDbEntity
  8
0
100
AcDbCircle
 62
7
  6
BYLAYER
 10
43.6463546745
 20
68.9599862553
 40
1.6691048452
100
AcDbArc
 50
123.6961379351
 51
128.1512705974
  0
ARC
  5
27D
100
AcDbEntity
  8
0
100
AcDbCircle
 62
7
  6
BYLAYER
 10
35.5853709303
 20
64.3060029011
 40
1.6691048452
100
AcDbArc
 50
123.6961379351
 51
128.1512705974
  0
ARC
  5
27E
100
AcDbEntity
  8
0
100
AcDbCircle
 62
7
  6
BYLAYER
 10
36.9164296315
 20
64.320277747
 40
1.6367471774
100
AcDbArc
 50
50.7610237299
 51
55.2850809596
  0
ARC
  5
27F
100
AcDbEntity
  8
0
100
AcDbCircle
 62
7
  6
BYLAYER
 10
44.9774133757
 20
68.9742611012
 40
1.6367471774
100
AcDbArc
 50
50.7610237299
 51
55.2850809596
  0
ARC
  5
280
100
AcDbEntity
  8
0
100
AcDbCircle
 62
7
  6
BYLAYER
 10
43.8415134372
 20
70.0077693799
 40
1.0588977897
100
AcDbArc
 50
126.6232049245
 51
128.0406204714
  0
ARC
  5
281
100
AcDbEntity
  8
0
100
AcDbCircle
 62
7
  6
BYLAYER
 10
35.780529693
 20
65.3537860257
 40
1.0588977897
100
AcDbArc
 50
126.6232049246
 51
128.0406204714
  0
ARC
  5
282
100
AcDbEntity
  8
0
100
AcDbCircle
 62
7
  6
BYLAYER
 10
35.7568530828
 20
65.384231416
 40
1.0203297955
100
AcDbArc
 50
128.0470205721
 51
129.0214912659
  0
ARC
  5
283
100
AcDbEntity
  8
0
100
AcDbCircle
 62
7
  6
BYLAYER
 10
43.817836827
 20
70.0382147703
 40
1.0203297953
100
AcDbArc
 50
128.0470205721
 51
129.0214912661
  0
ARC
  5
284
100
AcDbEntity
  8
0
100
AcDbCircle
 62
7
  6
BYLAYER
 10
37.2924185026
 20
64.874693365
 40
0.5539099964
100
AcDbArc
 50
346.9715158732
 51
357.5242379342
  0
ARC
  5
285
100
AcDbEntity
  8
0
100
AcDbCircle
 62
7
  6
BYLAYER
 10
45.3534022468
 20
69.5286767191
 40
0.5539099964
100
AcDbArc
 50
346.9715158732
 51
357.5242379342
  0
ARC
  5
286
100
AcDbEntity
  8
0
100
AcDbCircle
 62
7
  6
BYLAYER
 10
37.3004830176
 20
64.874200831
 40
0.545831752
100
AcDbArc
 50
357.5393234778
 51
359.4690014703
  0
ARC
  5
287
100
AcDbEntity
  8
0
100
AcDbCircle
 62
7
  6
BYLAYER
 10
45.3614667619
 20
69.5281841852
 40
0.545831752
100
AcDbArc
 50
357.5393234778
 51
359.4690014703
  0
ARC
  5
288
100
AcDbEntity
  8
0
100
AcDbCircle
 62
7
  6
BYLAYER
 10
43.252507582
 20
69.5464997718
 40
0.5450588673
100
AcDbArc
 50
179.4694337106
 51
181.3909041998
  0
ARC
  5
289
100
AcDbEntity
  8
0
100
AcDbCircle
 62
7
  6
BYLAYER
 10
35.1915238377
 20
64.8925164177
 40
0.5450588672
100
AcDbArc
 50
179.4694337105
 51
181.3909041998
  0
ARC
  5
28A
100
AcDbEntity
  8
0
100
AcDbCircle
 62
7
  6
BYLAYER
 10
71.8300891016
 20
-6.3486209419
 40
41.9118129754
100
AcDbArc
 50
119.9738519124
 51
120.153461717
  0
ARC
  5
28B
100
AcDbEntity
  8
0
100
AcDbCircle
 62
7
  6
BYLAYER
 10
49.6400685161
 20
15.3531372099
 40
2.9615939992
100
AcDbArc
 50
325.5047545678
 51
328.6279603593
  0
ARC
  5
28C
100
AcDbEntity
  8
0
100
AcDbCircle
 62
7
  6
BYLAYER
 10
50.3428540803
 20
14.2339469593
 40
2.1916083925
100
AcDbArc
 50
346.7368156661
 51
357.192810086
  0
ARC
  5
28D
100
AcDbEntity
  8
0
100
AcDbCircle
 62
7
  6
BYLAYER
 10
50.3528225959
 20
14.1173207021
 40
2.181559957
100
AcDbArc
 50
349.5657648531
 51
359.956869116
  0
ARC
  5
28E
100
AcDbEntity
  8
0
100
AcDbCircle
 62
7
  6
BYLAYER
 10
50.3578041048
 20
17.4959732226
 40
2.1765783739
100
AcDbArc
 50
0.034583629
 51
9.4308705347
  0
ARC
  5
28F
100
AcDbEntity
  8
0
100
AcDbCircle
 62
7
  6
BYLAYER
 10
50.3578062477
 20
15.8629689863
 40
2.1765762308
100
AcDbArc
 50
0.034597716
 51
9.4300143688
  0
ARC
  5
290
100
AcDbEntity
  8
0
100
AcDbCircle
 62
7
  6
BYLAYER
 10
50.3578379517
 20
14.2299667258
 40
2.1765445248
100
AcDbArc
 50
0.0345374038
 51
9.4237439577
  0
ARC
  5
291
100
AcDbEntity
  8
0
100
AcDbCircle
 62
7
  6
BYLAYER
 10
50.3579030378
 20
16.6794773897
 40
2.1764794484
100
AcDbArc
 50
0.0345942658
 51
9.432885884
  0
ARC
  5
292
100
AcDbEntity
  8
0
100
AcDbCircle
 62
7
  6
BYLAYER
 10
50.3579296079
 20
18.3124842762
 40
2.1764528757
100
AcDbArc
 50
0.0345179652
 51
9.4272674218
  0
ARC
  5
293
100
AcDbEntity
  8
0
100
AcDbCircle
 62
7
  6
BYLAYER
 10
50.357942486
 20
15.0464751754
 40
2.1764399996
100
AcDbArc
 50
0.0345337658
 51
9.4257112374
  0
ARC
  5
294
100
AcDbEntity
  8
0
100
AcDbCircle
 62
7
  6
BYLAYER
 10
50.3579563086
 20
13.4134710461
 40
2.1764261764
100
AcDbArc
 50
0.0344919815
 51
9.4232348066
  0
ARC
  5
295
100
AcDbEntity
  8
0
100
AcDbCircle
 62
7
  6
BYLAYER
 10
50.3833648721
 20
15.0478199338
 40
2.1510172183
100
AcDbArc
 50
357.2096185578
 51
359.9991221285
  0
ARC
  5
296
100
AcDbEntity
  8
0
100
AcDbCircle
 62
7
  6
BYLAYER
 10
50.3833658845
 20
13.4148151472
 40
2.1510162065
100
AcDbArc
 50
357.2096497362
 51
359.9990971361
  0
ARC
  5
297
100
AcDbEntity
  8
0
100
AcDbCircle
 62
7
  6
BYLAYER
 10
50.3833717309
 20
16.6808247326
 40
2.1510103589
100
AcDbArc
 50
357.2096281221
 51
359.9991151314
  0
ARC
  5
298
100
AcDbEntity
  8
0
100
AcDbCircle
 62
7
  6
BYLAYER
 10
50.3833772167
 20
14.2313105798
 40
2.1510048647
100
AcDbArc
 50
357.2100864419
 51
359.9991515736
  0
ARC
  5
299
100
AcDbEntity
  8
0
100
AcDbCircle
 62
7
  6
BYLAYER
 10
50.3833790144
 20
18.3138294732
 40
2.1510030746
100
AcDbArc
 50
357.2097214102
 51
359.99909466
  0
ARC
  5
29A
100
AcDbEntity
  8
0
100
AcDbCircle
 62
7
  6
BYLAYER
 10
50.3833819747
 20
15.8643155452
 40
2.1510001072
100
AcDbArc
 50
357.2099969188
 51
359.99914106
  0
ARC
  5
29B
100
AcDbEntity
  8
0
100
AcDbCircle
 62
7
  6
BYLAYER
 10
50.3833931688
 20
17.497320642
 40
2.1509889136
100
AcDbArc
 50
357.2099792339
 51
359.9991039161
  0
ARC
  5
29C
100
AcDbEntity
  8
0
100
AcDbCircle
 62
7
  6
BYLAYER
 10
152.8076266177
 20
-149.8868743843
 40
206.6670765337
100
AcDbArc
 50
121.8927044817
 51
122.0571246268
  0
SPLINE
  5
29D
100
AcDbEntity
  8
0
100
AcDbSpline
 62
7
  6
BYLAYER
 70
0
 71
3
 72
16
 73
12
 74
0
 42
0.0000001
 43
0.0000001
 44
0.0000000001
 40
0.0
 40
0.0
 40
0.0
 40
0.0
 40
0.1146714071
 40
0.1753984202
 40
0.2379962306
 40
0.3674092199
 40
0.5000244016
 40
0.6326387552
 40
0.7620533945
 40
0.8853098227
 40
1.0
 40
1.0
 40
1.0
 40
1.0
 10
45.2942984206
 20
70.9271381472
 30
0.0
 10
45.2273378185
 20
70.9657915502
 30
0.0
 10
45.1197302524
 20
71.0162500705
 30
0.0
 10
44.9682130961
 20
71.0692686632
 30
0.0
 10
44.8039315846
 20
71.1149817599
 30
0.0
 10
44.5879749355
 20
71.1538852865
 30
0.0
 10
44.3219049648
 20
71.1710557956
 30
0.0
 10
44.0555530227
 20
71.158619411
 30
0.0
 10
43.7985135892
 20
71.1169993335
 30
0.0
 10
43.5600517479
 20
71.0477317457
 30
0.0
 10
43.4129397848
 20
70.9819107096
 30
0.0
 10
43.3452896768
 20
70.9444510271
 30
0.0
  0
SPLINE
  5
29E
100
AcDbEntity
  8
0
100
AcDbSpline
 62
7
  6
BYLAYER
 70
0
 71
3
 72
15
 73
11
 74
0
 42
0.0000001
 43
0.0000001
 44
0.0000000001
 40
0.0
 40
0.0
 40
0.0
 40
0.0
 40
0.1079632935
 40
0.2179784114
 40
0.331909391
 40
0.4512865985
 40
0.5772470934
 40
0.7105125637
 40
0.8514260467
 40
1.0
 40
1.0
 40
1.0
 40
1.0
 10
45.9130803372
 20
70.1729607918
 30
0.0
 10
45.9133593172
 20
70.204158811
 30
0.0
 10
45.9084452334
 20
70.2673250187
 30
0.0
 10
45.884868824
 20
70.3607270218
 30
0.0
 10
45.8453914063
 20
70.4521813171
 30
0.0
 10
45.7905562506
 20
70.5407356596
 30
0.0
 10
45.7209859058
 20
70.6255468791
 30
0.0
 10
45.6374321956
 20
70.7058310679
 30
0.0
 10
45.540758944
 20
70.7808441495
 30
0.0
 10
45.4699992953
 20
70.8257160683
 30
0.0
 10
45.4328150534
 20
70.8471809674
 30
0.0
  0
SPLINE
  5
29F
100
AcDbEntity
  8
0
100
AcDbSpline
 62
7
  6
BYLAYER
 70
0
 71
3
 72
15
 73
11
 74
0
 42
0.0000001
 43
0.0000001
 44
0.0000000001
 40
0.0
 40
0.0
 40
0.0
 40
0.0
 40
0.1478949693
 40
0.2883575983
 40
0.4213004341
 40
0.5471482947
 40
0.6666562576
 40
0.780924039
 40
0.891442125
 40
1.0
 40
1.0
 40
1.0
 40
1.0
 10
43.1818289389
 20
70.8536530285
 30
0.0
 10
43.1459692405
 20
70.8329495455
 30
0.0
 10
43.0776838999
 20
70.7896455188
 30
0.0
 10
42.9842790692
 20
70.7173087996
 30
0.0
 10
42.9033836788
 20
70.6398324974
 30
0.0
 10
42.8358030403
 20
70.5579311922
 30
0.0
 10
42.7821940701
 20
70.4723306497
 30
0.0
 10
42.7431775855
 20
70.3837808905
 30
0.0
 10
42.719209447
 20
70.293183071
 30
0.0
 10
42.7134826442
 20
70.2317754064
 30
0.0
 10
42.7132108677
 20
70.2013829416
 30
0.0
  0
SPLINE
  5
2A0
100
AcDbEntity
  8
0
100
AcDbSpline
 62
7
  6
BYLAYER
 70
0
 71
3
 72
26
 73
22
 74
0
 42
0.0000001
 43
0.0000001
 44
0.0000000001
 40
0.0
 40
0.0
 40
0.0
 40
0.0
 40
0.0215001664
 40
0.0432248319
 40
0.0653863029
 40
0.0881767353
 40
0.1117582103
 40
0.1362628565
 40
0.1883508155
 40
0.2449112466
 40
0.3059204982
 40
0.3710131513
 40
0.4395646394
 40
0.5107608242
 40
0.5836570561
 40
0.6572304147
 40
0.7304273069
 40
0.8022125784
 40
0.8716103274
 40
0.9377721148
 40
1.0
 40
1.0
 40
1.0
 40
1.0
 10
42.7132108677
 20
70.2013829416
 30
0.0
 10
42.7130054061
 20
70.178406402
 30
0.0
 10
42.7155350807
 20
70.1321345509
 30
0.0
 10
42.7281094503
 20
70.063223197
 30
0.0
 10
42.7493638004
 20
69.9950295774
 30
0.0
 10
42.7791793723
 20
69.9279628954
 30
0.0
 10
42.8173421707
 20
69.8623687068
 30
0.0
 10
42.8803456377
 20
69.7756223082
 30
0.0
 10
42.9799949859
 20
69.6729370014
 30
0.0
 10
43.125541362
 20
69.5638166137
 30
0.0
 10
43.2963700624
 20
69.4682932416
 30
0.0
 10
43.4888500628
 20
69.3883080728
 30
0.0
 10
43.6989269519
 20
69.325485418
 30
0.0
 10
43.9221362334
 20
69.2811449182
 30
0.0
 10
44.1537161402
 20
69.256224906
 30
0.0
 10
44.3887104482
 20
69.2512584213
 30
0.0
 10
44.6220878454
 20
69.2663492206
 30
0.0
 10
44.8488447375
 20
69.301179165
 30
0.0
 10
45.064159887
 20
69.3550052774
 30
0.0
 10
45.2633972614
 20
69.4266863828
 30
0.0
 10
45.3868683663
 20
69.48743905
 30
0.0
 10
45.444462266
 20
69.520690705
 30
0.0
  0
SPLINE
  5
2A1
100
AcDbEntity
  8
0
100
AcDbSpline
 62
7
  6
BYLAYER
 70
0
 71
3
 72
15
 73
11
 74
0
 42
0.0000001
 43
0.0000001
 44
0.0000000001
 40
0.0
 40
0.0
 40
0.0
 40
0.0
 40
0.1478949693
 40
0.2883575983
 40
0.4213004341
 40
0.5471482947
 40
0.6666562576
 40
0.780924039
 40
0.891442125
 40
1.0
 40
1.0
 40
1.0
 40
1.0
 10
45.444462266
 20
69.520690705
 30
0.0
 10
45.4803219644
 20
69.5413941879
 30
0.0
 10
45.548607305
 20
69.5846982146
 30
0.0
 10
45.6420121356
 20
69.6570349338
 30
0.0
 10
45.7229075261
 20
69.734511236
 30
0.0
 10
45.7904881645
 20
69.8164125413
 30
0.0
 10
45.8440971348
 20
69.9020130837
 30
0.0
 10
45.8831136194
 20
69.9905628429
 30
0.0
 10
45.9070817579
 20
70.0811606624
 30
0.0
 10
45.9128085606
 20
70.1425683271
 30
0.0
 10
45.9130803372
 20
70.1729607918
 30
0.0
  0
SPLINE
  5
2A2
100
AcDbEntity
  8
0
100
AcDbSpline
 62
7
  6
BYLAYER
 70
0
 71
3
 72
9
 73
5
 74
0
 42
0.0000001
 43
0.0000001
 44
0.0000000001
 40
0.0
 40
0.0
 40
0.0
 40
0.0
 40
0.2559330993
 40
1.0
 40
1.0
 40
1.0
 40
1.0
 10
43.3246865278
 20
70.9328017646
 30
0.0
 10
43.3145410175
 20
70.9269442865
 30
0.0
 10
43.2752120524
 20
70.9035236156
 30
0.0
 10
43.2371618098
 20
70.8779341715
 30
0.0
 10
43.2098279936
 20
70.8576152655
 30
0.0
  0
SPLINE
  5
2A3
100
AcDbEntity
  8
0
100
AcDbSpline
 62
7
  6
BYLAYER
 70
0
 71
3
 72
34
 73
30
 74
0
 42
0.0000001
 43
0.0000001
 44
0.0000000001
 40
0.0
 40
0.0
 40
0.0
 40
0.0
 40
0.028248602
 40
0.0550475266
 40
0.080516912
 40
0.104836059
 40
0.128253998
 40
0.1510839587
 40
0.1736839492
 40
0.1964298906
 40
0.2196859438
 40
0.2437772225
 40
0.2689681274
 40
0.2954563714
 40
0.3233695653
 40
0.352771895
 40
0.3836709485
 40
0.4160240735
 40
0.4497488437
 40
0.4847257847
 40
0.5577925142
 40
0.6338324812
 40
0.7111867181
 40
0.7881001643
 40
0.8628532074
 40
0.8989354256
 40
0.9339153981
 40
0.9676530954
 40
1.0
 40
1.0
 40
1.0
 40
1.0
 10
43.1754250979
 20
70.8309190415
 30
0.0
 10
43.1508491072
 20
70.8109999739
 30
0.0
 10
43.1047471412
 20
70.7698881569
 30
0.0
 10
43.0441417072
 20
70.702875504
 30
0.0
 10
42.9944610312
 20
70.6326842528
 30
0.0
 10
42.9561787979
 20
70.5598970092
 30
0.0
 10
42.9297020028
 20
70.4851275208
 30
0.0
 10
42.9153413594
 20
70.4090534653
 30
0.0
 10
42.9132595476
 20
70.3324054351
 30
0.0
 10
42.9235074465
 20
70.2559426063
 30
0.0
 10
42.9459233092
 20
70.1804040804
 30
0.0
 10
42.9802649329
 20
70.1064915612
 30
0.0
 10
43.0261404451
 20
70.0348333479
 30
0.0
 10
43.0831151746
 20
69.9660284577
 30
0.0
 10
43.1506608937
 20
69.9006295033
 30
0.0
 10
43.2281837584
 20
69.8391638828
 30
0.0
 10
43.3150204575
 20
69.7821414421
 30
0.0
 10
43.4104199956
 20
69.7300205741
 30
0.0
 10
43.5135790913
 20
69.6832501565
 30
0.0
 10
43.6624289545
 20
69.6277379136
 30
0.0
 10
43.8622148386
 20
69.5746689558
 30
0.0
 10
44.1136695661
 20
69.5380573404
 30
0.0
 10
44.3719286211
 20
69.5288216614
 30
0.0
 10
44.6282239712
 20
69.5472702076
 30
0.0
 10
44.835476328
 20
69.5856567339
 30
0.0
 10
44.9927294916
 20
69.6299968504
 30
0.0
 10
45.103493893
 20
69.6690650606
 30
0.0
 10
45.2074671531
 20
69.7139992998
 30
0.0
 10
45.2731196042
 20
69.7483477354
 30
0.0
 10
45.304490689
 20
69.7664597316
 30
0.0
  0
SPLINE
  5
2A4
100
AcDbEntity
  8
0
100
AcDbSpline
 62
7
  6
BYLAYER
 70
0
 71
3
 72
23
 73
19
 74
0
 42
0.0000001
 43
0.0000001
 44
0.0000000001
 40
0.0
 40
0.0
 40
0.0
 40
0.0
 40
0.0752280201
 40
0.1469956101
 40
0.215234366
 40
0.2800953913
 40
0.3418642748
 40
0.4009566386
 40
0.4579424677
 40
0.5135315463
 40
0.5685328948
 40
0.6237978883
 40
0.6801585897
 40
0.7383679606
 40
0.7990510608
 40
0.8626902699
 40
0.929610818
 40
1.0
 40
1.0
 40
1.0
 40
1.0
 10
45.304490689
 20
69.7664597316
 30
0.0
 10
45.3334285483
 20
69.7831669127
 30
0.0
 10
45.3887510689
 20
69.8180036418
 30
0.0
 10
45.4650966202
 20
69.8757522715
 30
0.0
 10
45.5322522962
 20
69.9373826218
 30
0.0
 10
45.5896606544
 20
70.0023948655
 30
0.0
 10
45.6368470163
 20
70.0703092028
 30
0.0
 10
45.6733958347
 20
70.1406053424
 30
0.0
 10
45.6989483138
 20
70.2127263808
 30
0.0
 10
45.7132300665
 20
70.2860664907
 30
0.0
 10
45.7160928145
 20
70.3599748661
 30
0.0
 10
45.7074824109
 20
70.4337760592
 30
0.0
 10
45.6875267949
 20
70.5068078413
 30
0.0
 10
45.6564209608
 20
70.5784345121
 30
0.0
 10
45.6145052127
 20
70.6480864351
 30
0.0
 10
45.562139837
 20
70.7152099248
 30
0.0
 10
45.4998025489
 20
70.7793059222
 30
0.0
 10
45.4531003197
 20
70.8186936904
 30
0.0
 10
45.4283489521
 20
70.8377956121
 30
0.0
  0
SPLINE
  5
2A5
100
AcDbEntity
  8
0
100
AcDbSpline
 62
7
  6
BYLAYER
 70
0
 71
3
 72
9
 73
5
 74
0
 42
0.0000001
 43
0.0000001
 44
0.0000000001
 40
0.0
 40
0.0
 40
0.0
 40
0.0
 40
0.2430134275
 40
1.0
 40
1.0
 40
1.0
 40
1.0
 10
45.4283489521
 20
70.8377956121
 30
0.0
 10
45.4180138582
 20
70.8457717433
 30
0.0
 10
45.3748897095
 20
70.8778190038
 30
0.0
 10
45.3295178986
 20
70.9068074955
 30
0.0
 10
45.2942984206
 20
70.9271381472
 30
0.0
  0
SPLINE
  5
2A6
100
AcDbEntity
  8
0
100
AcDbSpline
 62
7
  6
BYLAYER
 70
0
 71
3
 72
16
 73
12
 74
0
 42
0.0000001
 43
0.0000001
 44
0.0000000001
 40
0.0
 40
0.0
 40
0.0
 40
0.0
 40
0.1146714071
 40
0.1753984202
 40
0.2379962306
 40
0.3674092199
 40
0.5000244016
 40
0.6326387552
 40
0.7620533945
 40
0.8853098227
 40
1.0
 40
1.0
 40
1.0
 40
1.0
 10
37.2333146763
 20
66.2731547931
 30
0.0
 10
37.1663540743
 20
66.3118081961
 30
0.0
 10
37.0587465082
 20
66.3622667164
 30
0.0
 10
36.9072293518
 20
66.4152853091
 30
0.0
 10
36.7429478403
 20
66.4609984057
 30
0.0
 10
36.5269911913
 20
66.4999019323
 30
0.0
 10
36.2609212206
 20
66.5170724414
 30
0.0
 10
35.9945692784
 20
66.5046360568
 30
0.0
 10
35.7375298449
 20
66.4630159794
 30
0.0
 10
35.4990680037
 20
66.3937483916
 30
0.0
 10
35.3519560406
 20
66.3279273554
 30
0.0
 10
35.2843059326
 20
66.290467673
 30
0.0
  0
SPLINE
  5
2A7
100
AcDbEntity
  8
0
100
AcDbSpline
 62
7
  6
BYLAYER
 70
0
 71
3
 72
15
 73
11
 74
0
 42
0.0000001
 43
0.0000001
 44
0.0000000001
 40
0.0
 40
0.0
 40
0.0
 40
0.0
 40
0.1079632935
 40
0.2179784114
 40
0.331909391
 40
0.4512865985
 40
0.5772470934
 40
0.7105125637
 40
0.8514260467
 40
1.0
 40
1.0
 40
1.0
 40
1.0
 10
37.8520965929
 20
65.5189774377
 30
0.0
 10
37.852375573
 20
65.5501754569
 30
0.0
 10
37.8474614892
 20
65.6133416646
 30
0.0
 10
37.8238850798
 20
65.7067436677
 30
0.0
 10
37.784407662
 20
65.7981979629
 30
0.0
 10
37.7295725064
 20
65.8867523055
 30
0.0
 10
37.6600021615
 20
65.971563525
 30
0.0
 10
37.5764484513
 20
66.0518477138
 30
0.0
 10
37.4797751998
 20
66.1268607953
 30
0.0
 10
37.4090155511
 20
66.1717327142
 30
0.0
 10
37.3718313092
 20
66.1931976133
 30
0.0
  0
SPLINE
  5
2A8
100
AcDbEntity
  8
0
100
AcDbSpline
 62
7
  6
BYLAYER
 70
0
 71
3
 72
15
 73
11
 74
0
 42
0.0000001
 43
0.0000001
 44
0.0000000001
 40
0.0
 40
0.0
 40
0.0
 40
0.0
 40
0.1478949693
 40
0.2883575983
 40
0.4213004341
 40
0.5471482947
 40
0.6666562576
 40
0.780924039
 40
0.891442125
 40
1.0
 40
1.0
 40
1.0
 40
1.0
 10
35.1208451946
 20
66.1996696743
 30
0.0
 10
35.0849854962
 20
66.1789661914
 30
0.0
 10
35.0167001556
 20
66.1356621647
 30
0.0
 10
34.923295325
 20
66.0633254455
 30
0.0
 10
34.8423999346
 20
65.9858491433
 30
0.0
 10
34.7748192961
 20
65.9039478381
 30
0.0
 10
34.7212103259
 20
65.8183472956
 30
0.0
 10
34.6821938413
 20
65.7297975364
 30
0.0
 10
34.6582257028
 20
65.6391997169
 30
0.0
 10
34.6524989
 20
65.5777920522
 30
0.0
 10
34.6522271234
 20
65.5473995875
 30
0.0
  0
SPLINE
  5
2A9
100
AcDbEntity
  8
0
100
AcDbSpline
 62
7
  6
BYLAYER
 70
0
 71
3
 72
26
 73
22
 74
0
 42
0.0000001
 43
0.0000001
 44
0.0000000001
 40
0.0
 40
0.0
 40
0.0
 40
0.0
 40
0.0215001664
 40
0.0432248319
 40
0.0653863029
 40
0.0881767353
 40
0.1117582103
 40
0.1362628565
 40
0.1883508155
 40
0.2449112466
 40
0.3059204982
 40
0.3710131513
 40
0.4395646394
 40
0.5107608242
 40
0.5836570561
 40
0.6572304147
 40
0.7304273069
 40
0.8022125784
 40
0.8716103274
 40
0.9377721148
 40
1.0
 40
1.0
 40
1.0
 40
1.0
 10
34.6522271234
 20
65.5473995875
 30
0.0
 10
34.6520216618
 20
65.5244230479
 30
0.0
 10
34.6545513364
 20
65.4781511968
 30
0.0
 10
34.6671257061
 20
65.4092398429
 30
0.0
 10
34.6883800562
 20
65.3410462233
 30
0.0
 10
34.7181956281
 20
65.2739795412
 30
0.0
 10
34.7563584264
 20
65.2083853526
 30
0.0
 10
34.8193618935
 20
65.121638954
 30
0.0
 10
34.9190112417
 20
65.0189536473
 30
0.0
 10
35.0645576178
 20
64.9098332596
 30
0.0
 10
35.2353863182
 20
64.8143098875
 30
0.0
 10
35.4278663185
 20
64.7343247187
 30
0.0
 10
35.6379432077
 20
64.6715020638
 30
0.0
 10
35.8611524892
 20
64.6271615641
 30
0.0
 10
36.092732396
 20
64.6022415519
 30
0.0
 10
36.3277267039
 20
64.5972750672
 30
0.0
 10
36.5611041012
 20
64.6123658665
 30
0.0
 10
36.7878609933
 20
64.6471958109
 30
0.0
 10
37.0031761428
 20
64.7010219233
 30
0.0
 10
37.2024135172
 20
64.7727030286
 30
0.0
 10
37.325884622
 20
64.8334556958
 30
0.0
 10
37.3834785218
 20
64.8667073509
 30
0.0
  0
SPLINE
  5
2AA
100
AcDbEntity
  8
0
100
AcDbSpline
 62
7
  6
BYLAYER
 70
0
 71
3
 72
15
 73
11
 74
0
 42
0.0000001
 43
0.0000001
 44
0.0000000001
 40
0.0
 40
0.0
 40
0.0
 40
0.0
 40
0.1478949693
 40
0.2883575983
 40
0.4213004341
 40
0.5471482947
 40
0.6666562576
 40
0.780924039
 40
0.891442125
 40
1.0
 40
1.0
 40
1.0
 40
1.0
 10
37.3834785218
 20
64.8667073509
 30
0.0
 10
37.4193382201
 20
64.8874108338
 30
0.0
 10
37.4876235607
 20
64.9307148605
 30
0.0
 10
37.5810283914
 20
65.0030515797
 30
0.0
 10
37.6619237818
 20
65.0805278819
 30
0.0
 10
37.7295044203
 20
65.1624291871
 30
0.0
 10
37.7831133905
 20
65.2480297296
 30
0.0
 10
37.8221298751
 20
65.3365794888
 30
0.0
 10
37.8460980136
 20
65.4271773083
 30
0.0
 10
37.8518248164
 20
65.4885849729
 30
0.0
 10
37.8520965929
 20
65.5189774377
 30
0.0
  0
SPLINE
  5
2AB
100
AcDbEntity
  8
0
100
AcDbSpline
 62
7
  6
BYLAYER
 70
0
 71
3
 72
9
 73
5
 74
0
 42
0.0000001
 43
0.0000001
 44
0.0000000001
 40
0.0
 40
0.0
 40
0.0
 40
0.0
 40
0.2559330993
 40
1.0
 40
1.0
 40
1.0
 40
1.0
 10
35.2637027835
 20
66.2788184105
 30
0.0
 10
35.2535572733
 20
66.2729609324
 30
0.0
 10
35.2142283082
 20
66.2495402615
 30
0.0
 10
35.1761780656
 20
66.2239508174
 30
0.0
 10
35.1488442494
 20
66.2036319113
 30
0.0
  0
SPLINE
  5
2AC
100
AcDbEntity
  8
0
100
AcDbSpline
 62
7
  6
BYLAYER
 70
0
 71
3
 72
34
 73
30
 74
0
 42
0.0000001
 43
0.0000001
 44
0.0000000001
 40
0.0
 40
0.0
 40
0.0
 40
0.0
 40
0.028248602
 40
0.0550475266
 40
0.080516912
 40
0.104836059
 40
0.128253998
 40
0.1510839587
 40
0.1736839492
 40
0.1964298906
 40
0.2196859438
 40
0.2437772225
 40
0.2689681274
 40
0.2954563714
 40
0.3233695653
 40
0.352771895
 40
0.3836709485
 40
0.4160240735
 40
0.4497488437
 40
0.4847257847
 40
0.5577925142
 40
0.6338324812
 40
0.7111867181
 40
0.7881001643
 40
0.8628532074
 40
0.8989354256
 40
0.9339153981
 40
0.9676530954
 40
1.0
 40
1.0
 40
1.0
 40
1.0
 10
35.1144413537
 20
66.1769356873
 30
0.0
 10
35.089865363
 20
66.1570166197
 30
0.0
 10
35.043763397
 20
66.1159048028
 30
0.0
 10
34.9831579629
 20
66.0488921499
 30
0.0
 10
34.933477287
 20
65.9787008986
 30
0.0
 10
34.8951950536
 20
65.9059136551
 30
0.0
 10
34.8687182585
 20
65.8311441666
 30
0.0
 10
34.8543576151
 20
65.7550701111
 30
0.0
 10
34.8522758033
 20
65.6784220809
 30
0.0
 10
34.8625237023
 20
65.6019592522
 30
0.0
 10
34.8849395649
 20
65.5264207262
 30
0.0
 10
34.9192811886
 20
65.4525082071
 30
0.0
 10
34.9651567009
 20
65.3808499938
 30
0.0
 10
35.0221314304
 20
65.3120451036
 30
0.0
 10
35.0896771494
 20
65.2466461492
 30
0.0
 10
35.1672000141
 20
65.1851805286
 30
0.0
 10
35.2540367133
 20
65.1281580879
 30
0.0
 10
35.3494362513
 20
65.07603722
 30
0.0
 10
35.452595347
 20
65.0292668024
 30
0.0
 10
35.6014452103
 20
64.9737545595
 30
0.0
 10
35.8012310944
 20
64.9206856016
 30
0.0
 10
36.0526858219
 20
64.8840739863
 30
0.0
 10
36.3109448769
 20
64.8748383073
 30
0.0
 10
36.5672402269
 20
64.8932868535
 30
0.0
 10
36.7744925838
 20
64.9316733798
 30
0.0
 10
36.9317457473
 20
64.9760134963
 30
0.0
 10
37.0425101487
 20
65.0150817065
 30
0.0
 10
37.1464834089
 20
65.0600159457
 30
0.0
 10
37.2121358599
 20
65.0943643813
 30
0.0
 10
37.2435069448
 20
65.1124763774
 30
0.0
  0
SPLINE
  5
2AD
100
AcDbEntity
  8
0
100
AcDbSpline
 62
7
  6
BYLAYER
 70
0
 71
3
 72
23
 73
19
 74
0
 42
0.0000001
 43
0.0000001
 44
0.0000000001
 40
0.0
 40
0.0
 40
0.0
 40
0.0
 40
0.0752280201
 40
0.1469956101
 40
0.215234366
 40
0.2800953913
 40
0.3418642748
 40
0.4009566386
 40
0.4579424677
 40
0.5135315463
 40
0.5685328948
 40
0.6237978883
 40
0.6801585897
 40
0.7383679606
 40
0.7990510608
 40
0.8626902699
 40
0.929610818
 40
1.0
 40
1.0
 40
1.0
 40
1.0
 10
37.2435069448
 20
65.1124763774
 30
0.0
 10
37.272444804
 20
65.1291835586
 30
0.0
 10
37.3277673246
 20
65.1640202877
 30
0.0
 10
37.404112876
 20
65.2217689174
 30
0.0
 10
37.471268552
 20
65.2833992677
 30
0.0
 10
37.5286769101
 20
65.3484115114
 30
0.0
 10
37.575863272
 20
65.4163258487
 30
0.0
 10
37.6124120904
 20
65.4866219883
 30
0.0
 10
37.6379645695
 20
65.5587430266
 30
0.0
 10
37.6522463223
 20
65.6320831365
 30
0.0
 10
37.6551090703
 20
65.705991512
 30
0.0
 10
37.6464986667
 20
65.7797927051
 30
0.0
 10
37.6265430507
 20
65.8528244872
 30
0.0
 10
37.5954372166
 20
65.924451158
 30
0.0
 10
37.5535214684
 20
65.994103081
 30
0.0
 10
37.5011560928
 20
66.0612265707
 30
0.0
 10
37.4388188046
 20
66.125322568
 30
0.0
 10
37.3921165755
 20
66.1647103362
 30
0.0
 10
37.3673652078
 20
66.183812258
 30
0.0
  0
SPLINE
  5
2AE
100
AcDbEntity
  8
0
100
AcDbSpline
 62
7
  6
BYLAYER
 70
0
 71
3
 72
9
 73
5
 74
0
 42
0.0000001
 43
0.0000001
 44
0.0000000001
 40
0.0
 40
0.0
 40
0.0
 40
0.0
 40
0.2430134275
 40
1.0
 40
1.0
 40
1.0
 40
1.0
 10
37.3673652078
 20
66.183812258
 30
0.0
 10
37.3570301139
 20
66.1917883891
 30
0.0
 10
37.3139059653
 20
66.2238356496
 30
0.0
 10
37.2685341544
 20
66.2528241414
 30
0.0
 10
37.2333146763
 20
66.2731547931
 30
0.0
  0
SPLINE
  5
2AF
100
AcDbEntity
  8
0
100
AcDbSpline
 62
7
  6
BYLAYER
 70
0
 71
3
 72
23
 73
19
 74
0
 42
0.0000001
 43
0.0000001
 44
0.0000000001
 40
0.0
 40
0.0
 40
0.0
 40
0.0
 40
0.0561575537
 40
0.114703074
 40
0.1754032328
 40
0.2379736364
 40
0.3020873809
 40
0.3673859464
 40
0.4334875924
 40
0.4999943772
 40
0.5665013382
 40
0.6326032373
 40
0.6979017489
 40
0.7620163073
 40
0.8245875927
 40
0.8852850298
 40
0.9438384527
 40
1.0
 40
1.0
 40
1.0
 40
1.0
 10
36.1053742969
 20
76.4846017641
 30
0.0
 10
35.934892468
 20
76.5830087694
 30
0.0
 10
35.5780978921
 20
76.7694239762
 30
0.0
 10
35.0128360716
 20
77.0125453107
 30
0.0
 10
34.4108279128
 20
77.2231904984
 30
0.0
 10
33.7776255509
 20
77.3993927984
 30
0.0
 10
33.1190248757
 20
77.5395646768
 30
0.0
 10
32.4410770986
 20
77.6424316024
 30
0.0
 10
31.7500073628
 20
77.7070300852
 30
0.0
 10
31.0521711213
 20
77.7327734571
 30
0.0
 10
30.3539865294
 20
77.7194385353
 30
0.0
 10
29.6618768512
 20
77.6671285983
 30
0.0
 10
28.9822040131
 20
77.5763304033
 30
0.0
 10
28.321210053
 20
77.4478852472
 30
0.0
 10
27.6849818097
 20
77.2829583501
 30
0.0
 10
27.0792990517
 20
77.0830564496
 30
0.0
 10
26.5097805621
 20
76.8499940455
 30
0.0
 10
26.1496947977
 20
76.6699263247
 30
0.0
 10
25.9774770905
 20
76.5745608946
 30
0.0
  0
SPLINE
  5
2B0
100
AcDbEntity
  8
0
100
AcDbSpline
 62
7
  6
BYLAYER
 70
0
 71
3
 72
17
 73
13
 74
0
 42
0.0000001
 43
0.0000001
 44
0.0000000001
 40
0.0
 40
0.0
 40
0.0
 40
0.0
 40
0.0538902881
 40
0.1080412385
 40
0.1627065418
 40
0.2181284337
 40
0.3320368006
 40
0.4513926507
 40
0.5773282525
 40
0.7105676485
 40
0.8514554386
 40
1.0
 40
1.0
 40
1.0
 40
1.0
 10
38.5869029595
 20
73.17265016
 30
0.0
 10
38.5875602613
 20
73.2463908964
 30
0.0
 10
38.5825162135
 20
73.394364529
 30
0.0
 10
38.5558857176
 20
73.6156693481
 30
0.0
 10
38.5102987526
 20
73.8360193777
 30
0.0
 10
38.423631341
 20
74.1303331779
 30
0.0
 10
38.2664491419
 20
74.4946334065
 30
0.0
 10
38.0068161857
 20
74.9138167247
 30
0.0
 10
37.6774529816
 20
75.3153656009
 30
0.0
 10
37.2818865322
 20
75.695467309
 30
0.0
 10
36.8241848154
 20
76.0505895828
 30
0.0
 10
36.4891902401
 20
76.2630428707
 30
0.0
 10
36.3131468287
 20
76.3646645705
 30
0.0
  0
SPLINE
  5
2B1
100
AcDbEntity
  8
0
100
AcDbSpline
 62
7
  6
BYLAYER
 70
0
 71
3
 72
13
 73
9
 74
0
 42
0.0000001
 43
0.0000001
 44
0.0000000001
 40
0.0
 40
0.0
 40
0.0
 40
0.0
 40
0.2682522441
 40
0.5221729311
 40
0.6447253112
 40
0.7648660429
 40
0.8831064516
 40
1.0
 40
1.0
 40
1.0
 40
1.0
 10
23.8985675089
 20
74.9159601547
 30
0.0
 10
23.7706916888
 20
74.776338433
 30
0.0
 10
23.5380451992
 20
74.4889147258
 30
0.0
 10
23.3037783674
 20
74.0966683809
 30
0.0
 10
23.160994051
 20
73.776188947
 30
0.0
 10
23.0766648985
 20
73.535479087
 30
0.0
 10
23.0140822319
 20
73.2923589589
 30
0.0
 10
22.9868921284
 20
73.1283842366
 30
0.0
 10
22.9770495057
 20
73.046470355
 30
0.0
  0
SPLINE
  5
2B2
100
AcDbEntity
  8
0
100
AcDbSpline
 62
7
  6
BYLAYER
 70
0
 71
3
 72
13
 73
9
 74
0
 42
0.0000001
 43
0.0000001
 44
0.0000000001
 40
0.0
 40
0.0
 40
0.0
 40
0.0
 40
0.1157045746
 40
0.2327662559
 40
0.3519429014
 40
0.4739205423
 40
0.7283590582
 40
1.0
 40
1.0
 40
1.0
 40
1.0
 10
39.0517977281
 20
72.7920268653
 30
0.0
 10
39.045943675
 20
72.8874906301
 30
0.0
 10
39.024096805
 20
73.0790635366
 30
0.0
 10
38.9616535199
 20
73.3636837887
 30
0.0
 10
38.8696117296
 20
73.6456331923
 30
0.0
 10
38.705799354
 20
74.0217054549
 30
0.0
 10
38.4249465978
 20
74.4811919493
 30
0.0
 10
38.1406730768
 20
74.812648508
 30
0.0
 10
37.9833934506
 20
74.9729057757
 30
0.0
  0
SPLINE
  5
2B3
100
AcDbEntity
  8
0
100
AcDbSpline
 62
7
  6
BYLAYER
 70
0
 71
3
 72
15
 73
11
 74
0
 42
0.0000001
 43
0.0000001
 44
0.0000000001
 40
0.0
 40
0.0
 40
0.0
 40
0.0
 40
0.1479198775
 40
0.2883550386
 40
0.4212936119
 40
0.5471519559
 40
0.6666563081
 40
0.780923569
 40
0.8914423004
 40
1.0
 40
1.0
 40
1.0
 40
1.0
 10
25.6561289862
 20
76.3953025181
 30
0.0
 10
25.4863269551
 20
76.297267855
 30
0.0
 10
25.1630261908
 20
76.0922739961
 30
0.0
 10
24.720844301
 20
75.7497757575
 30
0.0
 10
24.3378784973
 20
75.3829943742
 30
0.0
 10
24.0178901761
 20
74.9952640617
 30
0.0
 10
23.7641205429
 20
74.5899669733
 30
0.0
 10
23.5793745055
 20
74.1707567441
 30
0.0
 10
23.4659172445
 20
73.7418270362
 30
0.0
 10
23.4387922549
 20
73.4511006567
 30
0.0
 10
23.437509671
 20
73.3072113759
 30
0.0
  0
SPLINE
  5
2B4
100
AcDbEntity
  8
0
100
AcDbSpline
 62
7
  6
BYLAYER
 70
0
 71
3
 72
30
 73
26
 74
0
 42
0.0000001
 43
0.0000001
 44
0.0000000001
 40
0.0
 40
0.0
 40
0.0
 40
0.0
 40
0.0214970954
 40
0.0432185454
 40
0.0653770424
 40
0.0881638957
 40
0.1117423662
 40
0.1362430776
 40
0.1617644824
 40
0.1883717442
 40
0.2161014903
 40
0.2449617545
 40
0.2749377752
 40
0.3059922581
 40
0.3710755359
 40
0.439617061
 40
0.510802926
 40
0.5836887028
 40
0.6572514822
 40
0.7304382436
 40
0.802212351
 40
0.8716025801
 40
0.9377496676
 40
0.9694060687
 40
1.0
 40
1.0
 40
1.0
 40
1.0
 10
23.437509671
 20
73.3072113759
 30
0.0
 10
23.4365400427
 20
73.1984316599
 30
0.0
 10
23.4485251702
 20
72.9793655141
 30
0.0
 10
23.5080303066
 20
72.6531059886
 30
0.0
 10
23.60869376
 20
72.3302659776
 30
0.0
 10
23.7498104432
 20
72.012723634
 30
0.0
 10
23.9305230607
 20
71.7022118076
 30
0.0
 10
24.1497008335
 20
71.4003591209
 30
0.0
 10
24.4061290013
 20
71.1087848458
 30
0.0
 10
24.6983263307
 20
70.8289668568
 30
0.0
 10
25.0247295935
 20
70.5624129584
 30
0.0
 10
25.3835264917
 20
70.3104790465
 30
0.0
 10
25.7728099065
 20
70.0745249033
 30
0.0
 10
26.3384626356
 20
69.778281756
 30
0.0
 10
27.1097421144
 20
69.4577925216
 30
0.0
 10
28.1042483509
 20
69.1603914578
 30
0.0
 10
29.1610252836
 20
68.9504566585
 30
0.0
 10
30.2574045807
 20
68.8324766373
 30
0.0
 10
31.3699623971
 20
68.8089584491
 30
0.0
 10
32.4748464529
 20
68.8804089836
 30
0.0
 10
33.5484434819
 20
69.0453030421
 30
0.0
 10
34.5676906832
 20
69.3001243785
 30
0.0
 10
35.3654985955
 20
69.587119633
 30
0.0
 10
35.9561543124
 20
69.8585708198
 30
0.0
 10
36.2342073632
 20
70.007150503
 30
0.0
 10
36.3682836443
 20
70.0845590179
 30
0.0
  0
SPLINE
  5
2B5
100
AcDbEntity
  8
0
100
AcDbSpline
 62
7
  6
BYLAYER
 70
0
 71
3
 72
9
 73
5
 74
0
 42
0.0000001
 43
0.0000001
 44
0.0000000001
 40
0.0
 40
0.0
 40
0.0
 40
0.0
 40
0.2603213563
 40
1.0
 40
1.0
 40
1.0
 40
1.0
 10
24.6857347193
 20
70.2743118934
 30
0.0
 10
24.6205971662
 20
70.3322369824
 30
0.0
 10
24.3760489864
 20
70.5609497429
 30
0.0
 10
24.1550939723
 20
70.8156314064
 30
0.0
 10
24.0118154205
 20
71.0176614174
 30
0.0
  0
SPLINE
  5
2B6
100
AcDbEntity
  8
0
100
AcDbSpline
 62
7
  6
BYLAYER
 70
0
 71
3
 72
13
 73
9
 74
0
 42
0.0000001
 43
0.0000001
 44
0.0000000001
 40
0.0
 40
0.0
 40
0.0
 40
0.0
 40
0.2643213365
 40
0.5166517669
 40
0.6394457077
 40
0.7605756212
 40
0.8805743862
 40
1.0
 40
1.0
 40
1.0
 40
1.0
 10
24.0118154205
 20
71.0176614174
 30
0.0
 10
23.9177655486
 20
71.1502764976
 30
0.0
 10
23.7503349401
 20
71.4217378864
 30
0.0
 10
23.5944299812
 20
71.784627319
 30
0.0
 10
23.5084464211
 20
72.0778129001
 30
0.0
 10
23.4632218087
 20
72.2973129396
 30
0.0
 10
23.4368059588
 20
72.5177573376
 30
0.0
 10
23.4318067013
 20
72.6651514859
 30
0.0
 10
23.4324613405
 20
72.7386052675
 30
0.0
  0
SPLINE
  5
2B7
100
AcDbEntity
  8
0
100
AcDbSpline
 62
7
  6
BYLAYER
 70
0
 71
3
 72
15
 73
11
 74
0
 42
0.0000001
 43
0.0000001
 44
0.0000000001
 40
0.0
 40
0.0
 40
0.0
 40
0.0
 40
0.1479198775
 40
0.2883550386
 40
0.4212936119
 40
0.5471519559
 40
0.6666563081
 40
0.780923569
 40
0.8914423004
 40
1.0
 40
1.0
 40
1.0
 40
1.0
 10
36.3682836443
 20
70.0845590179
 30
0.0
 10
36.5380856754
 20
70.182593681
 30
0.0
 10
36.8613864397
 20
70.3875875398
 30
0.0
 10
37.3035683295
 20
70.7300857785
 30
0.0
 10
37.6865341332
 20
71.0968671617
 30
0.0
 10
38.0065224543
 20
71.4845974743
 30
0.0
 10
38.2602920876
 20
71.8898945626
 30
0.0
 10
38.445038125
 20
72.3091047919
 30
0.0
 10
38.5584953859
 20
72.7380344998
 30
0.0
 10
38.5856203756
 20
73.0287608792
 30
0.0
 10
38.5869029595
 20
73.17265016
 30
0.0
  0
SPLINE
  5
2B8
100
AcDbEntity
  8
0
100
AcDbSpline
 62
7
  6
BYLAYER
 70
0
 71
3
 72
9
 73
5
 74
0
 42
0.0000001
 43
0.0000001
 44
0.0000000001
 40
0.0
 40
0.0
 40
0.0
 40
0.0
 40
0.2544980591
 40
1.0
 40
1.0
 40
1.0
 40
1.0
 10
25.6504169361
 20
76.3812617601
 30
0.0
 10
25.6135006213
 20
76.3579752696
 30
0.0
 10
25.4693932018
 20
76.2649856138
 30
0.0
 10
25.3291603102
 20
76.1659581232
 30
0.0
 10
25.2273519908
 20
76.0886136713
 30
0.0
  0
SPLINE
  5
2B9
100
AcDbEntity
  8
0
100
AcDbSpline
 62
7
  6
BYLAYER
 70
0
 71
3
 72
38
 73
34
 74
0
 42
0.0000001
 43
0.0000001
 44
0.0000000001
 40
0.0
 40
0.0
 40
0.0
 40
0.0
 40
0.0287469329
 40
0.0560064672
 40
0.0818793626
 40
0.1065264254
 40
0.130183194
 40
0.1531523391
 40
0.175788415
 40
0.1984737677
 40
0.2215866486
 40
0.2454705185
 40
0.2704112387
 40
0.2966260581
 40
0.3242604014
 40
0.3533919689
 40
0.3840390581
 40
0.416167204
 40
0.4496976025
 40
0.4845151014
 40
0.5204731761
 40
0.5574005183
 40
0.5951064485
 40
0.6333847012
 40
0.7107558826
 40
0.7494292929
 40
0.7877857469
 40
0.8256068553
 40
0.8626852641
 40
0.8988257796
 40
0.9338525552
 40
0.9676242784
 40
1.0
 40
1.0
 40
1.0
 40
1.0
 10
25.2273519908
 20
76.0886136713
 30
0.0
 10
25.0928448184
 20
75.9864276852
 30
0.0
 10
24.8397339645
 20
75.7750977571
 30
0.0
 10
24.5040519566
 20
75.4290994436
 30
0.0
 10
24.2254190309
 20
75.0653532348
 30
0.0
 10
24.0065780948
 20
74.6868573339
 30
0.0
 10
23.8497717796
 20
74.2968704328
 30
0.0
 10
23.7568150907
 20
73.8989168432
 30
0.0
 10
23.7289100801
 20
73.4968461705
 30
0.0
 10
23.766378216
 20
73.0947186501
 30
0.0
 10
23.8687347287
 20
72.696563112
 30
0.0
 10
24.0346970028
 20
72.3061865666
 30
0.0
 10
24.2623541104
 20
71.927057572
 30
0.0
 10
24.5494093518
 20
71.5624026984
 30
0.0
 10
24.8931428896
 20
71.2152395934
 30
0.0
 10
25.2904318212
 20
70.8884071099
 30
0.0
 10
25.737791035
 20
70.5846436162
 30
0.0
 10
26.2313058341
 20
70.3064991085
 30
0.0
 10
26.7666684734
 20
70.0563200462
 30
0.0
 10
27.3392246452
 20
69.8362785065
 30
0.0
 10
27.9439756129
 20
69.6482674417
 30
0.0
 10
28.5756237805
 20
69.4939075165
 30
0.0
 10
29.2286820837
 20
69.3745605776
 30
0.0
 10
30.1232654199
 20
69.2631513599
 30
0.0
 10
31.0315277093
 20
69.2261347794
 30
0.0
 10
31.9383774283
 20
69.2633851947
 30
0.0
 10
32.6104986785
 20
69.328353857
 30
0.0
 10
33.268593502
 20
69.4297863432
 30
0.0
 10
33.9069313321
 20
69.5667945903
 30
0.0
 10
34.5199100798
 20
69.73815629
 30
0.0
 10
35.1022270071
 20
69.9424249178
 30
0.0
 10
35.6486756961
 20
70.1778152176
 30
0.0
 10
35.9935700928
 20
70.3580910972
 30
0.0
 10
36.1583262788
 20
70.4532125578
 30
0.0
  0
SPLINE
  5
2BA
100
AcDbEntity
  8
0
100
AcDbSpline
 62
7
  6
BYLAYER
 70
0
 71
3
 72
25
 73
21
 74
0
 42
0.0000001
 43
0.0000001
 44
0.0000000001
 40
0.0
 40
0.0
 40
0.0
 40
0.0
 40
0.0741838111
 40
0.1446719112
 40
0.2114453318
 40
0.2435099076
 40
0.2747333862
 40
0.3348263257
 40
0.3922851996
 40
0.4478243817
 40
0.4751619428
 40
0.5023519676
 40
0.5567284605
 40
0.6119614216
 40
0.668938388
 40
0.7284083415
 40
0.7909462349
 40
0.8569410272
 40
0.9266063302
 40
1.0
 40
1.0
 40
1.0
 40
1.0
 10
36.1583262788
 20
70.4532125578
 30
0.0
 10
36.3192754963
 20
70.5461360771
 30
0.0
 10
36.6259376173
 20
70.740357333
 30
0.0
 10
37.045964108
 20
71.0643992699
 30
0.0
 10
37.354063574
 20
71.3573492428
 30
0.0
 10
37.5697942786
 20
71.6017806296
 30
0.0
 10
37.7599968626
 20
71.8456219831
 30
0.0
 10
37.961008923
 20
72.1609280773
 30
0.0
 10
38.1408839937
 20
72.5571573902
 30
0.0
 10
38.2358754868
 20
72.8973305892
 30
0.0
 10
38.2771640852
 20
73.1702419054
 30
0.0
 10
38.2957552306
 20
73.4427048075
 30
0.0
 10
38.2764362414
 20
73.7865743617
 30
0.0
 10
38.1849113391
 20
74.1955497096
 30
0.0
 10
38.0263831909
 20
74.5971190903
 30
0.0
 10
37.802779801
 20
74.9874176256
 30
0.0
 10
37.5165275062
 20
75.362961083
 30
0.0
 10
37.1705057457
 20
75.7205076945
 30
0.0
 10
36.7680595228
 20
76.05697164
 30
0.0
 10
36.4721024415
 20
76.2601056067
 30
0.0
 10
36.3162999318
 20
76.3577435069
 30
0.0
  0
SPLINE
  5
2BB
100
AcDbEntity
  8
0
100
AcDbSpline
 62
7
  6
BYLAYER
 70
0
 71
3
 72
12
 73
8
 74
0
 42
0.0000001
 43
0.0000001
 44
0.0000000001
 40
0.0
 40
0.0
 40
0.0
 40
0.0
 40
0.118965895
 40
0.2385581113
 40
0.4818096385
 40
0.7344255508
 40
1.0
 40
1.0
 40
1.0
 40
1.0
 10
38.5818502483
 20
72.6040440989
 30
0.0
 10
38.5811639307
 20
72.5270358355
 30
0.0
 10
38.5728442703
 20
72.3725781191
 30
0.0
 10
38.5283428724
 20
72.0635411666
 30
0.0
 10
38.419135739
 20
71.6781176497
 30
0.0
 10
38.207227422
 20
71.230931092
 30
0.0
 10
38.0187127856
 20
70.9518271433
 30
0.0
 10
37.9133093507
 20
70.8160128888
 30
0.0
  0
SPLINE
  5
2BC
100
AcDbEntity
  8
0
100
AcDbSpline
 62
7
  6
BYLAYER
 70
0
 71
3
 72
25
 73
21
 74
0
 42
0.0000001
 43
0.0000001
 44
0.0000000001
 40
0.0
 40
0.0
 40
0.0
 40
0.0
 40
0.0206692512
 40
0.0415820179
 40
0.062967651
 40
0.0850324944
 40
0.1317922127
 40
0.1828983537
 40
0.238765871
 40
0.2993562216
 40
0.3642826795
 40
0.4328994041
 40
0.5043715098
 40
0.5777338137
 40
0.6519444633
 40
0.7259360037
 40
0.7986597634
 40
0.8691204492
 40
0.9364831429
 40
1.0
 40
1.0
 40
1.0
 40
1.0
 10
40.5343821571
 20
12.8909231649
 30
0.0
 10
40.5343843511
 20
12.8089897232
 30
0.0
 10
40.545417089
 20
12.6439552013
 30
0.0
 10
40.5946667401
 20
12.3985841562
 30
0.0
 10
40.6763849086
 20
12.1561748672
 30
0.0
 10
40.8307975941
 20
11.8328171219
 30
0.0
 10
41.1079448961
 20
11.4418687794
 30
0.0
 10
41.5496732746
 20
11.0179229738
 30
0.0
 10
42.0969274175
 20
10.6373758165
 30
0.0
 10
42.738037576
 20
10.3079154234
 30
0.0
 10
43.4596618798
 20
10.0363267442
 30
0.0
 10
44.2466715469
 20
9.8286047768
 30
0.0
 10
45.0824462394
 20
9.6895123076
 30
0.0
 10
45.9492226672
 20
9.6224000704
 30
0.0
 10
46.8285293257
 20
9.6290832256
 30
0.0
 10
47.7016290387
 20
9.7098541909
 30
0.0
 10
48.5498454284
 20
9.8634781584
 30
0.0
 10
49.35531447
 20
10.0869872779
 30
0.0
 10
50.1006079822
 20
10.3762585083
 30
0.0
 10
50.5618791751
 20
10.6169007699
 30
0.0
 10
50.7770403863
 20
10.7476679498
 30
0.0
  0
SPLINE
  5
2BD
100
AcDbEntity
  8
0
100
AcDbSpline
 62
7
  6
BYLAYER
 70
0
 71
3
 72
11
 73
7
 74
0
 42
0.0000001
 43
0.0000001
 44
0.0000000001
 40
0.0
 40
0.0
 40
0.0
 40
0.0
 40
0.2346840879
 40
0.4745069734
 40
0.7275487384
 40
1.0
 40
1.0
 40
1.0
 40
1.0
 10
52.4887702444
 20
12.8975196484
 30
0.0
 10
52.5068574116
 20
12.7285002108
 30
0.0
 10
52.5014094127
 20
12.3807406432
 30
0.0
 10
52.3639306398
 20
11.8670912581
 30
0.0
 10
52.1026161675
 20
11.3736062377
 30
0.0
 10
51.8604434478
 20
11.0768170443
 30
0.0
 10
51.7238151829
 20
10.9344244118
 30
0.0
  0
SPLINE
  5
2BE
100
AcDbEntity
  8
0
100
AcDbSpline
 62
7
  6
BYLAYER
 70
0
 71
3
 72
9
 73
5
 74
0
 42
0.0000001
 43
0.0000001
 44
0.0000000001
 40
0.0
 40
0.0
 40
0.0
 40
0.0
 40
0.481228096
 40
1.0
 40
1.0
 40
1.0
 40
1.0
 10
51.7238151829
 20
10.9344244118
 30
0.0
 10
51.5796721632
 20
10.7841999759
 30
0.0
 10
51.2533299129
 20
10.497236302
 30
0.0
 10
50.890812012
 20
10.2587775714
 30
0.0
 10
50.6964442904
 20
10.1465599188
 30
0.0
  0
SPLINE
  5
2BF
100
AcDbEntity
  8
0
100
AcDbSpline
 62
7
  6
BYLAYER
 70
0
 71
3
 72
25
 73
21
 74
0
 42
0.0000001
 43
0.0000001
 44
0.0000000001
 40
0.0
 40
0.0
 40
0.0
 40
0.0
 40
0.0206692339
 40
0.0415819671
 40
0.0629675837
 40
0.0850324381
 40
0.1317921342
 40
0.1828982141
 40
0.2387657654
 40
0.2993560859
 40
0.364282513
 40
0.4328992329
 40
0.5043712827
 40
0.5777335545
 40
0.6519441591
 40
0.7259356745
 40
0.798659487
 40
0.8691202502
 40
0.9364832348
 40
1.0
 40
1.0
 40
1.0
 40
1.0
 10
40.5343821414
 20
13.7074246912
 30
0.0
 10
40.5343842641
 20
13.6254913257
 30
0.0
 10
40.5454170085
 20
13.4604570044
 30
0.0
 10
40.5946669135
 20
13.215086315
 30
0.0
 10
40.676384942
 20
12.9726771761
 30
0.0
 10
40.8307975397
 20
12.6493195532
 30
0.0
 10
41.1079444184
 20
12.2583712561
 30
0.0
 10
41.5496733259
 20
11.8344264192
 30
0.0
 10
42.0969262952
 20
11.4538781763
 30
0.0
 10
42.7380365724
 20
11.1244181574
 30
0.0
 10
43.4596606856
 20
10.8528301638
 30
0.0
 10
44.2466695507
 20
10.6451067251
 30
0.0
 10
45.0824441118
 20
10.5060160276
 30
0.0
 10
45.9492197401
 20
10.4389025411
 30
0.0
 10
46.8285259943
 20
10.4455843432
 30
0.0
 10
47.7016254653
 20
10.5263569139
 30
0.0
 10
48.5498419936
 20
10.6799810707
 30
0.0
 10
49.35531394
 20
10.903485646
 30
0.0
 10
50.1006069631
 20
11.1927631819
 30
0.0
 10
50.5618749692
 20
11.4334108524
 30
0.0
 10
50.7770403859
 20
11.5641703666
 30
0.0
  0
SPLINE
  5
2C0
100
AcDbEntity
  8
0
100
AcDbSpline
 62
7
  6
BYLAYER
 70
0
 71
3
 72
24
 73
20
 74
0
 42
0.0000001
 43
0.0000001
 44
0.0000000001
 40
0.0
 40
0.0
 40
0.0
 40
0.0
 40
0.0623734511
 40
0.1287398095
 40
0.1983302073
 40
0.2703136317
 40
0.3436965042
 40
0.4174323374
 40
0.4904637489
 40
0.5617563404
 40
0.6303590105
 40
0.6954523948
 40
0.7564039414
 40
0.8128444728
 40
0.8647492808
 40
0.9125277535
 40
0.9571049793
 40
0.9786671064
 40
1.0
 40
1.0
 40
1.0
 40
1.0
 10
50.2467080918
 20
8.662143554
 30
0.0
 10
50.0581297605
 20
8.5532684536
 30
0.0
 10
49.6538651845
 20
8.3540019137
 30
0.0
 10
49.0018347619
 20
8.1176633575
 30
0.0
 10
48.2971252108
 20
7.938798934
 30
0.0
 10
47.5549895573
 20
7.821118654
 30
0.0
 10
46.7910579276
 20
7.7671212007
 30
0.0
 10
46.0216548772
 20
7.7779452282
 30
0.0
 10
45.2631841592
 20
7.8533554811
 30
0.0
 10
44.5318134602
 20
7.9918002305
 30
0.0
 10
43.8430801124
 20
8.1902937793
 30
0.0
 10
43.2115373134
 20
8.4446929039
 30
0.0
 10
42.6504807588
 20
8.7498734173
 30
0.0
 10
42.1716420714
 20
9.0997653682
 30
0.0
 10
41.7851909383
 20
9.4878756488
 30
0.0
 10
41.5000455312
 20
9.9070262395
 30
0.0
 10
41.3520410027
 20
10.2805014389
 30
0.0
 10
41.2940101238
 20
10.5809963064
 30
0.0
 10
41.2843955373
 20
10.7309325166
 30
0.0
 10
41.2844029645
 20
10.8054075145
 30
0.0
  0
SPLINE
  5
2C1
100
AcDbEntity
  8
0
100
AcDbSpline
 62
7
  6
BYLAYER
 70
0
 71
3
 72
25
 73
21
 74
0
 42
0.0000001
 43
0.0000001
 44
0.0000000001
 40
0.0
 40
0.0
 40
0.0
 40
0.0
 40
0.0206692076
 40
0.0415818797
 40
0.0629674812
 40
0.0850323883
 40
0.1317921242
 40
0.1828981478
 40
0.2387657875
 40
0.2993560905
 40
0.364282507
 40
0.4328992757
 40
0.5043712996
 40
0.5777335779
 40
0.65194417
 40
0.7259356707
 40
0.7986595249
 40
0.869120325
 40
0.9364833181
 40
1.0
 40
1.0
 40
1.0
 40
1.0
 10
40.5343821313
 20
14.5239258663
 30
0.0
 10
40.5343842015
 20
14.4419926142
 30
0.0
 10
40.5454169323
 20
14.2769586419
 30
0.0
 10
40.5946671571
 20
14.0315884621
 30
0.0
 10
40.6763852396
 20
13.7891794828
 30
0.0
 10
40.830797814
 20
13.4658215778
 30
0.0
 10
41.1079442869
 20
13.0748727502
 30
0.0
 10
41.5496747322
 20
12.6509292603
 30
0.0
 10
42.0969264191
 20
12.2703793625
 30
0.0
 10
42.7380374404
 20
11.9409200718
 30
0.0
 10
43.4596618674
 20
11.6693333247
 30
0.0
 10
44.2466701435
 20
11.4616076304
 30
0.0
 10
45.0824452142
 20
11.3225195679
 30
0.0
 10
45.9492203781
 20
11.2554046879
 30
0.0
 10
46.8285266027
 20
11.2620854149
 30
0.0
 10
47.701625694
 20
11.3428612513
 30
0.0
 10
48.5498426639
 20
11.4964832639
 30
0.0
 10
49.3553151664
 20
11.7199871602
 30
0.0
 10
50.1006072018
 20
12.0092669679
 30
0.0
 10
50.5618741613
 20
12.2499152873
 30
0.0
 10
50.7770403852
 20
12.3806727833
 30
0.0
  0
SPLINE
  5
2C2
100
AcDbEntity
  8
0
100
AcDbSpline
 62
7
  6
BYLAYER
 70
0
 71
3
 72
25
 73
21
 74
0
 42
0.0000001
 43
0.0000001
 44
0.0000000001
 40
0.0
 40
0.0
 40
0.0
 40
0.0
 40
0.0206691865
 40
0.0415818039
 40
0.0629673983
 40
0.0850323637
 40
0.1317921695
 40
0.1828981686
 40
0.2387658917
 40
0.2993561943
 40
0.3642826189
 40
0.4328994521
 40
0.5043714887
 40
0.5777338002
 40
0.6519444098
 40
0.7259359129
 40
0.7986597848
 40
0.8691205728
 40
0.9364833142
 40
1.0
 40
1.0
 40
1.0
 40
1.0
 10
40.5343821353
 20
15.3404272404
 30
0.0
 10
40.5343842249
 20
15.2584940783
 30
0.0
 10
40.545416935
 20
15.0934604165
 30
0.0
 10
40.5946673213
 20
14.8480906156
 30
0.0
 10
40.6763856782
 20
14.6056817742
 30
0.0
 10
40.8307982533
 20
14.2823233996
 30
0.0
 10
41.1079445922
 20
13.8913738903
 30
0.0
 10
41.5496765439
 20
13.4674313419
 30
0.0
 10
42.0969275053
 20
13.086880208
 30
0.0
 10
42.7380393592
 20
12.7574215807
 30
0.0
 10
43.4596643251
 20
12.4858359332
 30
0.0
 10
44.2466724654
 20
12.2781085466
 30
0.0
 10
45.0824482537
 20
12.1390222767
 30
0.0
 10
45.9492234547
 20
12.0719066635
 30
0.0
 10
46.8285299499
 20
12.0785871645
 30
0.0
 10
47.7016287464
 20
12.1593658789
 30
0.0
 10
48.5498462992
 20
12.3129846142
 30
0.0
 10
49.3553168329
 20
12.5364923056
 30
0.0
 10
50.1006082735
 20
12.8257688256
 30
0.0
 10
50.5618773977
 20
13.0664123866
 30
0.0
 10
50.7770403849
 20
13.1971752002
 30
0.0
  0
SPLINE
  5
2C3
100
AcDbEntity
  8
0
100
AcDbSpline
 62
7
  6
BYLAYER
 70
0
 71
3
 72
25
 73
21
 74
0
 42
0.0000001
 43
0.0000001
 44
0.0000000001
 40
0.0
 40
0.0
 40
0.0
 40
0.0
 40
0.0206691886
 40
0.041581794
 40
0.0629673954
 40
0.0850323894
 40
0.131792257
 40
0.1828982868
 40
0.2387660413
 40
0.2993563667
 40
0.3642828202
 40
0.4328997005
 40
0.5043717873
 40
0.5777341465
 40
0.651944801
 40
0.7259363262
 40
0.7986601755
 40
0.8691209155
 40
0.9364831666
 40
1.0
 40
1.0
 40
1.0
 40
1.0
 10
40.5343821555
 20
16.1569293156
 30
0.0
 10
40.5343843521
 20
16.0749961452
 30
0.0
 10
40.545417056
 20
15.9099625387
 30
0.0
 10
40.5946673206
 20
15.6645927058
 30
0.0
 10
40.6763860922
 20
15.4221839038
 30
0.0
 10
40.8307987143
 20
15.0988251437
 30
0.0
 10
41.1079453843
 20
14.7078752342
 30
0.0
 10
41.5496779006
 20
14.2839325649
 30
0.0
 10
42.0969292744
 20
13.9033814263
 30
0.0
 10
42.7380416419
 20
13.5739230562
 30
0.0
 10
43.4596671304
 20
13.302337708
 30
0.0
 10
44.2466757687
 20
13.0946102877
 30
0.0
 10
45.0824521289
 20
12.9555238844
 30
0.0
 10
45.9492279335
 20
12.8884086414
 30
0.0
 10
46.8285349353
 20
12.8950900845
 30
0.0
 10
47.7016336365
 20
12.9758699255
 30
0.0
 10
48.5498518617
 20
13.1294850419
 30
0.0
 10
49.3553177958
 20
13.3530016505
 30
0.0
 10
50.1006099031
 20
13.6422678262
 30
0.0
 10
50.5618853711
 20
13.8829005584
 30
0.0
 10
50.7770403851
 20
14.0136776175
 30
0.0
  0
SPLINE
  5
2C4
100
AcDbEntity
  8
0
100
AcDbSpline
 62
7
  6
BYLAYER
 70
0
 71
3
 72
14
 73
10
 74
0
 42
0.0000001
 43
0.0000001
 44
0.0000000001
 40
0.0
 40
0.0
 40
0.0
 40
0.0
 40
0.1049681051
 40
0.2124315767
 40
0.3246214053
 40
0.443300538
 40
0.5697171197
 40
0.7045856253
 40
1.0
 40
1.0
 40
1.0
 40
1.0
 10
40.5343821776
 20
16.9734323355
 30
0.0
 10
40.5343854855
 20
16.8560088247
 30
0.0
 10
40.5572978705
 20
16.617789358
 30
0.0
 10
40.65907117
 20
16.2672350638
 30
0.0
 10
40.8267933827
 20
15.9259840458
 30
0.0
 10
41.0577367434
 20
15.5980253405
 30
0.0
 10
41.3490825791
 20
15.2868337607
 30
0.0
 10
41.8277301509
 20
14.8866578236
 30
0.0
 10
42.246157235
 20
14.6406369316
 30
0.0
 10
42.5434730109
 20
14.4963719464
 30
0.0
  0
SPLINE
  5
2C5
100
AcDbEntity
  8
0
100
AcDbSpline
 62
7
  6
BYLAYER
 70
0
 71
3
 72
15
 73
11
 74
0
 42
0.0000001
 43
0.0000001
 44
0.0000000001
 40
0.0
 40
0.0
 40
0.0
 40
0.0
 40
0.1151703944
 40
0.2387909732
 40
0.3683378617
 40
0.5008560276
 40
0.6332076375
 40
0.7623020576
 40
0.8853292769
 40
1.0
 40
1.0
 40
1.0
 40
1.0
 10
42.5434730109
 20
14.4963719464
 30
0.0
 10
42.8382073417
 20
14.3533595422
 30
0.0
 10
43.4734855984
 20
14.1053705074
 30
0.0
 10
44.49299784
 20
13.8536842135
 30
0.0
 10
45.5837969034
 20
13.7160632362
 30
0.0
 10
46.7077498904
 20
13.6982953557
 30
0.0
 10
47.8258070084
 20
13.8018493451
 30
0.0
 10
48.8991772178
 20
14.0240584539
 30
0.0
 10
49.8903427333
 20
14.3580521406
 30
0.0
 10
50.4983315862
 20
14.6607307301
 30
0.0
 10
50.7770403856
 20
14.830180035
 30
0.0
  0
SPLINE
  5
2C6
100
AcDbEntity
  8
0
100
AcDbSpline
 62
7
  6
BYLAYER
 70
0
 71
3
 72
25
 73
21
 74
0
 42
0.0000001
 43
0.0000001
 44
0.0000000001
 40
0.0
 40
0.0
 40
0.0
 40
0.0
 40
0.0206692457
 40
0.0415819517
 40
0.0629675886
 40
0.0850325247
 40
0.1317923954
 40
0.1828985654
 40
0.2387662042
 40
0.2993565925
 40
0.3642831044
 40
0.43289995
 40
0.5043721283
 40
0.5777345283
 40
0.6519452643
 40
0.7259368314
 40
0.7986605075
 40
0.8691212875
 40
0.9364823976
 40
1.0
 40
1.0
 40
1.0
 40
1.0
 10
40.534382187
 20
17.7899361526
 30
0.0
 10
40.5343845392
 20
17.7080027324
 30
0.0
 10
40.5454172785
 20
17.5429684904
 30
0.0
 10
40.5946670024
 20
17.2975976813
 30
0.0
 10
40.6763859618
 20
17.0551885154
 30
0.0
 10
40.8307988358
 20
16.7318298173
 30
0.0
 10
41.1079465306
 20
16.3408802532
 30
0.0
 10
41.5496771801
 20
15.9169350969
 30
0.0
 10
42.0969314832
 20
15.536386961
 30
0.0
 10
42.7380432386
 20
15.2069275565
 30
0.0
 10
43.459668817
 20
14.9353401813
 30
0.0
 10
44.2466791246
 20
14.7276167016
 30
0.0
 10
45.0824553472
 20
14.5885261102
 30
0.0
 10
45.949232646
 20
14.5214134363
 30
0.0
 10
46.8285404649
 20
14.5280980351
 30
0.0
 10
47.7016390531
 20
14.6088748572
 30
0.0
 10
48.5498594085
 20
14.7624822963
 30
0.0
 10
49.3553124917
 20
14.9860284484
 30
0.0
 10
50.1006122698
 20
15.275257405
 30
0.0
 10
50.5619117805
 20
15.5158559509
 30
0.0
 10
50.7770403859
 20
15.6466824523
 30
0.0
  0
SPLINE
  5
2C7
100
AcDbEntity
  8
0
100
AcDbSpline
 62
7
  6
BYLAYER
 70
0
 71
3
 72
15
 73
11
 74
0
 42
0.0000001
 43
0.0000001
 44
0.0000000001
 40
0.0
 40
0.0
 40
0.0
 40
0.0
 40
0.1146982203
 40
0.2379611628
 40
0.3673844434
 40
0.5000057572
 40
0.6326305281
 40
0.7620531538
 40
0.8853210521
 40
1.0
 40
1.0
 40
1.0
 40
1.0
 10
36.8301632278
 20
69.914698137
 30
0.0
 10
36.4242577105
 20
69.6899457516
 30
0.0
 10
35.5415979985
 20
69.2950077422
 30
0.0
 10
34.1108312798
 20
68.8794083698
 30
0.0
 10
32.5686043314
 20
68.6296867446
 30
0.0
 10
30.9705190621
 20
68.5550796395
 30
0.0
 10
29.3740184428
 20
68.6580926627
 30
0.0
 10
27.8364349417
 20
68.9351713579
 30
0.0
 10
26.4133660377
 20
69.3761863902
 30
0.0
 10
25.5378834958
 20
69.7866582219
 30
0.0
 10
25.1361214315
 20
70.0185802565
 30
0.0
  0
SPLINE
  5
2C8
100
AcDbEntity
  8
0
100
AcDbSpline
 62
7
  6
BYLAYER
 70
0
 71
3
 72
10
 73
6
 74
0
 42
0.0000001
 43
0.0000001
 44
0.0000000001
 40
0.0
 40
0.0
 40
0.0
 40
0.0
 40
0.2732545245
 40
0.5307969351
 40
1.0
 40
1.0
 40
1.0
 40
1.0
 10
25.1348823642
 20
70.023757855
 30
0.0
 10
24.9382966688
 20
70.1458081931
 30
0.0
 10
24.5670564421
 20
70.4012223172
 30
0.0
 10
23.9246086011
 20
70.9536701609
 30
0.0
 10
23.529705427
 20
71.4389907285
 30
0.0
 10
23.3322486902
 20
71.7837731558
 30
0.0
  0
SPLINE
  5
2C9
100
AcDbEntity
  8
0
100
AcDbSpline
 62
7
  6
BYLAYER
 70
0
 71
3
 72
11
 73
7
 74
0
 42
0.0000001
 43
0.0000001
 44
0.0000000001
 40
0.0
 40
0.0
 40
0.0
 40
0.0
 40
0.2597227634
 40
0.5112813348
 40
0.7571134345
 40
1.0
 40
1.0
 40
1.0
 40
1.0
 10
23.3072693795
 20
71.8281129888
 30
0.0
 10
23.2421675327
 20
71.9456140087
 30
0.0
 10
23.1269392984
 20
72.1844365036
 30
0.0
 10
23.0011064951
 20
72.5563434246
 30
0.0
 10
22.9265865867
 20
72.9330150642
 30
0.0
 10
22.911434374
 20
73.1862562776
 30
0.0
 10
22.9125387713
 20
73.3118743171
 30
0.0
  0
SPLINE
  5
2CA
100
AcDbEntity
  8
0
100
AcDbSpline
 62
7
  6
BYLAYER
 70
0
 71
3
 72
11
 73
7
 74
0
 42
0.0000001
 43
0.0000001
 44
0.0000000001
 40
0.0
 40
0.0
 40
0.0
 40
0.0
 40
0.2429680911
 40
0.4888494892
 40
0.7403808521
 40
1.0
 40
1.0
 40
1.0
 40
1.0
 10
39.1118738592
 20
73.1679872189
 30
0.0
 10
39.1107769302
 20
73.0432186414
 30
0.0
 10
39.0913811216
 20
72.7920121191
 30
0.0
 10
39.0111976067
 20
72.4192568
 30
0.0
 10
38.8806265949
 20
72.051997529
 30
0.0
 10
38.7626473845
 20
71.8167047293
 30
0.0
 10
38.6963236629
 20
71.7010477056
 30
0.0
  0
SPLINE
  5
2CB
100
AcDbEntity
  8
0
100
AcDbSpline
 62
7
  6
BYLAYER
 70
0
 71
3
 72
11
 73
7
 74
0
 42
0.0000001
 43
0.0000001
 44
0.0000000001
 40
0.0
 40
0.0
 40
0.0
 40
0.0
 40
0.2273190581
 40
0.4689687443
 40
0.7264605611
 40
1.0
 40
1.0
 40
1.0
 40
1.0
 10
38.6963236629
 20
71.7010477056
 30
0.0
 10
38.5982218065
 20
71.5299751473
 30
0.0
 10
38.366289203
 20
71.1934236169
 30
0.0
 10
37.9368444301
 20
70.729733818
 30
0.0
 10
37.4218863263
 20
70.2981993576
 30
0.0
 10
37.0373330372
 20
70.042767137
 30
0.0
 10
36.8335863764
 20
69.9211132235
 30
0.0
  0
SPLINE
  5
2CC
100
AcDbEntity
  8
0
100
AcDbSpline
 62
7
  6
BYLAYER
 70
0
 71
3
 72
15
 73
11
 74
0
 42
0.0000001
 43
0.0000001
 44
0.0000000001
 40
0.0
 40
0.0
 40
0.0
 40
0.0
 40
0.1156265256
 40
0.2390754325
 40
0.3680768253
 40
0.4999633517
 40
0.6318585252
 40
0.7608470218
 40
0.8843323758
 40
1.0
 40
1.0
 40
1.0
 40
1.0
 10
37.7150829852
 20
64.728072954
 30
0.0
 10
37.6108261498
 20
64.6746537604
 30
0.0
 10
37.3864820697
 20
64.5808691692
 30
0.0
 10
37.025989108
 20
64.4822046883
 30
0.0
 10
36.6402850707
 20
64.4231091003
 30
0.0
 10
36.2419778212
 20
64.405577003
 30
0.0
 10
35.8440632336
 20
64.4302282168
 30
0.0
 10
35.4594346662
 20
64.4961606362
 30
0.0
 10
35.1007101195
 20
64.601316766
 30
0.0
 10
34.8780150267
 20
64.6991435689
 30
0.0
 10
34.7746925508
 20
64.7544366176
 30
0.0
  0
SPLINE
  5
2CD
100
AcDbEntity
  8
0
100
AcDbSpline
 62
7
  6
BYLAYER
 70
0
 71
3
 72
11
 73
7
 74
0
 42
0.0000001
 43
0.0000001
 44
0.0000000001
 40
0.0
 40
0.0
 40
0.0
 40
0.0
 40
0.2250848596
 40
0.4615610681
 40
0.7182054844
 40
1.0
 40
1.0
 40
1.0
 40
1.0
 10
38.3528007756
 20
65.5957658901
 30
0.0
 10
38.3521941794
 20
65.5273655259
 30
0.0
 10
38.3302028604
 20
65.3865652119
 30
0.0
 10
38.2380526948
 20
65.1861730593
 30
0.0
 10
38.0911191678
 20
64.9998295584
 30
0.0
 10
37.9658614984
 20
64.8929937709
 30
0.0
 10
37.8966213714
 20
64.8426002126
 30
0.0
  0
SPLINE
  5
2CE
100
AcDbEntity
  8
0
100
AcDbSpline
 62
7
  6
BYLAYER
 70
0
 71
3
 72
11
 73
7
 74
0
 42
0.0000001
 43
0.0000001
 44
0.0000000001
 40
0.0
 40
0.0
 40
0.0
 40
0.0
 40
0.2250848596
 40
0.4615610681
 40
0.7182054844
 40
1.0
 40
1.0
 40
1.0
 40
1.0
 10
46.4137845198
 20
70.2497492442
 30
0.0
 10
46.4131779236
 20
70.18134888
 30
0.0
 10
46.3911866047
 20
70.0405485661
 30
0.0
 10
46.299036439
 20
69.8401564134
 30
0.0
 10
46.152102912
 20
69.6538129125
 30
0.0
 10
46.0268452427
 20
69.546977125
 30
0.0
 10
45.9576051157
 20
69.4965835668
 30
0.0
  0
SPLINE
  5
2CF
100
AcDbEntity
  8
0
100
AcDbSpline
 62
7
  6
BYLAYER
 70
0
 71
3
 72
15
 73
11
 74
0
 42
0.0000001
 43
0.0000001
 44
0.0000000001
 40
0.0
 40
0.0
 40
0.0
 40
0.0
 40
0.1156265256
 40
0.2390754325
 40
0.3680768253
 40
0.4999633517
 40
0.6318585252
 40
0.7608470218
 40
0.8843323758
 40
1.0
 40
1.0
 40
1.0
 40
1.0
 10
45.7760667295
 20
69.3820563081
 30
0.0
 10
45.671809894
 20
69.3286371146
 30
0.0
 10
45.447465814
 20
69.2348525234
 30
0.0
 10
45.0869728523
 20
69.1361880424
 30
0.0
 10
44.701268815
 20
69.0770924545
 30
0.0
 10
44.3029615654
 20
69.0595603571
 30
0.0
 10
43.9050469778
 20
69.084211571
 30
0.0
 10
43.5204184104
 20
69.1501439904
 30
0.0
 10
43.1616938637
 20
69.2553001201
 30
0.0
 10
42.9389987709
 20
69.353126923
 30
0.0
 10
42.835676295
 20
69.4084199717
 30
0.0
  0
SPLINE
  5
2D0
100
AcDbEntity
  8
0
100
AcDbSpline
 62
7
  6
BYLAYER
 70
0
 71
3
 72
21
 73
17
 74
0
 42
0.0000001
 43
0.0000001
 44
0.0000000001
 40
0.0
 40
0.0
 40
0.0
 40
0.0
 40
0.0242519864
 40
0.0536853581
 40
0.0908342275
 40
0.1368069481
 40
0.1914920322
 40
0.2537733346
 40
0.3224293627
 40
0.3961449968
 40
0.4735394326
 40
0.553217909
 40
0.7136311838
 40
0.866203184
 40
0.9361340766
 40
1.0
 40
1.0
 40
1.0
 40
1.0
 10
39.4490189509
 20
55.3297199437
 30
0.0
 10
39.4786942591
 20
55.3468528886
 30
0.0
 10
39.5498006635
 20
55.3760572966
 30
0.0
 10
39.6784040432
 20
55.3918935677
 30
0.0
 10
39.8377860662
 20
55.3770253349
 30
0.0
 10
40.0258298186
 20
55.3229872145
 30
0.0
 10
40.2356003871
 20
55.2263273036
 30
0.0
 10
40.4578532395
 20
55.0858504824
 30
0.0
 10
40.6838163806
 20
54.904573009
 30
0.0
 10
40.9057017164
 20
54.6866787918
 30
0.0
 10
41.116722752
 20
54.4375010082
 30
0.0
 10
41.3763646488
 20
54.0711342099
 30
0.0
 10
41.6397811501
 20
53.5799089688
 30
0.0
 10
41.8139750617
 20
53.0642431798
 30
0.0
 10
41.8851406639
 20
52.665319928
 30
0.0
 10
41.8978549099
 20
52.4761617946
 30
0.0
 10
41.8978549099
 20
52.3859245475
 30
0.0
  0
SPLINE
  5
2D1
100
AcDbEntity
  8
0
100
AcDbSpline
 62
7
  6
BYLAYER
 70
0
 71
3
 72
14
 73
10
 74
0
 42
0.0000001
 43
0.0000001
 44
0.0000000001
 40
0.0
 40
0.0
 40
0.0
 40
0.0
 40
0.1850458907
 40
0.3524009735
 40
0.6314131236
 40
0.7443956734
 40
0.8408865316
 40
0.9246897995
 40
1.0
 40
1.0
 40
1.0
 40
1.0
 10
41.8978549099
 20
50.7529197133
 30
0.0
 10
41.8978549099
 20
50.6992643394
 30
0.0
 10
41.8936944569
 20
50.5969758435
 30
0.0
 10
41.8696004362
 20
50.4154030532
 30
0.0
 10
41.8245450763
 20
50.2577264621
 30
0.0
 10
41.7589507078
 20
50.1317466515
 30
0.0
 10
41.7090267952
 20
50.0624695088
 30
0.0
 10
41.6560559971
 20
50.0101251645
 30
0.0
 10
41.6179205159
 20
49.9837186316
 30
0.0
 10
41.5990093256
 20
49.972800316
 30
0.0
  0
SPLINE
  5
2D2
100
AcDbEntity
  8
0
100
AcDbSpline
 62
7
  6
BYLAYER
 70
0
 71
3
 72
14
 73
10
 74
0
 42
0.0000001
 43
0.0000001
 44
0.0000000001
 40
0.0
 40
0.0
 40
0.0
 40
0.0
 40
0.1850458907
 40
0.3524009735
 40
0.6314131236
 40
0.7443956734
 40
0.8408865316
 40
0.9246897995
 40
1.0
 40
1.0
 40
1.0
 40
1.0
 10
41.8978549099
 20
27.8908520336
 30
0.0
 10
41.8978549099
 20
27.8371966598
 30
0.0
 10
41.8936944569
 20
27.7349081638
 30
0.0
 10
41.8696004362
 20
27.5533353736
 30
0.0
 10
41.8245450763
 20
27.3956587825
 30
0.0
 10
41.7589507078
 20
27.2696789719
 30
0.0
 10
41.7090267952
 20
27.2004018292
 30
0.0
 10
41.6560559971
 20
27.1480574849
 30
0.0
 10
41.6179205159
 20
27.121650952
 30
0.0
 10
41.5990093256
 20
27.1107326364
 30
0.0
  0
SPLINE
  5
2D3
100
AcDbEntity
  8
0
100
AcDbSpline
 62
7
  6
BYLAYER
 70
0
 71
3
 72
10
 73
6
 74
0
 42
0.0000001
 43
0.0000001
 44
0.0000000001
 40
0.0
 40
0.0
 40
0.0
 40
0.0
 40
0.2614328411
 40
0.5161556946
 40
1.0
 40
1.0
 40
1.0
 40
1.0
 10
26.5057370534
 20
85.6250955899
 30
0.0
 10
25.7445893016
 20
85.4866748375
 30
0.0
 10
24.2493751246
 20
85.1683634375
 30
0.0
 10
21.3983493161
 20
84.372280213
 30
0.0
 10
19.3515363848
 20
83.5784608108
 30
0.0
 10
18.0617690396
 20
82.9567474738
 30
0.0
  0
SPLINE
  5
2D4
100
AcDbEntity
  8
0
100
AcDbSpline
 62
7
  6
BYLAYER
 70
0
 71
3
 72
21
 73
17
 74
0
 42
0.0000001
 43
0.0000001
 44
0.0000000001
 40
0.0
 40
0.0
 40
0.0
 40
0.0
 40
0.0242519864
 40
0.0536853581
 40
0.0908342275
 40
0.1368069481
 40
0.1914920322
 40
0.2537733346
 40
0.3224293627
 40
0.3961449968
 40
0.4735394326
 40
0.553217909
 40
0.7136311838
 40
0.866203184
 40
0.9361340766
 40
1.0
 40
1.0
 40
1.0
 40
1.0
 10
39.4490189509
 20
30.8346474298
 30
0.0
 10
39.4786942591
 20
30.8517803747
 30
0.0
 10
39.5498006635
 20
30.8809847827
 30
0.0
 10
39.6784040432
 20
30.8968210538
 30
0.0
 10
39.8377860662
 20
30.881952821
 30
0.0
 10
40.0258298186
 20
30.8279147006
 30
0.0
 10
40.2356003871
 20
30.7312547897
 30
0.0
 10
40.4578532395
 20
30.5907779685
 30
0.0
 10
40.6838163806
 20
30.4095004951
 30
0.0
 10
40.9057017164
 20
30.1916062779
 30
0.0
 10
41.116722752
 20
29.9424284944
 30
0.0
 10
41.3763646488
 20
29.5760616961
 30
0.0
 10
41.6397811501
 20
29.084836455
 30
0.0
 10
41.8139750617
 20
28.5691706659
 30
0.0
 10
41.8851406639
 20
28.1702474141
 30
0.0
 10
41.8978549099
 20
27.9810892807
 30
0.0
 10
41.8978549099
 20
27.8908520336
 30
0.0
  0
SPLINE
  5
2D5
100
AcDbEntity
  8
0
100
AcDbSpline
 62
7
  6
BYLAYER
 70
0
 71
3
 72
11
 73
7
 74
0
 42
0.0000001
 43
0.0000001
 44
0.0000000001
 40
0.0
 40
0.0
 40
0.0
 40
0.0
 40
0.2345286054
 40
0.4803302689
 40
0.7360775344
 40
1.0
 40
1.0
 40
1.0
 40
1.0
 10
15.2676201231
 20
81.3970587034
 30
0.0
 10
14.5848819657
 20
80.9820412604
 30
0.0
 10
13.22855467
 20
80.0615569325
 30
0.0
 10
11.2835184362
 20
78.4743973007
 30
0.0
 10
9.4010262952
 20
76.6660349012
 30
0.0
 10
8.2188354862
 20
75.3457187993
 30
0.0
 10
7.6430793163
 20
74.6551252765
 30
0.0
  0
SPLINE
  5
2D6
100
AcDbEntity
  8
0
100
AcDbSpline
 62
7
  6
BYLAYER
 70
0
 71
3
 72
9
 73
5
 74
0
 42
0.0000001
 43
0.0000001
 44
0.0000000001
 40
0.0
 40
0.0
 40
0.0
 40
0.0
 40
0.2447808573
 40
1.0
 40
1.0
 40
1.0
 40
1.0
 10
15.9619536889
 20
81.8192727989
 30
0.0
 10
16.1284971895
 20
81.9205124796
 30
0.0
 10
16.8141949543
 20
82.3253162929
 30
0.0
 10
17.5201720646
 20
82.6955532383
 30
0.0
 10
18.0618270111
 20
82.9567053934
 30
0.0
  0
SPLINE
  5
2D7
100
AcDbEntity
  8
0
100
AcDbSpline
 62
7
  6
BYLAYER
 70
0
 71
3
 72
14
 73
10
 74
0
 42
0.0000001
 43
0.0000001
 44
0.0000000001
 40
0.0
 40
0.0
 40
0.0
 40
0.0
 40
0.1080439422
 40
0.2181284668
 40
0.3321077756
 40
0.4514902564
 40
0.5774362336
 40
0.710737574
 40
1.0
 40
1.0
 40
1.0
 40
1.0
 10
51.784361105
 20
10.805407516
 30
0.0
 10
51.7843511936
 20
10.7060219724
 30
0.0
 10
51.7671083548
 20
10.5049706297
 30
0.0
 10
51.6900647631
 20
10.2080026863
 30
0.0
 10
51.5628740804
 20
9.9174576039
 30
0.0
 10
51.3872672398
 20
9.6362231022
 30
0.0
 10
51.1650176438
 20
9.3668570836
 30
0.0
 10
50.7998802102
 20
9.0174042442
 30
0.0
 10
50.4771418492
 20
8.7951837518
 30
0.0
 10
50.2467080918
 20
8.662143554
 30
0.0
  0
SPLINE
  5
2D8
100
AcDbEntity
  8
0
100
AcDbSpline
 62
7
  6
BYLAYER
 70
0
 71
3
 72
11
 73
7
 74
0
 42
0.0000001
 43
0.0000001
 44
0.0000000001
 40
0.0
 40
0.0
 40
0.0
 40
0.0
 40
0.2799324006
 40
0.5390548021
 40
0.7781233168
 40
1.0
 40
1.0
 40
1.0
 40
1.0
 10
42.4847895872
 20
10.081646148
 30
0.0
 10
42.3150192107
 20
10.1796640875
 30
0.0
 10
41.9982260025
 20
10.3870305985
 30
0.0
 10
41.5851353888
 20
10.745335891
 30
0.0
 10
41.2596241711
 20
11.1334869233
 30
0.0
 10
41.1005389628
 20
11.4173487268
 30
0.0
 10
41.0399901344
 20
11.5604441813
 30
0.0
  0
SPLINE
  5
2D9
100
AcDbEntity
  8
0
100
AcDbSpline
 62
7
  6
BYLAYER
 70
0
 71
3
 72
25
 73
21
 74
0
 42
0.0000001
 43
0.0000001
 44
0.0000000001
 40
0.0
 40
0.0
 40
0.0
 40
0.0
 40
0.020669269
 40
0.0415820169
 40
0.0629676444
 40
0.0850325113
 40
0.1317922855
 40
0.1828984502
 40
0.2387659908
 40
0.2993563571
 40
0.3642828366
 40
0.4328995956
 40
0.5043717352
 40
0.5777340755
 40
0.6519447596
 40
0.7259363046
 40
0.7986599715
 40
0.8691209486
 40
0.9364820472
 40
1.0
 40
1.0
 40
1.0
 40
1.0
 10
40.5343821689
 20
18.6064399179
 30
0.0
 10
40.5343844196
 20
18.5245063927
 30
0.0
 10
40.5454171318
 20
18.3594718546
 30
0.0
 10
40.5946667785
 20
18.1141007822
 30
0.0
 10
40.6763852355
 20
17.8716915527
 30
0.0
 10
40.8307980341
 20
17.5483334919
 30
0.0
 10
41.1079455399
 20
17.1573846681
 30
0.0
 10
41.5496745651
 20
16.733438787
 30
0.0
 10
42.0969291477
 20
16.3528916562
 30
0.0
 10
42.7380398061
 20
16.0234314499
 30
0.0
 10
43.4596645971
 20
15.7518429452
 30
0.0
 10
44.2466747557
 20
15.5441209316
 30
0.0
 10
45.0824500634
 20
15.4050287825
 30
0.0
 10
45.9492269626
 20
15.3379162289
 30
0.0
 10
46.828534356
 20
15.3446007716
 30
0.0
 10
47.7016328228
 20
15.4253756539
 30
0.0
 10
48.5498545962
 20
15.5789811348
 30
0.0
 10
49.3553062424
 20
15.80253578
 30
0.0
 10
50.1006109922
 20
16.0917541126
 30
0.0
 10
50.5619188625
 20
16.3323439771
 30
0.0
 10
50.7770403863
 20
16.4631848697
 30
0.0
  0
SPLINE
  5
2DA
100
AcDbEntity
  8
0
100
AcDbSpline
 62
7
  6
BYLAYER
 70
0
 71
3
 72
11
 73
7
 74
0
 42
0.0000001
 43
0.0000001
 44
0.0000000001
 40
0.0
 40
0.0
 40
0.0
 40
0.0
 40
0.2820523348
 40
0.5386606914
 40
0.7750153206
 40
1.0
 40
1.0
 40
1.0
 40
1.0
 10
42.658222711
 20
69.5247688762
 30
0.0
 10
42.5896255427
 20
69.5764633171
 30
0.0
 10
42.4658306134
 20
69.6856141844
 30
0.0
 10
42.3217238985
 20
69.8748308488
 30
0.0
 10
42.2329278311
 20
70.0771500314
 30
0.0
 10
42.2133420971
 20
70.2185405006
 30
0.0
 10
42.213949691
 20
70.2870533706
 30
0.0
  0
SPLINE
  5
2DB
100
AcDbEntity
  8
0
100
AcDbSpline
 62
7
  6
BYLAYER
 70
0
 71
3
 72
14
 73
10
 74
0
 42
0.0000001
 43
0.0000001
 44
0.0000000001
 40
0.0
 40
0.0
 40
0.0
 40
0.0
 40
0.2865923911
 40
0.4192843873
 40
0.5451283924
 40
0.66487897
 40
0.7796158611
 40
0.8907481367
 40
1.0
 40
1.0
 40
1.0
 40
1.0
 10
50.7770403863
 20
10.7476679498
 30
0.0
 10
51.0411627099
 20
10.9081919179
 30
0.0
 10
51.410528281
 20
11.1752708461
 30
0.0
 10
51.8270406317
 20
11.5915465287
 30
0.0
 10
52.0809663534
 20
11.9122046802
 30
0.0
 10
52.2815402383
 20
12.2464104787
 30
0.0
 10
52.42679892
 20
12.5911838044
 30
0.0
 10
52.5146559455
 20
12.9432397831
 30
0.0
 10
52.534384748
 20
13.1813540908
 30
0.0
 10
52.5343819209
 20
13.2991772818
 30
0.0
  0
SPLINE
  5
2DC
100
AcDbEntity
  8
0
100
AcDbSpline
 62
7
  6
BYLAYER
 70
0
 71
3
 72
11
 73
7
 74
0
 42
0.0000001
 43
0.0000001
 44
0.0000000001
 40
0.0
 40
0.0
 40
0.0
 40
0.0
 40
0.2820523348
 40
0.5386606914
 40
0.7750153206
 40
1.0
 40
1.0
 40
1.0
 40
1.0
 10
34.5972389667
 20
64.8707855221
 30
0.0
 10
34.5286417984
 20
64.922479963
 30
0.0
 10
34.4048468692
 20
65.0316308303
 30
0.0
 10
34.2607401543
 20
65.2208474946
 30
0.0
 10
34.1719440869
 20
65.4231666773
 30
0.0
 10
34.1523583529
 20
65.5645571465
 30
0.0
 10
34.1529659468
 20
65.6330700165
 30
0.0
  0
SPLINE
  5
2DD
100
AcDbEntity
  8
0
100
AcDbSpline
 62
7
  6
BYLAYER
 70
0
 71
3
 72
11
 73
7
 74
0
 42
0.0000001
 43
0.0000001
 44
0.0000000001
 40
0.0
 40
0.0
 40
0.0
 40
0.0
 40
0.2732118192
 40
0.5307381582
 40
0.7725079488
 40
1.0
 40
1.0
 40
1.0
 40
1.0
 10
50.7770403852
 20
12.3806727833
 30
0.0
 10
50.9364048658
 20
12.4775193054
 30
0.0
 10
51.2370630691
 20
12.6810072723
 30
0.0
 10
51.6388363412
 20
13.0243989299
 30
0.0
 10
51.9727761012
 20
13.3931885611
 30
0.0
 10
52.1519236197
 20
13.6605456414
 30
0.0
 10
52.2272292044
 20
13.796340157
 30
0.0
  0
SPLINE
  5
2DE
100
AcDbEntity
  8
0
100
AcDbSpline
 62
7
  6
BYLAYER
 70
0
 71
3
 72
15
 73
11
 74
0
 42
0.0000001
 43
0.0000001
 44
0.0000000001
 40
0.0
 40
0.0
 40
0.0
 40
0.0
 40
0.1085568865
 40
0.2190753232
 40
0.3333472833
 40
0.4528495356
 40
0.5786920153
 40
0.7116462653
 40
0.8521279728
 40
1.0
 40
1.0
 40
1.0
 40
1.0
 10
22.9125387713
 20
73.3118743171
 30
0.0
 10
22.9138914678
 20
73.4657347947
 30
0.0
 10
22.9429418986
 20
73.7766045031
 30
0.0
 10
23.064210496
 20
74.2352784038
 30
0.0
 10
23.2618158856
 20
74.6835232877
 30
0.0
 10
23.533128162
 20
75.1169114568
 30
0.0
 10
23.8752914673
 20
75.5315115182
 30
0.0
 10
24.2848317136
 20
75.9237761433
 30
0.0
 10
24.7577307683
 20
76.289950627
 30
0.0
 10
25.1034043558
 20
76.509196648
 30
0.0
 10
25.2849157059
 20
76.6139916493
 30
0.0
  0
SPLINE
  5
2DF
100
AcDbEntity
  8
0
100
AcDbSpline
 62
7
  6
BYLAYER
 70
0
 71
3
 72
19
 73
15
 74
0
 42
0.0000001
 43
0.0000001
 44
0.0000000001
 40
0.0
 40
0.0
 40
0.0
 40
0.0
 40
0.042841382
 40
0.0874487432
 40
0.1352623536
 40
0.1872017764
 40
0.2436828663
 40
0.3046777665
 40
0.4382862876
 40
0.582563989
 40
0.7296548231
 40
0.8711716893
 40
0.937609917
 40
1.0
 40
1.0
 40
1.0
 40
1.0
 10
41.599009326
 20
27.1107326358
 30
0.0
 10
41.5460042249
 20
27.0801256098
 30
0.0
 10
41.4291458753
 20
27.0316046696
 30
0.0
 10
41.2362802062
 20
27.0032889768
 30
0.0
 10
41.0291629232
 20
27.0185714371
 30
0.0
 10
40.8124042915
 20
27.076147686
 30
0.0
 10
40.5902374474
 20
27.1743178762
 30
0.0
 10
40.2835648117
 20
27.3620511061
 30
0.0
 10
39.9182281708
 20
27.6855990001
 30
0.0
 10
39.5427472949
 20
28.1663453895
 30
0.0
 10
39.2470963879
 20
28.7127044513
 30
0.0
 10
39.0835080954
 20
29.1962252134
 30
0.0
 10
39.0158713424
 20
29.5770878456
 30
0.0
 10
39.0037282292
 20
29.7612712429
 30
0.0
 10
39.0037282292
 20
29.8504076553
 30
0.0
  0
SPLINE
  5
2E0
100
AcDbEntity
  8
0
100
AcDbSpline
 62
7
  6
BYLAYER
 70
0
 71
3
 72
14
 73
10
 74
0
 42
0.0000001
 43
0.0000001
 44
0.0000000001
 40
0.0
 40
0.0
 40
0.0
 40
0.0
 40
0.1090439342
 40
0.220338491
 40
0.3354190382
 40
0.4555212216
 40
0.5815920303
 40
0.7142808677
 40
1.0
 40
1.0
 40
1.0
 40
1.0
 10
52.5318323841
 20
15.7596145433
 30
0.0
 10
52.5262945079
 20
15.6459426577
 30
0.0
 10
52.496776894
 20
15.416760982
 30
0.0
 10
52.398844196
 20
15.0793594447
 30
0.0
 10
52.2480901365
 20
14.7493452716
 30
0.0
 10
52.0463953482
 20
14.4295906046
 30
0.0
 10
51.7955607233
 20
14.1227295385
 30
0.0
 10
51.3890422887
 20
13.7244385083
 30
0.0
 10
51.0318246406
 20
13.4677242631
 30
0.0
 10
50.7770403849
 20
13.3127810169
 30
0.0
  0
SPLINE
  5
2E1
100
AcDbEntity
  8
0
100
AcDbSpline
 62
7
  6
BYLAYER
 70
0
 71
3
 72
12
 73
8
 74
0
 42
0.0000001
 43
0.0000001
 44
0.0000000001
 40
0.0
 40
0.0
 40
0.0
 40
0.0
 40
0.289481881
 40
0.5486706399
 40
0.7816247249
 40
0.8918296391
 40
1.0
 40
1.0
 40
1.0
 40
1.0
 10
39.0037282292
 20
29.8504076553
 30
0.0
 10
39.0037282292
 20
29.9593436364
 30
0.0
 10
39.0202952671
 20
30.1665453521
 30
0.0
 10
39.1039847213
 20
30.4510813811
 30
0.0
 10
39.224429387
 20
30.6474053626
 30
0.0
 10
39.3460185771
 20
30.7669500173
 30
0.0
 10
39.4137678364
 20
30.8142921864
 30
0.0
 10
39.4490189506
 20
30.8346474304
 30
0.0
  0
SPLINE
  5
2E2
100
AcDbEntity
  8
0
100
AcDbSpline
 62
7
  6
BYLAYER
 70
0
 71
3
 72
15
 73
11
 74
0
 42
0.0000001
 43
0.0000001
 44
0.0000000001
 40
0.0
 40
0.0
 40
0.0
 40
0.0
 40
0.1157779792
 40
0.2400888026
 40
0.3704020785
 40
0.5036522273
 40
0.6364758065
 40
0.7654738659
 40
0.8875167482
 40
1.0
 40
1.0
 40
1.0
 40
1.0
 10
50.6964442904
 20
10.1465599188
 30
0.0
 10
50.4113689414
 20
9.981972475
 30
0.0
 10
49.7905396402
 20
9.6907759628
 30
0.0
 10
48.7820527148
 20
9.3782667516
 30
0.0
 10
47.6940738339
 20
9.1827023604
 30
0.0
 10
46.5669736705
 20
9.1111468331
 30
0.0
 10
45.4426712829
 20
9.165953113
 30
0.0
 10
44.3633113652
 20
9.344790181
 30
0.0
 10
43.3701187939
 20
9.6406462236
 30
0.0
 10
42.7617514089
 20
9.9217405883
 30
0.0
 10
42.4847895872
 20
10.081646148
 30
0.0
  0
SPLINE
  5
2E3
100
AcDbEntity
  8
0
100
AcDbSpline
 62
7
  6
BYLAYER
 70
0
 71
3
 72
19
 73
15
 74
0
 42
0.0000001
 43
0.0000001
 44
0.0000000001
 40
0.0
 40
0.0
 40
0.0
 40
0.0
 40
0.0431684361
 40
0.0880574554
 40
0.1360760492
 40
0.1881318888
 40
0.2446417971
 40
0.3055892266
 40
0.4389329706
 40
0.582844947
 40
0.7296189759
 40
0.8710061209
 40
0.9374858427
 40
1.0
 40
1.0
 40
1.0
 40
1.0
 10
34.1529659468
 20
65.6330700165
 30
0.0
 10
34.1535002103
 20
65.6933140819
 30
0.0
 10
34.1705203761
 20
65.8165684058
 30
0.0
 10
34.2419731422
 20
65.9942763058
 30
0.0
 10
34.3570094191
 20
66.1623903742
 30
0.0
 10
34.51230332
 20
66.3176185646
 30
0.0
 10
34.7043289357
 20
66.4572187592
 30
0.0
 10
35.0131040012
 20
66.6238294128
 30
0.0
 10
35.4650181582
 20
66.7727224097
 30
0.0
 10
36.0543091743
 20
66.8520098862
 30
0.0
 10
36.6596884951
 20
66.8309671214
 30
0.0
 10
37.1472707491
 20
66.7292139691
 30
0.0
 10
37.5013995827
 20
66.5972517496
 30
0.0
 10
37.6626305486
 20
66.5160153324
 30
0.0
 10
37.7378014193
 20
66.4717306764
 30
0.0
  0
SPLINE
  5
2E4
100
AcDbEntity
  8
0
100
AcDbSpline
 62
7
  6
BYLAYER
 70
0
 71
3
 72
9
 73
5
 74
0
 42
0.0000001
 43
0.0000001
 44
0.0000000001
 40
0.0
 40
0.0
 40
0.0
 40
0.0
 40
0.4775435322
 40
1.0
 40
1.0
 40
1.0
 40
1.0
 10
38.2505588883
 20
65.2372649023
 30
0.0
 10
38.2158086878
 20
65.3022522587
 30
0.0
 10
38.1264178858
 20
65.4297478289
 30
0.0
 10
38.0141884363
 20
65.5369347931
 30
0.0
 10
37.9517644084
 20
65.5879619437
 30
0.0
  0
SPLINE
  5
2E5
100
AcDbEntity
  8
0
100
AcDbSpline
 62
7
  6
BYLAYER
 70
0
 71
3
 72
14
 73
10
 74
0
 42
0.0000001
 43
0.0000001
 44
0.0000000001
 40
0.0
 40
0.0
 40
0.0
 40
0.0
 40
0.1090446695
 40
0.2203408886
 40
0.3354222056
 40
0.4555229141
 40
0.5815910109
 40
0.714280703
 40
1.0
 40
1.0
 40
1.0
 40
1.0
 10
52.5318317058
 20
16.5761094027
 30
0.0
 10
52.5262930822
 20
16.4624370155
 30
0.0
 10
52.4967741314
 20
16.2332535068
 30
0.0
 10
52.3988407721
 20
15.8958495526
 30
0.0
 10
52.2480880545
 20
15.565834417
 30
0.0
 10
52.0463929045
 20
15.246084732
 30
0.0
 10
51.7955521461
 20
14.9392339036
 30
0.0
 10
51.3890381492
 20
14.5409460599
 30
0.0
 10
51.0318422426
 20
14.2841945181
 30
0.0
 10
50.7770403851
 20
14.1292810486
 30
0.0
  0
SPLINE
  5
2E6
100
AcDbEntity
  8
0
100
AcDbSpline
 62
7
  6
BYLAYER
 70
0
 71
3
 72
11
 73
7
 74
0
 42
0.0000001
 43
0.0000001
 44
0.0000000001
 40
0.0
 40
0.0
 40
0.0
 40
0.0
 40
0.2897075663
 40
0.5490616243
 40
0.7822846958
 40
1.0
 40
1.0
 40
1.0
 40
1.0
 10
42.0443029913
 20
50.5487976363
 30
0.0
 10
42.0223631428
 20
50.5614643272
 30
0.0
 10
41.9825660876
 20
50.5888824864
 30
0.0
 10
41.9349736815
 20
50.6388683478
 30
0.0
 10
41.9049044492
 20
50.6941873894
 30
0.0
 10
41.8978550472
 20
50.733880146
 30
0.0
 10
41.8978549099
 20
50.7529185114
 30
0.0
  0
SPLINE
  5
2E7
100
AcDbEntity
  8
0
100
AcDbSpline
 62
7
  6
BYLAYER
 70
0
 71
3
 72
9
 73
5
 74
0
 42
0.0000001
 43
0.0000001
 44
0.0000000001
 40
0.0
 40
0.0
 40
0.0
 40
0.0
 40
0.5255669672
 40
1.0
 40
1.0
 40
1.0
 40
1.0
 10
38.6501754483
 20
52.6279247045
 30
0.0
 10
38.5859750453
 20
52.6279245502
 30
0.0
 10
38.4634913866
 20
52.6411997005
 30
0.0
 10
38.3468115064
 20
52.6834970471
 30
0.0
 10
38.296621448
 20
52.7124736353
 30
0.0
  0
SPLINE
  5
2E8
100
AcDbEntity
  8
0
100
AcDbSpline
 62
7
  6
BYLAYER
 70
0
 71
3
 72
9
 73
5
 74
0
 42
0.0000001
 43
0.0000001
 44
0.0000000001
 40
0.0
 40
0.0
 40
0.0
 40
0.0
 40
0.4744324994
 40
1.0
 40
1.0
 40
1.0
 40
1.0
 10
39.0037282292
 20
52.712475335
 30
0.0
 10
38.9535385419
 20
52.6834984784
 30
0.0
 10
38.8368591206
 20
52.6412005519
 30
0.0
 10
38.7143757814
 20
52.6279248588
 30
0.0
 10
38.6501754483
 20
52.6279247045
 30
0.0
  0
SPLINE
  5
2E9
100
AcDbEntity
  8
0
100
AcDbSpline
 62
7
  6
BYLAYER
 70
0
 71
3
 72
15
 73
11
 74
0
 42
0.0000001
 43
0.0000001
 44
0.0000000001
 40
0.0
 40
0.0
 40
0.0
 40
0.0
 40
0.1141529639
 40
0.2373234986
 40
0.3669731305
 40
0.4999973391
 40
0.633023471
 40
0.7626711158
 40
0.8858492162
 40
1.0
 40
1.0
 40
1.0
 40
1.0
 10
42.8220105856
 20
9.8869450514
 30
0.0
 10
43.0761445376
 20
9.7402165642
 30
0.0
 10
43.6318569139
 20
9.4814323997
 30
0.0
 10
44.5368092093
 20
9.2063672871
 30
0.0
 10
45.5165694306
 20
9.0370539612
 30
0.0
 10
46.5343376994
 20
8.9799159859
 30
0.0
 10
47.5521002078
 20
9.0370442163
 30
0.0
 10
48.5318860251
 20
9.206327181
 30
0.0
 10
49.436844667
 20
9.4814023855
 30
0.0
 10
49.9925768035
 20
9.7401752878
 30
0.0
 10
50.2467080918
 20
9.8868971797
 30
0.0
  0
SPLINE
  5
2EA
100
AcDbEntity
  8
0
100
AcDbSpline
 62
7
  6
BYLAYER
 70
0
 71
3
 72
10
 73
6
 74
0
 42
0.0000001
 43
0.0000001
 44
0.0000000001
 40
0.0
 40
0.0
 40
0.0
 40
0.0
 40
0.242071815
 40
0.4879366141
 40
1.0
 40
1.0
 40
1.0
 40
1.0
 10
52.5318316808
 20
14.9431039113
 30
0.0
 10
52.5271221148
 20
14.8464470898
 30
0.0
 10
52.5044107864
 20
14.6519905168
 30
0.0
 10
52.4061698713
 20
14.2636301003
 30
0.0
 10
52.2752369862
 20
13.9861434013
 30
0.0
 10
52.1686921281
 20
13.8113519963
 30
0.0
  0
SPLINE
  5
2EB
100
AcDbEntity
  8
0
100
AcDbSpline
 62
7
  6
BYLAYER
 70
0
 71
3
 72
10
 73
6
 74
0
 42
0.0000001
 43
0.0000001
 44
0.0000000001
 40
0.0
 40
0.0
 40
0.0
 40
0.0
 40
0.2307490572
 40
0.6005183792
 40
1.0
 40
1.0
 40
1.0
 40
1.0
 10
52.0809348834
 20
13.6758744418
 30
0.0
 10
52.0038869105
 20
13.5636553856
 30
0.0
 10
51.783775302
 20
13.2847692603
 30
0.0
 10
51.3523184417
 20
12.8786479448
 30
0.0
 10
50.9783851286
 20
12.6187372258
 30
0.0
 10
50.7770403852
 20
12.4962763031
 30
0.0
  0
SPLINE
  5
2EC
100
AcDbEntity
  8
0
100
AcDbSpline
 62
7
  6
BYLAYER
 70
0
 71
3
 72
24
 73
20
 74
0
 42
0.0000001
 43
0.0000001
 44
0.0000000001
 40
0.0
 40
0.0
 40
0.0
 40
0.0
 40
0.0016714257
 40
0.0039019232
 40
0.007496908
 40
0.0126967936
 40
0.019605302
 40
0.0282891624
 40
0.0388034264
 40
0.0511984251
 40
0.0818178075
 40
0.1205064459
 40
0.1675988466
 40
0.2234066465
 40
0.2882043212
 40
0.3622166554
 40
0.5383858177
 40
0.7517127549
 40
1.0
 40
1.0
 40
1.0
 40
1.0
 10
52.5343832158
 20
30.8346516725
 30
0.0
 10
52.5343826405
 20
30.835693328
 30
0.0
 10
52.5331419918
 20
30.8382510587
 30
0.0
 10
52.5281209026
 20
30.8389952512
 30
0.0
 10
52.5214029404
 20
30.8383716896
 30
0.0
 10
52.511787769
 20
30.8361258699
 30
0.0
 10
52.4994425341
 20
30.8322646996
 30
0.0
 10
52.4841457425
 20
30.8266775907
 30
0.0
 10
52.4658814561
 20
30.8193276205
 30
0.0
 10
52.4352344654
 20
30.806140167
 30
0.0
 10
52.3890379358
 20
30.7847089985
 30
0.0
 10
52.3239030815
 20
30.7527668574
 30
0.0
 10
52.2452755192
 20
30.7127107324
 30
0.0
 10
52.1526828759
 20
30.6642380258
 30
0.0
 10
52.0457150391
 20
30.6070621427
 30
0.0
 10
51.8732408026
 20
30.513325336
 30
0.0
 10
51.6206906544
 20
30.3730956464
 30
0.0
 10
51.2745981794
 20
30.1776281609
 30
0.0
 10
51.024788103
 20
30.0349441447
 30
0.0
 10
50.8907495262
 20
29.957633685
 30
0.0
  0
SPLINE
  5
2ED
100
AcDbEntity
  8
0
100
AcDbSpline
 62
7
  6
BYLAYER
 70
0
 71
3
 72
14
 73
10
 74
0
 42
0.0000001
 43
0.0000001
 44
0.0000000001
 40
0.0
 40
0.0
 40
0.0
 40
0.0
 40
0.1090436073
 40
0.2203386001
 40
0.3354199784
 40
0.4555210205
 40
0.5815894643
 40
0.7142813388
 40
1.0
 40
1.0
 40
1.0
 40
1.0
 10
52.5318323655
 20
17.3926195218
 30
0.0
 10
52.5262944702
 20
17.2789479893
 30
0.0
 10
52.4967766401
 20
17.0497662375
 30
0.0
 10
52.3988437993
 20
16.7123638513
 30
0.0
 10
52.2480918273
 20
16.3823486148
 30
0.0
 10
52.0463971756
 20
16.0625968319
 30
0.0
 10
51.7955540389
 20
15.7557429368
 30
0.0
 10
51.3890453816
 20
15.3574474014
 30
0.0
 10
51.0318586703
 20
15.1006721299
 30
0.0
 10
50.7770403856
 20
14.9457858539
 30
0.0
  0
SPLINE
  5
2EE
100
AcDbEntity
  8
0
100
AcDbSpline
 62
7
  6
BYLAYER
 70
0
 71
3
 72
11
 73
7
 74
0
 42
0.0000001
 43
0.0000001
 44
0.0000000001
 40
0.0
 40
0.0
 40
0.0
 40
0.0
 40
0.2177153042
 40
0.4509383757
 40
0.7102924337
 40
1.0
 40
1.0
 40
1.0
 40
1.0
 10
41.8978549099
 20
52.3859233457
 30
0.0
 10
41.8978550472
 20
52.3668849803
 30
0.0
 10
41.9049044492
 20
52.3271922237
 30
0.0
 10
41.9349736815
 20
52.271873182
 30
0.0
 10
41.9825660876
 20
52.2218873206
 30
0.0
 10
42.0223631428
 20
52.1944691614
 30
0.0
 10
42.0443029913
 20
52.1818024706
 30
0.0
  0
SPLINE
  5
2EF
100
AcDbEntity
  8
0
100
AcDbSpline
 62
7
  6
BYLAYER
 70
0
 71
3
 72
12
 73
8
 74
0
 42
0.0000001
 43
0.0000001
 44
0.0000000001
 40
0.0
 40
0.0
 40
0.0
 40
0.0
 40
0.289481881
 40
0.5486706399
 40
0.7816247249
 40
0.8918296391
 40
1.0
 40
1.0
 40
1.0
 40
1.0
 10
39.0037282292
 20
54.3454801692
 30
0.0
 10
39.0037282292
 20
54.4544161503
 30
0.0
 10
39.0202952671
 20
54.661617866
 30
0.0
 10
39.1039847213
 20
54.946153895
 30
0.0
 10
39.224429387
 20
55.1424778764
 30
0.0
 10
39.3460185771
 20
55.2620225311
 30
0.0
 10
39.4137678364
 20
55.3093647003
 30
0.0
 10
39.4490189506
 20
55.3297199443
 30
0.0
  0
SPLINE
  5
2F0
100
AcDbEntity
  8
0
100
AcDbSpline
 62
7
  6
BYLAYER
 70
0
 71
3
 72
9
 73
5
 74
0
 42
0.0000001
 43
0.0000001
 44
0.0000000001
 40
0.0
 40
0.0
 40
0.0
 40
0.0
 40
0.5255675006
 40
1.0
 40
1.0
 40
1.0
 40
1.0
 10
38.6501754483
 20
54.2609295387
 30
0.0
 10
38.7143757814
 20
54.2609296931
 30
0.0
 10
38.8368591206
 20
54.2742053862
 30
0.0
 10
38.9535385419
 20
54.3165033127
 30
0.0
 10
39.0037282292
 20
54.3454801692
 30
0.0
  0
SPLINE
  5
2F1
100
AcDbEntity
  8
0
100
AcDbSpline
 62
7
  6
BYLAYER
 70
0
 71
3
 72
9
 73
5
 74
0
 42
0.0000001
 43
0.0000001
 44
0.0000000001
 40
0.0
 40
0.0
 40
0.0
 40
0.0
 40
0.4744330328
 40
1.0
 40
1.0
 40
1.0
 40
1.0
 10
38.296621448
 20
54.3454784695
 30
0.0
 10
38.3468115064
 20
54.3165018814
 30
0.0
 10
38.4634913866
 20
54.2742045347
 30
0.0
 10
38.5859750453
 20
54.2609293844
 30
0.0
 10
38.6501754483
 20
54.2609295387
 30
0.0
  0
SPLINE
  5
2F2
100
AcDbEntity
  8
0
100
AcDbSpline
 62
7
  6
BYLAYER
 70
0
 71
3
 72
12
 73
8
 74
0
 42
0.0000001
 43
0.0000001
 44
0.0000000001
 40
0.0
 40
0.0
 40
0.0
 40
0.0
 40
0.2889058062
 40
0.5479615043
 40
0.7811593551
 40
0.8915825137
 40
1.0
 40
1.0
 40
1.0
 40
1.0
 10
45.7987851636
 20
71.1257140305
 30
0.0
 10
45.8915950312
 20
71.0710378904
 30
0.0
 10
46.0598691001
 20
70.952736229
 30
0.0
 10
46.2602620206
 20
70.7380262342
 30
0.0
 10
46.3670095986
 20
70.536196835
 30
0.0
 10
46.4078208297
 20
70.3719889388
 30
0.0
 10
46.4141429918
 20
70.2901708883
 30
0.0
 10
46.4137845198
 20
70.2497492442
 30
0.0
  0
SPLINE
  5
2F3
100
AcDbEntity
  8
0
100
AcDbSpline
 62
7
  6
BYLAYER
 70
0
 71
3
 72
9
 73
5
 74
0
 42
0.0000001
 43
0.0000001
 44
0.0000000001
 40
0.0
 40
0.0
 40
0.0
 40
0.0
 40
0.2678301821
 40
1.0
 40
1.0
 40
1.0
 40
1.0
 10
42.6152821654
 20
70.2725411932
 30
0.0
 10
42.5825511366
 20
70.2467617576
 30
0.0
 10
42.4643479291
 20
70.1457726582
 30
0.0
 10
42.3630893694
 20
70.0231884754
 30
0.0
 10
42.3079985285
 20
69.9235006417
 30
0.0
  0
SPLINE
  5
2F4
100
AcDbEntity
  8
0
100
AcDbSpline
 62
7
  6
BYLAYER
 70
0
 71
3
 72
9
 73
5
 74
0
 42
0.0000001
 43
0.0000001
 44
0.0000000001
 40
0.0
 40
0.0
 40
0.0
 40
0.0
 40
0.4775435322
 40
1.0
 40
1.0
 40
1.0
 40
1.0
 10
46.3115426325
 20
69.8912482564
 30
0.0
 10
46.276792432
 20
69.9562356128
 30
0.0
 10
46.1874016301
 20
70.083731183
 30
0.0
 10
46.0751721805
 20
70.1909181472
 30
0.0
 10
46.0127481526
 20
70.2419452979
 30
0.0
  0
SPLINE
  5
2F5
100
AcDbEntity
  8
0
100
AcDbSpline
 62
7
  6
BYLAYER
 70
0
 71
3
 72
19
 73
15
 74
0
 42
0.0000001
 43
0.0000001
 44
0.0000000001
 40
0.0
 40
0.0
 40
0.0
 40
0.0
 40
0.0431684361
 40
0.0880574554
 40
0.1360760492
 40
0.1881318888
 40
0.2446417971
 40
0.3055892266
 40
0.4389329706
 40
0.582844947
 40
0.7296189759
 40
0.8710061209
 40
0.9374858427
 40
1.0
 40
1.0
 40
1.0
 40
1.0
 10
42.213949691
 20
70.2870533706
 30
0.0
 10
42.2144839545
 20
70.3472974361
 30
0.0
 10
42.2315041203
 20
70.47055176
 30
0.0
 10
42.3029568864
 20
70.6482596599
 30
0.0
 10
42.4179931634
 20
70.8163737284
 30
0.0
 10
42.5732870642
 20
70.9716019187
 30
0.0
 10
42.7653126799
 20
71.1112021133
 30
0.0
 10
43.0740877455
 20
71.2778127669
 30
0.0
 10
43.5260019024
 20
71.4267057639
 30
0.0
 10
44.1152929185
 20
71.5059932403
 30
0.0
 10
44.7206722394
 20
71.4849504755
 30
0.0
 10
45.2082544933
 20
71.3831973232
 30
0.0
 10
45.5623833269
 20
71.2512351038
 30
0.0
 10
45.7236142928
 20
71.1699986865
 30
0.0
 10
45.7987851636
 20
71.1257140305
 30
0.0
  0
SPLINE
  5
2F6
100
AcDbEntity
  8
0
100
AcDbSpline
 62
7
  6
BYLAYER
 70
0
 71
3
 72
23
 73
19
 74
0
 42
0.0000001
 43
0.0000001
 44
0.0000000001
 40
0.0
 40
0.0
 40
0.0
 40
0.0
 40
0.0634308323
 40
0.1305957448
 40
0.2007808256
 40
0.2731771327
 40
0.3468268251
 40
0.4207210188
 40
0.4938317167
 40
0.5651526129
 40
0.6337468571
 40
0.6987973633
 40
0.7596606991
 40
0.8159301126
 40
0.8675165512
 40
0.91474799
 40
0.9584555994
 40
1.0
 40
1.0
 40
1.0
 40
1.0
 10
50.7428617549
 20
10.8426465034
 30
0.0
 10
50.5297497355
 20
10.7150547882
 30
0.0
 10
50.0738419083
 20
10.4803393477
 30
0.0
 10
49.3388219834
 20
10.1976651001
 30
0.0
 10
48.5459576677
 20
9.9786142769
 30
0.0
 10
47.7117699837
 20
9.8272594796
 30
0.0
 10
46.8532938139
 20
9.7463604492
 30
0.0
 10
45.9882918673
 20
9.7371293769
 30
0.0
 10
45.1346015859
 20
9.7993431178
 30
0.0
 10
44.3098354441
 20
9.931369083
 30
0.0
 10
43.5309705564
 20
10.1301125691
 30
0.0
 10
42.8139339954
 20
10.391109074
 30
0.0
 10
42.1732876457
 20
10.7087887197
 30
0.0
 10
41.6219932123
 20
11.0767226314
 30
0.0
 10
41.1712752573
 20
11.4877932547
 30
0.0
 10
40.8308710706
 20
11.9346836233
 30
0.0
 10
40.6096593759
 20
12.408819532
 30
0.0
 10
40.5463187526
 20
12.7410134687
 30
0.0
 10
40.5372581501
 20
12.9034438652
 30
0.0
  0
SPLINE
  5
2F7
100
AcDbEntity
  8
0
100
AcDbSpline
 62
7
  6
BYLAYER
 70
0
 71
3
 72
23
 73
19
 74
0
 42
0.0000001
 43
0.0000001
 44
0.0000000001
 40
0.0
 40
0.0
 40
0.0
 40
0.0
 40
0.0634311307
 40
0.1305961616
 40
0.2007813244
 40
0.2731777671
 40
0.3468275634
 40
0.4207218898
 40
0.4938327673
 40
0.5651534768
 40
0.6337475335
 40
0.6987982861
 40
0.759661769
 40
0.8159304806
 40
0.8675171433
 40
0.9147489587
 40
0.9584560619
 40
1.0
 40
1.0
 40
1.0
 40
1.0
 10
50.742861949
 20
11.6591504979
 30
0.0
 10
50.529750517
 20
11.531555013
 30
0.0
 10
50.0738413152
 20
11.2968368527
 30
0.0
 10
49.3388186033
 20
11.0141619621
 30
0.0
 10
48.5459499957
 20
10.7951170848
 30
0.0
 10
47.7117590011
 20
10.6437719431
 30
0.0
 10
46.8532824915
 20
10.5628528298
 30
0.0
 10
45.9882770582
 20
10.553628091
 30
0.0
 10
45.1345868445
 20
10.6158563335
 30
0.0
 10
44.3098197458
 20
10.7478742711
 30
0.0
 10
43.5309526786
 20
10.9466124343
 30
0.0
 10
42.8139179823
 20
11.2076204117
 30
0.0
 10
42.1732769494
 20
11.5253074409
 30
0.0
 10
41.6219744805
 20
11.8932286021
 30
0.0
 10
41.1712629986
 20
12.3043081258
 30
0.0
 10
40.8308647652
 20
12.7512034631
 30
0.0
 10
40.6096540212
 20
13.2253375985
 30
0.0
 10
40.5463158528
 20
13.5575287873
 30
0.0
 10
40.5372570066
 20
13.7199576407
 30
0.0
  0
SPLINE
  5
2F8
100
AcDbEntity
  8
0
100
AcDbSpline
 62
7
  6
BYLAYER
 70
0
 71
3
 72
9
 73
5
 74
0
 42
0.0000001
 43
0.0000001
 44
0.0000000001
 40
0.0
 40
0.0
 40
0.0
 40
0.0
 40
0.2678301821
 40
1.0
 40
1.0
 40
1.0
 40
1.0
 10
34.5542984211
 20
65.6185578391
 30
0.0
 10
34.5215673924
 20
65.5927784035
 30
0.0
 10
34.4033641848
 20
65.4917893041
 30
0.0
 10
34.3021056251
 20
65.3692051213
 30
0.0
 10
34.2470147843
 20
65.2695172876
 30
0.0
  0
SPLINE
  5
2F9
100
AcDbEntity
  8
0
100
AcDbSpline
 62
7
  6
BYLAYER
 70
0
 71
3
 72
12
 73
8
 74
0
 42
0.0000001
 43
0.0000001
 44
0.0000000001
 40
0.0
 40
0.0
 40
0.0
 40
0.0
 40
0.2889058062
 40
0.5479615043
 40
0.7811593551
 40
0.8915825137
 40
1.0
 40
1.0
 40
1.0
 40
1.0
 10
37.7378014193
 20
66.4717306764
 30
0.0
 10
37.830611287
 20
66.4170545363
 30
0.0
 10
37.9988853559
 20
66.2987528749
 30
0.0
 10
38.1992782763
 20
66.08404288
 30
0.0
 10
38.3060258543
 20
65.8822134808
 30
0.0
 10
38.3468370855
 20
65.7180055846
 30
0.0
 10
38.3531592475
 20
65.6361875342
 30
0.0
 10
38.3528007756
 20
65.5957658901
 30
0.0
  0
SPLINE
  5
2FA
100
AcDbEntity
  8
0
100
AcDbSpline
 62
7
  6
BYLAYER
 70
0
 71
3
 72
14
 73
10
 74
0
 42
0.0000001
 43
0.0000001
 44
0.0000000001
 40
0.0
 40
0.0
 40
0.0
 40
0.0
 40
0.10904469
 40
0.2203412905
 40
0.3354229968
 40
0.455522606
 40
0.5815888826
 40
0.7142810613
 40
1.0
 40
1.0
 40
1.0
 40
1.0
 10
52.5318318841
 20
18.209117996
 30
0.0
 10
52.5262934387
 20
18.0954454549
 30
0.0
 10
52.4967746501
 20
17.8662612432
 30
0.0
 10
52.3988416662
 20
17.528855972
 30
0.0
 10
52.2480903519
 20
17.1988401043
 30
0.0
 10
52.0463951021
 20
16.8790928581
 30
0.0
 10
51.7955477875
 20
16.5722470785
 30
0.0
 10
51.3890415986
 20
16.1739543994
 30
0.0
 10
51.0318694831
 20
15.9171543834
 30
0.0
 10
50.7770403859
 20
15.7622858233
 30
0.0
  0
SPLINE
  5
2FB
100
AcDbEntity
  8
0
100
AcDbSpline
 62
7
  6
BYLAYER
 70
0
 71
3
 72
24
 73
20
 74
0
 42
0.0000001
 43
0.0000001
 44
0.0000000001
 40
0.0
 40
0.0
 40
0.0
 40
0.0
 40
0.0622320298
 40
0.12840976
 40
0.1978137412
 40
0.2696093362
 40
0.3428164092
 40
0.4163999095
 40
0.4893059838
 40
0.5605115834
 40
0.6290724625
 40
0.6941742644
 40
0.7551917321
 40
0.8117596311
 40
0.8638547308
 40
0.9118863471
 40
0.9567694174
 40
0.9784967545
 40
1.0
 40
1.0
 40
1.0
 40
1.0
 10
25.2849157059
 20
76.6139916493
 30
0.0
 10
25.576464306
 20
76.7823163073
 30
0.0
 10
26.2015585887
 20
77.0898608275
 30
0.0
 10
27.2101810349
 20
77.4527808514
 30
0.0
 10
28.3002435873
 20
77.7252510712
 30
0.0
 10
29.4481808088
 20
77.9016025599
 30
0.0
 10
30.6296585513
 20
77.978005121
 30
0.0
 10
31.8193174953
 20
77.952850426
 30
0.0
 10
32.9916871673
 20
77.8266836419
 30
0.0
 10
34.121681271
 20
77.6022055442
 30
0.0
 10
35.1851942264
 20
77.2841767588
 30
0.0
 10
36.1596378723
 20
76.8792497047
 30
0.0
 10
37.024424497
 20
76.3956955615
 30
0.0
 10
37.7613456896
 20
75.8431394037
 30
0.0
 10
38.354605463
 20
75.2319030379
 30
0.0
 10
38.7904319734
 20
74.5735004193
 30
0.0
 10
39.0144857489
 20
73.9885393841
 30
0.0
 10
39.1000593367
 20
73.5185704607
 30
0.0
 10
39.1128965074
 20
73.2843068307
 30
0.0
 10
39.1118738592
 20
73.1679872189
 30
0.0
  0
SPLINE
  5
2FC
100
AcDbEntity
  8
0
100
AcDbSpline
 62
7
  6
BYLAYER
 70
0
 71
3
 72
23
 73
19
 74
0
 42
0.0000001
 43
0.0000001
 44
0.0000000001
 40
0.0
 40
0.0
 40
0.0
 40
0.0
 40
0.063430797
 40
0.130595745
 40
0.2007807961
 40
0.2731770899
 40
0.3468267723
 40
0.4207209542
 40
0.4938316531
 40
0.5651525719
 40
0.6337468015
 40
0.698797309
 40
0.7596606848
 40
0.8159301071
 40
0.8675165209
 40
0.9147479926
 40
0.9584556595
 40
1.0
 40
1.0
 40
1.0
 40
1.0
 10
50.7428607769
 20
12.4756512006
 30
0.0
 10
50.5297474749
 20
12.3480620202
 30
0.0
 10
50.0738411018
 20
12.1133448032
 30
0.0
 10
49.3388220861
 20
11.8306683585
 30
0.0
 10
48.5459575996
 20
11.6116189895
 30
0.0
 10
47.7117702604
 20
11.460264866
 30
0.0
 10
46.8532944821
 20
11.3793657051
 30
0.0
 10
45.9882928525
 20
11.3701337892
 30
0.0
 10
45.1346026848
 20
11.4323474459
 30
0.0
 10
44.3098369266
 20
11.5643744744
 30
0.0
 10
43.5309719158
 20
11.7631166459
 30
0.0
 10
42.8139352884
 20
12.0241128774
 30
0.0
 10
42.1732892039
 20
12.3417930916
 30
0.0
 10
41.6219947365
 20
12.7097267024
 30
0.0
 10
41.1712761509
 20
13.1207965284
 30
0.0
 10
40.8308718944
 20
13.5676870463
 30
0.0
 10
40.6096601274
 20
14.0418228519
 30
0.0
 10
40.5463190013
 20
14.3740165778
 30
0.0
 10
40.5372582503
 20
14.5364466886
 30
0.0
  0
SPLINE
  5
2FD
100
AcDbEntity
  8
0
100
AcDbSpline
 62
7
  6
BYLAYER
 70
0
 71
3
 72
19
 73
15
 74
0
 42
0.0000001
 43
0.0000001
 44
0.0000000001
 40
0.0
 40
0.0
 40
0.0
 40
0.0
 40
0.042841382
 40
0.0874487432
 40
0.1352623536
 40
0.1872017764
 40
0.2436828663
 40
0.3046777665
 40
0.4382862876
 40
0.582563989
 40
0.7296548231
 40
0.8711716893
 40
0.937609917
 40
1.0
 40
1.0
 40
1.0
 40
1.0
 10
41.599009326
 20
49.9728003154
 30
0.0
 10
41.5460042249
 20
49.9421932895
 30
0.0
 10
41.4291458753
 20
49.8936723492
 30
0.0
 10
41.2362802062
 20
49.8653566565
 30
0.0
 10
41.0291629232
 20
49.8806391167
 30
0.0
 10
40.8124042915
 20
49.9382153657
 30
0.0
 10
40.5902374474
 20
50.0363855559
 30
0.0
 10
40.2835648117
 20
50.2241187858
 30
0.0
 10
39.9182281708
 20
50.5476666797
 30
0.0
 10
39.5427472949
 20
51.0284130692
 30
0.0
 10
39.2470963879
 20
51.5747721309
 30
0.0
 10
39.0835080954
 20
52.058292893
 30
0.0
 10
39.0158713424
 20
52.4391555252
 30
0.0
 10
39.0037282292
 20
52.6233389225
 30
0.0
 10
39.0037282292
 20
52.712475335
 30
0.0
  0
SPLINE
  5
2FE
100
AcDbEntity
  8
0
100
AcDbSpline
 62
7
  6
BYLAYER
 70
0
 71
3
 72
23
 73
19
 74
0
 42
0.0000001
 43
0.0000001
 44
0.0000000001
 40
0.0
 40
0.0
 40
0.0
 40
0.0
 40
0.0634309979
 40
0.1305963393
 40
0.2007813828
 40
0.2731778297
 40
0.3468276135
 40
0.4207219298
 40
0.4938327858
 40
0.5651534608
 40
0.6337475267
 40
0.698798277
 40
0.759661726
 40
0.8159304428
 40
0.8675171416
 40
0.9147489309
 40
0.958455992
 40
1.0
 40
1.0
 40
1.0
 40
1.0
 10
50.7428628065
 20
13.2921596366
 30
0.0
 10
50.5297423175
 20
13.1645802725
 30
0.0
 10
50.073843282
 20
12.9298457162
 30
0.0
 10
49.3388221959
 20
12.6471602316
 30
0.0
 10
48.5459500073
 20
12.4281265717
 30
0.0
 10
47.7117608071
 20
12.2767753977
 30
0.0
 10
46.8532839917
 20
12.1958574378
 30
0.0
 10
45.9882787724
 20
12.1866334993
 30
0.0
 10
45.1345887742
 20
12.2488611822
 30
0.0
 10
44.3098215849
 20
12.3808778467
 30
0.0
 10
43.5309548102
 20
12.5796169794
 30
0.0
 10
42.8139201959
 20
12.8406247829
 30
0.0
 10
42.1732787642
 20
13.1583107992
 30
0.0
 10
41.621976094
 20
13.5262318646
 30
0.0
 10
41.1712647986
 20
13.9373116676
 30
0.0
 10
40.8308659461
 20
14.3842063366
 30
0.0
 10
40.6096545058
 20
14.8583402274
 30
0.0
 10
40.5463161859
 20
15.1905315153
 30
0.0
 10
40.5372571316
 20
15.3529606383
 30
0.0
  0
SPLINE
  5
2FF
100
AcDbEntity
  8
0
100
AcDbSpline
 62
7
  6
BYLAYER
 70
0
 71
3
 72
14
 73
10
 74
0
 42
0.0000001
 43
0.0000001
 44
0.0000000001
 40
0.0
 40
0.0
 40
0.0
 40
0.0
 40
0.109044484
 40
0.220340229
 40
0.3354212474
 40
0.455523241
 40
0.5815932849
 40
0.7142803083
 40
1.0
 40
1.0
 40
1.0
 40
1.0
 10
52.5318317395
 20
13.3101003431
 30
0.0
 10
52.5262931654
 20
13.1964281136
 30
0.0
 10
52.496774461
 20
12.9672451958
 30
0.0
 10
52.3988410345
 20
12.6298421471
 30
0.0
 10
52.2480872435
 20
12.2998268429
 30
0.0
 10
52.0463923697
 20
11.9800734893
 30
0.0
 10
51.7955583562
 20
11.6732165723
 30
0.0
 10
51.3890354301
 20
11.2749333196
 30
0.0
 10
51.0318136431
 20
11.0182330483
 30
0.0
 10
50.7770403863
 20
10.8632715834
 30
0.0
  0
SPLINE
  5
300
100
AcDbEntity
  8
0
100
AcDbSpline
 62
7
  6
BYLAYER
 70
0
 71
3
 72
12
 73
8
 74
0
 42
0.0000001
 43
0.0000001
 44
0.0000000001
 40
0.0
 40
0.0
 40
0.0
 40
0.0
 40
0.1092774315
 40
0.2217503929
 40
0.459334502
 40
0.7181778039
 40
1.0
 40
1.0
 40
1.0
 40
1.0
 10
52.4760045874
 20
13.7311385864
 30
0.0
 10
52.4533044828
 20
13.6342990518
 30
0.0
 10
52.3941819565
 20
13.4406201238
 30
0.0
 10
52.2231255852
 20
13.0581746385
 30
0.0
 10
51.908548151
 20
12.5960248728
 30
0.0
 10
51.4005759942
 20
12.0973474947
 30
0.0
 10
50.9961981859
 20
11.8130797246
 30
0.0
 10
50.7770403859
 20
11.6797761493
 30
0.0
  0
SPLINE
  5
301
100
AcDbEntity
  8
0
100
AcDbSpline
 62
7
  6
BYLAYER
 70
0
 71
3
 72
15
 73
11
 74
0
 42
0.0000001
 43
0.0000001
 44
0.0000000001
 40
0.0
 40
0.0
 40
0.0
 40
0.0
 40
0.0590211955
 40
0.1224082712
 40
0.1888420247
 40
0.2571000087
 40
0.3950836001
 40
0.5304103848
 40
0.7817532815
 40
1.0
 40
1.0
 40
1.0
 40
1.0
 10
50.7770403863
 20
29.89181513
 30
0.0
 10
50.6344987427
 20
29.8099270868
 30
0.0
 10
50.3397229437
 20
29.6386140927
 30
0.0
 10
49.8857893843
 20
29.3729230669
 30
0.0
 10
49.4102800333
 20
29.0931648295
 30
0.0
 10
48.7567134475
 20
28.7063224181
 30
0.0
 10
47.9398090236
 20
28.2187262738
 30
0.0
 10
46.6878308562
 20
27.4651113607
 30
0.0
 10
45.2485079254
 20
26.5892728891
 30
0.0
 10
44.135265166
 20
25.902692475
 30
0.0
 10
43.6191625017
 20
25.5815268365
 30
0.0
  0
LINE
  5
302
100
AcDbEntity
  8
0
100
AcDbLine
 62
7
  6
BYLAYER
 10
43.1160758632
 20
25.2674695986
 11
42.8707603852
 21
25.1135530211
  0
SPLINE
  5
303
100
AcDbEntity
  8
0
100
AcDbSpline
 62
7
  6
BYLAYER
 70
0
 71
3
 72
23
 73
19
 74
0
 42
0.0000001
 43
0.0000001
 44
0.0000000001
 40
0.0
 40
0.0
 40
0.0
 40
0.0
 40
0.2059048597
 40
0.3919143143
 40
0.5568906844
 40
0.6310546092
 40
0.6993947721
 40
0.761657549
 40
0.8175720356
 40
0.8668263039
 40
0.9090862372
 40
0.9439562805
 40
0.9584908235
 40
0.9710160719
 40
0.9814744089
 40
0.9898137776
 40
0.9959910499
 40
1.0
 40
1.0
 40
1.0
 40
1.0
 10
42.8707603852
 20
25.1135530211
 30
0.0
 10
42.7077619207
 20
25.0111004578
 30
0.0
 10
42.3978311403
 20
24.8155900369
 30
0.0
 10
41.9585929287
 20
24.5359522688
 30
0.0
 10
41.6243603418
 20
24.3207502375
 30
0.0
 10
41.383496798
 20
24.1637801476
 30
0.0
 10
41.2235519085
 20
24.0585453771
 30
0.0
 10
41.0783464905
 20
23.9619563135
 30
0.0
 10
40.9485215688
 20
23.8744709698
 30
0.0
 10
40.8348303808
 20
23.7965168856
 30
0.0
 10
40.7381421318
 20
23.7285749342
 30
0.0
 10
40.6688078495
 20
23.6781771803
 30
0.0
 10
40.6226793161
 20
23.6431743345
 30
0.0
 10
40.5951133792
 20
23.6214682269
 30
0.0
 10
40.5725792945
 20
23.602771006
 30
0.0
 10
40.5551456627
 20
23.5871802063
 30
0.0
 10
40.5430677835
 20
23.5748261
 30
0.0
 10
40.5370930467
 20
23.5672353631
 30
0.0
 10
40.5354884408
 20
23.5638477738
 30
0.0
  0
SPLINE
  5
304
100
AcDbEntity
  8
0
100
AcDbSpline
 62
7
  6
BYLAYER
 70
0
 71
3
 72
9
 73
5
 74
0
 42
0.0000001
 43
0.0000001
 44
0.0000000001
 40
0.0
 40
0.0
 40
0.0
 40
0.0
 40
0.2935366957
 40
1.0
 40
1.0
 40
1.0
 40
1.0
 10
40.5354884408
 20
23.5638477738
 30
0.0
 10
40.5353136845
 20
23.5634788342
 30
0.0
 10
40.5347624374
 20
23.5622071038
 30
0.0
 10
40.5343804903
 20
23.5608243965
 30
0.0
 10
40.5343809266
 20
23.5598418844
 30
0.0
  0
SPLINE
  5
305
100
AcDbEntity
  8
0
100
AcDbSpline
 62
7
  6
BYLAYER
 70
0
 71
3
 72
10
 73
6
 74
0
 42
0.0000001
 43
0.0000001
 44
0.0000000001
 40
0.0
 40
0.0
 40
0.0
 40
0.0
 40
0.2706882521
 40
0.5272437952
 40
1.0
 40
1.0
 40
1.0
 40
1.0
 10
14.9026683924
 20
81.132850752
 30
0.0
 10
14.3972511868
 20
80.7834676005
 30
0.0
 10
13.4419436992
 20
80.0581851048
 30
0.0
 10
11.7820695594
 20
78.5077997171
 30
0.0
 10
10.7621737819
 20
77.1742548535
 30
0.0
 10
10.2423487975
 20
76.2354800509
 30
0.0
  0
SPLINE
  5
306
100
AcDbEntity
  8
0
100
AcDbSpline
 62
7
  6
BYLAYER
 70
0
 71
3
 72
13
 73
9
 74
0
 42
0.0000001
 43
0.0000001
 44
0.0000000001
 40
0.0
 40
0.0
 40
0.0
 40
0.0
 40
0.2905119702
 40
0.5485033376
 40
0.6671225189
 40
0.7805447735
 40
0.8907467351
 40
1.0
 40
1.0
 40
1.0
 40
1.0
 10
45.8702170503
 20
71.2477678866
 30
0.0
 10
45.9749932232
 20
71.1860421579
 30
0.0
 10
46.1634995532
 20
71.0520311121
 30
0.0
 10
46.3505759965
 20
70.8399264018
 30
0.0
 10
46.4486347825
 20
70.6588468092
 30
0.0
 10
46.4955494235
 20
70.5227339638
 30
0.0
 10
46.5172765414
 20
70.3843615208
 30
0.0
 10
46.5145651799
 20
70.2919204914
 30
0.0
 10
46.509062591
 20
70.2465200447
 30
0.0
  0
SPLINE
  5
307
100
AcDbEntity
  8
0
100
AcDbSpline
 62
7
  6
BYLAYER
 70
0
 71
3
 72
11
 73
7
 74
0
 42
0.0000001
 43
0.0000001
 44
0.0000000001
 40
0.0
 40
0.0
 40
0.0
 40
0.0
 40
0.2221179509
 40
0.4587584323
 40
0.7169027154
 40
1.0
 40
1.0
 40
1.0
 40
1.0
 10
46.509062591
 20
70.2465200447
 30
0.0
 10
46.5004442099
 20
70.1754119983
 30
0.0
 10
46.4613153588
 20
70.0304926763
 30
0.0
 10
46.3446327113
 20
69.8284915438
 30
0.0
 10
46.1740822296
 20
69.6423268988
 30
0.0
 10
46.0341515564
 20
69.5364810568
 30
0.0
 10
45.9575844275
 20
69.4867630059
 30
0.0
  0
SPLINE
  5
308
100
AcDbEntity
  8
0
100
AcDbSpline
 62
7
  6
BYLAYER
 70
0
 71
3
 72
23
 73
19
 74
0
 42
0.0000001
 43
0.0000001
 44
0.0000000001
 40
0.0
 40
0.0
 40
0.0
 40
0.0
 40
0.0634305155
 40
0.1305960906
 40
0.2007809023
 40
0.2731771994
 40
0.3468268631
 40
0.4207210228
 40
0.4938317102
 40
0.5651526363
 40
0.6337468361
 40
0.6987973331
 40
0.7596607359
 40
0.8159301465
 40
0.8675165254
 40
0.9147480199
 40
0.9584557298
 40
1.0
 40
1.0
 40
1.0
 40
1.0
 10
50.7428596468
 20
14.1086628346
 30
0.0
 10
50.5297280862
 20
13.9811063012
 30
0.0
 10
50.0738415381
 20
13.746357578
 30
0.0
 10
49.3388267387
 20
13.4636579873
 30
0.0
 10
48.5459551082
 20
13.2446305746
 30
0.0
 10
47.7117706896
 20
13.0932685418
 30
0.0
 10
46.8532945992
 20
13.0123707351
 30
0.0
 10
45.9882933124
 20
13.0031384728
 30
0.0
 10
45.1346031458
 20
13.0653518238
 30
0.0
 10
44.3098377397
 20
13.1973800089
 30
0.0
 10
43.5309725623
 20
13.3961208703
 30
0.0
 10
42.813935879
 20
13.6571169963
 30
0.0
 10
42.1732901317
 20
13.9747979174
 30
0.0
 10
41.6219955876
 20
14.3427311732
 30
0.0
 10
41.1712765259
 20
14.7538003812
 30
0.0
 10
40.8308723266
 20
15.2006911496
 30
0.0
 10
40.6096606291
 20
15.6748269204
 30
0.0
 10
40.5463191396
 20
16.0070204538
 30
0.0
 10
40.537258306
 20
16.1694502852
 30
0.0
  0
SPLINE
  5
309
100
AcDbEntity
  8
0
100
AcDbSpline
 62
7
  6
BYLAYER
 70
0
 71
3
 72
11
 73
7
 74
0
 42
0.0000001
 43
0.0000001
 44
0.0000000001
 40
0.0
 40
0.0
 40
0.0
 40
0.0
 40
0.283241427
 40
0.5414510942
 40
0.7779692116
 40
1.0
 40
1.0
 40
1.0
 40
1.0
 10
42.6579935487
 20
69.5151021344
 30
0.0
 10
42.5821476286
 20
69.5662035745
 30
0.0
 10
42.443787723
 20
69.6745559492
 30
0.0
 10
42.2761218363
 20
69.8637967255
 30
0.0
 10
42.1628104594
 20
70.0679933773
 30
0.0
 10
42.1261121303
 20
70.2136679139
 30
0.0
 10
42.1186928338
 20
70.2849736012
 30
0.0
  0
SPLINE
  5
30A
100
AcDbEntity
  8
0
100
AcDbSpline
 62
7
  6
BYLAYER
 70
0
 71
3
 72
20
 73
16
 74
0
 42
0.0000001
 43
0.0000001
 44
0.0000000001
 40
0.0
 40
0.0
 40
0.0
 40
0.0
 40
0.0433088405
 40
0.087677051
 40
0.1347741837
 40
0.1857722279
 40
0.241299504
 40
0.3014675506
 40
0.3660003202
 40
0.4343092883
 40
0.5786890329
 40
0.7267524449
 40
0.8697041346
 40
0.9368970852
 40
1.0
 40
1.0
 40
1.0
 40
1.0
 10
42.1186928338
 20
70.2849736012
 30
0.0
 10
42.112013459
 20
70.3491680185
 30
0.0
 10
42.1154995038
 20
70.4815392035
 30
0.0
 10
42.172720434
 20
70.6761467468
 30
0.0
 10
42.2795162248
 20
70.861636253
 30
0.0
 10
42.4321210106
 20
71.034034583
 30
0.0
 10
42.6267730944
 20
71.1899976655
 30
0.0
 10
42.8589161088
 20
71.3266239266
 30
0.0
 10
43.123496948
 20
71.4411146851
 30
0.0
 10
43.5188784872
 20
71.5631226665
 30
0.0
 10
44.0538152258
 20
71.6441967112
 30
0.0
 10
44.7053631075
 20
71.6291441046
 30
0.0
 10
45.232288598
 20
71.5234912784
 30
0.0
 10
45.6151018841
 20
71.3828124607
 30
0.0
 10
45.7891928895
 20
71.2955008322
 30
0.0
 10
45.8702170503
 20
71.2477678866
 30
0.0
  0
SPLINE
  5
30B
100
AcDbEntity
  8
0
100
AcDbSpline
 62
7
  6
BYLAYER
 70
0
 71
3
 72
26
 73
22
 74
0
 42
0.0000001
 43
0.0000001
 44
0.0000000001
 40
0.0
 40
0.0
 40
0.0
 40
0.0
 40
0.0628443926
 40
0.1297646422
 40
0.199989748
 40
0.2726114998
 40
0.3465745138
 40
0.420770067
 40
0.4940719375
 40
0.5653981946
 40
0.6337654049
 40
0.6983481282
 40
0.7585482319
 40
0.8140774651
 40
0.8650562487
 40
0.8890481231
 40
0.912186232
 40
0.9346396506
 40
0.9566072748
 40
0.9783146467
 40
1.0
 40
1.0
 40
1.0
 40
1.0
 10
25.0749583404
 20
76.9826451892
 30
0.0
 10
25.3864613066
 20
77.162490437
 30
0.0
 10
26.0555632319
 20
77.4900499817
 30
0.0
 10
27.136396396
 20
77.8730994368
 30
0.0
 10
28.3051400287
 20
78.156411832
 30
0.0
 10
29.5350786802
 20
78.3337312459
 30
0.0
 10
30.7985986335
 20
78.4009848849
 30
0.0
 10
32.0670056624
 20
78.3566950452
 30
0.0
 10
33.3115580762
 20
78.2018331155
 30
0.0
 10
34.504065165
 20
77.9399167608
 30
0.0
 10
35.6176363283
 20
77.5768053677
 30
0.0
 10
36.6272824942
 20
77.1205257252
 30
0.0
 10
37.5105419925
 20
76.580755462
 30
0.0
 10
38.2475244057
 20
75.9689115936
 30
0.0
 10
38.7354829296
 20
75.3969037017
 30
0.0
 10
39.0297226813
 20
74.9174951001
 30
0.0
 10
39.1996971052
 20
74.5563497634
 30
0.0
 10
39.3223784819
 20
74.1886535679
 30
0.0
 10
39.396699905
 20
73.816476754
 30
0.0
 10
39.4222583599
 20
73.4422500051
 30
0.0
 10
39.4066622226
 20
73.1935469676
 30
0.0
 10
39.3909111272
 20
73.0704335863
 30
0.0
  0
SPLINE
  5
30C
100
AcDbEntity
  8
0
100
AcDbSpline
 62
7
  6
BYLAYER
 70
0
 71
3
 72
10
 73
6
 74
0
 42
0.0000001
 43
0.0000001
 44
0.0000000001
 40
0.0
 40
0.0
 40
0.0
 40
0.0
 40
0.4711717373
 40
0.7284499105
 40
1.0
 40
1.0
 40
1.0
 40
1.0
 10
38.8259705416
 20
71.636895244
 30
0.0
 10
38.6038535423
 20
71.310404718
 30
0.0
 10
38.1849674528
 20
70.854898502
 30
0.0
 10
37.5254572307
 20
70.3370316526
 30
0.0
 10
37.1508756078
 20
70.0983836041
 30
0.0
 10
36.9537833079
 20
69.9845929909
 30
0.0
  0
SPLINE
  5
30D
100
AcDbEntity
  8
0
100
AcDbSpline
 62
7
  6
BYLAYER
 70
0
 71
3
 72
13
 73
9
 74
0
 42
0.0000001
 43
0.0000001
 44
0.0000000001
 40
0.0
 40
0.0
 40
0.0
 40
0.0
 40
0.2905119702
 40
0.5485033376
 40
0.6671225189
 40
0.7805447735
 40
0.8907467351
 40
1.0
 40
1.0
 40
1.0
 40
1.0
 10
37.809233306
 20
66.5937845325
 30
0.0
 10
37.914009479
 20
66.5320588038
 30
0.0
 10
38.1025158089
 20
66.3980477579
 30
0.0
 10
38.2895922522
 20
66.1859430476
 30
0.0
 10
38.3876510383
 20
66.0048634551
 30
0.0
 10
38.4345656792
 20
65.8687506096
 30
0.0
 10
38.4562927971
 20
65.7303781667
 30
0.0
 10
38.4535814357
 20
65.6379371372
 30
0.0
 10
38.4480788467
 20
65.5925366906
 30
0.0
  0
SPLINE
  5
30E
100
AcDbEntity
  8
0
100
AcDbSpline
 62
7
  6
BYLAYER
 70
0
 71
3
 72
11
 73
7
 74
0
 42
0.0000001
 43
0.0000001
 44
0.0000000001
 40
0.0
 40
0.0
 40
0.0
 40
0.0
 40
0.2221179509
 40
0.4587584322
 40
0.7169027154
 40
1.0
 40
1.0
 40
1.0
 40
1.0
 10
38.4480788467
 20
65.5925366906
 30
0.0
 10
38.4394604656
 20
65.5214286441
 30
0.0
 10
38.4003316145
 20
65.3765093222
 30
0.0
 10
38.2836489671
 20
65.1745081897
 30
0.0
 10
38.1130984854
 20
64.9883435446
 30
0.0
 10
37.9731678122
 20
64.8824977027
 30
0.0
 10
37.8966006833
 20
64.8327796517
 30
0.0
  0
SPLINE
  5
30F
100
AcDbEntity
  8
0
100
AcDbSpline
 62
7
  6
BYLAYER
 70
0
 71
3
 72
15
 73
11
 74
0
 42
0.0000001
 43
0.0000001
 44
0.0000000001
 40
0.0
 40
0.0
 40
0.0
 40
0.0
 40
0.1148843484
 40
0.2379576963
 40
0.3669754627
 40
0.4991785542
 40
0.6315430336
 40
0.7609970741
 40
0.8846438692
 40
1.0
 40
1.0
 40
1.0
 40
1.0
 10
50.7428635149
 20
14.9251745427
 30
0.0
 10
50.4649692117
 20
14.7588921821
 30
0.0
 10
49.8603173558
 20
14.4618267112
 30
0.0
 10
48.8765098735
 20
14.134053876
 30
0.0
 10
47.8129386624
 20
13.9159749377
 30
0.0
 10
46.7059796173
 20
13.8142347284
 30
0.0
 10
45.5932941239
 20
13.8314219578
 30
0.0
 10
44.5127757627
 20
13.9660873538
 30
0.0
 10
43.5014579455
 20
14.2126900246
 30
0.0
 10
42.8702827425
 20
14.4557115365
 30
0.0
 10
42.5768774172
 20
14.5958953722
 30
0.0
  0
SPLINE
  5
310
100
AcDbEntity
  8
0
100
AcDbSpline
 62
7
  6
BYLAYER
 70
0
 71
3
 72
13
 73
9
 74
0
 42
0.0000001
 43
0.0000001
 44
0.0000000001
 40
0.0
 40
0.0
 40
0.0
 40
0.0
 40
0.2947490628
 40
0.5560783322
 40
0.6752320822
 40
0.7878296721
 40
0.8954199262
 40
1.0
 40
1.0
 40
1.0
 40
1.0
 10
42.5768774172
 20
14.5958953722
 30
0.0
 10
42.2853174364
 20
14.7351975353
 30
0.0
 10
41.7540720778
 20
15.0413407267
 30
0.0
 10
41.1950502627
 20
15.5379315358
 30
0.0
 10
40.8703231951
 20
15.9721983539
 30
0.0
 10
40.6934704487
 20
16.3012713399
 30
0.0
 10
40.578331257
 20
16.6399499486
 30
0.0
 10
40.5436415191
 20
16.8714940466
 30
0.0
 10
40.5372571488
 20
16.9859657037
 30
0.0
  0
SPLINE
  5
311
100
AcDbEntity
  8
0
100
AcDbSpline
 62
7
  6
BYLAYER
 70
0
 71
3
 72
11
 73
7
 74
0
 42
0.0000001
 43
0.0000001
 44
0.0000000001
 40
0.0
 40
0.0
 40
0.0
 40
0.0
 40
0.283241427
 40
0.5414510942
 40
0.7779692116
 40
1.0
 40
1.0
 40
1.0
 40
1.0
 10
34.5970098045
 20
64.8611187803
 30
0.0
 10
34.5211638844
 20
64.9122202204
 30
0.0
 10
34.3828039788
 20
65.0205725951
 30
0.0
 10
34.2151380921
 20
65.2098133713
 30
0.0
 10
34.1018267151
 20
65.4140100232
 30
0.0
 10
34.0651283861
 20
65.5596845597
 30
0.0
 10
34.0577090896
 20
65.6309902471
 30
0.0
  0
SPLINE
  5
312
100
AcDbEntity
  8
0
100
AcDbSpline
 62
7
  6
BYLAYER
 70
0
 71
3
 72
20
 73
16
 74
0
 42
0.0000001
 43
0.0000001
 44
0.0000000001
 40
0.0
 40
0.0
 40
0.0
 40
0.0
 40
0.0433088405
 40
0.087677051
 40
0.1347741837
 40
0.1857722279
 40
0.241299504
 40
0.3014675506
 40
0.3660003202
 40
0.4343092883
 40
0.5786890329
 40
0.7267524449
 40
0.8697041346
 40
0.9368970852
 40
1.0
 40
1.0
 40
1.0
 40
1.0
 10
34.0577090896
 20
65.6309902471
 30
0.0
 10
34.0510297147
 20
65.6951846643
 30
0.0
 10
34.0545157596
 20
65.8275558494
 30
0.0
 10
34.1117366898
 20
66.0221633927
 30
0.0
 10
34.2185324806
 20
66.2076528989
 30
0.0
 10
34.3711372664
 20
66.3800512289
 30
0.0
 10
34.5657893502
 20
66.5360143114
 30
0.0
 10
34.7979323645
 20
66.6726405725
 30
0.0
 10
35.0625132037
 20
66.787131331
 30
0.0
 10
35.4578947429
 20
66.9091393124
 30
0.0
 10
35.9928314816
 20
66.9902133571
 30
0.0
 10
36.6443793633
 20
66.9751607504
 30
0.0
 10
37.1713048537
 20
66.8695079242
 30
0.0
 10
37.5541181398
 20
66.7288291066
 30
0.0
 10
37.7282091453
 20
66.6415174781
 30
0.0
 10
37.809233306
 20
66.5937845325
 30
0.0
  0
SPLINE
  5
313
100
AcDbEntity
  8
0
100
AcDbSpline
 62
7
  6
BYLAYER
 70
0
 71
3
 72
23
 73
19
 74
0
 42
0.0000001
 43
0.0000001
 44
0.0000000001
 40
0.0
 40
0.0
 40
0.0
 40
0.0
 40
0.0634302434
 40
0.1305964647
 40
0.2007810476
 40
0.2731773619
 40
0.3468270191
 40
0.4207211677
 40
0.4938318514
 40
0.5651527849
 40
0.6337469519
 40
0.6987974347
 40
0.7596608545
 40
0.8159302328
 40
0.8675165648
 40
0.9147480697
 40
0.9584558051
 40
1.0
 40
1.0
 40
1.0
 40
1.0
 10
50.742858541
 20
15.7416745845
 30
0.0
 10
50.5297084523
 20
15.6141509565
 30
0.0
 10
50.0738417308
 20
15.3793702523
 30
0.0
 10
49.3388308175
 20
15.0966472404
 30
0.0
 10
48.5459515678
 20
14.8776420348
 30
0.0
 10
47.7117697024
 20
14.7262720709
 30
0.0
 10
46.8532929199
 20
14.645375549
 30
0.0
 10
45.9882916085
 20
14.6361431955
 30
0.0
 10
45.134601166
 20
14.6983565858
 30
0.0
 10
44.3098358847
 20
14.8303860525
 30
0.0
 10
43.5309704051
 20
15.029125878
 30
0.0
 10
42.8139336667
 20
15.2901223322
 30
0.0
 10
42.1732883891
 20
15.6078043467
 30
0.0
 10
41.621993897
 20
15.9757374798
 30
0.0
 10
41.1712747773
 20
16.3868065345
 30
0.0
 10
40.830871149
 20
16.8336979313
 30
0.0
 10
40.6096601298
 20
17.3078339673
 30
0.0
 10
40.5463188208
 20
17.6400274244
 30
0.0
 10
40.5372581824
 20
17.8024570159
 30
0.0
  0
SPLINE
  5
314
100
AcDbEntity
  8
0
100
AcDbSpline
 62
7
  6
BYLAYER
 70
0
 71
3
 72
23
 73
19
 74
0
 42
0.0000001
 43
0.0000001
 44
0.0000000001
 40
0.0
 40
0.0
 40
0.0
 40
0.0
 40
0.0605370599
 40
0.1149136738
 40
0.1638938196
 40
0.2095210244
 40
0.2547479503
 40
0.3026737876
 40
0.3555834514
 40
0.414583781
 40
0.479731391
 40
0.5502986445
 40
0.625010322
 40
0.7022359431
 40
0.7801607214
 40
0.8569089349
 40
0.9306903788
 40
1.0
 40
1.0
 40
1.0
 40
1.0
 10
38.296621448
 20
29.8504059556
 30
0.0
 10
38.296621448
 20
29.9808916784
 30
0.0
 10
38.315882221
 20
30.2293787984
 30
0.0
 10
38.4132686988
 20
30.5719218249
 30
0.0
 10
38.577275164
 20
30.8528893022
 30
0.0
 10
38.8048837657
 20
31.0586738211
 30
0.0
 10
39.0861745895
 20
31.1759635585
 30
0.0
 10
39.4046356453
 20
31.2000416831
 30
0.0
 10
39.7461110144
 20
31.1344711439
 30
0.0
 10
40.0995602641
 20
30.9846344147
 30
0.0
 10
40.4539989917
 20
30.7567537474
 30
0.0
 10
40.7978276695
 20
30.458916375
 30
0.0
 10
41.1193133147
 20
30.1015104886
 30
0.0
 10
41.4072825734
 20
29.6970787187
 30
0.0
 10
41.6515657889
 20
29.2598587402
 30
0.0
 10
41.8435746158
 20
28.8052591987
 30
0.0
 10
41.9765515361
 20
28.3493274661
 30
0.0
 10
42.0243814847
 20
28.0434231429
 30
0.0
 10
42.0360073628
 20
27.8944814904
 30
0.0
  0
SPLINE
  5
315
100
AcDbEntity
  8
0
100
AcDbSpline
 62
7
  6
BYLAYER
 70
0
 71
3
 72
9
 73
5
 74
0
 42
0.0000001
 43
0.0000001
 44
0.0000000001
 40
0.0
 40
0.0
 40
0.0
 40
0.0
 40
0.2544134098
 40
1.0
 40
1.0
 40
1.0
 40
1.0
 10
42.0360073628
 20
27.8944814904
 30
0.0
 10
42.0373796986
 20
27.8769001987
 30
0.0
 10
42.0421360717
 20
27.8077474552
 30
0.0
 10
42.0443029913
 20
27.7384105982
 30
0.0
 10
42.0443029913
 20
27.6867299567
 30
0.0
  0
SPLINE
  5
316
100
AcDbEntity
  8
0
100
AcDbSpline
 62
7
  6
BYLAYER
 70
0
 71
3
 72
26
 73
22
 74
0
 42
0.0000001
 43
0.0000001
 44
0.0000000001
 40
0.0
 40
0.0
 40
0.0
 40
0.0
 40
0.0603415381
 40
0.1143492803
 40
0.1392547298
 40
0.1630316528
 40
0.1860009073
 40
0.2085433508
 40
0.231085174
 40
0.2540511108
 40
0.3026115064
 40
0.3566015716
 40
0.4169521971
 40
0.4835059071
 40
0.5553175988
 40
0.6309078453
 40
0.7084651652
 40
0.7860283724
 40
0.8616149803
 40
0.9334518654
 40
1.0
 40
1.0
 40
1.0
 40
1.0
 10
42.0443029913
 20
27.6867299567
 30
0.0
 10
42.0443029913
 20
27.5524399626
 30
0.0
 10
42.024042165
 20
27.2971938387
 30
0.0
 10
41.9353845583
 20
26.9969254487
 30
0.0
 10
41.8277509486
 20
26.7945234245
 30
0.0
 10
41.7327883051
 20
26.6656491389
 30
0.0
 10
41.6224224149
 20
26.5569745668
 30
0.0
 10
41.4976201706
 20
26.4698758874
 30
0.0
 10
41.3597807127
 20
26.4053678151
 30
0.0
 10
41.1571853158
 20
26.3492347364
 30
0.0
 10
40.873489496
 20
26.3417139329
 30
0.0
 10
40.5180842173
 20
26.4276664283
 30
0.0
 10
40.1524462035
 20
26.601598396
 30
0.0
 10
39.7889412314
 20
26.8564472719
 30
0.0
 10
39.440198815
 20
27.1826518158
 30
0.0
 10
39.1189493775
 20
27.5681710595
 30
0.0
 10
38.8370951747
 20
27.9986517284
 30
0.0
 10
38.6052357886
 20
28.4579690772
 30
0.0
 10
38.4318984042
 20
28.9290090574
 30
0.0
 10
38.3237873602
 20
29.394044497
 30
0.0
 10
38.296621448
 20
29.7023031913
 30
0.0
 10
38.296621448
 20
29.8504059556
 30
0.0
  0
SPLINE
  5
317
100
AcDbEntity
  8
0
100
AcDbSpline
 62
7
  6
BYLAYER
 70
0
 71
3
 72
26
 73
22
 74
0
 42
0.0000001
 43
0.0000001
 44
0.0000000001
 40
0.0
 40
0.0
 40
0.0
 40
0.0
 40
0.0603415381
 40
0.1143492803
 40
0.1392547298
 40
0.1630316528
 40
0.1860009073
 40
0.2085433508
 40
0.231085174
 40
0.2540511108
 40
0.3026115064
 40
0.3566015716
 40
0.4169521971
 40
0.4835059071
 40
0.5553175988
 40
0.6309078453
 40
0.7084651652
 40
0.7860283724
 40
0.8616149803
 40
0.9334518654
 40
1.0
 40
1.0
 40
1.0
 40
1.0
 10
42.0443029913
 20
50.5487976363
 30
0.0
 10
42.0443029913
 20
50.4145076422
 30
0.0
 10
42.024042165
 20
50.1592615183
 30
0.0
 10
41.9353845583
 20
49.8589931283
 30
0.0
 10
41.8277509486
 20
49.6565911041
 30
0.0
 10
41.7327883051
 20
49.5277168185
 30
0.0
 10
41.6224224149
 20
49.4190422465
 30
0.0
 10
41.4976201706
 20
49.331943567
 30
0.0
 10
41.3597807127
 20
49.2674354948
 30
0.0
 10
41.1571853158
 20
49.211302416
 30
0.0
 10
40.873489496
 20
49.2037816125
 30
0.0
 10
40.5180842173
 20
49.2897341079
 30
0.0
 10
40.1524462035
 20
49.4636660756
 30
0.0
 10
39.7889412314
 20
49.7185149515
 30
0.0
 10
39.440198815
 20
50.0447194955
 30
0.0
 10
39.1189493775
 20
50.4302387391
 30
0.0
 10
38.8370951747
 20
50.860719408
 30
0.0
 10
38.6052357886
 20
51.3200367569
 30
0.0
 10
38.4318984042
 20
51.7910767371
 30
0.0
 10
38.3237873602
 20
52.2561121766
 30
0.0
 10
38.296621448
 20
52.5643708709
 30
0.0
 10
38.296621448
 20
52.7124736353
 30
0.0
  0
SPLINE
  5
318
100
AcDbEntity
  8
0
100
AcDbSpline
 62
7
  6
BYLAYER
 70
0
 71
3
 72
23
 73
19
 74
0
 42
0.0000001
 43
0.0000001
 44
0.0000000001
 40
0.0
 40
0.0
 40
0.0
 40
0.0
 40
0.0605370599
 40
0.1149136738
 40
0.1638938196
 40
0.2095210244
 40
0.2547479503
 40
0.3026737876
 40
0.3555834514
 40
0.414583781
 40
0.479731391
 40
0.5502986445
 40
0.625010322
 40
0.7022359431
 40
0.7801607214
 40
0.8569089349
 40
0.9306903788
 40
1.0
 40
1.0
 40
1.0
 40
1.0
 10
38.296621448
 20
54.3454784695
 30
0.0
 10
38.296621448
 20
54.4759641922
 30
0.0
 10
38.315882221
 20
54.7244513123
 30
0.0
 10
38.4132686988
 20
55.0669943388
 30
0.0
 10
38.577275164
 20
55.3479618161
 30
0.0
 10
38.8048837657
 20
55.553746335
 30
0.0
 10
39.0861745895
 20
55.6710360724
 30
0.0
 10
39.4046356453
 20
55.695114197
 30
0.0
 10
39.7461110144
 20
55.6295436578
 30
0.0
 10
40.0995602641
 20
55.4797069286
 30
0.0
 10
40.4539989917
 20
55.2518262613
 30
0.0
 10
40.7978276695
 20
54.9539888889
 30
0.0
 10
41.1193133147
 20
54.5965830025
 30
0.0
 10
41.4072825734
 20
54.1921512326
 30
0.0
 10
41.6515657889
 20
53.7549312541
 30
0.0
 10
41.8435746158
 20
53.3003317125
 30
0.0
 10
41.9765515361
 20
52.84439998
 30
0.0
 10
42.0243814847
 20
52.5384956568
 30
0.0
 10
42.0360073628
 20
52.3895540043
 30
0.0
  0
SPLINE
  5
319
100
AcDbEntity
  8
0
100
AcDbSpline
 62
7
  6
BYLAYER
 70
0
 71
3
 72
9
 73
5
 74
0
 42
0.0000001
 43
0.0000001
 44
0.0000000001
 40
0.0
 40
0.0
 40
0.0
 40
0.0
 40
0.2544134098
 40
1.0
 40
1.0
 40
1.0
 40
1.0
 10
42.0360073628
 20
52.3895540043
 30
0.0
 10
42.0373796986
 20
52.3719727126
 30
0.0
 10
42.0421360717
 20
52.3028199691
 30
0.0
 10
42.0443029913
 20
52.2334831121
 30
0.0
 10
42.0443029913
 20
52.1818024706
 30
0.0
  0
SPLINE
  5
31A
100
AcDbEntity
  8
0
100
AcDbSpline
 62
7
  6
BYLAYER
 70
0
 71
3
 72
10
 73
6
 74
0
 42
0.0000001
 43
0.0000001
 44
0.0000000001
 40
0.0
 40
0.0
 40
0.0
 40
0.0
 40
0.2720681639
 40
0.5294142701
 40
1.0
 40
1.0
 40
1.0
 40
1.0
 10
25.1361214315
 20
70.0185802565
 30
0.0
 10
24.9319281862
 20
70.136453289
 30
0.0
 10
24.5441287919
 20
70.3834522548
 30
0.0
 10
23.862673736
 20
70.9195479696
 30
0.0
 10
23.4305048998
 20
71.3910427112
 30
0.0
 10
23.2023686591
 20
71.7290675687
 30
0.0
  0
ENDSEC
  0
SECTION
  2
OBJECTS
  0
DICTIONARY
  5
C
100
AcDbDictionary
280
0
281
1
  3
ACAD_GROUP
350
D
  3
ACAD_MLINESTYLE
350
17
  3
ACAD_LAYOUT
350
1A
  3
ACAD_PLOTSETTINGS
350
19
  3
ACAD_PLOTSTYLENAME
350
E
  0
DICTIONARY
  5
D
102
{ACAD_REACTORS
330
C
102
}
100
AcDbDictionary
280
0
281
1
  0
ACDBDICTIONARYWDFLT
  5
E
102
{ACAD_REACTORS
330
C
102
}
100
AcDbDictionary
281
1
  3
Normal
350
F
100
AcDbDictionaryWithDefault
340
F
  0
DICTIONARY
  5
17
102
{ACAD_REACTORS
330
C
102
}
100
AcDbDictionary
280
0
281
1
  3
Standard
350
18
  0
DICTIONARY
  5
19
102
{ACAD_REACTORS
330
C
102
}
100
AcDbDictionary
281
1
  0
DICTIONARY
  5
1A
102
{ACAD_REACTORS
330
C
102
}
100
AcDbDictionary
281
1
  3
Model
350
31B
  3
Layout1
350
31C
  0
ACDBPLACEHOLDER
  5
F
102
{ACAD_REACTORS
330
E
102
}
  0
MLINESTYLE
  5
18
102
{ACAD_REACTORS
330
17
102
}
100
AcDbMlineStyle
  2
STANDARD
 70
0
  3

 62
256
 51
90.0
 52
90.0
 71
2
 49
0.5
 62
256
  6
BYLAYER
 49
-0.5
 62
256
  6
BYLAYER
  0
LAYOUT
  5
31B
102
{ACAD_REACTORS
330
1A
102
}
100
AcDbPlotSettings
  1

  2
none_device
  4

  6

 40
0.0
 41
0.0
 42
0.0
 43
0.0
 44
210.0
 45
297.0
 46
0.0
 47
0.0
 48
0.0
 49
0.0
140
0.0
141
0.0
142
1.0
143
1.0
 70
1024
 72
1
 73
0
 74
0
  7

 75
0
147
1.0
148
0.0
149
0.0
100
AcDbLayout
  1
Model
 70
0
 71
0
 10
0.0
 20
0.0
 11
210.0
 21
297.0
 12
0.0
 22
0.0
 32
0.0
 14
0.0
 24
0.0
 34
0.0
 15
0.0
 25
0.0
 35
0.0
146
0.0
 13
0.0
 23
0.0
 33
0.0
 16
1.0
 26
0.0
 36
0.0
 17
0.0
 27
1.0
 37
0.0
 76
0
330
210
345
0
346
0
  0
LAYOUT
  5
31C
102
{ACAD_REACTORS
330
1A
102
}
100
AcDbPlotSettings
  1

  2
none_device
  4

  6

 40
0.0
 41
0.0
 42
0.0
 43
0.0
 44
210.0
 45
297.0
 46
0.0
 47
0.0
 48
0.0
 49
0.0
140
0.0
141
0.0
142
1.0
143
1.0
 70
0
 72
1
 73
0
 74
0
  7

 75
0
147
1.0
148
0.0
149
0.0
100
AcDbLayout
  1
Layout1
 70
0
 71
1
 10
0.0
 20
0.0
 11
210.0
 21
297.0
 12
0.0
 22
0.0
 32
0.0
 14
0.0
 24
0.0
 34
0.0
 15
0.0
 25
0.0
 35
0.0
146
0.0
 13
0.0
 23
0.0
 33
0.0
 16
1.0
 26
0.0
 36
0.0
 17
0.0
 27
1.0
 37
0.0
 76
0
330
211
345
0
346
0
  0
ENDSEC
  0
EOF
