999
DXF file: C:\Users\sesa63760\Dev\_Creo\CAD\MCADID0004751_3D-CAD\drw0001_1.dxf
999
Pro/ENGINEER 2019471 by Parametric Technology Corporation
  0
SECTION
  2
HEADER
  9
$ACADVER
  1
AC1024
  9
$DWGCODEPAGE
  3
ANSI_1252
  9
$EXTMAX
 10
43.3687388862
 20
61.3357878534
 30
0.0
  9
$EXTMIN
 10
0.0
 20
0.0
 30
0.0
  9
$LIMMIN
 10
0.0
 20
0.0
  9
$LIMMAX
 10
43.3687388862
 20
61.3357878534
  9
$VIEWCTR
 10
21.6843694431
 20
30.6678939267
  9
$VIEWSIZE
 40
61.3357878534
  9
$CLAYER
  8
0
  9
$LTSCALE
 40
3.9981846897
  9
$CELTYPE
  6
BYLAYER
  9
$DIMSCALE
 40
1.0
  9
$DIMASZ
 40
0.5162945106
  9
$DIMEXO
 40
1.0
  9
$DIMDLI
 40
2.7623821492
  9
$DIMEXE
 40
1.0
  9
$DIMCEN
 40
0.6542484038
  9
$DIMLFAC
 40
1.0
  9
$DIMBLK
  1
_FILLED
  9
$DIMALT
 70
0
  9
$DIMALTF
 40
0.0393700787
  9
$DIMTXT
 40
0.7228123148
  9
$DIMTOL
 70
1
  9
$DIMLIM
 70
0
  9
$DIMTFAC
 40
1.0
  9
$DIMTP
 40
0.01
  9
$DIMTM
 40
0.01
  9
$DIMGAP
 40
0.625
  9
$DIMDSEP
 70
46
  9
$AUNITS
 70
0
  9
$PDMODE
 70
3
  9
$PDSIZE
 40
0.3125
  9
$HANDSEED
  5
356
  9
$TILEMODE
 70
1
  9
$MEASUREMENT
 70
1
  9
$INSUNITS
 70
4
  0
ENDSEC
  0
SECTION
  2
CLASSES
  0
CLASS
  1
ACDBDICTIONARYWDFLT
  2
AcDbDictionaryWithDefault
  3
AutoCAD 2000
 90
0
 91
1
280
0
281
0
  0
CLASS
  1
ACDBPLACEHOLDER
  2
AcDbPlaceHolder
  3
AutoCAD 2000
 90
0
 91
1
280
0
281
0
  0
CLASS
  1
LAYOUT
  2
AcDbLayout
  3
AutoCAD 2000
 90
0
 91
0
280
0
281
0
  0
ENDSEC
  0
SECTION
  2
TABLES
  0
TABLE
  2
VPORT
  5
8
100
AcDbSymbolTable
 70
2
  0
VPORT
  5
1F4
100
AcDbSymbolTableRecord
100
AcDbViewportTableRecord
  2
*ACTIVE
 70
0
 10
0.0
 20
0.0
 11
1.0
 21
1.0
 12
21.6843694431
 22
30.6678939267
 13
0.0
 23
0.0
 14
1.0
 24
1.0
 15
0.0
 25
0.0
 16
0.0
 26
0.0
 36
1.0
 17
0.0
 27
0.0
 37
0.0
 40
61.3357878534
 41
0.7070707071
 42
50.0
 43
0.0
 44
0.0
 50
0.0
 51
0.0
 71
0
 72
100
 73
1
 74
1
 75
0
 76
0
 77
0
 78
0
  0
ENDTAB
  0
TABLE
  2
LTYPE
  5
5
100
AcDbSymbolTable
 70
6
  0
LTYPE
  5
14
100
AcDbSymbolTableRecord
100
AcDbLinetypeTableRecord
  2
BYBLOCK
 70
0
  3

 72
65
 73
0
 40
0.0
  0
LTYPE
  5
15
100
AcDbSymbolTableRecord
100
AcDbLinetypeTableRecord
  2
BYLAYER
 70
0
  3

 72
65
 73
0
 40
0.0
  0
LTYPE
  5
16
100
AcDbSymbolTableRecord
100
AcDbLinetypeTableRecord
  2
CONTINUOUS
 70
64
  3
Solid line
 72
65
 73
0
 40
0.0
  0
LTYPE
  5
1F5
100
AcDbSymbolTableRecord
100
AcDbLinetypeTableRecord
  2
CENTER
 70
64
  3
____ _ ____ _ ____ _ ____ _ ____ _ ____ _ ____
 72
65
 73
4
 40
0.6
 49
0.375
 74
0
 49
-0.075
 74
0
 49
0.075
 74
0
 49
-0.075
 74
0
  0
LTYPE
  5
1F6
100
AcDbSymbolTableRecord
100
AcDbLinetypeTableRecord
  2
HIDDEN
 70
64
  3
- - - - - - - - - - - - - - - - - - - -
 72
65
 73
2
 40
0.2
 49
0.1
 74
0
 49
-0.1
 74
0
  0
LTYPE
  5
1F7
100
AcDbSymbolTableRecord
100
AcDbLinetypeTableRecord
  2
PHANTOM
 70
64
  3
_____ _ _ _____ _ _ _____ _ _ _____
 72
65
 73
6
 40
0.8
 49
0.45
 74
0
 49
-0.05
 74
0
 49
0.1
 74
0
 49
-0.05
 74
0
 49
0.1
 74
0
 49
-0.05
 74
0
  0
LTYPE
  5
1F8
100
AcDbSymbolTableRecord
100
AcDbLinetypeTableRecord
  2
DOT
 70
64
  3
. . . . . . . . . . . . . . . . . . . .
 72
65
 73
2
 40
0.2
 49
0.1
 74
0
 49
-0.1
 74
0
  0
LTYPE
  5
1F9
100
AcDbSymbolTableRecord
100
AcDbLinetypeTableRecord
  2
DASHED
 70
64
  3
- - - - - - - - - - - - - - - - - - - -
 72
65
 73
2
 40
0.2
 49
0.1
 74
0
 49
-0.1
 74
0
  0
ENDTAB
  0
TABLE
  2
LAYER
  5
2
100
AcDbSymbolTable
 70
36
  0
LAYER
  5
10
100
AcDbSymbolTableRecord
100
AcDbLayerTableRecord
  2
0
 70
0
 62
7
  6
CONTINUOUS
370
-3
390
F
  0
LAYER
  5
1FA
100
AcDbSymbolTableRecord
100
AcDbLayerTableRecord
  2
DEFAULT_1
 70
0
 62
7
  6
CENTER
370
-3
390
F
  0
LAYER
  5
1FB
100
AcDbSymbolTableRecord
100
AcDbLayerTableRecord
  2
DEFAULT_2
 70
0
 62
7
  6
HIDDEN
370
-3
390
F
  0
LAYER
  5
1FC
100
AcDbSymbolTableRecord
100
AcDbLayerTableRecord
  2
DEFAULT_3
 70
0
 62
7
  6
PHANTOM
370
-3
390
F
  0
LAYER
  5
1FD
100
AcDbSymbolTableRecord
100
AcDbLayerTableRecord
  2
00_COMPONENTS
 70
0
 62
7
  6
CONTINUOUS
370
-3
390
F
  0
LAYER
  5
1FE
100
AcDbSymbolTableRecord
100
AcDbLayerTableRecord
  2
01_1_DEFAULT_DATUMS
 70
0
 62
7
  6
CONTINUOUS
370
-3
390
F
  0
LAYER
  5
1FF
100
AcDbSymbolTableRecord
100
AcDbLayerTableRecord
  2
01_PLANES
 70
0
 62
7
  6
CONTINUOUS
370
-3
390
F
  0
LAYER
  5
200
100
AcDbSymbolTableRecord
100
AcDbLayerTableRecord
  2
02_COORD_SYS
 70
0
 62
7
  6
CONTINUOUS
370
-3
390
F
  0
LAYER
  5
201
100
AcDbSymbolTableRecord
100
AcDbLayerTableRecord
  2
03_AXES
 70
0
 62
7
  6
CONTINUOUS
370
-3
390
F
  0
LAYER
  5
202
100
AcDbSymbolTableRecord
100
AcDbLayerTableRecord
  2
04_POINTS
 70
0
 62
7
  6
CONTINUOUS
370
-3
390
F
  0
LAYER
  5
203
100
AcDbSymbolTableRecord
100
AcDbLayerTableRecord
  2
05_CURVES
 70
0
 62
7
  6
CONTINUOUS
370
-3
390
F
  0
LAYER
  5
204
100
AcDbSymbolTableRecord
100
AcDbLayerTableRecord
  2
06_SURFS
 70
0
 62
7
  6
CONTINUOUS
370
-3
390
F
  0
LAYER
  5
205
100
AcDbSymbolTableRecord
100
AcDbLayerTableRecord
  2
07_COSMETICS
 70
0
 62
7
  6
CONTINUOUS
370
-3
390
F
  0
LAYER
  5
206
100
AcDbSymbolTableRecord
100
AcDbLayerTableRecord
  2
10_NOTES
 70
0
 62
7
  6
CONTINUOUS
370
-3
390
F
  0
LAYER
  5
207
100
AcDbSymbolTableRecord
100
AcDbLayerTableRecord
  2
11_NOTES_PUB
 70
0
 62
7
  6
CONTINUOUS
370
-3
390
F
  0
LAYER
  5
208
100
AcDbSymbolTableRecord
100
AcDbLayerTableRecord
  2
13_REF_GTOL
 70
0
 62
7
  6
CONTINUOUS
370
-3
390
F
  0
LAYER
  5
209
100
AcDbSymbolTableRecord
100
AcDbLayerTableRecord
  2
16_MISC
 70
0
 62
7
  6
CONTINUOUS
370
-3
390
F
  0
LAYER
  5
20A
100
AcDbSymbolTableRecord
100
AcDbLayerTableRecord
  2
17_NO_PRINT
 70
0
 62
7
  6
CONTINUOUS
370
-3
390
F
  0
LAYER
  5
20B
100
AcDbSymbolTableRecord
100
AcDbLayerTableRecord
  2
18_DATUM_CAMS_JOINTS
 70
0
 62
7
  6
CONTINUOUS
370
-3
390
F
  0
LAYER
  5
20C
100
AcDbSymbolTableRecord
100
AcDbLayerTableRecord
  2
19_DATUM_FUNCTIONAL
 70
0
 62
7
  6
CONTINUOUS
370
-3
390
F
  0
LAYER
  5
20D
100
AcDbSymbolTableRecord
100
AcDbLayerTableRecord
  2
20_DATUM_KINEMATIC_SCHEME
 70
0
 62
7
  6
CONTINUOUS
370
-3
390
F
  0
ENDTAB
  0
TABLE
  2
STYLE
  5
3
100
AcDbSymbolTable
 70
1
  0
STYLE
  5
11
100
AcDbSymbolTableRecord
100
AcDbTextStyleTableRecord
  2
STANDARD
 70
0
 40
0.0
 41
1.0
 50
0.0
 71
0
 42
0.2
  3
ARIAL.TTF
  4

  0
STYLE
  5
20E
100
AcDbSymbolTableRecord
100
AcDbTextStyleTableRecord
  2
TEXTSTYLE_1
 70
0
 40
0.0
 41
0.8
 50
0.0
 71
0
 42
0.2
  3
gdt
  4

  0
ENDTAB
  0
TABLE
  2
VIEW
  5
6
100
AcDbSymbolTable
 70
0
  0
ENDTAB
  0
TABLE
  2
UCS
  5
7
100
AcDbSymbolTable
 70
0
  0
ENDTAB
  0
TABLE
  2
APPID
  5
9
100
AcDbSymbolTable
 70
1
  0
APPID
  5
20F
100
AcDbSymbolTableRecord
100
AcDbRegAppTableRecord
  2
ACAD
 70
0
  0
ENDTAB
  0
TABLE
  2
BLOCK_RECORD
  5
1
100
AcDbSymbolTable
 70
0
  0
BLOCK_RECORD
  5
210
100
AcDbSymbolTableRecord
100
AcDbBlockTableRecord
  2
*Model_Space
  0
BLOCK_RECORD
  5
211
100
AcDbSymbolTableRecord
100
AcDbBlockTableRecord
  2
*Paper_Space
  0
BLOCK_RECORD
  5
212
100
AcDbSymbolTableRecord
100
AcDbBlockTableRecord
  2
_FILLED
  0
ENDTAB
  0
TABLE
  2
DIMSTYLE
  5
A
100
AcDbSymbolTable
 70
1
100
AcDbDimStyleTable
 71
0
  0
DIMSTYLE
105
213
100
AcDbSymbolTableRecord
100
AcDbDimStyleTableRecord
  2
STANDARD
 70
0
  3

  4

 40
1.0
 41
0.5162945106
 42
1.0
 43
0.38
 44
1.0
 45
0.0
 46
0.0
 47
0.01
 48
0.01
140
0.7228123148
141
0.09
142
0.0
143
25.4
144
1.0
145
0.0
146
1.0
147
0.625
 71
1
 72
0
 73
0
 74
0
 75
0
 76
0
 77
1
 78
8
 79
2
170
0
171
1
172
0
173
0
174
0
175
0
176
0
177
0
178
0
270
2
179
2
271
2
272
2
273
2
274
2
275
0
280
0
281
0
282
0
283
1
284
8
285
0
286
0
287
3
288
0
340
11
278
46
341
212
342
212
343
212
344
212
  0
ENDTAB
  0
ENDSEC
  0
SECTION
  2
BLOCKS
  0
BLOCK
  5
20
100
AcDbEntity
  8
0
100
AcDbBlockBegin
  2
*Model_Space
 70
0
 10
0.0
 20
0.0
 30
0.0
  3
*Model_Space
  1

  0
ENDBLK
  5
21
100
AcDbEntity
  8
0
100
AcDbBlockEnd
  0
BLOCK
  5
1C
100
AcDbEntity
  8
0
100
AcDbBlockBegin
  2
*Paper_Space
 70
0
 10
0.0
 20
0.0
 30
0.0
  3
*Paper_Space
  1

  0
ENDBLK
  5
1D
100
AcDbEntity
  8
0
100
AcDbBlockEnd
  0
BLOCK
  5
214
100
AcDbEntity
  8
0
100
AcDbBlockBegin
  2
_FILLED
 70
64
 10
0.0
 20
0.0
  3
_FILLED
  1

  0
SOLID
  5
215
100
AcDbEntity
  8
0
  6
BYBLOCK
 62
0
100
AcDbTrace
 10
0.0
 20
0.0
 11
-1.0
 21
0.25
 12
-1.0
 22
-0.25
 13
-1.0
 23
-0.25
  0
ENDBLK
  5
216
100
AcDbEntity
  8
0
  6
BYBLOCK
 62
0
100
AcDbBlockEnd
  0
ENDSEC
  0
SECTION
  2
ENTITIES
  0
LWPOLYLINE
  5
217
100
AcDbEntity
  8
0
100
AcDbPolyline
 62
7
  6
BYLAYER
 90
5
 70
0
 10
7.7885875132
 20
44.7282793608
 10
6.9964829599
 20
44.1888126417
 10
5.7374226434
 20
42.7726253691
 10
5.3421189189
 20
41.9693540473
 10
5.0313602176
 20
40.2696388819
  0
LINE
  5
218
100
AcDbEntity
  8
0
100
AcDbLine
 62
7
  6
BYLAYER
 10
7.788623086
 20
44.7282998998
 11
7.7885875132
 21
44.7282793608
  0
LINE
  5
219
100
AcDbEntity
  8
0
100
AcDbLine
 62
7
  6
BYLAYER
 10
5.0312721932
 20
40.2983462112
 11
5.0312720262
 21
27.0745117371
  0
LINE
  5
21A
100
AcDbEntity
  8
0
100
AcDbLine
 62
7
  6
BYLAYER
 10
7.3594560482
 20
22.7978557635
 11
7.3033283302
 21
22.8998715638
  0
LINE
  5
21B
100
AcDbEntity
  8
0
100
AcDbLine
 62
7
  6
BYLAYER
 10
6.3166753278
 20
23.764943507
 11
6.2858963873
 21
23.8479500847
  0
LWPOLYLINE
  5
21C
100
AcDbEntity
  8
0
100
AcDbPolyline
 62
7
  6
BYLAYER
 90
9
 70
0
 10
6.7948772972
 20
21.890307194
 10
7.1195996939
 20
21.0003403208
 10
8.1928387332
 20
19.9645258854
 10
8.9335041802
 20
19.5381997169
 10
10.7235513955
 20
18.9233496683
 10
12.7657020059
 20
18.6758857439
 10
14.8325904052
 20
18.8232766864
 10
16.7168267014
 20
19.3533654327
 10
17.5214187809
 20
19.7464689266
  0
LINE
  5
21D
100
AcDbEntity
  8
0
100
AcDbLine
 62
7
  6
BYLAYER
 10
6.8454268446
 20
23.6705466985
 11
7.0232965534
 21
23.1830590778
  0
LINE
  5
21E
100
AcDbEntity
  8
0
100
AcDbLine
 62
7
  6
BYLAYER
 10
7.0232965534
 20
23.1105675502
 11
7.0468466707
 21
23.0329803309
  0
LINE
  5
21F
100
AcDbEntity
  8
0
100
AcDbLine
 62
7
  6
BYLAYER
 10
6.109860239
 20
24.0933111184
 11
6.1258045802
 21
24.0305392473
  0
LINE
  5
220
100
AcDbEntity
  8
0
100
AcDbLine
 62
7
  6
BYLAYER
 10
6.109860239
 20
24.8145311333
 11
6.109860239
 21
24.0933111184
  0
LINE
  5
221
100
AcDbEntity
  8
0
100
AcDbLine
 62
7
  6
BYLAYER
 10
6.2858963873
 20
23.8479500847
 11
6.2858963873
 21
24.6741285107
  0
LINE
  5
222
100
AcDbEntity
  8
0
100
AcDbLine
 62
7
  6
BYLAYER
 10
6.6812720262
 20
23.6746842024
 11
6.6812720262
 21
23.3186006183
  0
LINE
  5
223
100
AcDbEntity
  8
0
100
AcDbLine
 62
7
  6
BYLAYER
 10
6.6812720262
 20
22.0684282745
 11
6.6812720262
 21
21.8488962675
  0
LINE
  5
224
100
AcDbEntity
  8
0
100
AcDbLine
 62
7
  6
BYLAYER
 10
7.0232965534
 20
24.0859940947
 11
7.0232965534
 21
23.1105675502
  0
LINE
  5
225
100
AcDbEntity
  8
0
100
AcDbLine
 62
7
  6
BYLAYER
 10
14.1725146607
 20
17.4720882746
 11
14.1725282245
 21
17.4720804435
  0
LINE
  5
226
100
AcDbEntity
  8
0
100
AcDbLine
 62
7
  6
BYLAYER
 10
14.4547988926
 20
17.3936629817
 11
14.1206727173
 21
17.5865664549
  0
LWPOLYLINE
  5
227
100
AcDbEntity
  8
0
100
AcDbPolyline
 62
7
  6
BYLAYER
 90
3
 70
0
 10
14.1725111509
 20
17.4720856935
 10
14.1227329052
 20
17.5181037346
 10
14.1206610954
 20
17.5269504653
  0
LINE
  5
228
100
AcDbEntity
  8
0
100
AcDbLine
 62
7
  6
BYLAYER
 10
8.3461664676
 20
22.297802305
 11
8.3619117558
 21
22.2184768874
  0
LINE
  5
229
100
AcDbEntity
  8
0
100
AcDbLine
 62
7
  6
BYLAYER
 10
7.2812720262
 20
20.3556354115
 11
7.2812720262
 21
19.1136131701
  0
LINE
  5
22A
100
AcDbEntity
  8
0
100
AcDbLine
 62
7
  6
BYLAYER
 10
7.3033283302
 20
22.8998715638
 11
7.3033283302
 21
23.8626468092
  0
LINE
  5
22B
100
AcDbEntity
  8
0
100
AcDbLine
 62
7
  6
BYLAYER
 10
7.3744413285
 20
28.6213901312
 11
7.3744413285
 21
36.7808437296
  0
LINE
  5
22C
100
AcDbEntity
  8
0
100
AcDbLine
 62
7
  6
BYLAYER
 10
8.0793242667
 20
23.51347218
 11
8.0793242667
 21
22.8358955844
  0
LINE
  5
22D
100
AcDbEntity
  8
0
100
AcDbLine
 62
7
  6
BYLAYER
 10
8.2811487591
 20
17.2429155489
 11
8.2811487591
 21
19.4247517587
  0
LINE
  5
22E
100
AcDbEntity
  8
0
100
AcDbLine
 62
7
  6
BYLAYER
 10
8.3461664676
 20
23.4010453645
 11
8.3461664676
 21
22.297802305
  0
LINE
  5
22F
100
AcDbEntity
  8
0
100
AcDbLine
 62
7
  6
BYLAYER
 10
9.9785107396
 20
21.6767832367
 11
9.9536449534
 21
22.0055597292
  0
LINE
  5
230
100
AcDbEntity
  8
0
100
AcDbLine
 62
7
  6
BYLAYER
 10
8.7111101701
 20
22.136129949
 11
8.7111101701
 21
23.2472861087
  0
LINE
  5
231
100
AcDbEntity
  8
0
100
AcDbLine
 62
7
  6
BYLAYER
 10
9.4161380926
 20
22.957606141
 11
9.4161380926
 21
22.1847243988
  0
LINE
  5
232
100
AcDbEntity
  8
0
100
AcDbLine
 62
7
  6
BYLAYER
 10
9.7911219328
 20
18.7542126504
 11
9.7911219328
 21
16.3711518526
  0
LINE
  5
233
100
AcDbEntity
  8
0
100
AcDbLine
 62
7
  6
BYLAYER
 10
9.9536449534
 20
22.0055597292
 11
9.9536449534
 21
22.8562776383
  0
LINE
  5
234
100
AcDbEntity
  8
0
100
AcDbLine
 62
7
  6
BYLAYER
 10
9.9883185832
 20
22.8497411133
 11
9.9883185832
 21
21.710403991
  0
LINE
  5
235
100
AcDbEntity
  8
0
100
AcDbLine
 62
7
  6
BYLAYER
 10
27.5319101366
 20
18.147628796
 11
29.1715520828
 21
18.4522936594
  0
LINE
  5
236
100
AcDbEntity
  8
0
100
AcDbLine
 62
7
  6
BYLAYER
 10
27.0359240488
 20
18.1091552115
 11
27.0257686999
 21
18.1087603643
  0
LINE
  5
237
100
AcDbEntity
  8
0
100
AcDbLine
 62
7
  6
BYLAYER
 10
27.164142575
 20
18.0868931747
 11
27.0367790855
 21
18.0871639274
  0
LINE
  5
238
100
AcDbEntity
  8
0
100
AcDbLine
 62
7
  6
BYLAYER
 10
27.0369017235
 20
18.0947844456
 11
27.2127079159
 21
18.0920655516
  0
LINE
  5
239
100
AcDbEntity
  8
0
100
AcDbLine
 62
7
  6
BYLAYER
 10
27.4444334202
 20
18.0891091051
 11
27.5802722491
 21
18.0860085554
  0
LINE
  5
23A
100
AcDbEntity
  8
0
100
AcDbLine
 62
7
  6
BYLAYER
 10
26.7492239514
 20
18.1001151737
 11
27.0367790855
 21
18.0871639274
  0
LINE
  5
23B
100
AcDbEntity
  8
0
100
AcDbLine
 62
7
  6
BYLAYER
 10
11.6030791825
 20
21.1911255807
 11
9.9836993999
 21
21.6284227687
  0
LWPOLYLINE
  5
23C
100
AcDbEntity
  8
0
100
AcDbPolyline
 62
7
  6
BYLAYER
 90
3
 70
0
 10
9.9666917416
 20
21.6330155154
 10
9.8700734291
 20
21.6591063168
 10
9.1169481119
 20
22.0948033631
  0
LINE
  5
23D
100
AcDbEntity
  8
0
100
AcDbLine
 62
7
  6
BYLAYER
 10
9.9321565743
 20
21.9433588107
 11
9.3184653431
 21
22.1553690214
  0
LINE
  5
23E
100
AcDbEntity
  8
0
100
AcDbLine
 62
7
  6
BYLAYER
 10
9.984537864
 20
21.6315277321
 11
9.978510747
 21
21.6767831383
  0
LINE
  5
23F
100
AcDbEntity
  8
0
100
AcDbLine
 62
7
  6
BYLAYER
 10
10.413303901
 20
21.6087729694
 11
10.413303901
 21
22.7696246923
  0
LINE
  5
240
100
AcDbEntity
  8
0
100
AcDbLine
 62
7
  6
BYLAYER
 10
10.9993173218
 20
22.6591519396
 11
10.9993173218
 21
21.7554975587
  0
LINE
  5
241
100
AcDbEntity
  8
0
100
AcDbLine
 62
7
  6
BYLAYER
 10
7.5228277437
 20
22.7646661635
 11
7.3594560482
 21
22.7978557635
  0
LINE
  5
242
100
AcDbEntity
  8
0
100
AcDbLine
 62
7
  6
BYLAYER
 10
15.4835357324
 20
21.5331785125
 11
15.0632798925
 21
21.7555073273
  0
LINE
  5
243
100
AcDbEntity
  8
0
100
AcDbLine
 62
7
  6
BYLAYER
 10
18.2020156784
 20
19.7209036045
 11
18.3438699974
 21
19.6390058281
  0
LINE
  5
244
100
AcDbEntity
  8
0
100
AcDbLine
 62
7
  6
BYLAYER
 10
15.5834844844
 20
21.5132825869
 11
15.4835356579
 21
21.5331785519
  0
LINE
  5
245
100
AcDbEntity
  8
0
100
AcDbLine
 62
7
  6
BYLAYER
 10
17.1520576063
 20
22.0327862495
 11
16.6464529311
 21
22.1847417783
  0
LINE
  5
246
100
AcDbEntity
  8
0
100
AcDbLine
 62
7
  6
BYLAYER
 10
27.3047533755
 20
18.3786643176
 11
26.3873797457
 21
18.6911718857
  0
LINE
  5
247
100
AcDbEntity
  8
0
100
AcDbLine
 62
7
  6
BYLAYER
 10
24.5473836524
 20
17.7903588948
 11
12.0857227137
 21
24.9849394291
  0
LINE
  5
248
100
AcDbEntity
  8
0
100
AcDbLine
 62
7
  6
BYLAYER
 10
23.5925062709
 20
18.6502521396
 11
9.1889688104
 21
26.9659502434
  0
LINE
  5
249
100
AcDbEntity
  8
0
100
AcDbLine
 62
7
  6
BYLAYER
 10
23.3904766031
 20
19.3747370475
 11
7.3744413285
 21
28.6213901312
  0
LINE
  5
24A
100
AcDbEntity
  8
0
100
AcDbLine
 62
7
  6
BYLAYER
 10
13.9088272934
 20
17.3841409718
 11
13.9088272934
 21
18.26792828
  0
LINE
  5
24B
100
AcDbEntity
  8
0
100
AcDbLine
 62
7
  6
BYLAYER
 10
14.1206727173
 20
17.5267799704
 11
14.1206727173
 21
18.2831518589
  0
LINE
  5
24C
100
AcDbEntity
  8
0
100
AcDbLine
 62
7
  6
BYLAYER
 10
8.9105354612
 20
22.0327663949
 11
8.7797182761
 21
22.0335033328
  0
LINE
  5
24D
100
AcDbEntity
  8
0
100
AcDbLine
 62
7
  6
BYLAYER
 10
7.0232965534
 20
23.6660635123
 11
6.5105115598
 21
23.6789882009
  0
LINE
  5
24E
100
AcDbEntity
  8
0
100
AcDbLine
 62
7
  6
BYLAYER
 10
25.2741517518
 20
18.640932038
 11
25.5923511281
 21
18.4572236985
  0
LWPOLYLINE
  5
24F
100
AcDbEntity
  8
0
100
AcDbPolyline
 62
7
  6
BYLAYER
 90
4
 70
0
 10
25.5912958492
 20
18.4553992862
 10
24.4696862
 20
19.1041622245
 10
23.6692386461
 20
20.4543891778
 10
23.3904766031
 20
22.3186783772
  0
LINE
  5
250
100
AcDbEntity
  8
0
100
AcDbLine
 62
7
  6
BYLAYER
 10
23.5925062709
 20
18.6502521396
 11
24.5474108268
 21
17.7904059513
  0
LINE
  5
251
100
AcDbEntity
  8
0
100
AcDbLine
 62
7
  6
BYLAYER
 10
15.0632798925
 20
21.7555073273
 11
15.0632798925
 21
22.6586143267
  0
LINE
  5
252
100
AcDbEntity
  8
0
100
AcDbLine
 62
7
  6
BYLAYER
 10
15.6492977846
 20
22.768797255
 11
15.6492977846
 21
21.6087855552
  0
LINE
  5
253
100
AcDbEntity
  8
0
100
AcDbLine
 62
7
  6
BYLAYER
 10
16.0742816367
 20
21.7104186198
 11
16.0742816367
 21
22.6821959563
  0
LINE
  5
254
100
AcDbEntity
  8
0
100
AcDbLine
 62
7
  6
BYLAYER
 10
16.1089486543
 20
22.6621813971
 11
16.1089486543
 21
22.0055745248
  0
LINE
  5
255
100
AcDbEntity
  8
0
100
AcDbLine
 62
7
  6
BYLAYER
 10
16.1039479227
 20
21.9394420015
 11
15.1986569085
 21
21.683888545
  0
LINE
  5
256
100
AcDbEntity
  8
0
100
AcDbLine
 62
7
  6
BYLAYER
 10
10.5790645657
 20
21.5331666587
 11
10.4791632953
 21
21.5133718885
  0
LWPOLYLINE
  5
257
100
AcDbEntity
  8
0
100
AcDbPolyline
 62
7
  6
BYLAYER
 90
8
 70
0
 10
15.8567273944
 20
22.8077981151
 10
14.2908749467
 20
22.5133869541
 10
11.7733591791
 20
22.5132328673
 10
9.3845039416
 20
22.9635696764
 10
7.36240931
 20
23.8155250981
 10
5.8982227041
 20
24.9833286515
 10
5.1290649935
 20
26.354556025
 10
5.0312756217
 20
27.0745117372
  0
LINE
  5
258
100
AcDbEntity
  8
0
100
AcDbLine
 62
7
  6
BYLAYER
 10
8.0793242667
 20
22.8358955844
 11
7.5228278989
 21
22.7646661834
  0
LINE
  5
259
100
AcDbEntity
  8
0
100
AcDbLine
 62
7
  6
BYLAYER
 10
26.5094868777
 20
20.6989927243
 11
27.2165966028
 21
20.2907519698
  0
LINE
  5
25A
100
AcDbEntity
  8
0
100
AcDbLine
 62
7
  6
BYLAYER
 10
16.6464529311
 20
22.1847417783
 11
16.6464529311
 21
22.3518601786
  0
LINE
  5
25B
100
AcDbEntity
  8
0
100
AcDbLine
 62
7
  6
BYLAYER
 10
16.1089486543
 20
22.0055745248
 11
16.0840876101
 21
21.6767979145
  0
LINE
  5
25C
100
AcDbEntity
  8
0
100
AcDbLine
 62
7
  6
BYLAYER
 10
16.0840876084
 20
21.676797892
 11
16.0780639524
 21
21.6316369801
  0
LINE
  5
25D
100
AcDbEntity
  8
0
100
AcDbLine
 62
7
  6
BYLAYER
 10
27.9840378343
 20
21.5797206036
 11
34.094824351
 21
18.051736177
  0
LINE
  5
25E
100
AcDbEntity
  8
0
100
AcDbLine
 62
7
  6
BYLAYER
 10
18.7812720262
 20
20.4070923695
 11
18.7812720262
 21
19.1136131701
  0
LWPOLYLINE
  5
25F
100
AcDbEntity
  8
0
100
AcDbPolyline
 62
7
  6
BYLAYER
 90
3
 70
0
 10
24.9543114077
 20
19.9419901918
 10
25.8361404291
 20
18.6874333836
 10
27.1641980604
 20
18.1141417836
  0
LWPOLYLINE
  5
260
100
AcDbEntity
  8
0
100
AcDbPolyline
 62
7
  6
BYLAYER
 90
3
 70
0
 10
25.0587179297
 20
19.9739738785
 10
25.924426763
 20
18.7423508719
 10
27.2257251936
 20
18.1749794962
  0
LINE
  5
261
100
AcDbEntity
  8
0
100
AcDbLine
 62
7
  6
BYLAYER
 10
7.3744413285
 20
36.7808437296
 11
23.3904766031
 21
27.5341906398
  0
LINE
  5
262
100
AcDbEntity
  8
0
100
AcDbLine
 62
7
  6
BYLAYER
 10
23.3904766031
 20
27.5341906398
 11
23.3904766031
 21
19.3747370475
  0
LINE
  5
263
100
AcDbEntity
  8
0
100
AcDbLine
 62
7
  6
BYLAYER
 10
8.5029504828
 20
39.0317193914
 11
24.5189857574
 21
29.7850663015
  0
LINE
  5
264
100
AcDbEntity
  8
0
100
AcDbLine
 62
7
  6
BYLAYER
 10
24.7203744142
 20
21.7392814198
 11
25.0587179297
 21
19.9739738785
  0
LINE
  5
265
100
AcDbEntity
  8
0
100
AcDbLine
 62
7
  6
BYLAYER
 10
24.6133205109
 20
21.7432131779
 11
24.9543114077
 21
19.9419901918
  0
LWPOLYLINE
  5
266
100
AcDbEntity
  8
0
100
AcDbPolyline
 62
7
  6
BYLAYER
 90
8
 70
0
 10
23.3904766031
 20
22.3186783807
 10
23.6667912726
 20
24.4947538613
 10
24.4674323311
 20
26.7744626748
 10
25.7260567712
 20
28.9547723309
 10
27.3104898351
 20
30.7984017154
 10
29.0593565932
 20
32.1235875072
 10
30.8028034768
 20
32.8076786217
 10
32.3749071602
 20
32.7881399375
  0
LINE
  5
267
100
AcDbEntity
  8
0
100
AcDbLine
 62
7
  6
BYLAYER
 10
10.9993173218
 20
21.7554975587
 11
10.5790646829
 21
21.5331667207
  0
LINE
  5
268
100
AcDbEntity
  8
0
100
AcDbLine
 62
7
  6
BYLAYER
 10
32.00705029
 20
28.4946378875
 11
38.0947564829
 21
24.9799785905
  0
LINE
  5
269
100
AcDbEntity
  8
0
100
AcDbLine
 62
7
  6
BYLAYER
 10
27.3047533755
 20
28.4923156956
 11
27.2257251936
 21
28.6047471775
  0
LINE
  5
26A
100
AcDbEntity
  8
0
100
AcDbLine
 62
7
  6
BYLAYER
 10
9.4161380926
 20
22.1847243988
 11
8.9105356022
 21
22.0327664373
  0
LINE
  5
26B
100
AcDbEntity
  8
0
100
AcDbLine
 62
7
  6
BYLAYER
 10
32.7697684565
 20
31.6475247897
 11
33.6871420863
 21
31.3350172216
  0
LINE
  5
26C
100
AcDbEntity
  8
0
100
AcDbLine
 62
7
  6
BYLAYER
 10
32.009393559
 20
30.2253260429
 11
32.7165032842
 21
29.8170852884
  0
LINE
  5
26D
100
AcDbEntity
  8
0
100
AcDbLine
 62
7
  6
BYLAYER
 10
27.6109383185
 20
28.8732162039
 11
27.5319101366
 21
28.9856476858
  0
LINE
  5
26E
100
AcDbEntity
  8
0
100
AcDbLine
 62
7
  6
BYLAYER
 10
16.9203755145
 20
22.0122542482
 11
15.8189639821
 21
21.5669883422
  0
LWPOLYLINE
  5
26F
100
AcDbEntity
  8
0
100
AcDbPolyline
 62
7
  6
BYLAYER
 90
4
 70
0
 10
15.5189066802
 20
21.4456846492
 10
15.3557631641
 20
21.3797308768
 10
13.5142923369
 20
21.0944681298
 10
11.6030791825
 20
21.1911255807
  0
LINE
  5
270
100
AcDbEntity
  8
0
100
AcDbLine
 62
7
  6
BYLAYER
 10
33.1740177123
 20
32.3242108047
 11
33.4922170886
 21
32.1405024651
  0
LINE
  5
271
100
AcDbEntity
  8
0
100
AcDbLine
 62
7
  6
BYLAYER
 10
32.3749071602
 20
32.7881399375
 11
33.4928072173
 21
32.1415227053
  0
LINE
  5
272
100
AcDbEntity
  8
0
100
AcDbLine
 62
7
  6
BYLAYER
 10
24.878430778
 20
22.2387859679
 11
24.7203744142
 21
22.1475326284
  0
LINE
  5
273
100
AcDbEntity
  8
0
100
AcDbLine
 62
7
  6
BYLAYER
 10
35.196091054
 20
28.1956543479
 11
35.3541474178
 21
28.2869076874
  0
LINE
  5
274
100
AcDbEntity
  8
0
100
AcDbLine
 62
7
  6
BYLAYER
 10
24.878430778
 20
21.8305347593
 11
24.7203744142
 21
21.7392814198
  0
LINE
  5
275
100
AcDbEntity
  8
0
100
AcDbLine
 62
7
  6
BYLAYER
 10
35.196091054
 20
27.7874031394
 11
35.3541474178
 21
27.8786564789
  0
LINE
  5
276
100
AcDbEntity
  8
0
100
AcDbLine
 62
7
  6
BYLAYER
 10
27.3047533755
 20
18.3786643176
 11
27.2257251936
 21
18.1749794962
  0
LINE
  5
277
100
AcDbEntity
  8
0
100
AcDbLine
 62
7
  6
BYLAYER
 10
32.4635835135
 20
31.6748754899
 11
32.5426116954
 21
31.8785603112
  0
LINE
  5
278
100
AcDbEntity
  8
0
100
AcDbLine
 62
7
  6
BYLAYER
 10
32.8487966384
 20
31.8512096111
 11
32.7697684565
 21
31.6475247897
  0
LINE
  5
279
100
AcDbEntity
  8
0
100
AcDbLine
 62
7
  6
BYLAYER
 10
27.6109383185
 20
18.3513136174
 11
27.5319101366
 21
18.147628796
  0
LINE
  5
27A
100
AcDbEntity
  8
0
100
AcDbLine
 62
7
  6
BYLAYER
 10
33.5756288442
 20
35.0138904137
 11
17.5595935696
 21
44.2605435036
  0
LINE
  5
27B
100
AcDbEntity
  8
0
100
AcDbLine
 62
7
  6
BYLAYER
 10
34.289913357
 20
34.9816693973
 11
18.2738780825
 21
44.2283224872
  0
LWPOLYLINE
  5
27C
100
AcDbEntity
  8
0
100
AcDbPolyline
 62
7
  6
BYLAYER
 90
3
 70
0
 10
35.0158039023
 20
30.0522152287
 10
34.150095069
 20
31.2838382354
 10
34.0906957152
 20
31.3097365938
  0
LWPOLYLINE
  5
27D
100
AcDbEntity
  8
0
100
AcDbPolyline
 62
7
  6
BYLAYER
 90
6
 70
0
 10
18.2740431083
 20
44.2282271836
 10
16.1505583157
 20
45.158701603
 10
13.7111955292
 20
45.7017982967
 10
12.4348186795
 20
45.7948796573
 10
9.9231199873
 20
45.5501343098
 10
7.7886229572
 20
44.728300113
  0
LINE
  5
27E
100
AcDbEntity
  8
0
100
AcDbLine
 62
7
  6
BYLAYER
 10
34.8076894857
 20
30.6045456174
 11
34.5349331123
 21
31.0746414741
  0
LINE
  5
27F
100
AcDbEntity
  8
0
100
AcDbLine
 62
7
  6
BYLAYER
 10
35.2609007827
 20
28.224142951
 11
35.2577702761
 21
28.2312646509
  0
LINE
  5
280
100
AcDbEntity
  8
0
100
AcDbLine
 62
7
  6
BYLAYER
 10
34.7041379985
 20
34.0660971017
 11
34.7041379985
 21
30.7830166994
  0
LINE
  5
281
100
AcDbEntity
  8
0
100
AcDbLine
 62
7
  6
BYLAYER
 10
34.3332641275
 20
27.1516280851
 11
34.4921152676
 21
28.4014563961
  0
LINE
  5
282
100
AcDbEntity
  8
0
100
AcDbLine
 62
7
  6
BYLAYER
 10
35.3836817036
 20
27.9269739563
 11
35.1860386841
 21
26.6592896035
  0
LINE
  5
283
100
AcDbEntity
  8
0
100
AcDbLine
 62
7
  6
BYLAYER
 10
35.1647213701
 20
26.671596882
 11
35.3541474178
 21
27.8786564789
  0
LINE
  5
284
100
AcDbEntity
  8
0
100
AcDbLine
 62
7
  6
BYLAYER
 10
35.196091054
 20
27.7874031394
 11
35.0324451865
 21
26.7479648446
  0
LINE
  5
285
100
AcDbEntity
  8
0
100
AcDbLine
 62
7
  6
BYLAYER
 10
29.330257256
 20
19.4608064278
 11
30.3333366515
 21
20.2233829836
  0
LINE
  5
286
100
AcDbEntity
  8
0
100
AcDbLine
 62
7
  6
BYLAYER
 10
35.3836677426
 20
27.9269763053
 11
35.377301538
 21
27.9577600012
  0
LINE
  5
287
100
AcDbEntity
  8
0
100
AcDbLine
 62
7
  6
BYLAYER
 10
35.3490859994
 20
28.3133156417
 11
35.0158039023
 21
30.0522152287
  0
LINE
  5
288
100
AcDbEntity
  8
0
100
AcDbLine
 62
7
  6
BYLAYER
 10
31.2134381907
 20
19.7152676181
 11
30.9463414263
 21
19.4545754031
  0
LWPOLYLINE
  5
289
100
AcDbEntity
  8
0
100
AcDbPolyline
 62
7
  6
BYLAYER
 90
3
 70
0
 10
30.9463414263
 20
19.4545754031
 10
29.2271517589
 20
18.4356607781
 10
27.5802722491
 20
18.0860085554
  0
LWPOLYLINE
  5
28A
100
AcDbEntity
  8
0
100
AcDbPolyline
 62
7
  6
BYLAYER
 90
3
 70
0
 10
29.1715520828
 20
18.4522936594
 10
30.9029697492
 20
19.4519221483
 10
31.1892102139
 20
19.7292553306
  0
LINE
  5
28B
100
AcDbEntity
  8
0
100
AcDbLine
 62
7
  6
BYLAYER
 10
27.8902684715
 20
17.6905725263
 11
29.1538517271
 21
18.4200983044
  0
LINE
  5
28C
100
AcDbEntity
  8
0
100
AcDbLine
 62
7
  6
BYLAYER
 10
36.2400748472
 20
18.2593692248
 11
36.2368666862
 21
18.2582777082
  0
LINE
  5
28D
100
AcDbEntity
  8
0
100
AcDbLine
 62
7
  6
BYLAYER
 10
36.2400748472
 20
18.2593692248
 11
36.2368547374
 21
18.2575823954
  0
ARC
  5
28E
100
AcDbEntity
  8
0
100
AcDbCircle
 62
7
  6
BYLAYER
 10
-39.1045151458
 20
-168.8428872338
 40
208.7735951137
100
AcDbArc
 50
71.4119670908
 51
71.6131430666
  0
ARC
  5
28F
100
AcDbEntity
  8
0
100
AcDbCircle
 62
7
  6
BYLAYER
 10
-31.119742656
 20
-26.0111268822
 40
86.312339418
100
AcDbArc
 50
42.1944749382
 51
42.6775915313
  0
ARC
  5
290
100
AcDbEntity
  8
0
100
AcDbCircle
 62
7
  6
BYLAYER
 10
-24.9571612389
 20
1.7712225215
 40
65.7721988666
100
AcDbArc
 50
23.4619467949
 51
23.7151671451
  0
ARC
  5
291
100
AcDbEntity
  8
0
100
AcDbCircle
 62
7
  6
BYLAYER
 10
-27.9730238094
 20
7.3671465201
 40
65.3348266939
100
AcDbArc
 50
22.1358190648
 51
22.6214664735
  0
ARC
  5
292
100
AcDbEntity
  8
0
100
AcDbCircle
 62
7
  6
BYLAYER
 10
13.1225400705
 20
192.1722064263
 40
170.443120142
100
AcDbArc
 50
273.6442643024
 51
273.8656485766
  0
ARC
  5
293
100
AcDbEntity
  8
0
100
AcDbCircle
 62
7
  6
BYLAYER
 10
12.7897868327
 20
32.4923733888
 40
11.1400372177
100
AcDbArc
 50
256.5541903914
 51
257.682541151
  0
ARC
  5
294
100
AcDbEntity
  8
0
100
AcDbCircle
 62
7
  6
BYLAYER
 10
13.2824417235
 20
32.4500267615
 40
11.0965994119
100
AcDbArc
 50
282.3155543136
 51
283.4483197957
  0
ARC
  5
295
100
AcDbEntity
  8
0
100
AcDbCircle
 62
7
  6
BYLAYER
 10
12.7372389909
 20
32.2702833017
 40
10.9118158533
100
AcDbArc
 50
255.7885538197
 51
256.5513858921
  0
ARC
  5
296
100
AcDbEntity
  8
0
100
AcDbCircle
 62
7
  6
BYLAYER
 10
13.3325639945
 20
32.2407972821
 40
10.8814501399
100
AcDbArc
 50
283.447857493
 51
284.2128166446
  0
ARC
  5
297
100
AcDbEntity
  8
0
100
AcDbCircle
 62
7
  6
BYLAYER
 10
12.7510728449
 20
32.1092101292
 40
10.8368369412
100
AcDbArc
 50
255.2092462861
 51
257.8979469645
  0
ARC
  5
298
100
AcDbEntity
  8
0
100
AcDbCircle
 62
7
  6
BYLAYER
 10
13.3114878401
 20
32.1091417039
 40
10.8367665306
100
AcDbArc
 50
282.1023529151
 51
284.791064181
  0
ARC
  5
299
100
AcDbEntity
  8
0
100
AcDbCircle
 62
7
  6
BYLAYER
 10
12.6999464033
 20
32.1220174643
 40
10.7589321288
100
AcDbArc
 50
255.4020322747
 51
255.7872324701
  0
ARC
  5
29A
100
AcDbEntity
  8
0
100
AcDbCircle
 62
7
  6
BYLAYER
 10
13.3626162536
 20
32.1219450333
 40
10.7588573468
100
AcDbArc
 50
284.2130761793
 51
284.5982781596
  0
ARC
  5
29B
100
AcDbEntity
  8
0
100
AcDbCircle
 62
7
  6
BYLAYER
 10
12.8930299892
 20
31.9410518938
 40
10.4805243313
100
AcDbArc
 50
258.7629927058
 51
259.436097119
  0
ARC
  5
29C
100
AcDbEntity
  8
0
100
AcDbCircle
 62
7
  6
BYLAYER
 10
13.1752021755
 20
31.9089177011
 40
10.4478980887
100
AcDbArc
 50
280.6152757303
 51
281.2417967965
  0
ARC
  5
29D
100
AcDbEntity
  8
0
100
AcDbCircle
 62
7
  6
BYLAYER
 10
11.9960776891
 20
30.0497450219
 40
8.5683321086
100
AcDbArc
 50
246.1129589548
 51
247.4565023805
  0
ARC
  5
29E
100
AcDbEntity
  8
0
100
AcDbCircle
 62
7
  6
BYLAYER
 10
11.8956747969
 20
29.8208496936
 40
8.3183861028
100
AcDbArc
 50
245.6495941675
 51
246.1068649769
  0
ARC
  5
29F
100
AcDbEntity
  8
0
100
AcDbCircle
 62
7
  6
BYLAYER
 10
11.924641769
 20
29.6986152522
 40
8.285312618
100
AcDbArc
 50
244.5320319847
 51
247.6919574138
  0
ARC
  5
2A0
100
AcDbEntity
  8
0
100
AcDbCircle
 62
7
  6
BYLAYER
 10
11.8343066978
 20
29.6854379881
 40
8.1697174523
100
AcDbArc
 50
244.7252298685
 51
245.6501302181
  0
ARC
  5
2A1
100
AcDbEntity
  8
0
100
AcDbCircle
 62
7
  6
BYLAYER
 10
13.3972764877
 20
28.6728788846
 40
7.5514861739
100
AcDbArc
 50
286.4289783897
 51
287.1053422568
  0
ARC
  5
2A2
100
AcDbEntity
  8
0
100
AcDbCircle
 62
7
  6
BYLAYER
 10
13.4761827321
 20
28.4215096054
 40
7.2880275661
100
AcDbArc
 50
287.0937010082
 51
289.0477283106
  0
ARC
  5
2A3
100
AcDbEntity
  8
0
100
AcDbCircle
 62
7
  6
BYLAYER
 10
12.3933242484
 20
27.8851015203
 40
6.7178791805
100
AcDbArc
 50
248.7351420527
 51
248.8765272608
  0
ARC
  5
2A4
100
AcDbEntity
  8
0
100
AcDbCircle
 62
7
  6
BYLAYER
 10
11.3599776132
 20
27.8948779461
 40
6.1326739535
100
AcDbArc
 50
237.0356448541
 51
240.3959091515
  0
ARC
  5
2A5
100
AcDbEntity
  8
0
100
AcDbCircle
 62
7
  6
BYLAYER
 10
10.6706685631
 20
27.6711869801
 40
5.8398999175
100
AcDbArc
 50
233.0533834123
 51
234.7875939197
  0
ARC
  5
2A6
100
AcDbEntity
  8
0
100
AcDbCircle
 62
7
  6
BYLAYER
 10
10.6050020341
 20
27.438408849
 40
5.6628758816
100
AcDbArc
 50
231.0730177845
 51
235.0315532562
  0
ARC
  5
2A7
100
AcDbEntity
  8
0
100
AcDbCircle
 62
7
  6
BYLAYER
 10
10.5384658662
 20
27.4937201964
 40
5.6186061236
100
AcDbArc
 50
232.4490488943
 51
233.0430408383
  0
ARC
  5
2A8
100
AcDbEntity
  8
0
100
AcDbCircle
 62
7
  6
BYLAYER
 10
10.4600140454
 20
27.3918073242
 40
5.4899946377
100
AcDbArc
 50
231.2446338099
 51
232.4499361848
  0
ARC
  5
2A9
100
AcDbEntity
  8
0
100
AcDbCircle
 62
7
  6
BYLAYER
 10
14.3617688615
 20
22.647360438
 40
5.4709448475
100
AcDbArc
 50
299.395227774
 51
299.998931727
  0
ARC
  5
2AA
100
AcDbEntity
  8
0
100
AcDbCircle
 62
7
  6
BYLAYER
 10
14.3670875557
 20
21.4950725245
 40
5.4603314649
100
AcDbArc
 50
299.122589712
 51
299.9987842211
  0
ARC
  5
2AB
100
AcDbEntity
  8
0
100
AcDbCircle
 62
7
  6
BYLAYER
 10
14.3558971925
 20
21.3102920366
 40
5.3791266178
100
AcDbArc
 50
299.9989478443
 51
300.8675458351
  0
ARC
  5
2AC
100
AcDbEntity
  8
0
100
AcDbCircle
 62
7
  6
BYLAYER
 10
14.427988925
 20
21.3899164153
 40
5.3388129244
100
AcDbArc
 50
299.9969956711
 51
300.8693202517
  0
ARC
  5
2AD
100
AcDbEntity
  8
0
100
AcDbCircle
 62
7
  6
BYLAYER
 10
14.3925745596
 20
26.3915250657
 40
5.0564602798
100
AcDbArc
 50
299.9943846394
 51
301.2644047256
  0
ARC
  5
2AE
100
AcDbEntity
  8
0
100
AcDbCircle
 62
7
  6
BYLAYER
 10
14.2256743148
 20
22.0729438349
 40
3.9808789896
100
AcDbArc
 50
299.952679142
 51
303.6533714122
  0
ARC
  5
2AF
100
AcDbEntity
  8
0
100
AcDbCircle
 62
7
  6
BYLAYER
 10
9.2300969429
 20
26.1489156872
 40
3.7366776173
100
AcDbArc
 50
215.6729966673
 51
218.0085066461
  0
ARC
  5
2B0
100
AcDbEntity
  8
0
100
AcDbCircle
 62
7
  6
BYLAYER
 10
9.2227133607
 20
26.052306368
 40
3.6984989342
100
AcDbArc
 50
213.1382424217
 51
218.20577775
  0
ARC
  5
2B1
100
AcDbEntity
  8
0
100
AcDbCircle
 62
7
  6
BYLAYER
 10
9.0995890379
 20
26.0542381591
 40
3.5754465104
100
AcDbArc
 50
214.0558364937
 51
215.6600917782
  0
ARC
  5
2B2
100
AcDbEntity
  8
0
100
AcDbCircle
 62
7
  6
BYLAYER
 10
9.0184095039
 20
25.9989528037
 40
3.4772300843
100
AcDbArc
 50
213.232268479
 51
214.05018634
  0
ARC
  5
2B3
100
AcDbEntity
  8
0
100
AcDbCircle
 62
7
  6
BYLAYER
 10
8.3006618422
 20
40.2981078466
 40
3.2693898151
100
AcDbArc
 50
180.0000673093
 51
180.303776041
  0
ARC
  5
2B4
100
AcDbEntity
  8
0
100
AcDbCircle
 62
7
  6
BYLAYER
 10
9.4375279568
 20
24.5012711003
 40
2.8062810648
100
AcDbArc
 50
209.7144237799
 51
211.4572655052
  0
ARC
  5
2B5
100
AcDbEntity
  8
0
100
AcDbCircle
 62
7
  6
BYLAYER
 10
9.2343488694
 20
22.7851544841
 40
2.7082288755
100
AcDbArc
 50
160.5985533742
 51
163.312070671
  0
ARC
  5
2B6
100
AcDbEntity
  8
0
100
AcDbCircle
 62
7
  6
BYLAYER
 10
9.15211296
 20
22.8088912105
 40
2.6226404337
100
AcDbArc
 50
163.292894773
 51
167.9595287499
  0
ARC
  5
2B7
100
AcDbEntity
  8
0
100
AcDbCircle
 62
7
  6
BYLAYER
 10
9.0605434366
 20
22.8271849694
 40
2.529269559
100
AcDbArc
 50
167.9321109928
 51
179.9545559247
  0
ARC
  5
2B8
100
AcDbEntity
  8
0
100
AcDbCircle
 62
7
  6
BYLAYER
 10
17.9411202211
 20
43.6492942063
 40
0.6677035871
100
AcDbArc
 50
60.1147533674
 51
60.6300730052
  0
ARC
  5
2B9
100
AcDbEntity
  8
0
100
AcDbCircle
 62
7
  6
BYLAYER
 10
75.4871806005
 20
123.7109181858
 40
113.9542144021
100
AcDbArc
 50
243.1145589247
 51
243.484405581
  0
ARC
  5
2BA
100
AcDbEntity
  8
0
100
AcDbCircle
 62
7
  6
BYLAYER
 10
28.3136629449
 20
94.7726488979
 40
76.6884933754
100
AcDbArc
 50
268.8310894754
 51
269.04605755
  0
ARC
  5
2BB
100
AcDbEntity
  8
0
100
AcDbCircle
 62
7
  6
BYLAYER
 10
28.2548888327
 20
90.6179173304
 40
72.5333393503
100
AcDbArc
 50
269.1767286142
 51
269.3597765537
  0
ARC
  5
2BC
100
AcDbEntity
  8
0
100
AcDbCircle
 62
7
  6
BYLAYER
 10
26.0393606165
 20
45.2447034833
 40
27.1538654681
100
AcDbArc
 50
271.498014265
 51
272.0818199055
  0
ARC
  5
2BD
100
AcDbEntity
  8
0
100
AcDbCircle
 62
7
  6
BYLAYER
 10
26.0589181666
 20
44.760821206
 40
26.6695917654
100
AcDbArc
 50
272.0994186005
 51
272.3752202872
  0
ARC
  5
2BE
100
AcDbEntity
  8
0
100
AcDbCircle
 62
7
  6
BYLAYER
 10
33.7161616519
 20
23.4472908828
 40
7.1683682326
100
AcDbArc
 50
130.9640443557
 51
131.3245191842
  0
ARC
  5
2BF
100
AcDbEntity
  8
0
100
AcDbCircle
 62
7
  6
BYLAYER
 10
28.6668530005
 20
28.0911197456
 40
6.690159904
100
AcDbArc
 50
1.6770039528
 51
1.9253714639
  0
ARC
  5
2C0
100
AcDbEntity
  8
0
100
AcDbCircle
 62
7
  6
BYLAYER
 10
28.7617250252
 20
27.299507321
 40
5.0938909258
100
AcDbArc
 50
359.9976222219
 51
1.4844491286
  0
ARC
  5
2C1
100
AcDbEntity
  8
0
100
AcDbCircle
 62
7
  6
BYLAYER
 10
34.3710969106
 20
21.4802069334
 40
3.7472863492
100
AcDbArc
 50
299.0592381146
 51
300.0008767683
  0
ARC
  5
2C2
100
AcDbEntity
  8
0
100
AcDbCircle
 62
7
  6
BYLAYER
 10
37.9495350395
 20
21.5697705474
 40
3.7091294897
100
AcDbArc
 50
119.057266305
 51
120.0032085177
  0
ARC
  5
2C3
100
AcDbEntity
  8
0
100
AcDbCircle
 62
7
  6
BYLAYER
 10
31.0060711446
 20
23.2770958002
 40
3.6911533319
100
AcDbArc
 50
179.9854479534
 51
181.9799510877
  0
ARC
  5
2C4
100
AcDbEntity
  8
0
100
AcDbCircle
 62
7
  6
BYLAYER
 10
31.97688016
 20
25.1310802491
 40
3.5899711967
100
AcDbArc
 50
117.381107577
 51
118.3559356959
  0
ARC
  5
2C5
100
AcDbEntity
  8
0
100
AcDbCircle
 62
7
  6
BYLAYER
 10
30.8751547787
 20
23.2728072443
 40
3.5601669652
100
AcDbArc
 50
181.9837674693
 51
182.5650744827
  0
ARC
  5
2C6
100
AcDbEntity
  8
0
100
AcDbCircle
 62
7
  6
BYLAYER
 10
38.0678914314
 20
21.4393920767
 40
3.5539101803
100
AcDbArc
 50
119.0595093431
 51
120.0009654797
  0
ARC
  5
2C7
100
AcDbEntity
  8
0
100
AcDbCircle
 62
7
  6
BYLAYER
 10
34.5138775257
 20
21.3658978944
 40
3.5539101801
100
AcDbArc
 50
299.059509343
 51
300.0009654797
  0
ARC
  5
2C8
100
AcDbEntity
  8
0
100
AcDbCircle
 62
7
  6
BYLAYER
 10
30.6479343082
 20
28.8627210461
 40
3.5198385476
100
AcDbArc
 50
22.2313626203
 51
25.0517448381
  0
ARC
  5
2C9
100
AcDbEntity
  8
0
100
AcDbCircle
 62
7
  6
BYLAYER
 10
27.013124827
 20
22.5201773657
 40
3.4804232591
100
AcDbArc
 50
274.8583749336
 51
277.7859660096
  0
ARC
  5
2CA
100
AcDbEntity
  8
0
100
AcDbCircle
 62
7
  6
BYLAYER
 10
34.5754709923
 20
21.2552010672
 40
3.427231193
100
AcDbArc
 50
297.8994511896
 51
298.9967332515
  0
ARC
  5
2CB
100
AcDbEntity
  8
0
100
AcDbCircle
 62
7
  6
BYLAYER
 10
31.9723708195
 20
29.6389317177
 40
2.9343945691
100
AcDbArc
 50
39.1138031587
 51
43.8013857219
  0
ARC
  5
2CC
100
AcDbEntity
  8
0
100
AcDbCircle
 62
7
  6
BYLAYER
 10
26.442640797
 20
21.132972953
 40
2.8452250451
100
AcDbArc
 50
252.2582214758
 51
256.4824376182
  0
ARC
  5
2CD
100
AcDbEntity
  8
0
100
AcDbCircle
 62
7
  6
BYLAYER
 10
31.6024161301
 20
30.0681158856
 40
2.8422873515
100
AcDbArc
 50
42.2344584908
 51
47.7497788728
  0
ARC
  5
2CE
100
AcDbEntity
  8
0
100
AcDbCircle
 62
7
  6
BYLAYER
 10
28.8345850715
 20
22.6045019789
 40
1.3627535503
100
AcDbArc
 50
240.024818317
 51
248.4595190862
  0
ARC
  5
2CF
100
AcDbEntity
  8
0
100
AcDbCircle
 62
7
  6
BYLAYER
 10
31.5251805364
 20
27.2638047828
 40
1.3568648565
100
AcDbArc
 50
50.387583671
 51
59.9983817176
  0
SPLINE
  5
2D0
100
AcDbEntity
  8
0
100
AcDbSpline
 62
7
  6
BYLAYER
 70
0
 71
3
 72
28
 73
24
 74
0
 42
0.0000001
 43
0.0000001
 44
0.0000000001
 40
0.0
 40
0.0
 40
0.0
 40
0.0
 40
0.0298037913
 40
0.0604114535
 40
0.123793738
 40
0.1897696817
 40
0.257795069
 40
0.3272089382
 40
0.3972815977
 40
0.467249976
 40
0.5363565937
 40
0.6038863727
 40
0.6692064696
 40
0.7318065069
 40
0.7913419515
 40
0.8199224405
 40
0.8477056808
 40
0.8747134576
 40
0.900985112
 40
0.9265737864
 40
0.9515503256
 40
0.9759946914
 40
1.0
 40
1.0
 40
1.0
 40
1.0
 10
17.5239292579
 20
19.9462412928
 30
0.0
 10
17.4203000193
 20
19.8864112812
 30
0.0
 10
17.2066618868
 20
19.7712451616
 30
0.0
 10
16.7569145815
 20
19.5592369232
 30
0.0
 10
16.1555241825
 20
19.3306238638
 30
0.0
 10
15.3911091847
 20
19.1178918708
 30
0.0
 10
14.5876437548
 20
18.9663137846
 30
0.0
 10
13.7583158546
 20
18.8780521379
 30
0.0
 10
12.9168583115
 20
18.8543826173
 30
0.0
 10
12.077313146
 20
18.8956626866
 30
0.0
 10
11.2536707642
 20
19.0012787808
 30
0.0
 10
10.4595455863
 20
19.1696959508
 30
0.0
 10
9.7078277361
 20
19.3985973109
 30
0.0
 10
9.0105636423
 20
19.6850068312
 30
0.0
 10
8.4766773899
 20
19.9728190598
 30
0.0
 10
8.0884437288
 20
20.2298209654
 30
0.0
 10
7.8214762462
 20
20.4321592652
 30
0.0
 10
7.575949875
 20
20.6462137061
 30
0.0
 10
7.3530191252
 20
20.8715252541
 30
0.0
 10
7.1538604937
 20
21.1075734633
 30
0.0
 10
6.9797340813
 20
21.3537767659
 30
0.0
 10
6.8319135257
 20
21.609315351
 30
0.0
 10
6.751166214
 20
21.7867110283
 30
0.0
 10
6.7158157038
 20
21.8763739579
 30
0.0
  0
SPLINE
  5
2D1
100
AcDbEntity
  8
0
100
AcDbSpline
 62
7
  6
BYLAYER
 70
0
 71
3
 72
11
 73
7
 74
0
 42
0.0000001
 43
0.0000001
 44
0.0000000001
 40
0.0
 40
0.0
 40
0.0
 40
0.0
 40
0.252761164
 40
0.5031466535
 40
0.7519740822
 40
1.0
 40
1.0
 40
1.0
 40
1.0
 10
6.7158157038
 20
21.8763739579
 30
0.0
 10
6.6856564761
 20
21.9528697341
 30
0.0
 10
6.6322785703
 20
22.1078775119
 30
0.0
 10
6.5741895751
 20
22.3458652515
 30
0.0
 10
6.539096709
 20
22.5867643153
 30
0.0
 10
6.5312521464
 20
22.7485050832
 30
0.0
 10
6.5312746733
 20
22.8291910562
 30
0.0
  0
SPLINE
  5
2D2
100
AcDbEntity
  8
0
100
AcDbSpline
 62
7
  6
BYLAYER
 70
0
 71
3
 72
11
 73
7
 74
0
 42
0.0000001
 43
0.0000001
 44
0.0000000001
 40
0.0
 40
0.0
 40
0.0
 40
0.0
 40
0.2362377684
 40
0.4812177646
 40
0.7357726963
 40
1.0
 40
1.0
 40
1.0
 40
1.0
 10
18.8750883677
 20
21.0717716758
 30
0.0
 10
18.7884104932
 20
20.9628062443
 30
0.0
 10
18.5989624686
 20
20.75085248
 30
0.0
 10
18.2778942831
 20
20.458389637
 30
0.0
 10
17.9179361077
 20
20.187120648
 30
0.0
 10
17.6587974578
 20
20.0241070196
 30
0.0
 10
17.5239292579
 20
19.9462412928
 30
0.0
  0
SPLINE
  5
2D3
100
AcDbEntity
  8
0
100
AcDbSpline
 62
7
  6
BYLAYER
 70
0
 71
3
 72
16
 73
12
 74
0
 42
0.0000001
 43
0.0000001
 44
0.0000000001
 40
0.0
 40
0.0
 40
0.0
 40
0.0
 40
0.1094998152
 40
0.2208124612
 40
0.3356068377
 40
0.4552930099
 40
0.5173568779
 40
0.5810260371
 40
0.7134459595
 40
0.8530553416
 40
1.0
 40
1.0
 40
1.0
 40
1.0
 10
28.1537195683
 20
21.4240277498
 30
0.0
 10
28.0915938713
 20
21.459889917
 30
0.0
 10
27.9719169752
 20
21.5424221776
 30
0.0
 10
27.8121390263
 20
21.6946525597
 30
0.0
 10
27.6728225398
 20
21.8742772785
 30
0.0
 10
27.5758461818
 20
22.0433063154
 30
0.0
 10
27.509224956
 20
22.1897150564
 30
0.0
 10
27.4485193241
 20
22.3476586797
 30
0.0
 10
27.3875364693
 20
22.5594503744
 30
0.0
 10
27.3389378542
 20
22.8299892963
 30
0.0
 10
27.3228638963
 20
23.017308172
 30
0.0
 10
27.318554973
 20
23.1134753825
 30
0.0
  0
SPLINE
  5
2D4
100
AcDbEntity
  8
0
100
AcDbSpline
 62
7
  6
BYLAYER
 70
0
 71
3
 72
23
 73
19
 74
0
 42
0.0000001
 43
0.0000001
 44
0.0000000001
 40
0.0
 40
0.0
 40
0.0
 40
0.0
 40
0.0558388372
 40
0.1141794414
 40
0.1747830686
 40
0.2373534307
 40
0.3015484385
 40
0.3669924017
 40
0.4332824898
 40
0.5000001776
 40
0.5667180081
 40
0.6330074461
 40
0.6984503481
 40
0.762646207
 40
0.8252149349
 40
0.8858163009
 40
0.9441724336
 40
1.0
 40
1.0
 40
1.0
 40
1.0
 10
27.3149159247
 20
23.1147331039
 30
0.0
 10
27.314914636
 20
23.2309964395
 30
0.0
 10
27.3252424687
 20
23.4688189868
 30
0.0
 10
27.3690379637
 20
23.8304052406
 30
0.0
 10
27.4410777002
 20
24.2017197114
 30
0.0
 10
27.5406743518
 20
24.5791940408
 30
0.0
 10
27.6668506798
 20
24.9592497219
 30
0.0
 10
27.8184252944
 20
25.3382475224
 30
0.0
 10
27.9939370977
 20
25.7125706617
 30
0.0
 10
28.1916993676
 20
26.0786432792
 30
0.0
 10
28.4098423749
 20
26.4329475918
 30
0.0
 10
28.6462524395
 20
26.7721079543
 30
0.0
 10
28.8986815769
 20
27.0928763318
 30
0.0
 10
29.1647289507
 20
27.3921730252
 30
0.0
 10
29.4418219352
 20
27.6671650417
 30
0.0
 10
29.7273805892
 20
27.9152359601
 30
0.0
 10
30.0186403333
 20
28.1339445155
 30
0.0
 10
30.2194379767
 20
28.2618138505
 30
0.0
 10
30.3201048061
 20
28.3199335246
 30
0.0
  0
SPLINE
  5
2D5
100
AcDbEntity
  8
0
100
AcDbSpline
 62
7
  6
BYLAYER
 70
0
 71
3
 72
15
 73
11
 74
0
 42
0.0000001
 43
0.0000001
 44
0.0000000001
 40
0.0
 40
0.0
 40
0.0
 40
0.0
 40
0.1476483426
 40
0.2877974047
 40
0.4205520183
 40
0.5463281429
 40
0.6658788678
 40
0.780318555
 40
0.8911113127
 40
1.0
 40
1.0
 40
1.0
 40
1.0
 10
33.8539064052
 20
27.4314677565
 30
0.0
 10
33.8503672232
 20
27.5672588239
 30
0.0
 10
33.8325955911
 20
27.831839854
 30
0.0
 10
33.7708706855
 20
28.2143980937
 30
0.0
 10
33.6751465825
 20
28.5692347672
 30
0.0
 10
33.5461460242
 20
28.8931915702
 30
0.0
 10
33.3847883755
 20
29.1833333192
 30
0.0
 10
33.1922562932
 20
29.4368959113
 30
0.0
 10
32.9702646079
 20
29.6512835628
 30
0.0
 10
32.803256336
 20
29.7669897561
 30
0.0
 10
32.7165013142
 20
29.8170818764
 30
0.0
  0
SPLINE
  5
2D6
100
AcDbEntity
  8
0
100
AcDbSpline
 62
7
  6
BYLAYER
 70
0
 71
3
 72
16
 73
12
 74
0
 42
0.0000001
 43
0.0000001
 44
0.0000000001
 40
0.0
 40
0.0
 40
0.0
 40
0.0
 40
0.0544236895
 40
0.1090866833
 40
0.2199689084
 40
0.3344658673
 40
0.4540309294
 40
0.5797720563
 40
0.7124366456
 40
0.8524822666
 40
1.0
 40
1.0
 40
1.0
 40
1.0
 10
27.2165985727
 20
20.2907553817
 30
0.0
 10
27.2596802801
 20
20.2658801177
 30
0.0
 10
27.3481142302
 20
20.2195193518
 30
0.0
 10
27.5333417253
 20
20.1408432049
 30
0.0
 10
27.7804122166
 20
20.0695793431
 30
0.0
 10
28.0942494571
 20
20.0292818981
 30
0.0
 10
28.4241102324
 20
20.0337108651
 30
0.0
 10
28.7669839965
 20
20.0825972127
 30
0.0
 10
29.1199554379
 20
20.1753007751
 30
0.0
 10
29.4799865526
 20
20.3108748949
 30
0.0
 10
29.7166878828
 20
20.426090928
 30
0.0
 10
29.8354197869
 20
20.4900071529
 30
0.0
  0
SPLINE
  5
2D7
100
AcDbEntity
  8
0
100
AcDbSpline
 62
7
  6
BYLAYER
 70
0
 71
3
 72
10
 73
6
 74
0
 42
0.0000001
 43
0.0000001
 44
0.0000000001
 40
0.0
 40
0.0
 40
0.0
 40
0.0
 40
0.4739879672
 40
0.7305695951
 40
1.0
 40
1.0
 40
1.0
 40
1.0
 10
27.4846278426
 20
19.0718399447
 30
0.0
 10
27.7818590862
 20
19.1123576779
 30
0.0
 10
28.2332714965
 20
19.2319109589
 30
0.0
 10
28.8167800145
 20
19.4777260366
 30
0.0
 10
29.1117665357
 20
19.6331897477
 30
0.0
 10
29.2594402183
 20
19.7184486792
 30
0.0
  0
SPLINE
  5
2D8
100
AcDbEntity
  8
0
100
AcDbSpline
 62
7
  6
BYLAYER
 70
0
 71
3
 72
11
 73
7
 74
0
 42
0.0000001
 43
0.0000001
 44
0.0000000001
 40
0.0
 40
0.0
 40
0.0
 40
0.0
 40
0.2651058499
 40
0.5183002901
 40
0.7621865643
 40
1.0
 40
1.0
 40
1.0
 40
1.0
 10
33.8409753148
 20
30.3537730783
 30
0.0
 10
33.7875556969
 20
30.4844211681
 30
0.0
 10
33.6682299202
 20
30.7341573633
 30
0.0
 10
33.4463809548
 20
31.0754274284
 30
0.0
 10
33.1878377409
 20
31.3709140297
 30
0.0
 10
32.9907248223
 20
31.5368889065
 30
0.0
 10
32.8877100611
 20
31.6105072727
 30
0.0
  0
SPLINE
  5
2D9
100
AcDbEntity
  8
0
100
AcDbSpline
 62
7
  6
BYLAYER
 70
0
 71
3
 72
11
 73
7
 74
0
 42
0.0000001
 43
0.0000001
 44
0.0000000001
 40
0.0
 40
0.0
 40
0.0
 40
0.0
 40
0.2378846644
 40
0.481974565
 40
0.7352190614
 40
1.0
 40
1.0
 40
1.0
 40
1.0
 10
25.7998818464
 20
19.2233465527
 30
0.0
 10
25.9123193402
 20
19.1753252442
 30
0.0
 10
26.1478948506
 20
19.0953031405
 30
0.0
 10
26.5207172696
 20
19.0267540977
 30
0.0
 10
26.913104594
 20
19.0088844223
 30
0.0
 10
27.1792330415
 20
19.030210363
 30
0.0
 10
27.3140725135
 20
19.0485915893
 30
0.0
  0
SPLINE
  5
2DA
100
AcDbEntity
  8
0
100
AcDbSpline
 62
7
  6
BYLAYER
 70
0
 71
3
 72
9
 73
5
 74
0
 42
0.0000001
 43
0.0000001
 44
0.0000000001
 40
0.0
 40
0.0
 40
0.0
 40
0.0
 40
0.4900610255
 40
1.0
 40
1.0
 40
1.0
 40
1.0
 10
29.2594402183
 20
19.7184486792
 30
0.0
 10
29.4065213587
 20
19.8033655083
 30
0.0
 10
29.7000726898
 20
19.9882140435
 30
0.0
 10
29.9801427972
 20
20.1928029076
 30
0.0
 10
30.1194854681
 20
20.3014985187
 30
0.0
  0
SPLINE
  5
2DB
100
AcDbEntity
  8
0
100
AcDbSpline
 62
7
  6
BYLAYER
 70
0
 71
3
 72
13
 73
9
 74
0
 42
0.0000001
 43
0.0000001
 44
0.0000000001
 40
0.0
 40
0.0
 40
0.0
 40
0.0
 40
0.2766127385
 40
0.4085576504
 40
0.5359971858
 40
0.6588445334
 40
0.777088439
 40
1.0
 40
1.0
 40
1.0
 40
1.0
 10
34.1554025289
 20
27.274520442
 30
0.0
 10
34.1939670848
 20
27.5449548574
 30
0.0
 10
34.2316716776
 20
27.9476795015
 30
0.0
 10
34.2358694899
 20
28.4772243052
 30
0.0
 10
34.2161341627
 20
28.8544272496
 30
0.0
 10
34.1736571005
 20
29.2162020137
 30
0.0
 10
34.0886410698
 20
29.6666647259
 30
0.0
 10
33.989435425
 20
29.9906807854
 30
0.0
 10
33.9061208114
 20
30.1944432811
 30
0.0
  0
SPLINE
  5
2DC
100
AcDbEntity
  8
0
100
AcDbSpline
 62
7
  6
BYLAYER
 70
0
 71
3
 72
16
 73
12
 74
0
 42
0.0000001
 43
0.0000001
 44
0.0000000001
 40
0.0
 40
0.0
 40
0.0
 40
0.0
 40
0.146942766
 40
0.2865423657
 40
0.4189290695
 40
0.4825854555
 40
0.5446441076
 40
0.6643367733
 40
0.7791422788
 40
0.8904748143
 40
1.0
 40
1.0
 40
1.0
 40
1.0
 10
30.3258272195
 20
28.3188564929
 30
0.0
 10
30.4111676873
 20
28.3630506378
 30
0.0
 10
30.581201758
 20
28.4425265795
 30
0.0
 10
30.8394293387
 20
28.535306738
 30
0.0
 10
31.0529905297
 20
28.5881352986
 30
0.0
 10
31.2198427387
 20
28.6143417996
 30
0.0
 10
31.3796885822
 20
28.6296956237
 30
0.0
 10
31.5742491196
 20
28.6301371753
 30
0.0
 10
31.7991008479
 20
28.5992011816
 30
0.0
 10
32.0104992536
 20
28.5369941275
 30
0.0
 10
32.1416078836
 20
28.4746767555
 30
0.0
 10
32.2036461538
 20
28.4388650556
 30
0.0
  0
SPLINE
  5
2DD
100
AcDbEntity
  8
0
100
AcDbSpline
 62
7
  6
BYLAYER
 70
0
 71
3
 72
34
 73
30
 74
0
 42
0.0000001
 43
0.0000001
 44
0.0000000001
 40
0.0
 40
0.0
 40
0.0
 40
0.0
 40
0.0213259445
 40
0.042880138
 40
0.0648791782
 40
0.0875172689
 40
0.1109600412
 40
0.1353397365
 40
0.1607555822
 40
0.187273335
 40
0.2149294252
 40
0.2437317663
 40
0.2736651042
 40
0.3046914725
 40
0.3367555747
 40
0.3697845689
 40
0.4036930983
 40
0.4383826455
 40
0.5096484126
 40
0.5826514387
 40
0.6563615153
 40
0.7297172151
 40
0.8016726395
 40
0.8368244834
 40
0.871264801
 40
0.9048880964
 40
0.9376075198
 40
0.969341533
 40
1.0
 40
1.0
 40
1.0
 40
1.0
 10
26.5094898824
 20
20.698997914
 30
0.0
 10
26.44191934
 20
20.7380130765
 30
0.0
 10
26.3109280462
 20
20.8252622133
 30
0.0
 10
26.1311478677
 20
20.9811630779
 30
0.0
 10
25.9685789856
 20
21.1614544298
 30
0.0
 10
25.8241297549
 20
21.3650249765
 30
0.0
 10
25.6985353931
 20
21.590701901
 30
0.0
 10
25.5924020878
 20
21.8372040169
 30
0.0
 10
25.5062566396
 20
22.1031811675
 30
0.0
 10
25.4404900511
 20
22.3871880977
 30
0.0
 10
25.3954370328
 20
22.687703157
 30
0.0
 10
25.371285262
 20
23.0031167025
 30
0.0
 10
25.3681703113
 20
23.3317419308
 30
0.0
 10
25.3860674277
 20
23.6718218347
 30
0.0
 10
25.424900823
 20
24.0215303266
 30
0.0
 10
25.4844262261
 20
24.3789935835
 30
0.0
 10
25.5643500186
 20
24.742291332
 30
0.0
 10
25.698698491
 20
25.2362362861
 30
0.0
 10
25.9152545831
 20
25.8551990844
 30
0.0
 10
26.2440953755
 20
26.5828129101
 30
0.0
 10
26.6373010876
 20
27.2865611421
 30
0.0
 10
27.0864315928
 20
27.9513355338
 30
0.0
 10
27.5026329749
 20
28.4651419094
 30
0.0
 10
27.855784199
 20
28.8441561698
 30
0.0
 10
28.1261839211
 20
29.1079916101
 30
0.0
 10
28.4027268898
 20
29.3521357396
 30
0.0
 10
28.6839364565
 20
29.5753190666
 30
0.0
 10
28.9682695892
 20
29.7762508742
 30
0.0
 10
29.1622976961
 20
29.8968377513
 30
0.0
 10
29.2594402183
 20
29.9529226778
 30
0.0
  0
SPLINE
  5
2DE
100
AcDbEntity
  8
0
100
AcDbSpline
 62
7
  6
BYLAYER
 70
0
 71
3
 72
14
 73
10
 74
0
 42
0.0000001
 43
0.0000001
 44
0.0000000001
 40
0.0
 40
0.0
 40
0.0
 40
0.0
 40
0.1199264952
 40
0.240164947
 40
0.3613296949
 40
0.4840088576
 40
0.6087550186
 40
0.7360755298
 40
1.0
 40
1.0
 40
1.0
 40
1.0
 10
25.654275831
 20
19.4234410031
 30
0.0
 10
25.7124286198
 20
19.3863784943
 30
0.0
 10
25.8322247045
 20
19.317251734
 30
0.0
 10
26.0208683605
 20
19.2295721209
 30
0.0
 10
26.2179516548
 20
19.1581722124
 30
0.0
 10
26.4228980724
 20
19.1032002146
 30
0.0
 10
26.6351919332
 20
19.0648083149
 30
0.0
 10
26.9306749769
 20
19.0355068667
 30
0.0
 10
27.1566761448
 20
19.0394267388
 30
0.0
 10
27.3078925275
 20
19.0522589605
 30
0.0
  0
SPLINE
  5
2DF
100
AcDbEntity
  8
0
100
AcDbSpline
 62
7
  6
BYLAYER
 70
0
 71
3
 72
17
 73
13
 74
0
 42
0.0000001
 43
0.0000001
 44
0.0000000001
 40
0.0
 40
0.0
 40
0.0
 40
0.0
 40
0.148551117
 40
0.2894533027
 40
0.4226432614
 40
0.5485364677
 40
0.6678743629
 40
0.781790457
 40
0.8372254374
 40
0.8919100431
 40
0.9460843741
 40
1.0
 40
1.0
 40
1.0
 40
1.0
 10
29.2594402183
 20
29.9529226778
 30
0.0
 10
29.3834783385
 20
30.0245356924
 30
0.0
 10
29.6311111309
 20
30.1541639349
 30
0.0
 10
30.0088297236
 20
30.3087731878
 30
0.0
 10
30.3798274347
 20
30.4169312865
 30
0.0
 10
30.7405924988
 20
30.4774358377
 30
0.0
 10
31.0877266705
 20
30.4895340456
 30
0.0
 10
31.3655386085
 20
30.4585321726
 30
0.0
 10
31.5759991799
 20
30.4090105857
 30
0.0
 10
31.7269033282
 20
30.360227558
 30
0.0
 10
31.8718517377
 20
30.2996038009
 30
0.0
 10
31.9643727721
 20
30.251314075
 30
0.0
 10
32.0093905543
 20
30.2253208532
 30
0.0
  0
SPLINE
  5
2E0
100
AcDbEntity
  8
0
100
AcDbSpline
 62
7
  6
BYLAYER
 70
0
 71
3
 72
9
 73
5
 74
0
 42
0.0000001
 43
0.0000001
 44
0.0000000001
 40
0.0
 40
0.0
 40
0.0
 40
0.0
 40
0.4866484486
 40
1.0
 40
1.0
 40
1.0
 40
1.0
 10
29.9665499435
 20
29.5446819233
 30
0.0
 10
29.8018921913
 20
29.4496172932
 30
0.0
 10
29.4740947024
 20
29.2356400285
 30
0.0
 10
29.1681347907
 20
28.9917625481
 30
0.0
 10
29.0166849134
 20
28.8602772583
 30
0.0
  0
SPLINE
  5
2E1
100
AcDbEntity
  8
0
100
AcDbSpline
 62
7
  6
BYLAYER
 70
0
 71
3
 72
26
 73
22
 74
0
 42
0.0000001
 43
0.0000001
 44
0.0000000001
 40
0.0
 40
0.0
 40
0.0
 40
0.0
 40
0.0688294336
 40
0.1400974831
 40
0.2130491443
 40
0.2868734854
 40
0.3607272219
 40
0.433766437
 40
0.5051756057
 40
0.5741984476
 40
0.6401708317
 40
0.7025575653
 40
0.7609950797
 40
0.8153418445
 40
0.8410315851
 40
0.8657782942
 40
0.9126975923
 40
0.9351354775
 40
0.9570560054
 40
0.9786191463
 40
1.0
 40
1.0
 40
1.0
 40
1.0
 10
28.9827224909
 20
28.8306036943
 30
0.0
 10
28.8146036413
 20
28.6827816224
 30
0.0
 10
28.4862524138
 20
28.3658533861
 30
0.0
 10
28.0292099022
 20
27.8440734674
 30
0.0
 10
27.605100237
 20
27.2747827406
 30
0.0
 10
27.2211782391
 20
26.6677278082
 30
0.0
 10
26.8839618498
 20
26.0332108703
 30
0.0
 10
26.5991908901
 20
25.3820306269
 30
0.0
 10
26.3717064504
 20
24.7252496652
 30
0.0
 10
26.2053731635
 20
24.0739968049
 30
0.0
 10
26.1030244125
 20
23.439269034
 30
0.0
 10
26.0664527036
 20
22.8316737221
 30
0.0
 10
26.0964025222
 20
22.2614141271
 30
0.0
 10
26.1781778981
 20
21.8168553939
 30
0.0
 10
26.2780719447
 20
21.4906466071
 30
0.0
 10
26.3951763594
 20
21.1962043939
 30
0.0
 10
26.5451554108
 20
20.9269112805
 30
0.0
 10
26.7277112735
 20
20.6922264791
 30
0.0
 10
26.8767656554
 20
20.5374982399
 30
0.0
 10
27.0392942878
 20
20.4023393143
 30
0.0
 10
27.1563762025
 20
20.3255276192
 30
0.0
 10
27.2165985727
 20
20.2907553817
 30
0.0
  0
SPLINE
  5
2E2
100
AcDbEntity
  8
0
100
AcDbSpline
 62
7
  6
BYLAYER
 70
0
 71
3
 72
39
 73
35
 74
0
 42
0.0000001
 43
0.0000001
 44
0.0000000001
 40
0.0
 40
0.0
 40
0.0
 40
0.0
 40
0.0324611533
 40
0.0663277646
 40
0.1014504364
 40
0.1376859757
 40
0.1748617393
 40
0.21278124
 40
0.2512370415
 40
0.2900129254
 40
0.3288845256
 40
0.3676269935
 40
0.4060176405
 40
0.4438404723
 40
0.480889099
 40
0.5169721412
 40
0.5519175276
 40
0.5855764311
 40
0.6178312064
 40
0.6485983969
 40
0.6778389361
 40
0.7055639219
 40
0.7318428981
 40
0.7568131101
 40
0.7806815402
 40
0.8037266745
 40
0.8262867352
 40
0.8487390117
 40
0.8714695199
 40
0.8948414045
 40
0.9191687407
 40
0.9446989656
 40
0.9716051858
 40
1.0
 40
1.0
 40
1.0
 40
1.0
 10
30.3201048061
 20
28.9323103375
 30
0.0
 10
30.2077931496
 20
28.8674675595
 30
0.0
 10
29.9836979784
 20
28.7254612568
 30
0.0
 10
29.6579390251
 20
28.4837805293
 30
0.0
 10
29.3379268572
 20
28.210693368
 30
0.0
 10
29.0264579622
 20
27.9086367394
 30
0.0
 10
28.7261449951
 20
27.5802030367
 30
0.0
 10
28.4396131752
 20
27.2281857355
 30
0.0
 10
28.169302303
 20
26.8556492502
 30
0.0
 10
27.9175632425
 20
26.4657902686
 30
0.0
 10
27.6865615336
 20
26.0619795566
 30
0.0
 10
27.4782847993
 20
25.6477108548
 30
0.0
 10
27.2945575812
 20
25.2265464297
 30
0.0
 10
27.1369264014
 20
24.8021362855
 30
0.0
 10
27.0067877651
 20
24.3781236072
 30
0.0
 10
26.9052417107
 20
23.9581670424
 30
0.0
 10
26.8331653671
 20
23.5458742409
 30
0.0
 10
26.7912121801
 20
23.1447754621
 30
0.0
 10
26.7797157175
 20
22.7583050207
 30
0.0
 10
26.7988525253
 20
22.3897522789
 30
0.0
 10
26.848476351
 20
22.0422518928
 30
0.0
 10
26.928256306
 20
21.7187561591
 30
0.0
 10
27.0376589434
 20
21.4220470963
 30
0.0
 10
27.1758667079
 20
21.154704715
 30
0.0
 10
27.3419269429
 20
20.9191996264
 30
0.0
 10
27.5344895461
 20
20.7177914004
 30
0.0
 10
27.7518999976
 20
20.5525608952
 30
0.0
 10
27.992079476
 20
20.425257631
 30
0.0
 10
28.2525873916
 20
20.3370734141
 30
0.0
 10
28.5308497095
 20
20.2887710353
 30
0.0
 10
28.8242141427
 20
20.2805135972
 30
0.0
 10
29.1300616592
 20
20.3121546319
 30
0.0
 10
29.4457487995
 20
20.3831891459
 30
0.0
 10
29.6553528142
 20
20.4543989713
 30
0.0
 10
29.7609525989
 20
20.4958412509
 30
0.0
  0
SPLINE
  5
2E3
100
AcDbEntity
  8
0
100
AcDbSpline
 62
7
  6
BYLAYER
 70
0
 71
3
 72
21
 73
17
 74
0
 42
0.0000001
 43
0.0000001
 44
0.0000000001
 40
0.0
 40
0.0
 40
0.0
 40
0.0
 40
0.0595783955
 40
0.1174951557
 40
0.1741698788
 40
0.2300755048
 40
0.2857164194
 40
0.3416109695
 40
0.3982647925
 40
0.4561519442
 40
0.5156916835
 40
0.5772440805
 40
0.707343409
 40
0.7763811739
 40
0.8481718315
 40
1.0
 40
1.0
 40
1.0
 40
1.0
 10
28.9402751251
 20
20.9704312846
 30
0.0
 10
28.8804286764
 20
20.9715965114
 30
0.0
 10
28.7624158556
 20
20.9797211062
 30
0.0
 10
28.5897761779
 20
21.0102743792
 30
0.0
 10
28.4251470058
 20
21.0589510191
 30
0.0
 10
28.2693655311
 20
21.1254954065
 30
0.0
 10
28.1232246061
 20
21.2096188889
 30
0.0
 10
27.9874722522
 20
21.3108946484
 30
0.0
 10
27.862757324
 20
21.4287771804
 30
0.0
 10
27.7497134981
 20
21.5626872861
 30
0.0
 10
27.6488017432
 20
21.7119197961
 30
0.0
 10
27.5289246228
 20
21.9343919479
 30
0.0
 10
27.4380886223
 20
22.1817200428
 30
0.0
 10
27.3747962725
 20
22.4466225718
 30
0.0
 10
27.3276833298
 20
22.7370831988
 30
0.0
 10
27.3149176155
 20
22.9621929297
 30
0.0
 10
27.3149159247
 20
23.1147331039
 30
0.0
  0
SPLINE
  5
2E4
100
AcDbEntity
  8
0
100
AcDbSpline
 62
7
  6
BYLAYER
 70
0
 71
3
 72
22
 73
18
 74
0
 42
0.0000001
 43
0.0000001
 44
0.0000000001
 40
0.0
 40
0.0
 40
0.0
 40
0.0
 40
0.0772909091
 40
0.1518810697
 40
0.292614933
 40
0.3589760388
 40
0.4228253234
 40
0.4843775662
 40
0.5439155047
 40
0.6017998003
 40
0.6584506758
 40
0.7143413596
 40
0.7699761363
 40
0.8258728587
 40
0.8825363042
 40
0.9404393693
 40
1.0
 40
1.0
 40
1.0
 40
1.0
 10
30.3201048061
 20
28.3199335246
 30
0.0
 10
30.3873328943
 20
28.3587474478
 30
0.0
 10
30.5217181569
 20
28.4312001902
 30
0.0
 10
30.7887967802
 20
28.5540987423
 30
0.0
 10
31.0575306738
 20
28.6464588487
 30
0.0
 10
31.3239866835
 20
28.7030470053
 30
0.0
 10
31.5153994518
 20
28.7266712724
 30
0.0
 10
31.7013518914
 20
28.7321923625
 30
0.0
 10
31.8809791238
 20
28.7194804255
 30
0.0
 10
32.0534209617
 20
28.6886152607
 30
0.0
 10
32.2178266074
 20
28.6396448661
 30
0.0
 10
32.373383287
 20
28.5728281075
 30
0.0
 10
32.5192931154
 20
28.488452312
 30
0.0
 10
32.6548125123
 20
28.386949252
 30
0.0
 10
32.7792953782
 20
28.2688588175
 30
0.0
 10
32.8921013867
 20
28.1347777628
 30
0.0
 10
32.9581733526
 20
28.0367423522
 30
0.0
 10
32.9891227593
 20
27.9855502469
 30
0.0
  0
SPLINE
  5
2E5
100
AcDbEntity
  8
0
100
AcDbSpline
 62
7
  6
BYLAYER
 70
0
 71
3
 72
15
 73
11
 74
0
 42
0.0000001
 43
0.0000001
 44
0.0000000001
 40
0.0
 40
0.0
 40
0.0
 40
0.0
 40
0.134147582
 40
0.2644411913
 40
0.3914041637
 40
0.5156449941
 40
0.6378557285
 40
0.7587863611
 40
0.8792315204
 40
1.0
 40
1.0
 40
1.0
 40
1.0
 10
33.8366466611
 20
30.3531494849
 30
0.0
 10
33.7995525087
 20
30.4324306025
 30
0.0
 10
33.7203335248
 20
30.5859650273
 30
0.0
 10
33.5845356163
 20
30.8026105979
 30
0.0
 10
33.4340479316
 20
31.0013252432
 30
0.0
 10
33.269328009
 20
31.1813512942
 30
0.0
 10
33.0909766985
 20
31.3420872924
 30
0.0
 10
32.8995624854
 20
31.4829139684
 30
0.0
 10
32.695803938
 20
31.6033221412
 30
0.0
 10
32.5526616575
 20
31.6695008437
 30
0.0
 10
32.4795841155
 20
31.6989818715
 30
0.0
  0
SPLINE
  5
2E6
100
AcDbEntity
  8
0
100
AcDbSpline
 62
7
  6
BYLAYER
 70
0
 71
3
 72
23
 73
19
 74
0
 42
0.0000001
 43
0.0000001
 44
0.0000000001
 40
0.0
 40
0.0
 40
0.0
 40
0.0
 40
0.069580422
 40
0.1357132226
 40
0.1986176853
 40
0.2586594487
 40
0.3163524395
 40
0.3723514826
 40
0.4274279105
 40
0.4824196523
 40
0.5381700932
 40
0.5954677956
 40
0.6549952264
 40
0.7172960538
 40
0.7827575602
 40
0.8516405146
 40
0.9240793586
 40
1.0
 40
1.0
 40
1.0
 40
1.0
 10
33.8110741765
 20
27.5113289289
 30
0.0
 10
33.7950305304
 20
27.6176634916
 30
0.0
 10
33.7545598709
 20
27.8238452143
 30
0.0
 10
33.6655392439
 20
28.1181910037
 30
0.0
 10
33.5502718355
 20
28.3874460352
 30
0.0
 10
33.4095499039
 20
28.6294474786
 30
0.0
 10
33.244317605
 20
28.8421932211
 30
0.0
 10
33.0557729668
 20
29.023801588
 30
0.0
 10
32.8454509652
 20
29.1726458904
 30
0.0
 10
32.6151290404
 20
29.2873020828
 30
0.0
 10
32.3668991524
 20
29.3668735356
 30
0.0
 10
32.1029147996
 20
29.4107317692
 30
0.0
 10
31.825405565
 20
29.4187492407
 30
0.0
 10
31.536593594
 20
29.391018776
 30
0.0
 10
31.238697373
 20
29.3279423468
 30
0.0
 10
30.9339292079
 20
29.2300863914
 30
0.0
 10
30.6246874311
 20
29.0982643667
 30
0.0
 10
30.4217218021
 20
28.9909785873
 30
0.0
 10
30.3201048061
 20
28.9323103375
 30
0.0
  0
SPLINE
  5
2E7
100
AcDbEntity
  8
0
100
AcDbSpline
 62
7
  6
BYLAYER
 70
0
 71
3
 72
17
 73
13
 74
0
 42
0.0000001
 43
0.0000001
 44
0.0000000001
 40
0.0
 40
0.0
 40
0.0
 40
0.0
 40
0.0539155025
 40
0.1080897043
 40
0.1627742498
 40
0.2182093318
 40
0.3321260547
 40
0.4514642493
 40
0.5773573564
 40
0.7105470766
 40
0.851448972
 40
1.0
 40
1.0
 40
1.0
 40
1.0
 10
32.7165013142
 20
29.8170818764
 30
0.0
 10
32.6714835882
 20
29.8430749924
 30
0.0
 10
32.5789627009
 20
29.8913645418
 30
0.0
 10
32.4340145158
 20
29.9519881853
 30
0.0
 10
32.283110369
 20
30.0007711298
 30
0.0
 10
32.0726489986
 20
30.0502924888
 30
0.0
 10
31.7948359527
 20
30.0812940106
 30
0.0
 10
31.4477008467
 20
30.0691959234
 30
0.0
 10
31.086935832
 20
30.0086904534
 30
0.0
 10
30.7159386715
 20
29.9005322868
 30
0.0
 10
30.3382205336
 20
29.7459231193
 30
0.0
 10
30.0905880308
 20
29.6162949189
 30
0.0
 10
29.9665499435
 20
29.5446819233
 30
0.0
  0
SPLINE
  5
2E8
100
AcDbEntity
  8
0
100
AcDbSpline
 62
7
  6
BYLAYER
 70
0
 71
3
 72
15
 73
11
 74
0
 42
0.0000001
 43
0.0000001
 44
0.0000000001
 40
0.0
 40
0.0
 40
0.0
 40
0.0
 40
0.1410870577
 40
0.2765255852
 40
0.4064262537
 40
0.5314138153
 40
0.6522859778
 40
0.769997126
 40
0.8854654486
 40
1.0
 40
1.0
 40
1.0
 40
1.0
 10
36.1912049675
 20
18.204636503
 30
0.0
 10
36.1008490099
 20
18.1544355856
 30
0.0
 10
35.9194953485
 20
18.0634235992
 30
0.0
 10
35.641522171
 20
17.9553713321
 30
0.0
 10
35.3649982457
 20
17.8802057653
 30
0.0
 10
35.0920335545
 20
17.8394401096
 30
0.0
 10
34.8248870336
 20
17.8345783759
 30
0.0
 10
34.5665576751
 20
17.8670445949
 30
0.0
 10
34.320672962
 20
17.9374354426
 30
0.0
 10
34.1674945083
 20
18.0097809912
 30
0.0
 10
34.094824351
 20
18.051736177
 30
0.0
  0
SPLINE
  5
2E9
100
AcDbEntity
  8
0
100
AcDbSpline
 62
7
  6
BYLAYER
 70
0
 71
3
 72
26
 73
22
 74
0
 42
0.0000001
 43
0.0000001
 44
0.0000000001
 40
0.0
 40
0.0
 40
0.0
 40
0.0
 40
0.0238023626
 40
0.0476795185
 40
0.0718139324
 40
0.0963515862
 40
0.1213966979
 40
0.1470515325
 40
0.2005559646
 40
0.2575033302
 40
0.3181020494
 40
0.382216952
 40
0.4494156003
 40
0.5190379195
 40
0.5902622372
 40
0.6621662334
 40
0.7337858365
 40
0.804177236
 40
0.8724585292
 40
0.9379264621
 40
1.0
 40
1.0
 40
1.0
 40
1.0
 10
38.0947564829
 20
24.9799785905
 30
0.0
 10
38.1497959623
 20
24.9482022511
 30
0.0
 10
38.2561859491
 20
24.8775840873
 30
0.0
 10
38.4020519686
 20
24.752429894
 30
0.0
 10
38.5331909607
 20
24.6092447648
 30
0.0
 10
38.6489669357
 20
24.4495735801
 30
0.0
 10
38.7489367344
 20
24.2748959425
 30
0.0
 10
38.862253911
 20
24.0203496778
 30
0.0
 10
38.9623191203
 20
23.668894997
 30
0.0
 10
39.0168998955
 20
23.2139184794
 30
0.0
 10
39.0095260232
 20
22.7276462321
 30
0.0
 10
38.9419164481
 20
22.2186778136
 30
0.0
 10
38.8162912584
 20
21.6961805533
 30
0.0
 10
38.6356029442
 20
21.1700737383
 30
0.0
 10
38.4037264727
 20
20.650705834
 30
0.0
 10
38.125485065
 20
20.148550303
 30
0.0
 10
37.8065820016
 20
19.6738456226
 30
0.0
 10
37.4534385111
 20
19.2363534147
 30
0.0
 10
37.0729585108
 20
18.8448678364
 30
0.0
 10
36.672308565
 20
18.5075451174
 30
0.0
 10
36.3883251182
 20
18.3178601229
 30
0.0
 10
36.2447897454
 20
18.2349904315
 30
0.0
  0
SPLINE
  5
2EA
100
AcDbEntity
  8
0
100
AcDbSpline
 62
7
  6
BYLAYER
 70
0
 71
3
 72
24
 73
20
 74
0
 42
0.0000001
 43
0.0000001
 44
0.0000000001
 40
0.0
 40
0.0
 40
0.0
 40
0.0
 40
0.0740751695
 40
0.1444465699
 40
0.2110572441
 40
0.2741183203
 40
0.3340150949
 40
0.3912970185
 40
0.4466874765
 40
0.5010656119
 40
0.5553953654
 40
0.6106428135
 40
0.6676980687
 40
0.7273060421
 40
0.7582692901
 40
0.7900678832
 40
0.8563078824
 40
0.9262672363
 40
1.0
 40
1.0
 40
1.0
 40
1.0
 10
36.3416941098
 20
24.5459207466
 30
0.0
 10
36.4251274994
 20
24.5922755505
 30
0.0
 10
36.5916419538
 20
24.6760461923
 30
0.0
 10
36.8451946918
 20
24.77550822
 30
0.0
 10
37.0940805088
 20
24.8444947721
 30
0.0
 10
37.3359981959
 20
24.8823470868
 30
0.0
 10
37.5688611652
 20
24.8885328927
 30
0.0
 10
37.7905532604
 20
24.8628901553
 30
0.0
 10
37.9989024399
 20
24.8053378979
 30
0.0
 10
38.1917813007
 20
24.7163838574
 30
0.0
 10
38.3671181581
 20
24.5968223437
 30
0.0
 10
38.5231518884
 20
24.4480047191
 30
0.0
 10
38.6583673722
 20
24.2715309126
 30
0.0
 10
38.7516357892
 20
24.1050264553
 30
0.0
 10
38.8151377074
 20
23.9606180882
 30
0.0
 10
38.8726122697
 20
23.8045510844
 30
0.0
 10
38.9292503027
 20
23.5951169842
 30
0.0
 10
38.9723604052
 20
23.3276669333
 30
0.0
 10
38.9846256033
 20
23.142636082
 30
0.0
 10
38.986991679
 20
23.047660952
 30
0.0
  0
SPLINE
  5
2EB
100
AcDbEntity
  8
0
100
AcDbSpline
 62
7
  6
BYLAYER
 70
0
 71
3
 72
9
 73
5
 74
0
 42
0.0000001
 43
0.0000001
 44
0.0000000001
 40
0.0
 40
0.0
 40
0.0
 40
0.0
 40
0.241912513
 40
1.0
 40
1.0
 40
1.0
 40
1.0
 10
38.986991679
 20
23.047660952
 30
0.0
 10
38.9881869138
 20
22.9996837958
 30
0.0
 10
38.9889867907
 20
22.8012650493
 30
0.0
 10
38.9738593311
 20
22.6028882213
 30
0.0
 10
38.9548995529
 20
22.4536942124
 30
0.0
  0
SPLINE
  5
2EC
100
AcDbEntity
  8
0
100
AcDbSpline
 62
7
  6
BYLAYER
 70
0
 71
3
 72
18
 73
14
 74
0
 42
0.0000001
 43
0.0000001
 44
0.0000000001
 40
0.0
 40
0.0
 40
0.0
 40
0.0
 40
0.1198638024
 40
0.2462471067
 40
0.3767881256
 40
0.5088480467
 40
0.6396927125
 40
0.7038449978
 40
0.7667099951
 40
0.827996946
 40
0.8874631715
 40
0.9448793625
 40
1.0
 40
1.0
 40
1.0
 40
1.0
 10
38.9548995529
 20
22.4536942124
 30
0.0
 10
38.9292227467
 20
22.2516440816
 30
0.0
 10
38.8482157245
 20
21.8398285056
 30
0.0
 10
38.6525892954
 20
21.2289418776
 30
0.0
 10
38.3848978931
 20
20.6232723953
 30
0.0
 10
38.0533416432
 20
20.0414629833
 30
0.0
 10
37.7300293689
 20
19.5880973983
 30
0.0
 10
37.4477997216
 20
19.2526983743
 30
0.0
 10
37.228527738
 20
19.0194319265
 30
0.0
 10
37.001946275
 20
18.804672602
 30
0.0
 10
36.7697989692
 20
18.6100227307
 30
0.0
 10
36.5339102684
 20
18.4371073611
 30
0.0
 10
36.3719984074
 20
18.3349822084
 30
0.0
 10
36.2908844785
 20
18.2881513393
 30
0.0
  0
SPLINE
  5
2ED
100
AcDbEntity
  8
0
100
AcDbSpline
 62
7
  6
BYLAYER
 70
0
 71
3
 72
26
 73
22
 74
0
 42
0.0000001
 43
0.0000001
 44
0.0000000001
 40
0.0
 40
0.0
 40
0.0
 40
0.0
 40
0.0623751562
 40
0.1287160168
 40
0.1983007785
 40
0.2702737283
 40
0.3436458609
 40
0.4173730606
 40
0.490393151
 40
0.5616754447
 40
0.6302685484
 40
0.6953522931
 40
0.7562965631
 40
0.8127310695
 40
0.8646291477
 40
0.8890141924
 40
0.9124626857
 40
0.9351058503
 40
0.9571100036
 40
0.9786691849
 40
1.0
 40
1.0
 40
1.0
 40
1.0
 10
36.094790417
 20
24.7818670523
 30
0.0
 10
35.951086693
 20
24.6989001638
 30
0.0
 10
35.6655916933
 20
24.5080991325
 30
0.0
 10
35.2612841854
 20
24.1678708265
 30
0.0
 10
34.8748196513
 20
23.7710498612
 30
0.0
 10
34.5144382877
 20
23.3261926325
 30
0.0
 10
34.1877837005
 20
22.8426944031
 30
0.0
 10
33.9018177689
 20
22.3308924127
 30
0.0
 10
33.6626470632
 20
21.8016932455
 30
0.0
 10
33.4753697917
 20
21.2663771022
 30
0.0
 10
33.3439741326
 20
20.7363080292
 30
0.0
 10
33.2712682833
 20
20.2226825126
 30
0.0
 10
33.258896908
 20
19.7361893639
 30
0.0
 10
33.3073213785
 20
19.2870100469
 30
0.0
 10
33.3999599833
 20
18.9442924123
 30
0.0
 10
33.5050458212
 20
18.7002604728
 30
0.0
 10
33.5963771364
 20
18.536119338
 30
0.0
 10
33.7014391076
 20
18.3880741031
 30
0.0
 10
33.819669993
 20
18.256952943
 30
0.0
 10
33.9504144657
 20
18.1435639826
 30
0.0
 10
34.0456865153
 20
18.0801182418
 30
0.0
 10
34.0948291164
 20
18.051744431
 30
0.0
  0
SPLINE
  5
2EE
100
AcDbEntity
  8
0
100
AcDbSpline
 62
7
  6
BYLAYER
 70
0
 71
3
 72
36
 73
32
 74
0
 42
0.0000001
 43
0.0000001
 44
0.0000000001
 40
0.0
 40
0.0
 40
0.0
 40
0.0
 40
0.0303290517
 40
0.0590814001
 40
0.0862626172
 40
0.1119872251
 40
0.1364416173
 40
0.1598838907
 40
0.1826498205
 40
0.2051322929
 40
0.2277497037
 40
0.2509077593
 40
0.2749652574
 40
0.3002125783
 40
0.3133567842
 40
0.3268698609
 40
0.3550453963
 40
0.3848067183
 40
0.4161498823
 40
0.4490128347
 40
0.483292081
 40
0.5554562626
 40
0.6312141708
 40
0.7087877589
 40
0.786257171
 40
0.8243681242
 40
0.8617453584
 40
0.8981726581
 40
0.9334675041
 40
0.9674673954
 40
1.0
 40
1.0
 40
1.0
 40
1.0
 10
36.1791456356
 20
18.2263165715
 30
0.0
 10
36.0943631652
 20
18.1814354402
 30
0.0
 10
35.9253649575
 20
18.1009700561
 30
0.0
 10
35.668424085
 20
18.007829524
 30
0.0
 10
35.4169580708
 20
17.9464506758
 30
0.0
 10
35.1733225931
 20
17.9174915932
 30
0.0
 10
34.9397135873
 20
17.921372148
 30
0.0
 10
34.7183786526
 20
17.9583035203
 30
0.0
 10
34.5116010447
 20
18.0281251021
 30
0.0
 10
34.3216448577
 20
18.1302695109
 30
0.0
 10
34.1505614146
 20
18.2635942498
 30
0.0
 10
34.000172071
 20
18.4266359389
 30
0.0
 10
33.8718139565
 20
18.6174951448
 30
0.0
 10
33.7853051082
 20
18.7957566405
 30
0.0
 10
33.7276437098
 20
18.9495511543
 30
0.0
 10
33.6765138864
 20
19.1153746478
 30
0.0
 10
33.628593921
 20
19.3367137126
 30
0.0
 10
33.5967877745
 20
19.6177172027
 30
0.0
 10
33.5902078685
 20
19.9152267677
 30
0.0
 10
33.6087852213
 20
20.2264990915
 30
0.0
 10
33.6679740342
 20
20.6634677489
 30
0.0
 10
33.8051432137
 20
21.2250489743
 30
0.0
 10
34.0576286563
 20
21.8937534397
 30
0.0
 10
34.3916388194
 20
22.5445396172
 30
0.0
 10
34.7297042765
 20
23.0551027544
 30
0.0
 10
35.0306752083
 20
23.4341781545
 30
0.0
 10
35.2669502075
 20
23.6980658807
 30
0.0
 10
35.5127825315
 20
23.9405558417
 30
0.0
 10
35.7659176937
 20
24.1594558207
 30
0.0
 10
36.0239844295
 20
24.3526015449
 30
0.0
 10
36.2017714013
 20
24.4656894801
 30
0.0
 10
36.2908844786
 20
24.5171386321
 30
0.0
  0
SPLINE
  5
2EF
100
AcDbEntity
  8
0
100
AcDbSpline
 62
7
  6
BYLAYER
 70
0
 71
3
 72
15
 73
11
 74
0
 42
0.0000001
 43
0.0000001
 44
0.0000000001
 40
0.0
 40
0.0
 40
0.0
 40
0.0
 40
0.1085681688
 40
0.2190889029
 40
0.3333465937
 40
0.4528268273
 40
0.5786410168
 40
0.7115686161
 40
0.8520500927
 40
1.0
 40
1.0
 40
1.0
 40
1.0
 10
38.0947517174
 20
24.9799703365
 30
0.0
 10
38.030752049
 20
25.0169222772
 30
0.0
 10
37.8950983797
 20
25.0808011489
 30
0.0
 10
37.6758751392
 20
25.1428345339
 30
0.0
 10
37.4423579127
 20
25.1710879741
 30
0.0
 10
37.1969226217
 20
25.1654615319
 30
0.0
 10
36.9418214622
 20
25.1262492145
 30
0.0
 10
36.6792970044
 20
25.053947367
 30
0.0
 10
36.4117794293
 20
24.9492923606
 30
0.0
 10
36.2361052625
 20
24.8609599009
 30
0.0
 10
36.14807187
 20
24.8120493788
 30
0.0
  0
SPLINE
  5
2F0
100
AcDbEntity
  8
0
100
AcDbSpline
 62
7
  6
BYLAYER
 70
0
 71
3
 72
9
 73
5
 74
0
 42
0.0000001
 43
0.0000001
 44
0.0000000001
 40
0.0
 40
0.0
 40
0.0
 40
0.0
 40
0.4860925281
 40
1.0
 40
1.0
 40
1.0
 40
1.0
 10
17.5214187809
 20
19.2565674763
 30
0.0
 10
17.3217984589
 20
19.1413173176
 30
0.0
 10
16.8972936363
 20
18.9277393578
 30
0.0
 10
16.454063814
 20
18.757101524
 30
0.0
 10
16.223041496
 20
18.6795516467
 30
0.0
  0
SPLINE
  5
2F1
100
AcDbEntity
  8
0
100
AcDbSpline
 62
7
  6
BYLAYER
 70
0
 71
3
 72
26
 73
22
 74
0
 42
0.0000001
 43
0.0000001
 44
0.0000000001
 40
0.0
 40
0.0
 40
0.0
 40
0.0
 40
0.0688973404
 40
0.1402169699
 40
0.2132015487
 40
0.287043221
 40
0.3609000976
 40
0.4339300767
 40
0.5053208201
 40
0.5743187929
 40
0.6402627046
 40
0.7026207709
 40
0.761032567
 40
0.8153588986
 40
0.841040419
 40
0.8657813228
 40
0.9126938921
 40
0.9351313639
 40
0.9570521875
 40
0.978617115
 40
1.0
 40
1.0
 40
1.0
 40
1.0
 10
16.223041496
 20
18.6795516467
 30
0.0
 10
15.9781544762
 20
18.5973476479
 30
0.0
 10
15.4718004152
 20
18.4530717366
 30
0.0
 10
14.6866554636
 20
18.2987321648
 30
0.0
 10
13.8733581508
 20
18.2046260016
 30
0.0
 10
13.045798423
 20
18.1723561159
 30
0.0
 10
12.2179817718
 20
18.202456381
 30
0.0
 10
11.4039601693
 20
18.2944184102
 30
0.0
 10
10.6175264228
 20
18.4466840155
 30
0.0
 10
9.8719770765
 20
18.6567027473
 30
0.0
 10
9.1798826606
 20
18.9209631507
 30
0.0
 10
8.5528173161
 20
19.2351332631
 30
0.0
 10
8.0013571776
 20
19.5940859952
 30
0.0
 10
7.6051292601
 20
19.9321691473
 30
0.0
 10
7.3373894932
 20
20.2200558359
 30
0.0
 10
7.1111952121
 20
20.5067773112
 30
0.0
 10
6.9290671059
 20
20.8118119557
 30
0.0
 10
6.8001224088
 20
21.129350148
 30
0.0
 10
6.7316952797
 20
21.36737827
 30
0.0
 10
6.6904631456
 20
21.6075523132
 30
0.0
 10
6.6812782752
 20
21.7687256349
 30
0.0
 10
6.6812833782
 20
21.8488962342
 30
0.0
  0
SPLINE
  5
2F2
100
AcDbEntity
  8
0
100
AcDbSpline
 62
7
  6
BYLAYER
 70
0
 71
3
 72
27
 73
23
 74
0
 42
0.0000001
 43
0.0000001
 44
0.0000000001
 40
0.0
 40
0.0
 40
0.0
 40
0.0
 40
0.0623739359
 40
0.1287093781
 40
0.1982928101
 40
0.2702618454
 40
0.3436307708
 40
0.4173555701
 40
0.4903730778
 40
0.5616527383
 40
0.6302430516
 40
0.6953236327
 40
0.7562643406
 40
0.8126950669
 40
0.8392175958
 40
0.8646373642
 40
0.8890215793
 40
0.912467906
 40
0.9351101138
 40
0.9571125966
 40
0.9786705461
 40
1.0
 40
1.0
 40
1.0
 40
1.0
 10
17.5214187809
 20
20.7262718271
 30
0.0
 10
17.2932844036
 20
20.5945591692
 30
0.0
 10
16.8043639765
 20
20.3535030376
 30
0.0
 10
16.015689712
 20
20.0677225735
 30
0.0
 10
15.163390179
 20
19.8513741826
 30
0.0
 10
14.2657391561
 20
19.7090255132
 30
0.0
 10
13.341739642
 20
19.6437116698
 30
0.0
 10
12.4111179193
 20
19.6568015212
 30
0.0
 10
11.4937204242
 20
19.7480302842
 30
0.0
 10
10.6091007287
 20
19.9154549066
 30
0.0
 10
9.7760654653
 20
20.1555306474
 30
0.0
 10
9.0121855646
 20
20.4632836396
 30
0.0
 10
8.333647904
 20
20.8323170016
 30
0.0
 10
7.8410491117
 20
21.1922874572
 30
0.0
 10
7.5061389005
 20
21.5049418036
 30
0.0
 10
7.2899447465
 20
21.7446359962
 30
0.0
 10
7.1047181286
 20
21.9930231269
 30
0.0
 10
6.9516027912
 20
22.248889685
 30
0.0
 10
6.8314158981
 20
22.5108124955
 30
0.0
 10
6.7450177277
 20
22.777439653
 30
0.0
 10
6.6929049655
 20
23.0471812789
 30
0.0
 10
6.6812776444
 20
23.2285189958
 30
0.0
 10
6.6812833782
 20
23.318600585
 30
0.0
  0
SPLINE
  5
2F3
100
AcDbEntity
  8
0
100
AcDbSpline
 62
7
  6
BYLAYER
 70
0
 71
3
 72
11
 73
7
 74
0
 42
0.0000001
 43
0.0000001
 44
0.0000000001
 40
0.0
 40
0.0
 40
0.0
 40
0.0
 40
0.2479271973
 40
0.4999609248
 40
0.7520152305
 40
1.0
 40
1.0
 40
1.0
 40
1.0
 10
15.0998450704
 20
21.639822113
 30
0.0
 10
14.7627707969
 20
21.5766424288
 30
0.0
 10
14.0764520524
 20
21.4823357944
 30
0.0
 10
13.035946631
 20
21.4351859534
 30
0.0
 10
11.9953224327
 20
21.4815001929
 30
0.0
 10
11.3088235353
 20
21.5752721384
 30
0.0
 10
10.9716139624
 20
21.6381614882
 30
0.0
  0
SPLINE
  5
2F4
100
AcDbEntity
  8
0
100
AcDbSpline
 62
7
  6
BYLAYER
 70
0
 71
3
 72
16
 73
12
 74
0
 42
0.0000001
 43
0.0000001
 44
0.0000000001
 40
0.0
 40
0.0
 40
0.0
 40
0.0
 40
0.1438013982
 40
0.2812137767
 40
0.4122871066
 40
0.4756407138
 40
0.5376420911
 40
0.657947472
 40
0.7742831874
 40
0.8878088426
 40
1.0
 40
1.0
 40
1.0
 40
1.0
 10
17.1156857215
 20
16.6930882892
 30
0.0
 10
17.2420891576
 20
16.7686501625
 30
0.0
 10
17.48329147
 20
16.9268293995
 30
0.0
 10
17.8136170281
 20
17.1908283709
 30
0.0
 10
18.0559757438
 20
17.4301584148
 30
0.0
 10
18.2258584137
 20
17.6306107549
 30
0.0
 10
18.3764599193
 20
17.8322962599
 30
0.0
 10
18.5355072601
 20
18.0947119277
 30
0.0
 10
18.6761365157
 20
18.4260432792
 30
0.0
 10
18.7619795106
 20
18.767120942
 30
0.0
 10
18.7812720262
 20
18.9987185964
 30
0.0
 10
18.7812720262
 20
19.1136131701
 30
0.0
  0
SPLINE
  5
2F5
100
AcDbEntity
  8
0
100
AcDbSpline
 62
7
  6
BYLAYER
 70
0
 71
3
 72
17
 73
13
 74
0
 42
0.0000001
 43
0.0000001
 44
0.0000000001
 40
0.0
 40
0.0
 40
0.0
 40
0.0
 40
0.117786957
 40
0.2427142476
 40
0.3725420702
 40
0.5045883871
 40
0.6359819343
 40
0.7639098405
 40
0.8257903904
 40
0.8859102749
 40
0.9440595487
 40
1.0
 40
1.0
 40
1.0
 40
1.0
 10
9.3710827773
 20
16.4638584098
 30
0.0
 10
9.6513226748
 20
16.3271042182
 30
0.0
 10
10.2507458647
 20
16.0890427048
 30
0.0
 10
11.2081005956
 20
15.8431659559
 30
0.0
 10
12.2246098357
 20
15.702876186
 30
0.0
 10
13.2672833343
 20
15.6724675079
 30
0.0
 10
14.3022083365
 20
15.752792966
 30
0.0
 10
15.1396621032
 20
15.9117962078
 30
0.0
 10
15.7762251433
 20
16.0936057456
 30
0.0
 10
16.2259171846
 20
16.2535365853
 30
0.0
 10
16.6492801971
 20
16.4373677988
 30
0.0
 10
16.9171200953
 20
16.5777348105
 30
0.0
 10
17.0453749549
 20
16.6517823462
 30
0.0
  0
SPLINE
  5
2F6
100
AcDbEntity
  8
0
100
AcDbSpline
 62
7
  6
BYLAYER
 70
0
 71
3
 72
11
 73
7
 74
0
 42
0.0000001
 43
0.0000001
 44
0.0000000001
 40
0.0
 40
0.0
 40
0.0
 40
0.0
 40
0.2588016988
 40
0.5109343647
 40
0.7581711513
 40
1.0
 40
1.0
 40
1.0
 40
1.0
 10
8.5730383014
 20
16.9396867846
 30
0.0
 10
8.6378796603
 20
16.8924363649
 30
0.0
 10
8.76940995
 20
16.8039855991
 30
0.0
 10
8.9697922767
 20
16.6810800031
 30
0.0
 10
9.1694206427
 20
16.5672325971
 30
0.0
 10
9.3037186495
 20
16.4967296656
 30
0.0
 10
9.3710925579
 20
16.4638490122
 30
0.0
  0
SPLINE
  5
2F7
100
AcDbEntity
  8
0
100
AcDbSpline
 62
7
  6
BYLAYER
 70
0
 71
3
 72
14
 73
10
 74
0
 42
0.0000001
 43
0.0000001
 44
0.0000000001
 40
0.0
 40
0.0
 40
0.0
 40
0.0
 40
0.1147087602
 40
0.2304106701
 40
0.3483144324
 40
0.4694081265
 40
0.5945070947
 40
0.724358394
 40
1.0
 40
1.0
 40
1.0
 40
1.0
 10
7.2812720262
 20
19.1136131701
 30
0.0
 10
7.2812720262
 20
19.0132815296
 30
0.0
 10
7.2959507881
 20
18.8114564086
 30
0.0
 10
7.3612860846
 20
18.5129079981
 30
0.0
 10
7.4689135219
 20
18.2209333487
 30
0.0
 10
7.6168958632
 20
17.9380281332
 30
0.0
 10
7.8035115406
 20
17.6662730267
 30
0.0
 10
8.106801753
 20
17.3140938276
 30
0.0
 10
8.3781817656
 20
17.081681028
 30
0.0
 10
8.5730299359
 20
16.9396936123
 30
0.0
  0
SPLINE
  5
2F8
100
AcDbEntity
  8
0
100
AcDbSpline
 62
7
  6
BYLAYER
 70
0
 71
3
 72
9
 73
5
 74
0
 42
0.0000001
 43
0.0000001
 44
0.0000000001
 40
0.0
 40
0.0
 40
0.0
 40
0.0
 40
0.244722107
 40
1.0
 40
1.0
 40
1.0
 40
1.0
 10
17.2009479251
 20
22.0230609821
 30
0.0
 10
17.1968959151
 20
22.0234443019
 30
0.0
 10
17.1803820547
 20
22.025456088
 30
0.0
 10
17.164087378
 20
22.0291707958
 30
0.0
 10
17.1520575168
 20
22.0327862764
 30
0.0
  0
SPLINE
  5
2F9
100
AcDbEntity
  8
0
100
AcDbSpline
 62
7
  6
BYLAYER
 70
0
 71
3
 72
9
 73
5
 74
0
 42
0.0000001
 43
0.0000001
 44
0.0000000001
 40
0.0
 40
0.0
 40
0.0
 40
0.0
 40
0.2545506549
 40
1.0
 40
1.0
 40
1.0
 40
1.0
 10
34.5349329063
 20
31.0746412358
 30
0.0
 10
34.5134461293
 20
31.1116721602
 30
0.0
 10
34.4263432834
 20
31.2555613975
 30
0.0
 10
34.3282666734
 20
31.3928672283
 30
0.0
 10
34.2491512742
 20
31.4901319361
 30
0.0
  0
SPLINE
  5
2FA
100
AcDbEntity
  8
0
100
AcDbSpline
 62
7
  6
BYLAYER
 70
0
 71
3
 72
9
 73
5
 74
0
 42
0.0000001
 43
0.0000001
 44
0.0000000001
 40
0.0
 40
0.0
 40
0.0
 40
0.0
 40
0.5033791576
 40
1.0
 40
1.0
 40
1.0
 40
1.0
 10
34.0902509914
 20
31.6700041105
 30
0.0
 10
34.0016053824
 20
31.7623387146
 30
0.0
 10
33.8128624934
 20
31.9341063978
 30
0.0
 10
33.6015807682
 20
32.0773650836
 30
0.0
 10
33.4922174748
 20
32.1405031397
 30
0.0
  0
SPLINE
  5
2FB
100
AcDbEntity
  8
0
100
AcDbSpline
 62
7
  6
BYLAYER
 70
0
 71
3
 72
10
 73
6
 74
0
 42
0.0000001
 43
0.0000001
 44
0.0000000001
 40
0.0
 40
0.0
 40
0.0
 40
0.0
 40
0.3847696723
 40
0.6639086431
 40
1.0
 40
1.0
 40
1.0
 40
1.0
 10
35.3836953166
 20
28.3199487552
 30
0.0
 10
35.3838717968
 20
28.3140933289
 30
0.0
 10
35.3778191011
 20
28.3044630528
 30
0.0
 10
35.3664992671
 20
28.2946460872
 30
0.0
 10
35.3585788436
 20
28.289466157
 30
0.0
 10
35.3541474178
 20
28.2869076874
 30
0.0
  0
SPLINE
  5
2FC
100
AcDbEntity
  8
0
100
AcDbSpline
 62
7
  6
BYLAYER
 70
0
 71
3
 72
11
 73
7
 74
0
 42
0.0000001
 43
0.0000001
 44
0.0000000001
 40
0.0
 40
0.0
 40
0.0
 40
0.0
 40
0.2287333457
 40
0.4708848654
 40
0.727818925
 40
1.0
 40
1.0
 40
1.0
 40
1.0
 10
34.8076894857
 20
30.6045456173
 30
0.0
 10
34.8987092468
 20
30.4476729766
 30
0.0
 10
35.0602785148
 20
30.1092615879
 30
0.0
 10
35.2346906878
 20
29.5575346453
 30
0.0
 10
35.3463275378
 20
28.9548973909
 30
0.0
 10
35.3777186208
 20
28.5356830651
 30
0.0
 10
35.3836987602
 20
28.3199496089
 30
0.0
  0
SPLINE
  5
2FD
100
AcDbEntity
  8
0
100
AcDbSpline
 62
7
  6
BYLAYER
 70
0
 71
3
 72
16
 73
12
 74
0
 42
0.0000001
 43
0.0000001
 44
0.0000000001
 40
0.0
 40
0.0
 40
0.0
 40
0.0
 40
0.1090110605
 40
0.2199118306
 40
0.3344280633
 40
0.4540068797
 40
0.5160801319
 40
0.5798028985
 40
0.7124778499
 40
0.8525525218
 40
1.0
 40
1.0
 40
1.0
 40
1.0
 10
26.3873239895
 20
18.691075313
 30
0.0
 10
26.2728850212
 20
18.7571492594
 30
0.0
 10
26.0525412776
 20
18.9096465864
 30
0.0
 10
25.7593800573
 20
19.1919555837
 30
0.0
 10
25.5047754518
 20
19.5256306063
 30
0.0
 10
25.3288328475
 20
19.8399025524
 30
0.0
 10
25.2086648629
 20
20.1121552216
 30
0.0
 10
25.0997749246
 20
20.4061318215
 30
0.0
 10
24.9918307921
 20
20.8004032914
 30
0.0
 10
24.9086637105
 20
21.3036936629
 30
0.0
 10
24.8838248833
 20
21.6518792307
 30
0.0
 10
24.878430778
 20
21.8305347593
 30
0.0
  0
SPLINE
  5
2FE
100
AcDbEntity
  8
0
100
AcDbSpline
 62
7
  6
BYLAYER
 70
0
 71
3
 72
11
 73
7
 74
0
 42
0.0000001
 43
0.0000001
 44
0.0000000001
 40
0.0
 40
0.0
 40
0.0
 40
0.0
 40
0.2449200338
 40
0.491972117
 40
0.7431202963
 40
1.0
 40
1.0
 40
1.0
 40
1.0
 10
25.592350737
 20
18.4572230267
 30
0.0
 10
25.6785953412
 20
18.4074319452
 30
0.0
 10
25.8576866986
 20
18.3171887852
 30
0.0
 10
26.1416871302
 20
18.2122719174
 30
0.0
 10
26.4401821003
 20
18.1379972308
 30
0.0
 10
26.6451897771
 20
18.1094082667
 30
0.0
 10
26.7492239514
 20
18.1001151737
 30
0.0
  0
SPLINE
  5
2FF
100
AcDbEntity
  8
0
100
AcDbSpline
 62
7
  6
BYLAYER
 70
0
 71
3
 72
15
 73
11
 74
0
 42
0.0000001
 43
0.0000001
 44
0.0000000001
 40
0.0
 40
0.0
 40
0.0
 40
0.0
 40
0.1484729998
 40
0.2894667185
 40
0.4227513796
 40
0.5486589981
 40
0.6679939989
 40
0.7819275581
 40
0.8919838442
 40
1.0
 40
1.0
 40
1.0
 40
1.0
 10
34.7041379985
 20
34.0660971017
 30
0.0
 10
34.7041379985
 20
34.1181439275
 30
0.0
 10
34.6999110412
 20
34.21968406
 30
0.0
 10
34.6799495495
 20
34.3667619503
 30
0.0
 10
34.6465567306
 20
34.5033130433
 30
0.0
 10
34.6000100809
 20
34.6279366457
 30
0.0
 10
34.5406931976
 20
34.7394530809
 30
0.0
 10
34.4690363111
 20
34.8367333785
 30
0.0
 10
34.3857607265
 20
34.9187475613
 30
0.0
 10
34.3226954096
 20
34.9627199914
 30
0.0
 10
34.2899019762
 20
34.981649666
 30
0.0
  0
SPLINE
  5
300
100
AcDbEntity
  8
0
100
AcDbSpline
 62
7
  6
BYLAYER
 70
0
 71
3
 72
12
 73
8
 74
0
 42
0.0000001
 43
0.0000001
 44
0.0000000001
 40
0.0
 40
0.0
 40
0.0
 40
0.0
 40
0.156228332
 40
0.3063723017
 40
0.5143259002
 40
0.6986567652
 40
1.0
 40
1.0
 40
1.0
 40
1.0
 10
27.2257251936
 20
18.1749794962
 30
0.0
 10
27.2240192559
 20
18.1705826645
 30
0.0
 10
27.2202777935
 20
18.1621054484
 30
0.0
 10
27.2127114213
 20
18.1485328162
 30
0.0
 10
27.2029036721
 20
18.1352777439
 30
0.0
 10
27.1876451491
 20
18.1209602082
 30
0.0
 10
27.1732895453
 20
18.1145199942
 30
0.0
 10
27.1642005028
 20
18.1141426907
 30
0.0
  0
SPLINE
  5
301
100
AcDbEntity
  8
0
100
AcDbSpline
 62
7
  6
BYLAYER
 70
0
 71
3
 72
15
 73
11
 74
0
 42
0.0000001
 43
0.0000001
 44
0.0000000001
 40
0.0
 40
0.0
 40
0.0
 40
0.0
 40
0.1134675869
 40
0.2282131628
 40
0.3454330491
 40
0.4661947945
 40
0.5914005527
 40
0.7217898255
 40
0.8579115565
 40
1.0
 40
1.0
 40
1.0
 40
1.0
 10
24.5473849528
 20
17.7903611354
 30
0.0
 10
24.6604921371
 20
17.7250590652
 30
0.0
 10
24.8968878948
 20
17.6085188255
 30
0.0
 10
25.2742048234
 20
17.4799130261
 30
0.0
 10
25.6728583189
 20
17.3977808791
 30
0.0
 10
26.0903254953
 20
17.3624696316
 30
0.0
 10
26.5241927706
 20
17.3740472669
 30
0.0
 10
26.9720342303
 20
17.4322899723
 30
0.0
 10
27.4312148121
 20
17.5368069076
 30
0.0
 10
27.7365773649
 20
17.6346523446
 30
0.0
 10
27.8902684715
 20
17.6905725263
 30
0.0
  0
SPLINE
  5
302
100
AcDbEntity
  8
0
100
AcDbSpline
 62
7
  6
BYLAYER
 70
0
 71
3
 72
11
 73
7
 74
0
 42
0.0000001
 43
0.0000001
 44
0.0000000001
 40
0.0
 40
0.0
 40
0.0
 40
0.0
 40
0.2185722735
 40
0.4659128016
 40
0.7315913108
 40
1.0
 40
1.0
 40
1.0
 40
1.0
 10
32.5461850973
 20
31.9855325846
 30
0.0
 10
32.5491824716
 20
31.9781623011
 30
0.0
 10
32.553417771
 20
31.9615606601
 30
0.0
 10
32.5548789135
 20
31.9348398125
 30
0.0
 10
32.5515384803
 20
31.9064628209
 30
0.0
 10
32.5461459225
 20
31.8876693202
 30
0.0
 10
32.5426116954
 20
31.8785603112
 30
0.0
  0
SPLINE
  5
303
100
AcDbEntity
  8
0
100
AcDbSpline
 62
7
  6
BYLAYER
 70
0
 71
3
 72
15
 73
11
 74
0
 42
0.0000001
 43
0.0000001
 44
0.0000000001
 40
0.0
 40
0.0
 40
0.0
 40
0.0
 40
0.1479530178
 40
0.2910036764
 40
0.427900094
 40
0.5577577527
 40
0.6799179809
 40
0.7941079578
 40
0.9005656709
 40
1.0
 40
1.0
 40
1.0
 40
1.0
 10
27.6109383185
 20
28.8732162039
 30
0.0
 10
27.7941355757
 20
29.0916399004
 30
0.0
 10
28.1704733549
 20
29.5081632192
 30
0.0
 10
28.7703542832
 20
30.075068101
 30
0.0
 10
29.3892373622
 20
30.5671602497
 30
0.0
 10
30.0179501874
 20
30.9771817814
 30
0.0
 10
30.6475400864
 20
31.2990158325
 30
0.0
 10
31.2691360099
 20
31.5278664422
 30
0.0
 10
31.8737289645
 20
31.6598290087
 30
0.0
 10
32.2721264594
 20
31.6820729905
 30
0.0
 10
32.4635835135
 20
31.6748754899
 30
0.0
  0
LINE
  5
304
100
AcDbEntity
  8
0
100
AcDbLine
 62
7
  6
BYLAYER
 10
26.7492236524
 20
29.2724825997
 11
27.1641882267
 21
28.6914320611
  0
LINE
  5
305
100
AcDbEntity
  8
0
100
AcDbLine
 62
7
  6
BYLAYER
 10
27.1641882267
 20
28.6914320611
 11
27.2257251936
 21
28.6047471775
  0
SPLINE
  5
306
100
AcDbEntity
  8
0
100
AcDbSpline
 62
7
  6
BYLAYER
 70
0
 71
3
 72
15
 73
11
 74
0
 42
0.0000001
 43
0.0000001
 44
0.0000000001
 40
0.0
 40
0.0
 40
0.0
 40
0.0
 40
0.1119645035
 40
0.2297498054
 40
0.3524362857
 40
0.4790294546
 40
0.6083537067
 40
0.7391440414
 40
0.8701515023
 40
1.0
 40
1.0
 40
1.0
 40
1.0
 10
24.878430778
 20
22.2387859679
 30
0.0
 10
24.8858422381
 20
22.4928152887
 30
0.0
 10
24.9284355284
 20
23.0135357277
 30
0.0
 10
25.0661531229
 20
23.8025041904
 30
0.0
 10
25.2775079973
 20
24.6093596501
 30
0.0
 10
25.5592359819
 20
25.4220794435
 30
0.0
 10
25.9072681539
 20
26.2287142054
 30
0.0
 10
26.3164090096
 20
27.0174283202
 30
0.0
 10
26.7806174774
 20
27.7763748203
 30
0.0
 10
27.124865556
 20
28.2588494688
 30
0.0
 10
27.3047533755
 20
28.4923156956
 30
0.0
  0
SPLINE
  5
307
100
AcDbEntity
  8
0
100
AcDbSpline
 62
7
  6
BYLAYER
 70
0
 71
3
 72
11
 73
7
 74
0
 42
0.0000001
 43
0.0000001
 44
0.0000000001
 40
0.0
 40
0.0
 40
0.0
 40
0.0
 40
0.2334570931
 40
0.491153328
 40
0.7528428168
 40
1.0
 40
1.0
 40
1.0
 40
1.0
 10
24.7203744142
 20
22.1475326284
 30
0.0
 10
24.7128166427
 20
22.143169173
 30
0.0
 10
24.6961271188
 20
22.1353527394
 30
0.0
 10
24.6694236233
 20
22.1263327017
 30
0.0
 10
24.6414503453
 20
22.1199204414
 30
0.0
 10
24.6225426424
 20
22.1174882558
 30
0.0
 10
24.6133245957
 20
22.1168652143
 30
0.0
  0
SPLINE
  5
308
100
AcDbEntity
  8
0
100
AcDbSpline
 62
7
  6
BYLAYER
 70
0
 71
3
 72
9
 73
5
 74
0
 42
0.0000001
 43
0.0000001
 44
0.0000000001
 40
0.0
 40
0.0
 40
0.0
 40
0.0
 40
0.485131323
 40
1.0
 40
1.0
 40
1.0
 40
1.0
 10
18.3913160486
 20
21.3528846877
 30
0.0
 10
18.2628415291
 20
21.2361110098
 30
0.0
 10
17.9828927366
 20
21.0117514264
 30
0.0
 10
17.6809894198
 20
20.8183994285
 30
0.0
 10
17.5214187809
 20
20.7262718271
 30
0.0
  0
SPLINE
  5
309
100
AcDbEntity
  8
0
100
AcDbSpline
 62
7
  6
BYLAYER
 70
0
 71
3
 72
11
 73
7
 74
0
 42
0.0000001
 43
0.0000001
 44
0.0000000001
 40
0.0
 40
0.0
 40
0.0
 40
0.0
 40
0.2233416547
 40
0.4631676208
 40
0.72186994
 40
1.0
 40
1.0
 40
1.0
 40
1.0
 10
19.1675047824
 20
20.9056719426
 30
0.0
 10
19.0938065071
 20
20.7458416772
 30
0.0
 10
18.9061428769
 20
20.4297546736
 30
0.0
 10
18.5329854931
 20
19.9972772754
 30
0.0
 10
18.0665141656
 20
19.5980001454
 30
0.0
 10
17.7112336396
 20
19.3661564819
 30
0.0
 10
17.5214187809
 20
19.2565674763
 30
0.0
  0
SPLINE
  5
30A
100
AcDbEntity
  8
0
100
AcDbSpline
 62
7
  6
BYLAYER
 70
0
 71
3
 72
11
 73
7
 74
0
 42
0.0000001
 43
0.0000001
 44
0.0000000001
 40
0.0
 40
0.0
 40
0.0
 40
0.0
 40
0.2589101976
 40
0.5153129669
 40
0.7635023244
 40
1.0
 40
1.0
 40
1.0
 40
1.0
 10
6.510511401
 20
23.6789882049
 30
0.0
 10
6.4916690883
 20
23.6794631233
 30
0.0
 10
6.4541649323
 20
23.6838239212
 30
0.0
 10
6.4007619288
 20
23.700423972
 30
0.0
 10
6.3532391697
 20
23.726825142
 30
0.0
 10
6.3271020557
 20
23.7512989905
 30
0.0
 10
6.3164632968
 20
23.7648352922
 30
0.0
  0
SPLINE
  5
30B
100
AcDbEntity
  8
0
100
AcDbSpline
 62
7
  6
BYLAYER
 70
0
 71
3
 72
11
 73
7
 74
0
 42
0.0000001
 43
0.0000001
 44
0.0000000001
 40
0.0
 40
0.0
 40
0.0
 40
0.0
 40
0.2317480101
 40
0.4771803965
 40
0.7340822331
 40
1.0
 40
1.0
 40
1.0
 40
1.0
 10
16.2132657894
 20
18.623758763
 30
0.0
 10
16.066107286
 20
18.5387972686
 30
0.0
 10
15.7524555502
 20
18.3818876858
 30
0.0
 10
15.2483280397
 20
18.1910761899
 30
0.0
 10
14.7047074245
 20
18.0407559158
 30
0.0
 10
14.327383571
 20
17.9702504001
 30
0.0
 10
14.1344498297
 20
17.94209087
 30
0.0
  0
SPLINE
  5
30C
100
AcDbEntity
  8
0
100
AcDbSpline
 62
7
  6
BYLAYER
 70
0
 71
3
 72
9
 73
5
 74
0
 42
0.0000001
 43
0.0000001
 44
0.0000000001
 40
0.0
 40
0.0
 40
0.0
 40
0.0
 40
0.5027277643
 40
1.0
 40
1.0
 40
1.0
 40
1.0
 10
9.1584720526
 20
26.8996247303
 30
0.0
 10
8.8274890225
 20
27.1518413308
 30
0.0
 10
8.2007485674
 20
27.6959954086
 30
0.0
 10
7.6380542573
 20
28.3052684303
 30
0.0
 10
7.3744421638
 20
28.6213914399
 30
0.0
  0
SPLINE
  5
30D
100
AcDbEntity
  8
0
100
AcDbSpline
 62
7
  6
BYLAYER
 70
0
 71
3
 72
9
 73
5
 74
0
 42
0.0000001
 43
0.0000001
 44
0.0000000001
 40
0.0
 40
0.0
 40
0.0
 40
0.0
 40
0.2468856925
 40
1.0
 40
1.0
 40
1.0
 40
1.0
 10
13.5703999322
 20
24.1070420807
 30
0.0
 10
13.4396591484
 20
24.1621527877
 30
0.0
 10
12.9145325262
 20
24.3958796598
 30
0.0
 10
12.4068494006
 20
24.6677772633
 30
0.0
 10
12.0339432235
 20
24.8874581125
 30
0.0
  0
SPLINE
  5
30E
100
AcDbEntity
  8
0
100
AcDbSpline
 62
7
  6
BYLAYER
 70
0
 71
3
 72
12
 73
8
 74
0
 42
0.0000001
 43
0.0000001
 44
0.0000000001
 40
0.0
 40
0.0
 40
0.0
 40
0.0
 40
0.2475435679
 40
0.49752278
 40
0.6232004046
 40
0.7491017909
 40
1.0
 40
1.0
 40
1.0
 40
1.0
 10
12.0339432235
 20
24.8874581125
 30
0.0
 10
11.7842772292
 20
25.0345375685
 30
0.0
 10
11.2905290599
 20
25.3439230561
 30
0.0
 10
10.6897281163
 20
25.7579816175
 30
0.0
 10
10.2143900277
 20
26.1026110181
 30
0.0
 10
9.7426588174
 20
26.4539630188
 30
0.0
 10
9.3921036882
 20
26.721659059
 30
0.0
 10
9.1584770477
 20
26.8996344544
 30
0.0
  0
SPLINE
  5
30F
100
AcDbEntity
  8
0
100
AcDbSpline
 62
7
  6
BYLAYER
 70
0
 71
3
 72
11
 73
7
 74
0
 42
0.0000001
 43
0.0000001
 44
0.0000000001
 40
0.0
 40
0.0
 40
0.0
 40
0.0
 40
0.2789571878
 40
0.5378324752
 40
0.7773235028
 40
1.0
 40
1.0
 40
1.0
 40
1.0
 10
23.3904766031
 20
19.3747370475
 30
0.0
 10
23.3904766031
 20
19.3036933001
 30
0.0
 10
23.3981960299
 20
19.1665287811
 30
0.0
 10
23.4357673347
 20
18.971460315
 30
0.0
 10
23.498570216
 20
18.7980252489
 30
0.0
 10
23.5586570558
 20
18.6957526862
 30
0.0
 10
23.5925062709
 20
18.6502521396
 30
0.0
  0
SPLINE
  5
310
100
AcDbEntity
  8
0
100
AcDbSpline
 62
7
  6
BYLAYER
 70
0
 71
3
 72
16
 73
12
 74
0
 42
0.0000001
 43
0.0000001
 44
0.0000000001
 40
0.0
 40
0.0
 40
0.0
 40
0.0
 40
0.1090110605
 40
0.2199118306
 40
0.3344280633
 40
0.4540068797
 40
0.5160801319
 40
0.5798028985
 40
0.7124778499
 40
0.8525525218
 40
1.0
 40
1.0
 40
1.0
 40
1.0
 10
33.6871978425
 20
31.3351137943
 30
0.0
 10
33.8016368108
 20
31.2690398478
 30
0.0
 10
34.0219805544
 20
31.1165425208
 30
0.0
 10
34.3151417747
 20
30.8342335236
 30
0.0
 10
34.5697463802
 20
30.500558501
 30
0.0
 10
34.7456889845
 20
30.1862865549
 30
0.0
 10
34.8658569691
 20
29.9140338857
 30
0.0
 10
34.9747469073
 20
29.6200572857
 30
0.0
 10
35.0826910399
 20
29.2257858158
 30
0.0
 10
35.1658581215
 20
28.7224954444
 30
0.0
 10
35.1906969487
 20
28.3743098765
 30
0.0
 10
35.196091054
 20
28.1956543479
 30
0.0
  0
SPLINE
  5
311
100
AcDbEntity
  8
0
100
AcDbSpline
 62
7
  6
BYLAYER
 70
0
 71
3
 72
15
 73
11
 74
0
 42
0.0000001
 43
0.0000001
 44
0.0000000001
 40
0.0
 40
0.0
 40
0.0
 40
0.0
 40
0.1077317932
 40
0.2185327331
 40
0.3336667967
 40
0.4541367591
 40
0.5806575929
 40
0.7137101325
 40
0.8535394441
 40
1.0
 40
1.0
 40
1.0
 40
1.0
 10
26.0151640762
 20
18.9385515362
 30
0.0
 10
26.13116879
 20
18.8932912339
 30
0.0
 10
26.3737428833
 20
18.8191146488
 30
0.0
 10
26.7560214756
 20
18.7599280031
 30
0.0
 10
27.1574389716
 20
18.7517745781
 30
0.0
 10
27.5747592295
 20
18.7945313939
 30
0.0
 10
28.0048873796
 20
18.8876211116
 30
0.0
 10
28.4446996891
 20
19.0302300942
 30
0.0
 10
28.8908154224
 20
19.2212091194
 30
0.0
 10
29.1836511032
 20
19.3761638312
 30
0.0
 10
29.330257256
 20
19.4608064278
 30
0.0
  0
SPLINE
  5
312
100
AcDbEntity
  8
0
100
AcDbSpline
 62
7
  6
BYLAYER
 70
0
 71
3
 72
15
 73
11
 74
0
 42
0.0000001
 43
0.0000001
 44
0.0000000001
 40
0.0
 40
0.0
 40
0.0
 40
0.0
 40
0.1080128123
 40
0.2180608877
 40
0.3319984268
 40
0.4513602264
 40
0.5772741036
 40
0.7104905204
 40
0.8514269206
 40
1.0
 40
1.0
 40
1.0
 40
1.0
 10
25.2741517518
 20
18.6409320379
 30
0.0
 10
25.1446260684
 20
18.7157123256
 30
0.0
 10
24.8956062827
 20
18.8894956585
 30
0.0
 10
24.5665521632
 20
19.2133172229
 30
0.0
 10
24.2835446935
 20
19.5976609725
 30
0.0
 10
24.0492596118
 20
20.0382169801
 30
0.0
 10
23.8654195155
 20
20.5304400691
 30
0.0
 10
23.7335067438
 20
21.069645182
 30
0.0
 10
23.6545690599
 20
21.6505651995
 30
0.0
 10
23.6379644181
 20
22.0517171285
 30
0.0
 10
23.6379644181
 20
22.2574426057
 30
0.0
  0
SPLINE
  5
313
100
AcDbEntity
  8
0
100
AcDbSpline
 62
7
  6
BYLAYER
 70
0
 71
3
 72
11
 73
7
 74
0
 42
0.0000001
 43
0.0000001
 44
0.0000000001
 40
0.0
 40
0.0
 40
0.0
 40
0.0
 40
0.3412116164
 40
0.6263779332
 40
0.8480485306
 40
1.0
 40
1.0
 40
1.0
 40
1.0
 10
9.15847199
 20
26.899624778
 30
0.0
 10
9.1626808371
 20
26.9068186684
 30
0.0
 10
9.1701859792
 20
26.9201518081
 30
0.0
 10
9.1795520933
 20
26.938656581
 30
0.0
 10
9.1858215912
 20
26.9534546273
 30
0.0
 10
9.1885368647
 20
26.9622632774
 30
0.0
 10
9.1889685102
 20
26.9659497569
 30
0.0
  0
SPLINE
  5
314
100
AcDbEntity
  8
0
100
AcDbSpline
 62
7
  6
BYLAYER
 70
0
 71
3
 72
9
 73
5
 74
0
 42
0.0000001
 43
0.0000001
 44
0.0000000001
 40
0.0
 40
0.0
 40
0.0
 40
0.0
 40
0.496659389
 40
1.0
 40
1.0
 40
1.0
 40
1.0
 10
7.3744413285
 20
28.6213901374
 30
0.0
 10
7.6465177658
 20
28.3184711985
 30
0.0
 10
8.2231307801
 20
27.7338025467
 30
0.0
 10
8.8562307162
 20
27.2100019437
 30
0.0
 10
9.1889688104
 20
26.9659502434
 30
0.0
  0
SPLINE
  5
315
100
AcDbEntity
  8
0
100
AcDbSpline
 62
7
  6
BYLAYER
 70
0
 71
3
 72
15
 73
11
 74
0
 42
0.0000001
 43
0.0000001
 44
0.0000000001
 40
0.0
 40
0.0
 40
0.0
 40
0.0
 40
0.1214030119
 40
0.2486794652
 40
0.3794212088
 40
0.5112214388
 40
0.6415025987
 40
0.767780807
 40
0.8879185916
 40
1.0
 40
1.0
 40
1.0
 40
1.0
 10
24.5189857574
 20
29.7850663015
 30
0.0
 10
24.4377508143
 20
29.7188164936
 30
0.0
 10
24.2798354532
 20
29.5724760772
 30
0.0
 10
24.0648706423
 20
29.3245173445
 30
0.0
 10
23.8710563276
 20
29.0486402422
 30
0.0
 10
23.7039197091
 20
28.7528774096
 30
0.0
 10
23.5682818619
 20
28.4455989106
 30
0.0
 10
23.4679214959
 20
28.135549146
 30
0.0
 10
23.4058310963
 20
27.8316324531
 30
0.0
 10
23.3904766031
 20
27.6309663725
 30
0.0
 10
23.3904766031
 20
27.5341906398
 30
0.0
  0
SPLINE
  5
316
100
AcDbEntity
  8
0
100
AcDbSpline
 62
7
  6
BYLAYER
 70
0
 71
3
 72
13
 73
9
 74
0
 42
0.0000001
 43
0.0000001
 44
0.0000000001
 40
0.0
 40
0.0
 40
0.0
 40
0.0
 40
0.2307971198
 40
0.3511743305
 40
0.4747902039
 40
0.601589081
 40
0.7314885098
 40
1.0
 40
1.0
 40
1.0
 40
1.0
 10
33.5756288442
 20
35.0138904137
 30
0.0
 10
32.80989177
 20
34.7541828254
 30
0.0
 10
31.6661547277
 20
34.2930373393
 30
0.0
 10
30.1720907808
 20
33.5610908109
 30
0.0
 10
29.0328066978
 20
32.9359251185
 30
0.0
 10
27.8936855296
 20
32.2439673835
 30
0.0
 10
26.3620986559
 20
31.223484283
 30
0.0
 10
25.2479998278
 20
30.3796016116
 30
0.0
 10
24.5189857574
 20
29.7850663015
 30
0.0
  0
SPLINE
  5
317
100
AcDbEntity
  8
0
100
AcDbSpline
 62
7
  6
BYLAYER
 70
0
 71
3
 72
28
 73
24
 74
0
 42
0.0000001
 43
0.0000001
 44
0.0000000001
 40
0.0
 40
0.0
 40
0.0
 40
0.0
 40
0.030661876
 40
0.0624015789
 40
0.1287331252
 40
0.198315454
 40
0.270282626
 40
0.3436496165
 40
0.4173710902
 40
0.4903853194
 40
0.5616619716
 40
0.6302497581
 40
0.695328461
 40
0.7562678745
 40
0.8126977321
 40
0.839219688
 40
0.8646393643
 40
0.8890228398
 40
0.9124692911
 40
0.9351108275
 40
0.9571133308
 40
0.9786707953
 40
1.0
 40
1.0
 40
1.0
 40
1.0
 10
23.6379644181
 20
22.2574426057
 30
0.0
 10
23.6379644181
 20
22.4185513857
 30
0.0
 10
23.6486194376
 20
22.7465117495
 30
0.0
 10
23.7105334077
 20
23.4203915403
 30
0.0
 10
23.8650853711
 20
24.289486196
 30
0.0
 10
24.1621073382
 20
25.3422293212
 30
0.0
 10
24.5671324643
 20
26.3979554418
 30
0.0
 10
25.0715186774
 20
27.4341040782
 30
0.0
 10
25.6645057824
 20
28.428618047
 30
0.0
 10
26.3334474486
 20
29.3602718235
 30
0.0
 10
27.0640966976
 20
30.2092169743
 30
0.0
 10
27.8409359711
 20
30.9573973115
 30
0.0
 10
28.6476769235
 20
31.5889804937
 30
0.0
 10
29.4673631436
 20
32.0904928459
 30
0.0
 10
30.1616193433
 20
32.3973316374
 30
0.0
 10
30.7068215585
 20
32.5636567161
 30
0.0
 10
31.0995516154
 20
32.647523857
 30
0.0
 10
31.482398248
 20
32.6925314523
 30
0.0
 10
31.8533210083
 20
32.6983987904
 30
0.0
 10
32.2102828433
 20
32.6648991001
 30
0.0
 10
32.5513104034
 20
32.5921907352
 30
0.0
 10
32.8743409336
 20
32.4804964215
 30
0.0
 10
33.0769605004
 20
32.3802457628
 30
0.0
 10
33.1740177124
 20
32.3242108047
 30
0.0
  0
SPLINE
  5
318
100
AcDbEntity
  8
0
100
AcDbSpline
 62
7
  6
BYLAYER
 70
0
 71
3
 72
11
 73
7
 74
0
 42
0.0000001
 43
0.0000001
 44
0.0000000001
 40
0.0
 40
0.0
 40
0.0
 40
0.0
 40
0.2470563671
 40
0.4946943281
 40
0.7451028183
 40
1.0
 40
1.0
 40
1.0
 40
1.0
 10
27.4444176507
 20
18.0891061326
 30
0.0
 10
27.4536131075
 20
18.0890037579
 30
0.0
 10
27.4721671774
 20
18.0914366181
 30
0.0
 10
27.4978089055
 20
18.1030596671
 30
0.0
 10
27.5188992139
 20
18.1221846301
 30
0.0
 10
27.5284781783
 20
18.1387833714
 30
0.0
 10
27.5319101366
 20
18.147628796
 30
0.0
  0
SPLINE
  5
319
100
AcDbEntity
  8
0
100
AcDbSpline
 62
7
  6
BYLAYER
 70
0
 71
3
 72
11
 73
7
 74
0
 42
0.0000001
 43
0.0000001
 44
0.0000000001
 40
0.0
 40
0.0
 40
0.0
 40
0.0
 40
0.2478292322
 40
0.4979282348
 40
0.7492678617
 40
1.0
 40
1.0
 40
1.0
 40
1.0
 10
12.0857484288
 20
24.9849383126
 30
0.0
 10
11.8345411854
 20
25.129988599
 30
0.0
 10
11.337454121
 20
25.4347700322
 30
0.0
 10
10.6100950291
 20
25.925058291
 30
0.0
 10
9.8951644835
 20
26.4389758046
 30
0.0
 10
9.423893307
 20
26.7900584606
 30
0.0
 10
9.1889688104
 20
26.9659502434
 30
0.0
  0
SPLINE
  5
31A
100
AcDbEntity
  8
0
100
AcDbSpline
 62
7
  6
BYLAYER
 70
0
 71
3
 72
11
 73
7
 74
0
 42
0.0000001
 43
0.0000001
 44
0.0000000001
 40
0.0
 40
0.0
 40
0.0
 40
0.0
 40
0.2473661008
 40
0.4945699342
 40
0.7445917194
 40
1.0
 40
1.0
 40
1.0
 40
1.0
 10
34.1000802712
 20
31.3243145718
 30
0.0
 10
34.011201414
 20
31.3944158642
 30
0.0
 10
33.823909879
 20
31.5229039435
 30
0.0
 10
33.5185139071
 20
31.6762721832
 30
0.0
 10
33.1918462776
 20
31.7884485749
 30
0.0
 10
32.964521096
 20
31.8348324606
 30
0.0
 10
32.8487966384
 20
31.8512096111
 30
0.0
  0
SPLINE
  5
31B
100
AcDbEntity
  8
0
100
AcDbSpline
 62
7
  6
BYLAYER
 70
0
 71
3
 72
15
 73
11
 74
0
 42
0.0000001
 43
0.0000001
 44
0.0000000001
 40
0.0
 40
0.0
 40
0.0
 40
0.0
 40
0.1134537928
 40
0.2282209283
 40
0.3454846301
 40
0.4663047435
 40
0.5915628507
 40
0.7219670405
 40
0.8580582692
 40
1.0
 40
1.0
 40
1.0
 40
1.0
 10
5.0313179784
 20
40.2807739758
 30
0.0
 10
5.0322020029
 20
40.1140342964
 30
0.0
 10
5.0597702732
 20
39.7782117171
 30
0.0
 10
5.1776957007
 20
39.282485614
 30
0.0
 10
5.3710675228
 20
38.7993391524
 30
0.0
 10
5.637968447
 20
38.3349063072
 30
0.0
 10
5.9755949831
 20
37.8946282393
 30
0.0
 10
6.3807709655
 20
37.483624205
 30
0.0
 10
6.849402884
 20
37.1066282389
 30
0.0
 10
7.1937783731
 20
36.885147292
 30
0.0
 10
7.3744413285
 20
36.7808437296
 30
0.0
  0
SPLINE
  5
31C
100
AcDbEntity
  8
0
100
AcDbSpline
 62
7
  6
BYLAYER
 70
0
 71
3
 72
15
 73
11
 74
0
 42
0.0000001
 43
0.0000001
 44
0.0000000001
 40
0.0
 40
0.0
 40
0.0
 40
0.0
 40
0.0980154486
 40
0.2032715306
 40
0.3167485388
 40
0.4387546887
 40
0.569001964
 40
0.7067349572
 40
0.8508694515
 40
1.0
 40
1.0
 40
1.0
 40
1.0
 10
32.3353442654
 20
32.4976109899
 30
0.0
 10
32.1177641783
 20
32.517046854
 30
0.0
 10
31.6615763851
 20
32.5106305549
 30
0.0
 10
30.965460765
 20
32.3770957489
 30
0.0
 10
30.2471234208
 20
32.1231232457
 30
0.0
 10
29.5183644797
 20
31.7536953162
 30
0.0
 10
28.7908273304
 20
31.2752176685
 30
0.0
 10
28.0763828522
 20
30.6958202353
 30
0.0
 10
27.3870021647
 20
30.0252689745
 30
0.0
 10
26.9574583575
 20
29.5315300972
 30
0.0
 10
26.7492239514
 20
29.2724821743
 30
0.0
  0
SPLINE
  5
31D
100
AcDbEntity
  8
0
100
AcDbSpline
 62
7
  6
BYLAYER
 70
0
 71
3
 72
11
 73
7
 74
0
 42
0.0000001
 43
0.0000001
 44
0.0000000001
 40
0.0
 40
0.0
 40
0.0
 40
0.0
 40
0.2479568392
 40
0.4990413805
 40
0.7506343953
 40
1.0
 40
1.0
 40
1.0
 40
1.0
 10
32.8487966384
 20
31.8512096111
 30
0.0
 10
32.8522938045
 20
31.8602230999
 30
0.0
 10
32.8564995032
 20
31.8795720535
 30
0.0
 10
32.8543327916
 20
31.9091308086
 30
0.0
 10
32.8442297602
 20
31.937018705
 30
0.0
 10
32.8329556057
 20
31.9532785167
 30
0.0
 10
32.8264256309
 20
31.9604825247
 30
0.0
  0
SPLINE
  5
31E
100
AcDbEntity
  8
0
100
AcDbSpline
 62
7
  6
BYLAYER
 70
0
 71
3
 72
15
 73
11
 74
0
 42
0.0000001
 43
0.0000001
 44
0.0000000001
 40
0.0
 40
0.0
 40
0.0
 40
0.0
 40
0.0993906806
 40
0.2058127749
 40
0.3199813489
 40
0.4421370127
 40
0.5720062845
 40
0.7089274035
 40
0.8520113579
 40
1.0
 40
1.0
 40
1.0
 40
1.0
 10
32.5426116954
 20
31.8785603112
 30
0.0
 10
32.3449898995
 20
31.8862877655
 30
0.0
 10
31.9336763689
 20
31.8638250049
 30
0.0
 10
31.3093888545
 20
31.7280524233
 30
0.0
 10
30.6674755514
 20
31.4919995329
 30
0.0
 10
30.0172763967
 20
31.1597136101
 30
0.0
 10
29.3679886762
 20
30.7361674915
 30
0.0
 10
28.7288949907
 20
30.2277058748
 30
0.0
 10
28.1095059539
 20
29.641858627
 30
0.0
 10
27.72100518
 20
29.21138857
 30
0.0
 10
27.5319101366
 20
28.9856476858
 30
0.0
  0
SPLINE
  5
31F
100
AcDbEntity
  8
0
100
AcDbSpline
 62
7
  6
BYLAYER
 70
0
 71
3
 72
15
 73
11
 74
0
 42
0.0000001
 43
0.0000001
 44
0.0000000001
 40
0.0
 40
0.0
 40
0.0
 40
0.0
 40
0.0992545746
 40
0.2055652589
 40
0.3196667788
 40
0.4418081284
 40
0.5717137866
 40
0.7087122443
 40
0.8519002943
 40
1.0
 40
1.0
 40
1.0
 40
1.0
 10
32.546187954
 20
31.9855188582
 30
0.0
 10
32.3452036507
 20
31.9943285718
 30
0.0
 10
31.9266095678
 20
31.9730711071
 30
0.0
 10
31.2909698032
 20
31.8363890224
 30
0.0
 10
30.6371633032
 20
31.596849536
 30
0.0
 10
29.9748197103
 20
31.2586225285
 30
0.0
 10
29.3134228605
 20
30.8268372867
 30
0.0
 10
28.6625467611
 20
30.3080457485
 30
0.0
 10
28.0320010298
 20
29.7100292754
 30
0.0
 10
27.6367433861
 20
29.2705256807
 30
0.0
 10
27.4444331276
 20
29.0400367363
 30
0.0
  0
SPLINE
  5
320
100
AcDbEntity
  8
0
100
AcDbSpline
 62
7
  6
BYLAYER
 70
0
 71
3
 72
11
 73
7
 74
0
 42
0.0000001
 43
0.0000001
 44
0.0000000001
 40
0.0
 40
0.0
 40
0.0
 40
0.0
 40
0.199824001
 40
0.4447296572
 40
0.7179432987
 40
1.0
 40
1.0
 40
1.0
 40
1.0
 10
27.5319101366
 20
28.9856476858
 30
0.0
 10
27.5279151496
 20
28.9913312571
 30
0.0
 10
27.516853624
 20
29.0024049306
 30
0.0
 10
27.4963999907
 20
29.0168001525
 30
0.0
 10
27.4717120591
 20
29.0297768804
 30
0.0
 10
27.4537316505
 20
29.0369091633
 30
0.0
 10
27.4444371598
 20
29.0400351313
 30
0.0
  0
SPLINE
  5
321
100
AcDbEntity
  8
0
100
AcDbSpline
 62
7
  6
BYLAYER
 70
0
 71
3
 72
15
 73
11
 74
0
 42
0.0000001
 43
0.0000001
 44
0.0000000001
 40
0.0
 40
0.0
 40
0.0
 40
0.0
 40
0.1298421566
 40
0.2611898165
 40
0.3925249453
 40
0.5223738123
 40
0.6492911192
 40
0.7719393733
 40
0.8891632796
 40
1.0
 40
1.0
 40
1.0
 40
1.0
 10
26.7492239514
 20
29.2724821743
 30
0.0
 10
26.5361794111
 20
29.0074503001
 30
0.0
 10
26.1286953386
 20
28.4570269326
 30
0.0
 10
25.5810950148
 20
27.5859444149
 30
0.0
 10
25.1004868683
 20
26.6760873537
 30
0.0
 10
24.6950054434
 20
25.7429728252
 30
0.0
 10
24.3715392892
 20
24.8023125782
 30
0.0
 10
24.1354899117
 20
23.8699194862
 30
0.0
 10
23.990942281
 20
22.9616113301
 30
0.0
 10
23.9561637976
 20
22.3640048097
 30
0.0
 10
23.9561637944
 20
22.0737342662
 30
0.0
  0
SPLINE
  5
322
100
AcDbEntity
  8
0
100
AcDbSpline
 62
7
  6
BYLAYER
 70
0
 71
3
 72
15
 73
11
 74
0
 42
0.0000001
 43
0.0000001
 44
0.0000000001
 40
0.0
 40
0.0
 40
0.0
 40
0.0
 40
0.129848833
 40
0.2609008955
 40
0.3917562377
 40
0.5211435234
 40
0.6477751539
 40
0.7704553054
 40
0.8881739466
 40
1.0
 40
1.0
 40
1.0
 40
1.0
 10
27.1641977778
 20
28.6914180544
 30
0.0
 10
26.9744073795
 20
28.4463753647
 30
0.0
 10
26.6112329824
 20
27.9396746661
 30
0.0
 10
26.121712885
 20
27.1420540248
 30
0.0
 10
25.6904984839
 20
26.3126410233
 30
0.0
 10
25.3240652851
 20
25.4641068151
 30
0.0
 10
25.0279774854
 20
24.6091136905
 30
0.0
 10
24.8065833912
 20
23.7604460925
 30
0.0
 10
24.6633616125
 20
22.9309638888
 30
0.0
 10
24.620164553
 20
22.3837025576
 30
0.0
 10
24.6133205009
 20
22.1168645382
 30
0.0
  0
SPLINE
  5
323
100
AcDbEntity
  8
0
100
AcDbSpline
 62
7
  6
BYLAYER
 70
0
 71
3
 72
15
 73
11
 74
0
 42
0.0000001
 43
0.0000001
 44
0.0000000001
 40
0.0
 40
0.0
 40
0.0
 40
0.0
 40
0.1298486408
 40
0.2608669126
 40
0.3916729627
 40
0.5210124356
 40
0.6476148835
 40
0.7702998228
 40
0.8880689997
 40
1.0
 40
1.0
 40
1.0
 40
1.0
 10
27.2257251936
 20
28.6047471775
 30
0.0
 10
27.0398192271
 20
28.3637736076
 30
0.0
 10
26.6840602557
 20
27.8657127146
 30
0.0
 10
26.2043798749
 20
27.0821143156
 30
0.0
 10
25.7816586553
 20
26.2676610023
 30
0.0
 10
25.4221637668
 20
25.4346368524
 30
0.0
 10
25.131284044
 20
24.5953148846
 30
0.0
 10
24.9132376839
 20
23.7620861721
 30
0.0
 10
24.771406422
 20
22.9474171374
 30
0.0
 10
24.7278019425
 20
22.4097811364
 30
0.0
 10
24.7203744142
 20
22.1475326284
 30
0.0
  0
SPLINE
  5
324
100
AcDbEntity
  8
0
100
AcDbSpline
 62
7
  6
BYLAYER
 70
0
 71
3
 72
10
 73
6
 74
0
 42
0.0000001
 43
0.0000001
 44
0.0000000001
 40
0.0
 40
0.0
 40
0.0
 40
0.0
 40
0.2662374566
 40
0.5283312355
 40
1.0
 40
1.0
 40
1.0
 40
1.0
 10
24.6133045034
 20
21.7432188352
 30
0.0
 10
24.6220804947
 20
21.7388411678
 30
0.0
 10
24.6404592632
 20
21.7318764867
 30
0.0
 10
24.6768056329
 20
21.7258469774
 30
0.0
 10
24.7053275455
 20
21.730594158
 30
0.0
 10
24.7203744142
 20
21.7392814198
 30
0.0
  0
SPLINE
  5
325
100
AcDbEntity
  8
0
100
AcDbSpline
 62
7
  6
BYLAYER
 70
0
 71
3
 72
15
 73
11
 74
0
 42
0.0000001
 43
0.0000001
 44
0.0000000001
 40
0.0
 40
0.0
 40
0.0
 40
0.0
 40
0.1485803541
 40
0.2895098932
 40
0.422725528
 40
0.5486429145
 40
0.6680035202
 40
0.7819416764
 40
0.8919920377
 40
1.0
 40
1.0
 40
1.0
 40
1.0
 10
23.9561637944
 20
22.0737342662
 30
0.0
 10
23.9561637887
 20
21.8679986721
 30
0.0
 10
23.9727611177
 20
21.4668455695
 30
0.0
 10
24.0517109294
 20
20.8859271728
 30
0.0
 10
24.1836227566
 20
20.3467287526
 30
0.0
 10
24.3674530983
 20
19.8544982492
 30
0.0
 10
24.6017577997
 20
19.4139490971
 30
0.0
 10
24.8847494382
 20
19.0295898999
 30
0.0
 10
25.2138202159
 20
18.7057885432
 30
0.0
 10
25.4628299763
 20
18.5319984729
 30
0.0
 10
25.592350737
 20
18.4572230267
 30
0.0
  0
SPLINE
  5
326
100
AcDbEntity
  8
0
100
AcDbSpline
 62
7
  6
BYLAYER
 70
0
 71
3
 72
10
 73
6
 74
0
 42
0.0000001
 43
0.0000001
 44
0.0000000001
 40
0.0
 40
0.0
 40
0.0
 40
0.0
 40
0.5085128147
 40
0.7530446073
 40
1.0
 40
1.0
 40
1.0
 40
1.0
 10
35.3541474178
 20
27.8786564789
 30
0.0
 10
35.3627917043
 20
27.8836472302
 30
0.0
 10
35.3742506715
 20
27.8942712158
 30
0.0
 10
35.3821267044
 20
27.9124589935
 30
0.0
 10
35.3835535148
 20
27.9221285216
 30
0.0
 10
35.3836788367
 20
27.9269743641
 30
0.0
  0
SPLINE
  5
327
100
AcDbEntity
  8
0
100
AcDbSpline
 62
7
  6
BYLAYER
 70
0
 71
3
 72
9
 73
5
 74
0
 42
0.0000001
 43
0.0000001
 44
0.0000000001
 40
0.0
 40
0.0
 40
0.0
 40
0.0
 40
0.2460759851
 40
1.0
 40
1.0
 40
1.0
 40
1.0
 10
7.0704181764
 20
22.9939223803
 30
0.0
 10
7.0847539118
 20
22.9713795366
 30
0.0
 10
7.144269701
 20
22.8805744197
 30
0.0
 10
7.2087098114
 20
22.7930149145
 30
0.0
 10
7.259631009
 20
22.7289343975
 30
0.0
  0
SPLINE
  5
328
100
AcDbEntity
  8
0
100
AcDbSpline
 62
7
  6
BYLAYER
 70
0
 71
3
 72
12
 73
8
 74
0
 42
0.0000001
 43
0.0000001
 44
0.0000000001
 40
0.0
 40
0.0
 40
0.0
 40
0.0
 40
0.2233044492
 40
0.341677244
 40
0.4645866142
 40
0.7237717922
 40
1.0
 40
1.0
 40
1.0
 40
1.0
 10
7.259631009
 20
22.7289343975
 30
0.0
 10
7.3825373965
 20
22.5742659053
 30
0.0
 10
7.59203101
 20
22.3540320937
 30
0.0
 10
7.9060261648
 20
22.0885515838
 30
0.0
 10
8.2631098745
 20
21.8261954823
 30
0.0
 10
8.7647974374
 20
21.5275120877
 30
0.0
 10
9.1968260939
 20
21.330998911
 30
0.0
 10
9.4238369104
 20
21.2405208488
 30
0.0
  0
SPLINE
  5
329
100
AcDbEntity
  8
0
100
AcDbSpline
 62
7
  6
BYLAYER
 70
0
 71
3
 72
18
 73
14
 74
0
 42
0.0000001
 43
0.0000001
 44
0.0000000001
 40
0.0
 40
0.0
 40
0.0
 40
0.0
 40
0.1206777147
 40
0.2474998919
 40
0.3781484242
 40
0.5100608222
 40
0.640594376
 40
0.7045629378
 40
0.767245713
 40
0.8283592609
 40
0.8876668189
 40
0.9449566375
 40
1.0
 40
1.0
 40
1.0
 40
1.0
 10
9.4238369104
 20
21.2405208488
 30
0.0
 10
9.7358922704
 20
21.1161471969
 30
0.0
 10
10.3930608193
 20
20.9028060523
 30
0.0
 10
11.4262245707
 20
20.6916732808
 30
0.0
 10
12.5068719113
 20
20.5856846127
 30
0.0
 10
13.602855896
 20
20.588041262
 30
0.0
 10
14.5084912037
 20
20.6808222354
 30
0.0
 10
15.2129962986
 20
20.8097570032
 30
0.0
 10
15.7215444612
 20
20.9316624792
 30
0.0
 10
16.2099231651
 20
21.0785372968
 30
0.0
 10
16.6745594919
 20
21.2492768791
 30
0.0
 10
17.1118288252
 20
21.4426526904
 30
0.0
 10
17.3887236927
 20
21.5886385192
 30
0.0
 10
17.5214187809
 20
21.6652496068
 30
0.0
  0
SPLINE
  5
32A
100
AcDbEntity
  8
0
100
AcDbSpline
 62
7
  6
BYLAYER
 70
0
 71
3
 72
15
 73
11
 74
0
 42
0.0000001
 43
0.0000001
 44
0.0000000001
 40
0.0
 40
0.0
 40
0.0
 40
0.0
 40
0.1449514995
 40
0.2845515954
 40
0.4184256059
 40
0.5463437928
 40
0.6682300332
 40
0.7842253749
 40
0.8946625524
 40
1.0
 40
1.0
 40
1.0
 40
1.0
 10
31.0719685614
 20
19.7709921899
 30
0.0
 10
30.9288683667
 20
19.6545636245
 30
0.0
 10
30.640831236
 20
19.4345591026
 30
0.0
 10
30.1966308917
 20
19.1400796778
 30
0.0
 10
29.7510739368
 20
18.8891732701
 30
0.0
 10
29.307487882
 20
18.6836867002
 30
0.0
 10
28.869052749
 20
18.5252117879
 30
0.0
 10
28.4388839253
 20
18.4149409682
 30
0.0
 10
28.0202393056
 20
18.3539590813
 30
0.0
 10
27.7449076198
 20
18.3462772706
 30
0.0
 10
27.6109383185
 20
18.3513136174
 30
0.0
  0
SPLINE
  5
32B
100
AcDbEntity
  8
0
100
AcDbSpline
 62
7
  6
BYLAYER
 70
0
 71
3
 72
15
 73
11
 74
0
 42
0.0000001
 43
0.0000001
 44
0.0000000001
 40
0.0
 40
0.0
 40
0.0
 40
0.0
 40
0.1457290147
 40
0.2851350695
 40
0.4180607771
 40
0.5447064034
 40
0.6654849054
 40
0.7810120579
 40
0.8921486749
 40
1.0
 40
1.0
 40
1.0
 40
1.0
 10
34.4921152676
 20
28.4014563961
 30
0.0
 10
34.4921152676
 20
28.5642699378
 30
0.0
 10
34.480794763
 20
28.8829852192
 30
0.0
 10
34.4275096461
 20
29.3475216
 30
0.0
 10
34.338416061
 20
29.7849091272
 30
0.0
 10
34.2141438822
 20
30.1920126536
 30
0.0
 10
34.0553938614
 20
30.566033867
 30
0.0
 10
33.8631337447
 20
30.9043524121
 30
0.0
 10
33.6385756402
 20
31.2043522346
 30
0.0
 10
33.4662720322
 20
31.3793586997
 30
0.0
 10
33.3757996059
 20
31.4589441816
 30
0.0
  0
SPLINE
  5
32C
100
AcDbEntity
  8
0
100
AcDbSpline
 62
7
  6
BYLAYER
 70
0
 71
3
 72
15
 73
11
 74
0
 42
0.0000001
 43
0.0000001
 44
0.0000000001
 40
0.0
 40
0.0
 40
0.0
 40
0.0
 40
0.1098410793
 40
0.2316103526
 40
0.3626990402
 40
0.4986833409
 40
0.6346997028
 40
0.7661066633
 40
0.888667618
 40
1.0
 40
1.0
 40
1.0
 40
1.0
 10
7.3744413325
 20
36.7808437299
 30
0.0
 10
7.3744413327
 20
36.8756834127
 30
0.0
 10
7.389624729
 20
37.0757917549
 30
0.0
 10
7.4517460518
 20
37.3834457847
 30
0.0
 10
7.5563469509
 20
37.7032041285
 30
0.0
 10
7.6984102806
 20
38.0216113711
 30
0.0
 10
7.8731685205
 20
38.3236041441
 30
0.0
 10
8.0697896865
 20
38.597658781
 30
0.0
 10
8.2793318434
 20
38.8341111728
 30
0.0
 10
8.4284554539
 20
38.9709662003
 30
0.0
 10
8.5029504914
 20
39.0317193868
 30
0.0
  0
SPLINE
  5
32D
100
AcDbEntity
  8
0
100
AcDbSpline
 62
7
  6
BYLAYER
 70
0
 71
3
 72
14
 73
10
 74
0
 42
0.0000001
 43
0.0000001
 44
0.0000000001
 40
0.0
 40
0.0
 40
0.0
 40
0.0
 40
0.2706045011
 40
0.4017074216
 40
0.5288289919
 40
0.6516726052
 40
0.770478768
 40
0.8861143055
 40
1.0
 40
1.0
 40
1.0
 40
1.0
 10
8.7886120619
 20
44.6292512937
 30
0.0
 10
8.7064865055
 20
44.6766652164
 30
0.0
 10
8.5788119167
 20
44.738231034
 30
0.0
 10
8.4014703965
 20
44.7930103372
 30
0.0
 10
8.2699036908
 20
44.8178148203
 30
0.0
 10
8.1404592347
 20
44.8249452273
 30
0.0
 10
8.0152621745
 20
44.8134052242
 30
0.0
 10
7.8966707633
 20
44.7821820024
 30
0.0
 10
7.8231861077
 20
44.7482544703
 30
0.0
 10
7.788623086
 20
44.7282998998
 30
0.0
  0
SPLINE
  5
32E
100
AcDbEntity
  8
0
100
AcDbSpline
 62
7
  6
BYLAYER
 70
0
 71
3
 72
12
 73
8
 74
0
 42
0.0000001
 43
0.0000001
 44
0.0000000001
 40
0.0
 40
0.0
 40
0.0
 40
0.0
 40
0.2610656634
 40
0.5137965793
 40
0.6371709348
 40
0.7589933715
 40
1.0
 40
1.0
 40
1.0
 40
1.0
 10
17.5595935649
 20
44.2605435068
 30
0.0
 10
17.6197768866
 20
44.2809553007
 30
0.0
 10
17.7413012862
 20
44.3127893323
 30
0.0
 10
17.8969117582
 20
44.3258562889
 30
0.0
 10
18.0180113083
 20
44.3162600143
 30
0.0
 10
18.1342722531
 20
44.2931626675
 30
0.0
 10
18.2174659157
 20
44.2599521479
 30
0.0
 10
18.268593048
 20
44.2311787548
 30
0.0
  0
SPLINE
  5
32F
100
AcDbEntity
  8
0
100
AcDbSpline
 62
7
  6
BYLAYER
 70
0
 71
3
 72
23
 73
19
 74
0
 42
0.0000001
 43
0.0000001
 44
0.0000000001
 40
0.0
 40
0.0
 40
0.0
 40
0.0
 40
0.0549395392
 40
0.1129428969
 40
0.1736043744
 40
0.2364547218
 40
0.3010038674
 40
0.3667557741
 40
0.4332241005
 40
0.4999487644
 40
0.5664974925
 40
0.6324799317
 40
0.6975431935
 40
0.7613768194
 40
0.8237177004
 40
0.8843668591
 40
0.9431721257
 40
1.0
 40
1.0
 40
1.0
 40
1.0
 10
17.5595964954
 20
44.2605444964
 30
0.0
 10
17.4148507899
 20
44.3441115255
 30
0.0
 10
17.1107968478
 20
44.5048275407
 30
0.0
 10
16.6286731424
 20
44.7211905614
 30
0.0
 10
16.112109789
 20
44.9172306383
 30
0.0
 10
15.5665126297
 20
45.0903326848
 30
0.0
 10
14.9974307028
 20
45.2378127313
 30
0.0
 10
14.4105672816
 20
45.3572379419
 30
0.0
 10
13.8116115883
 20
45.4461683603
 30
0.0
 10
13.2062696399
 20
45.5025991259
 30
0.0
 10
12.6001513182
 20
45.5245310957
 30
0.0
 10
11.9988155773
 20
45.510595459
 30
0.0
 10
11.4077487491
 20
45.4594226188
 30
0.0
 10
10.8323211742
 20
45.3705404754
 30
0.0
 10
10.2778246132
 20
45.2434465509
 30
0.0
 10
9.7492633641
 20
45.0786330111
 30
0.0
 10
9.2517824552
 20
44.8766879607
 30
0.0
 10
8.9383365527
 20
44.7156841704
 30
0.0
 10
8.7886119383
 20
44.6292514857
 30
0.0
  0
SPLINE
  5
330
100
AcDbEntity
  8
0
100
AcDbSpline
 62
7
  6
BYLAYER
 70
0
 71
3
 72
23
 73
19
 74
0
 42
0.0000001
 43
0.0000001
 44
0.0000000001
 40
0.0
 40
0.0
 40
0.0
 40
0.0
 40
0.0715482936
 40
0.1405389404
 40
0.207025285
 40
0.2711878218
 40
0.3332849987
 40
0.3936247565
 40
0.4525768624
 40
0.5105690647
 40
0.5680797931
 40
0.625619198
 40
0.6837218224
 40
0.742919859
 40
0.8037262164
 40
0.8665995826
 40
0.9319284641
 40
1.0
 40
1.0
 40
1.0
 40
1.0
 10
8.7886121051
 20
44.6292513186
 30
0.0
 10
8.6441636212
 20
44.5458440684
 30
0.0
 10
8.3679694742
 20
44.3684282442
 30
0.0
 10
7.9900665556
 20
44.0668032187
 30
0.0
 10
7.6599234116
 20
43.7373046349
 30
0.0
 10
7.3806044145
 20
43.3839135602
 30
0.0
 10
7.1550027757
 20
43.0105678308
 30
0.0
 10
6.9851740044
 20
42.6218916733
 30
0.0
 10
6.8732369828
 20
42.2226131928
 30
0.0
 10
6.8203219846
 20
41.8179118049
 30
0.0
 10
6.8275276841
 20
41.413074757
 30
0.0
 10
6.8949386735
 20
41.0135376255
 30
0.0
 10
7.0225507491
 20
40.6248407418
 30
0.0
 10
7.2091590647
 20
40.2522742914
 30
0.0
 10
7.4534399376
 20
39.9011581524
 30
0.0
 10
7.752763812
 20
39.5760153206
 30
0.0
 10
8.1043625866
 20
39.2814101064
 30
0.0
 10
8.365513327
 20
39.1110626363
 30
0.0
 10
8.502947575
 20
39.0317170204
 30
0.0
  0
SPLINE
  5
331
100
AcDbEntity
  8
0
100
AcDbSpline
 62
7
  6
BYLAYER
 70
0
 71
3
 72
21
 73
17
 74
0
 42
0.0000001
 43
0.0000001
 44
0.0000000001
 40
0.0
 40
0.0
 40
0.0
 40
0.0
 40
0.136398723
 40
0.2711200963
 40
0.4037324648
 40
0.5335864271
 40
0.5971816735
 40
0.6596460769
 40
0.7207149966
 40
0.7800102119
 40
0.8369754991
 40
0.890842624
 40
0.9165326551
 40
0.941765381
 40
0.9682639607
 40
1.0
 40
1.0
 40
1.0
 40
1.0
 10
9.3710925579
 20
16.4638490122
 30
0.0
 10
9.39000048
 20
16.4546213327
 30
0.0
 10
9.427743439
 20
16.4366035762
 30
0.0
 10
9.4845130303
 20
16.4109862743
 30
0.0
 10
9.5410389813
 20
16.3873342963
 30
0.0
 10
9.5881388467
 20
16.3696381275
 30
0.0
 10
9.6256298537
 20
16.3572647594
 30
0.0
 10
9.6533397842
 20
16.3491550772
 30
0.0
 10
9.6807382758
 20
16.3424335822
 30
0.0
 10
9.7076779077
 20
16.337520816
 30
0.0
 10
9.7338338551
 20
16.3351260578
 30
0.0
 10
9.755059113
 20
16.3362204621
 30
0.0
 10
9.7706907355
 20
16.3406500219
 30
0.0
 10
9.781263491
 20
16.3465894439
 30
0.0
 10
9.7895408622
 20
16.357016705
 30
0.0
 10
9.7911219328
 20
16.3662565746
 30
0.0
 10
9.7911219328
 20
16.3711518526
 30
0.0
  0
SPLINE
  5
332
100
AcDbEntity
  8
0
100
AcDbSpline
 62
7
  6
BYLAYER
 70
0
 71
3
 72
9
 73
5
 74
0
 42
0.0000001
 43
0.0000001
 44
0.0000000001
 40
0.0
 40
0.0
 40
0.0
 40
0.0
 40
0.496555836
 40
1.0
 40
1.0
 40
1.0
 40
1.0
 10
18.7812605376
 20
19.1136131701
 30
0.0
 10
18.7812602619
 20
19.0205915791
 30
0.0
 10
18.767557105
 20
18.8330093271
 30
0.0
 10
18.7269863993
 20
18.6494074639
 30
0.0
 10
18.7004224953
 20
18.5589137429
 30
0.0
  0
SPLINE
  5
333
100
AcDbEntity
  8
0
100
AcDbSpline
 62
7
  6
BYLAYER
 70
0
 71
3
 72
14
 73
10
 74
0
 42
0.0000001
 43
0.0000001
 44
0.0000000001
 40
0.0
 40
0.0
 40
0.0
 40
0.0
 40
0.1088573178
 40
0.2211812653
 40
0.3377548529
 40
0.4591905086
 40
0.7181136345
 40
0.8562596325
 40
1.0
 40
1.0
 40
1.0
 40
1.0
 10
18.7004224953
 20
18.5589137429
 30
0.0
 10
18.6760945872
 20
18.4760372605
 30
0.0
 10
18.616105561
 20
18.3105751197
 30
0.0
 10
18.4957354979
 20
18.0705387929
 30
0.0
 10
18.3446530359
 20
17.8365793673
 30
0.0
 10
18.0982698586
 20
17.5280617714
 30
0.0
 10
17.7972016656
 20
17.2441841562
 30
0.0
 10
17.4534794396
 20
16.9869866728
 30
0.0
 10
17.2651301751
 20
16.8659203612
 30
0.0
 10
17.1672362258
 20
16.8074009852
 30
0.0
  0
SPLINE
  5
334
100
AcDbEntity
  8
0
100
AcDbSpline
 62
7
  6
BYLAYER
 70
0
 71
3
 72
10
 73
6
 74
0
 42
0.0000001
 43
0.0000001
 44
0.0000000001
 40
0.0
 40
0.0
 40
0.0
 40
0.0
 40
0.2483403149
 40
0.4986604462
 40
1.0
 40
1.0
 40
1.0
 40
1.0
 10
14.1725267683
 20
17.4720806502
 30
0.0
 10
14.1936949059
 20
17.459861853
 30
0.0
 10
14.2381425401
 20
17.4385850147
 30
0.0
 10
14.3316005934
 20
17.4073369002
 30
0.0
 10
14.4054996702
 20
17.3957079198
 30
0.0
 10
14.4547988927
 20
17.3936629817
 30
0.0
  0
SPLINE
  5
335
100
AcDbEntity
  8
0
100
AcDbSpline
 62
7
  6
BYLAYER
 70
0
 71
3
 72
15
 73
11
 74
0
 42
0.0000001
 43
0.0000001
 44
0.0000000001
 40
0.0
 40
0.0
 40
0.0
 40
0.0
 40
0.2280639965
 40
0.431316774
 40
0.606180883
 40
0.749352556
 40
0.8598177075
 40
0.9377732976
 40
0.9836326977
 40
1.0
 40
1.0
 40
1.0
 40
1.0
 10
9.9883185832
 20
21.710403991
 30
0.0
 10
9.9883185832
 20
21.7043697963
 30
0.0
 10
9.9882805459
 20
21.6929599673
 30
0.0
 10
9.9880884182
 20
21.6769138676
 30
0.0
 10
9.9877892364
 20
21.663149181
 30
0.0
 10
9.9873439306
 20
21.6517507731
 30
0.0
 10
9.9868852499
 20
21.6431649279
 30
0.0
 10
9.9861591498
 20
21.6366070854
 30
0.0
 10
9.9857817473
 20
21.6336115174
 30
0.0
 10
9.9849580591
 20
21.6313373034
 30
0.0
 10
9.9845398058
 20
21.6314495437
 30
0.0
  0
SPLINE
  5
336
100
AcDbEntity
  8
0
100
AcDbSpline
 62
7
  6
BYLAYER
 70
0
 71
3
 72
15
 73
11
 74
0
 42
0.0000001
 43
0.0000001
 44
0.0000000001
 40
0.0
 40
0.0
 40
0.0
 40
0.0
 40
0.0163802912
 40
0.0623163395
 40
0.1403766578
 40
0.2508868574
 40
0.3939619003
 40
0.5687302998
 40
0.7719488814
 40
1.0
 40
1.0
 40
1.0
 40
1.0
 10
16.0780596384
 20
21.6314632349
 30
0.0
 10
16.0776410982
 20
21.6313507271
 30
0.0
 10
16.0768174102
 20
21.6336296303
 30
0.0
 10
16.07644043
 20
21.6366282232
 30
0.0
 10
16.0757144343
 20
21.6431932442
 30
0.0
 10
16.0752557203
 20
21.651780251
 30
0.0
 10
16.0748100425
 20
21.6631748564
 30
0.0
 10
16.0745111924
 20
21.6769336354
 30
0.0
 10
16.0743195259
 20
21.6929760725
 30
0.0
 10
16.0742816367
 20
21.704384727
 30
0.0
 10
16.0742816367
 20
21.7104186198
 30
0.0
  0
SPLINE
  5
337
100
AcDbEntity
  8
0
100
AcDbSpline
 62
7
  6
BYLAYER
 70
0
 71
3
 72
11
 73
7
 74
0
 42
0.0000001
 43
0.0000001
 44
0.0000000001
 40
0.0
 40
0.0
 40
0.0
 40
0.0
 40
0.2294494319
 40
0.4597629136
 40
0.7121603243
 40
1.0
 40
1.0
 40
1.0
 40
1.0
 10
10.4790878787
 20
21.5132075807
 30
0.0
 10
10.4696782891
 20
21.5152253944
 30
0.0
 10
10.4512497671
 20
21.5224307111
 30
0.0
 10
10.4291997709
 20
21.5437179543
 30
0.0
 10
10.4158698282
 20
21.573877227
 30
0.0
 10
10.413303901
 20
21.5967004703
 30
0.0
 10
10.413303901
 20
21.6087729694
 30
0.0
  0
SPLINE
  5
338
100
AcDbEntity
  8
0
100
AcDbSpline
 62
7
  6
BYLAYER
 70
0
 71
3
 72
11
 73
7
 74
0
 42
0.0000001
 43
0.0000001
 44
0.0000000001
 40
0.0
 40
0.0
 40
0.0
 40
0.0
 40
0.2878942834
 40
0.5404009414
 40
0.7706216972
 40
1.0
 40
1.0
 40
1.0
 40
1.0
 10
15.6492977846
 20
21.6087855552
 30
0.0
 10
15.6492977846
 20
21.5967106968
 30
0.0
 10
15.6467172632
 20
21.5738835739
 30
0.0
 10
15.6334013007
 20
21.5437140639
 30
0.0
 10
15.6113414235
 20
21.5224370099
 30
0.0
 10
15.5929192827
 20
21.5152390058
 30
0.0
 10
15.5835127067
 20
21.5132211054
 30
0.0
  0
SPLINE
  5
339
100
AcDbEntity
  8
0
100
AcDbSpline
 62
7
  6
BYLAYER
 70
0
 71
3
 72
11
 73
7
 74
0
 42
0.0000001
 43
0.0000001
 44
0.0000000001
 40
0.0
 40
0.0
 40
0.0
 40
0.0
 40
0.2478796502
 40
0.4902421963
 40
0.7378757294
 40
1.0
 40
1.0
 40
1.0
 40
1.0
 10
8.7796473701
 20
22.0333975774
 30
0.0
 10
8.7696306862
 20
22.0375138513
 30
0.0
 10
8.7507183095
 20
22.0482115477
 30
0.0
 10
8.7281265285
 20
22.0719389056
 30
0.0
 10
8.7140705875
 20
22.1022466938
 30
0.0
 10
8.7111101701
 20
22.124678142
 30
0.0
 10
8.7111101701
 20
22.136129949
 30
0.0
  0
SPLINE
  5
33A
100
AcDbEntity
  8
0
100
AcDbSpline
 62
7
  6
BYLAYER
 70
0
 71
3
 72
11
 73
7
 74
0
 42
0.0000001
 43
0.0000001
 44
0.0000000001
 40
0.0
 40
0.0
 40
0.0
 40
0.0
 40
0.2724065105
 40
0.5297479078
 40
0.7719394084
 40
1.0
 40
1.0
 40
1.0
 40
1.0
 10
17.5214187809
 20
19.7464689266
 30
0.0
 10
17.6747792517
 20
19.8350111071
 30
0.0
 10
17.9656201036
 20
20.0205579713
 30
0.0
 10
18.3599697375
 20
20.332438843
 30
0.0
 10
18.6958523844
 20
20.6670069982
 30
0.0
 10
18.883496057
 20
20.9097983679
 30
0.0
 10
18.9651577502
 20
21.0335379188
 30
0.0
  0
SPLINE
  5
33B
100
AcDbEntity
  8
0
100
AcDbSpline
 62
7
  6
BYLAYER
 70
0
 71
3
 72
12
 73
8
 74
0
 42
0.0000001
 43
0.0000001
 44
0.0000000001
 40
0.0
 40
0.0
 40
0.0
 40
0.0
 40
0.1639089312
 40
0.2671128537
 40
0.3877854546
 40
0.6765366995
 40
1.0
 40
1.0
 40
1.0
 40
1.0
 10
18.713923189
 20
20.1583475989
 30
0.0
 10
18.7098585716
 20
20.1431512557
 30
0.0
 10
18.6963315328
 20
20.1201357909
 30
0.0
 10
18.6692858303
 20
20.0944617027
 30
0.0
 10
18.6279601419
 20
20.0672796024
 30
0.0
 10
18.5609158038
 20
20.0431402607
 30
0.0
 10
18.5020408358
 20
20.0363652867
 30
0.0
 10
18.4709991317
 20
20.0360633944
 30
0.0
  0
SPLINE
  5
33C
100
AcDbEntity
  8
0
100
AcDbSpline
 62
7
  6
BYLAYER
 70
0
 71
3
 72
11
 73
7
 74
0
 42
0.0000001
 43
0.0000001
 44
0.0000000001
 40
0.0
 40
0.0
 40
0.0
 40
0.0
 40
0.2780350816
 40
0.5367175952
 40
0.7766225535
 40
1.0
 40
1.0
 40
1.0
 40
1.0
 10
17.0971529458
 20
17.9093322156
 30
0.0
 10
17.2685254306
 20
18.0082735752
 30
0.0
 10
17.5893409084
 20
18.2175819806
 30
0.0
 10
18.0108579907
 20
18.5778690396
 30
0.0
 10
18.3483356006
 20
18.968131513
 30
0.0
 10
18.5184243215
 20
19.2533152079
 30
0.0
 10
18.5853517233
 20
19.3975240268
 30
0.0
  0
SPLINE
  5
33D
100
AcDbEntity
  8
0
100
AcDbSpline
 62
7
  6
BYLAYER
 70
0
 71
3
 72
13
 73
9
 74
0
 42
0.0000001
 43
0.0000001
 44
0.0000000001
 40
0.0
 40
0.0
 40
0.0
 40
0.0
 40
0.2403855018
 40
0.3729835951
 40
0.5089231602
 40
0.6433435655
 40
0.7723003437
 40
1.0
 40
1.0
 40
1.0
 40
1.0
 10
18.5853492728
 20
19.397525853
 30
0.0
 10
18.5853501507
 20
19.4270280978
 30
0.0
 10
18.5732395604
 20
19.4732883753
 30
0.0
 10
18.5397683299
 20
19.5262400801
 30
0.0
 10
18.5061594123
 20
19.5629253734
 30
0.0
 10
18.4670477412
 20
19.5928328931
 30
0.0
 10
18.4140676842
 20
19.6218839355
 30
0.0
 10
18.3714873384
 20
19.6347372995
 30
0.0
 10
18.3438705391
 20
19.6390097214
 30
0.0
  0
SPLINE
  5
33E
100
AcDbEntity
  8
0
100
AcDbSpline
 62
7
  6
BYLAYER
 70
0
 71
3
 72
11
 73
7
 74
0
 42
0.0000001
 43
0.0000001
 44
0.0000000001
 40
0.0
 40
0.0
 40
0.0
 40
0.0
 40
0.265163811
 40
0.521754512
 40
0.7673479168
 40
1.0
 40
1.0
 40
1.0
 40
1.0
 10
14.5195046599
 20
17.0501201422
 30
0.0
 10
14.7530499004
 20
17.0862498018
 30
0.0
 10
15.2101036216
 20
17.1748827865
 30
0.0
 10
15.8694978379
 20
17.3592427521
 30
0.0
 10
16.483125343
 20
17.5905415835
 30
0.0
 10
16.8664281346
 20
17.7789984121
 30
0.0
 10
17.0470792183
 20
17.8807740481
 30
0.0
  0
SPLINE
  5
33F
100
AcDbEntity
  8
0
100
AcDbSpline
 62
7
  6
BYLAYER
 70
0
 71
3
 72
16
 73
12
 74
0
 42
0.0000001
 43
0.0000001
 44
0.0000000001
 40
0.0
 40
0.0
 40
0.0
 40
0.0
 40
0.057330914
 40
0.1143584004
 40
0.1716143622
 40
0.2295364219
 40
0.348096807
 40
0.4711556568
 40
0.5984630251
 40
0.7294894886
 40
1.0
 40
1.0
 40
1.0
 40
1.0
 10
13.9088272934
 20
17.3841409718
 30
0.0
 10
13.9088282355
 20
17.3692217373
 30
0.0
 10
13.9114075472
 20
17.3393924742
 30
0.0
 10
13.923050953
 20
17.296056839
 30
0.0
 10
13.9418546373
 20
17.2551558107
 30
0.0
 10
13.975656389
 20
17.2043367021
 30
0.0
 10
14.0322882622
 20
17.1494073559
 30
0.0
 10
14.1149436308
 20
17.0993785749
 30
0.0
 10
14.2083539534
 20
17.0643355988
 30
0.0
 10
14.3436541553
 20
17.0370997757
 30
0.0
 10
14.4499393003
 20
17.039344385
 30
0.0
 10
14.5195046599
 20
17.0501201422
 30
0.0
  0
SPLINE
  5
340
100
AcDbEntity
  8
0
100
AcDbSpline
 62
7
  6
BYLAYER
 70
0
 71
3
 72
15
 73
11
 74
0
 42
0.0000001
 43
0.0000001
 44
0.0000000001
 40
0.0
 40
0.0
 40
0.0
 40
0.0
 40
0.1273995196
 40
0.2702467956
 40
0.4204727829
 40
0.568375015
 40
0.7047328972
 40
0.8239617022
 40
0.9223294039
 40
1.0
 40
1.0
 40
1.0
 40
1.0
 10
14.5195042495
 20
17.0501220118
 30
0.0
 10
14.5195043407
 20
17.0650517148
 30
0.0
 10
14.5184064779
 20
17.0967230332
 30
0.0
 10
14.5142540876
 20
17.1458394825
 30
0.0
 10
14.5074426183
 20
17.1970837004
 30
0.0
 10
14.4986256694
 20
17.2472474497
 30
0.0
 10
14.4883036882
 20
17.2934082702
 30
0.0
 10
14.4773653037
 20
17.3334382511
 30
0.0
 10
14.4664252522
 20
17.3662835915
 30
0.0
 10
14.4586303402
 20
17.38540946
 30
0.0
 10
14.4547985305
 20
17.3936656609
 30
0.0
  0
SPLINE
  5
341
100
AcDbEntity
  8
0
100
AcDbSpline
 62
7
  6
BYLAYER
 70
0
 71
3
 72
14
 73
10
 74
0
 42
0.0000001
 43
0.0000001
 44
0.0000000001
 40
0.0
 40
0.0
 40
0.0
 40
0.0
 40
0.2667751799
 40
0.4051874653
 40
0.5418125379
 40
0.6717277842
 40
0.7911918466
 40
0.8995883957
 40
1.0
 40
1.0
 40
1.0
 40
1.0
 10
13.9088279328
 20
17.3841314033
 30
0.0
 10
13.9333230922
 20
17.3863155492
 30
0.0
 10
13.9703827309
 20
17.3929058862
 30
0.0
 10
14.0177130718
 20
17.4091454337
 30
0.0
 10
14.0512494357
 20
17.425842101
 30
0.0
 10
14.0803595513
 20
17.4466274451
 30
0.0
 10
14.1029636857
 20
17.4710541177
 30
0.0
 10
14.1173039064
 20
17.498156791
 30
0.0
 10
14.1206627624
 20
17.5175251853
 30
0.0
 10
14.120661152
 20
17.5267815058
 30
0.0
  0
SPLINE
  5
342
100
AcDbEntity
  8
0
100
AcDbSpline
 62
7
  6
BYLAYER
 70
0
 71
3
 72
16
 73
12
 74
0
 42
0.0000001
 43
0.0000001
 44
0.0000000001
 40
0.0
 40
0.0
 40
0.0
 40
0.0
 40
0.061978795
 40
0.1295496935
 40
0.1969009976
 40
0.2630890553
 40
0.3921551261
 40
0.5178192705
 40
0.6409499804
 40
0.7621192431
 40
1.0
 40
1.0
 40
1.0
 40
1.0
 10
8.2811487591
 20
17.2429155489
 30
0.0
 10
8.2811487591
 20
17.2340673279
 30
0.0
 10
8.2863865105
 20
17.215753867
 30
0.0
 10
8.2998236287
 20
17.1910807833
 30
0.0
 10
8.3164055238
 20
17.1675593686
 30
0.0
 10
8.3401946943
 20
17.1385696456
 30
0.0
 10
8.371813075
 20
17.1053367834
 30
0.0
 10
8.4112013655
 20
17.0684583753
 30
0.0
 10
8.4511945892
 20
17.0339410747
 30
0.0
 10
8.5046515256
 20
16.9905613697
 30
0.0
 10
8.5455920928
 20
16.9596870576
 30
0.0
 10
8.5730383014
 20
16.9396867846
 30
0.0
  0
SPLINE
  5
343
100
AcDbEntity
  8
0
100
AcDbSpline
 62
7
  6
BYLAYER
 70
0
 71
3
 72
12
 73
8
 74
0
 42
0.0000001
 43
0.0000001
 44
0.0000000001
 40
0.0
 40
0.0
 40
0.0
 40
0.0
 40
0.1141971386
 40
0.2295721934
 40
0.4679337548
 40
0.723258321
 40
1.0
 40
1.0
 40
1.0
 40
1.0
 10
34.2899019762
 20
34.981649666
 30
0.0
 10
34.2656256967
 20
34.9956629005
 30
0.0
 10
34.2149816649
 20
35.0207801039
 30
0.0
 10
34.10629386
 20
35.0586736697
 30
0.0
 10
33.9570037095
 20
35.0813279542
 30
0.0
 10
33.7671465135
 20
35.0684474317
 30
0.0
 10
33.6399578526
 20
35.0357082572
 30
0.0
 10
33.5756288442
 20
35.0138904137
 30
0.0
  0
SPLINE
  5
344
100
AcDbEntity
  8
0
100
AcDbSpline
 62
7
  6
BYLAYER
 70
0
 71
3
 72
11
 73
7
 74
0
 42
0.0000001
 43
0.0000001
 44
0.0000000001
 40
0.0
 40
0.0
 40
0.0
 40
0.0
 40
0.2786315281
 40
0.5375385444
 40
0.7772326334
 40
1.0
 40
1.0
 40
1.0
 40
1.0
 10
16.8724789056
 20
18.1882015004
 30
0.0
 10
17.0421938024
 20
18.2838158816
 30
0.0
 10
17.3598657419
 20
18.4865876223
 30
0.0
 10
17.7772216191
 20
18.8373323807
 30
0.0
 10
18.1107755173
 20
19.2184346552
 30
0.0
 10
18.2783078008
 20
19.4977382328
 30
0.0
 10
18.3438699974
 20
19.6390058281
 30
0.0
  0
SPLINE
  5
345
100
AcDbEntity
  8
0
100
AcDbSpline
 62
7
  6
BYLAYER
 70
0
 71
3
 72
11
 73
7
 74
0
 42
0.0000001
 43
0.0000001
 44
0.0000000001
 40
0.0
 40
0.0
 40
0.0
 40
0.0
 40
0.2651635728
 40
0.5217540791
 40
0.7673476735
 40
1.0
 40
1.0
 40
1.0
 40
1.0
 10
14.4547988926
 20
17.3936629817
 30
0.0
 10
14.6781897536
 20
17.4282217496
 30
0.0
 10
15.1153709269
 20
17.5130023152
 30
0.0
 10
15.746095112
 20
17.6893477998
 30
0.0
 10
16.333043583
 20
17.9105890565
 30
0.0
 10
16.6996820655
 20
18.0908508068
 30
0.0
 10
16.8724789056
 20
18.1882015004
 30
0.0
  0
SPLINE
  5
346
100
AcDbEntity
  8
0
100
AcDbSpline
 62
7
  6
BYLAYER
 70
0
 71
3
 72
9
 73
5
 74
0
 42
0.0000001
 43
0.0000001
 44
0.0000000001
 40
0.0
 40
0.0
 40
0.0
 40
0.0
 40
0.4467120908
 40
1.0
 40
1.0
 40
1.0
 40
1.0
 10
18.3438699974
 20
19.639005828
 30
0.0
 10
18.3399033386
 20
19.6708211616
 30
0.0
 10
18.3297452757
 20
19.741879245
 30
0.0
 10
18.3187722568
 20
19.8128065811
 30
0.0
 10
18.312999122
 20
19.8520955659
 30
0.0
  0
SPLINE
  5
347
100
AcDbEntity
  8
0
100
AcDbSpline
 62
7
  6
BYLAYER
 70
0
 71
3
 72
11
 73
7
 74
0
 42
0.0000001
 43
0.0000001
 44
0.0000000001
 40
0.0
 40
0.0
 40
0.0
 40
0.0
 40
0.2449200398
 40
0.4919721073
 40
0.7431202626
 40
1.0
 40
1.0
 40
1.0
 40
1.0
 10
33.4922174748
 20
32.1405031397
 30
0.0
 10
33.405972869
 20
32.1902942222
 30
0.0
 10
33.2268815168
 20
32.2805373809
 30
0.0
 10
32.9428810988
 20
32.3854542418
 30
0.0
 10
32.6443861291
 20
32.4597289129
 30
0.0
 10
32.4393784514
 20
32.4883178805
 30
0.0
 10
32.3353442654
 20
32.4976109899
 30
0.0
  0
SPLINE
  5
348
100
AcDbEntity
  8
0
100
AcDbSpline
 62
7
  6
BYLAYER
 70
0
 71
3
 72
15
 73
11
 74
0
 42
0.0000001
 43
0.0000001
 44
0.0000000001
 40
0.0
 40
0.0
 40
0.0
 40
0.0
 40
0.1261363559
 40
0.2650046935
 40
0.4069665701
 40
0.5453535303
 40
0.6761128474
 40
0.7966901213
 40
0.9052109118
 40
1.0
 40
1.0
 40
1.0
 40
1.0
 10
18.713919279
 20
20.158345564
 30
0.0
 10
18.713921347
 20
20.1257137987
 30
0.0
 10
18.7120226688
 20
20.0571545796
 30
0.0
 10
18.7050963299
 20
19.9520796682
 30
0.0
 10
18.6940610688
 20
19.8441647599
 30
0.0
 10
18.6792361124
 20
19.7388196937
 30
0.0
 10
18.6609104555
 20
19.6396412443
 30
0.0
 10
18.6393752587
 20
19.5490174431
 30
0.0
 10
18.6149727731
 20
19.4688016184
 30
0.0
 10
18.5956796708
 20
19.4197651957
 30
0.0
 10
18.5853517233
 20
19.3975240268
 30
0.0
  0
SPLINE
  5
349
100
AcDbEntity
  8
0
100
AcDbSpline
 62
7
  6
BYLAYER
 70
0
 71
3
 72
14
 73
10
 74
0
 42
0.0000001
 43
0.0000001
 44
0.0000000001
 40
0.0
 40
0.0
 40
0.0
 40
0.0
 40
0.1419500691
 40
0.2780248959
 40
0.5333296458
 40
0.6541551383
 40
0.7714837034
 40
0.8863714892
 40
1.0
 40
1.0
 40
1.0
 40
1.0
 10
8.2811487591
 20
17.2429155489
 30
0.0
 10
8.2020994514
 20
17.3098216442
 30
0.0
 10
8.0522595339
 20
17.4470005492
 30
0.0
 10
7.7886546062
 20
17.7335619377
 30
0.0
 10
7.5742176631
 20
18.0434434844
 30
0.0
 10
7.4217306049
 20
18.3703254477
 30
0.0
 10
7.3409087255
 20
18.615579807
 30
0.0
 10
7.2921395853
 20
18.8637931703
 30
0.0
 10
7.2812832692
 20
19.0307131217
 30
0.0
 10
7.2812835148
 20
19.1136131701
 30
0.0
  0
SPLINE
  5
34A
100
AcDbEntity
  8
0
100
AcDbSpline
 62
7
  6
BYLAYER
 70
0
 71
3
 72
18
 73
14
 74
0
 42
0.0000001
 43
0.0000001
 44
0.0000000001
 40
0.0
 40
0.0
 40
0.0
 40
0.0
 40
0.0553865924
 40
0.1129391834
 40
0.1724353205
 40
0.2336677913
 40
0.3603252498
 40
0.4907156253
 40
0.6223673491
 40
0.7527318524
 40
0.8793394635
 40
0.9405673559
 40
1.0
 40
1.0
 40
1.0
 40
1.0
 10
17.024520801
 20
16.7250339237
 30
0.0
 10
16.9043656826
 20
16.6580857021
 30
0.0
 10
16.6542325227
 20
16.530605779
 30
0.0
 10
16.2603304994
 20
16.361917704
 30
0.0
 10
15.8429896572
 20
16.2132564881
 30
0.0
 10
15.2529103206
 20
16.041218488
 30
0.0
 10
14.4765999513
 20
15.8839879666
 30
0.0
 10
13.514381879
 20
15.7896099009
 30
0.0
 10
12.5382842167
 20
15.7900917168
 30
0.0
 10
11.5763531176
 20
15.8854299812
 30
0.0
 10
10.8003884901
 20
16.0434270813
 30
0.0
 10
10.2108215155
 20
16.2161159197
 30
0.0
 10
9.9284519097
 20
16.3170694106
 30
0.0
 10
9.7911219328
 20
16.3711518526
 30
0.0
  0
SPLINE
  5
34B
100
AcDbEntity
  8
0
100
AcDbSpline
 62
7
  6
BYLAYER
 70
0
 71
3
 72
9
 73
5
 74
0
 42
0.0000001
 43
0.0000001
 44
0.0000000001
 40
0.0
 40
0.0
 40
0.0
 40
0.0
 40
0.5064534054
 40
1.0
 40
1.0
 40
1.0
 40
1.0
 10
34.8076799912
 20
30.6045346343
 30
0.0
 10
34.7611831739
 20
30.6846807969
 30
0.0
 10
34.6627226512
 20
30.8391846843
 30
0.0
 10
34.5507715352
 20
30.9842591187
 30
0.0
 10
34.4922798895
 20
31.0530491913
 30
0.0
  0
SPLINE
  5
34C
100
AcDbEntity
  8
0
100
AcDbSpline
 62
7
  6
BYLAYER
 70
0
 71
3
 72
14
 73
10
 74
0
 42
0.0000001
 43
0.0000001
 44
0.0000000001
 40
0.0
 40
0.0
 40
0.0
 40
0.0
 40
0.1268567205
 40
0.2517895688
 40
0.3754715527
 40
0.4986276641
 40
0.6219994417
 40
0.746312043
 40
1.0
 40
1.0
 40
1.0
 40
1.0
 10
34.4922798895
 20
31.0530491913
 30
0.0
 10
34.4391333617
 20
31.1155530491
 30
0.0
 10
34.328227761
 20
31.2351361893
 30
0.0
 10
34.1474818545
 20
31.3977956293
 30
0.0
 10
33.9543299299
 20
31.5415884938
 30
0.0
 10
33.7494060825
 20
31.6660902887
 30
0.0
 10
33.5332657432
 20
31.7709175367
 30
0.0
 10
33.2292416837
 20
31.8846567456
 30
0.0
 10
32.9889897182
 20
31.9383074037
 30
0.0
 10
32.8264233138
 20
31.9604861798
 30
0.0
  0
ELLIPSE
  5
34D
100
AcDbEntity
  8
0
100
AcDbEllipse
 62
7
  6
BYLAYER
 10
29.5422841084
 20
25.2988630818
 30
0.0
 11
9.1533503352
 21
-9.2311650332
 31
0.0
 40
0.5142831053
 41
-1.3453285794
 42
-1.3110753063
  0
ELLIPSE
  5
34E
100
AcDbEntity
  8
0
100
AcDbEllipse
 62
7
  6
BYLAYER
 10
29.5422841084
 20
25.2988630818
 30
0.0
 11
14.8346427837
 21
-14.0052828808
 31
0.0
 40
0.2808970456
 41
4.6428575302
 42
4.6628469554
  0
ELLIPSE
  5
34F
100
AcDbEntity
  8
0
100
AcDbEllipse
 62
7
  6
BYLAYER
 10
29.5422841084
 20
25.2988630818
 30
0.0
 11
15.3443503722
 21
-1.314676855
 31
0.0
 40
0.2334929648
 41
1.2135243477
 42
1.2477776208
  0
ELLIPSE
  5
350
100
AcDbEntity
  8
0
100
AcDbEllipse
 62
7
  6
BYLAYER
 10
29.5422841084
 20
25.2988630818
 30
0.0
 11
19.0907442937
 21
-3.3473986706
 31
0.0
 40
0.1658427529
 41
1.7011642489
 42
1.735417522
  0
ELLIPSE
  5
351
100
AcDbEntity
  8
0
100
AcDbEllipse
 62
7
  6
BYLAYER
 10
29.5422841084
 20
25.2988630818
 30
0.0
 11
18.8553803984
 21
-8.9026918941
 31
0.0
 40
0.3414278156
 41
7.8440103727
 42
7.8582116758
  0
ELLIPSE
  5
352
100
AcDbEntity
  8
0
100
AcDbEllipse
 62
7
  6
BYLAYER
 10
29.5422841084
 20
25.2988630818
 30
0.0
 11
14.8346427837
 21
-14.0052828808
 31
0.0
 40
0.2808970456
 41
1.4527477556
 42
1.4870010287
  0
ELLIPSE
  5
353
100
AcDbEntity
  8
0
100
AcDbEllipse
 62
7
  6
BYLAYER
 10
29.5422841084
 20
25.2988630818
 30
0.0
 11
18.8553803984
 21
-8.9026918941
 31
0.0
 40
0.3414278156
 41
-1.546514315
 42
-1.5122610419
  0
ENDSEC
  0
SECTION
  2
OBJECTS
  0
DICTIONARY
  5
C
100
AcDbDictionary
280
0
281
1
  3
ACAD_GROUP
350
D
  3
ACAD_MLINESTYLE
350
17
  3
ACAD_LAYOUT
350
1A
  3
ACAD_PLOTSETTINGS
350
19
  3
ACAD_PLOTSTYLENAME
350
E
  0
DICTIONARY
  5
D
102
{ACAD_REACTORS
330
C
102
}
100
AcDbDictionary
280
0
281
1
  0
ACDBDICTIONARYWDFLT
  5
E
102
{ACAD_REACTORS
330
C
102
}
100
AcDbDictionary
281
1
  3
Normal
350
F
100
AcDbDictionaryWithDefault
340
F
  0
DICTIONARY
  5
17
102
{ACAD_REACTORS
330
C
102
}
100
AcDbDictionary
280
0
281
1
  3
Standard
350
18
  0
DICTIONARY
  5
19
102
{ACAD_REACTORS
330
C
102
}
100
AcDbDictionary
281
1
  0
DICTIONARY
  5
1A
102
{ACAD_REACTORS
330
C
102
}
100
AcDbDictionary
281
1
  3
Model
350
354
  3
Layout1
350
355
  0
ACDBPLACEHOLDER
  5
F
102
{ACAD_REACTORS
330
E
102
}
  0
MLINESTYLE
  5
18
102
{ACAD_REACTORS
330
17
102
}
100
AcDbMlineStyle
  2
STANDARD
 70
0
  3

 62
256
 51
90.0
 52
90.0
 71
2
 49
0.5
 62
256
  6
BYLAYER
 49
-0.5
 62
256
  6
BYLAYER
  0
LAYOUT
  5
354
102
{ACAD_REACTORS
330
1A
102
}
100
AcDbPlotSettings
  1

  2
none_device
  4

  6

 40
0.0
 41
0.0
 42
0.0
 43
0.0
 44
210.0
 45
297.0
 46
0.0
 47
0.0
 48
0.0
 49
0.0
140
0.0
141
0.0
142
1.0
143
1.0
 70
1024
 72
1
 73
0
 74
0
  7

 75
0
147
1.0
148
0.0
149
0.0
100
AcDbLayout
  1
Model
 70
0
 71
0
 10
0.0
 20
0.0
 11
210.0
 21
297.0
 12
0.0
 22
0.0
 32
0.0
 14
0.0
 24
0.0
 34
0.0
 15
0.0
 25
0.0
 35
0.0
146
0.0
 13
0.0
 23
0.0
 33
0.0
 16
1.0
 26
0.0
 36
0.0
 17
0.0
 27
1.0
 37
0.0
 76
0
330
210
345
0
346
0
  0
LAYOUT
  5
355
102
{ACAD_REACTORS
330
1A
102
}
100
AcDbPlotSettings
  1

  2
none_device
  4

  6

 40
0.0
 41
0.0
 42
0.0
 43
0.0
 44
210.0
 45
297.0
 46
0.0
 47
0.0
 48
0.0
 49
0.0
140
0.0
141
0.0
142
1.0
143
1.0
 70
0
 72
1
 73
0
 74
0
  7

 75
0
147
1.0
148
0.0
149
0.0
100
AcDbLayout
  1
Layout1
 70
0
 71
1
 10
0.0
 20
0.0
 11
210.0
 21
297.0
 12
0.0
 22
0.0
 32
0.0
 14
0.0
 24
0.0
 34
0.0
 15
0.0
 25
0.0
 35
0.0
146
0.0
 13
0.0
 23
0.0
 33
0.0
 16
1.0
 26
0.0
 36
0.0
 17
0.0
 27
1.0
 37
0.0
 76
0
330
211
345
0
346
0
  0
ENDSEC
  0
EOF
