999
DXF file: C:\Users\sesa63760\Dev\_Creo\CAD\MCADID0004772_3D-CAD\drw0001_1.dxf
999
Pro/ENGINEER 2019471 by Parametric Technology Corporation
  0
SECTION
  2
HEADER
  9
$ACADVER
  1
AC1024
  9
$DWGCODEPAGE
  3
ANSI_1252
  9
$EXTMAX
 10
145.8567112998
 20
206.283063124
 30
0.0
  9
$EXTMIN
 10
0.0
 20
0.0
 30
0.0
  9
$LIMMIN
 10
0.0
 20
0.0
  9
$LIMMAX
 10
145.8567112998
 20
206.283063124
  9
$VIEWCTR
 10
72.9283556499
 20
103.141531562
  9
$VIEWSIZE
 40
206.283063124
  9
$CLAYER
  8
0
  9
$LTSCALE
 40
13.4465996703
  9
$CELTYPE
  6
BYLAYER
  9
$DIMSCALE
 40
1.0
  9
$DIMASZ
 40
1.7363894202
  9
$DIMEXO
 40
1.0
  9
$DIMDLI
 40
9.290377954
  9
$DIMEXE
 40
1.0
  9
$DIMCEN
 40
2.2003526733
  9
$DIMLFAC
 40
1.0
  9
$DIMBLK
  1
_FILLED
  9
$DIMALT
 70
0
  9
$DIMALTF
 40
0.0393700787
  9
$DIMTXT
 40
2.4309451883
  9
$DIMTOL
 70
1
  9
$DIMLIM
 70
0
  9
$DIMTFAC
 40
1.0
  9
$DIMTP
 40
0.01
  9
$DIMTM
 40
0.01
  9
$DIMGAP
 40
0.625
  9
$DIMDSEP
 70
46
  9
$AUNITS
 70
0
  9
$PDMODE
 70
3
  9
$PDSIZE
 40
0.3125
  9
$HANDSEED
  5
34F
  9
$TILEMODE
 70
1
  9
$MEASUREMENT
 70
1
  9
$INSUNITS
 70
4
  0
ENDSEC
  0
SECTION
  2
CLASSES
  0
CLASS
  1
ACDBDICTIONARYWDFLT
  2
AcDbDictionaryWithDefault
  3
AutoCAD 2000
 90
0
 91
1
280
0
281
0
  0
CLASS
  1
ACDBPLACEHOLDER
  2
AcDbPlaceHolder
  3
AutoCAD 2000
 90
0
 91
1
280
0
281
0
  0
CLASS
  1
LAYOUT
  2
AcDbLayout
  3
AutoCAD 2000
 90
0
 91
0
280
0
281
0
  0
ENDSEC
  0
SECTION
  2
TABLES
  0
TABLE
  2
VPORT
  5
8
100
AcDbSymbolTable
 70
2
  0
VPORT
  5
1F4
100
AcDbSymbolTableRecord
100
AcDbViewportTableRecord
  2
*ACTIVE
 70
0
 10
0.0
 20
0.0
 11
1.0
 21
1.0
 12
72.9283556499
 22
103.141531562
 13
0.0
 23
0.0
 14
1.0
 24
1.0
 15
0.0
 25
0.0
 16
0.0
 26
0.0
 36
1.0
 17
0.0
 27
0.0
 37
0.0
 40
206.283063124
 41
0.7070707071
 42
50.0
 43
0.0
 44
0.0
 50
0.0
 51
0.0
 71
0
 72
100
 73
1
 74
1
 75
0
 76
0
 77
0
 78
0
  0
ENDTAB
  0
TABLE
  2
LTYPE
  5
5
100
AcDbSymbolTable
 70
6
  0
LTYPE
  5
14
100
AcDbSymbolTableRecord
100
AcDbLinetypeTableRecord
  2
BYBLOCK
 70
0
  3

 72
65
 73
0
 40
0.0
  0
LTYPE
  5
15
100
AcDbSymbolTableRecord
100
AcDbLinetypeTableRecord
  2
BYLAYER
 70
0
  3

 72
65
 73
0
 40
0.0
  0
LTYPE
  5
16
100
AcDbSymbolTableRecord
100
AcDbLinetypeTableRecord
  2
CONTINUOUS
 70
64
  3
Solid line
 72
65
 73
0
 40
0.0
  0
LTYPE
  5
1F5
100
AcDbSymbolTableRecord
100
AcDbLinetypeTableRecord
  2
CENTER
 70
64
  3
____ _ ____ _ ____ _ ____ _ ____ _ ____ _ ____
 72
65
 73
4
 40
0.6
 49
0.375
 74
0
 49
-0.075
 74
0
 49
0.075
 74
0
 49
-0.075
 74
0
  0
LTYPE
  5
1F6
100
AcDbSymbolTableRecord
100
AcDbLinetypeTableRecord
  2
HIDDEN
 70
64
  3
- - - - - - - - - - - - - - - - - - - -
 72
65
 73
2
 40
0.2
 49
0.1
 74
0
 49
-0.1
 74
0
  0
LTYPE
  5
1F7
100
AcDbSymbolTableRecord
100
AcDbLinetypeTableRecord
  2
PHANTOM
 70
64
  3
_____ _ _ _____ _ _ _____ _ _ _____
 72
65
 73
6
 40
0.8
 49
0.45
 74
0
 49
-0.05
 74
0
 49
0.1
 74
0
 49
-0.05
 74
0
 49
0.1
 74
0
 49
-0.05
 74
0
  0
LTYPE
  5
1F8
100
AcDbSymbolTableRecord
100
AcDbLinetypeTableRecord
  2
DOT
 70
64
  3
. . . . . . . . . . . . . . . . . . . .
 72
65
 73
2
 40
0.2
 49
0.1
 74
0
 49
-0.1
 74
0
  0
LTYPE
  5
1F9
100
AcDbSymbolTableRecord
100
AcDbLinetypeTableRecord
  2
DASHED
 70
64
  3
- - - - - - - - - - - - - - - - - - - -
 72
65
 73
2
 40
0.2
 49
0.1
 74
0
 49
-0.1
 74
0
  0
ENDTAB
  0
TABLE
  2
LAYER
  5
2
100
AcDbSymbolTable
 70
36
  0
LAYER
  5
10
100
AcDbSymbolTableRecord
100
AcDbLayerTableRecord
  2
0
 70
0
 62
7
  6
CONTINUOUS
370
-3
390
F
  0
LAYER
  5
1FA
100
AcDbSymbolTableRecord
100
AcDbLayerTableRecord
  2
DEFAULT_1
 70
0
 62
7
  6
CENTER
370
-3
390
F
  0
LAYER
  5
1FB
100
AcDbSymbolTableRecord
100
AcDbLayerTableRecord
  2
DEFAULT_2
 70
0
 62
7
  6
HIDDEN
370
-3
390
F
  0
LAYER
  5
1FC
100
AcDbSymbolTableRecord
100
AcDbLayerTableRecord
  2
DEFAULT_3
 70
0
 62
7
  6
PHANTOM
370
-3
390
F
  0
LAYER
  5
1FD
100
AcDbSymbolTableRecord
100
AcDbLayerTableRecord
  2
00_COMPONENTS
 70
0
 62
7
  6
CONTINUOUS
370
-3
390
F
  0
LAYER
  5
1FE
100
AcDbSymbolTableRecord
100
AcDbLayerTableRecord
  2
01_1_DEFAULT_DATUMS
 70
0
 62
7
  6
CONTINUOUS
370
-3
390
F
  0
LAYER
  5
1FF
100
AcDbSymbolTableRecord
100
AcDbLayerTableRecord
  2
01_PLANES
 70
0
 62
7
  6
CONTINUOUS
370
-3
390
F
  0
LAYER
  5
200
100
AcDbSymbolTableRecord
100
AcDbLayerTableRecord
  2
02_COORD_SYS
 70
0
 62
7
  6
CONTINUOUS
370
-3
390
F
  0
LAYER
  5
201
100
AcDbSymbolTableRecord
100
AcDbLayerTableRecord
  2
03_AXES
 70
0
 62
7
  6
CONTINUOUS
370
-3
390
F
  0
LAYER
  5
202
100
AcDbSymbolTableRecord
100
AcDbLayerTableRecord
  2
04_POINTS
 70
0
 62
7
  6
CONTINUOUS
370
-3
390
F
  0
LAYER
  5
203
100
AcDbSymbolTableRecord
100
AcDbLayerTableRecord
  2
05_CURVES
 70
0
 62
7
  6
CONTINUOUS
370
-3
390
F
  0
LAYER
  5
204
100
AcDbSymbolTableRecord
100
AcDbLayerTableRecord
  2
06_SURFS
 70
0
 62
7
  6
CONTINUOUS
370
-3
390
F
  0
LAYER
  5
205
100
AcDbSymbolTableRecord
100
AcDbLayerTableRecord
  2
07_COSMETICS
 70
0
 62
7
  6
CONTINUOUS
370
-3
390
F
  0
LAYER
  5
206
100
AcDbSymbolTableRecord
100
AcDbLayerTableRecord
  2
10_NOTES
 70
0
 62
7
  6
CONTINUOUS
370
-3
390
F
  0
LAYER
  5
207
100
AcDbSymbolTableRecord
100
AcDbLayerTableRecord
  2
11_NOTES_PUB
 70
0
 62
7
  6
CONTINUOUS
370
-3
390
F
  0
LAYER
  5
208
100
AcDbSymbolTableRecord
100
AcDbLayerTableRecord
  2
13_REF_GTOL
 70
0
 62
7
  6
CONTINUOUS
370
-3
390
F
  0
LAYER
  5
209
100
AcDbSymbolTableRecord
100
AcDbLayerTableRecord
  2
16_MISC
 70
0
 62
7
  6
CONTINUOUS
370
-3
390
F
  0
LAYER
  5
20A
100
AcDbSymbolTableRecord
100
AcDbLayerTableRecord
  2
17_NO_PRINT
 70
0
 62
7
  6
CONTINUOUS
370
-3
390
F
  0
LAYER
  5
20B
100
AcDbSymbolTableRecord
100
AcDbLayerTableRecord
  2
18_DATUM_CAMS_JOINTS
 70
0
 62
7
  6
CONTINUOUS
370
-3
390
F
  0
LAYER
  5
20C
100
AcDbSymbolTableRecord
100
AcDbLayerTableRecord
  2
19_DATUM_FUNCTIONAL
 70
0
 62
7
  6
CONTINUOUS
370
-3
390
F
  0
LAYER
  5
20D
100
AcDbSymbolTableRecord
100
AcDbLayerTableRecord
  2
20_DATUM_KINEMATIC_SCHEME
 70
0
 62
7
  6
CONTINUOUS
370
-3
390
F
  0
ENDTAB
  0
TABLE
  2
STYLE
  5
3
100
AcDbSymbolTable
 70
1
  0
STYLE
  5
11
100
AcDbSymbolTableRecord
100
AcDbTextStyleTableRecord
  2
STANDARD
 70
0
 40
0.0
 41
1.0
 50
0.0
 71
0
 42
0.2
  3
ARIAL.TTF
  4

  0
STYLE
  5
20E
100
AcDbSymbolTableRecord
100
AcDbTextStyleTableRecord
  2
TEXTSTYLE_1
 70
0
 40
0.0
 41
0.8
 50
0.0
 71
0
 42
0.2
  3
gdt
  4

  0
ENDTAB
  0
TABLE
  2
VIEW
  5
6
100
AcDbSymbolTable
 70
0
  0
ENDTAB
  0
TABLE
  2
UCS
  5
7
100
AcDbSymbolTable
 70
0
  0
ENDTAB
  0
TABLE
  2
APPID
  5
9
100
AcDbSymbolTable
 70
1
  0
APPID
  5
20F
100
AcDbSymbolTableRecord
100
AcDbRegAppTableRecord
  2
ACAD
 70
0
  0
ENDTAB
  0
TABLE
  2
BLOCK_RECORD
  5
1
100
AcDbSymbolTable
 70
0
  0
BLOCK_RECORD
  5
210
100
AcDbSymbolTableRecord
100
AcDbBlockTableRecord
  2
*Model_Space
  0
BLOCK_RECORD
  5
211
100
AcDbSymbolTableRecord
100
AcDbBlockTableRecord
  2
*Paper_Space
  0
BLOCK_RECORD
  5
212
100
AcDbSymbolTableRecord
100
AcDbBlockTableRecord
  2
_FILLED
  0
ENDTAB
  0
TABLE
  2
DIMSTYLE
  5
A
100
AcDbSymbolTable
 70
1
100
AcDbDimStyleTable
 71
0
  0
DIMSTYLE
105
213
100
AcDbSymbolTableRecord
100
AcDbDimStyleTableRecord
  2
STANDARD
 70
0
  3

  4

 40
1.0
 41
1.7363894202
 42
1.0
 43
0.38
 44
1.0
 45
0.0
 46
0.0
 47
0.01
 48
0.01
140
2.4309451883
141
0.09
142
0.0
143
25.4
144
1.0
145
0.0
146
1.0
147
0.625
 71
1
 72
0
 73
0
 74
0
 75
0
 76
0
 77
1
 78
8
 79
2
170
0
171
1
172
0
173
0
174
0
175
0
176
0
177
0
178
0
270
2
179
2
271
2
272
2
273
2
274
2
275
0
280
0
281
0
282
0
283
1
284
8
285
0
286
0
287
3
288
0
340
11
278
46
341
212
342
212
343
212
344
212
  0
ENDTAB
  0
ENDSEC
  0
SECTION
  2
BLOCKS
  0
BLOCK
  5
20
100
AcDbEntity
  8
0
100
AcDbBlockBegin
  2
*Model_Space
 70
0
 10
0.0
 20
0.0
 30
0.0
  3
*Model_Space
  1

  0
ENDBLK
  5
21
100
AcDbEntity
  8
0
100
AcDbBlockEnd
  0
BLOCK
  5
1C
100
AcDbEntity
  8
0
100
AcDbBlockBegin
  2
*Paper_Space
 70
0
 10
0.0
 20
0.0
 30
0.0
  3
*Paper_Space
  1

  0
ENDBLK
  5
1D
100
AcDbEntity
  8
0
100
AcDbBlockEnd
  0
BLOCK
  5
214
100
AcDbEntity
  8
0
100
AcDbBlockBegin
  2
_FILLED
 70
64
 10
0.0
 20
0.0
  3
_FILLED
  1

  0
SOLID
  5
215
100
AcDbEntity
  8
0
  6
BYBLOCK
 62
0
100
AcDbTrace
 10
0.0
 20
0.0
 11
-1.0
 21
0.25
 12
-1.0
 22
-0.25
 13
-1.0
 23
-0.25
  0
ENDBLK
  5
216
100
AcDbEntity
  8
0
  6
BYBLOCK
 62
0
100
AcDbBlockEnd
  0
ENDSEC
  0
SECTION
  2
ENTITIES
  0
LINE
  5
217
100
AcDbEntity
  8
0
100
AcDbLine
 62
7
  6
BYLAYER
 10
17.5695227613
 20
81.7416506075
 11
17.5695227613
 21
94.0803612944
  0
LINE
  5
218
100
AcDbEntity
  8
0
100
AcDbLine
 62
7
  6
BYLAYER
 10
17.6281019938
 20
81.8161597169
 11
17.6281019938
 21
93.9987124636
  0
LINE
  5
219
100
AcDbEntity
  8
0
100
AcDbLine
 62
7
  6
BYLAYER
 10
18.971615182
 20
95.6725762884
 11
18.9716128268
 21
95.9991702518
  0
LINE
  5
21A
100
AcDbEntity
  8
0
100
AcDbLine
 62
7
  6
BYLAYER
 10
20.8222004125
 20
97.7440221298
 11
20.8222004125
 21
101.5105008387
  0
LINE
  5
21B
100
AcDbEntity
  8
0
100
AcDbLine
 62
7
  6
BYLAYER
 10
20.880779873
 20
101.4288538703
 11
20.8807777315
 21
97.7778415588
  0
LINE
  5
21C
100
AcDbEntity
  8
0
100
AcDbLine
 62
7
  6
BYLAYER
 10
23.297111535
 20
93.1206242705
 11
23.297111535
 21
97.3872807615
  0
LINE
  5
21D
100
AcDbEntity
  8
0
100
AcDbLine
 62
7
  6
BYLAYER
 10
34.9937127241
 20
63.9009475286
 11
24.1700988843
 21
70.1498225242
  0
LINE
  5
21E
100
AcDbEntity
  8
0
100
AcDbLine
 62
7
  6
BYLAYER
 10
34.9522902599
 20
63.9925047582
 11
24.2716222377
 21
70.1588518145
  0
LINE
  5
21F
100
AcDbEntity
  8
0
100
AcDbLine
 62
7
  6
BYLAYER
 10
37.0735951741
 20
64.319167821
 11
37.3564294661
 21
64.1558686974
  0
LINE
  5
220
100
AcDbEntity
  8
0
100
AcDbLine
 62
7
  6
BYLAYER
 10
17.5695227613
 20
94.0803612944
 11
17.6281019938
 21
93.9987124636
  0
LINE
  5
221
100
AcDbEntity
  8
0
100
AcDbLine
 62
7
  6
BYLAYER
 10
34.9522902599
 20
63.9925047582
 11
34.9937127241
 21
63.9009475286
  0
LINE
  5
222
100
AcDbEntity
  8
0
100
AcDbLine
 62
7
  6
BYLAYER
 10
23.3556907676
 20
97.3056319307
 11
23.3556917999
 21
93.2112754071
  0
LINE
  5
223
100
AcDbEntity
  8
0
100
AcDbLine
 62
7
  6
BYLAYER
 10
26.3255246013
 20
99.2511958223
 11
26.3255245287
 21
99.3468513403
  0
LWPOLYLINE
  5
224
100
AcDbEntity
  8
0
100
AcDbPolyline
 62
7
  6
BYLAYER
 90
4
 70
0
 10
23.2971062183
 20
93.1206365537
 10
23.2888964333
 20
93.0651568927
 10
23.2509731099
 20
92.9979578945
 10
23.2464888873
 20
92.9935518924
  0
LINE
  5
225
100
AcDbEntity
  8
0
100
AcDbLine
 62
7
  6
BYLAYER
 10
43.0547365063
 20
63.0028335057
 11
39.7928051527
 21
64.8860678463
  0
LINE
  5
226
100
AcDbEntity
  8
0
100
AcDbLine
 62
7
  6
BYLAYER
 10
39.851386182
 20
64.9198894175
 11
43.0133054091
 21
63.0943959826
  0
LINE
  5
227
100
AcDbEntity
  8
0
100
AcDbLine
 62
7
  6
BYLAYER
 10
40.7213014978
 20
67.2078669958
 11
37.0262765475
 21
69.3411423843
  0
LINE
  5
228
100
AcDbEntity
  8
0
100
AcDbLine
 62
7
  6
BYLAYER
 10
40.6798790336
 20
67.2994242254
 11
37.1340769963
 21
69.3465476748
  0
LINE
  5
229
100
AcDbEntity
  8
0
100
AcDbLine
 62
7
  6
BYLAYER
 10
43.9325595175
 20
68.8507446599
 11
43.8497104803
 21
68.8985765772
  0
LINE
  5
22A
100
AcDbEntity
  8
0
100
AcDbLine
 62
7
  6
BYLAYER
 10
23.297111535
 20
97.3872807615
 11
23.3556907675
 21
97.3056319308
  0
LINE
  5
22B
100
AcDbEntity
  8
0
100
AcDbLine
 62
7
  6
BYLAYER
 10
20.8222004125
 20
101.5105008387
 11
20.880779645
 21
101.4288520079
  0
LINE
  5
22C
100
AcDbEntity
  8
0
100
AcDbLine
 62
7
  6
BYLAYER
 10
40.6798790336
 20
67.2994242253
 11
40.7213014978
 21
67.2078669958
  0
LINE
  5
22D
100
AcDbEntity
  8
0
100
AcDbLine
 62
7
  6
BYLAYER
 10
43.0133140421
 20
63.0943907353
 11
43.0547352259
 21
63.0028342449
  0
LINE
  5
22E
100
AcDbEntity
  8
0
100
AcDbLine
 62
7
  6
BYLAYER
 10
34.9522902599
 20
63.9925047582
 11
34.9522892276
 21
68.0868612819
  0
LINE
  5
22F
100
AcDbEntity
  8
0
100
AcDbLine
 62
7
  6
BYLAYER
 10
34.9522897504
 20
86.5161277167
 11
34.9522902599
 21
90.6104835566
  0
LINE
  5
230
100
AcDbEntity
  8
0
100
AcDbLine
 62
7
  6
BYLAYER
 10
35.2351158017
 20
68.2937064544
 11
35.2351272139
 21
63.9925012469
  0
LINE
  5
231
100
AcDbEntity
  8
0
100
AcDbLine
 62
7
  6
BYLAYER
 10
35.235132972
 20
86.2697434461
 11
35.2351329723
 21
90.6104854468
  0
LINE
  5
232
100
AcDbEntity
  8
0
100
AcDbLine
 62
7
  6
BYLAYER
 10
35.9422485855
 20
66.2787401688
 11
35.9422462303
 21
66.6053341322
  0
LINE
  5
233
100
AcDbEntity
  8
0
100
AcDbLine
 62
7
  6
BYLAYER
 10
35.9422485855
 20
85.8747981799
 11
35.9422462303
 21
86.2013921433
  0
LINE
  5
234
100
AcDbEntity
  8
0
100
AcDbLine
 62
7
  6
BYLAYER
 10
38.2049680029
 20
68.5881303736
 11
38.2049679751
 21
68.6606399664
  0
LINE
  5
235
100
AcDbEntity
  8
0
100
AcDbLine
 62
7
  6
BYLAYER
 10
38.2049675151
 20
88.1841881031
 11
38.2049690896
 21
92.3251138805
  0
LINE
  5
236
100
AcDbEntity
  8
0
100
AcDbLine
 62
7
  6
BYLAYER
 10
38.4878118626
 20
92.3251136031
 11
38.487808783
 21
88.3474856105
  0
LINE
  5
237
100
AcDbEntity
  8
0
100
AcDbLine
 62
7
  6
BYLAYER
 10
40.6798790336
 20
80.6900638662
 11
40.6798790336
 21
67.2994242254
  0
LINE
  5
238
100
AcDbEntity
  8
0
100
AcDbLine
 62
7
  6
BYLAYER
 10
40.9627217461
 20
67.2994249052
 11
40.9627217461
 21
80.6900645461
  0
LINE
  5
239
100
AcDbEntity
  8
0
100
AcDbLine
 62
7
  6
BYLAYER
 10
17.6281019938
 20
93.9987124636
 11
21.1739040312
 21
91.9515890142
  0
LINE
  5
23A
100
AcDbEntity
  8
0
100
AcDbLine
 62
7
  6
BYLAYER
 10
40.6798790336
 20
80.6900638662
 11
37.1340773274
 21
82.7371865192
  0
LINE
  5
23B
100
AcDbEntity
  8
0
100
AcDbLine
 62
7
  6
BYLAYER
 10
21.4999309917
 20
92.0899583047
 11
17.769521713
 21
94.2436623829
  0
LINE
  5
23C
100
AcDbEntity
  8
0
100
AcDbLine
 62
7
  6
BYLAYER
 10
37.0621032593
 20
83.1053172697
 11
40.8212947934
 21
80.9350094227
  0
LINE
  5
23D
100
AcDbEntity
  8
0
100
AcDbLine
 62
7
  6
BYLAYER
 10
20.1029617706
 20
93.7130039406
 11
20.3857960626
 21
93.549704817
  0
LINE
  5
23E
100
AcDbEntity
  8
0
100
AcDbLine
 62
7
  6
BYLAYER
 10
37.0735951741
 20
83.9152258321
 11
37.3564294661
 21
83.7519267085
  0
LINE
  5
23F
100
AcDbEntity
  8
0
100
AcDbLine
 62
7
  6
BYLAYER
 10
23.297111535
 20
94.4816001517
 11
23.2343162101
 21
94.517854261
  0
LINE
  5
240
100
AcDbEntity
  8
0
100
AcDbLine
 62
7
  6
BYLAYER
 10
43.7911394986
 20
82.6496365813
 11
40.2049491361
 21
84.7200758769
  0
LINE
  5
241
100
AcDbEntity
  8
0
100
AcDbLine
 62
7
  6
BYLAYER
 10
40.4877928398
 20
84.8833747906
 11
43.9325566848
 21
82.8945879409
  0
LINE
  5
242
100
AcDbEntity
  8
0
100
AcDbLine
 62
7
  6
BYLAYER
 10
42.3768293257
 20
102.1637663587
 11
42.3768293257
 21
102.068108375
  0
LINE
  5
243
100
AcDbEntity
  8
0
100
AcDbLine
 62
7
  6
BYLAYER
 10
43.0839331629
 20
102.5720105126
 11
43.0839390508
 21
101.6598676205
  0
LINE
  5
244
100
AcDbEntity
  8
0
100
AcDbLine
 62
7
  6
BYLAYER
 10
43.9325566848
 20
82.8945879409
 11
43.9325564569
 21
88.1201935736
  0
LINE
  5
245
100
AcDbEntity
  8
0
100
AcDbLine
 62
7
  6
BYLAYER
 10
43.9325564569
 20
63.6251290342
 11
43.9325595175
 21
68.8507446599
  0
LINE
  5
246
100
AcDbEntity
  8
0
100
AcDbLine
 62
7
  6
BYLAYER
 10
44.2153993973
 20
63.6251315768
 11
44.2153993969
 21
68.8506711153
  0
LINE
  5
247
100
AcDbEntity
  8
0
100
AcDbLine
 62
7
  6
BYLAYER
 10
44.2153993969
 20
82.8946578635
 11
44.2153993973
 21
88.1202040897
  0
LINE
  5
248
100
AcDbEntity
  8
0
100
AcDbLine
 62
7
  6
BYLAYER
 10
23.3556907676
 20
97.3056319307
 11
34.9522902599
 21
90.6104835566
  0
LINE
  5
249
100
AcDbEntity
  8
0
100
AcDbLine
 62
7
  6
BYLAYER
 10
35.0937110274
 20
90.8554328708
 11
23.497111535
 21
97.550581245
  0
LINE
  5
24A
100
AcDbEntity
  8
0
100
AcDbLine
 62
7
  6
BYLAYER
 10
54.3976946532
 20
81.3431324407
 11
54.3148519407
 21
81.390960621
  0
LINE
  5
24B
100
AcDbEntity
  8
0
100
AcDbLine
 62
7
  6
BYLAYER
 10
55.1047984904
 20
81.7513765945
 11
54.3148519407
 21
82.2074630381
  0
LINE
  5
24C
100
AcDbEntity
  8
0
100
AcDbLine
 62
7
  6
BYLAYER
 10
26.3666432665
 20
99.2749437836
 11
26.3858196351
 21
99.2881411241
  0
LINE
  5
24D
100
AcDbEntity
  8
0
100
AcDbLine
 62
7
  6
BYLAYER
 10
31.2323209012
 20
108.075894887
 11
21.1914464128
 21
102.278827902
  0
LINE
  5
24E
100
AcDbEntity
  8
0
100
AcDbLine
 62
7
  6
BYLAYER
 10
31.3737416687
 20
108.1575437178
 11
35.2628127734
 21
110.4028865641
  0
LINE
  5
24F
100
AcDbEntity
  8
0
100
AcDbLine
 62
7
  6
BYLAYER
 10
21.9414430558
 20
102.2045414832
 11
31.9823175442
 21
108.0016084681
  0
LINE
  5
250
100
AcDbEntity
  8
0
100
AcDbLine
 62
7
  6
BYLAYER
 10
32.1237383111
 20
108.0832572992
 11
36.0128094158
 21
110.3286001455
  0
LWPOLYLINE
  5
251
100
AcDbEntity
  8
0
100
AcDbPolyline
 62
7
  6
BYLAYER
 90
4
 70
0
 10
36.8921438301
 20
69.3613876014
 10
36.9001217407
 20
69.363234887
 10
36.9826867069
 20
69.3595589114
 10
37.0262873253
 20
69.3411299777
  0
LINE
  5
252
100
AcDbEntity
  8
0
100
AcDbLine
 62
7
  6
BYLAYER
 10
43.013315769
 20
89.7123682735
 11
38.4878118626
 21
92.3251136031
  0
LINE
  5
253
100
AcDbEntity
  8
0
100
AcDbLine
 62
7
  6
BYLAYER
 10
26.3255245287
 20
99.3468513403
 11
21.8000309207
 21
101.9595869219
  0
LINE
  5
254
100
AcDbEntity
  8
0
100
AcDbLine
 62
7
  6
BYLAYER
 10
43.1547348093
 20
89.9573188481
 11
38.629298408
 21
92.5700216648
  0
LINE
  5
255
100
AcDbEntity
  8
0
100
AcDbLine
 62
7
  6
BYLAYER
 10
26.4668857166
 20
99.5918350516
 11
21.9414430558
 21
102.2045414832
  0
LINE
  5
256
100
AcDbEntity
  8
0
100
AcDbLine
 62
7
  6
BYLAYER
 10
54.2562738857
 20
93.9172710747
 11
54.2562738857
 21
69.4221985618
  0
LINE
  5
257
100
AcDbEntity
  8
0
100
AcDbLine
 62
7
  6
BYLAYER
 10
54.3148519407
 20
69.5038467124
 11
54.3148519407
 21
93.9989192263
  0
LINE
  5
258
100
AcDbEntity
  8
0
100
AcDbLine
 62
7
  6
BYLAYER
 10
54.3976946532
 20
93.9989199061
 11
54.3976946532
 21
82.1596348578
  0
LINE
  5
259
100
AcDbEntity
  8
0
100
AcDbLine
 62
7
  6
BYLAYER
 10
54.3976946532
 20
81.3431324407
 11
54.3976946532
 21
69.5038473928
  0
LINE
  5
25A
100
AcDbEntity
  8
0
100
AcDbLine
 62
7
  6
BYLAYER
 10
55.1047984904
 20
82.5678790117
 11
55.1047984904
 21
81.7513765945
  0
LINE
  5
25B
100
AcDbEntity
  8
0
100
AcDbLine
 62
7
  6
BYLAYER
 10
35.1937105797
 20
63.9009482497
 11
35.2351329724
 21
63.9925054381
  0
LINE
  5
25C
100
AcDbEntity
  8
0
100
AcDbLine
 62
7
  6
BYLAYER
 10
23.2983081005
 20
99.1735950366
 11
19.385836754
 21
96.914742135
  0
LINE
  5
25D
100
AcDbEntity
  8
0
100
AcDbLine
 62
7
  6
BYLAYER
 10
26.3665297826
 20
99.2748700334
 11
23.3971119827
 21
97.5604861008
  0
LINE
  5
25E
100
AcDbEntity
  8
0
100
AcDbLine
 62
7
  6
BYLAYER
 10
19.0942961832
 20
95.0761547836
 11
17.669523209
 21
94.2535666336
  0
LINE
  5
25F
100
AcDbEntity
  8
0
100
AcDbLine
 62
7
  6
BYLAYER
 10
26.4663313515
 20
99.2648516311
 11
23.497111535
 21
97.550581245
  0
LINE
  5
260
100
AcDbEntity
  8
0
100
AcDbLine
 62
7
  6
BYLAYER
 10
19.1123464999
 20
95.0189393579
 11
17.769521713
 21
94.2436623829
  0
LINE
  5
261
100
AcDbEntity
  8
0
100
AcDbLine
 62
7
  6
BYLAYER
 10
58.2867657578
 20
96.2442627524
 11
58.2867657578
 21
71.749190239
  0
LINE
  5
262
100
AcDbEntity
  8
0
100
AcDbLine
 62
7
  6
BYLAYER
 10
58.4332108953
 20
71.9533106158
 11
58.4332108953
 21
96.4483831297
  0
LINE
  5
263
100
AcDbEntity
  8
0
100
AcDbLine
 62
7
  6
BYLAYER
 10
40.9212993534
 20
67.2078677169
 11
40.9627217461
 21
67.2994249052
  0
LINE
  5
264
100
AcDbEntity
  8
0
100
AcDbLine
 62
7
  6
BYLAYER
 10
23.297111535
 20
94.5541089424
 11
21.3858278002
 21
93.4506353504
  0
LINE
  5
265
100
AcDbEntity
  8
0
100
AcDbLine
 62
7
  6
BYLAYER
 10
23.297111535
 20
93.1447265835
 11
21.5719174551
 21
92.1486912626
  0
LINE
  5
266
100
AcDbEntity
  8
0
100
AcDbLine
 62
7
  6
BYLAYER
 10
42.3768293257
 20
102.1637663587
 11
43.0839331629
 21
102.5720105126
  0
LINE
  5
267
100
AcDbEntity
  8
0
100
AcDbLine
 62
7
  6
BYLAYER
 10
43.0011078418
 20
101.7076891595
 11
43.791042888
 21
102.1637697581
  0
LINE
  5
268
100
AcDbEntity
  8
0
100
AcDbLine
 62
7
  6
BYLAYER
 10
17.7695204197
 20
94.2436631297
 11
17.669523209
 21
94.2535666336
  0
LINE
  5
269
100
AcDbEntity
  8
0
100
AcDbLine
 62
7
  6
BYLAYER
 10
31.9823175442
 20
108.0016084681
 11
53.1956092977
 21
95.754385833
  0
LINE
  5
26A
100
AcDbEntity
  8
0
100
AcDbLine
 62
7
  6
BYLAYER
 10
53.2956076013
 20
95.7642914098
 11
32.0823158469
 21
108.0115140454
  0
LINE
  5
26B
100
AcDbEntity
  8
0
100
AcDbLine
 62
7
  6
BYLAYER
 10
32.1237383111
 20
108.0832572992
 11
42.3768293257
 21
102.1637663587
  0
LINE
  5
26C
100
AcDbEntity
  8
0
100
AcDbLine
 62
7
  6
BYLAYER
 10
43.0839390508
 20
101.7555256042
 11
53.337030065
 21
95.8360346639
  0
LINE
  5
26D
100
AcDbEntity
  8
0
100
AcDbLine
 62
7
  6
BYLAYER
 10
43.0839331629
 20
102.5720105126
 11
43.791042888
 21
102.1637697581
  0
LINE
  5
26E
100
AcDbEntity
  8
0
100
AcDbLine
 62
7
  6
BYLAYER
 10
61.3564155128
 20
102.6167734391
 11
61.4806800989
 21
102.8914435075
  0
LINE
  5
26F
100
AcDbEntity
  8
0
100
AcDbLine
 62
7
  6
BYLAYER
 10
54.2562738857
 20
93.9172710754
 11
54.3148519407
 21
93.9989192263
  0
LINE
  5
270
100
AcDbEntity
  8
0
100
AcDbLine
 62
7
  6
BYLAYER
 10
18.3708366595
 20
82.5063404326
 11
30.0466310799
 21
89.247323246
  0
LINE
  5
271
100
AcDbEntity
  8
0
100
AcDbLine
 62
7
  6
BYLAYER
 10
23.4971112065
 20
97.5505814346
 11
23.3971119827
 21
97.5604861008
  0
LINE
  5
272
100
AcDbEntity
  8
0
100
AcDbLine
 62
7
  6
BYLAYER
 10
26.4663915841
 20
99.2648860269
 11
26.3666469856
 21
99.2749375408
  0
LINE
  5
273
100
AcDbEntity
  8
0
100
AcDbLine
 62
7
  6
BYLAYER
 10
36.0128094158
 20
110.3286001455
 11
57.2261011698
 21
98.0813775101
  0
LINE
  5
274
100
AcDbEntity
  8
0
100
AcDbLine
 62
7
  6
BYLAYER
 10
57.4760969284
 20
98.1061414522
 11
36.2628051739
 21
110.3533640878
  0
LINE
  5
275
100
AcDbEntity
  8
0
100
AcDbLine
 62
7
  6
BYLAYER
 10
38.0634898069
 20
92.5700252134
 11
35.0937110274
 21
90.8554328708
  0
LINE
  5
276
100
AcDbEntity
  8
0
100
AcDbLine
 62
7
  6
BYLAYER
 10
38.2049690896
 20
92.3251138805
 11
35.2351329723
 21
90.6104854468
  0
LINE
  5
277
100
AcDbEntity
  8
0
100
AcDbLine
 62
7
  6
BYLAYER
 10
130.4768539562
 20
143.9088775496
 11
60.7564156069
 21
103.6560039779
  0
LINE
  5
278
100
AcDbEntity
  8
0
100
AcDbLine
 62
7
  6
BYLAYER
 10
55.3454264433
 20
99.3362568014
 11
59.7387390213
 21
101.8727218603
  0
LINE
  5
279
100
AcDbEntity
  8
0
100
AcDbLine
 62
7
  6
BYLAYER
 10
131.07685127
 20
142.8696455143
 11
61.3564129208
 21
102.6167719425
  0
LINE
  5
27A
100
AcDbEntity
  8
0
100
AcDbLine
 62
7
  6
BYLAYER
 10
40.2073818855
 20
89.3402756779
 11
36.3564701575
 21
87.1169640265
  0
LINE
  5
27B
100
AcDbEntity
  8
0
100
AcDbLine
 62
7
  6
BYLAYER
 10
36.0447321224
 20
86.7371629435
 11
35.235132972
 21
86.2697434461
  0
LINE
  5
27C
100
AcDbEntity
  8
0
100
AcDbLine
 62
7
  6
BYLAYER
 10
35.2893701182
 20
86.1098533477
 11
36.0036166182
 21
86.5222212952
  0
LINE
  5
27D
100
AcDbEntity
  8
0
100
AcDbLine
 62
7
  6
BYLAYER
 10
53.2956076013
 20
95.7642914098
 11
53.195609298
 21
95.7543858329
  0
LINE
  5
27E
100
AcDbEntity
  8
0
100
AcDbLine
 62
7
  6
BYLAYER
 10
57.2261011698
 20
98.0813775101
 11
53.337030065
 21
95.8360346639
  0
LINE
  5
27F
100
AcDbEntity
  8
0
100
AcDbLine
 62
7
  6
BYLAYER
 10
53.1956092977
 20
95.754385833
 11
43.1547348093
 21
89.9573188481
  0
LINE
  5
280
100
AcDbEntity
  8
0
100
AcDbLine
 62
7
  6
BYLAYER
 10
44.2153993973
 20
88.1202040897
 11
54.2562738857
 21
93.9172710747
  0
LINE
  5
281
100
AcDbEntity
  8
0
100
AcDbLine
 62
7
  6
BYLAYER
 10
54.3976946532
 20
93.9989199061
 11
58.2867657578
 21
96.2442627524
  0
LINE
  5
282
100
AcDbEntity
  8
0
100
AcDbLine
 62
7
  6
BYLAYER
 10
37.6650484386
 20
83.6446298681
 11
36.9507685655
 21
83.2322426527
  0
LINE
  5
283
100
AcDbEntity
  8
0
100
AcDbLine
 62
7
  6
BYLAYER
 10
37.8717520862
 20
83.5727656916
 11
37.0621032593
 21
83.1053172697
  0
LINE
  5
284
100
AcDbEntity
  8
0
100
AcDbLine
 62
7
  6
BYLAYER
 10
42.2700481566
 20
85.9123542353
 11
38.3564612037
 21
83.652857242
  0
LINE
  5
285
100
AcDbEntity
  8
0
100
AcDbLine
 62
7
  6
BYLAYER
 10
58.4332108953
 20
93.9598466901
 11
63.3842362654
 21
96.8183054576
  0
LINE
  5
286
100
AcDbEntity
  8
0
100
AcDbLine
 62
7
  6
BYLAYER
 10
54.3148519407
 20
69.5038467124
 11
54.2562738857
 21
69.4221985615
  0
LINE
  5
287
100
AcDbEntity
  8
0
100
AcDbLine
 62
7
  6
BYLAYER
 10
40.8212947934
 20
80.9350094227
 11
43.7911394986
 21
82.6496365813
  0
LINE
  5
288
100
AcDbEntity
  8
0
100
AcDbLine
 62
7
  6
BYLAYER
 10
43.9319426054
 20
82.4043355343
 11
40.9627217461
 21
80.6900645461
  0
LINE
  5
289
100
AcDbEntity
  8
0
100
AcDbLine
 62
7
  6
BYLAYER
 10
25.3708053213
 20
70.3819666866
 11
37.0441915827
 21
77.121559157
  0
LINE
  5
28A
100
AcDbEntity
  8
0
100
AcDbLine
 62
7
  6
BYLAYER
 10
54.3148519407
 20
82.1117917716
 11
55.1047984904
 21
82.5678790117
  0
LINE
  5
28B
100
AcDbEntity
  8
0
100
AcDbLine
 62
7
  6
BYLAYER
 10
54.3976946532
 20
81.3431324407
 11
55.1047984904
 21
81.7513765945
  0
LINE
  5
28C
100
AcDbEntity
  8
0
100
AcDbLine
 62
7
  6
BYLAYER
 10
31.9823175436
 20
108.0016084685
 11
32.0823158469
 21
108.0115140454
  0
LINE
  5
28D
100
AcDbEntity
  8
0
100
AcDbLine
 62
7
  6
BYLAYER
 10
37.0471856605
 20
69.3290707754
 11
35.321855898
 21
68.3329571186
  0
LINE
  5
28E
100
AcDbEntity
  8
0
100
AcDbLine
 62
7
  6
BYLAYER
 10
38.2677640361
 20
68.6243854638
 11
36.3564701575
 21
67.5209060154
  0
LINE
  5
28F
100
AcDbEntity
  8
0
100
AcDbLine
 62
7
  6
BYLAYER
 10
43.9325005723
 20
69.0140172747
 11
40.9627217461
 21
67.2994249052
  0
LINE
  5
290
100
AcDbEntity
  8
0
100
AcDbLine
 62
7
  6
BYLAYER
 10
35.2351272139
 20
63.9925012469
 11
36.5691360349
 21
64.762685543
  0
LINE
  5
291
100
AcDbEntity
  8
0
100
AcDbLine
 62
7
  6
BYLAYER
 10
43.890785202
 20
68.9222909372
 11
40.9212993534
 21
67.2078677169
  0
LINE
  5
292
100
AcDbEntity
  8
0
100
AcDbLine
 62
7
  6
BYLAYER
 10
36.6133158626
 20
64.7205528496
 11
35.1937105797
 21
63.9009482497
  0
LINE
  5
293
100
AcDbEntity
  8
0
100
AcDbLine
 62
7
  6
BYLAYER
 10
42.2079986893
 20
66.2804721614
 11
38.3564612037
 21
64.0567992308
  0
LINE
  5
294
100
AcDbEntity
  8
0
100
AcDbLine
 62
7
  6
BYLAYER
 10
58.2867657578
 20
71.749190239
 11
54.3976946532
 21
69.5038473928
  0
LINE
  5
295
100
AcDbEntity
  8
0
100
AcDbLine
 62
7
  6
BYLAYER
 10
54.2562738857
 20
69.4221985618
 11
44.2153993973
 21
63.6251315768
  0
LINE
  5
296
100
AcDbEntity
  8
0
100
AcDbLine
 62
7
  6
BYLAYER
 10
53.9456059403
 20
68.7355196491
 11
43.9047314519
 21
62.9384526641
  0
LINE
  5
297
100
AcDbEntity
  8
0
100
AcDbLine
 62
7
  6
BYLAYER
 10
54.0870267078
 20
68.8171684798
 11
57.9760978125
 21
71.0625113261
  0
LINE
  5
298
100
AcDbEntity
  8
0
100
AcDbLine
 62
7
  6
BYLAYER
 10
131.2011184482
 20
143.1443170792
 11
131.0768465901
 21
142.869653611
  0
ARC
  5
299
100
AcDbEntity
  8
0
100
AcDbCircle
 62
7
  6
BYLAYER
 10
25.8592090367
 20
74.9539949294
 40
12.8761194309
100
AcDbArc
 50
359.5509610323
 51
0.0005082066
  0
ARC
  5
29A
100
AcDbEntity
  8
0
100
AcDbCircle
 62
7
  6
BYLAYER
 10
24.8015316123
 20
88.3687051355
 40
5.0986997122
100
AcDbArc
 50
135.3555354464
 51
138.8993100395
  0
ARC
  5
29B
100
AcDbEntity
  8
0
100
AcDbCircle
 62
7
  6
BYLAYER
 10
33.6779427741
 20
72.9583354366
 40
5.0353966402
100
AcDbArc
 50
282.6361300238
 51
284.6597079276
  0
ARC
  5
29C
100
AcDbEntity
  8
0
100
AcDbCircle
 62
7
  6
BYLAYER
 10
23.8690461742
 20
88.1698268354
 40
4.5943471303
100
AcDbArc
 50
119.9992470363
 51
127.0915112302
  0
ARC
  5
29D
100
AcDbEntity
  8
0
100
AcDbCircle
 62
7
  6
BYLAYER
 10
61.1828609165
 20
102.119011883
 40
1.4589221363
100
AcDbArc
 50
188.3302131369
 51
190.3338064638
  0
ARC
  5
29E
100
AcDbEntity
  8
0
100
AcDbCircle
 62
7
  6
BYLAYER
 10
52.4716040789
 20
94.5007637289
 40
1.4476712116
100
AcDbArc
 50
57.6010946163
 51
59.9922482644
  0
ARC
  5
29F
100
AcDbEntity
  8
0
100
AcDbCircle
 62
7
  6
BYLAYER
 10
61.1629620084
 20
102.1162894808
 40
1.4388387674
100
AcDbArc
 50
180.1577276814
 51
188.3377485935
  0
ARC
  5
2A0
100
AcDbEntity
  8
0
100
AcDbCircle
 62
7
  6
BYLAYER
 10
52.9884047081
 20
93.998913817
 40
1.4092899451
100
AcDbArc
 50
0.0002475586
 51
0.2941616478
  0
ARC
  5
2A1
100
AcDbEntity
  8
0
100
AcDbCircle
 62
7
  6
BYLAYER
 10
52.6324105532
 20
94.6155824333
 40
1.4092523917
100
AcDbArc
 50
59.7064414358
 51
60.0003137938
  0
ARC
  5
2A2
100
AcDbEntity
  8
0
100
AcDbCircle
 62
7
  6
BYLAYER
 10
53.0022713903
 20
69.50384012
 40
1.3954232628
100
AcDbArc
 50
359.6298572497
 51
0.0002986179
  0
ARC
  5
2A3
100
AcDbEntity
  8
0
100
AcDbCircle
 62
7
  6
BYLAYER
 10
43.59705766
 20
64.1049725139
 40
1.1670611021
100
AcDbArc
 50
239.9874312707
 51
243.4724208865
  0
ARC
  5
2A4
100
AcDbEntity
  8
0
100
AcDbCircle
 62
7
  6
BYLAYER
 10
61.4152461278
 20
102.172955259
 40
0.5942093787
100
AcDbArc
 50
188.0917234821
 51
189.6384411255
  0
ARC
  5
2A5
100
AcDbEntity
  8
0
100
AcDbCircle
 62
7
  6
BYLAYER
 10
31.6274799361
 20
107.7187120525
 40
0.5068975837
100
AcDbArc
 50
120.0370692561
 51
131.0229537598
  0
ARC
  5
2A6
100
AcDbEntity
  8
0
100
AcDbCircle
 62
7
  6
BYLAYER
 10
53.8338597722
 20
69.2563272167
 40
0.5068951717
100
AcDbArc
 50
288.9784329141
 51
299.9626572586
  0
ARC
  5
2A7
100
AcDbEntity
  8
0
100
AcDbCircle
 62
7
  6
BYLAYER
 10
23.497111535
 20
97.3872807615
 40
0.2
100
AcDbArc
 50
119.9998519061
 51
180.0
  0
ARC
  5
2A8
100
AcDbEntity
  8
0
100
AcDbCircle
 62
7
  6
BYLAYER
 10
40.8212998011
 20
67.3810730561
 40
0.2
100
AcDbArc
 50
240.0005612632
 51
299.9998519061
  0
ARC
  5
2A9
100
AcDbEntity
  8
0
100
AcDbCircle
 62
7
  6
BYLAYER
 10
35.0937110274
 20
64.074153589
 40
0.2
100
AcDbArc
 50
240.0005612632
 51
299.9998519061
  0
ARC
  5
2AA
100
AcDbEntity
  8
0
100
AcDbCircle
 62
7
  6
BYLAYER
 10
17.7695227613
 20
94.0803612944
 40
0.2
100
AcDbArc
 50
119.9998519061
 51
180.0
  0
SPLINE
  5
2AB
100
AcDbEntity
  8
0
100
AcDbSpline
 62
7
  6
BYLAYER
 70
0
 71
3
 72
15
 73
11
 74
0
 42
0.0000001
 43
0.0000001
 44
0.0000000001
 40
0.0
 40
0.0
 40
0.0
 40
0.0
 40
0.1141515087
 40
0.2373301591
 40
0.3669778071
 40
0.5000005759
 40
0.6330236626
 40
0.7626743904
 40
0.8858459846
 40
1.0
 40
1.0
 40
1.0
 40
1.0
 10
18.971615182
 20
95.6725762884
 30
0.0
 10
18.971615182
 20
95.5831473176
 30
0.0
 10
18.9879986316
 20
95.3970441483
 30
0.0
 10
19.0532925992
 20
95.116287151
 30
0.0
 10
19.1579091631
 20
94.8319047672
 30
0.0
 10
19.2979102251
 20
94.5545891695
 30
0.0
 10
19.4680710883
 20
94.2946828928
 30
0.0
 10
19.6620473217
 20
94.0618969359
 30
0.0
 10
19.8725365779
 20
93.8649671375
 30
0.0
 10
20.0255129306
 20
93.7577302062
 30
0.0
 10
20.1029617687
 20
93.7130136596
 30
0.0
  0
SPLINE
  5
2AC
100
AcDbEntity
  8
0
100
AcDbSpline
 62
7
  6
BYLAYER
 70
0
 71
3
 72
12
 73
8
 74
0
 42
0.0000001
 43
0.0000001
 44
0.0000000001
 40
0.0
 40
0.0
 40
0.0
 40
0.0
 40
0.1081622879
 40
0.2183639773
 40
0.4513669681
 40
0.7104202964
 40
1.0
 40
1.0
 40
1.0
 40
1.0
 10
19.385836754
 20
96.9147421349
 30
0.0
 10
19.353045531
 20
96.8958106695
 30
0.0
 10
19.2900080299
 20
96.8517979403
 30
0.0
 10
19.1768948402
 20
96.7405725934
 30
0.0
 10
19.0649073873
 20
96.557952771
 30
0.0
 10
18.9869714064
 20
96.2932872616
 30
0.0
 10
18.9716128268
 20
96.1005417928
 30
0.0
 10
18.9716128268
 20
95.9991702518
 30
0.0
  0
SPLINE
  5
2AD
100
AcDbEntity
  8
0
100
AcDbSpline
 62
7
  6
BYLAYER
 70
0
 71
3
 72
12
 73
8
 74
0
 42
0.0000001
 43
0.0000001
 44
0.0000000001
 40
0.0
 40
0.0
 40
0.0
 40
0.0
 40
0.2895802478
 40
0.5486338167
 40
0.781636669
 40
0.891837247
 40
1.0
 40
1.0
 40
1.0
 40
1.0
 10
20.3857960626
 20
93.549704817
 30
0.0
 10
20.4735870361
 20
93.4990172172
 30
0.0
 10
20.6481903074
 20
93.4159419098
 30
0.0
 10
20.9163679964
 20
93.3511004639
 30
0.0
 10
21.1305181983
 20
93.3567703572
 30
0.0
 10
21.2833996473
 20
93.3991196584
 30
0.0
 10
21.3530360216
 20
93.4317035643
 30
0.0
 10
21.3858278001
 20
93.4506353505
 30
0.0
  0
SPLINE
  5
2AE
100
AcDbEntity
  8
0
100
AcDbSpline
 62
7
  6
BYLAYER
 70
0
 71
3
 72
21
 73
17
 74
0
 42
0.0000001
 43
0.0000001
 44
0.0000000001
 40
0.0
 40
0.0
 40
0.0
 40
0.0
 40
0.0624005755
 40
0.1287841705
 40
0.1984000402
 40
0.2704091638
 40
0.4174479818
 40
0.5616801689
 40
0.6303071026
 40
0.695422624
 40
0.7563971576
 40
0.8128599929
 40
0.8647832875
 40
0.91257901
 40
0.9571734779
 40
1.0
 40
1.0
 40
1.0
 40
1.0
 10
21.8000517274
 20
94.3662072337
 30
0.0
 10
21.8000517274
 20
94.4491664045
 30
0.0
 10
21.7887973484
 20
94.6204936317
 30
0.0
 10
21.7425641502
 20
94.8806185685
 30
0.0
 10
21.6673465663
 20
95.1471867815
 30
0.0
 10
21.5297090033
 20
95.5058891606
 30
0.0
 10
21.2986473769
 20
95.9327447657
 30
0.0
 10
21.0025427122
 20
96.3119740683
 30
0.0
 10
20.7360040271
 20
96.5687238239
 30
0.0
 10
20.5317587156
 20
96.7286115329
 30
0.0
 10
20.3242144221
 20
96.8555903434
 30
0.0
 10
20.1175647862
 20
96.9469265181
 30
0.0
 10
19.915924573
 20
97.000494778
 30
0.0
 10
19.7232580815
 20
97.0146728969
 30
0.0
 10
19.5438390256
 20
96.9883814063
 30
0.0
 10
19.4351453271
 20
96.9432096169
 30
0.0
 10
19.385836754
 20
96.9147421349
 30
0.0
  0
SPLINE
  5
2AF
100
AcDbEntity
  8
0
100
AcDbSpline
 62
7
  6
BYLAYER
 70
0
 71
3
 72
12
 73
8
 74
0
 42
0.0000001
 43
0.0000001
 44
0.0000000001
 40
0.0
 40
0.0
 40
0.0
 40
0.0
 40
0.1081622879
 40
0.2183639773
 40
0.4513669681
 40
0.7104202964
 40
1.0
 40
1.0
 40
1.0
 40
1.0
 10
21.3858278001
 20
93.4506353505
 30
0.0
 10
21.4186190231
 20
93.469566816
 30
0.0
 10
21.4816565242
 20
93.5135795452
 30
0.0
 10
21.5947697139
 20
93.6248048921
 30
0.0
 10
21.7067571669
 20
93.8074247145
 30
0.0
 10
21.7846931477
 20
94.0720902239
 30
0.0
 10
21.8000517274
 20
94.2648356926
 30
0.0
 10
21.8000517274
 20
94.3662072337
 30
0.0
  0
SPLINE
  5
2B0
100
AcDbEntity
  8
0
100
AcDbSpline
 62
7
  6
BYLAYER
 70
0
 71
3
 72
9
 73
5
 74
0
 42
0.0000001
 43
0.0000001
 44
0.0000000001
 40
0.0
 40
0.0
 40
0.0
 40
0.0
 40
0.264352799
 40
1.0
 40
1.0
 40
1.0
 40
1.0
 10
20.1029617687
 20
93.7130136596
 30
0.0
 10
20.128057235
 20
93.698524319
 30
0.0
 10
20.224501588
 20
93.6464682448
 30
0.0
 10
20.3275472706
 20
93.6059301358
 30
0.0
 10
20.4056528094
 20
93.5858694057
 30
0.0
  0
SPLINE
  5
2B1
100
AcDbEntity
  8
0
100
AcDbSpline
 62
7
  6
BYLAYER
 70
0
 71
3
 72
16
 73
12
 74
0
 42
0.0000001
 43
0.0000001
 44
0.0000000001
 40
0.0
 40
0.0
 40
0.0
 40
0.0
 40
0.1290012323
 40
0.2475956383
 40
0.359806208
 40
0.4710511419
 40
0.5869914663
 40
0.7121758463
 40
0.7792806259
 40
0.8496385142
 40
1.0
 40
1.0
 40
1.0
 40
1.0
 10
20.4056528094
 20
93.5858694057
 30
0.0
 10
20.4619533981
 20
93.5714090878
 30
0.0
 10
20.5729803574
 20
93.5533055969
 30
0.0
 10
20.7363630568
 20
93.5641044042
 30
0.0
 10
20.8839758195
 20
93.6150489817
 30
0.0
 10
21.0101583948
 20
93.7050975308
 30
0.0
 10
21.1104189945
 20
93.8305029846
 30
0.0
 10
21.1692311639
 20
93.9576286187
 30
0.0
 10
21.2026541363
 20
94.0712925995
 30
0.0
 10
21.227689902
 20
94.1987010464
 30
0.0
 10
21.2343663024
 20
94.2984530096
 30
0.0
 10
21.2343663024
 20
94.3662058739
 30
0.0
  0
SPLINE
  5
2B2
100
AcDbEntity
  8
0
100
AcDbSpline
 62
7
  6
BYLAYER
 70
0
 71
3
 72
23
 73
19
 74
0
 42
0.0000001
 43
0.0000001
 44
0.0000000001
 40
0.0
 40
0.0
 40
0.0
 40
0.0
 40
0.0660449198
 40
0.1370068841
 40
0.2116575043
 40
0.2885388699
 40
0.3660158262
 40
0.442425333
 40
0.5161677226
 40
0.5858314171
 40
0.6503214731
 40
0.7090159401
 40
0.7619590863
 40
0.8100761089
 40
0.8552919579
 40
0.9002978607
 40
0.9478480044
 40
1.0
 40
1.0
 40
1.0
 40
1.0
 10
21.2343663024
 20
94.3662058739
 30
0.0
 10
21.2343663024
 20
94.4480143195
 30
0.0
 10
21.2206609642
 20
94.6178658098
 30
0.0
 10
21.1654923266
 20
94.8747856237
 30
0.0
 10
21.076614668
 20
95.1362750255
 30
0.0
 10
20.9569039687
 20
95.3940146913
 30
0.0
 10
20.8101054134
 20
95.63988165
 30
0.0
 10
20.6408922149
 20
95.8660813444
 30
0.0
 10
20.454598008
 20
96.0654591196
 30
0.0
 10
20.2570539214
 20
96.2317376985
 30
0.0
 10
20.0543142907
 20
96.359704604
 30
0.0
 10
19.8523701919
 20
96.4452678372
 30
0.0
 10
19.6569380691
 20
96.4852904989
 30
0.0
 10
19.4736979211
 20
96.4771637367
 30
0.0
 10
19.3095096569
 20
96.4190982365
 30
0.0
 10
19.1725245558
 20
96.3125956332
 30
0.0
 10
19.0687724757
 20
96.1636570102
 30
0.0
 10
19.0254790553
 20
96.0466682144
 30
0.0
 10
19.0090370543
 20
95.984196096
 30
0.0
  0
SPLINE
  5
2B3
100
AcDbEntity
  8
0
100
AcDbSpline
 62
7
  6
BYLAYER
 70
0
 71
3
 72
9
 73
5
 74
0
 42
0.0000001
 43
0.0000001
 44
0.0000000001
 40
0.0
 40
0.0
 40
0.0
 40
0.0
 40
0.2369894735
 40
1.0
 40
1.0
 40
1.0
 40
1.0
 10
19.0090370543
 20
95.984196096
 30
0.0
 10
19.002716436
 20
95.9601806243
 30
0.0
 10
18.9798918427
 20
95.8578388823
 30
0.0
 10
18.971615182
 20
95.7525295192
 30
0.0
 10
18.971615182
 20
95.6725762884
 30
0.0
  0
SPLINE
  5
2B4
100
AcDbEntity
  8
0
100
AcDbSpline
 62
7
  6
BYLAYER
 70
0
 71
3
 72
15
 73
11
 74
0
 42
0.0000001
 43
0.0000001
 44
0.0000000001
 40
0.0
 40
0.0
 40
0.0
 40
0.0
 40
0.1141515087
 40
0.2373301591
 40
0.3669778071
 40
0.5000005759
 40
0.6330236626
 40
0.7626743904
 40
0.8858459846
 40
1.0
 40
1.0
 40
1.0
 40
1.0
 10
35.9422485855
 20
66.2787401688
 30
0.0
 10
35.9422485855
 20
66.189311198
 30
0.0
 10
35.9586320351
 20
66.0032080287
 30
0.0
 10
36.0239260028
 20
65.7224510314
 30
0.0
 10
36.1285425666
 20
65.4380686476
 30
0.0
 10
36.2685436286
 20
65.1607530499
 30
0.0
 10
36.4387044918
 20
64.9008467732
 30
0.0
 10
36.6326807252
 20
64.6680608163
 30
0.0
 10
36.8431699814
 20
64.4711310179
 30
0.0
 10
36.9961463342
 20
64.3638940866
 30
0.0
 10
37.0735951722
 20
64.31917754
 30
0.0
  0
SPLINE
  5
2B5
100
AcDbEntity
  8
0
100
AcDbSpline
 62
7
  6
BYLAYER
 70
0
 71
3
 72
12
 73
8
 74
0
 42
0.0000001
 43
0.0000001
 44
0.0000000001
 40
0.0
 40
0.0
 40
0.0
 40
0.0
 40
0.1081622879
 40
0.2183639773
 40
0.4513669681
 40
0.7104202964
 40
1.0
 40
1.0
 40
1.0
 40
1.0
 10
36.3564701575
 20
67.5209060153
 30
0.0
 10
36.3236789345
 20
67.5019745499
 30
0.0
 10
36.2606414334
 20
67.4579618207
 30
0.0
 10
36.1475282437
 20
67.3467364738
 30
0.0
 10
36.0355407908
 20
67.1641166514
 30
0.0
 10
35.9576048099
 20
66.899451142
 30
0.0
 10
35.9422462303
 20
66.7067056732
 30
0.0
 10
35.9422462303
 20
66.6053341322
 30
0.0
  0
SPLINE
  5
2B6
100
AcDbEntity
  8
0
100
AcDbSpline
 62
7
  6
BYLAYER
 70
0
 71
3
 72
12
 73
8
 74
0
 42
0.0000001
 43
0.0000001
 44
0.0000000001
 40
0.0
 40
0.0
 40
0.0
 40
0.0
 40
0.2895802478
 40
0.5486338167
 40
0.781636669
 40
0.891837247
 40
1.0
 40
1.0
 40
1.0
 40
1.0
 10
37.3564294661
 20
64.1558686974
 30
0.0
 10
37.4442204396
 20
64.1051810976
 30
0.0
 10
37.6188237109
 20
64.0221057902
 30
0.0
 10
37.8870014
 20
63.9572643443
 30
0.0
 10
38.1011516019
 20
63.9629342376
 30
0.0
 10
38.2540330508
 20
64.0052835388
 30
0.0
 10
38.3236694251
 20
64.0378674447
 30
0.0
 10
38.3564612037
 20
64.0567992309
 30
0.0
  0
SPLINE
  5
2B7
100
AcDbEntity
  8
0
100
AcDbSpline
 62
7
  6
BYLAYER
 70
0
 71
3
 72
21
 73
17
 74
0
 42
0.0000001
 43
0.0000001
 44
0.0000000001
 40
0.0
 40
0.0
 40
0.0
 40
0.0
 40
0.0624005755
 40
0.1287841705
 40
0.1984000402
 40
0.2704091638
 40
0.4174479818
 40
0.5616801689
 40
0.6303071026
 40
0.695422624
 40
0.7563971576
 40
0.8128599929
 40
0.8647832875
 40
0.91257901
 40
0.9571734779
 40
1.0
 40
1.0
 40
1.0
 40
1.0
 10
38.7706851309
 20
64.9723711141
 30
0.0
 10
38.7706851309
 20
65.0553302849
 30
0.0
 10
38.7594307519
 20
65.2266575121
 30
0.0
 10
38.7131975537
 20
65.4867824489
 30
0.0
 10
38.6379799698
 20
65.7533506619
 30
0.0
 10
38.5003424068
 20
66.112053041
 30
0.0
 10
38.2692807805
 20
66.5389086461
 30
0.0
 10
37.9731761158
 20
66.9181379487
 30
0.0
 10
37.7066374306
 20
67.1748877043
 30
0.0
 10
37.5023921192
 20
67.3347754133
 30
0.0
 10
37.2948478256
 20
67.4617542238
 30
0.0
 10
37.0881981897
 20
67.5530903985
 30
0.0
 10
36.8865579766
 20
67.6066586584
 30
0.0
 10
36.693891485
 20
67.6208367773
 30
0.0
 10
36.5144724291
 20
67.5945452867
 30
0.0
 10
36.4057787306
 20
67.5493734973
 30
0.0
 10
36.3564701575
 20
67.5209060153
 30
0.0
  0
SPLINE
  5
2B8
100
AcDbEntity
  8
0
100
AcDbSpline
 62
7
  6
BYLAYER
 70
0
 71
3
 72
12
 73
8
 74
0
 42
0.0000001
 43
0.0000001
 44
0.0000000001
 40
0.0
 40
0.0
 40
0.0
 40
0.0
 40
0.1081622879
 40
0.2183639773
 40
0.4513669681
 40
0.7104202964
 40
1.0
 40
1.0
 40
1.0
 40
1.0
 10
38.3564612037
 20
64.0567992309
 30
0.0
 10
38.3892524267
 20
64.0757306964
 30
0.0
 10
38.4522899278
 20
64.1197434256
 30
0.0
 10
38.5654031175
 20
64.2309687725
 30
0.0
 10
38.6773905704
 20
64.4135885949
 30
0.0
 10
38.7553265513
 20
64.6782541043
 30
0.0
 10
38.7706851309
 20
64.870999573
 30
0.0
 10
38.7706851309
 20
64.9723711141
 30
0.0
  0
SPLINE
  5
2B9
100
AcDbEntity
  8
0
100
AcDbSpline
 62
7
  6
BYLAYER
 70
0
 71
3
 72
9
 73
5
 74
0
 42
0.0000001
 43
0.0000001
 44
0.0000000001
 40
0.0
 40
0.0
 40
0.0
 40
0.0
 40
0.264352799
 40
1.0
 40
1.0
 40
1.0
 40
1.0
 10
37.0735951722
 20
64.31917754
 30
0.0
 10
37.0986906386
 20
64.3046881994
 30
0.0
 10
37.1951349916
 20
64.2526321252
 30
0.0
 10
37.2981806741
 20
64.2120940162
 30
0.0
 10
37.3762862129
 20
64.1920332861
 30
0.0
  0
SPLINE
  5
2BA
100
AcDbEntity
  8
0
100
AcDbSpline
 62
7
  6
BYLAYER
 70
0
 71
3
 72
16
 73
12
 74
0
 42
0.0000001
 43
0.0000001
 44
0.0000000001
 40
0.0
 40
0.0
 40
0.0
 40
0.0
 40
0.1290012323
 40
0.2475956383
 40
0.359806208
 40
0.4710511419
 40
0.5869914663
 40
0.7121758463
 40
0.7792806259
 40
0.8496385142
 40
1.0
 40
1.0
 40
1.0
 40
1.0
 10
37.3762862129
 20
64.1920332861
 30
0.0
 10
37.4325868016
 20
64.1775729682
 30
0.0
 10
37.5436137609
 20
64.1594694773
 30
0.0
 10
37.7069964603
 20
64.1702682846
 30
0.0
 10
37.8546092231
 20
64.2212128621
 30
0.0
 10
37.9807917983
 20
64.3112614112
 30
0.0
 10
38.081052398
 20
64.436666865
 30
0.0
 10
38.1398645674
 20
64.5637924991
 30
0.0
 10
38.1732875399
 20
64.6774564799
 30
0.0
 10
38.1983233055
 20
64.8048649268
 30
0.0
 10
38.204999706
 20
64.90461689
 30
0.0
 10
38.204999706
 20
64.9723697543
 30
0.0
  0
SPLINE
  5
2BB
100
AcDbEntity
  8
0
100
AcDbSpline
 62
7
  6
BYLAYER
 70
0
 71
3
 72
23
 73
19
 74
0
 42
0.0000001
 43
0.0000001
 44
0.0000000001
 40
0.0
 40
0.0
 40
0.0
 40
0.0
 40
0.0660449198
 40
0.1370068841
 40
0.2116575043
 40
0.2885388699
 40
0.3660158262
 40
0.442425333
 40
0.5161677226
 40
0.5858314171
 40
0.6503214731
 40
0.7090159401
 40
0.7619590863
 40
0.8100761089
 40
0.8552919579
 40
0.9002978607
 40
0.9478480044
 40
1.0
 40
1.0
 40
1.0
 40
1.0
 10
38.204999706
 20
64.9723697543
 30
0.0
 10
38.204999706
 20
65.0541781999
 30
0.0
 10
38.1912943677
 20
65.2240296902
 30
0.0
 10
38.1361257301
 20
65.4809495041
 30
0.0
 10
38.0472480715
 20
65.7424389059
 30
0.0
 10
37.9275373722
 20
66.0001785717
 30
0.0
 10
37.780738817
 20
66.2460455304
 30
0.0
 10
37.6115256184
 20
66.4722452248
 30
0.0
 10
37.4252314116
 20
66.671623
 30
0.0
 10
37.2276873249
 20
66.8379015789
 30
0.0
 10
37.0249476942
 20
66.9658684844
 30
0.0
 10
36.8230035954
 20
67.0514317176
 30
0.0
 10
36.6275714726
 20
67.0914543793
 30
0.0
 10
36.4443313246
 20
67.0833276171
 30
0.0
 10
36.2801430604
 20
67.0252621169
 30
0.0
 10
36.1431579593
 20
66.9187595136
 30
0.0
 10
36.0394058793
 20
66.7698208906
 30
0.0
 10
35.9961124589
 20
66.6528320948
 30
0.0
 10
35.9796704578
 20
66.5903599764
 30
0.0
  0
SPLINE
  5
2BC
100
AcDbEntity
  8
0
100
AcDbSpline
 62
7
  6
BYLAYER
 70
0
 71
3
 72
9
 73
5
 74
0
 42
0.0000001
 43
0.0000001
 44
0.0000000001
 40
0.0
 40
0.0
 40
0.0
 40
0.0
 40
0.2369894735
 40
1.0
 40
1.0
 40
1.0
 40
1.0
 10
35.9796704578
 20
66.5903599764
 30
0.0
 10
35.9733498396
 20
66.5663445047
 30
0.0
 10
35.9505252462
 20
66.4640027627
 30
0.0
 10
35.9422485855
 20
66.3586933996
 30
0.0
 10
35.9422485855
 20
66.2787401688
 30
0.0
  0
SPLINE
  5
2BD
100
AcDbEntity
  8
0
100
AcDbSpline
 62
7
  6
BYLAYER
 70
0
 71
3
 72
15
 73
11
 74
0
 42
0.0000001
 43
0.0000001
 44
0.0000000001
 40
0.0
 40
0.0
 40
0.0
 40
0.0
 40
0.1141515087
 40
0.2373301591
 40
0.3669778071
 40
0.5000005759
 40
0.6330236626
 40
0.7626743904
 40
0.8858459846
 40
1.0
 40
1.0
 40
1.0
 40
1.0
 10
35.9422485855
 20
85.8747981799
 30
0.0
 10
35.9422485855
 20
85.7853692091
 30
0.0
 10
35.9586320351
 20
85.5992660398
 30
0.0
 10
36.0239260028
 20
85.3185090425
 30
0.0
 10
36.1285425666
 20
85.0341266587
 30
0.0
 10
36.2685436286
 20
84.756811061
 30
0.0
 10
36.4387044918
 20
84.4969047843
 30
0.0
 10
36.6326807252
 20
84.2641188274
 30
0.0
 10
36.8431699814
 20
84.067189029
 30
0.0
 10
36.9961463342
 20
83.9599520977
 30
0.0
 10
37.0735951722
 20
83.9152355511
 30
0.0
  0
SPLINE
  5
2BE
100
AcDbEntity
  8
0
100
AcDbSpline
 62
7
  6
BYLAYER
 70
0
 71
3
 72
12
 73
8
 74
0
 42
0.0000001
 43
0.0000001
 44
0.0000000001
 40
0.0
 40
0.0
 40
0.0
 40
0.0
 40
0.1081622879
 40
0.2183639773
 40
0.4513669681
 40
0.7104202964
 40
1.0
 40
1.0
 40
1.0
 40
1.0
 10
36.3564701575
 20
87.1169640264
 30
0.0
 10
36.3236789345
 20
87.098032561
 30
0.0
 10
36.2606414334
 20
87.0540198318
 30
0.0
 10
36.1475282437
 20
86.9427944849
 30
0.0
 10
36.0355407908
 20
86.7601746625
 30
0.0
 10
35.9576048099
 20
86.4955091531
 30
0.0
 10
35.9422462303
 20
86.3027636843
 30
0.0
 10
35.9422462303
 20
86.2013921433
 30
0.0
  0
SPLINE
  5
2BF
100
AcDbEntity
  8
0
100
AcDbSpline
 62
7
  6
BYLAYER
 70
0
 71
3
 72
12
 73
8
 74
0
 42
0.0000001
 43
0.0000001
 44
0.0000000001
 40
0.0
 40
0.0
 40
0.0
 40
0.0
 40
0.2895802478
 40
0.5486338167
 40
0.781636669
 40
0.891837247
 40
1.0
 40
1.0
 40
1.0
 40
1.0
 10
37.3564294661
 20
83.7519267085
 30
0.0
 10
37.4442204396
 20
83.7012391087
 30
0.0
 10
37.6188237109
 20
83.6181638013
 30
0.0
 10
37.8870014
 20
83.5533223554
 30
0.0
 10
38.1011516019
 20
83.5589922487
 30
0.0
 10
38.2540330508
 20
83.6013415499
 30
0.0
 10
38.3236694251
 20
83.6339254558
 30
0.0
 10
38.3564612037
 20
83.652857242
 30
0.0
  0
SPLINE
  5
2C0
100
AcDbEntity
  8
0
100
AcDbSpline
 62
7
  6
BYLAYER
 70
0
 71
3
 72
21
 73
17
 74
0
 42
0.0000001
 43
0.0000001
 44
0.0000000001
 40
0.0
 40
0.0
 40
0.0
 40
0.0
 40
0.0624005755
 40
0.1287841705
 40
0.1984000402
 40
0.2704091638
 40
0.4174479818
 40
0.5616801689
 40
0.6303071026
 40
0.695422624
 40
0.7563971576
 40
0.8128599929
 40
0.8647832875
 40
0.91257901
 40
0.9571734779
 40
1.0
 40
1.0
 40
1.0
 40
1.0
 10
38.7706851309
 20
84.5684291252
 30
0.0
 10
38.7706851309
 20
84.651388296
 30
0.0
 10
38.7594307519
 20
84.8227155233
 30
0.0
 10
38.7131975537
 20
85.08284046
 30
0.0
 10
38.6379799698
 20
85.349408673
 30
0.0
 10
38.5003424068
 20
85.7081110521
 30
0.0
 10
38.2692807805
 20
86.1349666572
 30
0.0
 10
37.9731761158
 20
86.5141959598
 30
0.0
 10
37.7066374306
 20
86.7709457154
 30
0.0
 10
37.5023921192
 20
86.9308334244
 30
0.0
 10
37.2948478256
 20
87.057812235
 30
0.0
 10
37.0881981897
 20
87.1491484096
 30
0.0
 10
36.8865579766
 20
87.2027166695
 30
0.0
 10
36.693891485
 20
87.2168947884
 30
0.0
 10
36.5144724291
 20
87.1906032978
 30
0.0
 10
36.4057787306
 20
87.1454315084
 30
0.0
 10
36.3564701575
 20
87.1169640264
 30
0.0
  0
SPLINE
  5
2C1
100
AcDbEntity
  8
0
100
AcDbSpline
 62
7
  6
BYLAYER
 70
0
 71
3
 72
12
 73
8
 74
0
 42
0.0000001
 43
0.0000001
 44
0.0000000001
 40
0.0
 40
0.0
 40
0.0
 40
0.0
 40
0.1081622879
 40
0.2183639773
 40
0.4513669681
 40
0.7104202964
 40
1.0
 40
1.0
 40
1.0
 40
1.0
 10
38.3564612037
 20
83.652857242
 30
0.0
 10
38.3892524267
 20
83.6717887075
 30
0.0
 10
38.4522899278
 20
83.7158014367
 30
0.0
 10
38.5654031175
 20
83.8270267836
 30
0.0
 10
38.6773905704
 20
84.009646606
 30
0.0
 10
38.7553265513
 20
84.2743121154
 30
0.0
 10
38.7706851309
 20
84.4670575841
 30
0.0
 10
38.7706851309
 20
84.5684291252
 30
0.0
  0
SPLINE
  5
2C2
100
AcDbEntity
  8
0
100
AcDbSpline
 62
7
  6
BYLAYER
 70
0
 71
3
 72
9
 73
5
 74
0
 42
0.0000001
 43
0.0000001
 44
0.0000000001
 40
0.0
 40
0.0
 40
0.0
 40
0.0
 40
0.264352799
 40
1.0
 40
1.0
 40
1.0
 40
1.0
 10
37.0735951722
 20
83.9152355511
 30
0.0
 10
37.0986906386
 20
83.9007462105
 30
0.0
 10
37.1951349916
 20
83.8486901364
 30
0.0
 10
37.2981806741
 20
83.8081520273
 30
0.0
 10
37.3762862129
 20
83.7880912972
 30
0.0
  0
SPLINE
  5
2C3
100
AcDbEntity
  8
0
100
AcDbSpline
 62
7
  6
BYLAYER
 70
0
 71
3
 72
16
 73
12
 74
0
 42
0.0000001
 43
0.0000001
 44
0.0000000001
 40
0.0
 40
0.0
 40
0.0
 40
0.0
 40
0.1290012323
 40
0.2475956383
 40
0.359806208
 40
0.4710511419
 40
0.5869914663
 40
0.7121758463
 40
0.7792806259
 40
0.8496385142
 40
1.0
 40
1.0
 40
1.0
 40
1.0
 10
37.3762862129
 20
83.7880912972
 30
0.0
 10
37.4325868016
 20
83.7736309794
 30
0.0
 10
37.5436137609
 20
83.7555274885
 30
0.0
 10
37.7069964603
 20
83.7663262957
 30
0.0
 10
37.8546092231
 20
83.8172708733
 30
0.0
 10
37.9807917983
 20
83.9073194223
 30
0.0
 10
38.081052398
 20
84.0327248761
 30
0.0
 10
38.1398645674
 20
84.1598505102
 30
0.0
 10
38.1732875399
 20
84.273514491
 30
0.0
 10
38.1983233055
 20
84.4009229379
 30
0.0
 10
38.204999706
 20
84.5006749011
 30
0.0
 10
38.204999706
 20
84.5684277655
 30
0.0
  0
SPLINE
  5
2C4
100
AcDbEntity
  8
0
100
AcDbSpline
 62
7
  6
BYLAYER
 70
0
 71
3
 72
23
 73
19
 74
0
 42
0.0000001
 43
0.0000001
 44
0.0000000001
 40
0.0
 40
0.0
 40
0.0
 40
0.0
 40
0.0660449198
 40
0.1370068841
 40
0.2116575043
 40
0.2885388699
 40
0.3660158262
 40
0.442425333
 40
0.5161677226
 40
0.5858314171
 40
0.6503214731
 40
0.7090159401
 40
0.7619590863
 40
0.8100761089
 40
0.8552919579
 40
0.9002978607
 40
0.9478480044
 40
1.0
 40
1.0
 40
1.0
 40
1.0
 10
38.204999706
 20
84.5684277655
 30
0.0
 10
38.204999706
 20
84.650236211
 30
0.0
 10
38.1912943677
 20
84.8200877013
 30
0.0
 10
38.1361257301
 20
85.0770075152
 30
0.0
 10
38.0472480715
 20
85.338496917
 30
0.0
 10
37.9275373722
 20
85.5962365828
 30
0.0
 10
37.780738817
 20
85.8421035415
 30
0.0
 10
37.6115256184
 20
86.0683032359
 30
0.0
 10
37.4252314116
 20
86.2676810111
 30
0.0
 10
37.2276873249
 20
86.4339595901
 30
0.0
 10
37.0249476942
 20
86.5619264955
 30
0.0
 10
36.8230035954
 20
86.6474897288
 30
0.0
 10
36.6275714726
 20
86.6875123904
 30
0.0
 10
36.4443313246
 20
86.6793856282
 30
0.0
 10
36.2801430604
 20
86.621320128
 30
0.0
 10
36.1431579593
 20
86.5148175247
 30
0.0
 10
36.0394058793
 20
86.3658789017
 30
0.0
 10
35.9961124589
 20
86.2488901059
 30
0.0
 10
35.9796704578
 20
86.1864179876
 30
0.0
  0
SPLINE
  5
2C5
100
AcDbEntity
  8
0
100
AcDbSpline
 62
7
  6
BYLAYER
 70
0
 71
3
 72
9
 73
5
 74
0
 42
0.0000001
 43
0.0000001
 44
0.0000000001
 40
0.0
 40
0.0
 40
0.0
 40
0.0
 40
0.2369894735
 40
1.0
 40
1.0
 40
1.0
 40
1.0
 10
35.9796704578
 20
86.1864179876
 30
0.0
 10
35.9733498396
 20
86.1624025158
 30
0.0
 10
35.9505252462
 20
86.0600607738
 30
0.0
 10
35.9422485855
 20
85.9547514107
 30
0.0
 10
35.9422485855
 20
85.8747981799
 30
0.0
  0
SPLINE
  5
2C6
100
AcDbEntity
  8
0
100
AcDbSpline
 62
7
  6
BYLAYER
 70
0
 71
3
 72
11
 73
7
 74
0
 42
0.0000001
 43
0.0000001
 44
0.0000000001
 40
0.0
 40
0.0
 40
0.0
 40
0.0
 40
0.2550462355
 40
0.5043104032
 40
0.7520371644
 40
1.0
 40
1.0
 40
1.0
 40
1.0
 10
36.2628051739
 20
110.3533640878
 30
0.0
 10
36.1857392459
 20
110.3978571155
 30
0.0
 10
36.0246261331
 20
110.4720642722
 30
0.0
 10
35.7651402824
 20
110.52603468
 30
0.0
 10
35.5023030644
 20
110.5092911318
 30
0.0
 10
35.3377380372
 20
110.4461444271
 30
0.0
 10
35.2628127734
 20
110.4028865641
 30
0.0
  0
SPLINE
  5
2C7
100
AcDbEntity
  8
0
100
AcDbSpline
 62
7
  6
BYLAYER
 70
0
 71
3
 72
11
 73
7
 74
0
 42
0.0000001
 43
0.0000001
 44
0.0000000001
 40
0.0
 40
0.0
 40
0.0
 40
0.0
 40
0.2479486942
 40
0.4956843277
 40
0.7449570459
 40
1.0
 40
1.0
 40
1.0
 40
1.0
 10
57.9760978125
 20
71.0625113261
 30
0.0
 10
58.0510203061
 20
71.1057675898
 30
0.0
 10
58.1879884336
 20
71.2167144092
 30
0.0
 10
58.3339194873
 20
71.435966427
 30
0.0
 10
58.416919131
 20
71.6876858627
 30
0.0
 10
58.4332108953
 20
71.8643224105
 30
0.0
 10
58.4332108953
 20
71.9533106158
 30
0.0
  0
SPLINE
  5
2C8
100
AcDbEntity
  8
0
100
AcDbSpline
 62
7
  6
BYLAYER
 70
0
 71
3
 72
11
 73
7
 74
0
 42
0.0000001
 43
0.0000001
 44
0.0000000001
 40
0.0
 40
0.0
 40
0.0
 40
0.0
 40
0.2433840245
 40
0.500010509
 40
0.7566329882
 40
1.0
 40
1.0
 40
1.0
 40
1.0
 10
58.4332108953
 20
96.4483831297
 30
0.0
 10
58.4332108953
 20
96.6096607643
 30
0.0
 10
58.37811419
 20
96.9417557964
 30
0.0
 10
58.1756072641
 20
97.4048521228
 30
0.0
 10
57.8758043976
 20
97.8117597759
 30
0.0
 10
57.6157584838
 20
98.0255096397
 30
0.0
 10
57.4760969284
 20
98.1061414522
 30
0.0
  0
SPLINE
  5
2C9
100
AcDbEntity
  8
0
100
AcDbSpline
 62
7
  6
BYLAYER
 70
0
 71
3
 72
11
 73
7
 74
0
 42
0.0000001
 43
0.0000001
 44
0.0000000001
 40
0.0
 40
0.0
 40
0.0
 40
0.0
 40
0.289775222
 40
0.5490688033
 40
0.782225076
 40
1.0
 40
1.0
 40
1.0
 40
1.0
 10
32.123738311
 20
108.0832572993
 30
0.0
 10
32.057903044
 20
108.1212664485
 30
0.0
 10
31.9269824416
 20
108.1835792805
 30
0.0
 10
31.7257225397
 20
108.2321362754
 30
0.0
 10
31.5369104807
 20
108.2273741854
 30
0.0
 10
31.4232241877
 20
108.1860995627
 30
0.0
 10
31.3737471818
 20
108.1575341688
 30
0.0
  0
SPLINE
  5
2CA
100
AcDbEntity
  8
0
100
AcDbSpline
 62
7
  6
BYLAYER
 70
0
 71
3
 72
15
 73
11
 74
0
 42
0.0000001
 43
0.0000001
 44
0.0000000001
 40
0.0
 40
0.0
 40
0.0
 40
0.0
 40
0.1143091036
 40
0.2375257765
 40
0.3670988102
 40
0.500001134
 40
0.6329033004
 40
0.7624758742
 40
0.8856918223
 40
1.0
 40
1.0
 40
1.0
 40
1.0
 10
54.3976760796
 20
94.0061492057
 30
0.0
 10
54.39724822
 20
94.0895555205
 30
0.0
 10
54.3813028027
 20
94.2629498946
 30
0.0
 10
54.3198498942
 20
94.5243706045
 30
0.0
 10
54.2220983285
 20
94.7889884167
 30
0.0
 10
54.0917124934
 20
95.0470102222
 30
0.0
 10
53.9334508767
 20
95.2889374546
 30
0.0
 10
53.7531602716
 20
95.5058999041
 30
0.0
 10
53.5574895852
 20
95.6898276309
 30
0.0
 10
53.4152984351
 20
95.7903320088
 30
0.0
 10
53.3432805179
 20
95.8324046047
 30
0.0
  0
SPLINE
  5
2CB
100
AcDbEntity
  8
0
100
AcDbSpline
 62
7
  6
BYLAYER
 70
0
 71
3
 72
11
 73
7
 74
0
 42
0.0000001
 43
0.0000001
 44
0.0000000001
 40
0.0
 40
0.0
 40
0.0
 40
0.0
 40
0.2820595931
 40
0.5415627873
 40
0.7794819768
 40
1.0
 40
1.0
 40
1.0
 40
1.0
 10
58.2867657578
 20
71.749190239
 30
0.0
 10
58.2867657578
 20
71.690068013
 30
0.0
 10
58.2796670408
 20
71.576346875
 30
0.0
 10
58.2447990702
 20
71.4159681228
 30
0.0
 10
58.1864953331
 20
71.2762335937
 30
0.0
 10
58.1307190392
 20
71.1967284895
 30
0.0
 10
58.0996198388
 20
71.1625325136
 30
0.0
  0
SPLINE
  5
2CC
100
AcDbEntity
  8
0
100
AcDbSpline
 62
7
  6
BYLAYER
 70
0
 71
3
 72
9
 73
5
 74
0
 42
0.0000001
 43
0.0000001
 44
0.0000000001
 40
0.0
 40
0.0
 40
0.0
 40
0.0
 40
0.253906826
 40
1.0
 40
1.0
 40
1.0
 40
1.0
 10
58.0996198388
 20
71.1625325136
 30
0.0
 10
58.090548873
 20
71.152558285
 30
0.0
 10
58.0534091407
 20
71.1145890678
 30
0.0
 10
58.0104033251
 20
71.0823255977
 30
0.0
 10
57.9760943087
 20
71.0625173949
 30
0.0
  0
SPLINE
  5
2CD
100
AcDbEntity
  8
0
100
AcDbSpline
 62
7
  6
BYLAYER
 70
0
 71
3
 72
9
 73
5
 74
0
 42
0.0000001
 43
0.0000001
 44
0.0000000001
 40
0.0
 40
0.0
 40
0.0
 40
0.0
 40
0.5421579714
 40
1.0
 40
1.0
 40
1.0
 40
1.0
 10
36.0128094157
 20
110.3286001455
 30
0.0
 10
36.0454465817
 20
110.3474431096
 30
0.0
 10
36.1101101859
 20
110.3756759709
 30
0.0
 10
36.1820664502
 20
110.3791438086
 30
0.0
 10
36.2131677861
 20
110.3723947746
 30
0.0
  0
SPLINE
  5
2CE
100
AcDbEntity
  8
0
100
AcDbSpline
 62
7
  6
BYLAYER
 70
0
 71
3
 72
9
 73
5
 74
0
 42
0.0000001
 43
0.0000001
 44
0.0000000001
 40
0.0
 40
0.0
 40
0.0
 40
0.0
 40
0.2538655817
 40
1.0
 40
1.0
 40
1.0
 40
1.0
 10
36.2131677861
 20
110.3723947746
 30
0.0
 10
36.2175736385
 20
110.3714386984
 30
0.0
 10
36.2347833821
 20
110.3670350207
 30
0.0
 10
36.2513181506
 20
110.3599691535
 30
0.0
 10
36.2627935596
 20
110.3533439708
 30
0.0
  0
SPLINE
  5
2CF
100
AcDbEntity
  8
0
100
AcDbSpline
 62
7
  6
BYLAYER
 70
0
 71
3
 72
11
 73
7
 74
0
 42
0.0000001
 43
0.0000001
 44
0.0000000001
 40
0.0
 40
0.0
 40
0.0
 40
0.0
 40
0.2181782417
 40
0.4515021242
 40
0.7106265085
 40
1.0
 40
1.0
 40
1.0
 40
1.0
 10
54.0870211947
 20
68.8171780288
 30
0.0
 10
54.1360262832
 20
68.8454709627
 30
0.0
 10
54.2277761255
 20
68.9223103943
 30
0.0
 10
54.3259291692
 20
69.0812407844
 30
0.0
 10
54.3849378088
 20
69.2771082498
 30
0.0
 10
54.3971802997
 20
69.4197758986
 30
0.0
 10
54.3976655348
 20
69.4948254559
 30
0.0
  0
SPLINE
  5
2D0
100
AcDbEntity
  8
0
100
AcDbSpline
 62
7
  6
BYLAYER
 70
0
 71
3
 72
9
 73
5
 74
0
 42
0.0000001
 43
0.0000001
 44
0.0000000001
 40
0.0
 40
0.0
 40
0.0
 40
0.0
 40
0.7461262332
 40
1.0
 40
1.0
 40
1.0
 40
1.0
 10
58.4331876663
 20
71.9533106158
 30
0.0
 10
58.4331876668
 20
71.9400461756
 30
0.0
 10
58.4310349975
 20
71.9221746504
 30
0.0
 10
58.4262340053
 20
71.9050519901
 30
0.0
 10
58.4248562365
 20
71.900754124
 30
0.0
  0
SPLINE
  5
2D1
100
AcDbEntity
  8
0
100
AcDbSpline
 62
7
  6
BYLAYER
 70
0
 71
3
 72
9
 73
5
 74
0
 42
0.0000001
 43
0.0000001
 44
0.0000000001
 40
0.0
 40
0.0
 40
0.0
 40
0.0
 40
0.4578517331
 40
1.0
 40
1.0
 40
1.0
 40
1.0
 10
58.4248562365
 20
71.900754124
 30
0.0
 10
58.4151433507
 20
71.8704553653
 30
0.0
 10
58.3761617408
 20
71.8098985908
 30
0.0
 10
58.3193937908
 20
71.7680279297
 30
0.0
 10
58.2867657578
 20
71.7491902386
 30
0.0
  0
SPLINE
  5
2D2
100
AcDbEntity
  8
0
100
AcDbSpline
 62
7
  6
BYLAYER
 70
0
 71
3
 72
15
 73
11
 74
0
 42
0.0000001
 43
0.0000001
 44
0.0000000001
 40
0.0
 40
0.0
 40
0.0
 40
0.0
 40
0.1141444714
 40
0.2373317045
 40
0.3669734975
 40
0.499998918
 40
0.6330244891
 40
0.7626667216
 40
0.8858546473
 40
1.0
 40
1.0
 40
1.0
 40
1.0
 10
57.2261011697
 20
98.0813775102
 30
0.0
 10
57.298705576
 20
98.039460285
 30
0.0
 10
57.4421234373
 20
97.938917202
 30
0.0
 10
57.6394718796
 20
97.7543073237
 30
0.0
 10
57.8213192533
 20
97.5360510107
 30
0.0
 10
57.9808564428
 20
97.2923943118
 30
0.0
 10
58.1121021169
 20
97.0324030391
 30
0.0
 10
58.210195665
 20
96.7657900753
 30
0.0
 10
58.2714002916
 20
96.5025753301
 30
0.0
 10
58.2867657578
 20
96.3280992726
 30
0.0
 10
58.2867657578
 20
96.2442627525
 30
0.0
  0
SPLINE
  5
2D3
100
AcDbEntity
  8
0
100
AcDbSpline
 62
7
  6
BYLAYER
 70
0
 71
3
 72
9
 73
5
 74
0
 42
0.0000001
 43
0.0000001
 44
0.0000000001
 40
0.0
 40
0.0
 40
0.0
 40
0.0
 40
0.2478264543
 40
1.0
 40
1.0
 40
1.0
 40
1.0
 10
35.2628162771
 20
110.4028804954
 30
0.0
 10
35.2742406696
 20
110.4094763324
 30
0.0
 10
35.3213719911
 20
110.4342771545
 30
0.0
 10
35.3724485334
 20
110.451440241
 30
0.0
 10
35.4115758128
 20
110.4599312005
 30
0.0
  0
SPLINE
  5
2D4
100
AcDbEntity
  8
0
100
AcDbSpline
 62
7
  6
BYLAYER
 70
0
 71
3
 72
11
 73
7
 74
0
 42
0.0000001
 43
0.0000001
 44
0.0000000001
 40
0.0
 40
0.0
 40
0.0
 40
0.0
 40
0.2205322535
 40
0.4584627464
 40
0.7179629815
 40
1.0
 40
1.0
 40
1.0
 40
1.0
 10
35.4115758128
 20
110.4599312005
 30
0.0
 10
35.4567205538
 20
110.4697280015
 30
0.0
 10
35.5534073918
 20
110.4782178501
 30
0.0
 10
35.7034715057
 20
110.4588041572
 30
0.0
 10
35.8596837326
 20
110.4088197655
 30
0.0
 10
35.9616451397
 20
110.3581391858
 30
0.0
 10
36.0128094157
 20
110.3286001455
 30
0.0
  0
SPLINE
  5
2D5
100
AcDbEntity
  8
0
100
AcDbSpline
 62
7
  6
BYLAYER
 70
0
 71
3
 72
11
 73
7
 74
0
 42
0.0000001
 43
0.0000001
 44
0.0000000001
 40
0.0
 40
0.0
 40
0.0
 40
0.0
 40
0.2895373801
 40
0.5491091728
 40
0.7822513189
 40
1.0
 40
1.0
 40
1.0
 40
1.0
 10
58.2867657578
 20
96.2442627525
 30
0.0
 10
58.3086922008
 20
96.2569219146
 30
0.0
 10
58.3484822376
 20
96.2843565847
 30
0.0
 10
58.3960786629
 20
96.3343243548
 30
0.0
 10
58.4261950181
 20
96.3896436342
 30
0.0
 10
58.4331876671
 20
96.4293422155
 30
0.0
 10
58.4331876663
 20
96.4483831297
 30
0.0
  0
SPLINE
  5
2D6
100
AcDbEntity
  8
0
100
AcDbSpline
 62
7
  6
BYLAYER
 70
0
 71
3
 72
11
 73
7
 74
0
 42
0.0000001
 43
0.0000001
 44
0.0000000001
 40
0.0
 40
0.0
 40
0.0
 40
0.0
 40
0.2177504419
 40
0.4508934119
 40
0.7104646156
 40
1.0
 40
1.0
 40
1.0
 40
1.0
 10
57.476085314
 20
98.1061213352
 30
0.0
 10
57.4595952142
 20
98.1156416863
 30
0.0
 10
57.4217187692
 20
98.1294350234
 30
0.0
 10
57.3587527048
 20
98.1310133448
 30
0.0
 10
57.2916813587
 20
98.1147779947
 30
0.0
 10
57.2480274075
 20
98.0940365534
 30
0.0
 10
57.2261011701
 20
98.0813775099
 30
0.0
  0
SPLINE
  5
2D7
100
AcDbEntity
  8
0
100
AcDbSpline
 62
7
  6
BYLAYER
 70
0
 71
3
 72
11
 73
7
 74
0
 42
0.0000001
 43
0.0000001
 44
0.0000000001
 40
0.0
 40
0.0
 40
0.0
 40
0.0
 40
0.289776437
 40
0.5490705883
 40
0.7822284024
 40
1.0
 40
1.0
 40
1.0
 40
1.0
 10
42.4122707757
 20
86.5484137814
 30
0.0
 10
42.4122707757
 20
86.4394488333
 30
0.0
 10
42.3957956294
 20
86.2322723983
 30
0.0
 10
42.3118336285
 20
85.9476385958
 30
0.0
 10
42.1706053368
 20
85.7166706115
 30
0.0
 10
42.0378910741
 20
85.6051302963
 30
0.0
 10
41.9669727842
 20
85.5641865973
 30
0.0
  0
SPLINE
  5
2D8
100
AcDbEntity
  8
0
100
AcDbSpline
 62
7
  6
BYLAYER
 70
0
 71
3
 72
9
 73
5
 74
0
 42
0.0000001
 43
0.0000001
 44
0.0000000001
 40
0.0
 40
0.0
 40
0.0
 40
0.0
 40
0.4774696376
 40
1.0
 40
1.0
 40
1.0
 40
1.0
 10
23.9213514631
 20
98.9793897089
 30
0.0
 10
24.0613157477
 20
98.8985831196
 30
0.0
 10
24.334833437
 20
98.6947275734
 30
0.0
 10
24.5675187798
 20
98.4467343011
 30
0.0
 10
24.6785116174
 20
98.3090281916
 30
0.0
  0
SPLINE
  5
2D9
100
AcDbEntity
  8
0
100
AcDbSpline
 62
7
  6
BYLAYER
 70
0
 71
3
 72
11
 73
7
 74
0
 42
0.0000001
 43
0.0000001
 44
0.0000000001
 40
0.0
 40
0.0
 40
0.0
 40
0.0
 40
0.2177736399
 40
0.4509324404
 40
0.7102289544
 40
1.0
 40
1.0
 40
1.0
 40
1.0
 10
22.846364164
 20
99.0858532448
 30
0.0
 10
22.9172797879
 20
99.1267985733
 30
0.0
 10
23.080231649
 20
99.1859576596
 30
0.0
 10
23.3508637146
 20
99.1927849083
 30
0.0
 10
23.639336623
 20
99.1231837706
 30
0.0
 10
23.8269888786
 20
99.03386874
 30
0.0
 10
23.9213514631
 20
98.9793897089
 30
0.0
  0
SPLINE
  5
2DA
100
AcDbEntity
  8
0
100
AcDbSpline
 62
7
  6
BYLAYER
 70
0
 71
3
 72
9
 73
5
 74
0
 42
0.0000001
 43
0.0000001
 44
0.0000000001
 40
0.0
 40
0.0
 40
0.0
 40
0.0
 40
0.4866189863
 40
1.0
 40
1.0
 40
1.0
 40
1.0
 10
18.7241279557
 20
85.8541345653
 30
0.0
 10
18.7241279557
 20
85.3774644322
 30
0.0
 10
18.7779616473
 20
84.3974647415
 30
0.0
 10
18.9243146217
 20
83.4274492943
 30
0.0
 10
19.0201912485
 20
82.933788469
 30
0.0
  0
SPLINE
  5
2DB
100
AcDbEntity
  8
0
100
AcDbSpline
 62
7
  6
BYLAYER
 70
0
 71
3
 72
15
 73
11
 74
0
 42
0.0000001
 43
0.0000001
 44
0.0000000001
 40
0.0
 40
0.0
 40
0.0
 40
0.0
 40
0.1546596791
 40
0.3008743066
 40
0.437873711
 40
0.5653965927
 40
0.6838185404
 40
0.7942787569
 40
0.8987555259
 40
1.0
 40
1.0
 40
1.0
 40
1.0
 10
26.0912185369
 20
70.7084427494
 30
0.0
 10
26.4860938572
 20
70.3665896956
 30
0.0
 10
27.2840745607
 20
69.7347638461
 30
0.0
 10
28.5309440117
 20
68.9349441104
 30
0.0
 10
29.7779461741
 20
68.3199291242
 30
0.0
 10
31.0055450871
 20
67.9002744076
 30
0.0
 10
32.1947890127
 20
67.6839168545
 30
0.0
 10
33.3271262302
 20
67.6767894109
 30
0.0
 10
34.3825562348
 20
67.8819455762
 30
0.0
 10
35.0257396299
 20
68.1620308078
 30
0.0
 10
35.3218484554
 20
68.3329700287
 30
0.0
  0
SPLINE
  5
2DC
100
AcDbEntity
  8
0
100
AcDbSpline
 62
7
  6
BYLAYER
 70
0
 71
3
 72
15
 73
11
 74
0
 42
0.0000001
 43
0.0000001
 44
0.0000000001
 40
0.0
 40
0.0
 40
0.0
 40
0.0
 40
0.1485793323
 40
0.2895082532
 40
0.4227234642
 40
0.5486404829
 40
0.6680008203
 40
0.7819381813
 40
0.8919868373
 40
1.0
 40
1.0
 40
1.0
 40
1.0
 10
37.2857582409
 20
75.1378147591
 30
0.0
 10
37.2857582409
 20
74.812286497
 30
0.0
 10
37.259496772
 20
74.1775551527
 30
0.0
 10
37.1345767545
 20
73.2583864004
 30
0.0
 10
36.9258563846
 20
72.4052287448
 30
0.0
 10
36.634988362
 20
71.62638593
 30
0.0
 10
36.2642545253
 20
70.9293181754
 30
0.0
 10
35.8164872871
 20
70.3211622129
 30
0.0
 10
35.2958194924
 20
69.8087969056
 30
0.0
 10
34.9018028096
 20
69.5338174186
 30
0.0
 10
34.6968518924
 20
69.4155023074
 30
0.0
  0
SPLINE
  5
2DD
100
AcDbEntity
  8
0
100
AcDbSpline
 62
7
  6
BYLAYER
 70
0
 71
3
 72
14
 73
10
 74
0
 42
0.0000001
 43
0.0000001
 44
0.0000000001
 40
0.0
 40
0.0
 40
0.0
 40
0.0
 40
0.289278564
 40
0.4225443899
 40
0.5484927173
 40
0.6678923533
 40
0.7818675656
 40
0.8919515752
 40
1.0
 40
1.0
 40
1.0
 40
1.0
 10
21.8708209904
 20
70.7286366397
 30
0.0
 10
22.1780881799
 20
70.5512398584
 30
0.0
 10
22.6498243263
 20
70.3267168638
 30
0.0
 10
23.2967613985
 20
70.1380891765
 30
0.0
 10
23.7559538864
 20
70.0610850054
 30
0.0
 10
24.1977894955
 20
70.0457008168
 30
0.0
 10
24.6180921199
 20
70.0925952914
 30
0.0
 10
25.0123705238
 20
70.2015910029
 30
0.0
 10
25.2560266334
 20
70.3157269267
 30
0.0
 10
25.3707934983
 20
70.381987241
 30
0.0
  0
SPLINE
  5
2DE
100
AcDbEntity
  8
0
100
AcDbSpline
 62
7
  6
BYLAYER
 70
0
 71
3
 72
14
 73
10
 74
0
 42
0.0000001
 43
0.0000001
 44
0.0000000001
 40
0.0
 40
0.0
 40
0.0
 40
0.0
 40
0.2892777946
 40
0.4225507734
 40
0.5484967764
 40
0.6678925332
 40
0.7818703191
 40
0.891953343
 40
1.0
 40
1.0
 40
1.0
 40
1.0
 10
26.1134793413
 20
73.9947090325
 30
0.0
 10
26.1134793413
 20
73.6905879558
 30
0.0
 10
26.0779774876
 20
73.244170328
 30
0.0
 10
25.9407301545
 20
72.6830874594
 30
0.0
 10
25.8011112722
 20
72.3092025594
 30
0.0
 10
25.6231337174
 20
71.9746480001
 30
0.0
 10
25.4082288598
 20
71.6827154551
 30
0.0
 10
25.1583043259
 20
71.4367811649
 30
0.0
 10
24.9691770025
 20
71.3047941201
 30
0.0
 10
24.8707990618
 20
71.2480083234
 30
0.0
  0
SPLINE
  5
2DF
100
AcDbEntity
  8
0
100
AcDbSpline
 62
7
  6
BYLAYER
 70
0
 71
3
 72
9
 73
5
 74
0
 42
0.0000001
 43
0.0000001
 44
0.0000000001
 40
0.0
 40
0.0
 40
0.0
 40
0.0
 40
0.5080110737
 40
1.0
 40
1.0
 40
1.0
 40
1.0
 10
25.9427831597
 20
72.657978764
 30
0.0
 10
25.8604573777
 20
72.5414542385
 30
0.0
 10
25.6753899308
 20
72.3271550024
 30
0.0
 10
25.4475726952
 20
72.1583394354
 30
0.0
 10
25.3279047718
 20
72.0892644601
 30
0.0
  0
SPLINE
  5
2E0
100
AcDbEntity
  8
0
100
AcDbSpline
 62
7
  6
BYLAYER
 70
0
 71
3
 72
11
 73
7
 74
0
 42
0.0000001
 43
0.0000001
 44
0.0000000001
 40
0.0
 40
0.0
 40
0.0
 40
0.0
 40
0.2397921411
 40
0.5000030496
 40
0.7602124826
 40
1.0
 40
1.0
 40
1.0
 40
1.0
 10
53.2956076013
 20
95.7642914098
 30
0.0
 10
53.4419742463
 20
95.6797884996
 30
0.0
 10
53.7169728147
 20
95.4503607587
 30
0.0
 10
54.0362559405
 20
95.0149829034
 30
0.0
 10
54.2536605202
 20
94.5207893551
 30
0.0
 10
54.3148519407
 20
94.1679246553
 30
0.0
 10
54.3148519407
 20
93.9989192263
 30
0.0
  0
SPLINE
  5
2E1
100
AcDbEntity
  8
0
100
AcDbSpline
 62
7
  6
BYLAYER
 70
0
 71
3
 72
11
 73
7
 74
0
 42
0.0000001
 43
0.0000001
 44
0.0000000001
 40
0.0
 40
0.0
 40
0.0
 40
0.0
 40
0.2703005668
 40
0.523287805
 40
0.7644097807
 40
1.0
 40
1.0
 40
1.0
 40
1.0
 10
54.3148519407
 20
69.5038467124
 30
0.0
 10
54.3148519407
 20
69.4235760043
 30
0.0
 10
54.3017965112
 20
69.2676315699
 30
0.0
 10
54.2346926052
 20
69.048555611
 30
0.0
 10
54.1175379739
 20
68.8627591593
 30
0.0
 10
54.0061956224
 20
68.7705009095
 30
0.0
 10
53.9456059403
 20
68.7355196491
 30
0.0
  0
SPLINE
  5
2E2
100
AcDbEntity
  8
0
100
AcDbSpline
 62
7
  6
BYLAYER
 70
0
 71
3
 72
11
 73
7
 74
0
 42
0.0000001
 43
0.0000001
 44
0.0000000001
 40
0.0
 40
0.0
 40
0.0
 40
0.0
 40
0.2355876093
 40
0.4767122287
 40
0.7297007468
 40
1.0
 40
1.0
 40
1.0
 40
1.0
 10
43.9047314519
 20
62.9384526641
 30
0.0
 10
43.8441438862
 20
62.9034726255
 30
0.0
 10
43.7085779833
 20
62.8531784143
 30
0.0
 10
43.4891012328
 20
62.8446148851
 30
0.0
 10
43.2658281925
 20
62.8960373008
 30
0.0
 10
43.1242513759
 20
62.962699985
 30
0.0
 10
43.0547365063
 20
63.0028335057
 30
0.0
  0
SPLINE
  5
2E3
100
AcDbEntity
  8
0
100
AcDbSpline
 62
7
  6
BYLAYER
 70
0
 71
3
 72
11
 73
7
 74
0
 42
0.0000001
 43
0.0000001
 44
0.0000000001
 40
0.0
 40
0.0
 40
0.0
 40
0.0
 40
0.0471577029
 40
0.2266851546
 40
0.5454809438
 40
1.0
 40
1.0
 40
1.0
 40
1.0
 10
43.9188261359
 20
68.9343232051
 30
0.0
 10
43.9193043654
 20
68.9343560797
 30
0.0
 10
43.9143700562
 20
68.933480345
 30
0.0
 10
43.9120608667
 20
68.9321890613
 30
0.0
 10
43.9012208717
 20
68.9282441708
 30
0.0
 10
43.8948840086
 20
68.9246618217
 30
0.0
 10
43.8908868884
 20
68.9223446789
 30
0.0
  0
SPLINE
  5
2E4
100
AcDbEntity
  8
0
100
AcDbSpline
 62
7
  6
BYLAYER
 70
0
 71
3
 72
14
 73
10
 74
0
 42
0.0000001
 43
0.0000001
 44
0.0000000001
 40
0.0
 40
0.0
 40
0.0
 40
0.0
 40
0.3068085537
 40
0.4476264427
 40
0.5777619011
 40
0.6966712457
 40
0.8050023282
 40
0.9048828355
 40
1.0
 40
1.0
 40
1.0
 40
1.0
 10
42.2122136444
 20
67.9382852726
 30
0.0
 10
42.2907658865
 20
67.7341039308
 30
0.0
 10
42.3783717772
 20
67.4237488725
 30
0.0
 10
42.4179584888
 20
67.0127901676
 30
0.0
 10
42.4068609608
 20
66.7339820541
 30
0.0
 10
42.3558353872
 20
66.4829889906
 30
0.0
 10
42.2653341612
 20
66.2660470422
 30
0.0
 10
42.1365952678
 20
66.08947646
 30
0.0
 10
42.0257082245
 20
66.0020427396
 30
0.0
 10
41.9669721658
 20
65.9681296597
 30
0.0
  0
SPLINE
  5
2E5
100
AcDbEntity
  8
0
100
AcDbSpline
 62
7
  6
BYLAYER
 70
0
 71
3
 72
11
 73
7
 74
0
 42
0.0000001
 43
0.0000001
 44
0.0000000001
 40
0.0
 40
0.0
 40
0.0
 40
0.0
 40
0.2703005668
 40
0.523287805
 40
0.7644097807
 40
1.0
 40
1.0
 40
1.0
 40
1.0
 10
20.8222004125
 20
101.5105008387
 30
0.0
 10
20.8222004125
 20
101.5907715468
 30
0.0
 10
20.835255842
 20
101.7467159812
 30
0.0
 10
20.9023597479
 20
101.9657919401
 30
0.0
 10
21.0195143792
 20
102.1515883918
 30
0.0
 10
21.1308567307
 20
102.2438466416
 30
0.0
 10
21.1914464128
 20
102.278827902
 30
0.0
  0
SPLINE
  5
2E6
100
AcDbEntity
  8
0
100
AcDbSpline
 62
7
  6
BYLAYER
 70
0
 71
3
 72
11
 73
7
 74
0
 42
0.0000001
 43
0.0000001
 44
0.0000000001
 40
0.0
 40
0.0
 40
0.0
 40
0.0
 40
0.2355876093
 40
0.4767122287
 40
0.7297007468
 40
1.0
 40
1.0
 40
1.0
 40
1.0
 10
31.2323209012
 20
108.075894887
 30
0.0
 10
31.2929084669
 20
108.1108749256
 30
0.0
 10
31.4284743699
 20
108.1611691368
 30
0.0
 10
31.6479511203
 20
108.169732666
 30
0.0
 10
31.8712241606
 20
108.1183102503
 30
0.0
 10
32.0128009773
 20
108.0516475661
 30
0.0
 10
32.0823158469
 20
108.0115140454
 30
0.0
  0
SPLINE
  5
2E7
100
AcDbEntity
  8
0
100
AcDbSpline
 62
7
  6
BYLAYER
 70
0
 71
3
 72
9
 73
5
 74
0
 42
0.0000001
 43
0.0000001
 44
0.0000000001
 40
0.0
 40
0.0
 40
0.0
 40
0.0
 40
0.4942790149
 40
1.0
 40
1.0
 40
1.0
 40
1.0
 10
19.8279448835
 20
81.6155309668
 30
0.0
 10
19.928170404
 20
81.6733833567
 30
0.0
 10
20.142570126
 20
81.7713163091
 30
0.0
 10
20.3712534645
 20
81.8277269752
 30
0.0
 10
20.4881998473
 20
81.8462416739
 30
0.0
  0
SPLINE
  5
2E8
100
AcDbEntity
  8
0
100
AcDbSpline
 62
7
  6
BYLAYER
 70
0
 71
3
 72
23
 73
19
 74
0
 42
0.0000001
 43
0.0000001
 44
0.0000000001
 40
0.0
 40
0.0
 40
0.0
 40
0.0
 40
0.0428151459
 40
0.0873979436
 40
0.1351816501
 40
0.1870911599
 40
0.2435374701
 40
0.3044945955
 40
0.3695925345
 40
0.4382003542
 40
0.5094973676
 40
0.5825328894
 40
0.6562760075
 40
0.7296631384
 40
0.8016520185
 40
0.8712511147
 40
0.9376126477
 40
1.0
 40
1.0
 40
1.0
 40
1.0
 10
18.8708429191
 20
81.6402987958
 30
0.0
 10
19.018777228
 20
81.7256895606
 30
0.0
 10
19.3448380988
 20
81.8612547098
 30
0.0
 10
19.8831137715
 20
81.940118368
 30
0.0
 10
20.4611185105
 20
81.8975570311
 30
0.0
 10
21.0660353757
 20
81.7368310439
 30
0.0
 10
21.6859857582
 20
81.4628462145
 30
0.0
 10
22.3086318974
 20
81.0819221917
 30
0.0
 10
22.9213175364
 20
80.6022514156
 30
0.0
 10
23.5113261171
 20
80.0340106986
 30
0.0
 10
24.0662492202
 20
79.3892512627
 30
0.0
 10
24.5743124853
 20
78.681674464
 30
0.0
 10
25.0246889287
 20
77.9263624595
 30
0.0
 10
25.4077720968
 20
77.1394127877
 30
0.0
 10
25.7153529256
 20
76.3376316683
 30
0.0
 10
25.9410066285
 20
75.5379751464
 30
0.0
 10
26.0797286965
 20
74.7575836042
 30
0.0
 10
26.1134793413
 20
74.24360225
 30
0.0
 10
26.1134793413
 20
73.9947090325
 30
0.0
  0
SPLINE
  5
2E9
100
AcDbEntity
  8
0
100
AcDbSpline
 62
7
  6
BYLAYER
 70
0
 71
3
 72
23
 73
19
 74
0
 42
0.0000001
 43
0.0000001
 44
0.0000000001
 40
0.0
 40
0.0
 40
0.0
 40
0.0
 40
0.0428151557
 40
0.0873976605
 40
0.1351810649
 40
0.187090882
 40
0.2435378615
 40
0.304495294
 40
0.3695928497
 40
0.4382004003
 40
0.509497763
 40
0.5825336042
 40
0.6562771533
 40
0.72966444
 40
0.8016528191
 40
0.8712534077
 40
0.9376105422
 40
1.0
 40
1.0
 40
1.0
 40
1.0
 10
18.3708484825
 20
82.5063198782
 30
0.0
 10
18.1982665848
 20
82.4066802235
 30
0.0
 10
17.8711152798
 20
82.1562846354
 30
0.0
 10
17.4774179483
 20
81.6584588816
 30
0.0
 10
17.18323023
 20
81.0496387723
 30
0.0
 10
16.9927546135
 20
80.3446867884
 30
0.0
 10
16.9079550321
 20
79.5584736425
 30
0.0
 10
16.9296293257
 20
78.7071613744
 30
0.0
 10
17.0568628197
 20
77.8083129235
 30
0.0
 10
17.2868084945
 20
76.8807073969
 30
0.0
 10
17.6145428354
 20
75.9439134719
 30
0.0
 10
18.033090551
 20
75.0178216167
 30
0.0
 10
18.5335317706
 20
74.1221778735
 30
0.0
 10
19.1051743018
 20
73.2760641819
 30
0.0
 10
19.7358438063
 20
72.4975744499
 30
0.0
 10
20.412160778
 20
71.8031335296
 30
0.0
 10
21.1197121202
 20
71.2077331852
 30
0.0
 10
21.619336747
 20
70.8738278507
 30
0.0
 10
21.8708209904
 20
70.7286366397
 30
0.0
  0
SPLINE
  5
2EA
100
AcDbEntity
  8
0
100
AcDbSpline
 62
7
  6
BYLAYER
 70
0
 71
3
 72
25
 73
21
 74
0
 42
0.0000001
 43
0.0000001
 44
0.0000000001
 40
0.0
 40
0.0
 40
0.0
 40
0.0
 40
0.0213322747
 40
0.0428928579
 40
0.0648984009
 40
0.0875431602
 40
0.135318328
 40
0.1872191927
 40
0.2436567356
 40
0.304604442
 40
0.3696919663
 40
0.4382889913
 40
0.5095751853
 40
0.5825991828
 40
0.6563305162
 40
0.7297074791
 40
0.8016839255
 40
0.8712767858
 40
0.9376163013
 40
1.0
 40
1.0
 40
1.0
 40
1.0
 10
22.1969214606
 20
91.0661460739
 30
0.0
 10
22.3504982777
 20
91.1548036825
 30
0.0
 10
22.6710820568
 20
91.313475105
 30
0.0
 10
23.182221661
 20
91.4901619968
 30
0.0
 10
23.7218417608
 20
91.6052500348
 30
0.0
 10
24.4882770554
 20
91.6771823814
 30
0.0
 10
25.5101762031
 20
91.6021642872
 30
0.0
 10
26.7701335119
 20
91.2672788442
 30
0.0
 10
28.0617848802
 20
90.6964828531
 30
0.0
 10
29.3589390017
 20
89.9028736046
 30
0.0
 10
30.6353916459
 20
88.9035712152
 30
0.0
 10
31.8645954853
 20
87.7197435436
 30
0.0
 10
33.0206947534
 20
86.3764869505
 30
0.0
 10
34.0791593264
 20
84.9023560781
 30
0.0
 10
35.0174421303
 20
83.3287667776
 30
0.0
 10
35.8155302325
 20
81.6892799601
 30
0.0
 10
36.4563990828
 20
80.0188751556
 30
0.0
 10
36.9264091502
 20
78.3529574204
 30
0.0
 10
37.2155026081
 20
76.7271563751
 30
0.0
 10
37.2857582409
 20
75.6563959128
 30
0.0
 10
37.2857582409
 20
75.1378147591
 30
0.0
  0
SPLINE
  5
2EB
100
AcDbEntity
  8
0
100
AcDbSpline
 62
7
  6
BYLAYER
 70
0
 71
3
 72
14
 73
10
 74
0
 42
0.0000001
 43
0.0000001
 44
0.0000000001
 40
0.0
 40
0.0
 40
0.0
 40
0.0
 40
0.1077330682
 40
0.2183802912
 40
0.3333091343
 40
0.4536167275
 40
0.58008366
 40
0.7132284687
 40
1.0
 40
1.0
 40
1.0
 40
1.0
 10
21.0982422202
 20
91.8346148242
 30
0.0
 10
20.9073920282
 20
91.6904037405
 30
0.0
 10
20.5426189371
 20
91.3676329741
 30
0.0
 10
20.0651754626
 20
90.7990337393
 30
0.0
 10
19.655659342
 20
90.1466348268
 30
0.0
 10
19.3172983999
 20
89.4161543087
 30
0.0
 10
19.0520920592
 20
88.6135383218
 30
0.0
 10
18.7923101132
 20
87.4268564265
 30
0.0
 10
18.7241279557
 20
86.4908763257
 30
0.0
 10
18.7241279557
 20
85.8541345653
 30
0.0
  0
SPLINE
  5
2EC
100
AcDbEntity
  8
0
100
AcDbSpline
 62
7
  6
BYLAYER
 70
0
 71
3
 72
18
 73
14
 74
0
 42
0.0000001
 43
0.0000001
 44
0.0000000001
 40
0.0
 40
0.0
 40
0.0
 40
0.0
 40
0.0428463713
 40
0.0874636897
 40
0.135285356
 40
0.1872351914
 40
0.2437279493
 40
0.3047348545
 40
0.4383686052
 40
0.5826738775
 40
0.7297900851
 40
0.8713403198
 40
1.0
 40
1.0
 40
1.0
 40
1.0
 10
39.8169969492
 20
89.2880762099
 30
0.0
 10
39.8699999871
 20
89.3186767847
 30
0.0
 10
39.9868346597
 20
89.3672464599
 30
0.0
 10
40.1797069762
 20
89.3955162374
 30
0.0
 10
40.3868203247
 20
89.380256144
 30
0.0
 10
40.6035821486
 20
89.3226849773
 30
0.0
 10
40.8257450899
 20
89.2245056083
 30
0.0
 10
41.1324225998
 20
89.036786614
 30
0.0
 10
41.4977687211
 20
88.7132312585
 30
0.0
 10
41.8732195594
 20
88.2325607369
 30
0.0
 10
42.1689730655
 20
87.6859466018
 30
0.0
 10
42.3608538771
 20
87.1186084218
 30
0.0
 10
42.4122707757
 20
86.7321927939
 30
0.0
 10
42.4122707757
 20
86.5484137814
 30
0.0
  0
SPLINE
  5
2ED
100
AcDbEntity
  8
0
100
AcDbSpline
 62
7
  6
BYLAYER
 70
0
 71
3
 72
9
 73
5
 74
0
 42
0.0000001
 43
0.0000001
 44
0.0000000001
 40
0.0
 40
0.0
 40
0.0
 40
0.0
 40
0.5147170095
 40
1.0
 40
1.0
 40
1.0
 40
1.0
 10
39.5062902671
 20
88.9482914931
 30
0.0
 10
39.5422721133
 20
89.0195753559
 30
0.0
 10
39.6293390817
 20
89.1505887621
 30
0.0
 10
39.7517985734
 20
89.2504348246
 30
0.0
 10
39.8169969492
 20
89.2880762099
 30
0.0
  0
SPLINE
  5
2EE
100
AcDbEntity
  8
0
100
AcDbSpline
 62
7
  6
BYLAYER
 70
0
 71
3
 72
11
 73
7
 74
0
 42
0.0000001
 43
0.0000001
 44
0.0000000001
 40
0.0
 40
0.0
 40
0.0
 40
0.0
 40
0.2372150913
 40
0.4999978048
 40
0.7627817159
 40
1.0
 40
1.0
 40
1.0
 40
1.0
 10
43.7911471636
 20
82.6496321339
 30
0.0
 10
43.811221771
 20
82.6612241238
 30
0.0
 10
43.8492151915
 20
82.6932011425
 30
0.0
 10
43.893560184
 20
82.7538016112
 30
0.0
 10
43.92386942
 20
82.8225059031
 30
0.0
 10
43.9325663692
 20
82.8713980092
 30
0.0
 10
43.9325681163
 20
82.8945794362
 30
0.0
  0
SPLINE
  5
2EF
100
AcDbEntity
  8
0
100
AcDbSpline
 62
7
  6
BYLAYER
 70
0
 71
3
 72
9
 73
5
 74
0
 42
0.0000001
 43
0.0000001
 44
0.0000000001
 40
0.0
 40
0.0
 40
0.0
 40
0.0
 40
0.4853552234
 40
1.0
 40
1.0
 40
1.0
 40
1.0
 10
41.9669721658
 20
65.9681296597
 30
0.0
 10
41.9019535195
 20
65.9305891336
 30
0.0
 10
41.7547187219
 20
65.8745638919
 30
0.0
 10
41.5981986138
 20
65.8645083509
 30
0.0
 10
41.518709344
 20
65.8688686686
 30
0.0
  0
SPLINE
  5
2F0
100
AcDbEntity
  8
0
100
AcDbSpline
 62
7
  6
BYLAYER
 70
0
 71
3
 72
11
 73
7
 74
0
 42
0.0000001
 43
0.0000001
 44
0.0000000001
 40
0.0
 40
0.0
 40
0.0
 40
0.0
 40
0.2372198069
 40
0.4999985426
 40
0.7627781254
 40
1.0
 40
1.0
 40
1.0
 40
1.0
 10
43.9325566848
 20
82.8945898428
 30
0.0
 10
43.9526324664
 20
82.8829977615
 30
0.0
 10
43.9993227443
 20
82.866079488
 30
0.0
 10
44.0739785598
 20
82.8579748585
 30
0.0
 10
44.1486341589
 20
82.8660832191
 30
0.0
 10
44.1953239273
 20
82.8830036659
 30
0.0
 10
44.2153993971
 20
82.8945966912
 30
0.0
  0
SPLINE
  5
2F1
100
AcDbEntity
  8
0
100
AcDbSpline
 62
7
  6
BYLAYER
 70
0
 71
3
 72
15
 73
11
 74
0
 42
0.0000001
 43
0.0000001
 44
0.0000000001
 40
0.0
 40
0.0
 40
0.0
 40
0.0
 40
0.1447702934
 40
0.2745619473
 40
0.3911283361
 40
0.49999428
 40
0.6088619261
 40
0.7254323507
 40
0.8552257235
 40
1.0
 40
1.0
 40
1.0
 40
1.0
 10
43.9325005723
 20
69.0140172747
 30
0.0
 10
43.9500469291
 20
69.0241496953
 30
0.0
 10
43.9849840131
 20
69.0407505718
 30
0.0
 10
44.0386466841
 20
69.0537590939
 30
0.0
 10
44.0890702039
 20
69.0524814271
 30
0.0
 10
44.1339012063
 20
69.036181128
 30
0.0
 10
44.1704306651
 20
69.0055026405
 30
0.0
 10
44.1967458609
 20
68.9624704483
 30
0.0
 10
44.212309205
 20
68.9094909841
 30
0.0
 10
44.2154004175
 20
68.8709334738
 30
0.0
 10
44.2153993969
 20
68.8506711153
 30
0.0
  0
SPLINE
  5
2F2
100
AcDbEntity
  8
0
100
AcDbSpline
 62
7
  6
BYLAYER
 70
0
 71
3
 72
11
 73
7
 74
0
 42
0.0000001
 43
0.0000001
 44
0.0000000001
 40
0.0
 40
0.0
 40
0.0
 40
0.0
 40
0.2373085268
 40
0.5001260146
 40
0.7628753273
 40
1.0
 40
1.0
 40
1.0
 40
1.0
 10
44.2153993969
 20
82.8946578635
 30
0.0
 10
44.2154015868
 20
82.8482159544
 30
0.0
 10
44.1979829614
 20
82.7502719518
 30
0.0
 10
44.1371951879
 20
82.6126987163
 30
0.0
 10
44.0483358668
 20
82.4913939917
 30
0.0
 10
43.972171431
 20
82.4274688822
 30
0.0
 10
43.9319426054
 20
82.4043355343
 30
0.0
  0
SPLINE
  5
2F3
100
AcDbEntity
  8
0
100
AcDbSpline
 62
7
  6
BYLAYER
 70
0
 71
3
 72
13
 73
9
 74
0
 42
0.0000001
 43
0.0000001
 44
0.0000000001
 40
0.0
 40
0.0
 40
0.0
 40
0.0
 40
0.1142243494
 40
0.2375569733
 40
0.5000010844
 40
0.762444602
 40
0.8857765324
 40
1.0
 40
1.0
 40
1.0
 40
1.0
 10
44.2153993973
 20
88.1202040897
 30
0.0
 10
44.2153993973
 20
88.2040237289
 30
0.0
 10
44.2000235199
 20
88.3785204644
 30
0.0
 10
44.1166673785
 20
88.7367377306
 30
0.0
 10
43.922938374
 20
89.1760996728
 30
0.0
 10
43.6393027854
 20
89.5635532344
 30
0.0
 10
43.37075516
 20
89.8148476248
 30
0.0
 10
43.2273245966
 20
89.9154100629
 30
0.0
 10
43.1547348096
 20
89.9573188479
 30
0.0
  0
SPLINE
  5
2F4
100
AcDbEntity
  8
0
100
AcDbSpline
 62
7
  6
BYLAYER
 70
0
 71
3
 72
11
 73
7
 74
0
 42
0.0000001
 43
0.0000001
 44
0.0000000001
 40
0.0
 40
0.0
 40
0.0
 40
0.0
 40
0.2372185796
 40
0.5000005261
 40
0.7627821862
 40
1.0
 40
1.0
 40
1.0
 40
1.0
 10
43.9325566848
 20
88.1202034105
 30
0.0
 10
43.9526328145
 20
88.1086127139
 30
0.0
 10
43.9993231575
 20
88.0916964236
 30
0.0
 10
44.0739782633
 20
88.0835916472
 30
0.0
 10
44.1486332565
 20
88.0916967642
 30
0.0
 10
44.1953234158
 20
88.1086132863
 30
0.0
 10
44.2153993971
 20
88.1202040903
 30
0.0
  0
SPLINE
  5
2F5
100
AcDbEntity
  8
0
100
AcDbSpline
 62
7
  6
BYLAYER
 70
0
 71
3
 72
11
 73
7
 74
0
 42
0.0000001
 43
0.0000001
 44
0.0000000001
 40
0.0
 40
0.0
 40
0.0
 40
0.0
 40
0.2372172701
 40
0.499998382
 40
0.7627803746
 40
1.0
 40
1.0
 40
1.0
 40
1.0
 10
43.1547348094
 20
89.9573188478
 30
0.0
 10
43.1346588504
 20
89.9457280566
 30
0.0
 10
43.0966635811
 20
89.9137515441
 30
0.0
 10
43.0523170268
 20
89.8531508414
 30
0.0
 10
43.0220088215
 20
89.7844448775
 30
0.0
 10
43.0133140421
 20
89.7355514499
 30
0.0
 10
43.0133140421
 20
89.7123695337
 30
0.0
  0
SPLINE
  5
2F6
100
AcDbEntity
  8
0
100
AcDbSpline
 62
7
  6
BYLAYER
 70
0
 71
3
 72
11
 73
7
 74
0
 42
0.0000001
 43
0.0000001
 44
0.0000000001
 40
0.0
 40
0.0
 40
0.0
 40
0.0
 40
0.2372221323
 40
0.500001271
 40
0.7627797657
 40
1.0
 40
1.0
 40
1.0
 40
1.0
 10
38.6292402259
 20
92.5700552557
 30
0.0
 10
38.609162453
 20
92.5584660843
 30
0.0
 10
38.5711637424
 20
92.5264919448
 30
0.0
 10
38.5268138602
 20
92.4658923512
 30
0.0
 10
38.4965051623
 20
92.3971858673
 30
0.0
 10
38.4878122529
 20
92.3482915321
 30
0.0
 10
38.4878136929
 20
92.3251092705
 30
0.0
  0
SPLINE
  5
2F7
100
AcDbEntity
  8
0
100
AcDbSpline
 62
7
  6
BYLAYER
 70
0
 71
3
 72
11
 73
7
 74
0
 42
0.0000001
 43
0.0000001
 44
0.0000000001
 40
0.0
 40
0.0
 40
0.0
 40
0.0
 40
0.2372480205
 40
0.5000010253
 40
0.7627523814
 40
1.0
 40
1.0
 40
1.0
 40
1.0
 10
38.0634898069
 20
92.5700252134
 30
0.0
 10
38.1036554753
 20
92.5932166015
 30
0.0
 10
38.1970523063
 20
92.6270778744
 30
0.0
 10
38.3463948083
 20
92.643262382
 30
0.0
 10
38.4957365316
 20
92.6270743061
 30
0.0
 10
38.589133002
 20
92.5932133501
 30
0.0
 10
38.629298408
 20
92.5700216648
 30
0.0
  0
SPLINE
  5
2F8
100
AcDbEntity
  8
0
100
AcDbSpline
 62
7
  6
BYLAYER
 70
0
 71
3
 72
15
 73
11
 74
0
 42
0.0000001
 43
0.0000001
 44
0.0000000001
 40
0.0
 40
0.0
 40
0.0
 40
0.0
 40
0.1447243536
 40
0.2744537378
 40
0.3909563885
 40
0.4997753484
 40
0.6086346142
 40
0.7252453222
 40
0.8551231303
 40
1.0
 40
1.0
 40
1.0
 40
1.0
 10
26.4668857166
 20
99.5918350516
 30
0.0
 10
26.4844542811
 20
99.581693167
 30
0.0
 10
26.516333606
 20
99.5597102637
 30
0.0
 10
26.5544577783
 20
99.5196841348
 30
0.0
 10
26.578551892
 20
99.4753098517
 30
0.0
 10
26.5867929784
 20
99.4282662112
 30
0.0
 10
26.5783872762
 20
99.3812376003
 30
0.0
 10
26.5541445941
 20
99.3368997416
 30
0.0
 10
26.5158898207
 20
99.2969215768
 30
0.0
 10
26.4839359473
 20
99.2749737989
 30
0.0
 10
26.4663313515
 20
99.2648516311
 30
0.0
  0
SPLINE
  5
2F9
100
AcDbEntity
  8
0
100
AcDbSpline
 62
7
  6
BYLAYER
 70
0
 71
3
 72
11
 73
7
 74
0
 42
0.0000001
 43
0.0000001
 44
0.0000000001
 40
0.0
 40
0.0
 40
0.0
 40
0.0
 40
0.2372193549
 40
0.5000044009
 40
0.7627871045
 40
1.0
 40
1.0
 40
1.0
 40
1.0
 10
26.3255228861
 20
99.3468522887
 30
0.0
 10
26.3255242556
 20
99.370033908
 30
0.0
 10
26.3342208416
 20
99.4189264787
 30
0.0
 10
26.3645286116
 20
99.4876319121
 30
0.0
 10
26.4088720366
 20
99.5482336121
 30
0.0
 10
26.4468640582
 20
99.580212354
 30
0.0
 10
26.4669383259
 20
99.5918046785
 30
0.0
  0
SPLINE
  5
2FA
100
AcDbEntity
  8
0
100
AcDbSpline
 62
7
  6
BYLAYER
 70
0
 71
3
 72
11
 73
7
 74
0
 42
0.0000001
 43
0.0000001
 44
0.0000000001
 40
0.0
 40
0.0
 40
0.0
 40
0.0
 40
0.2177858913
 40
0.4509156057
 40
0.7102996463
 40
1.0
 40
1.0
 40
1.0
 40
1.0
 10
43.9047314519
 20
62.9384526641
 30
0.0
 10
43.9542122049
 20
62.9670202131
 30
0.0
 10
44.0467880733
 20
63.0448501235
 30
0.0
 10
44.1453427236
 20
63.2059986011
 30
0.0
 10
44.2038783356
 20
63.4045900059
 30
0.0
 10
44.2153993973
 20
63.5491297064
 30
0.0
 10
44.2153993973
 20
63.6251315765
 30
0.0
  0
SPLINE
  5
2FB
100
AcDbEntity
  8
0
100
AcDbSpline
 62
7
  6
BYLAYER
 70
0
 71
3
 72
11
 73
7
 74
0
 42
0.0000001
 43
0.0000001
 44
0.0000000001
 40
0.0
 40
0.0
 40
0.0
 40
0.0
 40
0.2896993548
 40
0.5490830395
 40
0.7822131548
 40
1.0
 40
1.0
 40
1.0
 40
1.0
 10
21.9414430558
 20
102.2045414832
 30
0.0
 10
21.8756251196
 20
102.2425406267
 30
0.0
 10
21.7446927736
 20
102.3048298743
 30
0.0
 10
21.5434450234
 20
102.3534292327
 30
0.0
 10
21.3546139047
 20
102.3486517901
 30
0.0
 10
21.2409260599
 20
102.3073948125
 30
0.0
 10
21.1914464128
 20
102.278827902
 30
0.0
  0
SPLINE
  5
2FC
100
AcDbEntity
  8
0
100
AcDbSpline
 62
7
  6
BYLAYER
 70
0
 71
3
 72
11
 73
7
 74
0
 42
0.0000001
 43
0.0000001
 44
0.0000000001
 40
0.0
 40
0.0
 40
0.0
 40
0.0
 40
0.2372196254
 40
0.500001618
 40
0.7627827299
 40
1.0
 40
1.0
 40
1.0
 40
1.0
 10
21.8000222877
 20
101.9595921693
 30
0.0
 10
21.8000222877
 20
101.9827740855
 30
0.0
 10
21.8087170671
 20
102.0316675131
 30
0.0
 10
21.8390252724
 20
102.100373477
 30
0.0
 10
21.8833718267
 20
102.1609741797
 30
0.0
 10
21.921367096
 20
102.1929506923
 30
0.0
 10
21.941443055
 20
102.2045414834
 30
0.0
  0
SPLINE
  5
2FD
100
AcDbEntity
  8
0
100
AcDbSpline
 62
7
  6
BYLAYER
 70
0
 71
3
 72
8
 73
4
 74
0
 42
0.0000001
 43
0.0000001
 44
0.0000000001
 40
0.0
 40
0.0
 40
0.0
 40
0.0
 40
1.0
 40
1.0
 40
1.0
 40
1.0
 10
43.8910075241
 20
68.9224198499
 30
0.0
 10
43.8967528189
 20
68.925763616
 30
0.0
 10
43.9020534372
 20
68.9299722255
 30
0.0
 10
43.9067009335
 20
68.9347251155
 30
0.0
  0
SPLINE
  5
2FE
100
AcDbEntity
  8
0
100
AcDbSpline
 62
7
  6
BYLAYER
 70
0
 71
3
 72
9
 73
5
 74
0
 42
0.0000001
 43
0.0000001
 44
0.0000000001
 40
0.0
 40
0.0
 40
0.0
 40
0.0
 40
0.4674254534
 40
1.0
 40
1.0
 40
1.0
 40
1.0
 10
43.9067009335
 20
68.9347251155
 30
0.0
 10
43.9159859456
 20
68.9442206888
 30
0.0
 10
43.9306416274
 20
68.9699635723
 30
0.0
 10
43.9331399196
 20
68.9989278284
 30
0.0
 10
43.9325542223
 20
69.0140482499
 30
0.0
  0
SPLINE
  5
2FF
100
AcDbEntity
  8
0
100
AcDbSpline
 62
7
  6
BYLAYER
 70
0
 71
3
 72
15
 73
11
 74
0
 42
0.0000001
 43
0.0000001
 44
0.0000000001
 40
0.0
 40
0.0
 40
0.0
 40
0.0
 40
0.1448511103
 40
0.27454398
 40
0.391107444
 40
0.4999992445
 40
0.6088911783
 40
0.7254549845
 40
0.8551482984
 40
1.0
 40
1.0
 40
1.0
 40
1.0
 10
21.8000309207
 20
101.9595869219
 30
0.0
 10
21.7429874374
 20
101.9925202474
 30
0.0
 10
21.6295013697
 20
102.0464996861
 30
0.0
 10
21.4551182787
 20
102.0886395586
 30
0.0
 10
21.2913552001
 20
102.0844336439
 30
0.0
 10
21.145608117
 20
102.0316198352
 30
0.0
 10
21.0269967503
 20
101.9318054271
 30
0.0
 10
20.9414734364
 20
101.7920845449
 30
0.0
 10
20.8907757181
 20
101.6199940046
 30
0.0
 10
20.880779873
 20
101.4947219076
 30
0.0
 10
20.880779873
 20
101.4288538703
 30
0.0
  0
SPLINE
  5
300
100
AcDbEntity
  8
0
100
AcDbSpline
 62
7
  6
BYLAYER
 70
0
 71
3
 72
9
 73
5
 74
0
 42
0.0000001
 43
0.0000001
 44
0.0000000001
 40
0.0
 40
0.0
 40
0.0
 40
0.0
 40
0.5108712781
 40
1.0
 40
1.0
 40
1.0
 40
1.0
 10
22.5723988063
 20
98.8123004014
 30
0.0
 10
22.6069384076
 20
98.8690774878
 30
0.0
 10
22.686986417
 20
98.9733927596
 30
0.0
 10
22.7912603523
 20
99.0540373551
 30
0.0
 10
22.846364164
 20
99.0858532448
 30
0.0
  0
SPLINE
  5
301
100
AcDbEntity
  8
0
100
AcDbSpline
 62
7
  6
BYLAYER
 70
0
 71
3
 72
11
 73
7
 74
0
 42
0.0000001
 43
0.0000001
 44
0.0000000001
 40
0.0
 40
0.0
 40
0.0
 40
0.0
 40
0.2372196254
 40
0.5000016179
 40
0.7627827299
 40
1.0
 40
1.0
 40
1.0
 40
1.0
 10
17.6281019938
 20
93.9987124636
 30
0.0
 10
17.6281019938
 20
94.0218943798
 30
0.0
 10
17.6367967732
 20
94.0707878074
 30
0.0
 10
17.6671049785
 20
94.1394937713
 30
0.0
 10
17.7114515328
 20
94.200094474
 30
0.0
 10
17.7494468021
 20
94.2320709866
 30
0.0
 10
17.769522761
 20
94.2436617777
 30
0.0
  0
SPLINE
  5
302
100
AcDbEntity
  8
0
100
AcDbSpline
 62
7
  6
BYLAYER
 70
0
 71
3
 72
9
 73
5
 74
0
 42
0.0000001
 43
0.0000001
 44
0.0000000001
 40
0.0
 40
0.0
 40
0.0
 40
0.0
 40
0.4401159713
 40
1.0
 40
1.0
 40
1.0
 40
1.0
 10
21.173904031
 20
91.9515890151
 30
0.0
 10
21.2105978759
 20
91.9595756152
 30
0.0
 10
21.2931887846
 20
91.9812208684
 30
0.0
 10
21.3745033451
 20
92.0073834717
 30
0.0
 10
21.4192211457
 20
92.0241911759
 30
0.0
  0
SPLINE
  5
303
100
AcDbEntity
  8
0
100
AcDbSpline
 62
7
  6
BYLAYER
 70
0
 71
3
 72
11
 73
7
 74
0
 42
0.0000001
 43
0.0000001
 44
0.0000000001
 40
0.0
 40
0.0
 40
0.0
 40
0.0
 40
0.1582010001
 40
0.3828783646
 40
0.665495629
 40
1.0
 40
1.0
 40
1.0
 40
1.0
 10
23.2971103552
 20
93.1206376018
 30
0.0
 10
23.2971115567
 20
93.1263949138
 30
0.0
 10
23.302138903
 20
93.1399423419
 30
0.0
 10
23.3143908748
 20
93.160665505
 30
0.0
 10
23.332812529
 20
93.1852926146
 30
0.0
 10
23.3475005101
 20
93.2022726689
 30
0.0
 10
23.3556907675
 20
93.21127887
 30
0.0
  0
SPLINE
  5
304
100
AcDbEntity
  8
0
100
AcDbSpline
 62
7
  6
BYLAYER
 70
0
 71
3
 72
19
 73
15
 74
0
 42
0.0000001
 43
0.0000001
 44
0.0000000001
 40
0.0
 40
0.0
 40
0.0
 40
0.0
 40
0.2044190781
 40
0.3788669225
 40
0.4500811641
 40
0.5086482405
 40
0.5547740972
 40
0.5894170131
 40
0.6147546038
 40
0.6359105777
 40
0.6614017728
 40
0.6979521834
 40
0.8159651214
 40
1.0
 40
1.0
 40
1.0
 40
1.0
 10
23.2974001073
 20
92.9495280575
 30
0.0
 10
23.284993396
 20
92.9465337923
 30
0.0
 10
23.261970057
 20
92.9411100782
 30
0.0
 10
23.2344205023
 20
92.9354913202
 30
0.0
 10
23.215598911
 20
92.9328535165
 30
0.0
 10
23.2046366008
 20
92.932074004
 30
0.0
 10
23.1959057893
 20
92.9323447665
 30
0.0
 10
23.1893940638
 20
92.9336449277
 30
0.0
 10
23.1847416423
 20
92.9361171397
 30
0.0
 10
23.1826607667
 20
92.9404926389
 30
0.0
 10
23.1840400602
 20
92.9457805696
 30
0.0
 10
23.1902285076
 20
92.9551907642
 30
0.0
 10
23.2062027431
 20
92.9694413097
 30
0.0
 10
23.2213727271
 20
92.9805404919
 30
0.0
 10
23.230836941
 20
92.9870561693
 30
0.0
  0
SPLINE
  5
305
100
AcDbEntity
  8
0
100
AcDbSpline
 62
7
  6
BYLAYER
 70
0
 71
3
 72
9
 73
5
 74
0
 42
0.0000001
 43
0.0000001
 44
0.0000000001
 40
0.0
 40
0.0
 40
0.0
 40
0.0
 40
0.2138815559
 40
1.0
 40
1.0
 40
1.0
 40
1.0
 10
23.230836941
 20
92.9870561693
 30
0.0
 10
23.2357194723
 20
92.9904175683
 30
0.0
 10
23.2587775407
 20
93.0057995276
 30
0.0
 10
23.2825580429
 20
93.0200758492
 30
0.0
 10
23.3014525176
 20
93.0309241809
 30
0.0
  0
SPLINE
  5
306
100
AcDbEntity
  8
0
100
AcDbSpline
 62
7
  6
BYLAYER
 70
0
 71
3
 72
9
 73
5
 74
0
 42
0.0000001
 43
0.0000001
 44
0.0000000001
 40
0.0
 40
0.0
 40
0.0
 40
0.0
 40
0.243513569
 40
1.0
 40
1.0
 40
1.0
 40
1.0
 10
34.9522814704
 20
68.0868571979
 30
0.0
 10
34.9495495268
 20
68.0927757173
 30
0.0
 10
34.9373397138
 20
68.1165979667
 30
0.0
 10
34.9210550926
 20
68.138436611
 30
0.0
 10
34.9066309257
 20
68.152650055
 30
0.0
  0
SPLINE
  5
307
100
AcDbEntity
  8
0
100
AcDbSpline
 62
7
  6
BYLAYER
 70
0
 71
3
 72
9
 73
5
 74
0
 42
0.0000001
 43
0.0000001
 44
0.0000000001
 40
0.0
 40
0.0
 40
0.0
 40
0.0
 40
0.5531604467
 40
1.0
 40
1.0
 40
1.0
 40
1.0
 10
35.1040775835
 20
68.2344277286
 30
0.0
 10
35.0746280126
 20
68.2087850671
 30
0.0
 10
35.0228769685
 20
68.1607125391
 30
0.0
 10
34.9735100368
 20
68.1101969528
 30
0.0
 10
34.9522902599
 20
68.086857819
 30
0.0
  0
SPLINE
  5
308
100
AcDbEntity
  8
0
100
AcDbSpline
 62
7
  6
BYLAYER
 70
0
 71
3
 72
11
 73
7
 74
0
 42
0.0000001
 43
0.0000001
 44
0.0000000001
 40
0.0
 40
0.0
 40
0.0
 40
0.0
 40
0.2372224164
 40
0.5000042459
 40
0.7627837053
 40
1.0
 40
1.0
 40
1.0
 40
1.0
 10
35.2351214548
 20
63.992498789
 30
0.0
 10
35.2150455759
 20
63.9809089879
 30
0.0
 10
35.1683558377
 20
63.963996339
 30
0.0
 10
35.0937040619
 20
63.95589316
 30
0.0
 10
35.0190528699
 20
63.9639989626
 30
0.0
 10
34.9723652957
 20
63.9809146931
 30
0.0
 10
34.9522902599
 20
63.9925047582
 30
0.0
  0
SPLINE
  5
309
100
AcDbEntity
  8
0
100
AcDbSpline
 62
7
  6
BYLAYER
 70
0
 71
3
 72
13
 73
9
 74
0
 42
0.0000001
 43
0.0000001
 44
0.0000000001
 40
0.0
 40
0.0
 40
0.0
 40
0.0
 40
0.1098939893
 40
0.2259215569
 40
0.3471206592
 40
0.4737085252
 40
0.7351486891
 40
1.0
 40
1.0
 40
1.0
 40
1.0
 10
35.2893701302
 20
86.1098533597
 30
0.0
 10
35.2691278219
 20
86.0965714239
 30
0.0
 10
35.2205293025
 20
86.0802011757
 30
0.0
 10
35.1436412978
 20
86.0766220498
 30
0.0
 10
35.0640976679
 20
86.0911883623
 30
0.0
 10
34.9595588072
 20
86.1330384404
 30
0.0
 10
34.8385100116
 20
86.2146904796
 30
0.0
 10
34.7630516218
 20
86.3039160407
 30
0.0
 10
34.7277397455
 20
86.3503673812
 30
0.0
  0
SPLINE
  5
30A
100
AcDbEntity
  8
0
100
AcDbSpline
 62
7
  6
BYLAYER
 70
0
 71
3
 72
11
 73
7
 74
0
 42
0.0000001
 43
0.0000001
 44
0.0000000001
 40
0.0
 40
0.0
 40
0.0
 40
0.0
 40
0.2658493269
 40
0.5282317579
 40
0.7758874607
 40
1.0
 40
1.0
 40
1.0
 40
1.0
 10
36.8782466492
 20
82.6256007252
 30
0.0
 10
36.8559291416
 20
82.6795129927
 30
0.0
 10
36.8161573641
 20
82.7894011959
 30
0.0
 10
36.8039166772
 20
82.961605731
 30
0.0
 10
36.8379637622
 20
83.1216733181
 30
0.0
 10
36.9076877204
 20
83.2085034401
 30
0.0
 10
36.9507685902
 20
83.2322426589
 30
0.0
  0
SPLINE
  5
30B
100
AcDbEntity
  8
0
100
AcDbSpline
 62
7
  6
BYLAYER
 70
0
 71
3
 72
19
 73
15
 74
0
 42
0.0000001
 43
0.0000001
 44
0.0000000001
 40
0.0
 40
0.0
 40
0.0
 40
0.0
 40
0.2613509937
 40
0.4640990084
 40
0.5441474116
 40
0.6097206445
 40
0.6607848069
 40
0.6982426128
 40
0.7244822472
 40
0.744068692
 40
0.7901723175
 40
0.826457129
 40
0.8733331794
 40
1.0
 40
1.0
 40
1.0
 40
1.0
 10
36.950768646
 20
69.3897465241
 30
0.0
 10
36.9352546637
 20
69.3806502677
 30
0.0
 10
36.9073600195
 20
69.3650763565
 30
0.0
 10
36.873779974
 20
69.3484571249
 30
0.0
 10
36.8517132171
 20
69.3390653249
 30
0.0
 10
36.8389883915
 20
69.3344456494
 30
0.0
 10
36.8287328758
 20
69.3316253628
 30
0.0
 10
36.8208868709
 20
69.330642696
 30
0.0
 10
36.8150433395
 20
69.3312153577
 30
0.0
 10
36.8096464683
 20
69.3354090709
 30
0.0
 10
36.8109467446
 20
69.3436524684
 30
0.0
 10
36.8145626507
 20
69.3514715017
 30
0.0
 10
36.8221511024
 20
69.3639436322
 30
0.0
 10
36.8296552252
 20
69.3732041801
 30
0.0
 10
36.835263681
 20
69.3798762789
 30
0.0
  0
SPLINE
  5
30C
100
AcDbEntity
  8
0
100
AcDbSpline
 62
7
  6
BYLAYER
 70
0
 71
3
 72
9
 73
5
 74
0
 42
0.0000001
 43
0.0000001
 44
0.0000000001
 40
0.0
 40
0.0
 40
0.0
 40
0.0
 40
0.2232888249
 40
1.0
 40
1.0
 40
1.0
 40
1.0
 10
36.835263681
 20
69.3798762789
 30
0.0
 10
36.8383166149
 20
69.3835082013
 30
0.0
 10
36.852251551
 20
69.3995531876
 30
0.0
 10
36.8668429199
 20
69.4150112222
 30
0.0
 10
36.8782463877
 20
69.426942152
 30
0.0
  0
SPLINE
  5
30D
100
AcDbEntity
  8
0
100
AcDbSpline
 62
7
  6
BYLAYER
 70
0
 71
3
 72
15
 73
11
 74
0
 42
0.0000001
 43
0.0000001
 44
0.0000000001
 40
0.0
 40
0.0
 40
0.0
 40
0.0
 40
0.1412020764
 40
0.2679303615
 40
0.3830786668
 40
0.4922910065
 40
0.6028705128
 40
0.7216975452
 40
0.8535272641
 40
1.0
 40
1.0
 40
1.0
 40
1.0
 10
43.07581487
 20
63.0607802089
 30
0.0
 10
43.1303112291
 20
63.0336257958
 30
0.0
 10
43.2382964055
 20
62.9903232899
 30
0.0
 10
43.4026654544
 20
62.9625022243
 30
0.0
 10
43.5554925474
 20
62.9776454358
 30
0.0
 10
43.6900221856
 20
63.0370965082
 30
0.0
 10
43.7986289608
 20
63.1384450115
 30
0.0
 10
43.876864561
 20
63.2753923187
 30
0.0
 10
43.9233276393
 20
63.4415944483
 30
0.0
 10
43.9325564569
 20
63.5619693987
 30
0.0
 10
43.9325564569
 20
63.6251290342
 30
0.0
  0
SPLINE
  5
30E
100
AcDbEntity
  8
0
100
AcDbSpline
 62
7
  6
BYLAYER
 70
0
 71
3
 72
9
 73
5
 74
0
 42
0.0000001
 43
0.0000001
 44
0.0000000001
 40
0.0
 40
0.0
 40
0.0
 40
0.0
 40
0.5444444257
 40
1.0
 40
1.0
 40
1.0
 40
1.0
 10
43.9325680152
 20
68.8507416921
 30
0.0
 10
43.9325667611
 20
68.8668078409
 30
0.0
 10
43.9290380275
 20
68.8966397866
 30
0.0
 10
43.9137278056
 20
68.9233919149
 30
0.0
 10
43.9039910651
 20
68.9326608393
 30
0.0
  0
SPLINE
  5
30F
100
AcDbEntity
  8
0
100
AcDbSpline
 62
7
  6
BYLAYER
 70
0
 71
3
 72
9
 73
5
 74
0
 42
0.0000001
 43
0.0000001
 44
0.0000000001
 40
0.0
 40
0.0
 40
0.0
 40
0.0
 40
0.2377673784
 40
1.0
 40
1.0
 40
1.0
 40
1.0
 10
37.1340705081
 20
69.3465438408
 30
0.0
 10
37.1301381832
 20
69.3521134075
 30
0.0
 10
37.1126023059
 20
69.3748119303
 30
0.0
 10
37.0911103681
 20
69.3945019372
 30
0.0
 10
37.073116306
 20
69.4069086571
 30
0.0
  0
SPLINE
  5
310
100
AcDbEntity
  8
0
100
AcDbSpline
 62
7
  6
BYLAYER
 70
0
 71
3
 72
10
 73
6
 74
0
 42
0.0000001
 43
0.0000001
 44
0.0000000001
 40
0.0
 40
0.0
 40
0.0
 40
0.0
 40
0.5414579298
 40
0.7851023363
 40
1.0
 40
1.0
 40
1.0
 40
1.0
 10
37.073116306
 20
69.4069086571
 30
0.0
 10
37.0426769569
 20
69.4278962737
 30
0.0
 10
36.989873407
 20
69.4489807862
 30
0.0
 10
36.9208454769
 20
69.4455019026
 30
0.0
 10
36.890955262
 20
69.4342783968
 30
0.0
 10
36.8782461753
 20
69.4269426319
 30
0.0
  0
SPLINE
  5
311
100
AcDbEntity
  8
0
100
AcDbSpline
 62
7
  6
BYLAYER
 70
0
 71
3
 72
12
 73
8
 74
0
 42
0.0000001
 43
0.0000001
 44
0.0000000001
 40
0.0
 40
0.0
 40
0.0
 40
0.0
 40
0.2828074108
 40
0.5420321379
 40
0.7794235106
 40
0.8914631209
 40
1.0
 40
1.0
 40
1.0
 40
1.0
 10
38.7349330321
 20
74.8530831304
 30
0.0
 10
38.7305909206
 20
74.299684916
 30
0.0
 10
38.6537858404
 20
73.2373360053
 30
0.0
 10
38.3038271909
 20
71.7456670386
 30
0.0
 10
37.8134221562
 20
70.6495151682
 30
0.0
 10
37.3112815733
 20
69.9050810443
 30
0.0
 10
37.0275421618
 20
69.5780084682
 30
0.0
 10
36.8782463877
 20
69.426942152
 30
0.0
  0
SPLINE
  5
312
100
AcDbEntity
  8
0
100
AcDbSpline
 62
7
  6
BYLAYER
 70
0
 71
3
 72
11
 73
7
 74
0
 42
0.0000001
 43
0.0000001
 44
0.0000000001
 40
0.0
 40
0.0
 40
0.0
 40
0.0
 40
0.2664829181
 40
0.5243401573
 40
0.7698485044
 40
1.0
 40
1.0
 40
1.0
 40
1.0
 10
36.8782466492
 20
82.6256007252
 30
0.0
 10
37.1741505494
 20
81.9845148659
 30
0.0
 10
37.6994710105
 20
80.695787395
 30
0.0
 10
38.2854410725
 20
78.7384786984
 30
0.0
 10
38.6469466719
 20
76.8251572422
 30
0.0
 10
38.7353284671
 20
75.5639252195
 30
0.0
 10
38.7353284671
 20
74.954109139
 30
0.0
  0
SPLINE
  5
313
100
AcDbEntity
  8
0
100
AcDbSpline
 62
7
  6
BYLAYER
 70
0
 71
3
 72
10
 73
6
 74
0
 42
0.0000001
 43
0.0000001
 44
0.0000000001
 40
0.0
 40
0.0
 40
0.0
 40
0.0
 40
0.1955350788
 40
0.4665349342
 40
1.0
 40
1.0
 40
1.0
 40
1.0
 10
37.1340712695
 20
82.7371828223
 30
0.0
 10
37.1164413272
 20
82.7325695466
 30
0.0
 10
37.075176882
 20
82.7186074417
 30
0.0
 10
36.9889102125
 20
82.6833709236
 30
0.0
 10
36.9213049811
 20
82.6504574725
 30
0.0
 10
36.8782475177
 20
82.6255991305
 30
0.0
  0
SPLINE
  5
314
100
AcDbEntity
  8
0
100
AcDbSpline
 62
7
  6
BYLAYER
 70
0
 71
3
 72
15
 73
11
 74
0
 42
0.0000001
 43
0.0000001
 44
0.0000000001
 40
0.0
 40
0.0
 40
0.0
 40
0.0
 40
0.0553270045
 40
0.1103668347
 40
0.2237967396
 40
0.3440745872
 40
0.4695181309
 40
0.5986793801
 40
0.73058017
 40
1.0
 40
1.0
 40
1.0
 40
1.0
 10
37.0621084343
 20
83.1053209303
 30
0.0
 10
37.0555898998
 20
83.1015639955
 30
0.0
 10
37.0437041956
 20
83.0919129065
 30
0.0
 10
37.0268284553
 20
83.066106264
 30
0.0
 10
37.0188519372
 20
83.0265153365
 30
0.0
 10
37.0222227551
 20
82.9775838147
 30
0.0
 10
37.0341108963
 20
82.9278181213
 30
0.0
 10
37.0522649178
 20
82.8784022202
 30
0.0
 10
37.0832993232
 20
82.8132064179
 30
0.0
 10
37.1124983034
 20
82.766794827
 30
0.0
 10
37.1340775719
 20
82.7371869826
 30
0.0
  0
SPLINE
  5
315
100
AcDbEntity
  8
0
100
AcDbSpline
 62
7
  6
BYLAYER
 70
0
 71
3
 72
11
 73
7
 74
0
 42
0.0000001
 43
0.0000001
 44
0.0000000001
 40
0.0
 40
0.0
 40
0.0
 40
0.0
 40
0.2372185796
 40
0.5000005262
 40
0.7627821863
 40
1.0
 40
1.0
 40
1.0
 40
1.0
 10
40.6798790336
 20
80.6900638663
 30
0.0
 10
40.6999551633
 20
80.6784731696
 30
0.0
 10
40.7466455063
 20
80.6615568793
 30
0.0
 10
40.8213006122
 20
80.6534521029
 30
0.0
 10
40.8959556054
 20
80.6615572199
 30
0.0
 10
40.9426457648
 20
80.6784737421
 30
0.0
 10
40.9627217461
 20
80.6900645461
 30
0.0
  0
SPLINE
  5
316
100
AcDbEntity
  8
0
100
AcDbSpline
 62
7
  6
BYLAYER
 70
0
 71
3
 72
11
 73
7
 74
0
 42
0.0000001
 43
0.0000001
 44
0.0000000001
 40
0.0
 40
0.0
 40
0.0
 40
0.0
 40
0.2372218724
 40
0.5000031537
 40
0.7627826594
 40
1.0
 40
1.0
 40
1.0
 40
1.0
 10
40.8212882845
 20
80.9350065309
 30
0.0
 10
40.8012132453
 20
80.9234153269
 30
0.0
 10
40.7632215408
 20
80.8914372425
 30
0.0
 10
40.7188782734
 20
80.8308383571
 30
0.0
 10
40.6885729136
 20
80.7621352693
 30
0.0
 10
40.6798790336
 20
80.7132445194
 30
0.0
 10
40.6798790336
 20
80.6900638663
 30
0.0
  0
SPLINE
  5
317
100
AcDbEntity
  8
0
100
AcDbSpline
 62
7
  6
BYLAYER
 70
0
 71
3
 72
11
 73
7
 74
0
 42
0.0000001
 43
0.0000001
 44
0.0000000001
 40
0.0
 40
0.0
 40
0.0
 40
0.0
 40
0.2372194947
 40
0.500001228
 40
0.7627822912
 40
1.0
 40
1.0
 40
1.0
 40
1.0
 10
40.9627217461
 20
80.6900649254
 30
0.0
 10
40.9627217228
 20
80.7132468124
 30
0.0
 10
40.9540267821
 20
80.7621401526
 30
0.0
 10
40.9237183017
 20
80.8308458929
 30
0.0
 10
40.87937138
 20
80.8914462908
 30
0.0
 10
40.8413758665
 20
80.9234225209
 30
0.0
 10
40.8212998011
 20
80.9350131805
 30
0.0
  0
SPLINE
  5
318
100
AcDbEntity
  8
0
100
AcDbSpline
 62
7
  6
BYLAYER
 70
0
 71
3
 72
11
 73
7
 74
0
 42
0.0000001
 43
0.0000001
 44
0.0000000001
 40
0.0
 40
0.0
 40
0.0
 40
0.0
 40
0.2372178137
 40
0.4999994738
 40
0.7627814204
 40
1.0
 40
1.0
 40
1.0
 40
1.0
 10
40.9627217461
 20
67.2994249052
 30
0.0
 10
40.9426457648
 20
67.2878341012
 30
0.0
 10
40.8959556054
 20
67.270917579
 30
0.0
 10
40.8213006122
 20
67.262812462
 30
0.0
 10
40.7466455063
 20
67.2709172383
 30
0.0
 10
40.6999551633
 20
67.2878335287
 30
0.0
 10
40.6798790336
 20
67.2994242253
 30
0.0
  0
SPLINE
  5
319
100
AcDbEntity
  8
0
100
AcDbSpline
 62
7
  6
BYLAYER
 70
0
 71
3
 72
11
 73
7
 74
0
 42
0.0000001
 43
0.0000001
 44
0.0000000001
 40
0.0
 40
0.0
 40
0.0
 40
0.0
 40
0.3345070339
 40
0.6171243166
 40
0.8418072123
 40
1.0
 40
1.0
 40
1.0
 40
1.0
 10
37.1340769964
 20
69.3465476739
 30
0.0
 10
37.1221825263
 20
69.3439574385
 30
0.0
 10
37.10013362
 20
69.3397283958
 30
0.0
 10
37.0695956764
 20
69.3360862311
 30
0.0
 10
37.0455236297
 20
69.3358376324
 30
0.0
 10
37.0312777016
 20
69.3382555939
 30
0.0
 10
37.0262912114
 20
69.3411325091
 30
0.0
  0
SPLINE
  5
31A
100
AcDbEntity
  8
0
100
AcDbSpline
 62
7
  6
BYLAYER
 70
0
 71
3
 72
25
 73
21
 74
0
 42
0.0000001
 43
0.0000001
 44
0.0000000001
 40
0.0
 40
0.0
 40
0.0
 40
0.0
 40
0.0623835804
 40
0.1287227289
 40
0.1983152439
 40
0.270291522
 40
0.3436686947
 40
0.4174003513
 40
0.490424557
 40
0.5617108193
 40
0.6303078745
 40
0.6953954302
 40
0.7563431565
 40
0.8127807177
 40
0.8646816357
 40
0.912456881
 40
0.9351016568
 40
0.9571072055
 40
0.9786677616
 40
1.0
 40
1.0
 40
1.0
 40
1.0
 10
38.1696453973
 20
74.627513816
 30
0.0
 10
38.1696453973
 20
75.1979520082
 30
0.0
 10
38.0923649031
 20
76.3757841135
 30
0.0
 10
37.774363903
 20
78.1641578297
 30
0.0
 10
37.257357473
 20
79.9966602539
 30
0.0
 10
36.5524045393
 20
81.8341036675
 30
0.0
 10
35.6745081349
 20
83.6375431543
 30
0.0
 10
34.6423946305
 20
85.3684978938
 30
0.0
 10
33.4780810668
 20
86.9900468216
 30
0.0
 10
32.2063704627
 20
88.4676315939
 30
0.0
 10
30.8542456988
 20
89.7698432073
 30
0.0
 10
29.4501474496
 20
90.8690766476
 30
0.0
 10
28.0232775746
 20
91.7420474694
 30
0.0
 10
26.6024604375
 20
92.3699238765
 30
0.0
 10
25.2165061731
 20
92.7382981305
 30
0.0
 10
24.0924155741
 20
92.8208190819
 30
0.0
 10
23.2493361217
 20
92.7416912979
 30
0.0
 10
22.6557536658
 20
92.6150960538
 30
0.0
 10
22.0935013238
 20
92.4207385728
 30
0.0
 10
21.7408591091
 20
92.2462015602
 30
0.0
 10
21.5719248977
 20
92.1486783525
 30
0.0
  0
SPLINE
  5
31B
100
AcDbEntity
  8
0
100
AcDbSpline
 62
7
  6
BYLAYER
 70
0
 71
3
 72
15
 73
11
 74
0
 42
0.0000001
 43
0.0000001
 44
0.0000000001
 40
0.0
 40
0.0
 40
0.0
 40
0.0
 40
0.1485793323
 40
0.2895082532
 40
0.4227234642
 40
0.5486404829
 40
0.6680008203
 40
0.7819381813
 40
0.8919868373
 40
1.0
 40
1.0
 40
1.0
 40
1.0
 10
19.6080151122
 20
85.3438336221
 30
0.0
 10
19.6080151122
 20
85.6693618842
 30
0.0
 10
19.6342765811
 20
86.3040932285
 30
0.0
 10
19.7591965986
 20
87.2232619808
 30
0.0
 10
19.9679169684
 20
88.0764196364
 30
0.0
 10
20.2587849911
 20
88.8552624512
 30
0.0
 10
20.6295188277
 20
89.5523302058
 30
0.0
 10
21.0772860659
 20
90.1604861683
 30
0.0
 10
21.5979538606
 20
90.6728514756
 30
0.0
 10
21.9919705435
 20
90.9478309626
 30
0.0
 10
22.1969214606
 20
91.0661460739
 30
0.0
  0
SPLINE
  5
31C
100
AcDbEntity
  8
0
100
AcDbSpline
 62
7
  6
BYLAYER
 70
0
 71
3
 72
11
 73
7
 74
0
 42
0.0000001
 43
0.0000001
 44
0.0000000001
 40
0.0
 40
0.0
 40
0.0
 40
0.0
 40
0.2372136841
 40
0.4999972146
 40
0.7627823102
 40
1.0
 40
1.0
 40
1.0
 40
1.0
 10
44.2153993971
 20
68.8507382168
 30
0.0
 10
44.1953228596
 20
68.8391497549
 30
0.0
 10
44.148632292
 20
68.8222374047
 30
0.0
 10
44.0739779747
 20
68.8141357457
 30
0.0
 10
43.9993236375
 20
68.8222407088
 30
0.0
 10
43.9526332107
 20
68.83915492
 30
0.0
 10
43.9325566848
 20
68.850744185
 30
0.0
  0
SPLINE
  5
31D
100
AcDbEntity
  8
0
100
AcDbSpline
 62
7
  6
BYLAYER
 70
0
 71
3
 72
11
 73
7
 74
0
 42
0.0000001
 43
0.0000001
 44
0.0000000001
 40
0.0
 40
0.0
 40
0.0
 40
0.0
 40
0.2372178138
 40
0.4999994739
 40
0.7627814204
 40
1.0
 40
1.0
 40
1.0
 40
1.0
 10
44.2153993971
 20
63.6251315764
 30
0.0
 10
44.1953234158
 20
63.6135407724
 30
0.0
 10
44.1486332564
 20
63.5966242503
 30
0.0
 10
44.0739782633
 20
63.5885191333
 30
0.0
 10
43.9993231574
 20
63.5966239097
 30
0.0
 10
43.9526328145
 20
63.6135402
 30
0.0
 10
43.9325566848
 20
63.6251308967
 30
0.0
  0
SPLINE
  5
31E
100
AcDbEntity
  8
0
100
AcDbSpline
 62
7
  6
BYLAYER
 70
0
 71
3
 72
11
 73
7
 74
0
 42
0.0000001
 43
0.0000001
 44
0.0000000001
 40
0.0
 40
0.0
 40
0.0
 40
0.0
 40
0.2897003537
 40
0.5490843943
 40
0.7822141087
 40
1.0
 40
1.0
 40
1.0
 40
1.0
 10
54.2562738857
 20
69.4221985615
 30
0.0
 10
54.2562738857
 20
69.3461966914
 30
0.0
 10
54.244752824
 20
69.2016569909
 30
0.0
 10
54.186217212
 20
69.003065586
 30
0.0
 10
54.0876625617
 20
68.8419171085
 30
0.0
 10
53.9950866933
 20
68.764087198
 30
0.0
 10
53.9456059403
 20
68.7355196491
 30
0.0
  0
SPLINE
  5
31F
100
AcDbEntity
  8
0
100
AcDbSpline
 62
7
  6
BYLAYER
 70
0
 71
3
 72
12
 73
8
 74
0
 42
0.0000001
 43
0.0000001
 44
0.0000000001
 40
0.0
 40
0.0
 40
0.0
 40
0.0
 40
0.2401037932
 40
0.502736892
 40
0.763742776
 40
0.8863089553
 40
1.0
 40
1.0
 40
1.0
 40
1.0
 10
53.2472817524
 20
95.7230877791
 30
0.0
 10
53.391947717
 20
95.6313687223
 30
0.0
 10
53.6638367607
 20
95.3895507603
 30
0.0
 10
53.9802281666
 20
94.9417523536
 30
0.0
 10
54.1635370916
 20
94.5138780946
 30
0.0
 10
54.2418713159
 20
94.167092396
 30
0.0
 10
54.2562738857
 20
93.9983787453
 30
0.0
 10
54.2562738857
 20
93.9172710747
 30
0.0
  0
SPLINE
  5
320
100
AcDbEntity
  8
0
100
AcDbSpline
 62
7
  6
BYLAYER
 70
0
 71
3
 72
11
 73
7
 74
0
 42
0.0000001
 43
0.0000001
 44
0.0000000001
 40
0.0
 40
0.0
 40
0.0
 40
0.0
 40
0.2177868452
 40
0.4509169605
 40
0.7103006452
 40
1.0
 40
1.0
 40
1.0
 40
1.0
 10
31.2323209012
 20
108.075894887
 30
0.0
 10
31.2818005483
 20
108.1044617975
 30
0.0
 10
31.3954883931
 20
108.1457187751
 30
0.0
 10
31.5843195118
 20
108.1504962176
 30
0.0
 10
31.7855672621
 20
108.1018968593
 30
0.0
 10
31.916499608
 20
108.0396076117
 30
0.0
 10
31.9823175442
 20
108.0016084681
 30
0.0
  0
SPLINE
  5
321
100
AcDbEntity
  8
0
100
AcDbSpline
 62
7
  6
BYLAYER
 70
0
 71
3
 72
12
 73
8
 74
0
 42
0.0000001
 43
0.0000001
 44
0.0000000001
 40
0.0
 40
0.0
 40
0.0
 40
0.0
 40
0.2828072911
 40
0.5420319433
 40
0.7794234221
 40
0.8914630945
 40
1.0
 40
1.0
 40
1.0
 40
1.0
 10
39.0177699928
 20
74.851614341
 30
0.0
 10
39.013364726
 20
74.2901670398
 30
0.0
 10
38.9354411743
 20
73.2123663767
 30
0.0
 10
38.5803906957
 20
71.6990013861
 30
0.0
 10
38.0828536866
 20
70.5869051813
 30
0.0
 10
37.5734105677
 20
69.8316417692
 30
0.0
 10
37.285544354
 20
69.499811328
 30
0.0
 10
37.1340769963
 20
69.3465476748
 30
0.0
  0
SPLINE
  5
322
100
AcDbEntity
  8
0
100
AcDbSpline
 62
7
  6
BYLAYER
 70
0
 71
3
 72
11
 73
7
 74
0
 42
0.0000001
 43
0.0000001
 44
0.0000000001
 40
0.0
 40
0.0
 40
0.0
 40
0.0
 40
0.2668666391
 40
0.5249116432
 40
0.770311797
 40
1.0
 40
1.0
 40
1.0
 40
1.0
 10
37.1340773274
 20
82.7371865192
 30
0.0
 10
37.4385312691
 20
82.0775766629
 30
0.0
 10
37.97802564
 20
80.7516659041
 30
0.0
 10
38.5762512427
 20
78.738126524
 30
0.0
 10
38.9399350005
 20
76.7718356865
 30
0.0
 10
39.0226759035
 20
75.4768682509
 30
0.0
 10
39.0177699928
 20
74.851614341
 30
0.0
  0
LINE
  5
323
100
AcDbEntity
  8
0
100
AcDbLine
 62
7
  6
BYLAYER
 10
43.7969648582
 20
82.6460829649
 11
43.791135963
 21
82.6496386531
  0
SPLINE
  5
324
100
AcDbEntity
  8
0
100
AcDbSpline
 62
7
  6
BYLAYER
 70
0
 71
3
 72
11
 73
7
 74
0
 42
0.0000001
 43
0.0000001
 44
0.0000000001
 40
0.0
 40
0.0
 40
0.0
 40
0.0
 40
0.2360615458
 40
0.4976725626
 40
0.7605433613
 40
1.0
 40
1.0
 40
1.0
 40
1.0
 10
43.9320021237
 20
82.4043695177
 30
0.0
 10
43.9319540544
 20
82.4268960263
 30
0.0
 10
43.9236863135
 20
82.4743898351
 30
0.0
 10
43.8950681537
 20
82.5416487243
 30
0.0
 10
43.8525609106
 20
82.6015120244
 30
0.0
 10
43.8162666159
 20
82.6338522892
 30
0.0
 10
43.7969648582
 20
82.6460829649
 30
0.0
  0
SPLINE
  5
325
100
AcDbEntity
  8
0
100
AcDbSpline
 62
7
  6
BYLAYER
 70
0
 71
3
 72
9
 73
5
 74
0
 42
0.0000001
 43
0.0000001
 44
0.0000000001
 40
0.0
 40
0.0
 40
0.0
 40
0.0
 40
0.5251929028
 40
1.0
 40
1.0
 40
1.0
 40
1.0
 10
36.9507685655
 20
83.2322426527
 30
0.0
 10
36.9640823714
 20
83.2055237142
 30
0.0
 10
36.9954650936
 20
83.1574983797
 30
0.0
 10
37.0387007694
 20
83.1187603894
 30
0.0
 10
37.0621028717
 20
83.1053174936
 30
0.0
  0
SPLINE
  5
326
100
AcDbEntity
  8
0
100
AcDbSpline
 62
7
  6
BYLAYER
 70
0
 71
3
 72
22
 73
18
 74
0
 42
0.0000001
 43
0.0000001
 44
0.0000000001
 40
0.0
 40
0.0
 40
0.0
 40
0.0
 40
0.0428207334
 40
0.0874094875
 40
0.1351996027
 40
0.1871160556
 40
0.2435698988
 40
0.3045351524
 40
0.3696417943
 40
0.4382588233
 40
0.5095654689
 40
0.5826107686
 40
0.7296269247
 40
0.8016255896
 40
0.8712340572
 40
0.9376043757
 40
1.0
 40
1.0
 40
1.0
 40
1.0
 10
25.3279047718
 20
72.0892644601
 30
0.0
 10
25.1922988344
 20
72.0109897102
 30
0.0
 10
24.8934100896
 20
71.8867221103
 30
0.0
 10
24.3999913176
 20
71.8144298442
 30
0.0
 10
23.8701535055
 20
71.8534441871
 30
0.0
 10
23.3156463839
 20
72.0007762047
 30
0.0
 10
22.7473583798
 20
72.2519289022
 30
0.0
 10
22.1766002278
 20
72.6011082562
 30
0.0
 10
21.6149682377
 20
73.0408093033
 30
0.0
 10
21.0741398927
 20
73.5616847563
 30
0.0
 10
20.5654075514
 20
74.1527624172
 30
0.0
 10
19.9435128402
 20
75.0190026652
 30
0.0
 10
19.4322263672
 20
75.9636968506
 30
0.0
 10
19.0537766702
 20
76.9499933961
 30
0.0
 10
18.8469194422
 20
77.6830750317
 30
0.0
 10
18.7197596927
 20
78.3984176976
 30
0.0
 10
18.6888213393
 20
78.8695700039
 30
0.0
 10
18.6888213393
 20
79.0977218633
 30
0.0
  0
SPLINE
  5
327
100
AcDbEntity
  8
0
100
AcDbSpline
 62
7
  6
BYLAYER
 70
0
 71
3
 72
14
 73
10
 74
0
 42
0.0000001
 43
0.0000001
 44
0.0000000001
 40
0.0
 40
0.0
 40
0.0
 40
0.0
 40
0.289278564
 40
0.4225443899
 40
0.5484927173
 40
0.6678923533
 40
0.7818675656
 40
0.8919515752
 40
1.0
 40
1.0
 40
1.0
 40
1.0
 10
21.8708209904
 20
82.1596704795
 30
0.0
 10
21.563553801
 20
82.3370672608
 30
0.0
 10
21.0918176545
 20
82.5615902554
 30
0.0
 10
20.4448805823
 20
82.7502179427
 30
0.0
 10
19.9856880944
 20
82.8272221138
 30
0.0
 10
19.5438524854
 20
82.8426063024
 30
0.0
 10
19.1235498609
 20
82.7957118278
 30
0.0
 10
18.7292714571
 20
82.6867161163
 30
0.0
 10
18.4856153474
 20
82.5725801925
 30
0.0
 10
18.3708484825
 20
82.5063198782
 30
0.0
  0
SPLINE
  5
328
100
AcDbEntity
  8
0
100
AcDbSpline
 62
7
  6
BYLAYER
 70
0
 71
3
 72
14
 73
10
 74
0
 42
0.0000001
 43
0.0000001
 44
0.0000000001
 40
0.0
 40
0.0
 40
0.0
 40
0.0
 40
0.2892777946
 40
0.4225507734
 40
0.5484967764
 40
0.6678925332
 40
0.7818703191
 40
0.891953343
 40
1.0
 40
1.0
 40
1.0
 40
1.0
 10
17.6281626395
 20
78.8935980867
 30
0.0
 10
17.6281626395
 20
79.1977191634
 30
0.0
 10
17.6636644932
 20
79.6441367912
 30
0.0
 10
17.8009118264
 20
80.2052196598
 30
0.0
 10
17.9405307086
 20
80.5791045598
 30
0.0
 10
18.1185082635
 20
80.9136591191
 30
0.0
 10
18.3334131211
 20
81.2055916641
 30
0.0
 10
18.5833376549
 20
81.4515259543
 30
0.0
 10
18.7724649783
 20
81.5835129991
 30
0.0
 10
18.8708429191
 20
81.6402987958
 30
0.0
  0
SPLINE
  5
329
100
AcDbEntity
  8
0
100
AcDbSpline
 62
7
  6
BYLAYER
 70
0
 71
3
 72
12
 73
8
 74
0
 42
0.0000001
 43
0.0000001
 44
0.0000000001
 40
0.0
 40
0.0
 40
0.0
 40
0.0
 40
0.107994786
 40
0.2193348528
 40
0.4556490837
 40
0.7151817293
 40
1.0
 40
1.0
 40
1.0
 40
1.0
 10
19.232854893
 20
81.7970655657
 30
0.0
 10
19.1600222857
 20
81.731313363
 30
0.0
 10
19.021350894
 20
81.5871508606
 30
0.0
 10
18.7758795624
 20
81.2525485093
 30
0.0
 10
18.5365767749
 20
80.7494927155
 30
0.0
 10
18.3690205998
 20
80.0563990243
 30
0.0
 10
18.3352664768
 20
79.5606228692
 30
0.0
 10
18.3352664768
 20
79.3018422406
 30
0.0
  0
SPLINE
  5
32A
100
AcDbEntity
  8
0
100
AcDbSpline
 62
7
  6
BYLAYER
 70
0
 71
3
 72
23
 73
19
 74
0
 42
0.0000001
 43
0.0000001
 44
0.0000000001
 40
0.0
 40
0.0
 40
0.0
 40
0.0
 40
0.0428151459
 40
0.0873979436
 40
0.1351816501
 40
0.1870911599
 40
0.2435374701
 40
0.3044945955
 40
0.3695925345
 40
0.4382003542
 40
0.5094973676
 40
0.5825328894
 40
0.6562760075
 40
0.7296631384
 40
0.8016520185
 40
0.8712511147
 40
0.9376126477
 40
1.0
 40
1.0
 40
1.0
 40
1.0
 10
24.8707990618
 20
71.2480083234
 30
0.0
 10
24.7228647528
 20
71.1626175586
 30
0.0
 10
24.396803882
 20
71.0270524094
 30
0.0
 10
23.8585282094
 20
70.9481887513
 30
0.0
 10
23.2805234703
 20
70.9907500881
 30
0.0
 10
22.6756066051
 20
71.1514760753
 30
0.0
 10
22.0556562227
 20
71.4254609047
 30
0.0
 10
21.4330100835
 20
71.8063849275
 30
0.0
 10
20.8203244445
 20
72.2860557036
 30
0.0
 10
20.2303158637
 20
72.8542964206
 30
0.0
 10
19.6753927606
 20
73.4990558565
 30
0.0
 10
19.1673294955
 20
74.2066326552
 30
0.0
 10
18.7169530521
 20
74.9619446597
 30
0.0
 10
18.3338698841
 20
75.7488943315
 30
0.0
 10
18.0262890553
 20
76.5506754509
 30
0.0
 10
17.8006353523
 20
77.3503319728
 30
0.0
 10
17.6619132844
 20
78.130723515
 30
0.0
 10
17.6281626395
 20
78.6447048692
 30
0.0
 10
17.6281626395
 20
78.8935980867
 30
0.0
  0
SPLINE
  5
32B
100
AcDbEntity
  8
0
100
AcDbSpline
 62
7
  6
BYLAYER
 70
0
 71
3
 72
23
 73
19
 74
0
 42
0.0000001
 43
0.0000001
 44
0.0000000001
 40
0.0
 40
0.0
 40
0.0
 40
0.0
 40
0.0428151557
 40
0.0873976605
 40
0.1351810649
 40
0.187090882
 40
0.2435378615
 40
0.304495294
 40
0.3695928497
 40
0.4382004003
 40
0.509497763
 40
0.5825336042
 40
0.6562771533
 40
0.72966444
 40
0.8016528191
 40
0.8712534077
 40
0.9376105422
 40
1.0
 40
1.0
 40
1.0
 40
1.0
 10
25.3707934983
 20
70.381987241
 30
0.0
 10
25.543375396
 20
70.4816268957
 30
0.0
 10
25.8705267011
 20
70.7320224838
 30
0.0
 10
26.2642240325
 20
71.2298482376
 30
0.0
 10
26.5584117509
 20
71.8386683469
 30
0.0
 10
26.7488873673
 20
72.5436203308
 30
0.0
 10
26.8336869488
 20
73.3298334767
 30
0.0
 10
26.8120126552
 20
74.1811457448
 30
0.0
 10
26.6847791612
 20
75.0799941957
 30
0.0
 10
26.4548334864
 20
76.0075997223
 30
0.0
 10
26.1270991454
 20
76.9443936473
 30
0.0
 10
25.7085514299
 20
77.8704855026
 30
0.0
 10
25.2081102102
 20
78.7661292457
 30
0.0
 10
24.6364676791
 20
79.6122429373
 30
0.0
 10
24.0057981745
 20
80.3907326693
 30
0.0
 10
23.3294812029
 20
81.0851735896
 30
0.0
 10
22.6219298606
 20
81.680573934
 30
0.0
 10
22.1223052338
 20
82.0144792685
 30
0.0
 10
21.8708209904
 20
82.1596704795
 30
0.0
  0
SPLINE
  5
32C
100
AcDbEntity
  8
0
100
AcDbSpline
 62
7
  6
BYLAYER
 70
0
 71
3
 72
21
 73
17
 74
0
 42
0.0000001
 43
0.0000001
 44
0.0000000001
 40
0.0
 40
0.0
 40
0.0
 40
0.0
 40
0.0612941271
 40
0.1263401966
 40
0.1944856497
 40
0.2649973316
 40
0.4094697518
 40
0.5524751099
 40
0.6212090453
 40
0.6869777575
 40
0.7491346381
 40
0.807222067
 40
0.861032195
 40
0.910681202
 40
0.9566838386
 40
1.0
 40
1.0
 40
1.0
 40
1.0
 10
18.3352664768
 20
79.3018422406
 30
0.0
 10
18.3352664768
 20
79.0655590497
 30
0.0
 10
18.3656693443
 20
78.5782267681
 30
0.0
 10
18.491173319
 20
77.8379215095
 30
0.0
 10
18.6957288392
 20
77.0785880135
 30
0.0
 10
19.0713593178
 20
76.0526059517
 30
0.0
 10
19.7061991897
 20
74.8201429619
 30
0.0
 10
20.5235506416
 20
73.708434754
 30
0.0
 10
21.2647979868
 20
72.935331555
 30
0.0
 10
21.8391525439
 20
72.4386262342
 30
0.0
 10
22.4280663455
 20
72.0270509053
 30
0.0
 10
23.020594078
 20
71.7085244152
 30
0.0
 10
23.6058466598
 20
71.4893809384
 30
0.0
 10
24.1733905869
 20
71.3745087064
 30
0.0
 10
24.7124550554
 20
71.3673738977
 30
0.0
 10
25.0531517823
 20
71.4376782947
 30
0.0
 10
25.211391943
 20
71.490991556
 30
0.0
  0
SPLINE
  5
32D
100
AcDbEntity
  8
0
100
AcDbSpline
 62
7
  6
BYLAYER
 70
0
 71
3
 72
13
 73
9
 74
0
 42
0.0000001
 43
0.0000001
 44
0.0000000001
 40
0.0
 40
0.0
 40
0.0
 40
0.0
 40
0.1142256629
 40
0.2375594128
 40
0.500000305
 40
0.7624409697
 40
0.8857746848
 40
1.0
 40
1.0
 40
1.0
 40
1.0
 10
43.9325564569
 20
88.1201935736
 30
0.0
 10
43.9325564569
 20
88.1928382931
 30
0.0
 10
43.9192299251
 20
88.3440706995
 30
0.0
 10
43.8469882553
 20
88.6545261378
 30
0.0
 10
43.6790892464
 20
89.0353038117
 30
0.0
 10
43.4332760909
 20
89.3710978236
 30
0.0
 10
43.2005354139
 20
89.5888887962
 30
0.0
 10
43.0762281059
 20
89.6760466406
 30
0.0
 10
43.013315769
 20
89.7123682735
 30
0.0
  0
SPLINE
  5
32E
100
AcDbEntity
  8
0
100
AcDbSpline
 62
7
  6
BYLAYER
 70
0
 71
3
 72
15
 73
11
 74
0
 42
0.0000001
 43
0.0000001
 44
0.0000000001
 40
0.0
 40
0.0
 40
0.0
 40
0.0
 40
0.1028311675
 40
0.2085815861
 40
0.3197812515
 40
0.4383213336
 40
0.5653796084
 40
0.701465483
 40
0.8465161217
 40
1.0
 40
1.0
 40
1.0
 40
1.0
 10
34.6968518924
 20
69.4155023074
 30
0.0
 10
34.443648484
 20
69.2693317517
 30
0.0
 10
33.8968681499
 20
69.0267698727
 30
0.0
 10
33.0023254829
 20
68.8349760344
 30
0.0
 10
32.0435679745
 20
68.8137273286
 30
0.0
 10
31.0357803252
 20
68.9613522938
 30
0.0
 10
29.9931062478
 20
69.2739201999
 30
0.0
 10
28.9299267984
 20
69.7460073277
 30
0.0
 10
27.8610395327
 20
70.3702963352
 30
0.0
 10
27.1724525085
 20
70.8690080538
 30
0.0
 10
26.8303842664
 20
71.1399631524
 30
0.0
  0
SPLINE
  5
32F
100
AcDbEntity
  8
0
100
AcDbSpline
 62
7
  6
BYLAYER
 70
0
 71
3
 72
9
 73
5
 74
0
 42
0.0000001
 43
0.0000001
 44
0.0000000001
 40
0.0
 40
0.0
 40
0.0
 40
0.0
 40
0.2577730651
 40
1.0
 40
1.0
 40
1.0
 40
1.0
 10
19.7567040985
 20
83.3937862149
 30
0.0
 10
19.7322168555
 20
83.5601183946
 30
0.0
 10
19.6480399741
 20
84.2068875367
 30
0.0
 10
19.6080151122
 20
84.8597376172
 30
0.0
 10
19.6080151122
 20
85.3438336221
 30
0.0
  0
SPLINE
  5
330
100
AcDbEntity
  8
0
100
AcDbSpline
 62
7
  6
BYLAYER
 70
0
 71
3
 72
14
 73
10
 74
0
 42
0.0000001
 43
0.0000001
 44
0.0000000001
 40
0.0
 40
0.0
 40
0.0
 40
0.0
 40
0.2892777549
 40
0.4225506244
 40
0.5484966408
 40
0.6678925525
 40
0.7818704642
 40
0.891953516
 40
1.0
 40
1.0
 40
1.0
 40
1.0
 10
18.6888213393
 20
79.0977218633
 30
0.0
 10
18.6888213393
 20
79.3764994826
 30
0.0
 10
18.7213647252
 20
79.7857154867
 30
0.0
 10
18.8471745792
 20
80.3000413808
 30
0.0
 10
18.9751587067
 20
80.6427692099
 30
0.0
 10
19.1383047744
 20
80.9494445644
 30
0.0
 10
19.3353011903
 20
81.2170495656
 30
0.0
 10
19.5643987028
 20
81.4424892871
 30
0.0
 10
19.7377652989
 20
81.5634773137
 30
0.0
 10
19.8279448835
 20
81.6155309668
 30
0.0
  0
SPLINE
  5
331
100
AcDbEntity
  8
0
100
AcDbSpline
 62
7
  6
BYLAYER
 70
0
 71
3
 72
15
 73
11
 74
0
 42
0.0000001
 43
0.0000001
 44
0.0000000001
 40
0.0
 40
0.0
 40
0.0
 40
0.0
 40
0.1080126597
 40
0.2180609619
 40
0.3319981863
 40
0.4513585858
 40
0.5772755709
 40
0.7104911329
 40
0.8514207315
 40
1.0
 40
1.0
 40
1.0
 40
1.0
 10
35.3218484554
 20
68.3329700287
 30
0.0
 10
35.5472934006
 20
68.4631160425
 30
0.0
 10
35.9807095095
 20
68.7655930109
 30
0.0
 10
36.5534429223
 20
69.3291923087
 30
0.0
 10
37.0459880649
 20
69.998161778
 30
0.0
 10
37.4537946163
 20
70.7649363264
 30
0.0
 10
37.7737518644
 20
71.6216633736
 30
0.0
 10
38.0033452313
 20
72.5601390938
 30
0.0
 10
38.1407571135
 20
73.5712270068
 30
0.0
 10
38.1696453973
 20
74.2694328995
 30
0.0
 10
38.1696453973
 20
74.627513816
 30
0.0
  0
SPLINE
  5
332
100
AcDbEntity
  8
0
100
AcDbSpline
 62
7
  6
BYLAYER
 70
0
 71
3
 72
11
 73
7
 74
0
 42
0.0000001
 43
0.0000001
 44
0.0000000001
 40
0.0
 40
0.0
 40
0.0
 40
0.0
 40
0.2372196254
 40
0.500001618
 40
0.76278273
 40
1.0
 40
1.0
 40
1.0
 40
1.0
 10
23.3556907675
 20
97.3056319308
 30
0.0
 10
23.3556907675
 20
97.3288138469
 30
0.0
 10
23.3643855469
 20
97.3777072747
 30
0.0
 10
23.3946937523
 20
97.4464132386
 30
0.0
 10
23.4390403067
 20
97.5070139413
 30
0.0
 10
23.477035576
 20
97.5389904538
 30
0.0
 10
23.497111535
 20
97.550581245
 30
0.0
  0
SPLINE
  5
333
100
AcDbEntity
  8
0
100
AcDbSpline
 62
7
  6
BYLAYER
 70
0
 71
3
 72
11
 73
7
 74
0
 42
0.0000001
 43
0.0000001
 44
0.0000000001
 40
0.0
 40
0.0
 40
0.0
 40
0.0
 40
0.2372185796
 40
0.5000005261
 40
0.7627821862
 40
1.0
 40
1.0
 40
1.0
 40
1.0
 10
34.9522902599
 20
90.6104835566
 30
0.0
 10
34.9723663896
 20
90.59889286
 30
0.0
 10
35.0190567326
 20
90.5819765696
 30
0.0
 10
35.0937118384
 20
90.5738717933
 30
0.0
 10
35.1683668315
 20
90.5819769103
 30
0.0
 10
35.2150569909
 20
90.5988934324
 30
0.0
 10
35.2351329722
 20
90.6104842364
 30
0.0
  0
SPLINE
  5
334
100
AcDbEntity
  8
0
100
AcDbSpline
 62
7
  6
BYLAYER
 70
0
 71
3
 72
11
 73
7
 74
0
 42
0.0000001
 43
0.0000001
 44
0.0000000001
 40
0.0
 40
0.0
 40
0.0
 40
0.0
 40
0.23721727
 40
0.499998382
 40
0.7627803746
 40
1.0
 40
1.0
 40
1.0
 40
1.0
 10
35.0937110274
 20
90.8554328708
 30
0.0
 10
35.0736350684
 20
90.8438420797
 30
0.0
 10
35.0356397991
 20
90.8118655672
 30
0.0
 10
34.9912932447
 20
90.7512648645
 30
0.0
 10
34.9609850394
 20
90.6825589005
 30
0.0
 10
34.9522902599
 20
90.6336654728
 30
0.0
 10
34.9522902599
 20
90.6104835566
 30
0.0
  0
SPLINE
  5
335
100
AcDbEntity
  8
0
100
AcDbSpline
 62
7
  6
BYLAYER
 70
0
 71
3
 72
11
 73
7
 74
0
 42
0.0000001
 43
0.0000001
 44
0.0000000001
 40
0.0
 40
0.0
 40
0.0
 40
0.0
 40
0.2372203816
 40
0.5000021301
 40
0.7627827179
 40
1.0
 40
1.0
 40
1.0
 40
1.0
 10
35.2351329724
 20
90.6104869403
 30
0.0
 10
35.2351328062
 20
90.6336687321
 30
0.0
 10
35.2264373107
 20
90.6825616765
 30
0.0
 10
35.1961288143
 20
90.7512667611
 30
0.0
 10
35.1517820816
 20
90.8118664686
 30
0.0
 10
35.1137868992
 20
90.843842323
 30
0.0
 10
35.0937110274
 20
90.8554328708
 30
0.0
  0
SPLINE
  5
336
100
AcDbEntity
  8
0
100
AcDbSpline
 62
7
  6
BYLAYER
 70
0
 71
3
 72
15
 73
11
 74
0
 42
0.0000001
 43
0.0000001
 44
0.0000000001
 40
0.0
 40
0.0
 40
0.0
 40
0.0
 40
0.2694216265
 40
0.401322622
 40
0.5304846142
 40
0.6559283803
 40
0.7762058322
 40
0.8896375054
 40
0.9446755876
 40
1.0
 40
1.0
 40
1.0
 40
1.0
 10
34.9522902599
 20
86.5161298313
 30
0.0
 10
34.9671427145
 20
86.4826368331
 30
0.0
 10
34.9927400279
 20
86.4341438688
 30
0.0
 10
35.0336840222
 20
86.3746667067
 30
0.0
 10
35.0674056775
 20
86.3342373236
 30
0.0
 10
35.1045616795
 20
86.2990597896
 30
0.0
 10
35.1452529642
 20
86.271670703
 30
0.0
 10
35.1835327956
 20
86.2587963196
 30
0.0
 10
35.2143201161
 20
86.2605073677
 30
0.0
 10
35.2286200023
 20
86.2659771899
 30
0.0
 10
35.2351329722
 20
86.2697434462
 30
0.0
  0
SPLINE
  5
337
100
AcDbEntity
  8
0
100
AcDbSpline
 62
7
  6
BYLAYER
 70
0
 71
3
 72
11
 73
7
 74
0
 42
0.0000001
 43
0.0000001
 44
0.0000000001
 40
0.0
 40
0.0
 40
0.0
 40
0.0
 40
0.2369958833
 40
0.4994818179
 40
0.7613677223
 40
1.0
 40
1.0
 40
1.0
 40
1.0
 10
38.2049690905
 20
92.3251123876
 30
0.0
 10
38.2050038023
 20
92.34829173
 30
0.0
 10
38.1964542099
 20
92.3973193297
 30
0.0
 10
38.1649422749
 20
92.4652018876
 30
0.0
 10
38.1232814717
 20
92.5277825843
 30
0.0
 10
38.0841746466
 20
92.559143646
 30
0.0
 10
38.0635435003
 20
92.5700562136
 30
0.0
  0
SPLINE
  5
338
100
AcDbEntity
  8
0
100
AcDbSpline
 62
7
  6
BYLAYER
 70
0
 71
3
 72
11
 73
7
 74
0
 42
0.0000001
 43
0.0000001
 44
0.0000000001
 40
0.0
 40
0.0
 40
0.0
 40
0.0
 40
0.2372169728
 40
0.5000007685
 40
0.762784132
 40
1.0
 40
1.0
 40
1.0
 40
1.0
 10
38.4878101822
 20
92.3251244011
 30
0.0
 10
38.467733591
 20
92.3367132713
 30
0.0
 10
38.4210432823
 20
92.3536268696
 30
0.0
 10
38.3463890966
 20
92.3617296608
 30
0.0
 10
38.271735089
 20
92.3536255226
 30
0.0
 10
38.2250454198
 20
92.336710735
 30
0.0
 10
38.2049690887
 20
92.3251216303
 30
0.0
  0
SPLINE
  5
339
100
AcDbEntity
  8
0
100
AcDbSpline
 62
7
  6
BYLAYER
 70
0
 71
3
 72
9
 73
5
 74
0
 42
0.0000001
 43
0.0000001
 44
0.0000000001
 40
0.0
 40
0.0
 40
0.0
 40
0.0
 40
0.4748991658
 40
1.0
 40
1.0
 40
1.0
 40
1.0
 10
35.235132972
 20
86.2697434462
 30
0.0
 10
35.2350858933
 20
86.2427461221
 30
0.0
 10
35.2468940162
 20
86.1859188238
 30
0.0
 10
35.2727960144
 20
86.1346806888
 30
0.0
 10
35.2893701182
 20
86.1098533477
 30
0.0
  0
SPLINE
  5
33A
100
AcDbEntity
  8
0
100
AcDbSpline
 62
7
  6
BYLAYER
 70
0
 71
3
 72
10
 73
6
 74
0
 42
0.0000001
 43
0.0000001
 44
0.0000000001
 40
0.0
 40
0.0
 40
0.0
 40
0.0
 40
0.1955396199
 40
0.4665399157
 40
1.0
 40
1.0
 40
1.0
 40
1.0
 10
34.9522822174
 20
86.5161257323
 30
0.0
 10
34.9394720362
 20
86.5031640173
 30
0.0
 10
34.9067486147
 20
86.4744084909
 30
0.0
 10
34.8331007696
 20
86.4173173878
 30
0.0
 10
34.7707953581
 20
86.3752265292
 30
0.0
 10
34.7277394359
 20
86.3503673149
 30
0.0
  0
SPLINE
  5
33B
100
AcDbEntity
  8
0
100
AcDbSpline
 62
7
  6
BYLAYER
 70
0
 71
3
 72
16
 73
12
 74
0
 42
0.0000001
 43
0.0000001
 44
0.0000000001
 40
0.0
 40
0.0
 40
0.0
 40
0.0
 40
0.046445252
 40
0.0944235744
 40
0.1961802932
 40
0.307456314
 40
0.4289692804
 40
0.5603894057
 40
0.7005859126
 40
0.8478297738
 40
1.0
 40
1.0
 40
1.0
 40
1.0
 10
23.2974001073
 20
92.9495280575
 30
0.0
 10
23.5058891624
 20
93.0040825662
 30
0.0
 10
23.9375247884
 20
93.0870928162
 30
0.0
 10
24.8476091969
 20
93.1483993163
 30
0.0
 10
26.0617779126
 20
93.0171495792
 30
0.0
 10
27.5519769447
 20
92.5566646966
 30
0.0
 10
29.0725430155
 20
91.8053566047
 30
0.0
 10
30.5885194635
 20
90.7824035759
 30
0.0
 10
32.0650489155
 20
89.5125418285
 30
0.0
 10
33.4670635707
 20
88.0264688051
 30
0.0
 10
34.3204939357
 20
86.9271661657
 30
0.0
 10
34.7277397455
 20
86.3503673812
 30
0.0
  0
SPLINE
  5
33C
100
AcDbEntity
  8
0
100
AcDbSpline
 62
7
  6
BYLAYER
 70
0
 71
3
 72
11
 73
7
 74
0
 42
0.0000001
 43
0.0000001
 44
0.0000000001
 40
0.0
 40
0.0
 40
0.0
 40
0.0
 40
0.257448573
 40
0.5299179993
 40
0.7838091113
 40
1.0
 40
1.0
 40
1.0
 40
1.0
 10
23.3556872393
 20
93.2112723794
 30
0.0
 10
23.3661542661
 20
93.1885942461
 30
0.0
 10
23.3805867051
 20
93.1383059319
 30
0.0
 10
23.3779813069
 20
93.0608935342
 30
0.0
 10
23.3498516718
 20
92.9925840445
 30
0.0
 10
23.3155643363
 20
92.9600175534
 30
0.0
 10
23.2974010541
 20
92.9495285137
 30
0.0
  0
SPLINE
  5
33D
100
AcDbEntity
  8
0
100
AcDbSpline
 62
7
  6
BYLAYER
 70
0
 71
3
 72
16
 73
12
 74
0
 42
0.0000001
 43
0.0000001
 44
0.0000000001
 40
0.0
 40
0.0
 40
0.0
 40
0.0
 40
0.0464453008
 40
0.0944237326
 40
0.1961805445
 40
0.3074565508
 40
0.4289693971
 40
0.5603893406
 40
0.7005856967
 40
0.8478295562
 40
1.0
 40
1.0
 40
1.0
 40
1.0
 10
23.3556917999
 20
93.2112754071
 30
0.0
 10
23.5672135924
 20
93.266623465
 30
0.0
 10
24.005128253
 20
93.3508408559
 30
0.0
 10
24.9284512378
 20
93.4130386688
 30
0.0
 10
26.1602809429
 20
93.2798772777
 30
0.0
 10
27.6721543822
 20
92.8126930509
 30
0.0
 10
29.2148357117
 20
92.0504571779
 30
0.0
 10
30.7528609026
 20
91.0126269384
 30
0.0
 10
32.250866536
 20
89.7242970164
 30
0.0
 10
33.6732751593
 20
88.2166096856
 30
0.0
 10
34.5391198856
 20
87.101316981
 30
0.0
 10
34.9522897504
 20
86.5161277167
 30
0.0
  0
SPLINE
  5
33E
100
AcDbEntity
  8
0
100
AcDbSpline
 62
7
  6
BYLAYER
 70
0
 71
3
 72
9
 73
5
 74
0
 42
0.0000001
 43
0.0000001
 44
0.0000000001
 40
0.0
 40
0.0
 40
0.0
 40
0.0
 40
0.4552720959
 40
1.0
 40
1.0
 40
1.0
 40
1.0
 10
26.3823157546
 20
99.2805915239
 30
0.0
 10
26.3792471208
 20
99.2937589698
 30
0.0
 10
26.3637589934
 20
99.3206687204
 30
0.0
 10
26.3395352277
 20
99.3387742322
 30
0.0
 10
26.3255261765
 20
99.3468635826
 30
0.0
  0
SPLINE
  5
33F
100
AcDbEntity
  8
0
100
AcDbSpline
 62
7
  6
BYLAYER
 70
0
 71
3
 72
9
 73
5
 74
0
 42
0.0000001
 43
0.0000001
 44
0.0000000001
 40
0.0
 40
0.0
 40
0.0
 40
0.0
 40
0.4891631431
 40
1.0
 40
1.0
 40
1.0
 40
1.0
 10
41.9669727842
 20
85.5641865973
 30
0.0
 10
41.9119716707
 20
85.5324324611
 30
0.0
 10
41.7902495792
 20
85.4825245795
 30
0.0
 10
41.660157805
 20
85.4652959294
 30
0.0
 10
41.5938531139
 20
85.4637211754
 30
0.0
  0
SPLINE
  5
340
100
AcDbEntity
  8
0
100
AcDbSpline
 62
7
  6
BYLAYER
 70
0
 71
3
 72
15
 73
11
 74
0
 42
0.0000001
 43
0.0000001
 44
0.0000000001
 40
0.0
 40
0.0
 40
0.0
 40
0.0
 40
0.0869280414
 40
0.1863943948
 40
0.3037723178
 40
0.4375800266
 40
0.5820881747
 40
0.7293504124
 40
0.8712385301
 40
1.0
 40
1.0
 40
1.0
 40
1.0
 10
130.4768585764
 20
143.9088695564
 30
0.0
 10
130.5068362335
 20
143.9261542194
 30
0.0
 10
130.582123117
 20
143.9454925984
 30
0.0
 10
130.7033088464
 20
143.9212156701
 30
0.0
 10
130.8271219774
 20
143.8536073965
 30
0.0
 10
130.9458687517
 20
143.7485004777
 30
0.0
 10
131.0506324861
 20
143.6143135733
 30
0.0
 10
131.1332442332
 20
143.4617867097
 30
0.0
 10
131.1866986126
 20
143.3034225031
 30
0.0
 10
131.2011184482
 20
143.1955736085
 30
0.0
 10
131.2011184482
 20
143.1443170792
 30
0.0
  0
SPLINE
  5
341
100
AcDbEntity
  8
0
100
AcDbSpline
 62
7
  6
BYLAYER
 70
0
 71
3
 72
9
 73
5
 74
0
 42
0.0000001
 43
0.0000001
 44
0.0000000001
 40
0.0
 40
0.0
 40
0.0
 40
0.0
 40
0.2422419033
 40
1.0
 40
1.0
 40
1.0
 40
1.0
 10
60.8574093307
 20
102.3328894379
 30
0.0
 10
60.8828172088
 20
102.3328248762
 30
0.0
 10
60.9876882506
 20
102.3296122626
 30
0.0
 10
61.0921035271
 20
102.3149888865
 30
0.0
 10
61.1698852907
 20
102.2986526844
 30
0.0
  0
SPLINE
  5
342
100
AcDbEntity
  8
0
100
AcDbSpline
 62
7
  6
BYLAYER
 70
0
 71
3
 72
9
 73
5
 74
0
 42
0.0000001
 43
0.0000001
 44
0.0000000001
 40
0.0
 40
0.0
 40
0.0
 40
0.0
 40
0.2343118535
 40
1.0
 40
1.0
 40
1.0
 40
1.0
 10
61.1698852907
 20
102.2986526844
 30
0.0
 10
61.2246759233
 20
102.2871452204
 30
0.0
 10
61.4561473525
 20
102.2268021277
 30
0.0
 10
61.6758011751
 20
102.1256201877
 30
0.0
 10
61.8342432046
 20
102.0341457088
 30
0.0
  0
SPLINE
  5
343
100
AcDbEntity
  8
0
100
AcDbSpline
 62
7
  6
BYLAYER
 70
0
 71
3
 72
17
 73
13
 74
0
 42
0.0000001
 43
0.0000001
 44
0.0000000001
 40
0.0
 40
0.0
 40
0.0
 40
0.0
 40
0.1286921972
 40
0.2702783352
 40
0.4174363104
 40
0.5617776607
 40
0.6954471983
 40
0.8127108538
 40
0.8646737188
 40
0.9125097962
 40
0.957137988
 40
1.0
 40
1.0
 40
1.0
 40
1.0
 10
61.8342432046
 20
102.0341457088
 30
0.0
 10
62.0637250145
 20
101.9016573213
 30
0.0
 10
62.5091718426
 20
101.5588948302
 30
0.0
 10
63.0792702824
 20
100.9102390951
 30
0.0
 10
63.5485671199
 20
100.1470028882
 30
0.0
 10
63.8782032596
 20
99.3311328059
 30
0.0
 10
64.0418228963
 20
98.5290039091
 30
0.0
 10
64.0271716282
 20
97.8969444353
 30
0.0
 10
63.9101486954
 20
97.4634476614
 30
0.0
 10
63.7798981154
 20
97.1937967247
 30
0.0
 10
63.6054984854
 20
96.9733833759
 30
0.0
 10
63.460665716
 20
96.8624342898
 30
0.0
 10
63.3842291689
 20
96.81831782
 30
0.0
  0
SPLINE
  5
344
100
AcDbEntity
  8
0
100
AcDbSpline
 62
7
  6
BYLAYER
 70
0
 71
3
 72
11
 73
7
 74
0
 42
0.0000001
 43
0.0000001
 44
0.0000000001
 40
0.0
 40
0.0
 40
0.0
 40
0.0
 40
0.240806579
 40
0.4844383633
 40
0.7358332704
 40
1.0
 40
1.0
 40
1.0
 40
1.0
 10
59.7243074603
 20
102.1155341372
 30
0.0
 10
59.7242653122
 20
102.2711210383
 30
0.0
 10
59.7767079852
 20
102.5862864972
 30
0.0
 10
59.9979773555
 20
103.0143508898
 30
0.0
 10
60.3334768233
 20
103.3786136831
 30
0.0
 10
60.6086021076
 20
103.5706643237
 30
0.0
 10
60.7564156069
 20
103.6560039779
 30
0.0
  0
SPLINE
  5
345
100
AcDbEntity
  8
0
100
AcDbSpline
 62
7
  6
BYLAYER
 70
0
 71
3
 72
9
 73
5
 74
0
 42
0.0000001
 43
0.0000001
 44
0.0000000001
 40
0.0
 40
0.0
 40
0.0
 40
0.0
 40
0.4272232691
 40
1.0
 40
1.0
 40
1.0
 40
1.0
 10
60.9983658253
 20
102.3129938957
 30
0.0
 10
61.0373059773
 20
102.3678157429
 30
0.0
 10
61.1471859974
 20
102.4828777074
 30
0.0
 10
61.2783372005
 20
102.5716951735
 30
0.0
 10
61.3564129208
 20
102.6167719425
 30
0.0
  0
SPLINE
  5
346
100
AcDbEntity
  8
0
100
AcDbSpline
 62
7
  6
BYLAYER
 70
0
 71
3
 72
9
 73
5
 74
0
 42
0.0000001
 43
0.0000001
 44
0.0000000001
 40
0.0
 40
0.0
 40
0.0
 40
0.0
 40
0.2990594474
 40
1.0
 40
1.0
 40
1.0
 40
1.0
 10
59.7602754476
 20
101.843493353
 30
0.0
 10
59.7589274955
 20
101.8442714663
 30
0.0
 10
59.7545514587
 20
101.8470293882
 30
0.0
 10
59.750515505
 20
101.8507481976
 30
0.0
 10
59.7488688325
 20
101.8540033569
 30
0.0
  0
SPLINE
  5
347
100
AcDbEntity
  8
0
100
AcDbSpline
 62
7
  6
BYLAYER
 70
0
 71
3
 72
8
 73
4
 74
0
 42
0.0000001
 43
0.0000001
 44
0.0000000001
 40
0.0
 40
0.0
 40
0.0
 40
0.0
 40
1.0
 40
1.0
 40
1.0
 40
1.0
 10
59.7488688325
 20
101.8540033569
 30
0.0
 10
59.7483316706
 20
101.8550652244
 30
0.0
 10
59.7479249472
 20
101.8562072904
 30
0.0
 10
59.7476949989
 20
101.8573748644
 30
0.0
  0
SPLINE
  5
348
100
AcDbEntity
  8
0
100
AcDbSpline
 62
7
  6
BYLAYER
 70
0
 71
3
 72
9
 73
5
 74
0
 42
0.0000001
 43
0.0000001
 44
0.0000000001
 40
0.0
 40
0.0
 40
0.0
 40
0.0
 40
0.4864269063
 40
1.0
 40
1.0
 40
1.0
 40
1.0
 10
60.8574093307
 20
102.3328894379
 30
0.0
 10
60.841047145
 20
102.2961514258
 30
0.0
 10
60.8183541394
 20
102.2151421027
 30
0.0
 10
60.8209807328
 20
102.1313546899
 30
0.0
 10
60.826952697
 20
102.0893154051
 30
0.0
  0
SPLINE
  5
349
100
AcDbEntity
  8
0
100
AcDbSpline
 62
7
  6
BYLAYER
 70
0
 71
3
 72
9
 73
5
 74
0
 42
0.0000001
 43
0.0000001
 44
0.0000000001
 40
0.0
 40
0.0
 40
0.0
 40
0.0
 40
0.4341404216
 40
1.0
 40
1.0
 40
1.0
 40
1.0
 10
60.8294246526
 20
102.0734666414
 30
0.0
 10
60.842532452
 20
101.9962305757
 30
0.0
 10
60.9058283069
 20
101.8244997099
 30
0.0
 10
60.9993778778
 20
101.6697614913
 30
0.0
 10
61.0564289836
 20
101.5850771395
 30
0.0
  0
SPLINE
  5
34A
100
AcDbEntity
  8
0
100
AcDbSpline
 62
7
  6
BYLAYER
 70
0
 71
3
 72
15
 73
11
 74
0
 42
0.0000001
 43
0.0000001
 44
0.0000000001
 40
0.0
 40
0.0
 40
0.0
 40
0.0
 40
0.1287465248
 40
0.2706115193
 40
0.4178719491
 40
0.5623918971
 40
0.6962071465
 40
0.8135885781
 40
0.9130602404
 40
1.0
 40
1.0
 40
1.0
 40
1.0
 10
61.4806800989
 20
102.8914435075
 30
0.0
 10
61.4806800989
 20
102.9426948263
 30
0.0
 10
61.4662701388
 20
103.0505308836
 30
0.0
 10
61.4128224291
 20
103.2088835777
 30
0.0
 10
61.3302185298
 20
103.3614108776
 30
0.0
 10
61.2254582097
 20
103.4956128797
 30
0.0
 10
61.1067067091
 20
103.6007313024
 30
0.0
 10
60.9828891467
 20
103.6683512726
 30
0.0
 10
60.8616937773
 20
103.6926279169
 30
0.0
 10
60.7863973578
 20
103.6732918783
 30
0.0
 10
60.7564156077
 20
103.6560039765
 30
0.0
  0
SPLINE
  5
34B
100
AcDbEntity
  8
0
100
AcDbSpline
 62
7
  6
BYLAYER
 70
0
 71
3
 72
9
 73
5
 74
0
 42
0.0000001
 43
0.0000001
 44
0.0000000001
 40
0.0
 40
0.0
 40
0.0
 40
0.0
 40
0.2246013035
 40
1.0
 40
1.0
 40
1.0
 40
1.0
 10
59.7602754476
 20
101.843493353
 30
0.0
 10
59.761184197
 20
101.842968772
 30
0.0
 10
59.765292616
 20
101.8407410319
 30
0.0
 10
59.7695941957
 20
101.8388868826
 30
0.0
 10
59.7729686796
 20
101.8375695466
 30
0.0
  0
SPLINE
  5
34C
100
AcDbEntity
  8
0
100
AcDbSpline
 62
7
  6
BYLAYER
 70
0
 71
3
 72
14
 73
10
 74
0
 42
0.0000001
 43
0.0000001
 44
0.0000000001
 40
0.0
 40
0.0
 40
0.0
 40
0.0
 40
0.0510211899
 40
0.1295491648
 40
0.2330880681
 40
0.3579720445
 40
0.5005540145
 40
0.65728714
 40
1.0
 40
1.0
 40
1.0
 40
1.0
 10
59.7729686796
 20
101.8375695466
 30
0.0
 10
59.7936974352
 20
101.8294774244
 30
0.0
 10
59.8492786543
 20
101.8174759575
 30
0.0
 10
59.9491958816
 20
101.7998105326
 30
0.0
 10
60.0814278056
 20
101.7784016182
 30
0.0
 10
60.2409163682
 20
101.7512482315
 30
0.0
 10
60.4229285292
 20
101.7179989866
 30
0.0
 10
60.697685597
 20
101.6639815493
 30
0.0
 10
60.9105905388
 20
101.6178254235
 30
0.0
 10
61.0564289836
 20
101.5850771395
 30
0.0
  0
ENDSEC
  0
SECTION
  2
OBJECTS
  0
DICTIONARY
  5
C
100
AcDbDictionary
280
0
281
1
  3
ACAD_GROUP
350
D
  3
ACAD_MLINESTYLE
350
17
  3
ACAD_LAYOUT
350
1A
  3
ACAD_PLOTSETTINGS
350
19
  3
ACAD_PLOTSTYLENAME
350
E
  0
DICTIONARY
  5
D
102
{ACAD_REACTORS
330
C
102
}
100
AcDbDictionary
280
0
281
1
  0
ACDBDICTIONARYWDFLT
  5
E
102
{ACAD_REACTORS
330
C
102
}
100
AcDbDictionary
281
1
  3
Normal
350
F
100
AcDbDictionaryWithDefault
340
F
  0
DICTIONARY
  5
17
102
{ACAD_REACTORS
330
C
102
}
100
AcDbDictionary
280
0
281
1
  3
Standard
350
18
  0
DICTIONARY
  5
19
102
{ACAD_REACTORS
330
C
102
}
100
AcDbDictionary
281
1
  0
DICTIONARY
  5
1A
102
{ACAD_REACTORS
330
C
102
}
100
AcDbDictionary
281
1
  3
Model
350
34D
  3
Layout1
350
34E
  0
ACDBPLACEHOLDER
  5
F
102
{ACAD_REACTORS
330
E
102
}
  0
MLINESTYLE
  5
18
102
{ACAD_REACTORS
330
17
102
}
100
AcDbMlineStyle
  2
STANDARD
 70
0
  3

 62
256
 51
90.0
 52
90.0
 71
2
 49
0.5
 62
256
  6
BYLAYER
 49
-0.5
 62
256
  6
BYLAYER
  0
LAYOUT
  5
34D
102
{ACAD_REACTORS
330
1A
102
}
100
AcDbPlotSettings
  1

  2
none_device
  4

  6

 40
0.0
 41
0.0
 42
0.0
 43
0.0
 44
210.0
 45
297.0
 46
0.0
 47
0.0
 48
0.0
 49
0.0
140
0.0
141
0.0
142
1.0
143
1.0
 70
1024
 72
1
 73
0
 74
0
  7

 75
0
147
1.0
148
0.0
149
0.0
100
AcDbLayout
  1
Model
 70
0
 71
0
 10
0.0
 20
0.0
 11
210.0
 21
297.0
 12
0.0
 22
0.0
 32
0.0
 14
0.0
 24
0.0
 34
0.0
 15
0.0
 25
0.0
 35
0.0
146
0.0
 13
0.0
 23
0.0
 33
0.0
 16
1.0
 26
0.0
 36
0.0
 17
0.0
 27
1.0
 37
0.0
 76
0
330
210
345
0
346
0
  0
LAYOUT
  5
34E
102
{ACAD_REACTORS
330
1A
102
}
100
AcDbPlotSettings
  1

  2
none_device
  4

  6

 40
0.0
 41
0.0
 42
0.0
 43
0.0
 44
210.0
 45
297.0
 46
0.0
 47
0.0
 48
0.0
 49
0.0
140
0.0
141
0.0
142
1.0
143
1.0
 70
0
 72
1
 73
0
 74
0
  7

 75
0
147
1.0
148
0.0
149
0.0
100
AcDbLayout
  1
Layout1
 70
0
 71
1
 10
0.0
 20
0.0
 11
210.0
 21
297.0
 12
0.0
 22
0.0
 32
0.0
 14
0.0
 24
0.0
 34
0.0
 15
0.0
 25
0.0
 35
0.0
146
0.0
 13
0.0
 23
0.0
 33
0.0
 16
1.0
 26
0.0
 36
0.0
 17
0.0
 27
1.0
 37
0.0
 76
0
330
211
345
0
346
0
  0
ENDSEC
  0
EOF
