999
DXF file: C:\Users\sesa63760\Dev\_Creo\CAD\MCADID0004758_3D-CAD\drw0001_1.dxf
999
Pro/ENGINEER 2019471 by Parametric Technology Corporation
  0
SECTION
  2
HEADER
  9
$ACADVER
  1
AC1024
  9
$DWGCODEPAGE
  3
ANSI_1252
  9
$EXTMAX
 10
48.7342977602
 20
68.924221118
 30
0.0
  9
$EXTMIN
 10
0.0
 20
0.0
 30
0.0
  9
$LIMMIN
 10
0.0
 20
0.0
  9
$LIMMAX
 10
48.7342977602
 20
68.924221118
  9
$VIEWCTR
 10
24.3671488801
 20
34.462110559
  9
$VIEWSIZE
 40
68.924221118
  9
$CLAYER
  8
0
  9
$LTSCALE
 40
4.4928381173
  9
$CELTYPE
  6
BYLAYER
  9
$DIMSCALE
 40
1.0
  9
$DIMASZ
 40
0.5801702114
  9
$DIMEXO
 40
1.0
  9
$DIMDLI
 40
3.1041426992
  9
$DIMEXE
 40
1.0
  9
$DIMCEN
 40
0.7351916919
  9
$DIMLFAC
 40
1.0
  9
$DIMBLK
  1
_FILLED
  9
$DIMALT
 70
0
  9
$DIMALTF
 40
0.0393700787
  9
$DIMTXT
 40
0.812238296
  9
$DIMTOL
 70
1
  9
$DIMLIM
 70
0
  9
$DIMTFAC
 40
1.0
  9
$DIMTP
 40
0.01
  9
$DIMTM
 40
0.01
  9
$DIMGAP
 40
0.625
  9
$DIMDSEP
 70
46
  9
$AUNITS
 70
0
  9
$PDMODE
 70
3
  9
$PDSIZE
 40
0.3125
  9
$HANDSEED
  5
35B
  9
$TILEMODE
 70
1
  9
$MEASUREMENT
 70
1
  9
$INSUNITS
 70
4
  0
ENDSEC
  0
SECTION
  2
CLASSES
  0
CLASS
  1
ACDBDICTIONARYWDFLT
  2
AcDbDictionaryWithDefault
  3
AutoCAD 2000
 90
0
 91
1
280
0
281
0
  0
CLASS
  1
ACDBPLACEHOLDER
  2
AcDbPlaceHolder
  3
AutoCAD 2000
 90
0
 91
1
280
0
281
0
  0
CLASS
  1
LAYOUT
  2
AcDbLayout
  3
AutoCAD 2000
 90
0
 91
0
280
0
281
0
  0
ENDSEC
  0
SECTION
  2
TABLES
  0
TABLE
  2
VPORT
  5
8
100
AcDbSymbolTable
 70
2
  0
VPORT
  5
1F4
100
AcDbSymbolTableRecord
100
AcDbViewportTableRecord
  2
*ACTIVE
 70
0
 10
0.0
 20
0.0
 11
1.0
 21
1.0
 12
24.3671488801
 22
34.462110559
 13
0.0
 23
0.0
 14
1.0
 24
1.0
 15
0.0
 25
0.0
 16
0.0
 26
0.0
 36
1.0
 17
0.0
 27
0.0
 37
0.0
 40
68.924221118
 41
0.7070707071
 42
50.0
 43
0.0
 44
0.0
 50
0.0
 51
0.0
 71
0
 72
100
 73
1
 74
1
 75
0
 76
0
 77
0
 78
0
  0
ENDTAB
  0
TABLE
  2
LTYPE
  5
5
100
AcDbSymbolTable
 70
6
  0
LTYPE
  5
14
100
AcDbSymbolTableRecord
100
AcDbLinetypeTableRecord
  2
BYBLOCK
 70
0
  3

 72
65
 73
0
 40
0.0
  0
LTYPE
  5
15
100
AcDbSymbolTableRecord
100
AcDbLinetypeTableRecord
  2
BYLAYER
 70
0
  3

 72
65
 73
0
 40
0.0
  0
LTYPE
  5
16
100
AcDbSymbolTableRecord
100
AcDbLinetypeTableRecord
  2
CONTINUOUS
 70
64
  3
Solid line
 72
65
 73
0
 40
0.0
  0
LTYPE
  5
1F5
100
AcDbSymbolTableRecord
100
AcDbLinetypeTableRecord
  2
CENTER
 70
64
  3
____ _ ____ _ ____ _ ____ _ ____ _ ____ _ ____
 72
65
 73
4
 40
0.6
 49
0.375
 74
0
 49
-0.075
 74
0
 49
0.075
 74
0
 49
-0.075
 74
0
  0
LTYPE
  5
1F6
100
AcDbSymbolTableRecord
100
AcDbLinetypeTableRecord
  2
HIDDEN
 70
64
  3
- - - - - - - - - - - - - - - - - - - -
 72
65
 73
2
 40
0.2
 49
0.1
 74
0
 49
-0.1
 74
0
  0
LTYPE
  5
1F7
100
AcDbSymbolTableRecord
100
AcDbLinetypeTableRecord
  2
PHANTOM
 70
64
  3
_____ _ _ _____ _ _ _____ _ _ _____
 72
65
 73
6
 40
0.8
 49
0.45
 74
0
 49
-0.05
 74
0
 49
0.1
 74
0
 49
-0.05
 74
0
 49
0.1
 74
0
 49
-0.05
 74
0
  0
LTYPE
  5
1F8
100
AcDbSymbolTableRecord
100
AcDbLinetypeTableRecord
  2
DOT
 70
64
  3
. . . . . . . . . . . . . . . . . . . .
 72
65
 73
2
 40
0.2
 49
0.1
 74
0
 49
-0.1
 74
0
  0
LTYPE
  5
1F9
100
AcDbSymbolTableRecord
100
AcDbLinetypeTableRecord
  2
DASHED
 70
64
  3
- - - - - - - - - - - - - - - - - - - -
 72
65
 73
2
 40
0.2
 49
0.1
 74
0
 49
-0.1
 74
0
  0
ENDTAB
  0
TABLE
  2
LAYER
  5
2
100
AcDbSymbolTable
 70
36
  0
LAYER
  5
10
100
AcDbSymbolTableRecord
100
AcDbLayerTableRecord
  2
0
 70
0
 62
7
  6
CONTINUOUS
370
-3
390
F
  0
LAYER
  5
1FA
100
AcDbSymbolTableRecord
100
AcDbLayerTableRecord
  2
DEFAULT_1
 70
0
 62
7
  6
CENTER
370
-3
390
F
  0
LAYER
  5
1FB
100
AcDbSymbolTableRecord
100
AcDbLayerTableRecord
  2
DEFAULT_2
 70
0
 62
7
  6
HIDDEN
370
-3
390
F
  0
LAYER
  5
1FC
100
AcDbSymbolTableRecord
100
AcDbLayerTableRecord
  2
DEFAULT_3
 70
0
 62
7
  6
PHANTOM
370
-3
390
F
  0
LAYER
  5
1FD
100
AcDbSymbolTableRecord
100
AcDbLayerTableRecord
  2
00_COMPONENTS
 70
0
 62
7
  6
CONTINUOUS
370
-3
390
F
  0
LAYER
  5
1FE
100
AcDbSymbolTableRecord
100
AcDbLayerTableRecord
  2
01_1_DEFAULT_DATUMS
 70
0
 62
7
  6
CONTINUOUS
370
-3
390
F
  0
LAYER
  5
1FF
100
AcDbSymbolTableRecord
100
AcDbLayerTableRecord
  2
01_PLANES
 70
0
 62
7
  6
CONTINUOUS
370
-3
390
F
  0
LAYER
  5
200
100
AcDbSymbolTableRecord
100
AcDbLayerTableRecord
  2
02_COORD_SYS
 70
0
 62
7
  6
CONTINUOUS
370
-3
390
F
  0
LAYER
  5
201
100
AcDbSymbolTableRecord
100
AcDbLayerTableRecord
  2
03_AXES
 70
0
 62
7
  6
CONTINUOUS
370
-3
390
F
  0
LAYER
  5
202
100
AcDbSymbolTableRecord
100
AcDbLayerTableRecord
  2
04_POINTS
 70
0
 62
7
  6
CONTINUOUS
370
-3
390
F
  0
LAYER
  5
203
100
AcDbSymbolTableRecord
100
AcDbLayerTableRecord
  2
05_CURVES
 70
0
 62
7
  6
CONTINUOUS
370
-3
390
F
  0
LAYER
  5
204
100
AcDbSymbolTableRecord
100
AcDbLayerTableRecord
  2
06_SURFS
 70
0
 62
7
  6
CONTINUOUS
370
-3
390
F
  0
LAYER
  5
205
100
AcDbSymbolTableRecord
100
AcDbLayerTableRecord
  2
07_COSMETICS
 70
0
 62
7
  6
CONTINUOUS
370
-3
390
F
  0
LAYER
  5
206
100
AcDbSymbolTableRecord
100
AcDbLayerTableRecord
  2
10_NOTES
 70
0
 62
7
  6
CONTINUOUS
370
-3
390
F
  0
LAYER
  5
207
100
AcDbSymbolTableRecord
100
AcDbLayerTableRecord
  2
11_NOTES_PUB
 70
0
 62
7
  6
CONTINUOUS
370
-3
390
F
  0
LAYER
  5
208
100
AcDbSymbolTableRecord
100
AcDbLayerTableRecord
  2
13_REF_GTOL
 70
0
 62
7
  6
CONTINUOUS
370
-3
390
F
  0
LAYER
  5
209
100
AcDbSymbolTableRecord
100
AcDbLayerTableRecord
  2
16_MISC
 70
0
 62
7
  6
CONTINUOUS
370
-3
390
F
  0
LAYER
  5
20A
100
AcDbSymbolTableRecord
100
AcDbLayerTableRecord
  2
17_NO_PRINT
 70
0
 62
7
  6
CONTINUOUS
370
-3
390
F
  0
LAYER
  5
20B
100
AcDbSymbolTableRecord
100
AcDbLayerTableRecord
  2
18_DATUM_CAMS_JOINTS
 70
0
 62
7
  6
CONTINUOUS
370
-3
390
F
  0
LAYER
  5
20C
100
AcDbSymbolTableRecord
100
AcDbLayerTableRecord
  2
19_DATUM_FUNCTIONAL
 70
0
 62
7
  6
CONTINUOUS
370
-3
390
F
  0
LAYER
  5
20D
100
AcDbSymbolTableRecord
100
AcDbLayerTableRecord
  2
20_DATUM_KINEMATIC_SCHEME
 70
0
 62
7
  6
CONTINUOUS
370
-3
390
F
  0
ENDTAB
  0
TABLE
  2
STYLE
  5
3
100
AcDbSymbolTable
 70
1
  0
STYLE
  5
11
100
AcDbSymbolTableRecord
100
AcDbTextStyleTableRecord
  2
STANDARD
 70
0
 40
0.0
 41
1.0
 50
0.0
 71
0
 42
0.2
  3
ARIAL.TTF
  4

  0
STYLE
  5
20E
100
AcDbSymbolTableRecord
100
AcDbTextStyleTableRecord
  2
TEXTSTYLE_1
 70
0
 40
0.0
 41
0.8
 50
0.0
 71
0
 42
0.2
  3
gdt
  4

  0
ENDTAB
  0
TABLE
  2
VIEW
  5
6
100
AcDbSymbolTable
 70
0
  0
ENDTAB
  0
TABLE
  2
UCS
  5
7
100
AcDbSymbolTable
 70
0
  0
ENDTAB
  0
TABLE
  2
APPID
  5
9
100
AcDbSymbolTable
 70
1
  0
APPID
  5
20F
100
AcDbSymbolTableRecord
100
AcDbRegAppTableRecord
  2
ACAD
 70
0
  0
ENDTAB
  0
TABLE
  2
BLOCK_RECORD
  5
1
100
AcDbSymbolTable
 70
0
  0
BLOCK_RECORD
  5
210
100
AcDbSymbolTableRecord
100
AcDbBlockTableRecord
  2
*Model_Space
  0
BLOCK_RECORD
  5
211
100
AcDbSymbolTableRecord
100
AcDbBlockTableRecord
  2
*Paper_Space
  0
BLOCK_RECORD
  5
212
100
AcDbSymbolTableRecord
100
AcDbBlockTableRecord
  2
_FILLED
  0
ENDTAB
  0
TABLE
  2
DIMSTYLE
  5
A
100
AcDbSymbolTable
 70
1
100
AcDbDimStyleTable
 71
0
  0
DIMSTYLE
105
213
100
AcDbSymbolTableRecord
100
AcDbDimStyleTableRecord
  2
STANDARD
 70
0
  3

  4

 40
1.0
 41
0.5801702114
 42
1.0
 43
0.38
 44
1.0
 45
0.0
 46
0.0
 47
0.01
 48
0.01
140
0.812238296
141
0.09
142
0.0
143
25.4
144
1.0
145
0.0
146
1.0
147
0.625
 71
1
 72
0
 73
0
 74
0
 75
0
 76
0
 77
1
 78
8
 79
2
170
0
171
1
172
0
173
0
174
0
175
0
176
0
177
0
178
0
270
2
179
2
271
2
272
2
273
2
274
2
275
0
280
0
281
0
282
0
283
1
284
8
285
0
286
0
287
3
288
0
340
11
278
46
341
212
342
212
343
212
344
212
  0
ENDTAB
  0
ENDSEC
  0
SECTION
  2
BLOCKS
  0
BLOCK
  5
20
100
AcDbEntity
  8
0
100
AcDbBlockBegin
  2
*Model_Space
 70
0
 10
0.0
 20
0.0
 30
0.0
  3
*Model_Space
  1

  0
ENDBLK
  5
21
100
AcDbEntity
  8
0
100
AcDbBlockEnd
  0
BLOCK
  5
1C
100
AcDbEntity
  8
0
100
AcDbBlockBegin
  2
*Paper_Space
 70
0
 10
0.0
 20
0.0
 30
0.0
  3
*Paper_Space
  1

  0
ENDBLK
  5
1D
100
AcDbEntity
  8
0
100
AcDbBlockEnd
  0
BLOCK
  5
214
100
AcDbEntity
  8
0
100
AcDbBlockBegin
  2
_FILLED
 70
64
 10
0.0
 20
0.0
  3
_FILLED
  1

  0
SOLID
  5
215
100
AcDbEntity
  8
0
  6
BYBLOCK
 62
0
100
AcDbTrace
 10
0.0
 20
0.0
 11
-1.0
 21
0.25
 12
-1.0
 22
-0.25
 13
-1.0
 23
-0.25
  0
ENDBLK
  5
216
100
AcDbEntity
  8
0
  6
BYBLOCK
 62
0
100
AcDbBlockEnd
  0
ENDSEC
  0
SECTION
  2
ENTITIES
  0
LINE
  5
217
100
AcDbEntity
  8
0
100
AcDbLine
 62
7
  6
BYLAYER
 10
5.6537392416
 20
34.8678492264
 11
5.6537392416
 21
31.1935883493
  0
LINE
  5
218
100
AcDbEntity
  8
0
100
AcDbLine
 62
7
  6
BYLAYER
 10
6.0143994134
 20
34.8678517759
 11
6.0143994134
 21
36.0926054016
  0
LINE
  5
219
100
AcDbEntity
  8
0
100
AcDbLine
 62
7
  6
BYLAYER
 10
6.2194267273
 20
34.5820808682
 11
6.2194267277
 21
35.8068344937
  0
LINE
  5
21A
100
AcDbEntity
  8
0
100
AcDbLine
 62
7
  6
BYLAYER
 10
6.4037423641
 20
30.7605836405
 11
6.4037423641
 21
29.1275788063
  0
LINE
  5
21B
100
AcDbEntity
  8
0
100
AcDbLine
 62
7
  6
BYLAYER
 10
7.7140179798
 20
37.5840666461
 11
7.609232666
 21
36.6080134209
  0
LINE
  5
21C
100
AcDbEntity
  8
0
100
AcDbLine
 62
7
  6
BYLAYER
 10
7.740013384
 20
37.726717015
 11
7.7140186401
 21
37.5840666225
  0
LINE
  5
21D
100
AcDbEntity
  8
0
100
AcDbLine
 62
7
  6
BYLAYER
 10
7.7886795623
 20
38.1642716115
 11
7.7947164435
 21
38.195986718
  0
LINE
  5
21E
100
AcDbEntity
  8
0
100
AcDbLine
 62
7
  6
BYLAYER
 10
9.6842517215
 20
24.5391147186
 11
9.542830954
 21
24.6207663712
  0
LINE
  5
21F
100
AcDbEntity
  8
0
100
AcDbLine
 62
7
  6
BYLAYER
 10
23.8264462244
 20
16.3742996282
 11
23.685025457
 21
16.4559512808
  0
LINE
  5
220
100
AcDbEntity
  8
0
100
AcDbLine
 62
7
  6
BYLAYER
 10
10.2974395043
 20
37.2120033057
 11
10.2591550876
 21
37.8037688908
  0
LINE
  5
221
100
AcDbEntity
  8
0
100
AcDbLine
 62
7
  6
BYLAYER
 10
10.3390187165
 20
37.2098379861
 11
10.2591503267
 21
38.4639710392
  0
LINE
  5
222
100
AcDbEntity
  8
0
100
AcDbLine
 62
7
  6
BYLAYER
 10
10.2342191866
 20
37.8361036943
 11
10.2036640661
 21
38.3920194567
  0
LINE
  5
223
100
AcDbEntity
  8
0
100
AcDbLine
 62
7
  6
BYLAYER
 10
10.2736590164
 20
38.6652189461
 11
10.3427277
 21
37.209837995
  0
LINE
  5
224
100
AcDbEntity
  8
0
100
AcDbLine
 62
7
  6
BYLAYER
 10
9.1034867099
 20
27.5689159432
 11
9.1034867099
 21
25.233132602
  0
LINE
  5
225
100
AcDbEntity
  8
0
100
AcDbLine
 62
7
  6
BYLAYER
 10
10.259145382
 20
39.1496509273
 11
10.2591503267
 21
38.4639710392
  0
LINE
  5
226
100
AcDbEntity
  8
0
100
AcDbLine
 62
7
  6
BYLAYER
 10
10.2591550876
 20
37.8037688908
 11
10.2591600323
 21
37.1180890027
  0
LINE
  5
227
100
AcDbEntity
  8
0
100
AcDbLine
 62
7
  6
BYLAYER
 10
33.1865980049
 20
20.1242564546
 11
32.1609790455
 21
20.1242539893
  0
LINE
  5
228
100
AcDbEntity
  8
0
100
AcDbLine
 62
7
  6
BYLAYER
 10
17.3863286854
 20
20.1242184754
 11
16.3046549889
 21
20.1242158754
  0
LINE
  5
229
100
AcDbEntity
  8
0
100
AcDbLine
 62
7
  6
BYLAYER
 10
16.1335842441
 20
21.2133316109
 11
15.3430114385
 21
22.2339683866
  0
LINE
  5
22A
100
AcDbEntity
  8
0
100
AcDbLine
 62
7
  6
BYLAYER
 10
10.9478280377
 20
37.1180906581
 11
10.947823093
 21
37.8037705461
  0
LINE
  5
22B
100
AcDbEntity
  8
0
100
AcDbLine
 62
7
  6
BYLAYER
 10
10.9478183321
 20
38.4639726946
 11
10.9478133874
 21
39.1496525826
  0
LINE
  5
22C
100
AcDbEntity
  8
0
100
AcDbLine
 62
7
  6
BYLAYER
 10
12.1034867099
 20
25.836904319
 11
12.1034867099
 21
25.233132602
  0
LINE
  5
22D
100
AcDbEntity
  8
0
100
AcDbLine
 62
7
  6
BYLAYER
 10
10.933303479
 20
38.6652205316
 11
10.8642402667
 21
37.2098392486
  0
LINE
  5
22E
100
AcDbEntity
  8
0
100
AcDbLine
 62
7
  6
BYLAYER
 10
11.0033056304
 20
38.3920213788
 11
10.9727500516
 21
37.8360944782
  0
LINE
  5
22F
100
AcDbEntity
  8
0
100
AcDbLine
 62
7
  6
BYLAYER
 10
10.8679500836
 20
37.2098392575
 11
10.9478183321
 21
38.4639726946
  0
LINE
  5
230
100
AcDbEntity
  8
0
100
AcDbLine
 62
7
  6
BYLAYER
 10
10.9095386506
 20
37.212005427
 11
10.947823093
 21
37.8037705461
  0
LINE
  5
231
100
AcDbEntity
  8
0
100
AcDbLine
 62
7
  6
BYLAYER
 10
10.2036640661
 20
38.3920194567
 11
10.2591503267
 21
38.4639710392
  0
LINE
  5
232
100
AcDbEntity
  8
0
100
AcDbLine
 62
7
  6
BYLAYER
 10
11.0033093536
 20
37.8757221286
 11
10.947823093
 21
37.8037705461
  0
LINE
  5
233
100
AcDbEntity
  8
0
100
AcDbLine
 62
7
  6
BYLAYER
 10
23.995698698
 20
18.9710878519
 11
6.4037423641
 21
29.1275788063
  0
LINE
  5
234
100
AcDbEntity
  8
0
100
AcDbLine
 62
7
  6
BYLAYER
 10
24.7457018206
 20
20.1710879773
 11
23.995698698
 21
20.6040926861
  0
LINE
  5
235
100
AcDbEntity
  8
0
100
AcDbLine
 62
7
  6
BYLAYER
 10
6.4037423641
 20
30.7605836405
 11
5.6537392416
 21
31.1935883493
  0
LINE
  5
236
100
AcDbEntity
  8
0
100
AcDbLine
 62
7
  6
BYLAYER
 10
13.4929554399
 20
37.5840666461
 11
13.5977407537
 21
36.6080134209
  0
LWPOLYLINE
  5
237
100
AcDbEntity
  8
0
100
AcDbPolyline
 62
7
  6
BYLAYER
 90
4
 70
0
 10
13.5202827914
 20
37.3295180968
 10
14.1159312326
 20
38.8463900146
 10
15.6817994394
 20
40.4733265184
 10
17.439332599
 20
41.475687422
  0
LINE
  5
238
100
AcDbEntity
  8
0
100
AcDbLine
 62
7
  6
BYLAYER
 10
6.3229785876
 20
36.6072669006
 11
7.6941394453
 21
37.3989022655
  0
LINE
  5
239
100
AcDbEntity
  8
0
100
AcDbLine
 62
7
  6
BYLAYER
 10
11.4413428749
 20
39.5623382603
 11
17.5073049088
 21
43.0645021684
  0
LINE
  5
23A
100
AcDbEntity
  8
0
100
AcDbLine
 62
7
  6
BYLAYER
 10
6.5729793132
 20
36.5825058262
 11
7.6747861643
 21
37.2186305112
  0
LINE
  5
23B
100
AcDbEntity
  8
0
100
AcDbLine
 62
7
  6
BYLAYER
 10
11.6714125913
 20
39.5260700811
 11
17.4998873758
 21
42.8911214802
  0
LINE
  5
23C
100
AcDbEntity
  8
0
100
AcDbLine
 62
7
  6
BYLAYER
 10
16.0708222897
 20
21.1996897256
 11
16.0422177432
 21
21.3312779383
  0
LINE
  5
23D
100
AcDbEntity
  8
0
100
AcDbLine
 62
7
  6
BYLAYER
 10
13.4929547803
 20
37.5840666225
 11
13.466956487
 21
37.7267307808
  0
LWPOLYLINE
  5
23E
100
AcDbEntity
  8
0
100
AcDbPolyline
 62
7
  6
BYLAYER
 90
4
 70
0
 10
17.7140648463
 20
47.8974001329
 10
18.1192337751
 20
49.3070138761
 10
19.243759915
 20
50.600999677
 10
19.8846504066
 20
50.9611511886
  0
LINE
  5
23F
100
AcDbEntity
  8
0
100
AcDbLine
 62
7
  6
BYLAYER
 10
5.6537392416
 20
34.8678492264
 11
6.0143994134
 21
35.0760752307
  0
LINE
  5
240
100
AcDbEntity
  8
0
100
AcDbLine
 62
7
  6
BYLAYER
 10
24.7457018206
 20
23.8453488544
 11
5.6537392416
 21
34.8678492264
  0
LINE
  5
241
100
AcDbEntity
  8
0
100
AcDbLine
 62
7
  6
BYLAYER
 10
24.2507247186
 20
24.171941628
 11
6.2194267273
 21
34.5820808682
  0
LINE
  5
242
100
AcDbEntity
  8
0
100
AcDbLine
 62
7
  6
BYLAYER
 10
10.2591550876
 20
37.8037688908
 11
10.2036677893
 21
37.8757202065
  0
LWPOLYLINE
  5
243
100
AcDbEntity
  8
0
100
AcDbPolyline
 62
7
  6
BYLAYER
 90
3
 70
0
 10
14.6936160097
 20
33.4213309577
 10
13.6014455267
 20
35.1714866917
 10
13.497583503
 20
36.1458464052
  0
LINE
  5
244
100
AcDbEntity
  8
0
100
AcDbLine
 62
7
  6
BYLAYER
 10
13.4122736792
 20
38.1960068389
 11
13.4182901939
 21
38.1642851434
  0
LINE
  5
245
100
AcDbEntity
  8
0
100
AcDbLine
 62
7
  6
BYLAYER
 10
17.7140648461
 20
47.8974001272
 11
17.3658539201
 21
39.7581643752
  0
LINE
  5
246
100
AcDbEntity
  8
0
100
AcDbLine
 62
7
  6
BYLAYER
 10
17.36585392
 20
39.7581643737
 11
17.3644347248
 21
39.7392397592
  0
LINE
  5
247
100
AcDbEntity
  8
0
100
AcDbLine
 62
7
  6
BYLAYER
 10
6.2194267277
 20
35.8068344937
 11
24.2507247185
 21
25.3966952537
  0
LINE
  5
248
100
AcDbEntity
  8
0
100
AcDbLine
 62
7
  6
BYLAYER
 10
24.6042747923
 20
26.0090696043
 11
23.028417545
 21
26.9188706278
  0
LINE
  5
249
100
AcDbEntity
  8
0
100
AcDbLine
 62
7
  6
BYLAYER
 10
22.292070107
 20
27.3439914018
 11
8.8862230421
 21
35.0836857182
  0
LINE
  5
24A
100
AcDbEntity
  8
0
100
AcDbLine
 62
7
  6
BYLAYER
 10
8.1498756041
 20
35.5088064922
 11
6.5729804908
 21
36.4192067143
  0
LINE
  5
24B
100
AcDbEntity
  8
0
100
AcDbLine
 62
7
  6
BYLAYER
 10
16.4475280387
 20
32.0329566664
 11
14.6936160097
 21
33.4213309577
  0
LINE
  5
24C
100
AcDbEntity
  8
0
100
AcDbLine
 62
7
  6
BYLAYER
 10
10.9478183321
 20
38.4639726946
 11
11.0033056304
 21
38.3920213788
  0
LINE
  5
24D
100
AcDbEntity
  8
0
100
AcDbLine
 62
7
  6
BYLAYER
 10
25.0900225406
 20
28.9532755677
 11
24.4013545352
 21
28.9532739123
  0
LINE
  5
24E
100
AcDbEntity
  8
0
100
AcDbLine
 62
7
  6
BYLAYER
 10
24.4061616838
 20
29.0450227153
 11
25.0852129884
 21
29.0450243475
  0
LINE
  5
24F
100
AcDbEntity
  8
0
100
AcDbLine
 62
7
  6
BYLAYER
 10
19.7456223335
 20
48.2633372908
 11
19.7456223335
 21
50.4102260502
  0
LINE
  5
250
100
AcDbEntity
  8
0
100
AcDbLine
 62
7
  6
BYLAYER
 10
27.6091509899
 20
29.5619156904
 11
27.5291668946
 21
29.5619154982
  0
LINE
  5
251
100
AcDbEntity
  8
0
100
AcDbLine
 62
7
  6
BYLAYER
 10
21.9620778162
 20
29.5619021165
 11
21.8822078869
 21
29.5619019245
  0
LINE
  5
252
100
AcDbEntity
  8
0
100
AcDbLine
 62
7
  6
BYLAYER
 10
27.2563004383
 20
29.7109121119
 11
25.1455038566
 21
29.7109070382
  0
LINE
  5
253
100
AcDbEntity
  8
0
100
AcDbLine
 62
7
  6
BYLAYER
 10
24.3458622922
 20
29.7109051161
 11
22.2350657105
 21
29.7109000424
  0
LINE
  5
254
100
AcDbEntity
  8
0
100
AcDbLine
 62
7
  6
BYLAYER
 10
22.2350619873
 20
30.2271992926
 11
24.345858569
 21
30.2272043663
  0
LINE
  5
255
100
AcDbEntity
  8
0
100
AcDbLine
 62
7
  6
BYLAYER
 10
25.1455001334
 20
30.2272062884
 11
27.2562967151
 21
30.2272113622
  0
LINE
  5
256
100
AcDbEntity
  8
0
100
AcDbLine
 62
7
  6
BYLAYER
 10
24.4158535193
 20
30.5004038556
 11
25.075497982
 21
30.5004054412
  0
LINE
  5
257
100
AcDbEntity
  8
0
100
AcDbLine
 62
7
  6
BYLAYER
 10
24.401339885
 20
30.9848358369
 11
25.0900078904
 21
30.9848374922
  0
LWPOLYLINE
  5
258
100
AcDbEntity
  8
0
100
AcDbPolyline
 62
7
  6
BYLAYER
 90
3
 70
0
 10
21.9980401748
 20
30.1420934365
 10
19.1716085078
 20
30.7731187541
 10
16.5954695927
 20
31.9158480277
  0
LINE
  5
259
100
AcDbEntity
  8
0
100
AcDbLine
 62
7
  6
BYLAYER
 10
21.8562124828
 20
29.4192515557
 11
21.751427169
 21
28.4431983305
  0
LINE
  5
25A
100
AcDbEntity
  8
0
100
AcDbLine
 62
7
  6
BYLAYER
 10
21.8822078869
 20
29.5619019245
 11
21.8562131431
 21
29.4192515321
  0
LINE
  5
25B
100
AcDbEntity
  8
0
100
AcDbLine
 62
7
  6
BYLAYER
 10
21.9308740652
 20
29.9994565211
 11
21.9369109465
 21
30.0311716276
  0
LINE
  5
25C
100
AcDbEntity
  8
0
100
AcDbLine
 62
7
  6
BYLAYER
 10
37.9685229687
 20
24.5391827056
 11
37.8271022013
 21
24.6208343582
  0
LINE
  5
25D
100
AcDbEntity
  8
0
100
AcDbLine
 62
7
  6
BYLAYER
 10
24.4013495906
 20
29.6389538004
 11
24.3458622922
 21
29.7109051161
  0
LINE
  5
25E
100
AcDbEntity
  8
0
100
AcDbLine
 62
7
  6
BYLAYER
 10
25.090012835
 20
30.2991576042
 11
25.1455001334
 21
30.2272062884
  0
LINE
  5
25F
100
AcDbEntity
  8
0
100
AcDbLine
 62
7
  6
BYLAYER
 10
24.4396340072
 20
29.0471882153
 11
24.4013495906
 21
29.6389538004
  0
LINE
  5
260
100
AcDbEntity
  8
0
100
AcDbLine
 62
7
  6
BYLAYER
 10
24.4812132195
 20
29.0450228957
 11
24.4013448296
 21
30.2991559488
  0
LINE
  5
261
100
AcDbEntity
  8
0
100
AcDbLine
 62
7
  6
BYLAYER
 10
24.3764136895
 20
29.6712886039
 11
24.345858569
 21
30.2272043663
  0
LINE
  5
262
100
AcDbEntity
  8
0
100
AcDbLine
 62
7
  6
BYLAYER
 10
24.4158535193
 20
30.5004038556
 11
24.4849222029
 21
29.0450229046
  0
LINE
  5
263
100
AcDbEntity
  8
0
100
AcDbLine
 62
7
  6
BYLAYER
 10
23.2456812128
 20
19.4041008528
 11
23.2456812128
 21
17.0683175116
  0
LINE
  5
264
100
AcDbEntity
  8
0
100
AcDbLine
 62
7
  6
BYLAYER
 10
23.7456580901
 20
16.4209440128
 11
23.7456574766
 21
15.8282482739
  0
LINE
  5
265
100
AcDbEntity
  8
0
100
AcDbLine
 62
7
  6
BYLAYER
 10
23.995698698
 20
20.6040926861
 11
23.995698698
 21
18.9710878519
  0
LINE
  5
266
100
AcDbEntity
  8
0
100
AcDbLine
 62
7
  6
BYLAYER
 10
24.2507247185
 20
25.3966952537
 11
24.2507247186
 21
24.171941628
  0
LINE
  5
267
100
AcDbEntity
  8
0
100
AcDbLine
 62
7
  6
BYLAYER
 10
24.401339885
 20
30.9848358369
 11
24.4013448296
 21
30.2991559488
  0
LINE
  5
268
100
AcDbEntity
  8
0
100
AcDbLine
 62
7
  6
BYLAYER
 10
24.4013495906
 20
29.6389538004
 11
24.4013545352
 21
28.9532739123
  0
LINE
  5
269
100
AcDbEntity
  8
0
100
AcDbLine
 62
7
  6
BYLAYER
 10
24.7457018206
 20
23.8453488544
 11
24.7457018206
 21
20.1710879773
  0
LINE
  5
26A
100
AcDbEntity
  8
0
100
AcDbLine
 62
7
  6
BYLAYER
 10
25.0900225406
 20
28.9532755677
 11
25.090017596
 21
29.6389554557
  0
LINE
  5
26B
100
AcDbEntity
  8
0
100
AcDbLine
 62
7
  6
BYLAYER
 10
25.090012835
 20
30.2991576042
 11
25.0900078904
 21
30.9848374922
  0
LINE
  5
26C
100
AcDbEntity
  8
0
100
AcDbLine
 62
7
  6
BYLAYER
 10
25.2406742122
 20
24.1719440075
 11
25.2406742126
 21
25.3966976334
  0
LINE
  5
26D
100
AcDbEntity
  8
0
100
AcDbLine
 62
7
  6
BYLAYER
 10
25.495698698
 20
20.6040962917
 11
25.495698698
 21
18.9710914574
  0
LINE
  5
26E
100
AcDbEntity
  8
0
100
AcDbLine
 62
7
  6
BYLAYER
 10
25.7456574766
 20
15.8282530813
 11
25.7456580901
 21
16.4209173119
  0
LINE
  5
26F
100
AcDbEntity
  8
0
100
AcDbLine
 62
7
  6
BYLAYER
 10
26.2456812128
 20
19.4040914795
 11
26.2456812128
 21
17.0683175116
  0
LINE
  5
270
100
AcDbEntity
  8
0
100
AcDbLine
 62
7
  6
BYLAYER
 10
25.075497982
 20
30.5004054412
 11
25.0064347696
 21
29.0450241582
  0
LINE
  5
271
100
AcDbEntity
  8
0
100
AcDbLine
 62
7
  6
BYLAYER
 10
25.1455001334
 20
30.2272062884
 11
25.1149445545
 21
29.6712793877
  0
LINE
  5
272
100
AcDbEntity
  8
0
100
AcDbLine
 62
7
  6
BYLAYER
 10
25.0101445866
 20
29.0450241671
 11
25.090012835
 21
30.2991576042
  0
LINE
  5
273
100
AcDbEntity
  8
0
100
AcDbLine
 62
7
  6
BYLAYER
 10
25.0517331536
 20
29.0471903366
 11
25.090017596
 21
29.6389554557
  0
LINE
  5
274
100
AcDbEntity
  8
0
100
AcDbLine
 62
7
  6
BYLAYER
 10
27.5544681821
 20
30.0311917485
 11
27.5604846969
 21
29.999470053
  0
LINE
  5
275
100
AcDbEntity
  8
0
100
AcDbLine
 62
7
  6
BYLAYER
 10
27.6351492832
 20
29.4192515321
 11
27.6091509899
 21
29.5619156904
  0
LINE
  5
276
100
AcDbEntity
  8
0
100
AcDbLine
 62
7
  6
BYLAYER
 10
27.6351499428
 20
29.4192515557
 11
27.7399352566
 21
28.4431983305
  0
LINE
  5
277
100
AcDbEntity
  8
0
100
AcDbLine
 62
7
  6
BYLAYER
 10
24.345858569
 20
30.2272043663
 11
24.4013448296
 21
30.2991559488
  0
LINE
  5
278
100
AcDbEntity
  8
0
100
AcDbLine
 62
7
  6
BYLAYER
 10
25.1455038566
 20
29.7109070382
 11
25.090017596
 21
29.6389554557
  0
LINE
  5
279
100
AcDbEntity
  8
0
100
AcDbLine
 62
7
  6
BYLAYER
 10
11.5227452367
 20
24.5391283086
 11
11.6641696255
 21
24.620782052
  0
LINE
  5
27A
100
AcDbEntity
  8
0
100
AcDbLine
 62
7
  6
BYLAYER
 10
39.2320992849
 20
37.1181586451
 11
38.5434312795
 21
37.1181569897
  0
LINE
  5
27B
100
AcDbEntity
  8
0
100
AcDbLine
 62
7
  6
BYLAYER
 10
10.9478280377
 20
37.1180906581
 11
10.2591600323
 21
37.1180890027
  0
LINE
  5
27C
100
AcDbEntity
  8
0
100
AcDbLine
 62
7
  6
BYLAYER
 10
10.2639671808
 20
37.2098378057
 11
10.9430184854
 21
37.2098394379
  0
LINE
  5
27D
100
AcDbEntity
  8
0
100
AcDbLine
 62
7
  6
BYLAYER
 10
38.548238428
 20
37.2099057927
 11
39.2272897326
 21
37.209907425
  0
LINE
  5
27E
100
AcDbEntity
  8
0
100
AcDbLine
 62
7
  6
BYLAYER
 10
41.7512277342
 20
37.7267987679
 11
41.6712436389
 21
37.7267985756
  0
LINE
  5
27F
100
AcDbEntity
  8
0
100
AcDbLine
 62
7
  6
BYLAYER
 10
36.1041545605
 20
37.726785194
 11
36.0242846312
 21
37.726785002
  0
LINE
  5
280
100
AcDbEntity
  8
0
100
AcDbLine
 62
7
  6
BYLAYER
 10
13.466956487
 20
37.7267307808
 11
13.3869723917
 21
37.7267305886
  0
LINE
  5
281
100
AcDbEntity
  8
0
100
AcDbLine
 62
7
  6
BYLAYER
 10
7.8198833133
 20
37.7267172069
 11
7.740013384
 21
37.726717015
  0
LINE
  5
282
100
AcDbEntity
  8
0
100
AcDbLine
 62
7
  6
BYLAYER
 10
41.3983771825
 20
37.8757951894
 11
39.2875806008
 21
37.8757901156
  0
LINE
  5
283
100
AcDbEntity
  8
0
100
AcDbLine
 62
7
  6
BYLAYER
 10
38.4879390365
 20
37.8757881935
 11
36.3771424548
 21
37.8757831198
  0
LINE
  5
284
100
AcDbEntity
  8
0
100
AcDbLine
 62
7
  6
BYLAYER
 10
13.1141059353
 20
37.8757272023
 11
11.0033093536
 21
37.8757221286
  0
LINE
  5
285
100
AcDbEntity
  8
0
100
AcDbLine
 62
7
  6
BYLAYER
 10
10.2036677893
 20
37.8757202065
 11
8.0928712076
 21
37.8757151328
  0
LINE
  5
286
100
AcDbEntity
  8
0
100
AcDbLine
 62
7
  6
BYLAYER
 10
29.7456223335
 20
48.3671531012
 11
29.7456223335
 21
50.4102260502
  0
LWPOLYLINE
  5
287
100
AcDbEntity
  8
0
100
AcDbPolyline
 62
7
  6
BYLAYER
 90
3
 70
0
 10
31.4494596008
 20
31.1920738865
 10
28.5890043472
 20
30.317052564
 10
27.4709456
 20
30.1849215331
  0
LINE
  5
288
100
AcDbEntity
  8
0
100
AcDbLine
 62
7
  6
BYLAYER
 10
8.0928674844
 20
38.392014383
 11
10.2036640661
 21
38.3920194567
  0
LINE
  5
289
100
AcDbEntity
  8
0
100
AcDbLine
 62
7
  6
BYLAYER
 10
11.0033056304
 20
38.3920213788
 11
13.1141022121
 21
38.3920264526
  0
LINE
  5
28A
100
AcDbEntity
  8
0
100
AcDbLine
 62
7
  6
BYLAYER
 10
36.3771387316
 20
38.39208237
 11
38.4879353133
 21
38.3920874438
  0
LINE
  5
28B
100
AcDbEntity
  8
0
100
AcDbLine
 62
7
  6
BYLAYER
 10
39.2875768776
 20
38.3920893659
 11
41.3983734593
 21
38.3920944396
  0
LINE
  5
28C
100
AcDbEntity
  8
0
100
AcDbLine
 62
7
  6
BYLAYER
 10
10.2736590164
 20
38.6652189461
 11
10.933303479
 21
38.6652205316
  0
LINE
  5
28D
100
AcDbEntity
  8
0
100
AcDbLine
 62
7
  6
BYLAYER
 10
38.5579302636
 20
38.6652869331
 11
39.2175747263
 21
38.6652885187
  0
LINE
  5
28E
100
AcDbEntity
  8
0
100
AcDbLine
 62
7
  6
BYLAYER
 10
10.259145382
 20
39.1496509273
 11
10.9478133874
 21
39.1496525826
  0
LINE
  5
28F
100
AcDbEntity
  8
0
100
AcDbLine
 62
7
  6
BYLAYER
 10
38.5434166292
 20
39.1497189143
 11
39.2320846347
 21
39.1497205697
  0
LINE
  5
290
100
AcDbEntity
  8
0
100
AcDbLine
 62
7
  6
BYLAYER
 10
33.7688033674
 20
32.4977518308
 11
31.4494596008
 21
31.1920738865
  0
LINE
  5
291
100
AcDbEntity
  8
0
100
AcDbLine
 62
7
  6
BYLAYER
 10
31.7771798209
 20
47.8974001272
 11
32.1253907469
 21
39.7581643752
  0
LINE
  5
292
100
AcDbEntity
  8
0
100
AcDbLine
 62
7
  6
BYLAYER
 10
38.4879353133
 20
38.3920874438
 11
38.5434215739
 21
38.4640390262
  0
LINE
  5
293
100
AcDbEntity
  8
0
100
AcDbLine
 62
7
  6
BYLAYER
 10
35.3562790881
 20
34.1268560251
 11
33.7688033674
 21
32.4977518308
  0
LINE
  5
294
100
AcDbEntity
  8
0
100
AcDbLine
 62
7
  6
BYLAYER
 10
42.9182653538
 20
36.4192940776
 11
41.2578204628
 21
35.4606414953
  0
LINE
  5
295
100
AcDbEntity
  8
0
100
AcDbLine
 62
7
  6
BYLAYER
 10
40.6855948389
 20
35.1302688493
 11
27.1157437185
 21
27.2957584178
  0
LINE
  5
296
100
AcDbEntity
  8
0
100
AcDbLine
 62
7
  6
BYLAYER
 10
26.5435180946
 20
26.9653857719
 11
24.8871211945
 21
26.0090702841
  0
LINE
  5
297
100
AcDbEntity
  8
0
100
AcDbLine
 62
7
  6
BYLAYER
 10
25.2406742126
 20
25.3966976334
 11
43.2718220612
 21
35.8069235569
  0
LINE
  5
298
100
AcDbEntity
  8
0
100
AcDbLine
 62
7
  6
BYLAYER
 10
35.9982892271
 20
37.5841346331
 11
35.8935039132
 21
36.6080814079
  0
LINE
  5
299
100
AcDbEntity
  8
0
100
AcDbLine
 62
7
  6
BYLAYER
 10
36.0242846312
 20
37.726785002
 11
35.9982898873
 21
37.5841346095
  0
LINE
  5
29A
100
AcDbEntity
  8
0
100
AcDbLine
 62
7
  6
BYLAYER
 10
36.0729508095
 20
38.1643395985
 11
36.0789876908
 21
38.1960547051
  0
LINE
  5
29B
100
AcDbEntity
  8
0
100
AcDbLine
 62
7
  6
BYLAYER
 10
36.0776769688
 20
35.9297592146
 11
35.3562790881
 21
34.1268560251
  0
LINE
  5
29C
100
AcDbEntity
  8
0
100
AcDbLine
 62
7
  6
BYLAYER
 10
39.2875806008
 20
37.8757901156
 11
39.2320943402
 21
37.8038385332
  0
LINE
  5
29D
100
AcDbEntity
  8
0
100
AcDbLine
 62
7
  6
BYLAYER
 10
43.2718220612
 20
34.5821699312
 11
25.2406742122
 21
24.1719440075
  0
LINE
  5
29E
100
AcDbEntity
  8
0
100
AcDbLine
 62
7
  6
BYLAYER
 10
43.8375054253
 20
34.8679410089
 11
24.7457018206
 21
23.8453488544
  0
LWPOLYLINE
  5
29F
100
AcDbEntity
  8
0
100
AcDbPolyline
 62
7
  6
BYLAYER
 90
9
 70
0
 10
20.5198335777
 20
46.0981636417
 10
22.2424194323
 20
45.4151741756
 10
24.2606471813
 20
45.1125469267
 10
26.3522506658
 20
45.2270266648
 10
28.2421234824
 20
45.7457320313
 10
29.7065944099
 20
46.6017651802
 10
30.5789030865
 20
47.6933810859
 10
30.7560175884
 20
48.8949727164
 10
30.2158839965
 20
50.0558389741
  0
LINE
  5
2A0
100
AcDbEntity
  8
0
100
AcDbLine
 62
7
  6
BYLAYER
 10
32.0523087986
 20
41.4664140647
 11
32.7921687395
 21
41.1465479547
  0
LINE
  5
2A1
100
AcDbEntity
  8
0
100
AcDbLine
 62
7
  6
BYLAYER
 10
43.4768452536
 20
35.0761635455
 11
43.8375054253
 21
34.8679410089
  0
LINE
  5
2A2
100
AcDbEntity
  8
0
100
AcDbLine
 62
7
  6
BYLAYER
 10
31.9913580973
 20
42.891102638
 11
37.8112218135
 21
39.5310787687
  0
LINE
  5
2A3
100
AcDbEntity
  8
0
100
AcDbLine
 62
7
  6
BYLAYER
 10
41.8164575753
 20
37.2187071363
 11
42.9182641761
 21
36.5825931895
  0
LINE
  5
2A4
100
AcDbEntity
  8
0
100
AcDbLine
 62
7
  6
BYLAYER
 10
37.3877579571
 20
25.8369340883
 11
37.3877579571
 21
25.2332005891
  0
LINE
  5
2A5
100
AcDbEntity
  8
0
100
AcDbLine
 62
7
  6
BYLAYER
 10
33.4490198205
 20
21.3312774349
 11
33.4204177066
 21
21.1996909577
  0
LINE
  5
2A6
100
AcDbEntity
  8
0
100
AcDbLine
 62
7
  6
BYLAYER
 10
43.8375054253
 20
31.1936801318
 11
43.0875085479
 21
30.7606718175
  0
LINE
  5
2A7
100
AcDbEntity
  8
0
100
AcDbLine
 62
7
  6
BYLAYER
 10
25.495698698
 20
20.6040962917
 11
24.7457018206
 21
20.1710879773
  0
LINE
  5
2A8
100
AcDbEntity
  8
0
100
AcDbLine
 62
7
  6
BYLAYER
 10
31.9839406728
 20
43.0644807885
 11
38.0280674894
 21
39.574981487
  0
LINE
  5
2A9
100
AcDbEntity
  8
0
100
AcDbLine
 62
7
  6
BYLAYER
 10
41.7971045907
 20
37.3989761298
 11
43.1682617793
 21
36.6073560667
  0
LINE
  5
2AA
100
AcDbEntity
  8
0
100
AcDbLine
 62
7
  6
BYLAYER
 10
38.5817107515
 20
37.2120712927
 11
38.5434263348
 21
37.8038368778
  0
LINE
  5
2AB
100
AcDbEntity
  8
0
100
AcDbLine
 62
7
  6
BYLAYER
 10
38.6232899638
 20
37.2099059731
 11
38.5434215739
 21
38.4640390262
  0
LINE
  5
2AC
100
AcDbEntity
  8
0
100
AcDbLine
 62
7
  6
BYLAYER
 10
38.5184904338
 20
37.8361716813
 11
38.4879353133
 21
38.3920874438
  0
LINE
  5
2AD
100
AcDbEntity
  8
0
100
AcDbLine
 62
7
  6
BYLAYER
 10
38.5579302636
 20
38.6652869331
 11
38.6269989472
 21
37.209905982
  0
LINE
  5
2AE
100
AcDbEntity
  8
0
100
AcDbLine
 62
7
  6
BYLAYER
 10
38.5434166292
 20
39.1497189143
 11
38.5434215739
 21
38.4640390262
  0
LINE
  5
2AF
100
AcDbEntity
  8
0
100
AcDbLine
 62
7
  6
BYLAYER
 10
38.5434263348
 20
37.8038368778
 11
38.5434312795
 21
37.1181569897
  0
LINE
  5
2B0
100
AcDbEntity
  8
0
100
AcDbLine
 62
7
  6
BYLAYER
 10
39.2320992849
 20
37.1181586451
 11
39.2320943402
 21
37.8038385332
  0
LINE
  5
2B1
100
AcDbEntity
  8
0
100
AcDbLine
 62
7
  6
BYLAYER
 10
39.2320895793
 20
38.4640406816
 11
39.2320846347
 21
39.1497205697
  0
LINE
  5
2B2
100
AcDbEntity
  8
0
100
AcDbLine
 62
7
  6
BYLAYER
 10
39.2175747263
 20
38.6652885187
 11
39.1485115139
 21
37.2099072356
  0
LINE
  5
2B3
100
AcDbEntity
  8
0
100
AcDbLine
 62
7
  6
BYLAYER
 10
39.2875768776
 20
38.3920893659
 11
39.2570212988
 21
37.8361624652
  0
LINE
  5
2B4
100
AcDbEntity
  8
0
100
AcDbLine
 62
7
  6
BYLAYER
 10
39.1522213308
 20
37.2099072445
 11
39.2320895793
 21
38.4640406816
  0
LINE
  5
2B5
100
AcDbEntity
  8
0
100
AcDbLine
 62
7
  6
BYLAYER
 10
39.1938098979
 20
37.2120734141
 11
39.2320943402
 21
37.8038385332
  0
LINE
  5
2B6
100
AcDbEntity
  8
0
100
AcDbLine
 62
7
  6
BYLAYER
 10
43.0875085479
 20
29.1276669832
 11
25.495698698
 21
18.9710914574
  0
LINE
  5
2B7
100
AcDbEntity
  8
0
100
AcDbLine
 62
7
  6
BYLAYER
 10
38.5434263348
 20
37.8038368778
 11
38.4879390365
 21
37.8757881935
  0
LINE
  5
2B8
100
AcDbEntity
  8
0
100
AcDbLine
 62
7
  6
BYLAYER
 10
39.2320895793
 20
38.4640406816
 11
39.2875768776
 21
38.3920893659
  0
LINE
  5
2B9
100
AcDbEntity
  8
0
100
AcDbLine
 62
7
  6
BYLAYER
 10
40.3877579571
 20
27.568974557
 11
40.3877579571
 21
25.2332005891
  0
LINE
  5
2BA
100
AcDbEntity
  8
0
100
AcDbLine
 62
7
  6
BYLAYER
 10
33.3576604229
 20
21.2133316109
 11
34.1482332284
 21
22.2339683866
  0
LINE
  5
2BB
100
AcDbEntity
  8
0
100
AcDbLine
 62
7
  6
BYLAYER
 10
25.6649397397
 20
16.3743132182
 11
25.8063641284
 21
16.4559669616
  0
LINE
  5
2BC
100
AcDbEntity
  8
0
100
AcDbLine
 62
7
  6
BYLAYER
 10
39.807016484
 20
24.5391962956
 11
39.9484408727
 21
24.620850039
  0
LINE
  5
2BD
100
AcDbEntity
  8
0
100
AcDbLine
 62
7
  6
BYLAYER
 10
30.2158839965
 20
50.0558389741
 11
29.7443835927
 21
50.4448201234
  0
LINE
  5
2BE
100
AcDbEntity
  8
0
100
AcDbLine
 62
7
  6
BYLAYER
 10
41.7772266871
 20
37.5841346331
 11
41.8820120009
 21
36.6080814079
  0
LINE
  5
2BF
100
AcDbEntity
  8
0
100
AcDbLine
 62
7
  6
BYLAYER
 10
41.6965449264
 20
38.196074826
 11
41.7025614412
 21
38.1643531304
  0
LINE
  5
2C0
100
AcDbEntity
  8
0
100
AcDbLine
 62
7
  6
BYLAYER
 10
41.7772260275
 20
37.5841346095
 11
41.7512277342
 21
37.7267987679
  0
LINE
  5
2C1
100
AcDbEntity
  8
0
100
AcDbLine
 62
7
  6
BYLAYER
 10
43.0875085479
 20
30.7606718175
 11
43.0875085479
 21
29.1276669832
  0
LINE
  5
2C2
100
AcDbEntity
  8
0
100
AcDbLine
 62
7
  6
BYLAYER
 10
43.2718220612
 20
35.8069235569
 11
43.2718220612
 21
34.5821699312
  0
LINE
  5
2C3
100
AcDbEntity
  8
0
100
AcDbLine
 62
7
  6
BYLAYER
 10
43.4768452536
 20
34.8679384594
 11
43.4768452536
 21
36.0926920851
  0
LINE
  5
2C4
100
AcDbEntity
  8
0
100
AcDbLine
 62
7
  6
BYLAYER
 10
43.8375054253
 20
34.8679410089
 11
43.8375054253
 21
31.1936801318
  0
ARC
  5
2C5
100
AcDbEntity
  8
0
100
AcDbCircle
 62
7
  6
BYLAYER
 10
24.7456222519
 20
30.4825866768
 40
14.6884159657
100
AcDbArc
 50
266.0963721123
 51
273.9039033319
  0
ARC
  5
2C6
100
AcDbEntity
  8
0
100
AcDbCircle
 62
7
  6
BYLAYER
 10
27.4713270533
 20
31.9301762599
 40
10.6420328635
100
AcDbArc
 50
59.3548752507
 51
60.0010863531
  0
ARC
  5
2C7
100
AcDbEntity
  8
0
100
AcDbCircle
 62
7
  6
BYLAYER
 10
21.8719114044
 20
40.8217538321
 40
10.3516180566
100
AcDbArc
 50
238.2417949901
 51
239.3547222546
  0
ARC
  5
2C8
100
AcDbEntity
  8
0
100
AcDbCircle
 62
7
  6
BYLAYER
 10
22.9774375144
 20
42.6179896895
 40
6.9035652563
100
AcDbArc
 50
239.3548752475
 51
240.0010863563
  0
ARC
  5
2C9
100
AcDbEntity
  8
0
100
AcDbCircle
 62
7
  6
BYLAYER
 10
23.1115536356
 20
50.7100884243
 40
6.6792055255
100
AcDbArc
 50
240.0011267179
 51
240.4744816295
  0
ARC
  5
2CA
100
AcDbEntity
  8
0
100
AcDbCircle
 62
7
  6
BYLAYER
 10
22.3704762717
 20
47.4615811679
 40
4.0421644574
100
AcDbArc
 50
131.3434756731
 51
132.1619573897
  0
ARC
  5
2CB
100
AcDbEntity
  8
0
100
AcDbCircle
 62
7
  6
BYLAYER
 10
24.7456725282
 20
22.7119431248
 40
2.5904270338
100
AcDbArc
 50
269.8762777365
 51
270.125016475
  0
ARC
  5
2CC
100
AcDbEntity
  8
0
100
AcDbCircle
 62
7
  6
BYLAYER
 10
19.8271649426
 20
39.6530166872
 40
2.4635516388
100
AcDbArc
 50
177.5537976292
 51
177.9655403705
  0
ARC
  5
2CD
100
AcDbEntity
  8
0
100
AcDbCircle
 62
7
  6
BYLAYER
 10
28.0896813302
 20
48.584019235
 40
1.7059244525
100
AcDbArc
 50
0.0374979496
 51
10.9530052366
  0
ARC
  5
2CE
100
AcDbEntity
  8
0
100
AcDbCircle
 62
7
  6
BYLAYER
 10
21.3863248312
 20
48.5850570229
 40
1.6906855835
100
AcDbArc
 50
172.5363460115
 51
179.9973319415
  0
SPLINE
  5
2CF
100
AcDbEntity
  8
0
100
AcDbSpline
 62
7
  6
BYLAYER
 70
0
 71
3
 72
15
 73
11
 74
0
 42
0.0000001
 43
0.0000001
 44
0.0000000001
 40
0.0
 40
0.0
 40
0.0
 40
0.0
 40
0.1485263577
 40
0.2895010829
 40
0.4227415638
 40
0.5486452136
 40
0.6679959928
 40
0.7819398889
 40
0.8919882913
 40
1.0
 40
1.0
 40
1.0
 40
1.0
 10
37.8271022013
 20
24.6208343582
 30
0.0
 10
37.7932850271
 20
24.6403582712
 30
0.0
 10
37.7289068688
 20
24.6811781179
 30
0.0
 10
37.6408654496
 20
24.7492958377
 30
0.0
 10
37.5647204687
 20
24.8221885466
 30
0.0
 10
37.5012251489
 20
24.8991391617
 30
0.0
 10
37.4510481478
 20
24.9794951397
 30
0.0
 10
37.4146960586
 20
25.0625069341
 30
0.0
 10
37.392699891
 20
25.1473605526
 30
0.0
 10
37.3877576701
 20
25.2048036498
 30
0.0
 10
37.3877579571
 20
25.2332005891
 30
0.0
  0
SPLINE
  5
2D0
100
AcDbEntity
  8
0
100
AcDbSpline
 62
7
  6
BYLAYER
 70
0
 71
3
 72
24
 73
20
 74
0
 42
0.0000001
 43
0.0000001
 44
0.0000000001
 40
0.0
 40
0.0
 40
0.0
 40
0.0
 40
0.0609306188
 40
0.1247951288
 40
0.1911652132
 40
0.2595133873
 40
0.3291453757
 40
0.399302421
 40
0.4691920675
 40
0.5380380318
 40
0.6051265696
 40
0.6698531715
 40
0.731772255
 40
0.7906491568
 40
0.8464989104
 40
0.8996176513
 40
0.9505230217
 40
0.9753879628
 40
1.0
 40
1.0
 40
1.0
 40
1.0
 10
40.8409573975
 20
39.1898700824
 30
0.0
 10
40.7458808584
 20
39.2447613061
 30
0.0
 10
40.5441937842
 20
39.3454250969
 30
0.0
 10
40.2211557475
 20
39.4664433872
 30
0.0
 10
39.8752468564
 20
39.5598799591
 30
0.0
 10
39.5123380468
 20
39.6246018191
 30
0.0
 10
39.138544318
 20
39.6596818261
 30
0.0
 10
38.7603750966
 20
39.6646237597
 30
0.0
 10
38.3844325291
 20
39.6393525547
 30
0.0
 10
38.0172620758
 20
39.5842416254
 30
0.0
 10
37.66516261
 20
39.5000673178
 30
0.0
 10
37.3340337485
 20
39.3879213952
 30
0.0
 10
37.0292632619
 20
39.2490782288
 30
0.0
 10
36.7557435567
 20
39.0848289655
 30
0.0
 10
36.5179917157
 20
38.8963268746
 30
0.0
 10
36.3207846562
 20
38.6847127211
 30
0.0
 10
36.1935217975
 20
38.4886475146
 30
0.0
 10
36.1187931353
 20
38.3236483563
 30
0.0
 10
36.0906402606
 20
38.2388435287
 30
0.0
 10
36.079004018
 20
38.1960516412
 30
0.0
  0
SPLINE
  5
2D1
100
AcDbEntity
  8
0
100
AcDbSpline
 62
7
  6
BYLAYER
 70
0
 71
3
 72
14
 73
10
 74
0
 42
0.0000001
 43
0.0000001
 44
0.0000000001
 40
0.0
 40
0.0
 40
0.0
 40
0.0
 40
0.1156748669
 40
0.2328619258
 40
0.3523253746
 40
0.4746178943
 40
0.7292276506
 40
0.8626012947
 40
1.0
 40
1.0
 40
1.0
 40
1.0
 10
41.6965075032
 20
38.1960677973
 30
0.0
 10
41.6829051401
 20
38.2460874021
 30
0.0
 10
41.6490075659
 20
38.3451200583
 30
0.0
 10
41.5799858738
 20
38.4874987941
 30
0.0
 10
41.493639163
 20
38.623605125
 30
0.0
 10
41.3552385907
 20
38.7981524347
 30
0.0
 10
41.1873204556
 20
38.9555163152
 30
0.0
 10
40.9973440378
 20
39.0947799046
 30
0.0
 10
40.8942797563
 20
39.1590851006
 30
0.0
 10
40.8409573975
 20
39.1898700824
 30
0.0
  0
SPLINE
  5
2D2
100
AcDbEntity
  8
0
100
AcDbSpline
 62
7
  6
BYLAYER
 70
0
 71
3
 72
18
 73
14
 74
0
 42
0.0000001
 43
0.0000001
 44
0.0000000001
 40
0.0
 40
0.0
 40
0.0
 40
0.0
 40
0.1497395598
 40
0.2911502499
 40
0.4241908483
 40
0.4877701297
 40
0.549508346
 40
0.6679568274
 40
0.7811076704
 40
0.8363555473
 40
0.8910546298
 40
0.9455017591
 40
1.0
 40
1.0
 40
1.0
 40
1.0
 10
36.7664464454
 20
35.2762014838
 30
0.0
 10
36.6936116655
 20
35.3182517123
 30
0.0
 10
36.5555192845
 20
35.4063961425
 30
0.0
 10
36.3684318717
 20
35.55460091
 30
0.0
 10
36.2337651746
 20
35.6891857853
 30
0.0
 10
36.1417214398
 20
35.8015006996
 30
0.0
 10
36.0624130154
 20
35.9132137861
 30
0.0
 10
35.9817947146
 20
36.0576760933
 30
0.0
 10
35.9269517723
 20
36.2100663554
 30
0.0
 10
35.9005324189
 20
36.33270218
 30
0.0
 10
35.889283357
 20
36.4244809031
 30
0.0
 10
35.8864745003
 20
36.5164715523
 30
0.0
 10
35.8902378588
 20
36.5776471792
 30
0.0
 10
35.8935067658
 20
36.6080813045
 30
0.0
  0
SPLINE
  5
2D3
100
AcDbEntity
  8
0
100
AcDbSpline
 62
7
  6
BYLAYER
 70
0
 71
3
 72
30
 73
26
 74
0
 42
0.0000001
 43
0.0000001
 44
0.0000000001
 40
0.0
 40
0.0
 40
0.0
 40
0.0
 40
0.0214866213
 40
0.0430173414
 40
0.0648331733
 40
0.0871593429
 40
0.1101955438
 40
0.1341072241
 40
0.1590252939
 40
0.1850417336
 40
0.2122165874
 40
0.2405749405
 40
0.2701162661
 40
0.3008123045
 40
0.3654281197
 40
0.433848235
 40
0.5052414177
 40
0.578620791
 40
0.6529037479
 40
0.7269636514
 40
0.7996864719
 40
0.8700192855
 40
0.9370349915
 40
0.9690753292
 40
1.0
 40
1.0
 40
1.0
 40
1.0
 10
41.8820045867
 20
36.6080811628
 30
0.0
 10
41.8866613552
 20
36.5646873715
 30
0.0
 10
41.8903534745
 20
36.4770943658
 30
0.0
 10
41.878546062
 20
36.3455775246
 30
0.0
 10
41.8495067801
 20
36.2150110246
 30
0.0
 10
41.8034430319
 20
36.0862159616
 30
0.0
 10
41.7406708217
 20
35.9599470512
 30
0.0
 10
41.6616263817
 20
35.8369066209
 30
0.0
 10
41.5667717916
 20
35.717797741
 30
0.0
 10
41.4567103623
 20
35.6032387901
 30
0.0
 10
41.3320469881
 20
35.4938910088
 30
0.0
 10
41.1935297518
 20
35.3903128398
 30
0.0
 10
41.0419154117
 20
35.2931081013
 30
0.0
 10
40.8196925498
 20
35.1706039784
 30
0.0
 10
40.5139468849
 20
35.0376751602
 30
0.0
 10
40.1169072186
 20
34.9137962989
 30
0.0
 10
39.6922988411
 20
34.8255722916
 30
0.0
 10
39.2496581497
 20
34.774973804
 30
0.0
 10
38.7988903535
 20
34.7631314143
 30
0.0
 10
38.3501212839
 20
34.7903037761
 30
0.0
 10
37.9134094939
 20
34.8558971178
 30
0.0
 10
37.498566981
 20
34.9584220893
 30
0.0
 10
37.1738944893
 20
35.0744983485
 30
0.0
 10
36.9337657155
 20
35.184530893
 30
0.0
 10
36.8208445902
 20
35.2447954108
 30
0.0
 10
36.7664464454
 20
35.2762014838
 30
0.0
  0
LINE
  5
2D4
100
AcDbEntity
  8
0
100
AcDbLine
 62
7
  6
BYLAYER
 10
36.0242846312
 20
37.726785002
 11
36.0729508095
 21
38.1643395985
  0
LINE
  5
2D5
100
AcDbEntity
  8
0
100
AcDbLine
 62
7
  6
BYLAYER
 10
36.072954473
 20
37.6563207035
 11
36.02428818
 21
37.2346749241
  0
LINE
  5
2D6
100
AcDbEntity
  8
0
100
AcDbLine
 62
7
  6
BYLAYER
 10
41.7512312829
 20
37.23468869
 11
41.7025651046
 21
37.6563342354
  0
LINE
  5
2D7
100
AcDbEntity
  8
0
100
AcDbLine
 62
7
  6
BYLAYER
 10
41.7025614412
 20
38.1643531304
 11
41.7512277342
 21
37.7267987679
  0
SPLINE
  5
2D8
100
AcDbEntity
  8
0
100
AcDbSpline
 62
7
  6
BYLAYER
 70
0
 71
3
 72
13
 73
9
 74
0
 42
0.0000001
 43
0.0000001
 44
0.0000000001
 40
0.0
 40
0.0
 40
0.0
 40
0.0
 40
0.1111675623
 40
0.2254080617
 40
0.3439510835
 40
0.4675038977
 40
0.7277343458
 40
1.0
 40
1.0
 40
1.0
 40
1.0
 10
41.7025651046
 20
37.6563342354
 30
0.0
 10
41.7008299569
 20
37.6713435526
 30
0.0
 10
41.6936503483
 20
37.7014617561
 30
0.0
 10
41.6727113696
 20
37.7436535716
 30
0.0
 10
41.6423910823
 20
37.7818498595
 30
0.0
 10
41.5902664632
 20
37.8264887236
 30
0.0
 10
41.5081762938
 20
37.8654276103
 30
0.0
 10
41.4353820238
 20
37.8757952783
 30
0.0
 10
41.3983771825
 20
37.8757951894
 30
0.0
  0
SPLINE
  5
2D9
100
AcDbEntity
  8
0
100
AcDbSpline
 62
7
  6
BYLAYER
 70
0
 71
3
 72
13
 73
9
 74
0
 42
0.0000001
 43
0.0000001
 44
0.0000000001
 40
0.0
 40
0.0
 40
0.0
 40
0.0
 40
0.2722664244
 40
0.5325017335
 40
0.6560563684
 40
0.7745997137
 40
0.8888358986
 40
1.0
 40
1.0
 40
1.0
 40
1.0
 10
36.3771424548
 20
37.8757831198
 30
0.0
 10
36.3401374465
 20
37.8757830309
 30
0.0
 10
36.2673423649
 20
37.8654147577
 30
0.0
 10
36.1852513199
 20
37.8264748179
 30
0.0
 10
36.1331264952
 20
37.781834462
 30
0.0
 10
36.102807124
 20
37.7436378085
 30
0.0
 10
36.0818682361
 20
37.7014469748
 30
0.0
 10
36.0746895727
 20
37.6713295783
 30
0.0
 10
36.072954473
 20
37.6563207035
 30
0.0
  0
SPLINE
  5
2DA
100
AcDbEntity
  8
0
100
AcDbSpline
 62
7
  6
BYLAYER
 70
0
 71
3
 72
15
 73
11
 74
0
 42
0.0000001
 43
0.0000001
 44
0.0000000001
 40
0.0
 40
0.0
 40
0.0
 40
0.0
 40
0.1080131281
 40
0.2180612219
 40
0.3320010908
 40
0.4513569006
 40
0.5772797606
 40
0.7104997397
 40
0.8513973507
 40
1.0
 40
1.0
 40
1.0
 40
1.0
 10
40.387757957
 20
25.2332005891
 30
0.0
 10
40.38775767
 20
25.2048044006
 30
0.0
 10
40.3828146413
 20
25.1473634488
 30
0.0
 10
40.3608214944
 20
25.0625136841
 30
0.0
 10
40.324475706
 20
24.9795028019
 30
0.0
 10
40.2742967405
 20
24.8991456369
 30
0.0
 10
40.210797695
 20
24.8222021737
 30
0.0
 10
40.1346771127
 20
24.7493208434
 30
0.0
 10
40.0466525489
 20
24.6811970582
 30
0.0
 10
39.9822736441
 20
24.6403839593
 30
0.0
 10
39.9484408727
 20
24.620850039
 30
0.0
  0
SPLINE
  5
2DB
100
AcDbEntity
  8
0
100
AcDbSpline
 62
7
  6
BYLAYER
 70
0
 71
3
 72
16
 73
12
 74
0
 42
0.0000001
 43
0.0000001
 44
0.0000000001
 40
0.0
 40
0.0
 40
0.0
 40
0.0
 40
0.1141419491
 40
0.2373006744
 40
0.3669382461
 40
0.4999508312
 40
0.6329624907
 40
0.7626036032
 40
0.8857680626
 40
0.9441628335
 40
1.0
 40
1.0
 40
1.0
 40
1.0
 10
39.8070147155
 20
24.5391973163
 30
0.0
 10
39.7440871592
 20
24.5028651159
 30
0.0
 10
39.6064841801
 20
24.4387858159
 30
0.0
 10
39.3824038937
 20
24.370675123
 30
0.0
 10
39.1397981996
 20
24.328749054
 30
0.0
 10
38.8877865072
 20
24.3146006991
 30
0.0
 10
38.6357557018
 20
24.3287453154
 30
0.0
 10
38.3931912553
 20
24.3706553242
 30
0.0
 10
38.2030105486
 20
24.4284467237
 30
0.0
 10
38.0638936905
 20
24.4877810709
 30
0.0
 10
37.9993069138
 20
24.5214099887
 30
0.0
 10
37.9685229687
 20
24.5391827056
 30
0.0
  0
SPLINE
  5
2DC
100
AcDbEntity
  8
0
100
AcDbSpline
 62
7
  6
BYLAYER
 70
0
 71
3
 72
14
 73
10
 74
0
 42
0.0000001
 43
0.0000001
 44
0.0000000001
 40
0.0
 40
0.0
 40
0.0
 40
0.0
 40
0.1084316043
 40
0.2205270208
 40
0.3369904914
 40
0.4584235591
 40
0.7176032705
 40
0.8559754836
 40
1.0
 40
1.0
 40
1.0
 40
1.0
 10
41.3983734593
 20
38.3920944396
 30
0.0
 10
41.3868766974
 20
38.4293628117
 30
0.0
 10
41.3586719587
 20
38.5037463353
 30
0.0
 10
41.3026225908
 20
38.6114937936
 30
0.0
 10
41.232544515
 20
38.7163632358
 30
0.0
 10
41.1186290785
 20
38.8544792321
 30
0.0
 10
40.9800124415
 20
38.9811147202
 30
0.0
 10
40.8221923898
 20
39.0954474866
 30
0.0
 10
40.7358234812
 20
39.1491103269
 30
0.0
 10
40.6909599425
 20
39.175011717
 30
0.0
  0
SPLINE
  5
2DD
100
AcDbEntity
  8
0
100
AcDbSpline
 62
7
  6
BYLAYER
 70
0
 71
3
 72
9
 73
5
 74
0
 42
0.0000001
 43
0.0000001
 44
0.0000000001
 40
0.0
 40
0.0
 40
0.0
 40
0.0
 40
0.5022213777
 40
1.0
 40
1.0
 40
1.0
 40
1.0
 10
41.7512312829
 20
37.23468869
 30
0.0
 10
41.7659345685
 20
37.2917253057
 30
0.0
 10
41.7854357865
 20
37.4080871711
 30
0.0
 10
41.7834594802
 20
37.5260881214
 30
0.0
 10
41.777225846
 20
37.584134603
 30
0.0
  0
SPLINE
  5
2DE
100
AcDbEntity
  8
0
100
AcDbSpline
 62
7
  6
BYLAYER
 70
0
 71
3
 72
13
 73
9
 74
0
 42
0.0000001
 43
0.0000001
 44
0.0000000001
 40
0.0
 40
0.0
 40
0.0
 40
0.0
 40
0.1139871521
 40
0.2308165878
 40
0.3512434399
 40
0.475498341
 40
0.7334638369
 40
1.0
 40
1.0
 40
1.0
 40
1.0
 10
36.0790099156
 20
38.1960505283
 30
0.0
 10
36.0828146569
 20
38.2100422804
 30
0.0
 10
36.0934554922
 20
38.2376554304
 30
0.0
 10
36.1174226352
 20
38.2756588198
 30
0.0
 10
36.1487390129
 20
38.3096665037
 30
0.0
 10
36.1995612858
 20
38.3488912293
 30
0.0
 10
36.2761646423
 20
38.3829668592
 30
0.0
 10
36.3432337693
 20
38.3920822885
 30
0.0
 10
36.3771387316
 20
38.39208237
 30
0.0
  0
SPLINE
  5
2DF
100
AcDbEntity
  8
0
100
AcDbSpline
 62
7
  6
BYLAYER
 70
0
 71
3
 72
23
 73
19
 74
0
 42
0.0000001
 43
0.0000001
 44
0.0000000001
 40
0.0
 40
0.0
 40
0.0
 40
0.0
 40
0.0606971286
 40
0.1250179118
 40
0.1923702261
 40
0.2620665266
 40
0.3332995781
 40
0.4052103061
 40
0.4769116432
 40
0.5475249196
 40
0.6162132759
 40
0.6822164095
 40
0.7448888861
 40
0.803744408
 40
0.8585099818
 40
0.9091800101
 40
0.9561043657
 40
1.0
 40
1.0
 40
1.0
 40
1.0
 10
37.0845559716
 20
37.0928658424
 30
0.0
 10
37.1691129653
 20
37.0440479437
 30
0.0
 10
37.3494802488
 20
36.9540055493
 30
0.0
 10
37.6395352711
 20
36.844884681
 30
0.0
 10
37.9524300403
 20
36.7593974346
 30
0.0
 10
38.2823881698
 20
36.699074878
 30
0.0
 10
38.6234325928
 20
36.6650280917
 30
0.0
 10
38.9693122785
 20
36.6578731922
 30
0.0
 10
39.3136996581
 20
36.6777430181
 30
0.0
 10
39.6502918719
 20
36.7242712539
 30
0.0
 10
39.9729406045
 20
36.7966090026
 30
0.0
 10
40.2757693461
 20
36.8934484515
 30
0.0
 10
40.5532830682
 20
37.0130602181
 30
0.0
 10
40.8004776738
 20
37.1533491773
 30
0.0
 10
41.0128809066
 20
37.3119240028
 30
0.0
 10
41.1866523363
 20
37.486220458
 30
0.0
 10
41.3183040224
 20
37.6733602785
 30
0.0
 10
41.3775636334
 20
37.8083218856
 30
0.0
 10
41.3983771825
 20
37.8757951894
 30
0.0
  0
SPLINE
  5
2E0
100
AcDbEntity
  8
0
100
AcDbSpline
 62
7
  6
BYLAYER
 70
0
 71
3
 72
14
 73
10
 74
0
 42
0.0000001
 43
0.0000001
 44
0.0000000001
 40
0.0
 40
0.0
 40
0.0
 40
0.0
 40
0.1084316043
 40
0.2205270208
 40
0.3369904914
 40
0.4584235591
 40
0.7176032705
 40
0.8559754836
 40
1.0
 40
1.0
 40
1.0
 40
1.0
 10
36.3771424548
 20
37.8757831198
 30
0.0
 10
36.3886392168
 20
37.8385147477
 30
0.0
 10
36.4168439554
 20
37.7641312241
 30
0.0
 10
36.4728933233
 20
37.6563837658
 30
0.0
 10
36.5429713991
 20
37.5515143235
 30
0.0
 10
36.6568868356
 20
37.4133983273
 30
0.0
 10
36.7955034726
 20
37.2867628392
 30
0.0
 10
36.9533235244
 20
37.1724300728
 30
0.0
 10
37.0396924329
 20
37.1187672325
 30
0.0
 10
37.0845559716
 20
37.0928658424
 30
0.0
  0
SPLINE
  5
2E1
100
AcDbEntity
  8
0
100
AcDbSpline
 62
7
  6
BYLAYER
 70
0
 71
3
 72
24
 73
20
 74
0
 42
0.0000001
 43
0.0000001
 44
0.0000000001
 40
0.0
 40
0.0
 40
0.0
 40
0.0
 40
0.0609006468
 40
0.1254599186
 40
0.1930825223
 40
0.2630544371
 40
0.3345498973
 40
0.4066881417
 40
0.478562
 40
0.5492747917
 40
0.6179748296
 40
0.6838926759
 40
0.746381837
 40
0.8049649735
 40
0.8593902894
 40
0.9096921812
 40
0.9562735037
 40
0.9784394962
 40
1.0
 40
1.0
 40
1.0
 40
1.0
 10
36.8732320435
 20
36.7472567811
 30
0.0
 10
36.9686487071
 20
36.692169191
 30
0.0
 10
37.1722858018
 20
36.5906577443
 30
0.0
 10
37.4998975219
 20
36.4679647269
 30
0.0
 10
37.8533853148
 20
36.3722151663
 30
0.0
 10
38.2261163178
 20
36.3051757384
 30
0.0
 10
38.6111934635
 20
36.26809417
 30
0.0
 10
39.0014274215
 20
36.2616539476
 30
0.0
 10
39.3895418688
 20
36.2859792336
 30
0.0
 10
39.7682973413
 20
36.3406157754
 30
0.0
 10
40.1306418975
 20
36.4245510618
 30
0.0
 10
40.4698508737
 20
36.5362360454
 30
0.0
 10
40.7796577723
 20
36.6736433795
 30
0.0
 10
41.0543693937
 20
36.8343134418
 30
0.0
 10
41.2889377346
 20
37.0155166331
 30
0.0
 10
41.4789515283
 20
37.2141462795
 30
0.0
 10
41.5989784656
 20
37.3947494758
 30
0.0
 10
41.6672640392
 20
37.5434583655
 30
0.0
 10
41.6923723198
 20
37.618683841
 30
0.0
 10
41.7025651046
 20
37.6563342354
 30
0.0
  0
SPLINE
  5
2E2
100
AcDbEntity
  8
0
100
AcDbSpline
 62
7
  6
BYLAYER
 70
0
 71
3
 72
14
 73
10
 74
0
 42
0.0000001
 43
0.0000001
 44
0.0000000001
 40
0.0
 40
0.0
 40
0.0
 40
0.0
 40
0.1081800209
 40
0.2199447201
 40
0.336095302
 40
0.4573168402
 40
0.7165914721
 40
0.8553567523
 40
1.0
 40
1.0
 40
1.0
 40
1.0
 10
36.072954473
 20
37.6563207035
 30
0.0
 10
36.0846512718
 20
37.6131170981
 30
0.0
 10
36.1142902596
 20
37.5267693533
 30
0.0
 10
36.1754002054
 20
37.4015151128
 30
0.0
 10
36.2533958214
 20
37.2795638751
 30
0.0
 10
36.3819335816
 20
37.1188521467
 30
0.0
 10
36.5403395106
 20
36.9717136072
 30
0.0
 10
36.7217587618
 20
36.839243532
 30
0.0
 10
36.8214040486
 20
36.777179011
 30
0.0
 10
36.8732320435
 20
36.7472567811
 30
0.0
  0
SPLINE
  5
2E3
100
AcDbEntity
  8
0
100
AcDbSpline
 62
7
  6
BYLAYER
 70
0
 71
3
 72
9
 73
5
 74
0
 42
0.0000001
 43
0.0000001
 44
0.0000000001
 40
0.0
 40
0.0
 40
0.0
 40
0.0
 40
0.4977783232
 40
1.0
 40
1.0
 40
1.0
 40
1.0
 10
35.9982900686
 20
37.584134603
 30
0.0
 10
35.9920561873
 20
37.5260858201
 30
0.0
 10
35.9900802265
 20
37.4080800542
 30
0.0
 10
36.0095835054
 20
37.291713666
 30
0.0
 10
36.02428818
 20
37.2346749241
 30
0.0
  0
SPLINE
  5
2E4
100
AcDbEntity
  8
0
100
AcDbSpline
 62
7
  6
BYLAYER
 70
0
 71
3
 72
9
 73
5
 74
0
 42
0.0000001
 43
0.0000001
 44
0.0000000001
 40
0.0
 40
0.0
 40
0.0
 40
0.0
 40
0.2447068971
 40
1.0
 40
1.0
 40
1.0
 40
1.0
 10
39.9484408727
 20
24.620850039
 30
0.0
 10
39.9376984878
 20
24.6146477422
 30
0.0
 10
39.8934659386
 20
24.5898821458
 30
0.0
 10
39.8479682384
 20
24.5673923013
 30
0.0
 10
39.8130875962
 20
24.5516070067
 30
0.0
  0
SPLINE
  5
2E5
100
AcDbEntity
  8
0
100
AcDbSpline
 62
7
  6
BYLAYER
 70
0
 71
3
 72
15
 73
11
 74
0
 42
0.0000001
 43
0.0000001
 44
0.0000000001
 40
0.0
 40
0.0
 40
0.0
 40
0.0
 40
0.1171275895
 40
0.2408604997
 40
0.3692290544
 40
0.499983645
 40
0.6307383196
 40
0.7591107517
 40
0.8828348797
 40
1.0
 40
1.0
 40
1.0
 40
1.0
 10
39.8130875962
 20
24.5516070067
 30
0.0
 10
39.745508188
 20
24.5210238291
 30
0.0
 10
39.6022857507
 20
24.4672708069
 30
0.0
 10
39.3751480376
 20
24.4100101235
 30
0.0
 10
39.1348104031
 20
24.3750134432
 30
0.0
 10
38.8878037055
 20
24.3632412721
 30
0.0
 10
38.6407935613
 20
24.3750029556
 30
0.0
 10
38.4004593003
 20
24.4099976801
 30
0.0
 10
38.1732952955
 20
24.4672398366
 30
0.0
 10
38.0300579515
 20
24.5210067205
 30
0.0
 10
37.962456812
 20
24.5515995276
 30
0.0
  0
SPLINE
  5
2E6
100
AcDbEntity
  8
0
100
AcDbSpline
 62
7
  6
BYLAYER
 70
0
 71
3
 72
9
 73
5
 74
0
 42
0.0000001
 43
0.0000001
 44
0.0000000001
 40
0.0
 40
0.0
 40
0.0
 40
0.0
 40
0.2554606677
 40
1.0
 40
1.0
 40
1.0
 40
1.0
 10
37.962456812
 20
24.5515995276
 30
0.0
 10
37.9506594974
 20
24.5569383868
 30
0.0
 10
37.9047232187
 20
24.5783703562
 30
0.0
 10
37.8597863658
 20
24.601964574
 30
0.0
 10
37.8271022013
 20
24.6208343582
 30
0.0
  0
SPLINE
  5
2E7
100
AcDbEntity
  8
0
100
AcDbSpline
 62
7
  6
BYLAYER
 70
0
 71
3
 72
13
 73
9
 74
0
 42
0.0000001
 43
0.0000001
 44
0.0000000001
 40
0.0
 40
0.0
 40
0.0
 40
0.0
 40
0.2665363672
 40
0.5245059849
 40
0.6487626846
 40
0.7691907283
 40
0.8860185102
 40
1.0
 40
1.0
 40
1.0
 40
1.0
 10
41.3983734593
 20
38.3920944396
 30
0.0
 10
41.4322781518
 20
38.3920945211
 30
0.0
 10
41.4993473039
 20
38.3829794939
 30
0.0
 10
41.5759508255
 20
38.3489040651
 30
0.0
 10
41.6267735995
 20
38.3096794298
 30
0.0
 10
41.6580898183
 20
38.2756718454
 30
0.0
 10
41.682055992
 20
38.2376693307
 30
0.0
 10
41.6926972918
 20
38.2100576518
 30
0.0
 10
41.6965018829
 20
38.1960667364
 30
0.0
  0
SPLINE
  5
2E8
100
AcDbEntity
  8
0
100
AcDbSpline
 62
7
  6
BYLAYER
 70
0
 71
3
 72
23
 73
19
 74
0
 42
0.0000001
 43
0.0000001
 44
0.0000000001
 40
0.0
 40
0.0
 40
0.0
 40
0.0
 40
0.0606971286
 40
0.1250179118
 40
0.1923702261
 40
0.2620665266
 40
0.3332995781
 40
0.4052103061
 40
0.4769116432
 40
0.5475249196
 40
0.6162132759
 40
0.6822164095
 40
0.7448888861
 40
0.803744408
 40
0.8585099818
 40
0.9091800101
 40
0.9561043657
 40
1.0
 40
1.0
 40
1.0
 40
1.0
 10
40.6909599425
 20
39.175011717
 30
0.0
 10
40.6064029489
 20
39.2238296157
 30
0.0
 10
40.4260356654
 20
39.3138720101
 30
0.0
 10
40.135980643
 20
39.4229928783
 30
0.0
 10
39.8230858739
 20
39.5084801248
 30
0.0
 10
39.4931277444
 20
39.5688026814
 30
0.0
 10
39.1520833214
 20
39.6028494677
 30
0.0
 10
38.8062036356
 20
39.6100043672
 30
0.0
 10
38.461816256
 20
39.5901345413
 30
0.0
 10
38.1252240423
 20
39.5436063055
 30
0.0
 10
37.8025753096
 20
39.4712685568
 30
0.0
 10
37.4997465681
 20
39.3744291079
 30
0.0
 10
37.222232846
 20
39.2548173413
 30
0.0
 10
36.9750382403
 20
39.1145283821
 30
0.0
 10
36.7626350075
 20
38.9559535566
 30
0.0
 10
36.5888635778
 20
38.7816571014
 30
0.0
 10
36.4572118917
 20
38.5945172809
 30
0.0
 10
36.3979522808
 20
38.4595556738
 30
0.0
 10
36.3771387316
 20
38.39208237
 30
0.0
  0
SPLINE
  5
2E9
100
AcDbEntity
  8
0
100
AcDbSpline
 62
7
  6
BYLAYER
 70
0
 71
3
 72
15
 73
11
 74
0
 42
0.0000001
 43
0.0000001
 44
0.0000000001
 40
0.0
 40
0.0
 40
0.0
 40
0.0
 40
0.1485263577
 40
0.2895010829
 40
0.4227415638
 40
0.5486452136
 40
0.6679959928
 40
0.7819398889
 40
0.8919882913
 40
1.0
 40
1.0
 40
1.0
 40
1.0
 10
9.542830954
 20
24.6207663712
 30
0.0
 10
9.5090137799
 20
24.6402902841
 30
0.0
 10
9.4446356216
 20
24.6811101309
 30
0.0
 10
9.3565942024
 20
24.7492278506
 30
0.0
 10
9.2804492215
 20
24.8221205596
 30
0.0
 10
9.2169539017
 20
24.8990711746
 30
0.0
 10
9.1667769006
 20
24.9794271526
 30
0.0
 10
9.1304248114
 20
25.062438947
 30
0.0
 10
9.1084286438
 20
25.1472925656
 30
0.0
 10
9.1034864229
 20
25.2047356628
 30
0.0
 10
9.1034867099
 20
25.233132602
 30
0.0
  0
SPLINE
  5
2EA
100
AcDbEntity
  8
0
100
AcDbSpline
 62
7
  6
BYLAYER
 70
0
 71
3
 72
24
 73
20
 74
0
 42
0.0000001
 43
0.0000001
 44
0.0000000001
 40
0.0
 40
0.0
 40
0.0
 40
0.0
 40
0.0609306188
 40
0.1247951288
 40
0.1911652132
 40
0.2595133873
 40
0.3291453757
 40
0.399302421
 40
0.4691920675
 40
0.5380380318
 40
0.6051265696
 40
0.6698531715
 40
0.731772255
 40
0.7906491568
 40
0.8464989104
 40
0.8996176513
 40
0.9505230217
 40
0.9753879628
 40
1.0
 40
1.0
 40
1.0
 40
1.0
 10
12.5566861503
 20
39.1898020954
 30
0.0
 10
12.4616096111
 20
39.244693319
 30
0.0
 10
12.2599225369
 20
39.3453571099
 30
0.0
 10
11.9368845002
 20
39.4663754001
 30
0.0
 10
11.5909756092
 20
39.5598119721
 30
0.0
 10
11.2280667996
 20
39.6245338321
 30
0.0
 10
10.8542730707
 20
39.6596138391
 30
0.0
 10
10.4761038494
 20
39.6645557726
 30
0.0
 10
10.1001612819
 20
39.6392845676
 30
0.0
 10
9.7329908286
 20
39.5841736384
 30
0.0
 10
9.3808913628
 20
39.4999993308
 30
0.0
 10
9.0497625013
 20
39.3878534082
 30
0.0
 10
8.7449920147
 20
39.2490102417
 30
0.0
 10
8.4714723095
 20
39.0847609785
 30
0.0
 10
8.2337204684
 20
38.8962588876
 30
0.0
 10
8.036513409
 20
38.684644734
 30
0.0
 10
7.9092505503
 20
38.4885795276
 30
0.0
 10
7.8345218881
 20
38.3235803693
 30
0.0
 10
7.8063690134
 20
38.2387755417
 30
0.0
 10
7.7947327707
 20
38.1959836542
 30
0.0
  0
SPLINE
  5
2EB
100
AcDbEntity
  8
0
100
AcDbSpline
 62
7
  6
BYLAYER
 70
0
 71
3
 72
14
 73
10
 74
0
 42
0.0000001
 43
0.0000001
 44
0.0000000001
 40
0.0
 40
0.0
 40
0.0
 40
0.0
 40
0.1156748669
 40
0.2328619258
 40
0.3523253746
 40
0.4746178943
 40
0.7292276506
 40
0.8626012947
 40
1.0
 40
1.0
 40
1.0
 40
1.0
 10
13.412236256
 20
38.1959998102
 30
0.0
 10
13.3986338929
 20
38.2460194151
 30
0.0
 10
13.3647363186
 20
38.3450520713
 30
0.0
 10
13.2957146266
 20
38.4874308071
 30
0.0
 10
13.2093679158
 20
38.6235371379
 30
0.0
 10
13.0709673435
 20
38.7980844477
 30
0.0
 10
12.9030492084
 20
38.9554483282
 30
0.0
 10
12.7130727906
 20
39.0947119176
 30
0.0
 10
12.6100085091
 20
39.1590171136
 30
0.0
 10
12.5566861503
 20
39.1898020954
 30
0.0
  0
SPLINE
  5
2EC
100
AcDbEntity
  8
0
100
AcDbSpline
 62
7
  6
BYLAYER
 70
0
 71
3
 72
18
 73
14
 74
0
 42
0.0000001
 43
0.0000001
 44
0.0000000001
 40
0.0
 40
0.0
 40
0.0
 40
0.0
 40
0.1497395598
 40
0.2911502499
 40
0.4241908483
 40
0.4877701297
 40
0.549508346
 40
0.6679568274
 40
0.7811076704
 40
0.8363555473
 40
0.8910546298
 40
0.9455017591
 40
1.0
 40
1.0
 40
1.0
 40
1.0
 10
8.4821751982
 20
35.2761334968
 30
0.0
 10
8.4093404183
 20
35.3181837253
 30
0.0
 10
8.2712480372
 20
35.4063281555
 30
0.0
 10
8.0841606245
 20
35.554532923
 30
0.0
 10
7.9494939274
 20
35.6891177982
 30
0.0
 10
7.8574501926
 20
35.8014327126
 30
0.0
 10
7.7781417682
 20
35.9131457991
 30
0.0
 10
7.6975234674
 20
36.0576081063
 30
0.0
 10
7.6426805251
 20
36.2099983684
 30
0.0
 10
7.6162611717
 20
36.332634193
 30
0.0
 10
7.6050121097
 20
36.4244129161
 30
0.0
 10
7.6022032531
 20
36.5164035653
 30
0.0
 10
7.6059666116
 20
36.5775791922
 30
0.0
 10
7.6092355186
 20
36.6080133175
 30
0.0
  0
SPLINE
  5
2ED
100
AcDbEntity
  8
0
100
AcDbSpline
 62
7
  6
BYLAYER
 70
0
 71
3
 72
30
 73
26
 74
0
 42
0.0000001
 43
0.0000001
 44
0.0000000001
 40
0.0
 40
0.0
 40
0.0
 40
0.0
 40
0.0214866213
 40
0.0430173414
 40
0.0648331733
 40
0.0871593429
 40
0.1101955438
 40
0.1341072241
 40
0.1590252939
 40
0.1850417336
 40
0.2122165874
 40
0.2405749405
 40
0.2701162661
 40
0.3008123045
 40
0.3654281197
 40
0.433848235
 40
0.5052414177
 40
0.578620791
 40
0.6529037479
 40
0.7269636514
 40
0.7996864719
 40
0.8700192855
 40
0.9370349915
 40
0.9690753292
 40
1.0
 40
1.0
 40
1.0
 40
1.0
 10
13.5977333394
 20
36.6080131758
 30
0.0
 10
13.602390108
 20
36.5646193845
 30
0.0
 10
13.6060822273
 20
36.4770263787
 30
0.0
 10
13.5942748147
 20
36.3455095376
 30
0.0
 10
13.5652355329
 20
36.2149430376
 30
0.0
 10
13.5191717847
 20
36.0861479746
 30
0.0
 10
13.4563995745
 20
35.9598790642
 30
0.0
 10
13.3773551345
 20
35.8368386338
 30
0.0
 10
13.2825005444
 20
35.717729754
 30
0.0
 10
13.1724391151
 20
35.6031708031
 30
0.0
 10
13.0477757409
 20
35.4938230218
 30
0.0
 10
12.9092585046
 20
35.3902448527
 30
0.0
 10
12.7576441644
 20
35.2930401143
 30
0.0
 10
12.5354213026
 20
35.1705359914
 30
0.0
 10
12.2296756377
 20
35.0376071731
 30
0.0
 10
11.8326359714
 20
34.9137283119
 30
0.0
 10
11.4080275939
 20
34.8255043046
 30
0.0
 10
10.9653869025
 20
34.774905817
 30
0.0
 10
10.5146191063
 20
34.7630634273
 30
0.0
 10
10.0658500367
 20
34.7902357891
 30
0.0
 10
9.6291382467
 20
34.8558291308
 30
0.0
 10
9.2142957338
 20
34.9583541023
 30
0.0
 10
8.8896232421
 20
35.0744303615
 30
0.0
 10
8.6494944683
 20
35.184462906
 30
0.0
 10
8.536573343
 20
35.2447274238
 30
0.0
 10
8.4821751982
 20
35.2761334968
 30
0.0
  0
LINE
  5
2EE
100
AcDbEntity
  8
0
100
AcDbLine
 62
7
  6
BYLAYER
 10
7.740013384
 20
37.726717015
 11
7.7886795623
 21
38.1642716115
  0
LINE
  5
2EF
100
AcDbEntity
  8
0
100
AcDbLine
 62
7
  6
BYLAYER
 10
7.7886832258
 20
37.6562527164
 11
7.7400169328
 21
37.2346069371
  0
LINE
  5
2F0
100
AcDbEntity
  8
0
100
AcDbLine
 62
7
  6
BYLAYER
 10
13.4669600357
 20
37.234620703
 11
13.4182938574
 21
37.6562662484
  0
LINE
  5
2F1
100
AcDbEntity
  8
0
100
AcDbLine
 62
7
  6
BYLAYER
 10
13.4182901939
 20
38.1642851434
 11
13.466956487
 21
37.7267307808
  0
SPLINE
  5
2F2
100
AcDbEntity
  8
0
100
AcDbSpline
 62
7
  6
BYLAYER
 70
0
 71
3
 72
13
 73
9
 74
0
 42
0.0000001
 43
0.0000001
 44
0.0000000001
 40
0.0
 40
0.0
 40
0.0
 40
0.0
 40
0.1111675623
 40
0.2254080617
 40
0.3439510835
 40
0.4675038977
 40
0.7277343458
 40
1.0
 40
1.0
 40
1.0
 40
1.0
 10
13.4182938574
 20
37.6562662484
 30
0.0
 10
13.4165587097
 20
37.6712755656
 30
0.0
 10
13.4093791011
 20
37.7013937691
 30
0.0
 10
13.3884401224
 20
37.7435855846
 30
0.0
 10
13.3581198351
 20
37.7817818725
 30
0.0
 10
13.305995216
 20
37.8264207366
 30
0.0
 10
13.2239050466
 20
37.8653596233
 30
0.0
 10
13.1511107766
 20
37.8757272913
 30
0.0
 10
13.1141059353
 20
37.8757272023
 30
0.0
  0
SPLINE
  5
2F3
100
AcDbEntity
  8
0
100
AcDbSpline
 62
7
  6
BYLAYER
 70
0
 71
3
 72
13
 73
9
 74
0
 42
0.0000001
 43
0.0000001
 44
0.0000000001
 40
0.0
 40
0.0
 40
0.0
 40
0.0
 40
0.2722664244
 40
0.5325017335
 40
0.6560563684
 40
0.7745997137
 40
0.8888358986
 40
1.0
 40
1.0
 40
1.0
 40
1.0
 10
8.0928712076
 20
37.8757151328
 30
0.0
 10
8.0558661993
 20
37.8757150438
 30
0.0
 10
7.9830711177
 20
37.8653467707
 30
0.0
 10
7.9009800727
 20
37.8264068308
 30
0.0
 10
7.8488552479
 20
37.7817664749
 30
0.0
 10
7.8185358768
 20
37.7435698214
 30
0.0
 10
7.7975969889
 20
37.7013789878
 30
0.0
 10
7.7904183255
 20
37.6712615913
 30
0.0
 10
7.7886832258
 20
37.6562527164
 30
0.0
  0
SPLINE
  5
2F4
100
AcDbEntity
  8
0
100
AcDbSpline
 62
7
  6
BYLAYER
 70
0
 71
3
 72
15
 73
11
 74
0
 42
0.0000001
 43
0.0000001
 44
0.0000000001
 40
0.0
 40
0.0
 40
0.0
 40
0.0
 40
0.1080131281
 40
0.2180612219
 40
0.3320010908
 40
0.4513569006
 40
0.5772797606
 40
0.7104997397
 40
0.8513973507
 40
1.0
 40
1.0
 40
1.0
 40
1.0
 10
12.1034867098
 20
25.233132602
 30
0.0
 10
12.1034864228
 20
25.2047364135
 30
0.0
 10
12.0985433941
 20
25.1472954617
 30
0.0
 10
12.0765502471
 20
25.0624456971
 30
0.0
 10
12.0402044588
 20
24.9794348148
 30
0.0
 10
11.9900254932
 20
24.8990776499
 30
0.0
 10
11.9265264478
 20
24.8221341866
 30
0.0
 10
11.8504058655
 20
24.7492528564
 30
0.0
 10
11.7623813017
 20
24.6811290712
 30
0.0
 10
11.6980023969
 20
24.6403159723
 30
0.0
 10
11.6641696255
 20
24.620782052
 30
0.0
  0
SPLINE
  5
2F5
100
AcDbEntity
  8
0
100
AcDbSpline
 62
7
  6
BYLAYER
 70
0
 71
3
 72
16
 73
12
 74
0
 42
0.0000001
 43
0.0000001
 44
0.0000000001
 40
0.0
 40
0.0
 40
0.0
 40
0.0
 40
0.1141419491
 40
0.2373006744
 40
0.3669382461
 40
0.4999508312
 40
0.6329624907
 40
0.7626036032
 40
0.8857680626
 40
0.9441628335
 40
1.0
 40
1.0
 40
1.0
 40
1.0
 10
11.5227434683
 20
24.5391293293
 30
0.0
 10
11.459815912
 20
24.5027971288
 30
0.0
 10
11.3222129329
 20
24.4387178288
 30
0.0
 10
11.0981326464
 20
24.370607136
 30
0.0
 10
10.8555269524
 20
24.328681067
 30
0.0
 10
10.60351526
 20
24.314532712
 30
0.0
 10
10.3514844546
 20
24.3286773284
 30
0.0
 10
10.1089200081
 20
24.3705873372
 30
0.0
 10
9.9187393014
 20
24.4283787366
 30
0.0
 10
9.7796224433
 20
24.4877130839
 30
0.0
 10
9.7150356666
 20
24.5213420017
 30
0.0
 10
9.6842517215
 20
24.5391147186
 30
0.0
  0
SPLINE
  5
2F6
100
AcDbEntity
  8
0
100
AcDbSpline
 62
7
  6
BYLAYER
 70
0
 71
3
 72
14
 73
10
 74
0
 42
0.0000001
 43
0.0000001
 44
0.0000000001
 40
0.0
 40
0.0
 40
0.0
 40
0.0
 40
0.1084316043
 40
0.2205270208
 40
0.3369904914
 40
0.4584235591
 40
0.7176032705
 40
0.8559754836
 40
1.0
 40
1.0
 40
1.0
 40
1.0
 10
13.1141022121
 20
38.3920264526
 30
0.0
 10
13.1026054501
 20
38.4292948247
 30
0.0
 10
13.0744007115
 20
38.5036783483
 30
0.0
 10
13.0183513436
 20
38.6114258066
 30
0.0
 10
12.9482732678
 20
38.7162952488
 30
0.0
 10
12.8343578313
 20
38.8544112451
 30
0.0
 10
12.6957411943
 20
38.9810467332
 30
0.0
 10
12.5379211425
 20
39.0953794995
 30
0.0
 10
12.451552234
 20
39.1490423398
 30
0.0
 10
12.4066886953
 20
39.17494373
 30
0.0
  0
SPLINE
  5
2F7
100
AcDbEntity
  8
0
100
AcDbSpline
 62
7
  6
BYLAYER
 70
0
 71
3
 72
9
 73
5
 74
0
 42
0.0000001
 43
0.0000001
 44
0.0000000001
 40
0.0
 40
0.0
 40
0.0
 40
0.0
 40
0.5022213777
 40
1.0
 40
1.0
 40
1.0
 40
1.0
 10
13.4669600357
 20
37.234620703
 30
0.0
 10
13.4816633213
 20
37.2916573187
 30
0.0
 10
13.5011645392
 20
37.4080191841
 30
0.0
 10
13.499188233
 20
37.5260201344
 30
0.0
 10
13.4929545988
 20
37.584066616
 30
0.0
  0
SPLINE
  5
2F8
100
AcDbEntity
  8
0
100
AcDbSpline
 62
7
  6
BYLAYER
 70
0
 71
3
 72
13
 73
9
 74
0
 42
0.0000001
 43
0.0000001
 44
0.0000000001
 40
0.0
 40
0.0
 40
0.0
 40
0.0
 40
0.1139871521
 40
0.2308165878
 40
0.3512434399
 40
0.475498341
 40
0.7334638369
 40
1.0
 40
1.0
 40
1.0
 40
1.0
 10
7.7947386684
 20
38.1959825413
 30
0.0
 10
7.7985434097
 20
38.2099742934
 30
0.0
 10
7.809184245
 20
38.2375874434
 30
0.0
 10
7.833151388
 20
38.2755908328
 30
0.0
 10
7.8644677657
 20
38.3095985167
 30
0.0
 10
7.9152900385
 20
38.3488232423
 30
0.0
 10
7.9918933951
 20
38.3828988722
 30
0.0
 10
8.0589625221
 20
38.3920143015
 30
0.0
 10
8.0928674844
 20
38.392014383
 30
0.0
  0
SPLINE
  5
2F9
100
AcDbEntity
  8
0
100
AcDbSpline
 62
7
  6
BYLAYER
 70
0
 71
3
 72
23
 73
19
 74
0
 42
0.0000001
 43
0.0000001
 44
0.0000000001
 40
0.0
 40
0.0
 40
0.0
 40
0.0
 40
0.0606971286
 40
0.1250179118
 40
0.1923702261
 40
0.2620665266
 40
0.3332995781
 40
0.4052103061
 40
0.4769116432
 40
0.5475249196
 40
0.6162132759
 40
0.6822164095
 40
0.7448888861
 40
0.803744408
 40
0.8585099818
 40
0.9091800101
 40
0.9561043657
 40
1.0
 40
1.0
 40
1.0
 40
1.0
 10
8.8002847244
 20
37.0927978553
 30
0.0
 10
8.884841718
 20
37.0439799567
 30
0.0
 10
9.0652090015
 20
36.9539375623
 30
0.0
 10
9.3552640239
 20
36.844816694
 30
0.0
 10
9.6681587931
 20
36.7593294476
 30
0.0
 10
9.9981169226
 20
36.699006891
 30
0.0
 10
10.3391613456
 20
36.6649601047
 30
0.0
 10
10.6850410313
 20
36.6578052051
 30
0.0
 10
11.0294284109
 20
36.677675031
 30
0.0
 10
11.3660206246
 20
36.7242032669
 30
0.0
 10
11.6886693573
 20
36.7965410156
 30
0.0
 10
11.9914980989
 20
36.8933804645
 30
0.0
 10
12.2690118209
 20
37.0129922311
 30
0.0
 10
12.5162064266
 20
37.1532811903
 30
0.0
 10
12.7286096594
 20
37.3118560157
 30
0.0
 10
12.9023810891
 20
37.486152471
 30
0.0
 10
13.0340327752
 20
37.6732922915
 30
0.0
 10
13.0932923861
 20
37.8082538985
 30
0.0
 10
13.1141059353
 20
37.8757272023
 30
0.0
  0
SPLINE
  5
2FA
100
AcDbEntity
  8
0
100
AcDbSpline
 62
7
  6
BYLAYER
 70
0
 71
3
 72
14
 73
10
 74
0
 42
0.0000001
 43
0.0000001
 44
0.0000000001
 40
0.0
 40
0.0
 40
0.0
 40
0.0
 40
0.1084316043
 40
0.2205270208
 40
0.3369904914
 40
0.4584235591
 40
0.7176032705
 40
0.8559754836
 40
1.0
 40
1.0
 40
1.0
 40
1.0
 10
8.0928712076
 20
37.8757151328
 30
0.0
 10
8.1043679696
 20
37.8384467607
 30
0.0
 10
8.1325727082
 20
37.7640632371
 30
0.0
 10
8.1886220761
 20
37.6563157788
 30
0.0
 10
8.2587001519
 20
37.5514463365
 30
0.0
 10
8.3726155884
 20
37.4133303402
 30
0.0
 10
8.5112322254
 20
37.2866948521
 30
0.0
 10
8.6690522772
 20
37.1723620858
 30
0.0
 10
8.7554211857
 20
37.1186992455
 30
0.0
 10
8.8002847244
 20
37.0927978553
 30
0.0
  0
SPLINE
  5
2FB
100
AcDbEntity
  8
0
100
AcDbSpline
 62
7
  6
BYLAYER
 70
0
 71
3
 72
24
 73
20
 74
0
 42
0.0000001
 43
0.0000001
 44
0.0000000001
 40
0.0
 40
0.0
 40
0.0
 40
0.0
 40
0.0609006468
 40
0.1254599186
 40
0.1930825223
 40
0.2630544371
 40
0.3345498973
 40
0.4066881417
 40
0.478562
 40
0.5492747917
 40
0.6179748296
 40
0.6838926759
 40
0.746381837
 40
0.8049649735
 40
0.8593902894
 40
0.9096921812
 40
0.9562735037
 40
0.9784394962
 40
1.0
 40
1.0
 40
1.0
 40
1.0
 10
8.5889607963
 20
36.7471887941
 30
0.0
 10
8.6843774599
 20
36.6921012039
 30
0.0
 10
8.8880145546
 20
36.5905897573
 30
0.0
 10
9.2156262747
 20
36.4678967399
 30
0.0
 10
9.5691140676
 20
36.3721471793
 30
0.0
 10
9.9418450706
 20
36.3051077514
 30
0.0
 10
10.3269222163
 20
36.268026183
 30
0.0
 10
10.7171561743
 20
36.2615859606
 30
0.0
 10
11.1052706216
 20
36.2859112465
 30
0.0
 10
11.4840260941
 20
36.3405477884
 30
0.0
 10
11.8463706503
 20
36.4244830748
 30
0.0
 10
12.1855796265
 20
36.5361680584
 30
0.0
 10
12.4953865251
 20
36.6735753925
 30
0.0
 10
12.7700981465
 20
36.8342454548
 30
0.0
 10
13.0046664874
 20
37.0154486461
 30
0.0
 10
13.1946802811
 20
37.2140782925
 30
0.0
 10
13.3147072184
 20
37.3946814888
 30
0.0
 10
13.382992792
 20
37.5433903785
 30
0.0
 10
13.4081010726
 20
37.618615854
 30
0.0
 10
13.4182938574
 20
37.6562662484
 30
0.0
  0
SPLINE
  5
2FC
100
AcDbEntity
  8
0
100
AcDbSpline
 62
7
  6
BYLAYER
 70
0
 71
3
 72
14
 73
10
 74
0
 42
0.0000001
 43
0.0000001
 44
0.0000000001
 40
0.0
 40
0.0
 40
0.0
 40
0.0
 40
0.1081800209
 40
0.2199447201
 40
0.336095302
 40
0.4573168402
 40
0.7165914721
 40
0.8553567523
 40
1.0
 40
1.0
 40
1.0
 40
1.0
 10
7.7886832258
 20
37.6562527164
 30
0.0
 10
7.8003800246
 20
37.6130491111
 30
0.0
 10
7.8300190124
 20
37.5267013663
 30
0.0
 10
7.8911289582
 20
37.4014471258
 30
0.0
 10
7.9691245742
 20
37.2794958881
 30
0.0
 10
8.0976623344
 20
37.1187841597
 30
0.0
 10
8.2560682634
 20
36.9716456201
 30
0.0
 10
8.4374875146
 20
36.839175545
 30
0.0
 10
8.5371328013
 20
36.777111024
 30
0.0
 10
8.5889607963
 20
36.7471887941
 30
0.0
  0
SPLINE
  5
2FD
100
AcDbEntity
  8
0
100
AcDbSpline
 62
7
  6
BYLAYER
 70
0
 71
3
 72
9
 73
5
 74
0
 42
0.0000001
 43
0.0000001
 44
0.0000000001
 40
0.0
 40
0.0
 40
0.0
 40
0.0
 40
0.4977783232
 40
1.0
 40
1.0
 40
1.0
 40
1.0
 10
7.7140188214
 20
37.584066616
 30
0.0
 10
7.7077849401
 20
37.5260178331
 30
0.0
 10
7.7058089792
 20
37.4080120671
 30
0.0
 10
7.7253122582
 20
37.291645679
 30
0.0
 10
7.7400169328
 20
37.2346069371
 30
0.0
  0
SPLINE
  5
2FE
100
AcDbEntity
  8
0
100
AcDbSpline
 62
7
  6
BYLAYER
 70
0
 71
3
 72
9
 73
5
 74
0
 42
0.0000001
 43
0.0000001
 44
0.0000000001
 40
0.0
 40
0.0
 40
0.0
 40
0.0
 40
0.2447068971
 40
1.0
 40
1.0
 40
1.0
 40
1.0
 10
11.6641696255
 20
24.620782052
 30
0.0
 10
11.6534272406
 20
24.6145797551
 30
0.0
 10
11.6091946914
 20
24.5898141588
 30
0.0
 10
11.5636969912
 20
24.5673243143
 30
0.0
 10
11.528816349
 20
24.5515390196
 30
0.0
  0
SPLINE
  5
2FF
100
AcDbEntity
  8
0
100
AcDbSpline
 62
7
  6
BYLAYER
 70
0
 71
3
 72
15
 73
11
 74
0
 42
0.0000001
 43
0.0000001
 44
0.0000000001
 40
0.0
 40
0.0
 40
0.0
 40
0.0
 40
0.1171275895
 40
0.2408604997
 40
0.3692290544
 40
0.499983645
 40
0.6307383196
 40
0.7591107517
 40
0.8828348797
 40
1.0
 40
1.0
 40
1.0
 40
1.0
 10
11.528816349
 20
24.5515390196
 30
0.0
 10
11.4612369408
 20
24.5209558421
 30
0.0
 10
11.3180145035
 20
24.4672028199
 30
0.0
 10
11.0908767904
 20
24.4099421365
 30
0.0
 10
10.8505391559
 20
24.3749454562
 30
0.0
 10
10.6035324583
 20
24.3631732851
 30
0.0
 10
10.3565223141
 20
24.3749349686
 30
0.0
 10
10.1161880531
 20
24.4099296931
 30
0.0
 10
9.8890240483
 20
24.4671718496
 30
0.0
 10
9.7457867043
 20
24.5209387335
 30
0.0
 10
9.6781855648
 20
24.5515315406
 30
0.0
  0
SPLINE
  5
300
100
AcDbEntity
  8
0
100
AcDbSpline
 62
7
  6
BYLAYER
 70
0
 71
3
 72
9
 73
5
 74
0
 42
0.0000001
 43
0.0000001
 44
0.0000000001
 40
0.0
 40
0.0
 40
0.0
 40
0.0
 40
0.2554606677
 40
1.0
 40
1.0
 40
1.0
 40
1.0
 10
9.6781855648
 20
24.5515315406
 30
0.0
 10
9.6663882502
 20
24.5568703998
 30
0.0
 10
9.6204519714
 20
24.5783023692
 30
0.0
 10
9.5755151185
 20
24.6018965869
 30
0.0
 10
9.542830954
 20
24.6207663712
 30
0.0
  0
SPLINE
  5
301
100
AcDbEntity
  8
0
100
AcDbSpline
 62
7
  6
BYLAYER
 70
0
 71
3
 72
13
 73
9
 74
0
 42
0.0000001
 43
0.0000001
 44
0.0000000001
 40
0.0
 40
0.0
 40
0.0
 40
0.0
 40
0.2665363672
 40
0.5245059849
 40
0.6487626846
 40
0.7691907283
 40
0.8860185102
 40
1.0
 40
1.0
 40
1.0
 40
1.0
 10
13.1141022121
 20
38.3920264526
 30
0.0
 10
13.1480069046
 20
38.3920265341
 30
0.0
 10
13.2150760567
 20
38.3829115069
 30
0.0
 10
13.2916795782
 20
38.3488360781
 30
0.0
 10
13.3425023522
 20
38.3096114428
 30
0.0
 10
13.3738185711
 20
38.2756038584
 30
0.0
 10
13.3977847448
 20
38.2376013437
 30
0.0
 10
13.4084260446
 20
38.2099896648
 30
0.0
 10
13.4122306357
 20
38.1959987493
 30
0.0
  0
SPLINE
  5
302
100
AcDbEntity
  8
0
100
AcDbSpline
 62
7
  6
BYLAYER
 70
0
 71
3
 72
23
 73
19
 74
0
 42
0.0000001
 43
0.0000001
 44
0.0000000001
 40
0.0
 40
0.0
 40
0.0
 40
0.0
 40
0.0606971286
 40
0.1250179118
 40
0.1923702261
 40
0.2620665266
 40
0.3332995781
 40
0.4052103061
 40
0.4769116432
 40
0.5475249196
 40
0.6162132759
 40
0.6822164095
 40
0.7448888861
 40
0.803744408
 40
0.8585099818
 40
0.9091800101
 40
0.9561043657
 40
1.0
 40
1.0
 40
1.0
 40
1.0
 10
12.4066886953
 20
39.17494373
 30
0.0
 10
12.3221317017
 20
39.2237616287
 30
0.0
 10
12.1417644182
 20
39.3138040231
 30
0.0
 10
11.8517093958
 20
39.4229248913
 30
0.0
 10
11.5388146266
 20
39.5084121378
 30
0.0
 10
11.2088564971
 20
39.5687346944
 30
0.0
 10
10.8678120742
 20
39.6027814806
 30
0.0
 10
10.5219323884
 20
39.6099363802
 30
0.0
 10
10.1775450088
 20
39.5900665543
 30
0.0
 10
9.8409527951
 20
39.5435383185
 30
0.0
 10
9.5183040624
 20
39.4712005698
 30
0.0
 10
9.2154753209
 20
39.3743611209
 30
0.0
 10
8.9379615988
 20
39.2547493543
 30
0.0
 10
8.6907669931
 20
39.1144603951
 30
0.0
 10
8.4783637603
 20
38.9558855696
 30
0.0
 10
8.3045923306
 20
38.7815891144
 30
0.0
 10
8.1729406445
 20
38.5944492939
 30
0.0
 10
8.1136810336
 20
38.4594876868
 30
0.0
 10
8.0928674844
 20
38.392014383
 30
0.0
  0
SPLINE
  5
303
100
AcDbEntity
  8
0
100
AcDbSpline
 62
7
  6
BYLAYER
 70
0
 71
3
 72
15
 73
11
 74
0
 42
0.0000001
 43
0.0000001
 44
0.0000000001
 40
0.0
 40
0.0
 40
0.0
 40
0.0
 40
0.1485263577
 40
0.2895010829
 40
0.4227415638
 40
0.5486452136
 40
0.6679959928
 40
0.7819398889
 40
0.8919882913
 40
1.0
 40
1.0
 40
1.0
 40
1.0
 10
23.685025457
 20
16.4559512808
 30
0.0
 10
23.6512082828
 20
16.4754751937
 30
0.0
 10
23.5868301246
 20
16.5162950405
 30
0.0
 10
23.4987887054
 20
16.5844127602
 30
0.0
 10
23.4226437244
 20
16.6573054692
 30
0.0
 10
23.3591484046
 20
16.7342560842
 30
0.0
 10
23.3089714035
 20
16.8146120622
 30
0.0
 10
23.2726193144
 20
16.8976238566
 30
0.0
 10
23.2506231467
 20
16.9824774752
 30
0.0
 10
23.2456809258
 20
17.0399205724
 30
0.0
 10
23.2456812128
 20
17.0683175116
 30
0.0
  0
SPLINE
  5
304
100
AcDbEntity
  8
0
100
AcDbSpline
 62
7
  6
BYLAYER
 70
0
 71
3
 72
24
 73
20
 74
0
 42
0.0000001
 43
0.0000001
 44
0.0000000001
 40
0.0
 40
0.0
 40
0.0
 40
0.0
 40
0.0609306188
 40
0.1247951288
 40
0.1911652132
 40
0.2595133873
 40
0.3291453757
 40
0.399302421
 40
0.4691920675
 40
0.5380380318
 40
0.6051265696
 40
0.6698531715
 40
0.731772255
 40
0.7906491568
 40
0.8464989104
 40
0.8996176513
 40
0.9505230217
 40
0.9753879628
 40
1.0
 40
1.0
 40
1.0
 40
1.0
 10
26.6988806532
 20
31.024987005
 30
0.0
 10
26.6038041141
 20
31.0798782286
 30
0.0
 10
26.4021170399
 20
31.1805420195
 30
0.0
 10
26.0790790032
 20
31.3015603097
 30
0.0
 10
25.7331701121
 20
31.3949968816
 30
0.0
 10
25.3702613025
 20
31.4597187417
 30
0.0
 10
24.9964675737
 20
31.4947987487
 30
0.0
 10
24.6182983523
 20
31.4997406822
 30
0.0
 10
24.2423557848
 20
31.4744694772
 30
0.0
 10
23.8751853315
 20
31.419358548
 30
0.0
 10
23.5230858658
 20
31.3351842404
 30
0.0
 10
23.1919570042
 20
31.2230383178
 30
0.0
 10
22.8871865176
 20
31.0841951513
 30
0.0
 10
22.6136668124
 20
30.9199458881
 30
0.0
 10
22.3759149714
 20
30.7314437972
 30
0.0
 10
22.1787079119
 20
30.5198296436
 30
0.0
 10
22.0514450532
 20
30.3237644372
 30
0.0
 10
21.9767163911
 20
30.1587652789
 30
0.0
 10
21.9485635164
 20
30.0739604513
 30
0.0
 10
21.9369272737
 20
30.0311685638
 30
0.0
  0
SPLINE
  5
305
100
AcDbEntity
  8
0
100
AcDbSpline
 62
7
  6
BYLAYER
 70
0
 71
3
 72
14
 73
10
 74
0
 42
0.0000001
 43
0.0000001
 44
0.0000000001
 40
0.0
 40
0.0
 40
0.0
 40
0.0
 40
0.1156748669
 40
0.2328619258
 40
0.3523253746
 40
0.4746178943
 40
0.7292276506
 40
0.8626012947
 40
1.0
 40
1.0
 40
1.0
 40
1.0
 10
27.5544307589
 20
30.0311847198
 30
0.0
 10
27.5408283958
 20
30.0812043247
 30
0.0
 10
27.5069308216
 20
30.1802369809
 30
0.0
 10
27.4379091295
 20
30.3226157167
 30
0.0
 10
27.3515624187
 20
30.4587220475
 30
0.0
 10
27.2131618464
 20
30.6332693573
 30
0.0
 10
27.0452437114
 20
30.7906332378
 30
0.0
 10
26.8552672936
 20
30.9298968272
 30
0.0
 10
26.752203012
 20
30.9942020232
 30
0.0
 10
26.6988806532
 20
31.024987005
 30
0.0
  0
SPLINE
  5
306
100
AcDbEntity
  8
0
100
AcDbSpline
 62
7
  6
BYLAYER
 70
0
 71
3
 72
18
 73
14
 74
0
 42
0.0000001
 43
0.0000001
 44
0.0000000001
 40
0.0
 40
0.0
 40
0.0
 40
0.0
 40
0.1497395598
 40
0.2911502499
 40
0.4241908483
 40
0.4877701297
 40
0.549508346
 40
0.6679568274
 40
0.7811076704
 40
0.8363555473
 40
0.8910546298
 40
0.9455017591
 40
1.0
 40
1.0
 40
1.0
 40
1.0
 10
22.6243697012
 20
27.1113184064
 30
0.0
 10
22.5515349213
 20
27.1533686349
 30
0.0
 10
22.4134425402
 20
27.241513065
 30
0.0
 10
22.2263551274
 20
27.3897178326
 30
0.0
 10
22.0916884303
 20
27.5243027078
 30
0.0
 10
21.9996446955
 20
27.6366176222
 30
0.0
 10
21.9203362712
 20
27.7483307087
 30
0.0
 10
21.8397179704
 20
27.8927930159
 30
0.0
 10
21.784875028
 20
28.045183278
 30
0.0
 10
21.7584556746
 20
28.1678191026
 30
0.0
 10
21.7472066127
 20
28.2595978257
 30
0.0
 10
21.744397756
 20
28.3515884749
 30
0.0
 10
21.7481611145
 20
28.4127641018
 30
0.0
 10
21.7514300215
 20
28.4431982271
 30
0.0
  0
SPLINE
  5
307
100
AcDbEntity
  8
0
100
AcDbSpline
 62
7
  6
BYLAYER
 70
0
 71
3
 72
30
 73
26
 74
0
 42
0.0000001
 43
0.0000001
 44
0.0000000001
 40
0.0
 40
0.0
 40
0.0
 40
0.0
 40
0.0214866213
 40
0.0430173414
 40
0.0648331733
 40
0.0871593429
 40
0.1101955438
 40
0.1341072241
 40
0.1590252939
 40
0.1850417336
 40
0.2122165874
 40
0.2405749405
 40
0.2701162661
 40
0.3008123045
 40
0.3654281197
 40
0.433848235
 40
0.5052414177
 40
0.578620791
 40
0.6529037479
 40
0.7269636514
 40
0.7996864719
 40
0.8700192855
 40
0.9370349915
 40
0.9690753292
 40
1.0
 40
1.0
 40
1.0
 40
1.0
 10
27.7399278424
 20
28.4431980854
 30
0.0
 10
27.744584611
 20
28.3998042941
 30
0.0
 10
27.7482767302
 20
28.3122112883
 30
0.0
 10
27.7364693177
 20
28.1806944472
 30
0.0
 10
27.7074300358
 20
28.0501279472
 30
0.0
 10
27.6613662876
 20
27.9213328842
 30
0.0
 10
27.5985940774
 20
27.7950639738
 30
0.0
 10
27.5195496374
 20
27.6720235434
 30
0.0
 10
27.4246950473
 20
27.5529146636
 30
0.0
 10
27.314633618
 20
27.4383557127
 30
0.0
 10
27.1899702438
 20
27.3290079314
 30
0.0
 10
27.0514530075
 20
27.2254297623
 30
0.0
 10
26.8998386674
 20
27.1282250239
 30
0.0
 10
26.6776158055
 20
27.005720901
 30
0.0
 10
26.3718701407
 20
26.8727920827
 30
0.0
 10
25.9748304743
 20
26.7489132215
 30
0.0
 10
25.5502220968
 20
26.6606892142
 30
0.0
 10
25.1075814054
 20
26.6100907266
 30
0.0
 10
24.6568136092
 20
26.5982483369
 30
0.0
 10
24.2080445396
 20
26.6254206987
 30
0.0
 10
23.7713327496
 20
26.6910140404
 30
0.0
 10
23.3564902367
 20
26.7935390119
 30
0.0
 10
23.031817745
 20
26.9096152711
 30
0.0
 10
22.7916889712
 20
27.0196478156
 30
0.0
 10
22.6787678459
 20
27.0799123334
 30
0.0
 10
22.6243697012
 20
27.1113184064
 30
0.0
  0
LINE
  5
308
100
AcDbEntity
  8
0
100
AcDbLine
 62
7
  6
BYLAYER
 10
21.8822078869
 20
29.5619019245
 11
21.9308740652
 21
29.9994565211
  0
LINE
  5
309
100
AcDbEntity
  8
0
100
AcDbLine
 62
7
  6
BYLAYER
 10
21.9308777287
 20
29.491437626
 11
21.8822114357
 21
29.0697918467
  0
LINE
  5
30A
100
AcDbEntity
  8
0
100
AcDbLine
 62
7
  6
BYLAYER
 10
27.6091545387
 20
29.0698056126
 11
27.5604883604
 21
29.4914511579
  0
LINE
  5
30B
100
AcDbEntity
  8
0
100
AcDbLine
 62
7
  6
BYLAYER
 10
27.5604846969
 20
29.999470053
 11
27.6091509899
 21
29.5619156904
  0
SPLINE
  5
30C
100
AcDbEntity
  8
0
100
AcDbSpline
 62
7
  6
BYLAYER
 70
0
 71
3
 72
13
 73
9
 74
0
 42
0.0000001
 43
0.0000001
 44
0.0000000001
 40
0.0
 40
0.0
 40
0.0
 40
0.0
 40
0.1111675623
 40
0.2254080617
 40
0.3439510835
 40
0.4675038977
 40
0.7277343458
 40
1.0
 40
1.0
 40
1.0
 40
1.0
 10
27.5604883604
 20
29.4914511579
 30
0.0
 10
27.5587532126
 20
29.5064604752
 30
0.0
 10
27.551573604
 20
29.5365786787
 30
0.0
 10
27.5306346253
 20
29.5787704942
 30
0.0
 10
27.500314338
 20
29.6169667821
 30
0.0
 10
27.4481897189
 20
29.6616056462
 30
0.0
 10
27.3660995495
 20
29.7005445329
 30
0.0
 10
27.2933052796
 20
29.7109122009
 30
0.0
 10
27.2563004383
 20
29.7109121119
 30
0.0
  0
SPLINE
  5
30D
100
AcDbEntity
  8
0
100
AcDbSpline
 62
7
  6
BYLAYER
 70
0
 71
3
 72
13
 73
9
 74
0
 42
0.0000001
 43
0.0000001
 44
0.0000000001
 40
0.0
 40
0.0
 40
0.0
 40
0.0
 40
0.2722664244
 40
0.5325017335
 40
0.6560563684
 40
0.7745997137
 40
0.8888358986
 40
1.0
 40
1.0
 40
1.0
 40
1.0
 10
22.2350657105
 20
29.7109000424
 30
0.0
 10
22.1980607022
 20
29.7108999534
 30
0.0
 10
22.1252656207
 20
29.7005316803
 30
0.0
 10
22.0431745756
 20
29.6615917404
 30
0.0
 10
21.9910497509
 20
29.6169513845
 30
0.0
 10
21.9607303797
 20
29.578754731
 30
0.0
 10
21.9397914918
 20
29.5365638974
 30
0.0
 10
21.9326128285
 20
29.5064465009
 30
0.0
 10
21.9308777287
 20
29.491437626
 30
0.0
  0
SPLINE
  5
30E
100
AcDbEntity
  8
0
100
AcDbSpline
 62
7
  6
BYLAYER
 70
0
 71
3
 72
15
 73
11
 74
0
 42
0.0000001
 43
0.0000001
 44
0.0000000001
 40
0.0
 40
0.0
 40
0.0
 40
0.0
 40
0.1080131281
 40
0.2180612219
 40
0.3320010908
 40
0.4513569006
 40
0.5772797606
 40
0.7104997397
 40
0.8513973507
 40
1.0
 40
1.0
 40
1.0
 40
1.0
 10
26.2456812128
 20
17.0683175116
 30
0.0
 10
26.2456809258
 20
17.0399213231
 30
0.0
 10
26.240737897
 20
16.9824803713
 30
0.0
 10
26.2187447501
 20
16.8976306067
 30
0.0
 10
26.1823989618
 20
16.8146197244
 30
0.0
 10
26.1322199962
 20
16.7342625595
 30
0.0
 10
26.0687209507
 20
16.6573190962
 30
0.0
 10
25.9926003685
 20
16.5844377659
 30
0.0
 10
25.9045758046
 20
16.5163139808
 30
0.0
 10
25.8401968998
 20
16.4755008819
 30
0.0
 10
25.8063641284
 20
16.4559669616
 30
0.0
  0
SPLINE
  5
30F
100
AcDbEntity
  8
0
100
AcDbSpline
 62
7
  6
BYLAYER
 70
0
 71
3
 72
16
 73
12
 74
0
 42
0.0000001
 43
0.0000001
 44
0.0000000001
 40
0.0
 40
0.0
 40
0.0
 40
0.0
 40
0.1141419491
 40
0.2373006744
 40
0.3669382461
 40
0.4999508312
 40
0.6329624907
 40
0.7626036032
 40
0.8857680626
 40
0.9441628335
 40
1.0
 40
1.0
 40
1.0
 40
1.0
 10
25.6649379712
 20
16.3743142389
 30
0.0
 10
25.6020104149
 20
16.3379820384
 30
0.0
 10
25.4644074358
 20
16.2739027384
 30
0.0
 10
25.2403271494
 20
16.2057920456
 30
0.0
 10
24.9977214553
 20
16.1638659766
 30
0.0
 10
24.7457097629
 20
16.1497176216
 30
0.0
 10
24.4936789575
 20
16.163862238
 30
0.0
 10
24.2511145111
 20
16.2057722468
 30
0.0
 10
24.0609338044
 20
16.2635636462
 30
0.0
 10
23.9218169462
 20
16.3228979935
 30
0.0
 10
23.8572301695
 20
16.3565269112
 30
0.0
 10
23.8264462244
 20
16.3742996282
 30
0.0
  0
SPLINE
  5
310
100
AcDbEntity
  8
0
100
AcDbSpline
 62
7
  6
BYLAYER
 70
0
 71
3
 72
14
 73
10
 74
0
 42
0.0000001
 43
0.0000001
 44
0.0000000001
 40
0.0
 40
0.0
 40
0.0
 40
0.0
 40
0.1084316043
 40
0.2205270208
 40
0.3369904914
 40
0.4584235591
 40
0.7176032705
 40
0.8559754836
 40
1.0
 40
1.0
 40
1.0
 40
1.0
 10
27.2562967151
 20
30.2272113622
 30
0.0
 10
27.2447999531
 20
30.2644797343
 30
0.0
 10
27.2165952144
 20
30.3388632578
 30
0.0
 10
27.1605458466
 20
30.4466107162
 30
0.0
 10
27.0904677707
 20
30.5514801584
 30
0.0
 10
26.9765523342
 20
30.6895961547
 30
0.0
 10
26.8379356972
 20
30.8162316428
 30
0.0
 10
26.6801156455
 20
30.9305644091
 30
0.0
 10
26.593746737
 20
30.9842272494
 30
0.0
 10
26.5488831983
 20
31.0101286396
 30
0.0
  0
SPLINE
  5
311
100
AcDbEntity
  8
0
100
AcDbSpline
 62
7
  6
BYLAYER
 70
0
 71
3
 72
9
 73
5
 74
0
 42
0.0000001
 43
0.0000001
 44
0.0000000001
 40
0.0
 40
0.0
 40
0.0
 40
0.0
 40
0.5022213777
 40
1.0
 40
1.0
 40
1.0
 40
1.0
 10
27.6091545387
 20
29.0698056126
 30
0.0
 10
27.6238578243
 20
29.1268422283
 30
0.0
 10
27.6433590422
 20
29.2432040937
 30
0.0
 10
27.6413827359
 20
29.361205044
 30
0.0
 10
27.6351491017
 20
29.4192515256
 30
0.0
  0
SPLINE
  5
312
100
AcDbEntity
  8
0
100
AcDbSpline
 62
7
  6
BYLAYER
 70
0
 71
3
 72
9
 73
5
 74
0
 42
0.0000001
 43
0.0000001
 44
0.0000000001
 40
0.0
 40
0.0
 40
0.0
 40
0.0
 40
0.4900039504
 40
1.0
 40
1.0
 40
1.0
 40
1.0
 10
25.509802933
 20
20.5436280987
 30
0.0
 10
25.4672889483
 20
20.5257926663
 30
0.0
 10
25.3788416479
 20
20.4933255307
 30
0.0
 10
25.2880862142
 20
20.468112708
 30
0.0
 10
25.2414070396
 20
20.4569961393
 30
0.0
  0
SPLINE
  5
313
100
AcDbEntity
  8
0
100
AcDbSpline
 62
7
  6
BYLAYER
 70
0
 71
3
 72
9
 73
5
 74
0
 42
0.0000001
 43
0.0000001
 44
0.0000000001
 40
0.0
 40
0.0
 40
0.0
 40
0.0
 40
0.5099025824
 40
1.0
 40
1.0
 40
1.0
 40
1.0
 10
24.2499967156
 20
20.4569863507
 30
0.0
 10
24.2033247519
 20
20.4680987413
 30
0.0
 10
24.1125657071
 20
20.4933049362
 30
0.0
 10
24.0241177489
 20
20.5257756474
 30
0.0
 10
23.9815954576
 20
20.5436160284
 30
0.0
  0
SPLINE
  5
314
100
AcDbEntity
  8
0
100
AcDbSpline
 62
7
  6
BYLAYER
 70
0
 71
3
 72
13
 73
9
 74
0
 42
0.0000001
 43
0.0000001
 44
0.0000000001
 40
0.0
 40
0.0
 40
0.0
 40
0.0
 40
0.1139871521
 40
0.2308165878
 40
0.3512434399
 40
0.475498341
 40
0.7334638369
 40
1.0
 40
1.0
 40
1.0
 40
1.0
 10
21.9369331713
 20
30.0311674509
 30
0.0
 10
21.9407379127
 20
30.045159203
 30
0.0
 10
21.9513787479
 20
30.072772353
 30
0.0
 10
21.9753458909
 20
30.1107757423
 30
0.0
 10
22.0066622686
 20
30.1447834263
 30
0.0
 10
22.0574845415
 20
30.1840081519
 30
0.0
 10
22.1340878981
 20
30.2180837818
 30
0.0
 10
22.201157025
 20
30.2271992111
 30
0.0
 10
22.2350619873
 20
30.2271992926
 30
0.0
  0
SPLINE
  5
315
100
AcDbEntity
  8
0
100
AcDbSpline
 62
7
  6
BYLAYER
 70
0
 71
3
 72
23
 73
19
 74
0
 42
0.0000001
 43
0.0000001
 44
0.0000000001
 40
0.0
 40
0.0
 40
0.0
 40
0.0
 40
0.0606971286
 40
0.1250179118
 40
0.1923702261
 40
0.2620665266
 40
0.3332995781
 40
0.4052103061
 40
0.4769116432
 40
0.5475249196
 40
0.6162132759
 40
0.6822164095
 40
0.7448888861
 40
0.803744408
 40
0.8585099818
 40
0.9091800101
 40
0.9561043657
 40
1.0
 40
1.0
 40
1.0
 40
1.0
 10
22.9424792273
 20
28.9279827649
 30
0.0
 10
23.027036221
 20
28.8791648663
 30
0.0
 10
23.2074035045
 20
28.7891224719
 30
0.0
 10
23.4974585268
 20
28.6800016036
 30
0.0
 10
23.810353296
 20
28.5945143572
 30
0.0
 10
24.1403114255
 20
28.5341918006
 30
0.0
 10
24.4813558485
 20
28.5001450143
 30
0.0
 10
24.8272355342
 20
28.4929901147
 30
0.0
 10
25.1716229139
 20
28.5128599406
 30
0.0
 10
25.5082151276
 20
28.5593881765
 30
0.0
 10
25.8308638603
 20
28.6317259252
 30
0.0
 10
26.1336926018
 20
28.7285653741
 30
0.0
 10
26.4112063239
 20
28.8481771407
 30
0.0
 10
26.6584009296
 20
28.9884660999
 30
0.0
 10
26.8708041623
 20
29.1470409253
 30
0.0
 10
27.044575592
 20
29.3213373806
 30
0.0
 10
27.1762272781
 20
29.5084772011
 30
0.0
 10
27.2354868891
 20
29.6434388081
 30
0.0
 10
27.2563004383
 20
29.7109121119
 30
0.0
  0
SPLINE
  5
316
100
AcDbEntity
  8
0
100
AcDbSpline
 62
7
  6
BYLAYER
 70
0
 71
3
 72
14
 73
10
 74
0
 42
0.0000001
 43
0.0000001
 44
0.0000000001
 40
0.0
 40
0.0
 40
0.0
 40
0.0
 40
0.1084316043
 40
0.2205270208
 40
0.3369904914
 40
0.4584235591
 40
0.7176032705
 40
0.8559754836
 40
1.0
 40
1.0
 40
1.0
 40
1.0
 10
22.2350657105
 20
29.7109000424
 30
0.0
 10
22.2465624725
 20
29.6736316703
 30
0.0
 10
22.2747672111
 20
29.5992481467
 30
0.0
 10
22.330816579
 20
29.4915006884
 30
0.0
 10
22.4008946549
 20
29.3866312461
 30
0.0
 10
22.5148100914
 20
29.2485152498
 30
0.0
 10
22.6534267284
 20
29.1218797617
 30
0.0
 10
22.8112467801
 20
29.0075469954
 30
0.0
 10
22.8976156886
 20
28.9538841551
 30
0.0
 10
22.9424792273
 20
28.9279827649
 30
0.0
  0
SPLINE
  5
317
100
AcDbEntity
  8
0
100
AcDbSpline
 62
7
  6
BYLAYER
 70
0
 71
3
 72
11
 73
7
 74
0
 42
0.0000001
 43
0.0000001
 44
0.0000000001
 40
0.0
 40
0.0
 40
0.0
 40
0.0
 40
0.2397511264
 40
0.4881548763
 40
0.7425384728
 40
1.0
 40
1.0
 40
1.0
 40
1.0
 10
23.9821518689
 20
20.2421033022
 30
0.0
 10
24.0404329998
 20
20.2222060167
 30
0.0
 10
24.1610582362
 20
20.1872594413
 30
0.0
 10
24.3482941342
 20
20.1498529971
 30
0.0
 10
24.5424251091
 20
20.1269595825
 30
0.0
 10
24.6739457864
 20
20.1216649362
 30
0.0
 10
24.7400788658
 20
20.1215221303
 30
0.0
  0
SPLINE
  5
318
100
AcDbEntity
  8
0
100
AcDbSpline
 62
7
  6
BYLAYER
 70
0
 71
3
 72
11
 73
7
 74
0
 42
0.0000001
 43
0.0000001
 44
0.0000000001
 40
0.0
 40
0.0
 40
0.0
 40
0.0
 40
0.2574576719
 40
0.5118306572
 40
0.7602348361
 40
1.0
 40
1.0
 40
1.0
 40
1.0
 10
24.7513247036
 20
20.1215222573
 30
0.0
 10
24.8174554086
 20
20.1216665513
 30
0.0
 10
24.9489694243
 20
20.1269638591
 30
0.0
 10
25.1430928418
 20
20.1498549644
 30
0.0
 10
25.3303255609
 20
20.1872637052
 30
0.0
 10
25.4509498055
 20
20.222217043
 30
0.0
 10
25.5092333418
 20
20.2421144627
 30
0.0
  0
SPLINE
  5
319
100
AcDbEntity
  8
0
100
AcDbSpline
 62
7
  6
BYLAYER
 70
0
 71
3
 72
24
 73
20
 74
0
 42
0.0000001
 43
0.0000001
 44
0.0000000001
 40
0.0
 40
0.0
 40
0.0
 40
0.0
 40
0.0609006468
 40
0.1254599186
 40
0.1930825223
 40
0.2630544371
 40
0.3345498973
 40
0.4066881417
 40
0.478562
 40
0.5492747917
 40
0.6179748296
 40
0.6838926759
 40
0.746381837
 40
0.8049649735
 40
0.8593902894
 40
0.9096921812
 40
0.9562735037
 40
0.9784394962
 40
1.0
 40
1.0
 40
1.0
 40
1.0
 10
22.7311552992
 20
28.5823737037
 30
0.0
 10
22.8265719628
 20
28.5272861135
 30
0.0
 10
23.0302090576
 20
28.4257746669
 30
0.0
 10
23.3578207776
 20
28.3030816495
 30
0.0
 10
23.7113085706
 20
28.2073320889
 30
0.0
 10
24.0840395735
 20
28.140292661
 30
0.0
 10
24.4691167192
 20
28.1032110926
 30
0.0
 10
24.8593506772
 20
28.0967708702
 30
0.0
 10
25.2474651245
 20
28.1210961561
 30
0.0
 10
25.626220597
 20
28.175732698
 30
0.0
 10
25.9885651532
 20
28.2596679844
 30
0.0
 10
26.3277741294
 20
28.371352968
 30
0.0
 10
26.6375810281
 20
28.5087603021
 30
0.0
 10
26.9122926494
 20
28.6694303644
 30
0.0
 10
27.1468609903
 20
28.8506335556
 30
0.0
 10
27.336874784
 20
29.0492632021
 30
0.0
 10
27.4569017213
 20
29.2298663984
 30
0.0
 10
27.525187295
 20
29.3785752881
 30
0.0
 10
27.5502955755
 20
29.4538007636
 30
0.0
 10
27.5604883604
 20
29.4914511579
 30
0.0
  0
SPLINE
  5
31A
100
AcDbEntity
  8
0
100
AcDbSpline
 62
7
  6
BYLAYER
 70
0
 71
3
 72
14
 73
10
 74
0
 42
0.0000001
 43
0.0000001
 44
0.0000000001
 40
0.0
 40
0.0
 40
0.0
 40
0.0
 40
0.1081800209
 40
0.2199447201
 40
0.336095302
 40
0.4573168402
 40
0.7165914721
 40
0.8553567523
 40
1.0
 40
1.0
 40
1.0
 40
1.0
 10
21.9308777287
 20
29.491437626
 30
0.0
 10
21.9425745275
 20
29.4482340207
 30
0.0
 10
21.9722135154
 20
29.3618862759
 30
0.0
 10
22.0333234611
 20
29.2366320354
 30
0.0
 10
22.1113190771
 20
29.1146807977
 30
0.0
 10
22.2398568374
 20
28.9539690693
 30
0.0
 10
22.3982627664
 20
28.8068305297
 30
0.0
 10
22.5796820175
 20
28.6743604546
 30
0.0
 10
22.6793273043
 20
28.6122959336
 30
0.0
 10
22.7311552992
 20
28.5823737037
 30
0.0
  0
SPLINE
  5
31B
100
AcDbEntity
  8
0
100
AcDbSpline
 62
7
  6
BYLAYER
 70
0
 71
3
 72
9
 73
5
 74
0
 42
0.0000001
 43
0.0000001
 44
0.0000000001
 40
0.0
 40
0.0
 40
0.0
 40
0.0
 40
0.4977783232
 40
1.0
 40
1.0
 40
1.0
 40
1.0
 10
21.8562133243
 20
29.4192515256
 30
0.0
 10
21.8499794431
 20
29.3612027427
 30
0.0
 10
21.8480034822
 20
29.2431969767
 30
0.0
 10
21.8675067611
 20
29.1268305886
 30
0.0
 10
21.8822114357
 20
29.0697918467
 30
0.0
  0
SPLINE
  5
31C
100
AcDbEntity
  8
0
100
AcDbSpline
 62
7
  6
BYLAYER
 70
0
 71
3
 72
9
 73
5
 74
0
 42
0.0000001
 43
0.0000001
 44
0.0000000001
 40
0.0
 40
0.0
 40
0.0
 40
0.0
 40
0.2447068971
 40
1.0
 40
1.0
 40
1.0
 40
1.0
 10
25.8063641284
 20
16.4559669616
 30
0.0
 10
25.7956217435
 20
16.4497646647
 30
0.0
 10
25.7513891943
 20
16.4249990684
 30
0.0
 10
25.7058914941
 20
16.4025092239
 30
0.0
 10
25.6710108519
 20
16.3867239292
 30
0.0
  0
SPLINE
  5
31D
100
AcDbEntity
  8
0
100
AcDbSpline
 62
7
  6
BYLAYER
 70
0
 71
3
 72
15
 73
11
 74
0
 42
0.0000001
 43
0.0000001
 44
0.0000000001
 40
0.0
 40
0.0
 40
0.0
 40
0.0
 40
0.1171275895
 40
0.2408604997
 40
0.3692290544
 40
0.499983645
 40
0.6307383196
 40
0.7591107517
 40
0.8828348797
 40
1.0
 40
1.0
 40
1.0
 40
1.0
 10
25.6710108519
 20
16.3867239292
 30
0.0
 10
25.6034314437
 20
16.3561407517
 30
0.0
 10
25.4602090064
 20
16.3023877295
 30
0.0
 10
25.2330712933
 20
16.2451270461
 30
0.0
 10
24.9927336589
 20
16.2101303658
 30
0.0
 10
24.7457269612
 20
16.1983581947
 30
0.0
 10
24.498716817
 20
16.2101198782
 30
0.0
 10
24.258382556
 20
16.2451146026
 30
0.0
 10
24.0312185512
 20
16.3023567592
 30
0.0
 10
23.8879812072
 20
16.3561236431
 30
0.0
 10
23.8203800677
 20
16.3867164501
 30
0.0
  0
SPLINE
  5
31E
100
AcDbEntity
  8
0
100
AcDbSpline
 62
7
  6
BYLAYER
 70
0
 71
3
 72
9
 73
5
 74
0
 42
0.0000001
 43
0.0000001
 44
0.0000000001
 40
0.0
 40
0.0
 40
0.0
 40
0.0
 40
0.2554606677
 40
1.0
 40
1.0
 40
1.0
 40
1.0
 10
23.8203800677
 20
16.3867164501
 30
0.0
 10
23.8085827531
 20
16.3920553094
 30
0.0
 10
23.7626464744
 20
16.4134872788
 30
0.0
 10
23.7177096215
 20
16.4370814965
 30
0.0
 10
23.685025457
 20
16.4559512808
 30
0.0
  0
SPLINE
  5
31F
100
AcDbEntity
  8
0
100
AcDbSpline
 62
7
  6
BYLAYER
 70
0
 71
3
 72
13
 73
9
 74
0
 42
0.0000001
 43
0.0000001
 44
0.0000000001
 40
0.0
 40
0.0
 40
0.0
 40
0.0
 40
0.2665363672
 40
0.5245059849
 40
0.6487626846
 40
0.7691907283
 40
0.8860185102
 40
1.0
 40
1.0
 40
1.0
 40
1.0
 10
27.2562967151
 20
30.2272113622
 30
0.0
 10
27.2902014076
 20
30.2272114437
 30
0.0
 10
27.3572705596
 20
30.2180964165
 30
0.0
 10
27.4338740812
 20
30.1840209877
 30
0.0
 10
27.4846968552
 20
30.1447963523
 30
0.0
 10
27.516013074
 20
30.110788768
 30
0.0
 10
27.5399792477
 20
30.0727862533
 30
0.0
 10
27.5506205475
 20
30.0451745744
 30
0.0
 10
27.5544251386
 20
30.0311836589
 30
0.0
  0
SPLINE
  5
320
100
AcDbEntity
  8
0
100
AcDbSpline
 62
7
  6
BYLAYER
 70
0
 71
3
 72
23
 73
19
 74
0
 42
0.0000001
 43
0.0000001
 44
0.0000000001
 40
0.0
 40
0.0
 40
0.0
 40
0.0
 40
0.0606971286
 40
0.1250179118
 40
0.1923702261
 40
0.2620665266
 40
0.3332995781
 40
0.4052103061
 40
0.4769116432
 40
0.5475249196
 40
0.6162132759
 40
0.6822164095
 40
0.7448888861
 40
0.803744408
 40
0.8585099818
 40
0.9091800101
 40
0.9561043657
 40
1.0
 40
1.0
 40
1.0
 40
1.0
 10
26.5488831983
 20
31.0101286396
 30
0.0
 10
26.4643262046
 20
31.0589465382
 30
0.0
 10
26.2839589211
 20
31.1489889327
 30
0.0
 10
25.9939038988
 20
31.2581098009
 30
0.0
 10
25.6810091296
 20
31.3435970474
 30
0.0
 10
25.3510510001
 20
31.403919604
 30
0.0
 10
25.0100065771
 20
31.4379663902
 30
0.0
 10
24.6641268914
 20
31.4451212898
 30
0.0
 10
24.3197395117
 20
31.4252514639
 30
0.0
 10
23.983147298
 20
31.3787232281
 30
0.0
 10
23.6604985653
 20
31.3063854794
 30
0.0
 10
23.3576698238
 20
31.2095460305
 30
0.0
 10
23.0801561017
 20
31.0899342639
 30
0.0
 10
22.832961496
 20
30.9496453046
 30
0.0
 10
22.6205582633
 20
30.7910704792
 30
0.0
 10
22.4467868336
 20
30.616774024
 30
0.0
 10
22.3151351475
 20
30.4296342035
 30
0.0
 10
22.2558755365
 20
30.2946725964
 30
0.0
 10
22.2350619873
 20
30.2271992926
 30
0.0
  0
SPLINE
  5
321
100
AcDbEntity
  8
0
100
AcDbSpline
 62
7
  6
BYLAYER
 70
0
 71
3
 72
15
 73
11
 74
0
 42
0.0000001
 43
0.0000001
 44
0.0000000001
 40
0.0
 40
0.0
 40
0.0
 40
0.0
 40
0.1485651372
 40
0.2895100829
 40
0.4227290316
 40
0.548639536
 40
0.6680017659
 40
0.7819392484
 40
0.8919875144
 40
1.0
 40
1.0
 40
1.0
 40
1.0
 10
21.2100737077
 20
52.4514298228
 30
0.0
 10
21.0973220903
 20
52.3863330348
 30
0.0
 10
20.8827090234
 20
52.25028539
 30
0.0
 10
20.5892786078
 20
52.0231991982
 30
0.0
 10
20.3354803782
 20
51.7802642687
 30
0.0
 10
20.1238713639
 20
51.5237411627
 30
0.0
 10
19.9565346887
 20
51.2559254763
 30
0.0
 10
19.8354452025
 20
50.9791826259
 30
0.0
 10
19.7620582071
 20
50.6963637268
 30
0.0
 10
19.7456342
 20
50.5048821381
 30
0.0
 10
19.7456281322
 20
50.4102260501
 30
0.0
  0
SPLINE
  5
322
100
AcDbEntity
  8
0
100
AcDbSpline
 62
7
  6
BYLAYER
 70
0
 71
3
 72
11
 73
7
 74
0
 42
0.0000001
 43
0.0000001
 44
0.0000000001
 40
0.0
 40
0.0
 40
0.0
 40
0.0
 40
0.2449726277
 40
0.4920078262
 40
0.743075781
 40
1.0
 40
1.0
 40
1.0
 40
1.0
 10
29.7456165347
 20
50.4102260504
 30
0.0
 10
29.7456205582
 20
50.4729914962
 30
0.0
 10
29.7384722456
 20
50.5991652085
 30
0.0
 10
29.7063743903
 20
50.787207808
 30
0.0
 10
29.6531241751
 20
50.9735599007
 30
0.0
 10
29.6042960688
 20
51.0944967808
 30
0.0
 10
29.5766831031
 20
51.154252941
 30
0.0
  0
SPLINE
  5
323
100
AcDbEntity
  8
0
100
AcDbSpline
 62
7
  6
BYLAYER
 70
0
 71
3
 72
24
 73
20
 74
0
 42
0.0000001
 43
0.0000001
 44
0.0000000001
 40
0.0
 40
0.0
 40
0.0
 40
0.0
 40
0.0450450466
 40
0.0687977801
 40
0.0934521069
 40
0.1456032647
 40
0.2016767647
 40
0.2615425457
 40
0.3248577402
 40
0.3911145062
 40
0.4596802984
 40
0.5298337722
 40
0.6007966766
 40
0.6717622533
 40
0.7419233666
 40
0.8105024264
 40
0.876771669
 40
0.9401163333
 40
1.0
 40
1.0
 40
1.0
 40
1.0
 10
29.5766831031
 20
51.154252941
 30
0.0
 10
29.5186868485
 20
51.2797604119
 30
0.0
 10
29.4100131421
 20
51.4627093745
 30
0.0
 10
29.2327200411
 20
51.6884228152
 30
0.0
 10
29.0227626124
 20
51.9151112405
 30
0.0
 10
28.7118840925
 20
52.1814007415
 30
0.0
 10
28.2789903758
 20
52.4642697888
 30
0.0
 10
27.7865571396
 20
52.7120036744
 30
0.0
 10
27.2428743535
 20
52.9205695623
 30
0.0
 10
26.6570184257
 20
53.0865544478
 30
0.0
 10
26.0388499862
 20
53.207192067
 30
0.0
 10
25.3988001256
 20
53.2804645675
 30
0.0
 10
24.7476923718
 20
53.3051339922
 30
0.0
 10
24.096549816
 20
53.2807814579
 30
0.0
 10
23.4563904493
 20
53.2078139416
 30
0.0
 10
22.8380691243
 20
53.0874547512
 30
0.0
 10
22.2519388004
 20
52.9217570903
 30
0.0
 10
21.7080198834
 20
52.7134620867
 30
0.0
 10
21.3692533859
 20
52.5433317043
 30
0.0
 10
21.2100737077
 20
52.4514298228
 30
0.0
  0
SPLINE
  5
324
100
AcDbEntity
  8
0
100
AcDbSpline
 62
7
  6
BYLAYER
 70
0
 71
3
 72
15
 73
11
 74
0
 42
0.0000001
 43
0.0000001
 44
0.0000000001
 40
0.0
 40
0.0
 40
0.0
 40
0.0
 40
0.1485651372
 40
0.2895100829
 40
0.4227290316
 40
0.548639536
 40
0.6680017659
 40
0.7819392484
 40
0.8919875144
 40
1.0
 40
1.0
 40
1.0
 40
1.0
 10
28.2811709592
 20
48.3690222776
 30
0.0
 10
28.3939225766
 20
48.4341190657
 30
0.0
 10
28.6085356435
 20
48.5701667104
 30
0.0
 10
28.9019660591
 20
48.7972529023
 30
0.0
 10
29.1557642887
 20
49.0401878318
 30
0.0
 10
29.367373303
 20
49.2967109378
 30
0.0
 10
29.5347099782
 20
49.5645266242
 30
0.0
 10
29.6557994644
 20
49.8412694746
 30
0.0
 10
29.7291864599
 20
50.1240883737
 30
0.0
 10
29.7456104669
 20
50.3155699624
 30
0.0
 10
29.7456165347
 20
50.4102260504
 30
0.0
  0
SPLINE
  5
325
100
AcDbEntity
  8
0
100
AcDbSpline
 62
7
  6
BYLAYER
 70
0
 71
3
 72
27
 73
23
 74
0
 42
0.0000001
 43
0.0000001
 44
0.0000000001
 40
0.0
 40
0.0
 40
0.0
 40
0.0
 40
0.021329429
 40
0.0428874
 40
0.0648899523
 40
0.0875322783
 40
0.1109787601
 40
0.1353631742
 40
0.1607831697
 40
0.1873059378
 40
0.2437371769
 40
0.3046783427
 40
0.369759184
 40
0.4383493957
 40
0.5096285515
 40
0.5826452085
 40
0.6563690047
 40
0.7297380055
 40
0.8017075602
 40
0.8712906156
 40
0.9376259546
 40
1.0
 40
1.0
 40
1.0
 40
1.0
 10
19.7456281322
 20
50.4102260501
 30
0.0
 10
19.7456235854
 20
50.3392957087
 30
0.0
 10
19.7547793122
 20
50.1965100749
 30
0.0
 10
19.795812266
 20
49.9841146346
 30
0.0
 10
19.8638424676
 20
49.774171144
 30
0.0
 10
19.958478334
 20
49.567931566
 30
0.0
 10
20.0790423825
 20
49.366460311
 30
0.0
 10
20.2248917507
 20
49.1708785178
 30
0.0
 10
20.3951252668
 20
48.9821414819
 30
0.0
 10
20.6588370629
 20
48.7359550612
 30
0.0
 10
21.0467144472
 20
48.4525123305
 30
0.0
 10
21.5810009565
 20
48.1619345602
 30
0.0
 10
22.1824843788
 20
47.9196108102
 30
0.0
 10
22.8384175458
 20
47.730577312
 30
0.0
 10
23.5349644041
 20
47.598749376
 30
0.0
 10
24.2573173116
 20
47.5269178425
 30
0.0
 10
24.9900848175
 20
47.5166106877
 30
0.0
 10
25.7176423873
 20
47.5680405586
 30
0.0
 10
26.4244555108
 20
47.6801250937
 30
0.0
 10
27.0955577205
 20
47.8504795133
 30
0.0
 10
27.7165602006
 20
48.0755032378
 30
0.0
 10
28.1015371773
 20
48.2653112844
 30
0.0
 10
28.2811709592
 20
48.3690222776
 30
0.0
  0
SPLINE
  5
326
100
AcDbEntity
  8
0
100
AcDbSpline
 62
7
  6
BYLAYER
 70
0
 71
3
 72
26
 73
22
 74
0
 42
0.0000001
 43
0.0000001
 44
0.0000000001
 40
0.0
 40
0.0
 40
0.0
 40
0.0
 40
0.0213310435
 40
0.0428905902
 40
0.064894931
 40
0.0875384969
 40
0.135311311
 40
0.1607336785
 40
0.1872576153
 40
0.2436925601
 40
0.3046371829
 40
0.3697212146
 40
0.4383146317
 40
0.5095974068
 40
0.5826183598
 40
0.6563467782
 40
0.729719135
 40
0.8016929943
 40
0.8712795342
 40
0.93762321
 40
1.0
 40
1.0
 40
1.0
 40
1.0
 10
29.7956054174
 20
48.5851356988
 30
0.0
 10
29.7956054617
 20
48.5134953342
 30
0.0
 10
29.7863794654
 20
48.3692788806
 30
0.0
 10
29.7449245074
 20
48.1547611537
 30
0.0
 10
29.6761958935
 20
47.9427092714
 30
0.0
 10
29.5465491932
 20
47.6600511801
 30
0.0
 10
29.3641627945
 20
47.3916290927
 30
0.0
 10
29.1396160906
 20
47.1428071442
 30
0.0
 10
28.8732640562
 20
46.8940856632
 30
0.0
 10
28.4815060695
 20
46.607857514
 30
0.0
 10
27.9418794158
 20
46.3143668431
 30
0.0
 10
27.3343905854
 20
46.0696274638
 30
0.0
 10
26.6719109568
 20
45.8787000449
 30
0.0
 10
25.9684095922
 20
45.7455478758
 30
0.0
 10
25.2388394045
 20
45.6729932048
 30
0.0
 10
24.4987516006
 20
45.6625838345
 30
0.0
 10
23.7639249927
 20
45.7145233486
 30
0.0
 10
23.0500547471
 20
45.827732049
 30
0.0
 10
22.3722291704
 20
45.9997757152
 30
0.0
 10
21.7450137592
 20
46.2270572868
 30
0.0
 10
21.3561749038
 20
46.4187582206
 30
0.0
 10
21.1747479555
 20
46.5235027484
 30
0.0
  0
SPLINE
  5
327
100
AcDbEntity
  8
0
100
AcDbSpline
 62
7
  6
BYLAYER
 70
0
 71
3
 72
15
 73
11
 74
0
 42
0.0000001
 43
0.0000001
 44
0.0000000001
 40
0.0
 40
0.0
 40
0.0
 40
0.0
 40
0.136389834
 40
0.2684850196
 40
0.396517628
 40
0.5211522683
 40
0.6431091116
 40
0.7631557558
 40
0.8817923913
 40
1.0
 40
1.0
 40
1.0
 40
1.0
 10
29.5631417474
 20
51.0685971342
 30
0.0
 10
29.7210861527
 20
50.9755352486
 30
0.0
 10
30.0245785556
 20
50.7792766317
 30
0.0
 10
30.444005345
 20
50.4491267683
 30
0.0
 10
30.8160654578
 20
50.0884639582
 30
0.0
 10
31.1362510351
 20
49.6982945042
 30
0.0
 10
31.3994641487
 20
49.2799996215
 30
0.0
 10
31.5996472289
 20
48.8367039795
 30
0.0
 10
31.731496168
 20
48.3736695567
 30
0.0
 10
31.7703887275
 20
48.0561381322
 30
0.0
 10
31.7771798206
 20
47.8974001329
 30
0.0
  0
SPLINE
  5
328
100
AcDbEntity
  8
0
100
AcDbSpline
 62
7
  6
BYLAYER
 70
0
 71
3
 72
15
 73
11
 74
0
 42
0.0000001
 43
0.0000001
 44
0.0000000001
 40
0.0
 40
0.0
 40
0.0
 40
0.0
 40
0.1141231812
 40
0.2373468278
 40
0.366971913
 40
0.4999994099
 40
0.6330269884
 40
0.76265231
 40
0.885876356
 40
1.0
 40
1.0
 40
1.0
 40
1.0
 10
25.2406742122
 20
24.1719440075
 30
0.0
 10
25.2067987798
 20
24.1523861342
 30
0.0
 10
25.1326914333
 20
24.1178938296
 30
0.0
 10
25.0120396632
 20
24.0811992293
 30
0.0
 10
24.8813929267
 20
24.0586398423
 30
0.0
 10
24.7457003683
 20
24.0510101547
 30
0.0
 10
24.6100076923
 20
24.0586391827
 30
0.0
 10
24.4793605984
 20
24.0811979401
 30
0.0
 10
24.3587082674
 20
24.1178919812
 30
0.0
 10
24.2846004294
 20
24.1523839197
 30
0.0
 10
24.2507247186
 20
24.171941628
 30
0.0
  0
SPLINE
  5
329
100
AcDbEntity
  8
0
100
AcDbSpline
 62
7
  6
BYLAYER
 70
0
 71
3
 72
11
 73
7
 74
0
 42
0.0000001
 43
0.0000001
 44
0.0000000001
 40
0.0
 40
0.0
 40
0.0
 40
0.0
 40
0.2897052857
 40
0.5490919933
 40
0.7822182543
 40
1.0
 40
1.0
 40
1.0
 40
1.0
 10
6.2194267273
 20
34.5820808682
 30
0.0
 10
6.1887111241
 20
34.5998141289
 30
0.0
 10
6.1329852618
 20
34.6381958014
 30
0.0
 10
6.0663850033
 20
34.7081887353
 30
0.0
 10
6.0242558117
 20
34.7856180543
 30
0.0
 10
6.0144028988
 20
34.8411898807
 30
0.0
 10
6.0144029063
 20
34.8678517759
 30
0.0
  0
SPLINE
  5
32A
100
AcDbEntity
  8
0
100
AcDbSpline
 62
7
  6
BYLAYER
 70
0
 71
3
 72
11
 73
7
 74
0
 42
0.0000001
 43
0.0000001
 44
0.0000000001
 40
0.0
 40
0.0
 40
0.0
 40
0.0
 40
0.2494776093
 40
0.4990783056
 40
0.7493447711
 40
1.0
 40
1.0
 40
1.0
 40
1.0
 10
43.1682617793
 20
36.6073560667
 30
0.0
 10
43.2134058189
 20
36.5812927329
 30
0.0
 10
43.2981636078
 20
36.5185575
 30
0.0
 10
43.3979485474
 20
36.395664202
 30
0.0
 10
43.4620754288
 20
36.2504974266
 30
0.0
 10
43.476800123
 20
36.1452606874
 30
0.0
 10
43.4768296809
 20
36.0928870839
 30
0.0
  0
SPLINE
  5
32B
100
AcDbEntity
  8
0
100
AcDbSpline
 62
7
  6
BYLAYER
 70
0
 71
3
 72
13
 73
9
 74
0
 42
0.0000001
 43
0.0000001
 44
0.0000000001
 40
0.0
 40
0.0
 40
0.0
 40
0.0
 40
0.1254519285
 40
0.2508766536
 40
0.3762283458
 40
0.5014419259
 40
0.7507549219
 40
1.0
 40
1.0
 40
1.0
 40
1.0
 10
6.014414986
 20
36.0924104029
 30
0.0
 10
6.014400166
 20
36.11867007
 30
0.0
 10
6.0180266768
 20
36.171261966
 30
0.0
 10
6.034388213
 20
36.2485372822
 30
0.0
 10
6.0611172052
 20
36.3228372005
 30
0.0
 10
6.1098102185
 20
36.4157628276
 30
0.0
 10
6.1929738075
 20
36.5184339339
 30
0.0
 10
6.2777961336
 20
36.5811809544
 30
0.0
 10
6.3229785876
 20
36.6072669006
 30
0.0
  0
SPLINE
  5
32C
100
AcDbEntity
  8
0
100
AcDbSpline
 62
7
  6
BYLAYER
 70
0
 71
3
 72
11
 73
7
 74
0
 42
0.0000001
 43
0.0000001
 44
0.0000000001
 40
0.0
 40
0.0
 40
0.0
 40
0.0
 40
0.2177821605
 40
0.4509085882
 40
0.7102951949
 40
1.0
 40
1.0
 40
1.0
 40
1.0
 10
43.4768417607
 20
34.8679384594
 30
0.0
 10
43.4768417532
 20
34.8412768569
 30
0.0
 10
43.466989096
 20
34.7857056802
 30
0.0
 10
43.4248608087
 20
34.7082771077
 30
0.0
 10
43.3582618951
 20
34.6382846959
 30
0.0
 10
43.3025370898
 20
34.5999031555
 30
0.0
 10
43.2718220612
 20
34.5821699312
 30
0.0
  0
SPLINE
  5
32D
100
AcDbEntity
  8
0
100
AcDbSpline
 62
7
  6
BYLAYER
 70
0
 71
3
 72
15
 73
11
 74
0
 42
0.0000001
 43
0.0000001
 44
0.0000000001
 40
0.0
 40
0.0
 40
0.0
 40
0.0
 40
0.148555241
 40
0.289509574
 40
0.4227333315
 40
0.5486414386
 40
0.6680024849
 40
0.781940335
 40
0.8919877957
 40
1.0
 40
1.0
 40
1.0
 40
1.0
 10
21.1747479555
 20
46.5235027484
 30
0.0
 10
21.0608745854
 20
46.589246082
 30
0.0
 10
20.8441165784
 20
46.726660252
 30
0.0
 10
20.5477356575
 20
46.9560100927
 30
0.0
 10
20.2913920189
 20
47.2013877377
 30
0.0
 10
20.0776564626
 20
47.460474622
 30
0.0
 10
19.9086589792
 20
47.7309772297
 30
0.0
 10
19.7863462763
 20
48.0104835478
 30
0.0
 10
19.7122202704
 20
48.2961332045
 30
0.0
 10
19.6956393087
 20
48.4895322201
 30
0.0
 10
19.6956392495
 20
48.5851357521
 30
0.0
  0
SPLINE
  5
32E
100
AcDbEntity
  8
0
100
AcDbSpline
 62
7
  6
BYLAYER
 70
0
 71
3
 72
16
 73
12
 74
0
 42
0.0000001
 43
0.0000001
 44
0.0000000001
 40
0.0
 40
0.0
 40
0.0
 40
0.0
 40
0.1082779303
 40
0.2182095385
 40
0.3318289896
 40
0.4508426351
 40
0.5128187817
 40
0.5765806956
 40
0.7097618651
 40
0.8509286967
 40
1.0
 40
1.0
 40
1.0
 40
1.0
 10
17.7140663056
 20
47.8974001077
 30
0.0
 10
17.7082122111
 20
47.7604211138
 30
0.0
 10
17.7208042925
 20
47.4827204888
 30
0.0
 10
17.8130124864
 20
47.0707874037
 30
0.0
 10
17.9770373327
 20
46.6672389629
 30
0.0
 10
18.1692120366
 20
46.3458889211
 30
0.0
 10
18.3545130905
 20
46.097260037
 30
0.0
 10
18.5672287636
 20
45.8475107655
 30
0.0
 10
18.8747217815
 20
45.5480897466
 30
0.0
 10
19.2979284906
 20
45.2175190616
 30
0.0
 10
19.6085948672
 20
45.0200382623
 30
0.0
 10
19.7720646226
 20
44.9256610901
 30
0.0
  0
SPLINE
  5
32F
100
AcDbEntity
  8
0
100
AcDbSpline
 62
7
  6
BYLAYER
 70
0
 71
3
 72
11
 73
7
 74
0
 42
0.0000001
 43
0.0000001
 44
0.0000000001
 40
0.0
 40
0.0
 40
0.0
 40
0.0
 40
0.2177015815
 40
0.4508362938
 40
0.7104698602
 40
1.0
 40
1.0
 40
1.0
 40
1.0
 10
43.1682502099
 20
36.60733603
 30
0.0
 10
43.1517653728
 20
36.6168568858
 30
0.0
 10
43.1138926732
 20
36.6306453217
 30
0.0
 10
43.0509265624
 20
36.632233972
 30
0.0
 10
42.983853204
 20
36.6159862611
 30
0.0
 10
42.9401918238
 20
36.595250917
 30
0.0
 10
42.918266021
 20
36.5825921244
 30
0.0
  0
SPLINE
  5
330
100
AcDbEntity
  8
0
100
AcDbSpline
 62
7
  6
BYLAYER
 70
0
 71
3
 72
31
 73
27
 74
0
 42
0.0000001
 43
0.0000001
 44
0.0000000001
 40
0.0
 40
0.0
 40
0.0
 40
0.0
 40
0.0213721667
 40
0.0429014738
 40
0.0648145023
 40
0.0873187822
 40
0.1105927323
 40
0.1347823116
 40
0.159998378
 40
0.1863170599
 40
0.2137837189
 40
0.2424124774
 40
0.2721941508
 40
0.3030936862
 40
0.3350590494
 40
0.3680183556
 40
0.436544431
 40
0.5078717415
 40
0.5810344179
 40
0.654981074
 40
0.7286246098
 40
0.8008930075
 40
0.8707726544
 40
0.937376227
 40
0.9692351637
 40
1.0
 40
1.0
 40
1.0
 40
1.0
 10
32.1253759941
 20
39.7581641647
 30
0.0
 10
32.1298951055
 20
39.6525686018
 30
0.0
 10
32.1252912588
 20
39.439758242
 30
0.0
 10
32.0770324327
 20
39.1220472106
 30
0.0
 10
31.9879312402
 20
38.8074628335
 30
0.0
 10
31.8584832377
 20
38.4979314076
 30
0.0
 10
31.6896399438
 20
38.1951298642
 30
0.0
 10
31.4823899555
 20
37.9007341186
 30
0.0
 10
31.2379863452
 20
37.6163018815
 30
0.0
 10
30.9578333531
 20
37.3433238229
 30
0.0
 10
30.6434718614
 20
37.0832845252
 30
0.0
 10
30.296685919
 20
36.837501777
 30
0.0
 10
29.9193321565
 20
36.6073742918
 30
0.0
 10
29.5135354409
 20
36.3940471668
 30
0.0
 10
29.0814675856
 20
36.1987639613
 30
0.0
 10
28.4656384356
 20
35.9607097921
 30
0.0
 10
27.6450013105
 20
35.7165166972
 30
0.0
 10
26.6099654037
 20
35.5130189853
 30
0.0
 10
25.5342903042
 20
35.3996846277
 30
0.0
 10
24.4414649591
 20
35.3789908043
 30
0.0
 10
23.3552598689
 20
35.4513705811
 30
0.0
 10
22.2993031903
 20
35.6152818595
 30
0.0
 10
21.2966049706
 20
35.8671201301
 30
0.0
 10
20.5117663804
 20
36.1499744871
 30
0.0
 10
19.9308861749
 20
36.4171205394
 30
0.0
 10
19.6575278135
 20
36.5631916532
 30
0.0
 10
19.5257682452
 20
36.6392613544
 30
0.0
  0
SPLINE
  5
331
100
AcDbEntity
  8
0
100
AcDbSpline
 62
7
  6
BYLAYER
 70
0
 71
3
 72
11
 73
7
 74
0
 42
0.0000001
 43
0.0000001
 44
0.0000000001
 40
0.0
 40
0.0
 40
0.0
 40
0.0
 40
0.2177604656
 40
0.4508847765
 40
0.7103073666
 40
1.0
 40
1.0
 40
1.0
 40
1.0
 10
6.014400081
 20
36.0924422424
 30
0.0
 10
6.0144231832
 20
36.0657945217
 30
0.0
 10
6.024295284
 20
36.0102570993
 30
0.0
 10
6.0664355354
 20
35.9328751659
 30
0.0
 10
6.1330237665
 20
35.8629276839
 30
0.0
 10
6.188725783
 20
35.8245592914
 30
0.0
 10
6.2194267273
 20
35.8068344939
 30
0.0
  0
SPLINE
  5
332
100
AcDbEntity
  8
0
100
AcDbSpline
 62
7
  6
BYLAYER
 70
0
 71
3
 72
15
 73
11
 74
0
 42
0.0000001
 43
0.0000001
 44
0.0000000001
 40
0.0
 40
0.0
 40
0.0
 40
0.0
 40
0.1140725843
 40
0.2373306492
 40
0.3669174217
 40
0.4999141378
 40
0.6329240987
 40
0.7625776935
 40
0.8859046562
 40
1.0
 40
1.0
 40
1.0
 40
1.0
 10
24.6042766372
 20
26.0090685392
 30
0.0
 10
24.5800906869
 20
25.9951048576
 30
0.0
 10
24.532303083
 20
25.9615672329
 30
0.0
 10
24.4665004874
 20
25.9000756234
 30
0.0
 10
24.4058862688
 20
25.8273233219
 30
0.0
 10
24.3527430784
 20
25.7461126446
 30
0.0
 10
24.3089655463
 20
25.6594751739
 30
0.0
 10
24.2762436249
 20
25.5705748028
 30
0.0
 10
24.2558834771
 20
25.4828043064
 30
0.0
 10
24.2507247186
 20
25.4246283138
 30
0.0
 10
24.2507247186
 20
25.3966952537
 30
0.0
  0
SPLINE
  5
333
100
AcDbEntity
  8
0
100
AcDbSpline
 62
7
  6
BYLAYER
 70
0
 71
3
 72
15
 73
11
 74
0
 42
0.0000001
 43
0.0000001
 44
0.0000000001
 40
0.0
 40
0.0
 40
0.0
 40
0.0
 40
0.1140737828
 40
0.2373327242
 40
0.3669199967
 40
0.499916823
 40
0.6329265219
 40
0.7625795259
 40
0.8859056431
 40
1.0
 40
1.0
 40
1.0
 40
1.0
 10
25.2406742122
 20
25.3966976332
 30
0.0
 10
25.2406742122
 20
25.4246254315
 30
0.0
 10
25.2355234759
 20
25.4827800533
 30
0.0
 10
25.215171362
 20
25.5705132522
 30
0.0
 10
25.1824730614
 20
25.6593832796
 30
0.0
 10
25.1387141289
 20
25.7460121255
 30
0.0
 10
25.0855726785
 20
25.827243195
 30
0.0
 10
25.0249437419
 20
25.9000310057
 30
0.0
 10
24.9591124613
 20
25.9615480146
 30
0.0
 10
24.9113100314
 20
25.9951030384
 30
0.0
 10
24.8871193496
 20
26.009069219
 30
0.0
  0
SPLINE
  5
334
100
AcDbEntity
  8
0
100
AcDbSpline
 62
7
  6
BYLAYER
 70
0
 71
3
 72
15
 73
11
 74
0
 42
0.0000001
 43
0.0000001
 44
0.0000000001
 40
0.0
 40
0.0
 40
0.0
 40
0.0
 40
0.1141229602
 40
0.2373235853
 40
0.3669237988
 40
0.4999417161
 40
0.6329735592
 40
0.7626088418
 40
0.8858601243
 40
1.0
 40
1.0
 40
1.0
 40
1.0
 10
24.2507247186
 20
25.3966952537
 30
0.0
 10
24.2846002556
 20
25.3771376457
 30
0.0
 10
24.358700696
 20
25.3426496188
 30
0.0
 10
24.47933521
 20
25.305954953
 30
0.0
 10
24.609962488
 20
25.2833981985
 30
0.0
 10
24.7456442505
 20
25.2757620789
 30
0.0
 10
24.8813389873
 20
25.2833846041
 30
0.0
 10
25.0120016149
 20
25.3059398401
 30
0.0
 10
25.1326704207
 20
25.3426427699
 30
0.0
 10
25.2067937951
 20
25.377136882
 30
0.0
 10
25.2406742122
 20
25.3966976332
 30
0.0
  0
SPLINE
  5
335
100
AcDbEntity
  8
0
100
AcDbSpline
 62
7
  6
BYLAYER
 70
0
 71
3
 72
11
 73
7
 74
0
 42
0.0000001
 43
0.0000001
 44
0.0000000001
 40
0.0
 40
0.0
 40
0.0
 40
0.0
 40
0.2895787052
 40
0.5491472253
 40
0.7822468249
 40
1.0
 40
1.0
 40
1.0
 40
1.0
 10
6.5729774683
 20
36.5825047611
 30
0.0
 10
6.5510475661
 20
36.5951657096
 30
0.0
 10
6.5073884589
 20
36.6159059313
 30
0.0
 10
6.4403170622
 20
36.6321433054
 30
0.0
 10
6.3773531765
 20
36.6305610028
 30
0.0
 10
6.3394821486
 20
36.6167649197
 30
0.0
 10
6.3229901554
 20
36.6072468618
 30
0.0
  0
SPLINE
  5
336
100
AcDbEntity
  8
0
100
AcDbSpline
 62
7
  6
BYLAYER
 70
0
 71
3
 72
15
 73
11
 74
0
 42
0.0000001
 43
0.0000001
 44
0.0000000001
 40
0.0
 40
0.0
 40
0.0
 40
0.0
 40
0.1140738892
 40
0.237332982
 40
0.3669204057
 40
0.4999173443
 40
0.632927083
 40
0.7625800266
 40
0.8859059611
 40
1.0
 40
1.0
 40
1.0
 40
1.0
 10
6.2194267273
 20
35.8068344939
 30
0.0
 10
6.2194267273
 20
35.8347623015
 30
0.0
 10
6.2245774233
 20
35.8929169505
 30
0.0
 10
6.2449293646
 20
35.9806502325
 30
0.0
 10
6.2776273874
 20
36.0695204055
 30
0.0
 10
6.3213859486
 20
36.1561494533
 30
0.0
 10
6.3745269479
 20
36.2373807715
 30
0.0
 10
6.4351553692
 20
36.310168869
 30
0.0
 10
6.5009860901
 20
36.3716861927
 30
0.0
 10
6.5487881468
 20
36.4052414716
 30
0.0
 10
6.5729786459
 20
36.4192077794
 30
0.0
  0
SPLINE
  5
337
100
AcDbEntity
  8
0
100
AcDbSpline
 62
7
  6
BYLAYER
 70
0
 71
3
 72
15
 73
11
 74
0
 42
0.0000001
 43
0.0000001
 44
0.0000000001
 40
0.0
 40
0.0
 40
0.0
 40
0.0
 40
0.1140729022
 40
0.2373311499
 40
0.3669179829
 40
0.4999146592
 40
0.632924508
 40
0.7625779514
 40
0.8859047626
 40
1.0
 40
1.0
 40
1.0
 40
1.0
 10
42.9182671986
 20
36.4192951428
 30
0.0
 10
42.9424533314
 20
36.4053315883
 30
0.0
 10
42.9902413085
 20
36.3717942187
 30
0.0
 10
43.0560444636
 20
36.3103029239
 30
0.0
 10
43.1166591972
 20
36.2375509091
 30
0.0
 10
43.1698028388
 20
36.1563404805
 30
0.0
 10
43.2135807424
 20
36.0697032118
 30
0.0
 10
43.2463029418
 20
35.9808029864
 30
0.0
 10
43.2666632623
 20
35.8930325731
 30
0.0
 10
43.2718220612
 20
35.8348566078
 30
0.0
 10
43.2718220612
 20
35.8069235569
 30
0.0
  0
SPLINE
  5
338
100
AcDbEntity
  8
0
100
AcDbSpline
 62
7
  6
BYLAYER
 70
0
 71
3
 72
11
 73
7
 74
0
 42
0.0000001
 43
0.0000001
 44
0.0000000001
 40
0.0
 40
0.0
 40
0.0
 40
0.0
 40
0.2897328801
 40
0.5491026614
 40
0.7822089747
 40
1.0
 40
1.0
 40
1.0
 40
1.0
 10
43.2718220612
 20
35.8069235569
 30
0.0
 10
43.3025402364
 20
35.8246585978
 30
0.0
 10
43.3582651132
 20
35.8630423076
 30
0.0
 10
43.4248678036
 20
35.9330317506
 30
0.0
 10
43.466987493
 20
36.0104597828
 30
0.0
 10
43.4768490553
 20
36.0660292501
 30
0.0
 10
43.47684467
 20
36.0926920851
 30
0.0
  0
SPLINE
  5
339
100
AcDbEntity
  8
0
100
AcDbSpline
 62
7
  6
BYLAYER
 70
0
 71
3
 72
13
 73
9
 74
0
 42
0.0000001
 43
0.0000001
 44
0.0000000001
 40
0.0
 40
0.0
 40
0.0
 40
0.0
 40
0.1140628235
 40
0.2375582552
 40
0.5000005226
 40
0.762442504
 40
0.8859376005
 40
1.0
 40
1.0
 40
1.0
 40
1.0
 10
24.6042747923
 20
26.0090696043
 30
0.0
 10
24.613939739
 20
26.003489671
 30
0.0
 10
24.6351243892
 20
25.9936567636
 30
0.0
 10
24.6820290703
 20
25.9793539333
 30
0.0
 10
24.7456982149
 20
25.9724621554
 30
0.0
 10
24.8093672984
 20
25.9793542276
 30
0.0
 10
24.8562718033
 20
25.9936572888
 30
0.0
 10
24.877456324
 20
26.0034903019
 30
0.0
 10
24.8871211945
 20
26.0090702841
 30
0.0
  0
SPLINE
  5
33A
100
AcDbEntity
  8
0
100
AcDbSpline
 62
7
  6
BYLAYER
 70
0
 71
3
 72
15
 73
11
 74
0
 42
0.0000001
 43
0.0000001
 44
0.0000000001
 40
0.0
 40
0.0
 40
0.0
 40
0.0
 40
0.1445835851
 40
0.2745392048
 40
0.3911783662
 40
0.4999990437
 40
0.6088198948
 40
0.7254595177
 40
0.8554157604
 40
1.0
 40
1.0
 40
1.0
 40
1.0
 10
6.5729793132
 20
36.5825058262
 30
0.0
 10
6.5642202676
 20
36.5774488191
 30
0.0
 10
6.5483215049
 20
36.5664562145
 30
0.0
 10
6.5292532168
 20
36.5464970312
 30
0.0
 10
6.5172229469
 20
36.5243286639
 30
0.0
 10
6.5130437289
 20
36.5008561068
 30
0.0
 10
6.5172232964
 20
36.4773835818
 30
0.0
 10
6.529253882
 20
36.4552152917
 30
0.0
 10
6.5483224479
 20
36.4352562108
 30
0.0
 10
6.5642213691
 20
36.4242636812
 30
0.0
 10
6.5729804908
 20
36.4192067143
 30
0.0
  0
SPLINE
  5
33B
100
AcDbEntity
  8
0
100
AcDbSpline
 62
7
  6
BYLAYER
 70
0
 71
3
 72
15
 73
11
 74
0
 42
0.0000001
 43
0.0000001
 44
0.0000000001
 40
0.0
 40
0.0
 40
0.0
 40
0.0
 40
0.1445835851
 40
0.2745392048
 40
0.3911783662
 40
0.4999990437
 40
0.6088198948
 40
0.7254595177
 40
0.8554157604
 40
1.0
 40
1.0
 40
1.0
 40
1.0
 10
42.9182653538
 20
36.4192940776
 30
0.0
 10
42.9270243993
 20
36.4243510848
 30
0.0
 10
42.942923162
 20
36.4353436894
 30
0.0
 10
42.9619914501
 20
36.4553028726
 30
0.0
 10
42.9740217201
 20
36.47747124
 30
0.0
 10
42.978200938
 20
36.5009437971
 30
0.0
 10
42.9740213705
 20
36.524416322
 30
0.0
 10
42.9619907849
 20
36.5465846122
 30
0.0
 10
42.942922219
 20
36.5665436931
 30
0.0
 10
42.9270232978
 20
36.5775362227
 30
0.0
 10
42.9182641761
 20
36.5825931895
 30
0.0
  0
SPLINE
  5
33C
100
AcDbEntity
  8
0
100
AcDbSpline
 62
7
  6
BYLAYER
 70
0
 71
3
 72
15
 73
11
 74
0
 42
0.0000001
 43
0.0000001
 44
0.0000000001
 40
0.0
 40
0.0
 40
0.0
 40
0.0
 40
0.1439500116
 40
0.2821990253
 40
0.4146206669
 40
0.5413638475
 40
0.6627334626
 40
0.7791787434
 40
0.8913285545
 40
1.0
 40
1.0
 40
1.0
 40
1.0
 10
32.8957750742
 20
41.0859518762
 30
0.0
 10
33.0927374632
 20
40.969251805
 30
0.0
 10
33.4715383387
 20
40.7277638689
 30
0.0
 10
34.0011934936
 20
40.3339653161
 30
0.0
 10
34.4778622787
 20
39.9178275219
 30
0.0
 10
34.898734214
 20
39.4818106041
 30
0.0
 10
35.2613629566
 20
39.0282473131
 30
0.0
 10
35.5636251733
 20
38.5596271721
 30
0.0
 10
35.8035126744
 20
38.0786367718
 30
0.0
 10
35.9224187286
 20
37.7470850701
 30
0.0
 10
35.9703496301
 20
37.581032503
 30
0.0
  0
SPLINE
  5
33D
100
AcDbEntity
  8
0
100
AcDbSpline
 62
7
  6
BYLAYER
 70
0
 71
3
 72
16
 73
12
 74
0
 42
0.0000001
 43
0.0000001
 44
0.0000000001
 40
0.0
 40
0.0
 40
0.0
 40
0.0
 40
0.1485678179
 40
0.2893702504
 40
0.4223523272
 40
0.4860793548
 40
0.5480641029
 40
0.667221236
 40
0.7811151088
 40
0.8913904374
 40
1.0
 40
1.0
 40
1.0
 40
1.0
 10
19.4585580506
 20
36.6785704782
 30
0.0
 10
19.2927633993
 20
36.7768036876
 30
0.0
 10
18.9777071239
 20
36.9819612424
 30
0.0
 10
18.5486957868
 20
37.3240667618
 30
0.0
 10
18.2370013852
 20
37.6330082759
 30
0.0
 10
18.0212216016
 20
37.8902594822
 30
0.0
 10
17.832994947
 20
38.1463213655
 30
0.0
 10
17.6375001794
 20
38.4769178597
 30
0.0
 10
17.4699757622
 20
38.8915065307
 30
0.0
 10
17.3746144549
 20
39.3144702957
 30
0.0
 10
17.3601648863
 20
39.5996826002
 30
0.0
 10
17.3651661875
 20
39.7404741449
 30
0.0
  0
SPLINE
  5
33E
100
AcDbEntity
  8
0
100
AcDbSpline
 62
7
  6
BYLAYER
 70
0
 71
3
 72
30
 73
26
 74
0
 42
0.0000001
 43
0.0000001
 44
0.0000000001
 40
0.0
 40
0.0
 40
0.0
 40
0.0
 40
0.0628563658
 40
0.1296673611
 40
0.1996944166
 40
0.2720502987
 40
0.345725022
 40
0.4196536444
 40
0.4927583477
 40
0.5639985685
 40
0.6324200712
 40
0.665324115
 40
0.6972343571
 40
0.7280800969
 40
0.7578106568
 40
0.7863922485
 40
0.8138164493
 40
0.8400985743
 40
0.8652840698
 40
0.8894498118
 40
0.9127060365
 40
0.9351985492
 40
0.9571044511
 40
0.978630026
 40
1.0
 40
1.0
 40
1.0
 40
1.0
 10
19.8199666801
 20
44.89826928
 30
0.0
 10
20.0766683456
 20
44.7528801669
 30
0.0
 10
20.6262035193
 20
44.4874139977
 30
0.0
 10
21.5113244624
 20
44.17445833
 30
0.0
 10
22.4662793456
 20
43.9398404218
 30
0.0
 10
23.4703367972
 20
43.7885905133
 30
0.0
 10
24.501958338
 20
43.7239668144
 30
0.0
 10
25.5388307825
 20
43.7473456342
 30
0.0
 10
26.5585928039
 20
43.8582355003
 30
0.0
 10
27.5391494576
 20
44.054233991
 30
0.0
 10
28.3161774069
 20
44.2880039924
 30
0.0
 10
28.8990344614
 20
44.5152929933
 30
0.0
 10
29.3078575998
 20
44.7014997112
 30
0.0
 10
29.6917440821
 20
44.9047110347
 30
0.0
 10
30.048654005
 20
45.1237542216
 30
0.0
 10
30.3766006071
 20
45.3575370292
 30
0.0
 10
30.6738283874
 20
45.6047589985
 30
0.0
 10
30.9386841588
 20
45.8641515315
 30
0.0
 10
31.1696947855
 20
46.1343443429
 30
0.0
 10
31.3655763184
 20
46.4139020024
 30
0.0
 10
31.5251168462
 20
46.7013839879
 30
0.0
 10
31.6474252908
 20
46.9951887213
 30
0.0
 10
31.7315810422
 20
47.2937518422
 30
0.0
 10
31.7771360602
 20
47.5952514599
 30
0.0
 10
31.7814578046
 20
47.7971923187
 30
0.0
 10
31.7771670009
 20
47.8973999456
 30
0.0
  0
SPLINE
  5
33F
100
AcDbEntity
  8
0
100
AcDbSpline
 62
7
  6
BYLAYER
 70
0
 71
3
 72
22
 73
18
 74
0
 42
0.0000001
 43
0.0000001
 44
0.0000000001
 40
0.0
 40
0.0
 40
0.0
 40
0.0
 40
0.0675721523
 40
0.1319237984
 40
0.1933419778
 40
0.2522500281
 40
0.3092012816
 40
0.3648692139
 40
0.4200101216
 40
0.4754180242
 40
0.5318674743
 40
0.5900637091
 40
0.7137421599
 40
0.7802262438
 40
0.8500651845
 40
0.92335669
 40
1.0
 40
1.0
 40
1.0
 40
1.0
 10
19.6572600027
 20
50.4578373281
 30
0.0
 10
19.5674441355
 20
50.3764991125
 30
0.0
 10
19.3991915113
 20
50.2095679422
 30
0.0
 10
19.1790426277
 20
49.9408832133
 30
0.0
 10
18.9990928172
 20
49.6619348876
 30
0.0
 10
18.8607941484
 20
49.3747103017
 30
0.0
 10
18.7653955285
 20
49.0812524457
 30
0.0
 10
18.7137515006
 20
48.7838086134
 30
0.0
 10
18.7064688238
 20
48.4847371524
 30
0.0
 10
18.7435311735
 20
48.1864936307
 30
0.0
 10
18.8246639325
 20
47.8914608945
 30
0.0
 10
18.9936601468
 20
47.4977068774
 30
0.0
 10
19.2482411222
 20
47.1263200129
 30
0.0
 10
19.5686441188
 20
46.7870517087
 30
0.0
 10
19.8522127128
 20
46.5393763205
 30
0.0
 10
20.1709192898
 20
46.3068436084
 30
0.0
 10
20.4002433377
 20
46.1658964275
 30
0.0
 10
20.5198335777
 20
46.0981636417
 30
0.0
  0
SPLINE
  5
340
100
AcDbEntity
  8
0
100
AcDbSpline
 62
7
  6
BYLAYER
 70
0
 71
3
 72
11
 73
7
 74
0
 42
0.0000001
 43
0.0000001
 44
0.0000000001
 40
0.0
 40
0.0
 40
0.0
 40
0.0
 40
0.2656231431
 40
0.5186853414
 40
0.7622212703
 40
1.0
 40
1.0
 40
1.0
 40
1.0
 10
15.3430290052
 20
22.233972922
 30
0.0
 10
15.210820267
 20
22.4046591331
 30
0.0
 10
14.9726691639
 20
22.7542823516
 30
0.0
 10
14.6977563636
 20
23.3119131963
 30
0.0
 10
14.5177225098
 20
23.8835327217
 30
0.0
 10
14.4622057901
 20
24.2729443617
 30
0.0
 10
14.4512025028
 20
24.4658990417
 30
0.0
  0
SPLINE
  5
341
100
AcDbEntity
  8
0
100
AcDbSpline
 62
7
  6
BYLAYER
 70
0
 71
3
 72
16
 73
12
 74
0
 42
0.0000001
 43
0.0000001
 44
0.0000000001
 40
0.0
 40
0.0
 40
0.0
 40
0.0
 40
0.1010575804
 40
0.2095640429
 40
0.2667094178
 40
0.325745154
 40
0.4492317774
 40
0.5794305304
 40
0.7154152173
 40
0.8560404979
 40
1.0
 40
1.0
 40
1.0
 40
1.0
 10
33.3576546873
 20
21.2133330929
 30
0.0
 10
33.1932704077
 20
21.0011198791
 30
0.0
 10
32.8154742413
 20
20.588941729
 30
0.0
 10
32.2675506157
 20
20.1368242798
 30
0.0
 10
31.7751022251
 20
19.7991592902
 30
0.0
 10
31.2302296672
 20
19.4693369284
 30
0.0
 10
30.485894329
 20
19.0971413093
 30
0.0
 10
29.5193917503
 20
18.7230179876
 30
0.0
 10
28.4807825825
 20
18.4202817164
 30
0.0
 10
27.3858363253
 20
18.1934895024
 30
0.0
 10
26.6354101119
 20
18.0959979256
 30
0.0
 10
26.2546814967
 20
18.0603731611
 30
0.0
  0
SPLINE
  5
342
100
AcDbEntity
  8
0
100
AcDbSpline
 62
7
  6
BYLAYER
 70
0
 71
3
 72
14
 73
10
 74
0
 42
0.0000001
 43
0.0000001
 44
0.0000000001
 40
0.0
 40
0.0
 40
0.0
 40
0.0
 40
0.2663886546
 40
0.3966317556
 40
0.5242292715
 40
0.6487287188
 40
0.7697541966
 40
0.8869681855
 40
1.0
 40
1.0
 40
1.0
 40
1.0
 10
23.2404181259
 20
18.0600091311
 30
0.0
 10
22.7607400157
 20
18.1047603689
 30
0.0
 10
22.0488860623
 20
18.2037644599
 30
0.0
 10
21.1215407675
 20
18.4021784745
 30
0.0
 10
20.4531343827
 20
18.5804812634
 30
0.0
 10
19.8108233993
 20
18.7883301254
 30
0.0
 10
19.1983991991
 20
19.0244623606
 30
0.0
 10
18.6197401431
 20
19.2874876022
 30
0.0
 10
18.2518538899
 20
19.4832896061
 30
0.0
 10
18.0748226963
 20
19.5854963012
 30
0.0
  0
SPLINE
  5
343
100
AcDbEntity
  8
0
100
AcDbSpline
 62
7
  6
BYLAYER
 70
0
 71
3
 72
12
 73
8
 74
0
 42
0.0000001
 43
0.0000001
 44
0.0000000001
 40
0.0
 40
0.0
 40
0.0
 40
0.0
 40
0.1185135424
 40
0.2379373053
 40
0.4814071665
 40
0.7344107792
 40
1.0
 40
1.0
 40
1.0
 40
1.0
 10
35.0404786859
 20
24.4739453168
 30
0.0
 10
35.0351990205
 20
24.3774240861
 30
0.0
 10
35.0164205708
 20
24.183981281
 30
0.0
 10
34.9460468018
 20
23.7973129146
 30
0.0
 10
34.7951542514
 20
23.315675041
 30
0.0
 10
34.5197255853
 20
22.7561242099
 30
0.0
 10
34.2808916257
 20
22.4052261176
 30
0.0
 10
34.1482325796
 20
22.2339685541
 30
0.0
  0
LINE
  5
344
100
AcDbEntity
  8
0
100
AcDbLine
 62
7
  6
BYLAYER
 10
33.420421778
 20
21.1996903677
 11
33.1865980049
 21
20.1242564546
  0
LINE
  5
345
100
AcDbEntity
  8
0
100
AcDbLine
 62
7
  6
BYLAYER
 10
16.3046549889
 20
20.1242158754
 11
16.0708222897
 21
21.1996897256
  0
SPLINE
  5
346
100
AcDbEntity
  8
0
100
AcDbSpline
 62
7
  6
BYLAYER
 70
0
 71
3
 72
14
 73
10
 74
0
 42
0.0000001
 43
0.0000001
 44
0.0000000001
 40
0.0
 40
0.0
 40
0.0
 40
0.0
 40
0.1078449805
 40
0.2211817675
 40
0.3398806225
 40
0.4636619008
 40
0.5921239574
 40
0.7247443763
 40
1.0
 40
1.0
 40
1.0
 40
1.0
 10
29.6657044614
 20
18.8216536155
 30
0.0
 10
29.5646045237
 20
18.7334513399
 30
0.0
 10
29.3480967385
 20
18.562859167
 30
0.0
 10
28.993876578
 20
18.3311094465
 30
0.0
 10
28.6048959216
 20
18.1188959148
 30
0.0
 10
28.184385326
 20
17.9279056341
 30
0.0
 10
27.7357172924
 20
17.7597070917
 30
0.0
 10
27.0971206183
 20
17.5652234038
 30
0.0
 10
26.5989320617
 20
17.4613713758
 30
0.0
 10
26.2604511388
 20
17.4094597374
 30
0.0
  0
SPLINE
  5
347
100
AcDbEntity
  8
0
100
AcDbSpline
 62
7
  6
BYLAYER
 70
0
 71
3
 72
11
 73
7
 74
0
 42
0.0000001
 43
0.0000001
 44
0.0000000001
 40
0.0
 40
0.0
 40
0.0
 40
0.0
 40
0.2657963682
 40
0.5225753953
 40
0.7680011935
 40
1.0
 40
1.0
 40
1.0
 40
1.0
 10
23.2309275119
 20
17.4094387144
 30
0.0
 10
22.9844053536
 20
17.447243411
 30
0.0
 10
22.5023752036
 20
17.5405363455
 30
0.0
 10
21.807918514
 20
17.7363072455
 30
0.0
 10
21.1635174676
 20
17.9826654241
 30
0.0
 10
20.7622365654
 20
18.184094095
 30
0.0
 10
20.5737096939
 20
18.2929376726
 30
0.0
  0
SPLINE
  5
348
100
AcDbEntity
  8
0
100
AcDbSpline
 62
7
  6
BYLAYER
 70
0
 71
3
 72
9
 73
5
 74
0
 42
0.0000001
 43
0.0000001
 44
0.0000000001
 40
0.0
 40
0.0
 40
0.0
 40
0.0
 40
0.5121256934
 40
1.0
 40
1.0
 40
1.0
 40
1.0
 10
20.5737096939
 20
18.2929376726
 30
0.0
 10
20.4503353159
 20
18.3641662916
 30
0.0
 10
20.2146562003
 20
18.5125726137
 30
0.0
 10
19.9925199124
 20
18.680746172
 30
0.0
 10
19.8884641881
 20
18.7678701007
 30
0.0
  0
SPLINE
  5
349
100
AcDbEntity
  8
0
100
AcDbSpline
 62
7
  6
BYLAYER
 70
0
 71
3
 72
10
 73
6
 74
0
 42
0.0000001
 43
0.0000001
 44
0.0000000001
 40
0.0
 40
0.0
 40
0.0
 40
0.0
 40
0.2694225645
 40
0.5260161676
 40
1.0
 40
1.0
 40
1.0
 40
1.0
 10
18.0748226963
 20
19.5854963012
 30
0.0
 10
17.8767689296
 20
19.6998401099
 30
0.0
 10
17.4983781549
 20
19.9382187825
 30
0.0
 10
16.8215544356
 20
20.4511110097
 30
0.0
 10
16.3799703618
 20
20.8952641852
 30
0.0
 10
16.1336015403
 20
21.2133360615
 30
0.0
  0
SPLINE
  5
34A
100
AcDbEntity
  8
0
100
AcDbSpline
 62
7
  6
BYLAYER
 70
0
 71
3
 72
17
 73
13
 74
0
 42
0.0000001
 43
0.0000001
 44
0.0000000001
 40
0.0
 40
0.0
 40
0.0
 40
0.0
 40
0.1008759578
 40
0.1541497202
 40
0.2093513082
 40
0.2664858
 40
0.3255299307
 40
0.4490780231
 40
0.5793706374
 40
0.715441829
 40
0.8561022938
 40
1.0
 40
1.0
 40
1.0
 40
1.0
 10
34.1482325796
 20
22.2339685541
 30
0.0
 10
33.9661658278
 20
21.9989276035
 30
0.0
 10
33.657252098
 20
21.6626851886
 30
0.0
 10
33.1948228381
 20
21.2538448258
 30
0.0
 10
32.8084732557
 20
20.9549467912
 30
0.0
 10
32.3905910273
 20
20.6707030933
 30
0.0
 10
31.7843472618
 20
20.3072095913
 30
0.0
 10
30.9559633336
 20
19.8980853056
 30
0.0
 10
29.8805460989
 20
19.4887995017
 30
0.0
 10
28.7254045577
 20
19.1600215571
 30
0.0
 10
27.5085712483
 20
18.9168364935
 30
0.0
 10
26.6751780626
 20
18.8150781967
 30
0.0
 10
26.2526107605
 20
18.7789886369
 30
0.0
  0
SPLINE
  5
34B
100
AcDbEntity
  8
0
100
AcDbSpline
 62
7
  6
BYLAYER
 70
0
 71
3
 72
14
 73
10
 74
0
 42
0.0000001
 43
0.0000001
 44
0.0000000001
 40
0.0
 40
0.0
 40
0.0
 40
0.0
 40
0.2664266695
 40
0.3967354134
 40
0.5243974371
 40
0.6489375799
 40
0.7699577442
 40
0.8871066621
 40
1.0
 40
1.0
 40
1.0
 40
1.0
 10
23.237829752
 20
18.7790585505
 30
0.0
 10
22.7016380092
 20
18.8248604069
 30
0.0
 10
21.9055720163
 20
18.9299335802
 30
0.0
 10
20.868241622
 20
19.1456457591
 30
0.0
 10
20.1204029093
 20
19.3412234588
 30
0.0
 10
19.4018892135
 20
19.5705427142
 30
0.0
 10
18.7171281998
 20
19.8321695912
 30
0.0
 10
18.0706290465
 20
20.124491192
 30
0.0
 10
17.6599325431
 20
20.342687721
 30
0.0
 10
17.4624528102
 20
20.4567001187
 30
0.0
  0
SPLINE
  5
34C
100
AcDbEntity
  8
0
100
AcDbSpline
 62
7
  6
BYLAYER
 70
0
 71
3
 72
10
 73
6
 74
0
 42
0.0000001
 43
0.0000001
 44
0.0000000001
 40
0.0
 40
0.0
 40
0.0
 40
0.0
 40
0.2694228259
 40
0.5260163144
 40
1.0
 40
1.0
 40
1.0
 40
1.0
 10
17.4624528102
 20
20.4567001187
 30
0.0
 10
17.2462177231
 20
20.5815406801
 30
0.0
 10
16.8330909201
 20
20.8418022023
 30
0.0
 10
16.09413556
 20
21.4017773859
 30
0.0
 10
15.6120146038
 20
21.8867028907
 30
0.0
 10
15.3430290052
 20
22.233972922
 30
0.0
  0
ELLIPSE
  5
34D
100
AcDbEntity
  8
0
100
AcDbEllipse
 62
7
  6
BYLAYER
 10
38.5696351691
 20
36.7099058441
 30
0.0
 11
-0.0214162884
 21
0.4999995303
 31
0.0
 40
0.0301984672
 41
-0.0012934265
 42
0.6141761941
  0
ELLIPSE
  5
34E
100
AcDbEntity
  8
0
100
AcDbEllipse
 62
7
  6
BYLAYER
 10
39.2058953953
 20
36.7099073735
 30
0.0
 11
0.0214138935
 21
0.4999996331
 31
0.0
 40
0.0302052536
 41
-0.6141759029
 42
0.0012937178
  0
ELLIPSE
  5
34F
100
AcDbEntity
  8
0
100
AcDbEllipse
 62
7
  6
BYLAYER
 10
38.5696205189
 20
38.7414677687
 30
0.0
 11
-0.0214162884
 21
0.4999995303
 31
0.0
 40
0.0301984672
 41
0.6141761941
 42
1.7224602691
  0
ELLIPSE
  5
350
100
AcDbEntity
  8
0
100
AcDbEllipse
 62
7
  6
BYLAYER
 10
39.205880745
 20
38.7414692981
 30
0.0
 11
0.0214138935
 21
0.4999996331
 31
0.0
 40
0.0302052536
 41
-1.7224599779
 42
-0.6141759029
  0
ELLIPSE
  5
351
100
AcDbEntity
  8
0
100
AcDbEllipse
 62
7
  6
BYLAYER
 10
10.2853639219
 20
36.7098378571
 30
0.0
 11
-0.0214162884
 21
0.4999995303
 31
0.0
 40
0.0301984672
 41
-0.0012934265
 42
0.6141761941
  0
ELLIPSE
  5
352
100
AcDbEntity
  8
0
100
AcDbEllipse
 62
7
  6
BYLAYER
 10
10.921624148
 20
36.7098393865
 30
0.0
 11
0.0214138935
 21
0.4999996331
 31
0.0
 40
0.0302052536
 41
-0.6141759029
 42
0.0012937178
  0
ELLIPSE
  5
353
100
AcDbEntity
  8
0
100
AcDbEllipse
 62
7
  6
BYLAYER
 10
10.2853492717
 20
38.7413997817
 30
0.0
 11
-0.0214162884
 21
0.4999995303
 31
0.0
 40
0.0301984672
 41
0.6141761941
 42
1.7224602691
  0
ELLIPSE
  5
354
100
AcDbEntity
  8
0
100
AcDbEllipse
 62
7
  6
BYLAYER
 10
10.9216094978
 20
38.7414013111
 30
0.0
 11
0.0214138935
 21
0.4999996331
 31
0.0
 40
0.0302052536
 41
-1.7224599779
 42
-0.6141759029
  0
ELLIPSE
  5
355
100
AcDbEntity
  8
0
100
AcDbEllipse
 62
7
  6
BYLAYER
 10
24.4275584249
 20
28.5450227667
 30
0.0
 11
-0.0214162884
 21
0.4999995303
 31
0.0
 40
0.0301984672
 41
-0.0012934265
 42
0.6141761941
  0
ELLIPSE
  5
356
100
AcDbEntity
  8
0
100
AcDbEllipse
 62
7
  6
BYLAYER
 10
25.063818651
 20
28.5450242961
 30
0.0
 11
0.0214138935
 21
0.4999996331
 31
0.0
 40
0.0302052536
 41
-0.6141759029
 42
0.0012937178
  0
ELLIPSE
  5
357
100
AcDbEntity
  8
0
100
AcDbEllipse
 62
7
  6
BYLAYER
 10
24.4275437746
 20
30.5765846913
 30
0.0
 11
-0.0214162884
 21
0.4999995303
 31
0.0
 40
0.0301984672
 41
0.6141761941
 42
1.7224602691
  0
ELLIPSE
  5
358
100
AcDbEntity
  8
0
100
AcDbEllipse
 62
7
  6
BYLAYER
 10
25.0638040007
 20
30.5765862207
 30
0.0
 11
0.0214138935
 21
0.4999996331
 31
0.0
 40
0.0302052536
 41
-1.7224599779
 42
-0.6141759029
  0
ENDSEC
  0
SECTION
  2
OBJECTS
  0
DICTIONARY
  5
C
100
AcDbDictionary
280
0
281
1
  3
ACAD_GROUP
350
D
  3
ACAD_MLINESTYLE
350
17
  3
ACAD_LAYOUT
350
1A
  3
ACAD_PLOTSETTINGS
350
19
  3
ACAD_PLOTSTYLENAME
350
E
  0
DICTIONARY
  5
D
102
{ACAD_REACTORS
330
C
102
}
100
AcDbDictionary
280
0
281
1
  0
ACDBDICTIONARYWDFLT
  5
E
102
{ACAD_REACTORS
330
C
102
}
100
AcDbDictionary
281
1
  3
Normal
350
F
100
AcDbDictionaryWithDefault
340
F
  0
DICTIONARY
  5
17
102
{ACAD_REACTORS
330
C
102
}
100
AcDbDictionary
280
0
281
1
  3
Standard
350
18
  0
DICTIONARY
  5
19
102
{ACAD_REACTORS
330
C
102
}
100
AcDbDictionary
281
1
  0
DICTIONARY
  5
1A
102
{ACAD_REACTORS
330
C
102
}
100
AcDbDictionary
281
1
  3
Model
350
359
  3
Layout1
350
35A
  0
ACDBPLACEHOLDER
  5
F
102
{ACAD_REACTORS
330
E
102
}
  0
MLINESTYLE
  5
18
102
{ACAD_REACTORS
330
17
102
}
100
AcDbMlineStyle
  2
STANDARD
 70
0
  3

 62
256
 51
90.0
 52
90.0
 71
2
 49
0.5
 62
256
  6
BYLAYER
 49
-0.5
 62
256
  6
BYLAYER
  0
LAYOUT
  5
359
102
{ACAD_REACTORS
330
1A
102
}
100
AcDbPlotSettings
  1

  2
none_device
  4

  6

 40
0.0
 41
0.0
 42
0.0
 43
0.0
 44
210.0
 45
297.0
 46
0.0
 47
0.0
 48
0.0
 49
0.0
140
0.0
141
0.0
142
1.0
143
1.0
 70
1024
 72
1
 73
0
 74
0
  7

 75
0
147
1.0
148
0.0
149
0.0
100
AcDbLayout
  1
Model
 70
0
 71
0
 10
0.0
 20
0.0
 11
210.0
 21
297.0
 12
0.0
 22
0.0
 32
0.0
 14
0.0
 24
0.0
 34
0.0
 15
0.0
 25
0.0
 35
0.0
146
0.0
 13
0.0
 23
0.0
 33
0.0
 16
1.0
 26
0.0
 36
0.0
 17
0.0
 27
1.0
 37
0.0
 76
0
330
210
345
0
346
0
  0
LAYOUT
  5
35A
102
{ACAD_REACTORS
330
1A
102
}
100
AcDbPlotSettings
  1

  2
none_device
  4

  6

 40
0.0
 41
0.0
 42
0.0
 43
0.0
 44
210.0
 45
297.0
 46
0.0
 47
0.0
 48
0.0
 49
0.0
140
0.0
141
0.0
142
1.0
143
1.0
 70
0
 72
1
 73
0
 74
0
  7

 75
0
147
1.0
148
0.0
149
0.0
100
AcDbLayout
  1
Layout1
 70
0
 71
1
 10
0.0
 20
0.0
 11
210.0
 21
297.0
 12
0.0
 22
0.0
 32
0.0
 14
0.0
 24
0.0
 34
0.0
 15
0.0
 25
0.0
 35
0.0
146
0.0
 13
0.0
 23
0.0
 33
0.0
 16
1.0
 26
0.0
 36
0.0
 17
0.0
 27
1.0
 37
0.0
 76
0
330
211
345
0
346
0
  0
ENDSEC
  0
EOF
