999
DXF file: C:\Users\sesa63760\Dev\_Creo\CAD\MCADID0004773_3D-CAD\drw0001_1.dxf
999
Pro/ENGINEER 2019471 by Parametric Technology Corporation
  0
SECTION
  2
HEADER
  9
$ACADVER
  1
AC1024
  9
$DWGCODEPAGE
  3
ANSI_1252
  9
$EXTMAX
 10
137.7344044755
 20
194.7958006154
 30
0.0
  9
$EXTMIN
 10
0.0
 20
0.0
 30
0.0
  9
$LIMMIN
 10
0.0
 20
0.0
  9
$LIMMAX
 10
137.7344044755
 20
194.7958006154
  9
$VIEWCTR
 10
68.8672022378
 20
97.3979003077
  9
$VIEWSIZE
 40
194.7958006154
  9
$CLAYER
  8
0
  9
$LTSCALE
 40
12.6978003364
  9
$CELTYPE
  6
BYLAYER
  9
$DIMSCALE
 40
1.0
  9
$DIMASZ
 40
1.6396952914
  9
$DIMEXO
 40
1.0
  9
$DIMDLI
 40
8.773025687
  9
$DIMEXE
 40
1.0
  9
$DIMCEN
 40
2.0778218732
  9
$DIMLFAC
 40
1.0
  9
$DIMBLK
  1
_FILLED
  9
$DIMALT
 70
0
  9
$DIMALTF
 40
0.0393700787
  9
$DIMTXT
 40
2.2955734079
  9
$DIMTOL
 70
1
  9
$DIMLIM
 70
0
  9
$DIMTFAC
 40
1.0
  9
$DIMTP
 40
0.01
  9
$DIMTM
 40
0.01
  9
$DIMGAP
 40
0.625
  9
$DIMDSEP
 70
46
  9
$AUNITS
 70
0
  9
$PDMODE
 70
3
  9
$PDSIZE
 40
0.3125
  9
$HANDSEED
  5
33C
  9
$TILEMODE
 70
1
  9
$MEASUREMENT
 70
1
  9
$INSUNITS
 70
4
  0
ENDSEC
  0
SECTION
  2
CLASSES
  0
CLASS
  1
ACDBDICTIONARYWDFLT
  2
AcDbDictionaryWithDefault
  3
AutoCAD 2000
 90
0
 91
1
280
0
281
0
  0
CLASS
  1
ACDBPLACEHOLDER
  2
AcDbPlaceHolder
  3
AutoCAD 2000
 90
0
 91
1
280
0
281
0
  0
CLASS
  1
LAYOUT
  2
AcDbLayout
  3
AutoCAD 2000
 90
0
 91
0
280
0
281
0
  0
ENDSEC
  0
SECTION
  2
TABLES
  0
TABLE
  2
VPORT
  5
8
100
AcDbSymbolTable
 70
2
  0
VPORT
  5
1F4
100
AcDbSymbolTableRecord
100
AcDbViewportTableRecord
  2
*ACTIVE
 70
0
 10
0.0
 20
0.0
 11
1.0
 21
1.0
 12
68.8672022378
 22
97.3979003077
 13
0.0
 23
0.0
 14
1.0
 24
1.0
 15
0.0
 25
0.0
 16
0.0
 26
0.0
 36
1.0
 17
0.0
 27
0.0
 37
0.0
 40
194.7958006154
 41
0.7070707071
 42
50.0
 43
0.0
 44
0.0
 50
0.0
 51
0.0
 71
0
 72
100
 73
1
 74
1
 75
0
 76
0
 77
0
 78
0
  0
ENDTAB
  0
TABLE
  2
LTYPE
  5
5
100
AcDbSymbolTable
 70
6
  0
LTYPE
  5
14
100
AcDbSymbolTableRecord
100
AcDbLinetypeTableRecord
  2
BYBLOCK
 70
0
  3

 72
65
 73
0
 40
0.0
  0
LTYPE
  5
15
100
AcDbSymbolTableRecord
100
AcDbLinetypeTableRecord
  2
BYLAYER
 70
0
  3

 72
65
 73
0
 40
0.0
  0
LTYPE
  5
16
100
AcDbSymbolTableRecord
100
AcDbLinetypeTableRecord
  2
CONTINUOUS
 70
64
  3
Solid line
 72
65
 73
0
 40
0.0
  0
LTYPE
  5
1F5
100
AcDbSymbolTableRecord
100
AcDbLinetypeTableRecord
  2
CENTER
 70
64
  3
____ _ ____ _ ____ _ ____ _ ____ _ ____ _ ____
 72
65
 73
4
 40
0.6
 49
0.375
 74
0
 49
-0.075
 74
0
 49
0.075
 74
0
 49
-0.075
 74
0
  0
LTYPE
  5
1F6
100
AcDbSymbolTableRecord
100
AcDbLinetypeTableRecord
  2
HIDDEN
 70
64
  3
- - - - - - - - - - - - - - - - - - - -
 72
65
 73
2
 40
0.2
 49
0.1
 74
0
 49
-0.1
 74
0
  0
LTYPE
  5
1F7
100
AcDbSymbolTableRecord
100
AcDbLinetypeTableRecord
  2
PHANTOM
 70
64
  3
_____ _ _ _____ _ _ _____ _ _ _____
 72
65
 73
6
 40
0.8
 49
0.45
 74
0
 49
-0.05
 74
0
 49
0.1
 74
0
 49
-0.05
 74
0
 49
0.1
 74
0
 49
-0.05
 74
0
  0
LTYPE
  5
1F8
100
AcDbSymbolTableRecord
100
AcDbLinetypeTableRecord
  2
DOT
 70
64
  3
. . . . . . . . . . . . . . . . . . . .
 72
65
 73
2
 40
0.2
 49
0.1
 74
0
 49
-0.1
 74
0
  0
LTYPE
  5
1F9
100
AcDbSymbolTableRecord
100
AcDbLinetypeTableRecord
  2
DASHED
 70
64
  3
- - - - - - - - - - - - - - - - - - - -
 72
65
 73
2
 40
0.2
 49
0.1
 74
0
 49
-0.1
 74
0
  0
ENDTAB
  0
TABLE
  2
LAYER
  5
2
100
AcDbSymbolTable
 70
36
  0
LAYER
  5
10
100
AcDbSymbolTableRecord
100
AcDbLayerTableRecord
  2
0
 70
0
 62
7
  6
CONTINUOUS
370
-3
390
F
  0
LAYER
  5
1FA
100
AcDbSymbolTableRecord
100
AcDbLayerTableRecord
  2
DEFAULT_1
 70
0
 62
7
  6
CENTER
370
-3
390
F
  0
LAYER
  5
1FB
100
AcDbSymbolTableRecord
100
AcDbLayerTableRecord
  2
DEFAULT_2
 70
0
 62
7
  6
HIDDEN
370
-3
390
F
  0
LAYER
  5
1FC
100
AcDbSymbolTableRecord
100
AcDbLayerTableRecord
  2
DEFAULT_3
 70
0
 62
7
  6
PHANTOM
370
-3
390
F
  0
LAYER
  5
1FD
100
AcDbSymbolTableRecord
100
AcDbLayerTableRecord
  2
00_COMPONENTS
 70
0
 62
7
  6
CONTINUOUS
370
-3
390
F
  0
LAYER
  5
1FE
100
AcDbSymbolTableRecord
100
AcDbLayerTableRecord
  2
01_1_DEFAULT_DATUMS
 70
0
 62
7
  6
CONTINUOUS
370
-3
390
F
  0
LAYER
  5
1FF
100
AcDbSymbolTableRecord
100
AcDbLayerTableRecord
  2
01_PLANES
 70
0
 62
7
  6
CONTINUOUS
370
-3
390
F
  0
LAYER
  5
200
100
AcDbSymbolTableRecord
100
AcDbLayerTableRecord
  2
02_COORD_SYS
 70
0
 62
7
  6
CONTINUOUS
370
-3
390
F
  0
LAYER
  5
201
100
AcDbSymbolTableRecord
100
AcDbLayerTableRecord
  2
03_AXES
 70
0
 62
7
  6
CONTINUOUS
370
-3
390
F
  0
LAYER
  5
202
100
AcDbSymbolTableRecord
100
AcDbLayerTableRecord
  2
04_POINTS
 70
0
 62
7
  6
CONTINUOUS
370
-3
390
F
  0
LAYER
  5
203
100
AcDbSymbolTableRecord
100
AcDbLayerTableRecord
  2
05_CURVES
 70
0
 62
7
  6
CONTINUOUS
370
-3
390
F
  0
LAYER
  5
204
100
AcDbSymbolTableRecord
100
AcDbLayerTableRecord
  2
06_SURFS
 70
0
 62
7
  6
CONTINUOUS
370
-3
390
F
  0
LAYER
  5
205
100
AcDbSymbolTableRecord
100
AcDbLayerTableRecord
  2
07_COSMETICS
 70
0
 62
7
  6
CONTINUOUS
370
-3
390
F
  0
LAYER
  5
206
100
AcDbSymbolTableRecord
100
AcDbLayerTableRecord
  2
10_NOTES
 70
0
 62
7
  6
CONTINUOUS
370
-3
390
F
  0
LAYER
  5
207
100
AcDbSymbolTableRecord
100
AcDbLayerTableRecord
  2
11_NOTES_PUB
 70
0
 62
7
  6
CONTINUOUS
370
-3
390
F
  0
LAYER
  5
208
100
AcDbSymbolTableRecord
100
AcDbLayerTableRecord
  2
13_REF_GTOL
 70
0
 62
7
  6
CONTINUOUS
370
-3
390
F
  0
LAYER
  5
209
100
AcDbSymbolTableRecord
100
AcDbLayerTableRecord
  2
16_MISC
 70
0
 62
7
  6
CONTINUOUS
370
-3
390
F
  0
LAYER
  5
20A
100
AcDbSymbolTableRecord
100
AcDbLayerTableRecord
  2
17_NO_PRINT
 70
0
 62
7
  6
CONTINUOUS
370
-3
390
F
  0
LAYER
  5
20B
100
AcDbSymbolTableRecord
100
AcDbLayerTableRecord
  2
18_DATUM_CAMS_JOINTS
 70
0
 62
7
  6
CONTINUOUS
370
-3
390
F
  0
LAYER
  5
20C
100
AcDbSymbolTableRecord
100
AcDbLayerTableRecord
  2
19_DATUM_FUNCTIONAL
 70
0
 62
7
  6
CONTINUOUS
370
-3
390
F
  0
LAYER
  5
20D
100
AcDbSymbolTableRecord
100
AcDbLayerTableRecord
  2
20_DATUM_KINEMATIC_SCHEME
 70
0
 62
7
  6
CONTINUOUS
370
-3
390
F
  0
ENDTAB
  0
TABLE
  2
STYLE
  5
3
100
AcDbSymbolTable
 70
1
  0
STYLE
  5
11
100
AcDbSymbolTableRecord
100
AcDbTextStyleTableRecord
  2
STANDARD
 70
0
 40
0.0
 41
1.0
 50
0.0
 71
0
 42
0.2
  3
ARIAL.TTF
  4

  0
STYLE
  5
20E
100
AcDbSymbolTableRecord
100
AcDbTextStyleTableRecord
  2
TEXTSTYLE_1
 70
0
 40
0.0
 41
0.8
 50
0.0
 71
0
 42
0.2
  3
gdt
  4

  0
ENDTAB
  0
TABLE
  2
VIEW
  5
6
100
AcDbSymbolTable
 70
0
  0
ENDTAB
  0
TABLE
  2
UCS
  5
7
100
AcDbSymbolTable
 70
0
  0
ENDTAB
  0
TABLE
  2
APPID
  5
9
100
AcDbSymbolTable
 70
1
  0
APPID
  5
20F
100
AcDbSymbolTableRecord
100
AcDbRegAppTableRecord
  2
ACAD
 70
0
  0
ENDTAB
  0
TABLE
  2
BLOCK_RECORD
  5
1
100
AcDbSymbolTable
 70
0
  0
BLOCK_RECORD
  5
210
100
AcDbSymbolTableRecord
100
AcDbBlockTableRecord
  2
*Model_Space
  0
BLOCK_RECORD
  5
211
100
AcDbSymbolTableRecord
100
AcDbBlockTableRecord
  2
*Paper_Space
  0
BLOCK_RECORD
  5
212
100
AcDbSymbolTableRecord
100
AcDbBlockTableRecord
  2
_FILLED
  0
ENDTAB
  0
TABLE
  2
DIMSTYLE
  5
A
100
AcDbSymbolTable
 70
1
100
AcDbDimStyleTable
 71
0
  0
DIMSTYLE
105
213
100
AcDbSymbolTableRecord
100
AcDbDimStyleTableRecord
  2
STANDARD
 70
0
  3

  4

 40
1.0
 41
1.6396952914
 42
1.0
 43
0.38
 44
1.0
 45
0.0
 46
0.0
 47
0.01
 48
0.01
140
2.2955734079
141
0.09
142
0.0
143
25.4
144
1.0
145
0.0
146
1.0
147
0.625
 71
1
 72
0
 73
0
 74
0
 75
0
 76
0
 77
1
 78
8
 79
2
170
0
171
1
172
0
173
0
174
0
175
0
176
0
177
0
178
0
270
2
179
2
271
2
272
2
273
2
274
2
275
0
280
0
281
0
282
0
283
1
284
8
285
0
286
0
287
3
288
0
340
11
278
46
341
212
342
212
343
212
344
212
  0
ENDTAB
  0
ENDSEC
  0
SECTION
  2
BLOCKS
  0
BLOCK
  5
20
100
AcDbEntity
  8
0
100
AcDbBlockBegin
  2
*Model_Space
 70
0
 10
0.0
 20
0.0
 30
0.0
  3
*Model_Space
  1

  0
ENDBLK
  5
21
100
AcDbEntity
  8
0
100
AcDbBlockEnd
  0
BLOCK
  5
1C
100
AcDbEntity
  8
0
100
AcDbBlockBegin
  2
*Paper_Space
 70
0
 10
0.0
 20
0.0
 30
0.0
  3
*Paper_Space
  1

  0
ENDBLK
  5
1D
100
AcDbEntity
  8
0
100
AcDbBlockEnd
  0
BLOCK
  5
214
100
AcDbEntity
  8
0
100
AcDbBlockBegin
  2
_FILLED
 70
64
 10
0.0
 20
0.0
  3
_FILLED
  1

  0
SOLID
  5
215
100
AcDbEntity
  8
0
  6
BYBLOCK
 62
0
100
AcDbTrace
 10
0.0
 20
0.0
 11
-1.0
 21
0.25
 12
-1.0
 22
-0.25
 13
-1.0
 23
-0.25
  0
ENDBLK
  5
216
100
AcDbEntity
  8
0
  6
BYBLOCK
 62
0
100
AcDbBlockEnd
  0
ENDSEC
  0
SECTION
  2
ENTITIES
  0
LINE
  5
217
100
AcDbEntity
  8
0
100
AcDbLine
 62
7
  6
BYLAYER
 10
16.627245438
 20
79.079675345
 11
16.627245438
 21
91.5765249008
  0
LINE
  5
218
100
AcDbEntity
  8
0
100
AcDbLine
 62
7
  6
BYLAYER
 10
16.6858246844
 20
91.4948760618
 11
16.6858246717
 21
79.1626900313
  0
LINE
  5
219
100
AcDbEntity
  8
0
100
AcDbLine
 62
7
  6
BYLAYER
 10
18.0293378587
 20
93.1687398948
 11
18.0293355035
 21
93.4953338581
  0
LINE
  5
21A
100
AcDbEntity
  8
0
100
AcDbLine
 62
7
  6
BYLAYER
 10
19.8799230892
 20
95.2401857361
 11
19.8799230892
 21
99.0066644451
  0
LINE
  5
21B
100
AcDbEntity
  8
0
100
AcDbLine
 62
7
  6
BYLAYER
 10
19.9385003002
 20
98.9254619373
 11
19.9385006643
 21
95.274005313
  0
LINE
  5
21C
100
AcDbEntity
  8
0
100
AcDbLine
 62
7
  6
BYLAYER
 10
22.3548342117
 20
90.6167878768
 11
22.3548342117
 21
94.8834443679
  0
LINE
  5
21D
100
AcDbEntity
  8
0
100
AcDbLine
 62
7
  6
BYLAYER
 10
22.4134134442
 20
94.8017955371
 11
22.4134140161
 21
90.7074596571
  0
LINE
  5
21E
100
AcDbEntity
  8
0
100
AcDbLine
 62
7
  6
BYLAYER
 10
34.0514354008
 20
61.397111135
 11
23.3641130003
 21
67.5673000115
  0
LINE
  5
21F
100
AcDbEntity
  8
0
100
AcDbLine
 62
7
  6
BYLAYER
 10
34.0100129367
 20
61.4886683646
 11
23.4599135566
 21
67.5796332856
  0
LINE
  5
220
100
AcDbEntity
  8
0
100
AcDbLine
 62
7
  6
BYLAYER
 10
36.1313178509
 20
61.8153314273
 11
36.4141521428
 21
61.6520323037
  0
LINE
  5
221
100
AcDbEntity
  8
0
100
AcDbLine
 62
7
  6
BYLAYER
 10
25.3832495732
 20
96.7473607537
 11
25.3832495843
 21
96.8430143361
  0
LWPOLYLINE
  5
222
100
AcDbEntity
  8
0
100
AcDbPolyline
 62
7
  6
BYLAYER
 90
4
 70
0
 10
22.354828895
 20
90.6168001542
 10
22.3466361639
 20
90.5613766219
 10
22.3087221671
 20
90.4941491487
 10
22.3042239675
 20
90.4897267463
  0
LINE
  5
223
100
AcDbEntity
  8
0
100
AcDbLine
 62
7
  6
BYLAYER
 10
42.112459183
 20
60.4989971121
 11
38.8505278294
 21
62.3822314527
  0
LINE
  5
224
100
AcDbEntity
  8
0
100
AcDbLine
 62
7
  6
BYLAYER
 10
38.9091083389
 20
62.4160527237
 11
42.0714628336
 21
60.5903083298
  0
LINE
  5
225
100
AcDbEntity
  8
0
100
AcDbLine
 62
7
  6
BYLAYER
 10
39.7790241745
 20
64.7040306021
 11
36.0839992242
 21
66.8373059907
  0
LINE
  5
226
100
AcDbEntity
  8
0
100
AcDbLine
 62
7
  6
BYLAYER
 10
36.1918178267
 20
66.8426978671
 11
39.7376017103
 21
64.7955878319
  0
LINE
  5
227
100
AcDbEntity
  8
0
100
AcDbLine
 62
7
  6
BYLAYER
 10
42.9902804131
 20
66.3469092912
 11
42.9074331085
 21
66.3947401555
  0
LINE
  5
228
100
AcDbEntity
  8
0
100
AcDbLine
 62
7
  6
BYLAYER
 10
19.8799230928
 20
99.0066862744
 11
19.9385005608
 21
98.925016631
  0
LINE
  5
229
100
AcDbEntity
  8
0
100
AcDbLine
 62
7
  6
BYLAYER
 10
42.0710367188
 20
60.5905539688
 11
42.1124579026
 21
60.4989978513
  0
LINE
  5
22A
100
AcDbEntity
  8
0
100
AcDbLine
 62
7
  6
BYLAYER
 10
34.0100129367
 20
61.4886683646
 11
34.0100124683
 21
65.5830042429
  0
LINE
  5
22B
100
AcDbEntity
  8
0
100
AcDbLine
 62
7
  6
BYLAYER
 10
34.0100144953
 20
84.0123086644
 11
34.0100127813
 21
88.1066472527
  0
LINE
  5
22C
100
AcDbEntity
  8
0
100
AcDbLine
 62
7
  6
BYLAYER
 10
34.2928384782
 20
65.7898700607
 11
34.2928498907
 21
61.4886657198
  0
LINE
  5
22D
100
AcDbEntity
  8
0
100
AcDbLine
 62
7
  6
BYLAYER
 10
34.2928556491
 20
88.1066508687
 11
34.2928556602
 21
83.7659070592
  0
LINE
  5
22E
100
AcDbEntity
  8
0
100
AcDbLine
 62
7
  6
BYLAYER
 10
34.9999712622
 20
63.7749037752
 11
34.999968907
 21
64.1014977385
  0
LINE
  5
22F
100
AcDbEntity
  8
0
100
AcDbLine
 62
7
  6
BYLAYER
 10
34.9999712622
 20
83.3709617863
 11
34.999968907
 21
83.6975557496
  0
LINE
  5
230
100
AcDbEntity
  8
0
100
AcDbLine
 62
7
  6
BYLAYER
 10
37.2626917656
 20
89.8212778727
 11
37.2626917654
 21
85.680352618
  0
LINE
  5
231
100
AcDbEntity
  8
0
100
AcDbLine
 62
7
  6
BYLAYER
 10
37.2626917771
 20
66.0842946136
 11
37.2626917769
 21
66.1568029231
  0
LINE
  5
232
100
AcDbEntity
  8
0
100
AcDbLine
 62
7
  6
BYLAYER
 10
37.5455345151
 20
89.8212757787
 11
37.5455329727
 21
85.8436500903
  0
LINE
  5
233
100
AcDbEntity
  8
0
100
AcDbLine
 62
7
  6
BYLAYER
 10
39.7376017103
 20
78.1862274726
 11
39.7376017103
 21
64.7955878319
  0
LINE
  5
234
100
AcDbEntity
  8
0
100
AcDbLine
 62
7
  6
BYLAYER
 10
39.7376017103
 20
78.1862274726
 11
36.1918219374
 21
80.2333378366
  0
LINE
  5
235
100
AcDbEntity
  8
0
100
AcDbLine
 62
7
  6
BYLAYER
 10
20.2316086509
 20
89.4477659783
 11
16.6858246844
 21
91.4948760618
  0
LINE
  5
236
100
AcDbEntity
  8
0
100
AcDbLine
 62
7
  6
BYLAYER
 10
16.8272433416
 20
91.7398269003
 11
20.5576536811
 21
89.5861219214
  0
LINE
  5
237
100
AcDbEntity
  8
0
100
AcDbLine
 62
7
  6
BYLAYER
 10
36.1198251215
 20
80.601481346
 11
39.8790167197
 21
78.4311734624
  0
LINE
  5
238
100
AcDbEntity
  8
0
100
AcDbLine
 62
7
  6
BYLAYER
 10
19.1606844473
 20
91.2091675469
 11
19.4435187393
 21
91.0458684233
  0
LINE
  5
239
100
AcDbEntity
  8
0
100
AcDbLine
 62
7
  6
BYLAYER
 10
36.1313178509
 20
81.4113894385
 11
36.4141521428
 21
81.2480903149
  0
LINE
  5
23A
100
AcDbEntity
  8
0
100
AcDbLine
 62
7
  6
BYLAYER
 10
40.0204444228
 20
64.7955885116
 11
40.0204444228
 21
78.1862281525
  0
LINE
  5
23B
100
AcDbEntity
  8
0
100
AcDbLine
 62
7
  6
BYLAYER
 10
41.4345520024
 20
99.6599299651
 11
41.4345520024
 21
99.5642719814
  0
LINE
  5
23C
100
AcDbEntity
  8
0
100
AcDbLine
 62
7
  6
BYLAYER
 10
42.1416617275
 20
99.1560312269
 11
42.1416558396
 21
100.0681741189
  0
LINE
  5
23D
100
AcDbEntity
  8
0
100
AcDbLine
 62
7
  6
BYLAYER
 10
42.9902814879
 20
61.1208488159
 11
42.9902804131
 21
66.3469092912
  0
LINE
  5
23E
100
AcDbEntity
  8
0
100
AcDbLine
 62
7
  6
BYLAYER
 10
42.9902800072
 20
80.3907494966
 11
42.9902793615
 21
85.616859341
  0
LINE
  5
23F
100
AcDbEntity
  8
0
100
AcDbLine
 62
7
  6
BYLAYER
 10
43.273122074
 20
85.6163676967
 11
43.273122118
 21
80.3907518266
  0
LINE
  5
240
100
AcDbEntity
  8
0
100
AcDbLine
 62
7
  6
BYLAYER
 10
43.273122074
 20
61.1212951834
 11
43.273122074
 21
66.3469105607
  0
LINE
  5
241
100
AcDbEntity
  8
0
100
AcDbLine
 62
7
  6
BYLAYER
 10
30.290043578
 20
105.5720584934
 11
20.2491690895
 21
99.7749915084
  0
LINE
  5
242
100
AcDbEntity
  8
0
100
AcDbLine
 62
7
  6
BYLAYER
 10
30.4314643454
 20
105.6537073241
 11
34.3205354501
 21
107.8990501704
  0
LINE
  5
243
100
AcDbEntity
  8
0
100
AcDbLine
 62
7
  6
BYLAYER
 10
20.9991657321
 20
99.7007050898
 11
31.0400402206
 21
105.4977720747
  0
LINE
  5
244
100
AcDbEntity
  8
0
100
AcDbLine
 62
7
  6
BYLAYER
 10
31.1814609878
 20
105.5794209056
 11
35.0705320924
 21
107.8247637519
  0
LINE
  5
245
100
AcDbEntity
  8
0
100
AcDbLine
 62
7
  6
BYLAYER
 10
42.848858968
 20
80.1458020381
 11
39.2626733945
 21
82.2162403964
  0
LINE
  5
246
100
AcDbEntity
  8
0
100
AcDbLine
 62
7
  6
BYLAYER
 10
22.2920399802
 20
92.0140184987
 11
22.3548342117
 21
91.9777650523
  0
LINE
  5
247
100
AcDbEntity
  8
0
100
AcDbLine
 62
7
  6
BYLAYER
 10
39.5455170571
 20
82.3795392864
 11
42.9902800072
 21
80.3907494966
  0
LINE
  5
248
100
AcDbEntity
  8
0
100
AcDbLine
 62
7
  6
BYLAYER
 10
22.4134134442
 20
94.8017955371
 11
34.0100127813
 21
88.1066472527
  0
LINE
  5
249
100
AcDbEntity
  8
0
100
AcDbLine
 62
7
  6
BYLAYER
 10
34.1514337041
 20
88.3515964772
 11
22.5548342117
 21
95.0467448513
  0
LINE
  5
24A
100
AcDbEntity
  8
0
100
AcDbLine
 62
7
  6
BYLAYER
 10
25.4244689229
 20
96.771165114
 11
25.444974101
 21
96.7855748665
  0
LINE
  5
24B
100
AcDbEntity
  8
0
100
AcDbLine
 62
7
  6
BYLAYER
 10
22.2944711591
 20
96.6342173931
 11
18.4435594307
 21
94.4109057414
  0
LINE
  5
24C
100
AcDbEntity
  8
0
100
AcDbLine
 62
7
  6
BYLAYER
 10
25.4243950601
 20
96.7711159699
 11
22.4548346594
 21
95.0566497071
  0
LINE
  5
24D
100
AcDbEntity
  8
0
100
AcDbLine
 62
7
  6
BYLAYER
 10
18.1520188599
 20
92.57231839
 11
16.7272458857
 21
91.74973024
  0
LINE
  5
24E
100
AcDbEntity
  8
0
100
AcDbLine
 62
7
  6
BYLAYER
 10
22.5548342117
 20
95.0467448513
 11
25.5241187655
 21
96.7610518548
  0
LINE
  5
24F
100
AcDbEntity
  8
0
100
AcDbLine
 62
7
  6
BYLAYER
 10
18.1700689083
 20
92.5151038146
 11
16.8272433416
 21
91.7398269003
  0
LWPOLYLINE
  5
250
100
AcDbEntity
  8
0
100
AcDbPolyline
 62
7
  6
BYLAYER
 90
4
 70
0
 10
35.9498511405
 20
66.8575448224
 10
35.9578672001
 20
66.8594033861
 10
36.0404410751
 20
66.8557135611
 10
36.0840100042
 20
66.8372935828
  0
LINE
  5
251
100
AcDbEntity
  8
0
100
AcDbLine
 62
7
  6
BYLAYER
 10
53.3725746174
 20
78.8871242274
 11
53.4554173299
 21
78.839296047
  0
LINE
  5
252
100
AcDbEntity
  8
0
100
AcDbLine
 62
7
  6
BYLAYER
 10
54.1625211671
 20
79.2475402009
 11
53.3725746174
 21
79.7036266445
  0
LINE
  5
253
100
AcDbEntity
  8
0
100
AcDbLine
 62
7
  6
BYLAYER
 10
42.0714213611
 20
87.2083135352
 11
37.5455345151
 21
89.8212757787
  0
LINE
  5
254
100
AcDbEntity
  8
0
100
AcDbLine
 62
7
  6
BYLAYER
 10
25.3832495843
 20
96.8430143361
 11
20.8573179123
 21
99.4560023287
  0
LINE
  5
255
100
AcDbEntity
  8
0
100
AcDbLine
 62
7
  6
BYLAYER
 10
42.2124574859
 20
87.4534824545
 11
37.6869553237
 21
90.0662232379
  0
LINE
  5
256
100
AcDbEntity
  8
0
100
AcDbLine
 62
7
  6
BYLAYER
 10
20.9991657321
 20
99.7007050898
 11
25.5246683857
 21
97.0879640734
  0
LINE
  5
257
100
AcDbEntity
  8
0
100
AcDbLine
 62
7
  6
BYLAYER
 10
22.3548342117
 20
92.0502725487
 11
20.4435504769
 21
90.9467989568
  0
LINE
  5
258
100
AcDbEntity
  8
0
100
AcDbLine
 62
7
  6
BYLAYER
 10
22.3548342117
 20
90.6408901899
 11
20.6296401318
 21
89.644854869
  0
LINE
  5
259
100
AcDbEntity
  8
0
100
AcDbLine
 62
7
  6
BYLAYER
 10
53.3139965624
 20
66.9183621648
 11
53.3139966222
 21
91.4134347199
  0
LINE
  5
25A
100
AcDbEntity
  8
0
100
AcDbLine
 62
7
  6
BYLAYER
 10
53.3725746174
 20
67.0000103201
 11
53.3725746174
 21
91.4950828327
  0
LINE
  5
25B
100
AcDbEntity
  8
0
100
AcDbLine
 62
7
  6
BYLAYER
 10
53.4554173299
 20
91.4950835125
 11
53.4554173299
 21
79.6557984642
  0
LINE
  5
25C
100
AcDbEntity
  8
0
100
AcDbLine
 62
7
  6
BYLAYER
 10
53.4554173299
 20
78.839296047
 11
53.4554173299
 21
67.0000109996
  0
LINE
  5
25D
100
AcDbEntity
  8
0
100
AcDbLine
 62
7
  6
BYLAYER
 10
54.1625211671
 20
80.064042618
 11
54.1625211671
 21
79.2475402009
  0
LINE
  5
25E
100
AcDbEntity
  8
0
100
AcDbLine
 62
7
  6
BYLAYER
 10
57.3444884346
 20
93.7404263626
 11
57.3444884346
 21
69.245353842
  0
LINE
  5
25F
100
AcDbEntity
  8
0
100
AcDbLine
 62
7
  6
BYLAYER
 10
41.4345520024
 20
99.6599299651
 11
42.1416558396
 21
100.0681741189
  0
LINE
  5
260
100
AcDbEntity
  8
0
100
AcDbLine
 62
7
  6
BYLAYER
 10
42.0588305185
 20
99.2038527658
 11
42.8487655647
 21
99.6599333644
  0
LINE
  5
261
100
AcDbEntity
  8
0
100
AcDbLine
 62
7
  6
BYLAYER
 10
31.0400402206
 20
105.4977720747
 11
52.2533319742
 21
93.2505494396
  0
LINE
  5
262
100
AcDbEntity
  8
0
100
AcDbLine
 62
7
  6
BYLAYER
 10
52.3533302769
 20
93.2604550168
 11
31.1400385238
 21
105.5076776516
  0
LINE
  5
263
100
AcDbEntity
  8
0
100
AcDbLine
 62
7
  6
BYLAYER
 10
57.490933572
 20
69.4494742222
 11
57.490933572
 21
93.9445467361
  0
LINE
  5
264
100
AcDbEntity
  8
0
100
AcDbLine
 62
7
  6
BYLAYER
 10
42.948550489
 20
66.4184793105
 11
42.9902795216
 21
66.5102132782
  0
LINE
  5
265
100
AcDbEntity
  8
0
100
AcDbLine
 62
7
  6
BYLAYER
 10
53.3139965923
 20
91.413434699
 11
53.3725746174
 21
91.4950828327
  0
LINE
  5
266
100
AcDbEntity
  8
0
100
AcDbLine
 62
7
  6
BYLAYER
 10
17.4285593362
 20
80.002504039
 11
29.1043537565
 21
86.7434868523
  0
LINE
  5
267
100
AcDbEntity
  8
0
100
AcDbLine
 62
7
  6
BYLAYER
 10
34.1514337041
 20
88.3515964772
 11
37.1212689643
 21
90.0662212448
  0
LINE
  5
268
100
AcDbEntity
  8
0
100
AcDbLine
 62
7
  6
BYLAYER
 10
37.2626917656
 20
89.8212778727
 11
34.2928556491
 21
88.1066508687
  0
LINE
  5
269
100
AcDbEntity
  8
0
100
AcDbLine
 62
7
  6
BYLAYER
 10
16.8272422727
 20
91.7398272116
 11
16.7272460939
 21
91.7497303602
  0
LINE
  5
26A
100
AcDbEntity
  8
0
100
AcDbLine
 62
7
  6
BYLAYER
 10
31.1814609878
 20
105.5794209056
 11
41.4345520024
 21
99.6599299651
  0
LINE
  5
26B
100
AcDbEntity
  8
0
100
AcDbLine
 62
7
  6
BYLAYER
 10
42.1416617275
 20
99.2516892106
 11
52.3947527413
 21
93.3321982705
  0
LINE
  5
26C
100
AcDbEntity
  8
0
100
AcDbLine
 62
7
  6
BYLAYER
 10
42.1416558396
 20
100.0681741189
 11
42.8487655647
 21
99.6599333644
  0
LINE
  5
26D
100
AcDbEntity
  8
0
100
AcDbLine
 62
7
  6
BYLAYER
 10
35.0705320924
 20
107.8247637519
 11
56.2838238461
 21
95.5775411167
  0
LINE
  5
26E
100
AcDbEntity
  8
0
100
AcDbLine
 62
7
  6
BYLAYER
 10
56.5338196051
 20
95.6023050586
 11
35.3205278507
 21
107.8495276942
  0
LINE
  5
26F
100
AcDbEntity
  8
0
100
AcDbLine
 62
7
  6
BYLAYER
 10
54.40314912
 20
96.8324204078
 11
120.1529028209
 21
134.792831813
  0
LINE
  5
270
100
AcDbEntity
  8
0
100
AcDbLine
 62
7
  6
BYLAYER
 10
39.2651045627
 20
86.8364392846
 11
35.4141928342
 21
84.6131276329
  0
LINE
  5
271
100
AcDbEntity
  8
0
100
AcDbLine
 62
7
  6
BYLAYER
 10
34.2928556602
 20
83.7659070592
 11
35.1024547189
 21
84.2333261305
  0
LINE
  5
272
100
AcDbEntity
  8
0
100
AcDbLine
 62
7
  6
BYLAYER
 10
35.0613392959
 20
84.0183849063
 11
34.3470928139
 21
83.6060169692
  0
LINE
  5
273
100
AcDbEntity
  8
0
100
AcDbLine
 62
7
  6
BYLAYER
 10
56.2838238461
 20
95.5775411167
 11
52.3947527413
 21
93.3321982705
  0
LINE
  5
274
100
AcDbEntity
  8
0
100
AcDbLine
 62
7
  6
BYLAYER
 10
52.2533319742
 20
93.2505494396
 11
42.2124574859
 21
87.4534824545
  0
LINE
  5
275
100
AcDbEntity
  8
0
100
AcDbLine
 62
7
  6
BYLAYER
 10
22.5548342117
 20
95.0467448513
 11
22.4548348675
 21
95.0566498273
  0
LINE
  5
276
100
AcDbEntity
  8
0
100
AcDbLine
 62
7
  6
BYLAYER
 10
25.5241187523
 20
96.7610518471
 11
25.4244717681
 21
96.7711601886
  0
LINE
  5
277
100
AcDbEntity
  8
0
100
AcDbLine
 62
7
  6
BYLAYER
 10
57.3444884346
 20
93.7404263626
 11
53.4554173299
 21
91.4950835125
  0
LINE
  5
278
100
AcDbEntity
  8
0
100
AcDbLine
 62
7
  6
BYLAYER
 10
53.3139966222
 20
91.4134347199
 11
43.273122074
 21
85.6163676967
  0
LINE
  5
279
100
AcDbEntity
  8
0
100
AcDbLine
 62
7
  6
BYLAYER
 10
36.0084912698
 20
80.7284062585
 11
36.7227711331
 21
81.1407934683
  0
LINE
  5
27A
100
AcDbEntity
  8
0
100
AcDbLine
 62
7
  6
BYLAYER
 10
36.929473842
 20
81.0689296182
 11
36.1198251215
 21
80.601481346
  0
LINE
  5
27B
100
AcDbEntity
  8
0
100
AcDbLine
 62
7
  6
BYLAYER
 10
41.3277708326
 20
83.4085178413
 11
37.4141838804
 21
81.1490208483
  0
LINE
  5
27C
100
AcDbEntity
  8
0
100
AcDbLine
 62
7
  6
BYLAYER
 10
57.490933572
 20
91.4560102965
 11
123.2528889425
 21
129.4234662969
  0
LINE
  5
27D
100
AcDbEntity
  8
0
100
AcDbLine
 62
7
  6
BYLAYER
 10
52.3533315573
 20
93.2604542776
 11
52.2533319736
 21
93.2505494399
  0
LINE
  5
27E
100
AcDbEntity
  8
0
100
AcDbLine
 62
7
  6
BYLAYER
 10
39.8790167197
 20
78.4311734624
 11
42.848858968
 21
80.1458020381
  0
LINE
  5
27F
100
AcDbEntity
  8
0
100
AcDbLine
 62
7
  6
BYLAYER
 10
40.0204444228
 20
78.1862281525
 11
42.9897289767
 21
79.9005351559
  0
LINE
  5
280
100
AcDbEntity
  8
0
100
AcDbLine
 62
7
  6
BYLAYER
 10
24.4285279981
 20
67.878130293
 11
36.1019142594
 21
74.6177227634
  0
LINE
  5
281
100
AcDbEntity
  8
0
100
AcDbLine
 62
7
  6
BYLAYER
 10
53.3725746174
 20
79.607955378
 11
54.1625211671
 21
80.064042618
  0
LINE
  5
282
100
AcDbEntity
  8
0
100
AcDbLine
 62
7
  6
BYLAYER
 10
54.1625211671
 20
79.2475402009
 11
53.4554173299
 21
78.839296047
  0
LINE
  5
283
100
AcDbEntity
  8
0
100
AcDbLine
 62
7
  6
BYLAYER
 10
36.1049083372
 20
66.8252343818
 11
34.3795785747
 21
65.829120725
  0
LINE
  5
284
100
AcDbEntity
  8
0
100
AcDbLine
 62
7
  6
BYLAYER
 10
37.3254867128
 20
66.1205490702
 11
35.4141928342
 21
65.0170696218
  0
LINE
  5
285
100
AcDbEntity
  8
0
100
AcDbLine
 62
7
  6
BYLAYER
 10
40.0204444228
 20
64.7955885116
 11
42.9902795233
 21
66.510213187
  0
LINE
  5
286
100
AcDbEntity
  8
0
100
AcDbLine
 62
7
  6
BYLAYER
 10
34.2928498907
 20
61.4886657198
 11
35.6268573121
 21
62.2588504841
  0
LINE
  5
287
100
AcDbEntity
  8
0
100
AcDbLine
 62
7
  6
BYLAYER
 10
42.948550489
 20
66.4184793105
 11
39.9790220301
 21
64.7040313232
  0
LINE
  5
288
100
AcDbEntity
  8
0
100
AcDbLine
 62
7
  6
BYLAYER
 10
35.6710385393
 20
62.216716456
 11
34.2514332564
 21
61.3971118561
  0
LINE
  5
289
100
AcDbEntity
  8
0
100
AcDbLine
 62
7
  6
BYLAYER
 10
31.0400402205
 20
105.4977720747
 11
31.1400385238
 21
105.5076776516
  0
LINE
  5
28A
100
AcDbEntity
  8
0
100
AcDbLine
 62
7
  6
BYLAYER
 10
41.3277708326
 20
63.8124598302
 11
37.4141838804
 21
61.5529628372
  0
LINE
  5
28B
100
AcDbEntity
  8
0
100
AcDbLine
 62
7
  6
BYLAYER
 10
42.9755295647
 20
66.4304049851
 11
42.9485497591
 21
66.4184701554
  0
LINE
  5
28C
100
AcDbEntity
  8
0
100
AcDbLine
 62
7
  6
BYLAYER
 10
43.273122074
 20
61.1212951834
 11
53.3139965624
 21
66.9183621648
  0
LINE
  5
28D
100
AcDbEntity
  8
0
100
AcDbLine
 62
7
  6
BYLAYER
 10
53.4554173299
 20
67.0000109996
 11
57.3444884346
 21
69.245353842
  0
LINE
  5
28E
100
AcDbEntity
  8
0
100
AcDbLine
 62
7
  6
BYLAYER
 10
53.0033286171
 20
66.2316832554
 11
42.9624541286
 21
60.4346162705
  0
LINE
  5
28F
100
AcDbEntity
  8
0
100
AcDbLine
 62
7
  6
BYLAYER
 10
53.1447493845
 20
66.3133320862
 11
57.0338204892
 21
68.5586749325
  0
ARC
  5
290
100
AcDbEntity
  8
0
100
AcDbCircle
 62
7
  6
BYLAYER
 10
23.8582517741
 20
85.8658159633
 40
5.0973430582
100
AcDbArc
 50
135.3552279353
 51
138.8664742939
  0
ARC
  5
291
100
AcDbEntity
  8
0
100
AcDbCircle
 62
7
  6
BYLAYER
 10
32.7356900959
 20
70.454383365
 40
5.0352986069
100
AcDbArc
 50
282.6355644745
 51
284.6597165018
  0
ARC
  5
292
100
AcDbEntity
  8
0
100
AcDbCircle
 62
7
  6
BYLAYER
 10
22.9267688585
 20
85.6659904293
 40
4.594347145
100
AcDbArc
 50
119.9992470401
 51
127.0915145581
  0
ARC
  5
293
100
AcDbEntity
  8
0
100
AcDbCircle
 62
7
  6
BYLAYER
 10
51.5293267597
 20
91.9969273415
 40
1.4476712042
100
AcDbArc
 50
57.6010946692
 51
59.9922483027
  0
ARC
  5
294
100
AcDbEntity
  8
0
100
AcDbCircle
 62
7
  6
BYLAYER
 10
52.0461273488
 20
91.4950774215
 40
1.4092899811
100
AcDbArc
 50
0.0002476343
 51
0.2941617163
  0
ARC
  5
295
100
AcDbEntity
  8
0
100
AcDbCircle
 62
7
  6
BYLAYER
 10
51.6901332361
 20
92.1117460495
 40
1.4092523801
100
AcDbArc
 50
59.7064415008
 51
60.0003138118
  0
ARC
  5
296
100
AcDbEntity
  8
0
100
AcDbCircle
 62
7
  6
BYLAYER
 10
52.0599940366
 20
67.0000037283
 40
1.3954232933
100
AcDbArc
 50
359.62985724
 51
0.0002985597
  0
ARC
  5
297
100
AcDbEntity
  8
0
100
AcDbCircle
 62
7
  6
BYLAYER
 10
42.6540400747
 20
61.5988592196
 40
1.1647193392
100
AcDbArc
 50
239.9876405369
 51
243.4526163634
  0
ARC
  5
298
100
AcDbEntity
  8
0
100
AcDbCircle
 62
7
  6
BYLAYER
 10
30.6852026128
 20
105.2148756589
 40
0.5068975837
100
AcDbArc
 50
120.0370692559
 51
131.022953736
  0
ARC
  5
299
100
AcDbEntity
  8
0
100
AcDbCircle
 62
7
  6
BYLAYER
 10
52.891582449
 20
66.7524908231
 40
0.5068951716
100
AcDbArc
 50
288.9784329292
 51
299.962657258
  0
ARC
  5
29A
100
AcDbEntity
  8
0
100
AcDbCircle
 62
7
  6
BYLAYER
 10
35.9913323022
 20
66.701246358
 40
0.245348321
100
AcDbArc
 50
35.2043362398
 51
55.3457654567
  0
ARC
  5
29B
100
AcDbEntity
  8
0
100
AcDbCircle
 62
7
  6
BYLAYER
 10
22.5548342117
 20
94.8834443679
 40
0.2
100
AcDbArc
 50
119.9997830432
 51
180.0001377221
  0
ARC
  5
29C
100
AcDbEntity
  8
0
100
AcDbCircle
 62
7
  6
BYLAYER
 10
39.8790224778
 20
64.8772366625
 40
0.2
100
AcDbArc
 50
240.0001377225
 51
300.0001377251
  0
ARC
  5
29D
100
AcDbEntity
  8
0
100
AcDbCircle
 62
7
  6
BYLAYER
 10
16.827245438
 20
91.5765249008
 40
0.2
100
AcDbArc
 50
119.9997830432
 51
180.0001377221
  0
ARC
  5
29E
100
AcDbEntity
  8
0
100
AcDbCircle
 62
7
  6
BYLAYER
 10
34.1514337043
 20
61.5702467999
 40
0.1999390389
100
AcDbArc
 50
239.9900512465
 51
300.0102241977
  0
ARC
  5
29F
100
AcDbEntity
  8
0
100
AcDbCircle
 62
7
  6
BYLAYER
 10
53.2269685762
 20
67.0695155058
 40
0.1744167468
100
AcDbArc
 50
299.9316107447
 51
305.2233834554
  0
SPLINE
  5
2A0
100
AcDbEntity
  8
0
100
AcDbSpline
 62
7
  6
BYLAYER
 70
0
 71
3
 72
13
 73
9
 74
0
 42
0.0000001
 43
0.0000001
 44
0.0000000001
 40
0.0
 40
0.0
 40
0.0
 40
0.0
 40
0.2894503599
 40
0.4227952978
 40
0.5488362718
 40
0.7817346134
 40
0.8918857622
 40
1.0
 40
1.0
 40
1.0
 40
1.0
 10
19.4435187393
 20
91.0458684233
 30
0.0
 10
19.5313097128
 20
90.9951808235
 30
0.0
 10
19.6660644788
 20
90.931015983
 30
0.0
 10
19.8509813392
 20
90.8771447498
 30
0.0
 10
20.0212344645
 20
90.84848158
 30
0.0
 10
20.1882605716
 20
90.852939041
 30
0.0
 10
20.3411185929
 20
90.8952823029
 30
0.0
 10
20.4107586983
 20
90.9278671707
 30
0.0
 10
20.4435504769
 20
90.9467989569
 30
0.0
  0
SPLINE
  5
2A1
100
AcDbEntity
  8
0
100
AcDbSpline
 62
7
  6
BYLAYER
 70
0
 71
3
 72
12
 73
8
 74
0
 42
0.0000001
 43
0.0000001
 44
0.0000000001
 40
0.0
 40
0.0
 40
0.0
 40
0.0
 40
0.1081622879
 40
0.2183639773
 40
0.4513669681
 40
0.7104202964
 40
1.0
 40
1.0
 40
1.0
 40
1.0
 10
18.4435594307
 20
94.4109057413
 30
0.0
 10
18.4107682077
 20
94.3919742758
 30
0.0
 10
18.3477307066
 20
94.3479615467
 30
0.0
 10
18.2346175169
 20
94.2367361997
 30
0.0
 10
18.122630064
 20
94.0541163773
 30
0.0
 10
18.0446940831
 20
93.789450868
 30
0.0
 10
18.0293355035
 20
93.5967053992
 30
0.0
 10
18.0293355035
 20
93.4953338581
 30
0.0
  0
SPLINE
  5
2A2
100
AcDbEntity
  8
0
100
AcDbSpline
 62
7
  6
BYLAYER
 70
0
 71
3
 72
15
 73
11
 74
0
 42
0.0000001
 43
0.0000001
 44
0.0000000001
 40
0.0
 40
0.0
 40
0.0
 40
0.0
 40
0.1141515087
 40
0.2373301591
 40
0.3669778071
 40
0.5000005759
 40
0.6330236626
 40
0.7626743904
 40
0.8858459846
 40
1.0
 40
1.0
 40
1.0
 40
1.0
 10
18.0293378587
 20
93.1687398948
 30
0.0
 10
18.0293378587
 20
93.079310924
 30
0.0
 10
18.0457213083
 20
92.8932077546
 30
0.0
 10
18.1110152759
 20
92.6124507574
 30
0.0
 10
18.2156318398
 20
92.3280683735
 30
0.0
 10
18.3556329018
 20
92.0507527759
 30
0.0
 10
18.525793765
 20
91.7908464992
 30
0.0
 10
18.7197699984
 20
91.5580605422
 30
0.0
 10
18.9302592546
 20
91.3611307438
 30
0.0
 10
19.0832356074
 20
91.2538938126
 30
0.0
 10
19.1606844454
 20
91.2091772659
 30
0.0
  0
SPLINE
  5
2A3
100
AcDbEntity
  8
0
100
AcDbSpline
 62
7
  6
BYLAYER
 70
0
 71
3
 72
21
 73
17
 74
0
 42
0.0000001
 43
0.0000001
 44
0.0000000001
 40
0.0
 40
0.0
 40
0.0
 40
0.0
 40
0.0624005755
 40
0.1287841705
 40
0.1984000402
 40
0.2704091638
 40
0.4174479818
 40
0.5616801689
 40
0.6303071026
 40
0.695422624
 40
0.7563971576
 40
0.8128599929
 40
0.8647832875
 40
0.91257901
 40
0.9571734779
 40
1.0
 40
1.0
 40
1.0
 40
1.0
 10
20.8577744041
 20
91.8623708401
 30
0.0
 10
20.8577744041
 20
91.9453300109
 30
0.0
 10
20.8465200251
 20
92.1166572381
 30
0.0
 10
20.8002868269
 20
92.3767821749
 30
0.0
 10
20.725069243
 20
92.6433503879
 30
0.0
 10
20.58743168
 20
93.002052767
 30
0.0
 10
20.3563700537
 20
93.4289083721
 30
0.0
 10
20.060265389
 20
93.8081376746
 30
0.0
 10
19.7937267038
 20
94.0648874302
 30
0.0
 10
19.5894813924
 20
94.2247751392
 30
0.0
 10
19.3819370988
 20
94.3517539498
 30
0.0
 10
19.1752874629
 20
94.4430901245
 30
0.0
 10
18.9736472497
 20
94.4966583844
 30
0.0
 10
18.7809807582
 20
94.5108365033
 30
0.0
 10
18.6015617023
 20
94.4845450126
 30
0.0
 10
18.4928680038
 20
94.4393732233
 30
0.0
 10
18.4435594307
 20
94.4109057413
 30
0.0
  0
SPLINE
  5
2A4
100
AcDbEntity
  8
0
100
AcDbSpline
 62
7
  6
BYLAYER
 70
0
 71
3
 72
23
 73
19
 74
0
 42
0.0000001
 43
0.0000001
 44
0.0000000001
 40
0.0
 40
0.0
 40
0.0
 40
0.0
 40
0.0660449198
 40
0.1370068841
 40
0.2116575043
 40
0.2885388699
 40
0.3660158262
 40
0.442425333
 40
0.5161677226
 40
0.5858314171
 40
0.6503214731
 40
0.7090159401
 40
0.7619590863
 40
0.8100761089
 40
0.8552919579
 40
0.9002978607
 40
0.9478480044
 40
1.0
 40
1.0
 40
1.0
 40
1.0
 10
20.2920889792
 20
91.8623694803
 30
0.0
 10
20.2920889792
 20
91.9441779258
 30
0.0
 10
20.2783836409
 20
92.1140294161
 30
0.0
 10
20.2232150033
 20
92.37094923
 30
0.0
 10
20.1343373447
 20
92.6324386318
 30
0.0
 10
20.0146266454
 20
92.8901782977
 30
0.0
 10
19.8678280901
 20
93.1360452563
 30
0.0
 10
19.6986148916
 20
93.3622449508
 30
0.0
 10
19.5123206848
 20
93.561622726
 30
0.0
 10
19.3147765981
 20
93.7279013049
 30
0.0
 10
19.1120369674
 20
93.8558682104
 30
0.0
 10
18.9100928686
 20
93.9414314436
 30
0.0
 10
18.7146607458
 20
93.9814541053
 30
0.0
 10
18.5314205978
 20
93.9733273431
 30
0.0
 10
18.3672323336
 20
93.9152618429
 30
0.0
 10
18.2302472325
 20
93.8087592395
 30
0.0
 10
18.1264951525
 20
93.6598206165
 30
0.0
 10
18.083201732
 20
93.5428318208
 30
0.0
 10
18.066759731
 20
93.4803597024
 30
0.0
  0
SPLINE
  5
2A5
100
AcDbEntity
  8
0
100
AcDbSpline
 62
7
  6
BYLAYER
 70
0
 71
3
 72
9
 73
5
 74
0
 42
0.0000001
 43
0.0000001
 44
0.0000000001
 40
0.0
 40
0.0
 40
0.0
 40
0.0
 40
0.2369894735
 40
1.0
 40
1.0
 40
1.0
 40
1.0
 10
18.066759731
 20
93.4803597024
 30
0.0
 10
18.0604391128
 20
93.4563442306
 30
0.0
 10
18.0376145194
 20
93.3540024886
 30
0.0
 10
18.0293378587
 20
93.2486931256
 30
0.0
 10
18.0293378587
 20
93.1687398948
 30
0.0
  0
SPLINE
  5
2A6
100
AcDbEntity
  8
0
100
AcDbSpline
 62
7
  6
BYLAYER
 70
0
 71
3
 72
12
 73
8
 74
0
 42
0.0000001
 43
0.0000001
 44
0.0000000001
 40
0.0
 40
0.0
 40
0.0
 40
0.0
 40
0.1081622879
 40
0.2183639773
 40
0.4513669681
 40
0.7104202964
 40
1.0
 40
1.0
 40
1.0
 40
1.0
 10
20.4435504769
 20
90.9467989569
 30
0.0
 10
20.4763416999
 20
90.9657304224
 30
0.0
 10
20.539379201
 20
91.0097431515
 30
0.0
 10
20.6524923907
 20
91.1209684985
 30
0.0
 10
20.7644798436
 20
91.3035883209
 30
0.0
 10
20.8424158245
 20
91.5682538302
 30
0.0
 10
20.8577744041
 20
91.760999299
 30
0.0
 10
20.8577744041
 20
91.8623708401
 30
0.0
  0
SPLINE
  5
2A7
100
AcDbEntity
  8
0
100
AcDbSpline
 62
7
  6
BYLAYER
 70
0
 71
3
 72
9
 73
5
 74
0
 42
0.0000001
 43
0.0000001
 44
0.0000000001
 40
0.0
 40
0.0
 40
0.0
 40
0.0
 40
0.264352799
 40
1.0
 40
1.0
 40
1.0
 40
1.0
 10
19.1606844454
 20
91.2091772659
 30
0.0
 10
19.1857799118
 20
91.1946879253
 30
0.0
 10
19.2822242648
 20
91.1426318512
 30
0.0
 10
19.3852699473
 20
91.1020937422
 30
0.0
 10
19.4633754861
 20
91.082033012
 30
0.0
  0
SPLINE
  5
2A8
100
AcDbEntity
  8
0
100
AcDbSpline
 62
7
  6
BYLAYER
 70
0
 71
3
 72
16
 73
12
 74
0
 42
0.0000001
 43
0.0000001
 44
0.0000000001
 40
0.0
 40
0.0
 40
0.0
 40
0.0
 40
0.1290012323
 40
0.2475956383
 40
0.359806208
 40
0.4710511419
 40
0.5869914663
 40
0.7121758463
 40
0.7792806259
 40
0.8496385142
 40
1.0
 40
1.0
 40
1.0
 40
1.0
 10
19.4633754861
 20
91.082033012
 30
0.0
 10
19.5196760748
 20
91.0675726942
 30
0.0
 10
19.6307030341
 20
91.0494692033
 30
0.0
 10
19.7940857335
 20
91.0602680105
 30
0.0
 10
19.9416984962
 20
91.1112125881
 30
0.0
 10
20.0678810715
 20
91.2012611372
 30
0.0
 10
20.1681416712
 20
91.326666591
 30
0.0
 10
20.2269538406
 20
91.4537922251
 30
0.0
 10
20.260376813
 20
91.5674562058
 30
0.0
 10
20.2854125787
 20
91.6948646528
 30
0.0
 10
20.2920889792
 20
91.7946166159
 30
0.0
 10
20.2920889792
 20
91.8623694803
 30
0.0
  0
SPLINE
  5
2A9
100
AcDbEntity
  8
0
100
AcDbSpline
 62
7
  6
BYLAYER
 70
0
 71
3
 72
13
 73
9
 74
0
 42
0.0000001
 43
0.0000001
 44
0.0000000001
 40
0.0
 40
0.0
 40
0.0
 40
0.0
 40
0.2894503599
 40
0.4227952978
 40
0.5488362718
 40
0.7817346134
 40
0.8918857622
 40
1.0
 40
1.0
 40
1.0
 40
1.0
 10
36.4141521428
 20
61.6520323037
 30
0.0
 10
36.5019431164
 20
61.6013447039
 30
0.0
 10
36.6366978824
 20
61.5371798634
 30
0.0
 10
36.8216147427
 20
61.4833086302
 30
0.0
 10
36.991867868
 20
61.4546454604
 30
0.0
 10
37.1588939751
 20
61.4591029214
 30
0.0
 10
37.3117519964
 20
61.5014461833
 30
0.0
 10
37.3813921018
 20
61.5340310511
 30
0.0
 10
37.4141838804
 20
61.5529628373
 30
0.0
  0
SPLINE
  5
2AA
100
AcDbEntity
  8
0
100
AcDbSpline
 62
7
  6
BYLAYER
 70
0
 71
3
 72
12
 73
8
 74
0
 42
0.0000001
 43
0.0000001
 44
0.0000000001
 40
0.0
 40
0.0
 40
0.0
 40
0.0
 40
0.1081622879
 40
0.2183639773
 40
0.4513669681
 40
0.7104202964
 40
1.0
 40
1.0
 40
1.0
 40
1.0
 10
35.4141928343
 20
65.0170696217
 30
0.0
 10
35.3814016113
 20
64.9981381562
 30
0.0
 10
35.3183641102
 20
64.9541254271
 30
0.0
 10
35.2052509205
 20
64.8429000801
 30
0.0
 10
35.0932634675
 20
64.6602802577
 30
0.0
 10
35.0153274867
 20
64.3956147484
 30
0.0
 10
34.999968907
 20
64.2028692796
 30
0.0
 10
34.999968907
 20
64.1014977385
 30
0.0
  0
SPLINE
  5
2AB
100
AcDbEntity
  8
0
100
AcDbSpline
 62
7
  6
BYLAYER
 70
0
 71
3
 72
15
 73
11
 74
0
 42
0.0000001
 43
0.0000001
 44
0.0000000001
 40
0.0
 40
0.0
 40
0.0
 40
0.0
 40
0.1141515087
 40
0.2373301591
 40
0.3669778071
 40
0.5000005759
 40
0.6330236626
 40
0.7626743904
 40
0.8858459846
 40
1.0
 40
1.0
 40
1.0
 40
1.0
 10
34.9999712622
 20
63.7749037752
 30
0.0
 10
34.9999712622
 20
63.6854748044
 30
0.0
 10
35.0163547118
 20
63.499371635
 30
0.0
 10
35.0816486795
 20
63.2186146378
 30
0.0
 10
35.1862652433
 20
62.9342322539
 30
0.0
 10
35.3262663054
 20
62.6569166563
 30
0.0
 10
35.4964271685
 20
62.3970103796
 30
0.0
 10
35.6904034019
 20
62.1642244226
 30
0.0
 10
35.9008926581
 20
61.9672946243
 30
0.0
 10
36.0538690109
 20
61.860057693
 30
0.0
 10
36.1313178489
 20
61.8153411463
 30
0.0
  0
SPLINE
  5
2AC
100
AcDbEntity
  8
0
100
AcDbSpline
 62
7
  6
BYLAYER
 70
0
 71
3
 72
21
 73
17
 74
0
 42
0.0000001
 43
0.0000001
 44
0.0000000001
 40
0.0
 40
0.0
 40
0.0
 40
0.0
 40
0.0624005755
 40
0.1287841705
 40
0.1984000402
 40
0.2704091638
 40
0.4174479818
 40
0.5616801689
 40
0.6303071026
 40
0.695422624
 40
0.7563971576
 40
0.8128599929
 40
0.8647832875
 40
0.91257901
 40
0.9571734779
 40
1.0
 40
1.0
 40
1.0
 40
1.0
 10
37.8284078076
 20
62.4685347205
 30
0.0
 10
37.8284078076
 20
62.5514938913
 30
0.0
 10
37.8171534286
 20
62.7228211185
 30
0.0
 10
37.7709202304
 20
62.9829460553
 30
0.0
 10
37.6957026465
 20
63.2495142683
 30
0.0
 10
37.5580650836
 20
63.6082166474
 30
0.0
 10
37.3270034572
 20
64.0350722525
 30
0.0
 10
37.0308987925
 20
64.414301555
 30
0.0
 10
36.7643601073
 20
64.6710513106
 30
0.0
 10
36.5601147959
 20
64.8309390196
 30
0.0
 10
36.3525705024
 20
64.9579178302
 30
0.0
 10
36.1459208664
 20
65.0492540049
 30
0.0
 10
35.9442806533
 20
65.1028222648
 30
0.0
 10
35.7516141618
 20
65.1170003837
 30
0.0
 10
35.5721951058
 20
65.090708893
 30
0.0
 10
35.4635014073
 20
65.0455371037
 30
0.0
 10
35.4141928343
 20
65.0170696217
 30
0.0
  0
SPLINE
  5
2AD
100
AcDbEntity
  8
0
100
AcDbSpline
 62
7
  6
BYLAYER
 70
0
 71
3
 72
23
 73
19
 74
0
 42
0.0000001
 43
0.0000001
 44
0.0000000001
 40
0.0
 40
0.0
 40
0.0
 40
0.0
 40
0.0660449198
 40
0.1370068841
 40
0.2116575043
 40
0.2885388699
 40
0.3660158262
 40
0.442425333
 40
0.5161677226
 40
0.5858314171
 40
0.6503214731
 40
0.7090159401
 40
0.7619590863
 40
0.8100761089
 40
0.8552919579
 40
0.9002978607
 40
0.9478480044
 40
1.0
 40
1.0
 40
1.0
 40
1.0
 10
37.2627223827
 20
62.4685333607
 30
0.0
 10
37.2627223827
 20
62.5503418062
 30
0.0
 10
37.2490170445
 20
62.7201932965
 30
0.0
 10
37.1938484068
 20
62.9771131104
 30
0.0
 10
37.1049707483
 20
63.2386025122
 30
0.0
 10
36.9852600489
 20
63.4963421781
 30
0.0
 10
36.8384614937
 20
63.7422091367
 30
0.0
 10
36.6692482951
 20
63.9684088312
 30
0.0
 10
36.4829540883
 20
64.1677866064
 30
0.0
 10
36.2854100016
 20
64.3340651853
 30
0.0
 10
36.0826703709
 20
64.4620320908
 30
0.0
 10
35.8807262721
 20
64.547595324
 30
0.0
 10
35.6852941493
 20
64.5876179857
 30
0.0
 10
35.5020540014
 20
64.5794912235
 30
0.0
 10
35.3378657372
 20
64.5214257233
 30
0.0
 10
35.200880636
 20
64.4149231199
 30
0.0
 10
35.097128556
 20
64.265984497
 30
0.0
 10
35.0538351356
 20
64.1489957012
 30
0.0
 10
35.0373931345
 20
64.0865235828
 30
0.0
  0
SPLINE
  5
2AE
100
AcDbEntity
  8
0
100
AcDbSpline
 62
7
  6
BYLAYER
 70
0
 71
3
 72
9
 73
5
 74
0
 42
0.0000001
 43
0.0000001
 44
0.0000000001
 40
0.0
 40
0.0
 40
0.0
 40
0.0
 40
0.2369894735
 40
1.0
 40
1.0
 40
1.0
 40
1.0
 10
35.0373931345
 20
64.0865235828
 30
0.0
 10
35.0310725163
 20
64.062508111
 30
0.0
 10
35.008247923
 20
63.960166369
 30
0.0
 10
34.9999712622
 20
63.854857006
 30
0.0
 10
34.9999712622
 20
63.7749037752
 30
0.0
  0
SPLINE
  5
2AF
100
AcDbEntity
  8
0
100
AcDbSpline
 62
7
  6
BYLAYER
 70
0
 71
3
 72
12
 73
8
 74
0
 42
0.0000001
 43
0.0000001
 44
0.0000000001
 40
0.0
 40
0.0
 40
0.0
 40
0.0
 40
0.1081622879
 40
0.2183639773
 40
0.4513669681
 40
0.7104202964
 40
1.0
 40
1.0
 40
1.0
 40
1.0
 10
37.4141838804
 20
61.5529628373
 30
0.0
 10
37.4469751034
 20
61.5718943028
 30
0.0
 10
37.5100126045
 20
61.6159070319
 30
0.0
 10
37.6231257942
 20
61.7271323789
 30
0.0
 10
37.7351132471
 20
61.9097522013
 30
0.0
 10
37.813049228
 20
62.1744177106
 30
0.0
 10
37.8284078076
 20
62.3671631794
 30
0.0
 10
37.8284078076
 20
62.4685347205
 30
0.0
  0
SPLINE
  5
2B0
100
AcDbEntity
  8
0
100
AcDbSpline
 62
7
  6
BYLAYER
 70
0
 71
3
 72
9
 73
5
 74
0
 42
0.0000001
 43
0.0000001
 44
0.0000000001
 40
0.0
 40
0.0
 40
0.0
 40
0.0
 40
0.264352799
 40
1.0
 40
1.0
 40
1.0
 40
1.0
 10
36.1313178489
 20
61.8153411463
 30
0.0
 10
36.1564133153
 20
61.8008518057
 30
0.0
 10
36.2528576683
 20
61.7487957316
 30
0.0
 10
36.3559033509
 20
61.7082576226
 30
0.0
 10
36.4340088897
 20
61.6881968924
 30
0.0
  0
SPLINE
  5
2B1
100
AcDbEntity
  8
0
100
AcDbSpline
 62
7
  6
BYLAYER
 70
0
 71
3
 72
16
 73
12
 74
0
 42
0.0000001
 43
0.0000001
 44
0.0000000001
 40
0.0
 40
0.0
 40
0.0
 40
0.0
 40
0.1290012323
 40
0.2475956383
 40
0.359806208
 40
0.4710511419
 40
0.5869914663
 40
0.7121758463
 40
0.7792806259
 40
0.8496385142
 40
1.0
 40
1.0
 40
1.0
 40
1.0
 10
36.4340088897
 20
61.6881968924
 30
0.0
 10
36.4903094783
 20
61.6737365746
 30
0.0
 10
36.6013364376
 20
61.6556330837
 30
0.0
 10
36.764719137
 20
61.6664318909
 30
0.0
 10
36.9123318998
 20
61.7173764685
 30
0.0
 10
37.038514475
 20
61.8074250176
 30
0.0
 10
37.1387750747
 20
61.9328304714
 30
0.0
 10
37.1975872441
 20
62.0599561055
 30
0.0
 10
37.2310102166
 20
62.1736200862
 30
0.0
 10
37.2560459823
 20
62.3010285332
 30
0.0
 10
37.2627223827
 20
62.4007804963
 30
0.0
 10
37.2627223827
 20
62.4685333607
 30
0.0
  0
SPLINE
  5
2B2
100
AcDbEntity
  8
0
100
AcDbSpline
 62
7
  6
BYLAYER
 70
0
 71
3
 72
13
 73
9
 74
0
 42
0.0000001
 43
0.0000001
 44
0.0000000001
 40
0.0
 40
0.0
 40
0.0
 40
0.0
 40
0.2894503599
 40
0.4227952978
 40
0.5488362718
 40
0.7817346134
 40
0.8918857622
 40
1.0
 40
1.0
 40
1.0
 40
1.0
 10
36.4141521428
 20
81.2480903149
 30
0.0
 10
36.5019431164
 20
81.197402715
 30
0.0
 10
36.6366978824
 20
81.1332378745
 30
0.0
 10
36.8216147427
 20
81.0793666413
 30
0.0
 10
36.991867868
 20
81.0507034715
 30
0.0
 10
37.1588939751
 20
81.0551609325
 30
0.0
 10
37.3117519964
 20
81.0975041944
 30
0.0
 10
37.3813921018
 20
81.1300890622
 30
0.0
 10
37.4141838804
 20
81.1490208484
 30
0.0
  0
SPLINE
  5
2B3
100
AcDbEntity
  8
0
100
AcDbSpline
 62
7
  6
BYLAYER
 70
0
 71
3
 72
12
 73
8
 74
0
 42
0.0000001
 43
0.0000001
 44
0.0000000001
 40
0.0
 40
0.0
 40
0.0
 40
0.0
 40
0.1081622879
 40
0.2183639773
 40
0.4513669681
 40
0.7104202964
 40
1.0
 40
1.0
 40
1.0
 40
1.0
 10
35.4141928343
 20
84.6131276328
 30
0.0
 10
35.3814016113
 20
84.5941961673
 30
0.0
 10
35.3183641102
 20
84.5501834382
 30
0.0
 10
35.2052509205
 20
84.4389580913
 30
0.0
 10
35.0932634675
 20
84.2563382688
 30
0.0
 10
35.0153274867
 20
83.9916727595
 30
0.0
 10
34.999968907
 20
83.7989272907
 30
0.0
 10
34.999968907
 20
83.6975557496
 30
0.0
  0
SPLINE
  5
2B4
100
AcDbEntity
  8
0
100
AcDbSpline
 62
7
  6
BYLAYER
 70
0
 71
3
 72
15
 73
11
 74
0
 42
0.0000001
 43
0.0000001
 44
0.0000000001
 40
0.0
 40
0.0
 40
0.0
 40
0.0
 40
0.1141515087
 40
0.2373301591
 40
0.3669778071
 40
0.5000005759
 40
0.6330236626
 40
0.7626743904
 40
0.8858459846
 40
1.0
 40
1.0
 40
1.0
 40
1.0
 10
34.9999712622
 20
83.3709617863
 30
0.0
 10
34.9999712622
 20
83.2815328155
 30
0.0
 10
35.0163547118
 20
83.0954296461
 30
0.0
 10
35.0816486795
 20
82.8146726489
 30
0.0
 10
35.1862652433
 20
82.5302902651
 30
0.0
 10
35.3262663054
 20
82.2529746674
 30
0.0
 10
35.4964271685
 20
81.9930683907
 30
0.0
 10
35.6904034019
 20
81.7602824337
 30
0.0
 10
35.9008926581
 20
81.5633526354
 30
0.0
 10
36.0538690109
 20
81.4561157041
 30
0.0
 10
36.1313178489
 20
81.4113991574
 30
0.0
  0
SPLINE
  5
2B5
100
AcDbEntity
  8
0
100
AcDbSpline
 62
7
  6
BYLAYER
 70
0
 71
3
 72
21
 73
17
 74
0
 42
0.0000001
 43
0.0000001
 44
0.0000000001
 40
0.0
 40
0.0
 40
0.0
 40
0.0
 40
0.0624005755
 40
0.1287841705
 40
0.1984000402
 40
0.2704091638
 40
0.4174479818
 40
0.5616801689
 40
0.6303071026
 40
0.695422624
 40
0.7563971576
 40
0.8128599929
 40
0.8647832875
 40
0.91257901
 40
0.9571734779
 40
1.0
 40
1.0
 40
1.0
 40
1.0
 10
37.8284078076
 20
82.0645927316
 30
0.0
 10
37.8284078076
 20
82.1475519024
 30
0.0
 10
37.8171534286
 20
82.3188791296
 30
0.0
 10
37.7709202304
 20
82.5790040664
 30
0.0
 10
37.6957026465
 20
82.8455722794
 30
0.0
 10
37.5580650836
 20
83.2042746585
 30
0.0
 10
37.3270034572
 20
83.6311302636
 30
0.0
 10
37.0308987925
 20
84.0103595661
 30
0.0
 10
36.7643601073
 20
84.2671093217
 30
0.0
 10
36.5601147959
 20
84.4269970307
 30
0.0
 10
36.3525705024
 20
84.5539758413
 30
0.0
 10
36.1459208664
 20
84.645312016
 30
0.0
 10
35.9442806533
 20
84.6988802759
 30
0.0
 10
35.7516141618
 20
84.7130583948
 30
0.0
 10
35.5721951058
 20
84.6867669042
 30
0.0
 10
35.4635014073
 20
84.6415951148
 30
0.0
 10
35.4141928343
 20
84.6131276328
 30
0.0
  0
SPLINE
  5
2B6
100
AcDbEntity
  8
0
100
AcDbSpline
 62
7
  6
BYLAYER
 70
0
 71
3
 72
23
 73
19
 74
0
 42
0.0000001
 43
0.0000001
 44
0.0000000001
 40
0.0
 40
0.0
 40
0.0
 40
0.0
 40
0.0660449198
 40
0.1370068841
 40
0.2116575043
 40
0.2885388699
 40
0.3660158262
 40
0.442425333
 40
0.5161677226
 40
0.5858314171
 40
0.6503214731
 40
0.7090159401
 40
0.7619590863
 40
0.8100761089
 40
0.8552919579
 40
0.9002978607
 40
0.9478480044
 40
1.0
 40
1.0
 40
1.0
 40
1.0
 10
37.2627223827
 20
82.0645913718
 30
0.0
 10
37.2627223827
 20
82.1463998173
 30
0.0
 10
37.2490170445
 20
82.3162513076
 30
0.0
 10
37.1938484068
 20
82.5731711215
 30
0.0
 10
37.1049707483
 20
82.8346605233
 30
0.0
 10
36.9852600489
 20
83.0924001892
 30
0.0
 10
36.8384614937
 20
83.3382671478
 30
0.0
 10
36.6692482951
 20
83.5644668423
 30
0.0
 10
36.4829540883
 20
83.7638446175
 30
0.0
 10
36.2854100016
 20
83.9301231964
 30
0.0
 10
36.0826703709
 20
84.0580901019
 30
0.0
 10
35.8807262721
 20
84.1436533351
 30
0.0
 10
35.6852941493
 20
84.1836759968
 30
0.0
 10
35.5020540014
 20
84.1755492346
 30
0.0
 10
35.3378657372
 20
84.1174837344
 30
0.0
 10
35.200880636
 20
84.010981131
 30
0.0
 10
35.097128556
 20
83.8620425081
 30
0.0
 10
35.0538351356
 20
83.7450537123
 30
0.0
 10
35.0373931345
 20
83.6825815939
 30
0.0
  0
SPLINE
  5
2B7
100
AcDbEntity
  8
0
100
AcDbSpline
 62
7
  6
BYLAYER
 70
0
 71
3
 72
9
 73
5
 74
0
 42
0.0000001
 43
0.0000001
 44
0.0000000001
 40
0.0
 40
0.0
 40
0.0
 40
0.0
 40
0.2369894735
 40
1.0
 40
1.0
 40
1.0
 40
1.0
 10
35.0373931345
 20
83.6825815939
 30
0.0
 10
35.0310725163
 20
83.6585661222
 30
0.0
 10
35.008247923
 20
83.5562243801
 30
0.0
 10
34.9999712622
 20
83.4509150171
 30
0.0
 10
34.9999712622
 20
83.3709617863
 30
0.0
  0
SPLINE
  5
2B8
100
AcDbEntity
  8
0
100
AcDbSpline
 62
7
  6
BYLAYER
 70
0
 71
3
 72
12
 73
8
 74
0
 42
0.0000001
 43
0.0000001
 44
0.0000000001
 40
0.0
 40
0.0
 40
0.0
 40
0.0
 40
0.1081622879
 40
0.2183639773
 40
0.4513669681
 40
0.7104202964
 40
1.0
 40
1.0
 40
1.0
 40
1.0
 10
37.4141838804
 20
81.1490208484
 30
0.0
 10
37.4469751034
 20
81.1679523139
 30
0.0
 10
37.5100126045
 20
81.211965043
 30
0.0
 10
37.6231257942
 20
81.32319039
 30
0.0
 10
37.7351132471
 20
81.5058102124
 30
0.0
 10
37.813049228
 20
81.7704757217
 30
0.0
 10
37.8284078076
 20
81.9632211905
 30
0.0
 10
37.8284078076
 20
82.0645927316
 30
0.0
  0
SPLINE
  5
2B9
100
AcDbEntity
  8
0
100
AcDbSpline
 62
7
  6
BYLAYER
 70
0
 71
3
 72
9
 73
5
 74
0
 42
0.0000001
 43
0.0000001
 44
0.0000000001
 40
0.0
 40
0.0
 40
0.0
 40
0.0
 40
0.264352799
 40
1.0
 40
1.0
 40
1.0
 40
1.0
 10
36.1313178489
 20
81.4113991574
 30
0.0
 10
36.1564133153
 20
81.3969098168
 30
0.0
 10
36.2528576683
 20
81.3448537427
 30
0.0
 10
36.3559033509
 20
81.3043156337
 30
0.0
 10
36.4340088897
 20
81.2842549036
 30
0.0
  0
SPLINE
  5
2BA
100
AcDbEntity
  8
0
100
AcDbSpline
 62
7
  6
BYLAYER
 70
0
 71
3
 72
16
 73
12
 74
0
 42
0.0000001
 43
0.0000001
 44
0.0000000001
 40
0.0
 40
0.0
 40
0.0
 40
0.0
 40
0.1290012323
 40
0.2475956383
 40
0.359806208
 40
0.4710511419
 40
0.5869914663
 40
0.7121758463
 40
0.7792806259
 40
0.8496385142
 40
1.0
 40
1.0
 40
1.0
 40
1.0
 10
36.4340088897
 20
81.2842549036
 30
0.0
 10
36.4903094783
 20
81.2697945857
 30
0.0
 10
36.6013364376
 20
81.2516910948
 30
0.0
 10
36.764719137
 20
81.2624899021
 30
0.0
 10
36.9123318998
 20
81.3134344796
 30
0.0
 10
37.038514475
 20
81.4034830287
 30
0.0
 10
37.1387750747
 20
81.5288884825
 30
0.0
 10
37.1975872441
 20
81.6560141166
 30
0.0
 10
37.2310102166
 20
81.7696780973
 30
0.0
 10
37.2560459823
 20
81.8970865443
 30
0.0
 10
37.2627223827
 20
81.9968385075
 30
0.0
 10
37.2627223827
 20
82.0645913718
 30
0.0
  0
SPLINE
  5
2BB
100
AcDbEntity
  8
0
100
AcDbSpline
 62
7
  6
BYLAYER
 70
0
 71
3
 72
11
 73
7
 74
0
 42
0.0000001
 43
0.0000001
 44
0.0000000001
 40
0.0
 40
0.0
 40
0.0
 40
0.0
 40
0.255046615
 40
0.5043107842
 40
0.752037366
 40
1.0
 40
1.0
 40
1.0
 40
1.0
 10
57.490933572
 20
69.4494742222
 30
0.0
 10
57.490933572
 20
69.3604847018
 30
0.0
 10
57.4746436068
 20
69.1838491529
 30
0.0
 10
57.3916405514
 20
68.9321367147
 30
0.0
 10
57.2457194148
 20
68.7128797823
 30
0.0
 10
57.1087472267
 20
68.6019336464
 30
0.0
 10
57.0338204892
 20
68.5586749325
 30
0.0
  0
SPLINE
  5
2BC
100
AcDbEntity
  8
0
100
AcDbSpline
 62
7
  6
BYLAYER
 70
0
 71
3
 72
13
 73
9
 74
0
 42
0.0000001
 43
0.0000001
 44
0.0000000001
 40
0.0
 40
0.0
 40
0.0
 40
0.0
 40
0.2431634611
 40
0.3705646075
 40
0.5000093758
 40
0.6294532942
 40
0.7568520123
 40
1.0
 40
1.0
 40
1.0
 40
1.0
 10
56.5338196051
 20
95.6023050586
 30
0.0
 10
56.6734904859
 20
95.5216678622
 30
0.0
 10
56.8667316268
 20
95.3628763746
 30
0.0
 10
57.0801095045
 20
95.1086055219
 30
0.0
 10
57.2211444813
 20
94.8939380673
 30
0.0
 10
57.3365310062
 20
94.6644644906
 30
0.0
 10
57.4500379823
 20
94.3525483578
 30
0.0
 10
57.490933572
 20
94.1058136026
 30
0.0
 10
57.490933572
 20
93.9445467361
 30
0.0
  0
SPLINE
  5
2BD
100
AcDbEntity
  8
0
100
AcDbSpline
 62
7
  6
BYLAYER
 70
0
 71
3
 72
11
 73
7
 74
0
 42
0.0000001
 43
0.0000001
 44
0.0000000001
 40
0.0
 40
0.0
 40
0.0
 40
0.0
 40
0.2479488964
 40
0.4956847086
 40
0.7449574249
 40
1.0
 40
1.0
 40
1.0
 40
1.0
 10
34.3205354501
 20
107.8990501704
 30
0.0
 10
34.3954564703
 20
107.9423055834
 30
0.0
 10
34.5600200591
 20
108.0054484302
 30
0.0
 10
34.8228579792
 20
108.022203023
 30
0.0
 10
35.0823481839
 20
107.9682261628
 30
0.0
 10
35.2434630613
 20
107.8940200645
 30
0.0
 10
35.3205278507
 20
107.8495276942
 30
0.0
  0
SPLINE
  5
2BE
100
AcDbEntity
  8
0
100
AcDbSpline
 62
7
  6
BYLAYER
 70
0
 71
3
 72
15
 73
11
 74
0
 42
0.0000001
 43
0.0000001
 44
0.0000000001
 40
0.0
 40
0.0
 40
0.0
 40
0.0
 40
0.1143091036
 40
0.2375257765
 40
0.3670988103
 40
0.500001134
 40
0.6329033004
 40
0.7624758742
 40
0.8856918224
 40
1.0
 40
1.0
 40
1.0
 40
1.0
 10
53.4553987563
 20
91.502312812
 30
0.0
 10
53.4549708966
 20
91.585719127
 30
0.0
 10
53.4390254795
 20
91.7591135011
 30
0.0
 10
53.3775725708
 20
92.0205342113
 30
0.0
 10
53.279821005
 20
92.2851520236
 30
0.0
 10
53.1494351698
 20
92.5431738292
 30
0.0
 10
52.9911735529
 20
92.7851010618
 30
0.0
 10
52.8108829476
 20
93.0020635113
 30
0.0
 10
52.615212261
 20
93.185991238
 30
0.0
 10
52.4730211108
 20
93.2864956159
 30
0.0
 10
52.4010031935
 20
93.3285682117
 30
0.0
  0
SPLINE
  5
2BF
100
AcDbEntity
  8
0
100
AcDbSpline
 62
7
  6
BYLAYER
 70
0
 71
3
 72
11
 73
7
 74
0
 42
0.0000001
 43
0.0000001
 44
0.0000000001
 40
0.0
 40
0.0
 40
0.0
 40
0.0
 40
0.289775222
 40
0.5490688033
 40
0.782225076
 40
1.0
 40
1.0
 40
1.0
 40
1.0
 10
31.1814609878
 20
105.5794209056
 30
0.0
 10
31.1156257207
 20
105.6174300549
 30
0.0
 10
30.9847051184
 20
105.6797428868
 30
0.0
 10
30.7834452165
 20
105.7282998817
 30
0.0
 10
30.5946331574
 20
105.7235377918
 30
0.0
 10
30.4809468644
 20
105.6822631691
 30
0.0
 10
30.4314698585
 20
105.6536977752
 30
0.0
  0
SPLINE
  5
2C0
100
AcDbEntity
  8
0
100
AcDbSpline
 62
7
  6
BYLAYER
 70
0
 71
3
 72
9
 73
5
 74
0
 42
0.0000001
 43
0.0000001
 44
0.0000000001
 40
0.0
 40
0.0
 40
0.0
 40
0.0
 40
0.5421465298
 40
1.0
 40
1.0
 40
1.0
 40
1.0
 10
35.0705320924
 20
107.8247637519
 30
0.0
 10
35.1031600959
 20
107.843601426
 30
0.0
 10
35.1678055259
 20
107.8718281809
 30
0.0
 10
35.2397402157
 20
107.8753081398
 30
0.0
 10
35.2708362996
 20
107.8685701259
 30
0.0
  0
SPLINE
  5
2C1
100
AcDbEntity
  8
0
100
AcDbSpline
 62
7
  6
BYLAYER
 70
0
 71
3
 72
9
 73
5
 74
0
 42
0.0000001
 43
0.0000001
 44
0.0000000001
 40
0.0
 40
0.0
 40
0.0
 40
0.0
 40
0.2538732913
 40
1.0
 40
1.0
 40
1.0
 40
1.0
 10
35.2708362996
 20
107.8685701259
 30
0.0
 10
35.2752471358
 20
107.8676143697
 30
0.0
 10
35.2924758984
 20
107.8632108341
 30
0.0
 10
35.3090290702
 20
107.8561395476
 30
0.0
 10
35.3205162363
 20
107.8495075771
 30
0.0
  0
SPLINE
  5
2C2
100
AcDbEntity
  8
0
100
AcDbSpline
 62
7
  6
BYLAYER
 70
0
 71
3
 72
11
 73
7
 74
0
 42
0.0000001
 43
0.0000001
 44
0.0000000001
 40
0.0
 40
0.0
 40
0.0
 40
0.0
 40
0.28953738
 40
0.5491091728
 40
0.782251319
 40
1.0
 40
1.0
 40
1.0
 40
1.0
 10
57.3444884346
 20
93.7404263588
 30
0.0
 10
57.3664148775
 20
93.753085521
 30
0.0
 10
57.4062049143
 20
93.7805201911
 30
0.0
 10
57.4538013396
 20
93.8304879612
 30
0.0
 10
57.4839176948
 20
93.8858072406
 30
0.0
 10
57.4909103438
 20
93.9255058219
 30
0.0
 10
57.490910343
 20
93.9445467361
 30
0.0
  0
SPLINE
  5
2C3
100
AcDbEntity
  8
0
100
AcDbSpline
 62
7
  6
BYLAYER
 70
0
 71
3
 72
11
 73
7
 74
0
 42
0.0000001
 43
0.0000001
 44
0.0000000001
 40
0.0
 40
0.0
 40
0.0
 40
0.0
 40
0.2181782417
 40
0.4515021242
 40
0.7106265084
 40
1.0
 40
1.0
 40
1.0
 40
1.0
 10
53.1447438714
 20
66.3133416352
 30
0.0
 10
53.19374896
 20
66.3416345691
 30
0.0
 10
53.2854988024
 20
66.4184740008
 30
0.0
 10
53.3836518462
 20
66.5774043913
 30
0.0
 10
53.4426604858
 20
66.7732718571
 30
0.0
 10
53.4549029764
 20
66.9159395062
 30
0.0
 10
53.4553882115
 20
66.9909890637
 30
0.0
  0
SPLINE
  5
2C4
100
AcDbEntity
  8
0
100
AcDbSpline
 62
7
  6
BYLAYER
 70
0
 71
3
 72
15
 73
11
 74
0
 42
0.0000001
 43
0.0000001
 44
0.0000000001
 40
0.0
 40
0.0
 40
0.0
 40
0.0
 40
0.1141444714
 40
0.2373317044
 40
0.3669734974
 40
0.4999989179
 40
0.633024489
 40
0.7626667215
 40
0.8858546472
 40
1.0
 40
1.0
 40
1.0
 40
1.0
 10
56.2838238461
 20
95.5775411168
 30
0.0
 10
56.3564282523
 20
95.5356238916
 30
0.0
 10
56.4998461134
 20
95.4350808088
 30
0.0
 10
56.6971945557
 20
95.2504709307
 30
0.0
 10
56.8790419293
 20
95.032214618
 30
0.0
 10
57.0385791189
 20
94.7885579193
 30
0.0
 10
57.1698247929
 20
94.528566647
 30
0.0
 10
57.2679183412
 20
94.2619536834
 30
0.0
 10
57.329122968
 20
93.9987389383
 30
0.0
 10
57.3444884345
 20
93.8242628809
 30
0.0
 10
57.3444884346
 20
93.7404263607
 30
0.0
  0
SPLINE
  5
2C5
100
AcDbEntity
  8
0
100
AcDbSpline
 62
7
  6
BYLAYER
 70
0
 71
3
 72
11
 73
7
 74
0
 42
0.0000001
 43
0.0000001
 44
0.0000000001
 40
0.0
 40
0.0
 40
0.0
 40
0.0
 40
0.2820369793
 40
0.5415374176
 40
0.7794680529
 40
1.0
 40
1.0
 40
1.0
 40
1.0
 10
57.3444884346
 20
69.245353844
 30
0.0
 10
57.3444884345
 20
69.186274347
 30
0.0
 10
57.3373995945
 20
69.0726319819
 30
0.0
 10
57.3025832776
 20
68.9123543542
 30
0.0
 10
57.2443661693
 20
68.772686125
 30
0.0
 10
57.1886718293
 20
68.6931959795
 30
0.0
 10
57.1576158624
 20
68.6589969087
 30
0.0
  0
SPLINE
  5
2C6
100
AcDbEntity
  8
0
100
AcDbSpline
 62
7
  6
BYLAYER
 70
0
 71
3
 72
9
 73
5
 74
0
 42
0.0000001
 43
0.0000001
 44
0.0000000001
 40
0.0
 40
0.0
 40
0.0
 40
0.0
 40
0.2539256572
 40
1.0
 40
1.0
 40
1.0
 40
1.0
 10
57.1576158624
 20
68.6589969087
 30
0.0
 10
57.1485285743
 20
68.6489899168
 30
0.0
 10
57.1113197509
 20
68.6108996533
 30
0.0
 10
57.0682122205
 20
68.5785389821
 30
0.0
 10
57.0338169854
 20
68.5586810012
 30
0.0
  0
SPLINE
  5
2C7
100
AcDbEntity
  8
0
100
AcDbSpline
 62
7
  6
BYLAYER
 70
0
 71
3
 72
9
 73
5
 74
0
 42
0.0000001
 43
0.0000001
 44
0.0000000001
 40
0.0
 40
0.0
 40
0.0
 40
0.0
 40
0.2478761262
 40
1.0
 40
1.0
 40
1.0
 40
1.0
 10
57.490910343
 20
69.4494742222
 30
0.0
 10
57.4909103432
 20
69.4450719942
 30
0.0
 10
57.4902154031
 20
69.4273166843
 30
0.0
 10
57.4866696047
 20
69.4096917003
 30
0.0
 10
57.4825958229
 20
69.3969705065
 30
0.0
  0
SPLINE
  5
2C8
100
AcDbEntity
  8
0
100
AcDbSpline
 62
7
  6
BYLAYER
 70
0
 71
3
 72
9
 73
5
 74
0
 42
0.0000001
 43
0.0000001
 44
0.0000000001
 40
0.0
 40
0.0
 40
0.0
 40
0.0
 40
0.4578402911
 40
1.0
 40
1.0
 40
1.0
 40
1.0
 10
57.4825958229
 20
69.3969705065
 30
0.0
 10
57.4728898544
 20
69.36666169
 30
0.0
 10
57.4339079544
 20
69.306080172
 30
0.0
 10
57.3771256296
 20
69.2641968258
 30
0.0
 10
57.3444884346
 20
69.2453538449
 30
0.0
  0
SPLINE
  5
2C9
100
AcDbEntity
  8
0
100
AcDbSpline
 62
7
  6
BYLAYER
 70
0
 71
3
 72
11
 73
7
 74
0
 42
0.0000001
 43
0.0000001
 44
0.0000000001
 40
0.0
 40
0.0
 40
0.0
 40
0.0
 40
0.2177504418
 40
0.4508934119
 40
0.7104646159
 40
1.0
 40
1.0
 40
1.0
 40
1.0
 10
56.5338079908
 20
95.6022849415
 30
0.0
 10
56.517317891
 20
95.6118052927
 30
0.0
 10
56.4794414459
 20
95.6255986297
 30
0.0
 10
56.4164753815
 20
95.6271769512
 30
0.0
 10
56.3494040355
 20
95.610941601
 30
0.0
 10
56.3057500842
 20
95.5902001598
 30
0.0
 10
56.2838238468
 20
95.5775411163
 30
0.0
  0
SPLINE
  5
2CA
100
AcDbEntity
  8
0
100
AcDbSpline
 62
7
  6
BYLAYER
 70
0
 71
3
 72
11
 73
7
 74
0
 42
0.0000001
 43
0.0000001
 44
0.0000000001
 40
0.0
 40
0.0
 40
0.0
 40
0.0
 40
0.2177779888
 40
0.450937459
 40
0.7102291239
 40
1.0
 40
1.0
 40
1.0
 40
1.0
 10
34.3205389538
 20
107.8990441017
 30
0.0
 10
34.3700168194
 20
107.927609992
 30
0.0
 10
34.4837053523
 20
107.9688850868
 30
0.0
 10
34.6725193145
 20
107.9736442498
 30
0.0
 10
34.8737786886
 20
107.9250860549
 30
0.0
 10
35.0046975954
 20
107.8627724566
 30
0.0
 10
35.0705320924
 20
107.8247637519
 30
0.0
  0
SPLINE
  5
2CB
100
AcDbEntity
  8
0
100
AcDbSpline
 62
7
  6
BYLAYER
 70
0
 71
3
 72
18
 73
14
 74
0
 42
0.0000001
 43
0.0000001
 44
0.0000000001
 40
0.0
 40
0.0
 40
0.0
 40
0.0
 40
0.0428463713
 40
0.0874636897
 40
0.135285356
 40
0.1872351914
 40
0.2437279493
 40
0.3047348545
 40
0.4383686052
 40
0.5826738775
 40
0.7297900851
 40
0.8713403198
 40
1.0
 40
1.0
 40
1.0
 40
1.0
 10
38.8747196259
 20
86.7842398163
 30
0.0
 10
38.9277226639
 20
86.814840391
 30
0.0
 10
39.0445573364
 20
86.8634100663
 30
0.0
 10
39.2374296529
 20
86.8916798438
 30
0.0
 10
39.4445430014
 20
86.8764197504
 30
0.0
 10
39.6613048253
 20
86.8188485837
 30
0.0
 10
39.8834677666
 20
86.7206692146
 30
0.0
 10
40.1901452765
 20
86.5329502203
 30
0.0
 10
40.5554913978
 20
86.2093948649
 30
0.0
 10
40.9309422362
 20
85.7287243433
 30
0.0
 10
41.2266957422
 20
85.1821102081
 30
0.0
 10
41.4185765538
 20
84.6147720282
 30
0.0
 10
41.4699934525
 20
84.2283564003
 30
0.0
 10
41.4699934525
 20
84.0445773877
 30
0.0
  0
SPLINE
  5
2CC
100
AcDbEntity
  8
0
100
AcDbSpline
 62
7
  6
BYLAYER
 70
0
 71
3
 72
14
 73
10
 74
0
 42
0.0000001
 43
0.0000001
 44
0.0000000001
 40
0.0
 40
0.0
 40
0.0
 40
0.0
 40
0.0951144086
 40
0.1949936655
 40
0.3033255796
 40
0.4222367605
 40
0.5523735806
 40
0.6931918188
 40
1.0
 40
1.0
 40
1.0
 40
1.0
 10
21.9040862224
 20
96.5820179247
 30
0.0
 10
21.9628255861
 20
96.6159302883
 30
0.0
 10
22.0939973436
 20
96.6682413715
 30
0.0
 10
22.3112930832
 20
96.6914479387
 30
0.0
 10
22.5444369095
 20
96.6613428119
 30
0.0
 10
22.7873311943
 20
96.5800188648
 30
0.0
 10
23.0343476497
 20
96.4502050663
 30
0.0
 10
23.3704696778
 20
96.2104145498
 30
0.0
 10
23.5954441649
 20
95.9793402067
 30
0.0
 10
23.7329961184
 20
95.809204594
 30
0.0
  0
SPLINE
  5
2CD
100
AcDbEntity
  8
0
100
AcDbSpline
 62
7
  6
BYLAYER
 70
0
 71
3
 72
9
 73
5
 74
0
 42
0.0000001
 43
0.0000001
 44
0.0000000001
 40
0.0
 40
0.0
 40
0.0
 40
0.0
 40
0.4866189863
 40
1.0
 40
1.0
 40
1.0
 40
1.0
 10
17.7818506325
 20
83.3502981716
 30
0.0
 10
17.7818506325
 20
82.8736280385
 30
0.0
 10
17.835684324
 20
81.8936283478
 30
0.0
 10
17.9820372984
 20
80.9236129005
 30
0.0
 10
18.0779139253
 20
80.4299520751
 30
0.0
  0
SPLINE
  5
2CE
100
AcDbEntity
  8
0
100
AcDbSpline
 62
7
  6
BYLAYER
 70
0
 71
3
 72
16
 73
12
 74
0
 42
0.0000001
 43
0.0000001
 44
0.0000000001
 40
0.0
 40
0.0
 40
0.0
 40
0.0
 40
0.1546357565
 40
0.3008277677
 40
0.4378059811
 40
0.5653091377
 40
0.683712768
 40
0.7941558986
 40
0.8986165073
 40
0.9495153445
 40
1.0
 40
1.0
 40
1.0
 40
1.0
 10
25.1489412137
 20
68.2046063557
 30
0.0
 10
25.5438165339
 20
67.8627533019
 30
0.0
 10
26.3417978273
 20
67.2309278226
 30
0.0
 10
27.5886647971
 20
66.4311065296
 30
0.0
 10
28.8356752077
 20
65.8160967203
 30
0.0
 10
30.0632464752
 20
65.3964246524
 30
0.0
 10
31.2525829631
 20
65.1801251948
 30
0.0
 10
32.3846077247
 20
65.1728016425
 30
0.0
 10
33.2729142336
 20
65.3458648436
 30
0.0
 10
33.9254560276
 20
65.5891425745
 30
0.0
 10
34.2318962605
 20
65.7438831281
 30
0.0
 10
34.3795711321
 20
65.8291336351
 30
0.0
  0
SPLINE
  5
2CF
100
AcDbEntity
  8
0
100
AcDbSpline
 62
7
  6
BYLAYER
 70
0
 71
3
 72
15
 73
11
 74
0
 42
0.0000001
 43
0.0000001
 44
0.0000000001
 40
0.0
 40
0.0
 40
0.0
 40
0.0
 40
0.1485793323
 40
0.2895082532
 40
0.4227234642
 40
0.5486404829
 40
0.6680008203
 40
0.7819381813
 40
0.8919868373
 40
1.0
 40
1.0
 40
1.0
 40
1.0
 10
36.3434809176
 20
72.6339783655
 30
0.0
 10
36.3434809176
 20
72.3084501033
 30
0.0
 10
36.3172194487
 20
71.6737187591
 30
0.0
 10
36.1922994312
 20
70.7545500068
 30
0.0
 10
35.9835790613
 20
69.9013923512
 30
0.0
 10
35.6927110387
 20
69.1225495364
 30
0.0
 10
35.3219772021
 20
68.4254817818
 30
0.0
 10
34.8742099639
 20
67.8173258193
 30
0.0
 10
34.3535421692
 20
67.304960512
 30
0.0
 10
33.9595254863
 20
67.029981025
 30
0.0
 10
33.7545745692
 20
66.9116659137
 30
0.0
  0
SPLINE
  5
2D0
100
AcDbEntity
  8
0
100
AcDbSpline
 62
7
  6
BYLAYER
 70
0
 71
3
 72
24
 73
20
 74
0
 42
0.0000001
 43
0.0000001
 44
0.0000000001
 40
0.0
 40
0.0
 40
0.0
 40
0.0
 40
0.062383904
 40
0.1287347361
 40
0.1983295068
 40
0.2703120116
 40
0.3436936969
 40
0.417431928
 40
0.4904626271
 40
0.5617548346
 40
0.6303570909
 40
0.6954492158
 40
0.7564011736
 40
0.8128427429
 40
0.8647473163
 40
0.9125257968
 40
0.9571037599
 40
0.9786660949
 40
1.0
 40
1.0
 40
1.0
 40
1.0
 10
15.9787755911
 20
76.7980024476
 30
0.0
 10
15.9787755911
 20
76.5076182178
 30
0.0
 10
16.018136327
 20
75.9079865037
 30
0.0
 10
16.1799958182
 20
74.9975397177
 30
0.0
 10
16.443239296
 20
74.0646195562
 30
0.0
 10
16.8020971252
 20
73.1292014436
 30
0.0
 10
17.2490329203
 20
72.2110863697
 30
0.0
 10
17.7744656416
 20
71.3298651439
 30
0.0
 10
18.3672161674
 20
70.5043416665
 30
0.0
 10
19.0146417437
 20
69.7521164566
 30
0.0
 10
19.70300247
 20
69.0891772956
 30
0.0
 10
20.4178083348
 20
68.5295702313
 30
0.0
 10
21.1442303272
 20
68.0851570994
 30
0.0
 10
21.8674785315
 20
67.7654845306
 30
0.0
 10
22.5732821015
 20
67.5780246209
 30
0.0
 10
23.2473718616
 20
67.5282300883
 30
0.0
 10
23.7773087034
 20
67.6062663719
 30
0.0
 10
24.1629766649
 20
67.7396289828
 30
0.0
 10
24.3425153346
 20
67.82849869
 30
0.0
 10
24.4285161616
 20
67.8781507604
 30
0.0
  0
SPLINE
  5
2D1
100
AcDbEntity
  8
0
100
AcDbSpline
 62
7
  6
BYLAYER
 70
0
 71
3
 72
14
 73
10
 74
0
 42
0.0000001
 43
0.0000001
 44
0.0000000001
 40
0.0
 40
0.0
 40
0.0
 40
0.0
 40
0.2892777946
 40
0.4225507734
 40
0.5484967764
 40
0.6678925332
 40
0.7818703191
 40
0.891953343
 40
1.0
 40
1.0
 40
1.0
 40
1.0
 10
25.171202018
 20
71.4908726388
 30
0.0
 10
25.171202018
 20
71.1867515621
 30
0.0
 10
25.1357001644
 20
70.7403339343
 30
0.0
 10
24.9984528312
 20
70.1792510657
 30
0.0
 10
24.8588339489
 20
69.8053661658
 30
0.0
 10
24.6808563941
 20
69.4708116065
 30
0.0
 10
24.4659515365
 20
69.1788790614
 30
0.0
 10
24.2160270027
 20
68.9329447713
 30
0.0
 10
24.0268996792
 20
68.8009577265
 30
0.0
 10
23.9285217385
 20
68.7441719297
 30
0.0
  0
SPLINE
  5
2D2
100
AcDbEntity
  8
0
100
AcDbSpline
 62
7
  6
BYLAYER
 70
0
 71
3
 72
9
 73
5
 74
0
 42
0.0000001
 43
0.0000001
 44
0.0000000001
 40
0.0
 40
0.0
 40
0.0
 40
0.0
 40
0.5080110737
 40
1.0
 40
1.0
 40
1.0
 40
1.0
 10
25.0005058368
 20
70.1541423709
 30
0.0
 10
24.9181800547
 20
70.0376178453
 30
0.0
 10
24.7331126078
 20
69.8233186089
 30
0.0
 10
24.505295372
 20
69.6545030418
 30
0.0
 10
24.3856274485
 20
69.5854280665
 30
0.0
  0
SPLINE
  5
2D3
100
AcDbEntity
  8
0
100
AcDbSpline
 62
7
  6
BYLAYER
 70
0
 71
3
 72
11
 73
7
 74
0
 42
0.0000001
 43
0.0000001
 44
0.0000000001
 40
0.0
 40
0.0
 40
0.0
 40
0.0
 40
0.2355870254
 40
0.4767113098
 40
0.7296999969
 40
1.0
 40
1.0
 40
1.0
 40
1.0
 10
20.2491690895
 20
99.7749915084
 30
0.0
 10
20.1885802324
 20
99.7400107242
 30
0.0
 10
20.0772385495
 20
99.6477523786
 30
0.0
 10
19.9600820835
 20
99.4619568495
 30
0.0
 10
19.8929787747
 20
99.242879562
 30
0.0
 10
19.8799230892
 20
99.0869349807
 30
0.0
 10
19.8799230892
 20
99.0066644447
 30
0.0
  0
SPLINE
  5
2D4
100
AcDbEntity
  8
0
100
AcDbSpline
 62
7
  6
BYLAYER
 70
0
 71
3
 72
11
 73
7
 74
0
 42
0.0000001
 43
0.0000001
 44
0.0000000001
 40
0.0
 40
0.0
 40
0.0
 40
0.0
 40
0.2702998168
 40
0.523286886
 40
0.7644091969
 40
1.0
 40
1.0
 40
1.0
 40
1.0
 10
42.112459183
 20
60.4989971121
 30
0.0
 10
42.1819742016
 20
60.4588635053
 30
0.0
 10
42.3235507632
 20
60.3922006727
 30
0.0
 10
42.5468229515
 20
60.3407794384
 30
0.0
 10
42.7662995838
 20
60.3493409175
 30
0.0
 10
42.901865738
 20
60.3996357556
 30
0.0
 10
42.9624541286
 20
60.4346162705
 30
0.0
  0
SPLINE
  5
2D5
100
AcDbEntity
  8
0
100
AcDbSpline
 62
7
  6
BYLAYER
 70
0
 71
3
 72
9
 73
5
 74
0
 42
0.0000001
 43
0.0000001
 44
0.0000000001
 40
0.0
 40
0.0
 40
0.0
 40
0.0
 40
0.5225360461
 40
1.0
 40
1.0
 40
1.0
 40
1.0
 10
41.2679360429
 20
65.4396294302
 30
0.0
 10
41.33172361
 20
65.2746201501
 30
0.0
 10
41.4301884637
 20
64.9490446479
 30
0.0
 10
41.4699934525
 20
64.6101691534
 30
0.0
 10
41.4699934525
 20
64.4485193766
 30
0.0
  0
SPLINE
  5
2D6
100
AcDbEntity
  8
0
100
AcDbSpline
 62
7
  6
BYLAYER
 70
0
 71
3
 72
11
 73
7
 74
0
 42
0.0000001
 43
0.0000001
 44
0.0000000001
 40
0.0
 40
0.0
 40
0.0
 40
0.0
 40
0.2355870253
 40
0.4767113098
 40
0.7296999968
 40
1.0
 40
1.0
 40
1.0
 40
1.0
 10
53.0033286171
 20
66.2316832554
 30
0.0
 10
53.0639174742
 20
66.2666640396
 30
0.0
 10
53.1752591573
 20
66.3589223854
 30
0.0
 10
53.2924156233
 20
66.5447179148
 30
0.0
 10
53.359518932
 20
66.7637952026
 30
0.0
 10
53.3725746175
 20
66.9197397841
 30
0.0
 10
53.3725746174
 20
67.0000103201
 30
0.0
  0
SPLINE
  5
2D7
100
AcDbEntity
  8
0
100
AcDbSpline
 62
7
  6
BYLAYER
 70
0
 71
3
 72
11
 73
7
 74
0
 42
0.0000001
 43
0.0000001
 44
0.0000000001
 40
0.0
 40
0.0
 40
0.0
 40
0.0
 40
0.2397933792
 40
0.5000047896
 40
0.7602137207
 40
1.0
 40
1.0
 40
1.0
 40
1.0
 10
53.3725746174
 20
91.4950828327
 30
0.0
 10
53.3725746174
 20
91.6640923933
 30
0.0
 10
53.3113810332
 20
92.016962665
 30
0.0
 10
53.0939716087
 20
92.5111586488
 30
0.0
 10
52.7746881692
 20
92.9465310912
 30
0.0
 10
52.499693344
 20
93.1759541725
 30
0.0
 10
52.3533302768
 20
93.2604550168
 30
0.0
  0
SPLINE
  5
2D8
100
AcDbEntity
  8
0
100
AcDbSpline
 62
7
  6
BYLAYER
 70
0
 71
3
 72
11
 73
7
 74
0
 42
0.0000001
 43
0.0000001
 44
0.0000000001
 40
0.0
 40
0.0
 40
0.0
 40
0.0
 40
0.2702998168
 40
0.523286886
 40
0.7644091969
 40
1.0
 40
1.0
 40
1.0
 40
1.0
 10
31.1400385238
 20
105.5076776516
 30
0.0
 10
31.0705235052
 20
105.5478112584
 30
0.0
 10
30.9289469436
 20
105.6144740911
 30
0.0
 10
30.7056747552
 20
105.6658953254
 30
0.0
 10
30.4861981229
 20
105.6573338464
 30
0.0
 10
30.3506319686
 20
105.6070390082
 30
0.0
 10
30.290043578
 20
105.5720584934
 30
0.0
  0
SPLINE
  5
2D9
100
AcDbEntity
  8
0
100
AcDbSpline
 62
7
  6
BYLAYER
 70
0
 71
3
 72
12
 73
8
 74
0
 42
0.0000001
 43
0.0000001
 44
0.0000000001
 40
0.0
 40
0.0
 40
0.0
 40
0.0
 40
0.2895564355
 40
0.5486537277
 40
0.7816345258
 40
0.8918410991
 40
1.0
 40
1.0
 40
1.0
 40
1.0
 10
41.4699934525
 20
64.4485193766
 30
0.0
 10
41.4699934525
 20
64.3395544285
 30
0.0
 10
41.4534627733
 20
64.1323532662
 30
0.0
 10
41.3697214709
 20
63.8478177353
 30
0.0
 10
41.2492742159
 20
63.6515397077
 30
0.0
 10
41.1277319116
 20
63.5319279024
 30
0.0
 10
41.0599446499
 20
63.4846428269
 30
0.0
 10
41.0246954609
 20
63.4642921926
 30
0.0
  0
SPLINE
  5
2DA
100
AcDbEntity
  8
0
100
AcDbSpline
 62
7
  6
BYLAYER
 70
0
 71
3
 72
12
 73
8
 74
0
 42
0.0000001
 43
0.0000001
 44
0.0000000001
 40
0.0
 40
0.0
 40
0.0
 40
0.0
 40
0.2895564355
 40
0.5486537277
 40
0.7816345258
 40
0.8918410991
 40
1.0
 40
1.0
 40
1.0
 40
1.0
 10
41.4699934525
 20
84.0445773877
 30
0.0
 10
41.4699934525
 20
83.9356124397
 30
0.0
 10
41.4534627733
 20
83.7284112773
 30
0.0
 10
41.3697214709
 20
83.4438757464
 30
0.0
 10
41.2492742159
 20
83.2475977188
 30
0.0
 10
41.1277319116
 20
83.1279859135
 30
0.0
 10
41.0599446499
 20
83.080700838
 30
0.0
 10
41.0246954609
 20
83.0603502037
 30
0.0
  0
SPLINE
  5
2DB
100
AcDbEntity
  8
0
100
AcDbSpline
 62
7
  6
BYLAYER
 70
0
 71
3
 72
9
 73
5
 74
0
 42
0.0000001
 43
0.0000001
 44
0.0000000001
 40
0.0
 40
0.0
 40
0.0
 40
0.0
 40
0.4942790149
 40
1.0
 40
1.0
 40
1.0
 40
1.0
 10
18.8856675602
 20
79.1116945732
 30
0.0
 10
18.9858930806
 20
79.169546963
 30
0.0
 10
19.2002928021
 20
79.2674799152
 30
0.0
 10
19.4289761402
 20
79.3238905813
 30
0.0
 10
19.5459225228
 20
79.34240528
 30
0.0
  0
SPLINE
  5
2DC
100
AcDbEntity
  8
0
100
AcDbSpline
 62
7
  6
BYLAYER
 70
0
 71
3
 72
23
 73
19
 74
0
 42
0.0000001
 43
0.0000001
 44
0.0000000001
 40
0.0
 40
0.0
 40
0.0
 40
0.0
 40
0.0428151459
 40
0.0873979436
 40
0.1351816501
 40
0.1870911599
 40
0.2435374701
 40
0.3044945955
 40
0.3695925345
 40
0.4382003542
 40
0.5094973676
 40
0.5825328894
 40
0.6562760075
 40
0.7296631384
 40
0.8016520185
 40
0.8712511147
 40
0.9376126477
 40
1.0
 40
1.0
 40
1.0
 40
1.0
 10
17.9285655958
 20
79.1364624022
 30
0.0
 10
18.0764999047
 20
79.221853167
 30
0.0
 10
18.4025607756
 20
79.3574183161
 30
0.0
 10
18.9408364482
 20
79.4362819743
 30
0.0
 10
19.5188411873
 20
79.3937206375
 30
0.0
 10
20.1237580524
 20
79.2329946503
 30
0.0
 10
20.7437084349
 20
78.9590098208
 30
0.0
 10
21.3663545741
 20
78.5780857981
 30
0.0
 10
21.9790402131
 20
78.098415022
 30
0.0
 10
22.5690487938
 20
77.530174305
 30
0.0
 10
23.1239718969
 20
76.8854148691
 30
0.0
 10
23.632035162
 20
76.1778380704
 30
0.0
 10
24.0824116054
 20
75.4225260658
 30
0.0
 10
24.4654947735
 20
74.6355763941
 30
0.0
 10
24.7730756023
 20
73.8337952746
 30
0.0
 10
24.9987293053
 20
73.0341387528
 30
0.0
 10
25.1374513732
 20
72.2537472106
 30
0.0
 10
25.171202018
 20
71.7397658564
 30
0.0
 10
25.171202018
 20
71.4908726388
 30
0.0
  0
SPLINE
  5
2DD
100
AcDbEntity
  8
0
100
AcDbSpline
 62
7
  6
BYLAYER
 70
0
 71
3
 72
14
 73
10
 74
0
 42
0.0000001
 43
0.0000001
 44
0.0000000001
 40
0.0
 40
0.0
 40
0.0
 40
0.0
 40
0.1080464382
 40
0.2181289048
 40
0.3321032264
 40
0.4515021559
 40
0.5774503443
 40
0.7107175146
 40
1.0
 40
1.0
 40
1.0
 40
1.0
 10
17.4285711727
 20
80.0024835716
 30
0.0
 10
17.3138032063
 20
79.9362229629
 30
0.0
 10
17.0931284637
 20
79.7822766196
 30
0.0
 10
16.8015900806
 20
79.4953176926
 30
0.0
 10
16.5508246469
 20
79.1547645921
 30
0.0
 10
16.3432234605
 20
78.7644242123
 30
0.0
 10
16.1803130561
 20
78.3282363072
 30
0.0
 10
16.0201978714
 20
77.6736343265
 30
0.0
 10
15.9787755911
 20
77.1528163112
 30
0.0
 10
15.9787755911
 20
76.7980024476
 30
0.0
  0
SPLINE
  5
2DE
100
AcDbEntity
  8
0
100
AcDbSpline
 62
7
  6
BYLAYER
 70
0
 71
3
 72
25
 73
21
 74
0
 42
0.0000001
 43
0.0000001
 44
0.0000000001
 40
0.0
 40
0.0
 40
0.0
 40
0.0
 40
0.0213322747
 40
0.0428928579
 40
0.0648984009
 40
0.0875431602
 40
0.135318328
 40
0.1872191927
 40
0.2436567356
 40
0.304604442
 40
0.3696919663
 40
0.4382889913
 40
0.5095751853
 40
0.5825991828
 40
0.6563305162
 40
0.7297074791
 40
0.8016839255
 40
0.8712767858
 40
0.9376163013
 40
1.0
 40
1.0
 40
1.0
 40
1.0
 10
21.2546441373
 20
88.5623096802
 30
0.0
 10
21.4082209544
 20
88.6509672889
 30
0.0
 10
21.7288047335
 20
88.8096387114
 30
0.0
 10
22.2399443377
 20
88.9863256032
 30
0.0
 10
22.7795644376
 20
89.1014136412
 30
0.0
 10
23.5459997321
 20
89.1733459877
 30
0.0
 10
24.5678988798
 20
89.0983278936
 30
0.0
 10
25.8278561887
 20
88.7634424506
 30
0.0
 10
27.1195075569
 20
88.1926464595
 30
0.0
 10
28.4166616784
 20
87.399037211
 30
0.0
 10
29.6931143226
 20
86.3997348215
 30
0.0
 10
30.9223181621
 20
85.21590715
 30
0.0
 10
32.0784174301
 20
83.8726505568
 30
0.0
 10
33.1368820031
 20
82.3985196844
 30
0.0
 10
34.075164807
 20
80.824930384
 30
0.0
 10
34.8732529092
 20
79.1854435665
 30
0.0
 10
35.5141217595
 20
77.515038762
 30
0.0
 10
35.9841318269
 20
75.8491210268
 30
0.0
 10
36.2732252848
 20
74.2233199815
 30
0.0
 10
36.3434809176
 20
73.1525595192
 30
0.0
 10
36.3434809176
 20
72.6339783655
 30
0.0
  0
SPLINE
  5
2DF
100
AcDbEntity
  8
0
100
AcDbSpline
 62
7
  6
BYLAYER
 70
0
 71
3
 72
15
 73
11
 74
0
 42
0.0000001
 43
0.0000001
 44
0.0000000001
 40
0.0
 40
0.0
 40
0.0
 40
0.0
 40
0.1077053007
 40
0.2183240056
 40
0.333223227
 40
0.4534998122
 40
0.5799341489
 40
0.7130446403
 40
0.8531065434
 40
1.0
 40
1.0
 40
1.0
 40
1.0
 10
20.1559646828
 20
89.3307782688
 30
0.0
 10
19.9651145067
 20
89.1865671799
 30
0.0
 10
19.6003415316
 20
88.8637966201
 30
0.0
 10
19.1228977065
 20
88.2951963909
 30
0.0
 10
18.7133831532
 20
87.6428013564
 30
0.0
 10
18.3750161321
 20
86.9123054097
 30
0.0
 10
18.1098343956
 20
86.1097515908
 30
0.0
 10
17.9196903829
 20
85.2413773039
 30
0.0
 10
17.8059155579
 20
84.3142086737
 30
0.0
 10
17.7818506325
 20
83.6765415325
 30
0.0
 10
17.7818506325
 20
83.3502981716
 30
0.0
  0
SPLINE
  5
2E0
100
AcDbEntity
  8
0
100
AcDbSpline
 62
7
  6
BYLAYER
 70
0
 71
3
 72
14
 73
10
 74
0
 42
0.0000001
 43
0.0000001
 44
0.0000000001
 40
0.0
 40
0.0
 40
0.0
 40
0.0
 40
0.2892777946
 40
0.4225507734
 40
0.5484967764
 40
0.6678925332
 40
0.7818703191
 40
0.891953343
 40
1.0
 40
1.0
 40
1.0
 40
1.0
 10
16.6858853163
 20
76.3897616931
 30
0.0
 10
16.6858853163
 20
76.6938827698
 30
0.0
 10
16.7213871699
 20
77.1403003976
 30
0.0
 10
16.8586345031
 20
77.7013832662
 30
0.0
 10
16.9982533854
 20
78.0752681661
 30
0.0
 10
17.1762309402
 20
78.4098227255
 30
0.0
 10
17.3911357978
 20
78.7017552705
 30
0.0
 10
17.6410603316
 20
78.9476895607
 30
0.0
 10
17.830187655
 20
79.0796766055
 30
0.0
 10
17.9285655958
 20
79.1364624022
 30
0.0
  0
SPLINE
  5
2E1
100
AcDbEntity
  8
0
100
AcDbSpline
 62
7
  6
BYLAYER
 70
0
 71
3
 72
22
 73
18
 74
0
 42
0.0000001
 43
0.0000001
 44
0.0000000001
 40
0.0
 40
0.0
 40
0.0
 40
0.0
 40
0.0612865733
 40
0.1263246267
 40
0.1944616818
 40
0.2649646739
 40
0.4094192897
 40
0.4816253277
 40
0.5525302619
 40
0.6212557266
 40
0.6870163337
 40
0.7491655542
 40
0.8072458245
 40
0.8610493211
 40
0.9106922095
 40
0.9566891768
 40
1.0
 40
1.0
 40
1.0
 40
1.0
 10
17.3929891535
 20
76.798005847
 30
0.0
 10
17.3929891535
 20
76.5617226561
 30
0.0
 10
17.423392551
 20
76.0743891921
 30
0.0
 10
17.5488939784
 20
75.3340896165
 30
0.0
 10
17.7534595066
 20
74.5747337926
 30
0.0
 10
18.1290373265
 20
73.5488692119
 30
0.0
 10
18.6386716181
 20
72.5593816421
 30
0.0
 10
19.2609075623
 20
71.6407299389
 30
0.0
 10
19.7737427836
 20
71.0037772823
 30
0.0
 10
20.3225442546
 20
70.4314907477
 30
0.0
 10
20.8968693818
 20
69.9347909327
 30
0.0
 10
21.4857904426
 20
69.5232142458
 30
0.0
 10
22.0783164148
 20
69.204688085
 30
0.0
 10
22.6635694178
 20
68.9855445295
 30
0.0
 10
23.2311132447
 20
68.8706723163
 30
0.0
 10
23.7701777376
 20
68.8635375032
 30
0.0
 10
24.1108744595
 20
68.9338419012
 30
0.0
 10
24.2691146201
 20
68.9871551625
 30
0.0
  0
SPLINE
  5
2E2
100
AcDbEntity
  8
0
100
AcDbSpline
 62
7
  6
BYLAYER
 70
0
 71
3
 72
14
 73
10
 74
0
 42
0.0000001
 43
0.0000001
 44
0.0000000001
 40
0.0
 40
0.0
 40
0.0
 40
0.0
 40
0.2892777549
 40
0.4225506244
 40
0.5484966408
 40
0.6678925525
 40
0.7818704642
 40
0.891953516
 40
1.0
 40
1.0
 40
1.0
 40
1.0
 10
17.7465440161
 20
76.5938854697
 30
0.0
 10
17.7465440161
 20
76.872663089
 30
0.0
 10
17.7790874019
 20
77.281879093
 30
0.0
 10
17.904897256
 20
77.7962049872
 30
0.0
 10
18.0328813835
 20
78.1389328163
 30
0.0
 10
18.1960274511
 20
78.4456081708
 30
0.0
 10
18.393023867
 20
78.713213172
 30
0.0
 10
18.6221213795
 20
78.9386528935
 30
0.0
 10
18.7954879756
 20
79.05964092
 30
0.0
 10
18.8856675602
 20
79.1116945732
 30
0.0
  0
SPLINE
  5
2E3
100
AcDbEntity
  8
0
100
AcDbSpline
 62
7
  6
BYLAYER
 70
0
 71
3
 72
9
 73
5
 74
0
 42
0.0000001
 43
0.0000001
 44
0.0000000001
 40
0.0
 40
0.0
 40
0.0
 40
0.0
 40
0.4552786215
 40
1.0
 40
1.0
 40
1.0
 40
1.0
 10
42.9612880031
 20
66.4292246752
 30
0.0
 10
42.9711563696
 20
66.419983244
 30
0.0
 10
42.9867147917
 20
66.3931155383
 30
0.0
 10
42.9902815713
 20
66.3630854331
 30
0.0
 10
42.9902815022
 20
66.3469094068
 30
0.0
  0
SPLINE
  5
2E4
100
AcDbEntity
  8
0
100
AcDbSpline
 62
7
  6
BYLAYER
 70
0
 71
3
 72
10
 73
6
 74
0
 42
0.0000001
 43
0.0000001
 44
0.0000000001
 40
0.0
 40
0.0
 40
0.0
 40
0.0
 40
0.2183766982
 40
0.4523083452
 40
1.0
 40
1.0
 40
1.0
 40
1.0
 10
22.3548342117
 20
94.8834438872
 30
0.0
 10
22.3548342666
 20
94.8758285212
 30
0.0
 10
22.3576545845
 20
94.8599459012
 30
0.0
 10
22.3745330607
 20
94.8289253923
 30
0.0
 10
22.3968730291
 20
94.8113449149
 30
0.0
 10
22.4134137301
 20
94.8017953721
 30
0.0
  0
SPLINE
  5
2E5
100
AcDbEntity
  8
0
100
AcDbSpline
 62
7
  6
BYLAYER
 70
0
 71
3
 72
11
 73
7
 74
0
 42
0.0000001
 43
0.0000001
 44
0.0000000001
 40
0.0
 40
0.0
 40
0.0
 40
0.0
 40
0.1581997832
 40
0.3828761312
 40
0.6654928691
 40
1.0
 40
1.0
 40
1.0
 40
1.0
 10
22.3548330311
 20
90.6168012056
 30
0.0
 10
22.3548342287
 20
90.6225586077
 30
0.0
 10
22.3598617435
 20
90.6361062487
 30
0.0
 10
22.3721139252
 20
90.6568298411
 30
0.0
 10
22.3905365604
 20
90.681457105
 30
0.0
 10
22.4052232271
 20
90.6984390837
 30
0.0
 10
22.4134137301
 20
90.7074455813
 30
0.0
  0
SPLINE
  5
2E6
100
AcDbEntity
  8
0
100
AcDbSpline
 62
7
  6
BYLAYER
 70
0
 71
3
 72
10
 73
6
 74
0
 42
0.0000001
 43
0.0000001
 44
0.0000000001
 40
0.0
 40
0.0
 40
0.0
 40
0.0
 40
0.2183784903
 40
0.4523111389
 40
1.0
 40
1.0
 40
1.0
 40
1.0
 10
39.9790228941
 20
64.7040318221
 30
0.0
 10
39.9856180952
 20
64.7078396721
 30
0.0
 10
39.9979629286
 20
64.7182236437
 30
0.0
 10
40.016388759
 20
64.7483513298
 30
0.0
 10
40.0204444182
 20
64.7764888067
 30
0.0
 10
40.0204444228
 20
64.7955884194
 30
0.0
  0
SPLINE
  5
2E7
100
AcDbEntity
  8
0
100
AcDbSpline
 62
7
  6
BYLAYER
 70
0
 71
3
 72
9
 73
5
 74
0
 42
0.0000001
 43
0.0000001
 44
0.0000000001
 40
0.0
 40
0.0
 40
0.0
 40
0.0
 40
0.4891631431
 40
1.0
 40
1.0
 40
1.0
 40
1.0
 10
41.0246954609
 20
63.4642921926
 30
0.0
 10
40.9696943474
 20
63.4325380564
 30
0.0
 10
40.8479722556
 20
63.3826301747
 30
0.0
 10
40.7178804813
 20
63.3654015246
 30
0.0
 10
40.6515757901
 20
63.3638267707
 30
0.0
  0
SPLINE
  5
2E8
100
AcDbEntity
  8
0
100
AcDbSpline
 62
7
  6
BYLAYER
 70
0
 71
3
 72
15
 73
11
 74
0
 42
0.0000001
 43
0.0000001
 44
0.0000000001
 40
0.0
 40
0.0
 40
0.0
 40
0.0
 40
0.1450815071
 40
0.2749958746
 40
0.3913674835
 40
0.500164154
 40
0.608972454
 40
0.7254962938
 40
0.8552611827
 40
1.0
 40
1.0
 40
1.0
 40
1.0
 10
42.9902795233
 20
66.510213187
 30
0.0
 10
43.0078728297
 20
66.5203707257
 30
0.0
 10
43.0427745089
 20
66.5371726401
 30
0.0
 10
43.0964629294
 20
66.5505170332
 30
0.0
 10
43.1469073547
 20
66.5488987107
 30
0.0
 10
43.1916274122
 20
66.5324453154
 30
0.0
 10
43.2281415273
 20
66.5017673372
 30
0.0
 10
43.2544706814
 20
66.4587359981
 30
0.0
 10
43.2700328884
 20
66.4057441475
 30
0.0
 10
43.2731220528
 20
66.3671775952
 30
0.0
 10
43.273122074
 20
66.3469105607
 30
0.0
  0
SPLINE
  5
2E9
100
AcDbEntity
  8
0
100
AcDbSpline
 62
7
  6
BYLAYER
 70
0
 71
3
 72
11
 73
7
 74
0
 42
0.0000001
 43
0.0000001
 44
0.0000000001
 40
0.0
 40
0.0
 40
0.0
 40
0.0
 40
0.2370649775
 40
0.500048128
 40
0.7628073475
 40
1.0
 40
1.0
 40
1.0
 40
1.0
 10
43.273122118
 20
80.3907518266
 30
0.0
 10
43.2731220066
 20
80.3443603129
 30
0.0
 10
43.2562774829
 20
80.2463301091
 30
0.0
 10
43.1949136365
 20
80.1089671844
 30
0.0
 10
43.1061677793
 20
79.9875967949
 30
0.0
 10
43.0299660597
 20
79.9236753478
 30
0.0
 10
42.9897289767
 20
79.9005351559
 30
0.0
  0
SPLINE
  5
2EA
100
AcDbEntity
  8
0
100
AcDbSpline
 62
7
  6
BYLAYER
 70
0
 71
3
 72
9
 73
5
 74
0
 42
0.0000001
 43
0.0000001
 44
0.0000000001
 40
0.0
 40
0.0
 40
0.0
 40
0.0
 40
0.4891631431
 40
1.0
 40
1.0
 40
1.0
 40
1.0
 10
41.0246954609
 20
83.0603502037
 30
0.0
 10
40.9696943474
 20
83.0285960675
 30
0.0
 10
40.8479722556
 20
82.9786881858
 30
0.0
 10
40.7178804813
 20
82.9614595357
 30
0.0
 10
40.6515757901
 20
82.9598847818
 30
0.0
  0
SPLINE
  5
2EB
100
AcDbEntity
  8
0
100
AcDbSpline
 62
7
  6
BYLAYER
 70
0
 71
3
 72
11
 73
7
 74
0
 42
0.0000001
 43
0.0000001
 44
0.0000000001
 40
0.0
 40
0.0
 40
0.0
 40
0.0
 40
0.237203425
 40
0.4999798567
 40
0.7627718827
 40
1.0
 40
1.0
 40
1.0
 40
1.0
 10
16.6858246706
 20
91.49487607
 30
0.0
 10
16.6858246706
 20
91.5180564164
 30
0.0
 10
16.6945182956
 20
91.5669477855
 30
0.0
 10
16.7248252163
 20
91.6356532673
 30
0.0
 10
16.7691720488
 20
91.6962557347
 30
0.0
 10
16.8071686105
 20
91.7282342715
 30
0.0
 10
16.8272455769
 20
91.7398254644
 30
0.0
  0
SPLINE
  5
2EC
100
AcDbEntity
  8
0
100
AcDbSpline
 62
7
  6
BYLAYER
 70
0
 71
3
 72
12
 73
8
 74
0
 42
0.0000001
 43
0.0000001
 44
0.0000000001
 40
0.0
 40
0.0
 40
0.0
 40
0.0
 40
0.2401037931
 40
0.5027368918
 40
0.7637427759
 40
0.8863089552
 40
1.0
 40
1.0
 40
1.0
 40
1.0
 10
52.3050044281
 20
93.2192513861
 30
0.0
 10
52.4496703926
 20
93.1275323295
 30
0.0
 10
52.7215594362
 20
92.885714368
 30
0.0
 10
53.0379508422
 20
92.4379159619
 30
0.0
 10
53.2212597675
 20
92.0100417032
 30
0.0
 10
53.2995939923
 20
91.6632560048
 30
0.0
 10
53.3139965624
 20
91.4945423542
 30
0.0
 10
53.3139965624
 20
91.4134346835
 30
0.0
  0
SPLINE
  5
2ED
100
AcDbEntity
  8
0
100
AcDbSpline
 62
7
  6
BYLAYER
 70
0
 71
3
 72
11
 73
7
 74
0
 42
0.0000001
 43
0.0000001
 44
0.0000000001
 40
0.0
 40
0.0
 40
0.0
 40
0.0
 40
0.2897003536
 40
0.5490843942
 40
0.7822141086
 40
1.0
 40
1.0
 40
1.0
 40
1.0
 10
53.3139965624
 20
66.9183621666
 30
0.0
 10
53.3139965624
 20
66.8423602966
 30
0.0
 10
53.3024755006
 20
66.6978205964
 30
0.0
 10
53.2439398885
 20
66.4992291919
 30
0.0
 10
53.1453852382
 20
66.3380807147
 30
0.0
 10
53.05280937
 20
66.2602508044
 30
0.0
 10
53.0033286171
 20
66.2316832554
 30
0.0
  0
SPLINE
  5
2EE
100
AcDbEntity
  8
0
100
AcDbSpline
 62
7
  6
BYLAYER
 70
0
 71
3
 72
9
 73
5
 74
0
 42
0.0000001
 43
0.0000001
 44
0.0000000001
 40
0.0
 40
0.0
 40
0.0
 40
0.0
 40
0.2391135724
 40
1.0
 40
1.0
 40
1.0
 40
1.0
 10
53.3503007777
 20
66.9470538241
 30
0.0
 10
53.3486896226
 20
66.9452514879
 30
0.0
 10
53.3417095323
 20
66.9379311018
 30
0.0
 10
53.3338449255
 20
66.9314774801
 30
0.0
 10
53.3275661837
 20
66.9270327949
 30
0.0
  0
SPLINE
  5
2EF
100
AcDbEntity
  8
0
100
AcDbSpline
 62
7
  6
BYLAYER
 70
0
 71
3
 72
9
 73
5
 74
0
 42
0.0000001
 43
0.0000001
 44
0.0000000001
 40
0.0
 40
0.0
 40
0.0
 40
0.0
 40
0.4401160103
 40
1.0
 40
1.0
 40
1.0
 40
1.0
 10
20.2316205168
 20
89.4477561957
 30
0.0
 10
20.2683150847
 20
89.4557430166
 30
0.0
 10
20.3509096498
 20
89.4773808162
 30
0.0
 10
20.4322251414
 20
89.503546743
 30
0.0
 10
20.4769438307
 20
89.5203547853
 30
0.0
  0
SPLINE
  5
2F0
100
AcDbEntity
  8
0
100
AcDbSpline
 62
7
  6
BYLAYER
 70
0
 71
3
 72
9
 73
5
 74
0
 42
0.0000001
 43
0.0000001
 44
0.0000000001
 40
0.0
 40
0.0
 40
0.0
 40
0.0
 40
0.4772060693
 40
1.0
 40
1.0
 40
1.0
 40
1.0
 10
53.372583432
 20
67.0000103165
 30
0.0
 10
53.3725746183
 20
66.9907159937
 30
0.0
 10
53.3681976731
 20
66.9711123819
 30
0.0
 10
53.357086811
 20
66.954645094
 30
0.0
 10
53.3503007777
 20
66.9470538241
 30
0.0
  0
SPLINE
  5
2F1
100
AcDbEntity
  8
0
100
AcDbSpline
 62
7
  6
BYLAYER
 70
0
 71
3
 72
15
 73
11
 74
0
 42
0.0000001
 43
0.0000001
 44
0.0000000001
 40
0.0
 40
0.0
 40
0.0
 40
0.0
 40
0.1412242499
 40
0.2679649618
 40
0.3831239155
 40
0.4923410313
 40
0.6029156869
 40
0.7217264579
 40
0.8535353201
 40
1.0
 40
1.0
 40
1.0
 40
1.0
 10
42.1334830087
 20
60.5569420059
 30
0.0
 10
42.1879672768
 20
60.5297692969
 30
0.0
 10
42.2959357721
 20
60.4864430396
 30
0.0
 10
42.4602871536
 20
60.4586004833
 30
0.0
 10
42.6130968507
 20
60.4737051811
 30
0.0
 10
42.7476264092
 20
60.5330912686
 30
0.0
 10
42.8562497595
 20
60.6343665377
 30
0.0
 10
42.9345306365
 20
60.7712304978
 30
0.0
 10
42.9810411497
 20
60.9373659528
 30
0.0
 10
42.9902814879
 20
61.0577053273
 30
0.0
 10
42.9902814879
 20
61.1208488159
 30
0.0
  0
SPLINE
  5
2F2
100
AcDbEntity
  8
0
100
AcDbSpline
 62
7
  6
BYLAYER
 70
0
 71
3
 72
11
 73
7
 74
0
 42
0.0000001
 43
0.0000001
 44
0.0000000001
 40
0.0
 40
0.0
 40
0.0
 40
0.0
 40
0.237217101
 40
0.4999977004
 40
0.7627792714
 40
1.0
 40
1.0
 40
1.0
 40
1.0
 10
43.273122074
 20
61.1212951835
 30
0.0
 10
43.2530461533
 20
61.1097044145
 30
0.0
 10
43.2063561763
 20
61.0927879224
 30
0.0
 10
43.131701401
 20
61.0846827487
 30
0.0
 10
43.057046229
 20
61.0927874486
 30
0.0
 10
43.0103556728
 20
61.1097037021
 30
0.0
 10
42.9902793615
 20
61.1212945036
 30
0.0
  0
SPLINE
  5
2F3
100
AcDbEntity
  8
0
100
AcDbSpline
 62
7
  6
BYLAYER
 70
0
 71
3
 72
11
 73
7
 74
0
 42
0.0000001
 43
0.0000001
 44
0.0000000001
 40
0.0
 40
0.0
 40
0.0
 40
0.0
 40
0.2372186917
 40
0.5000006284
 40
0.7627822291
 40
1.0
 40
1.0
 40
1.0
 40
1.0
 10
42.9902793615
 20
66.3469099777
 30
0.0
 10
43.0103555007
 20
66.3353192756
 30
0.0
 10
43.0570458557
 20
66.3184029868
 30
0.0
 10
43.1317009657
 20
66.3102982148
 30
0.0
 10
43.2063559475
 20
66.3184033352
 30
0.0
 10
43.2530460964
 20
66.3353198557
 30
0.0
 10
43.273122074
 20
66.3469106576
 30
0.0
  0
SPLINE
  5
2F4
100
AcDbEntity
  8
0
100
AcDbSpline
 62
7
  6
BYLAYER
 70
0
 71
3
 72
11
 73
7
 74
0
 42
0.0000001
 43
0.0000001
 44
0.0000000001
 40
0.0
 40
0.0
 40
0.0
 40
0.0
 40
0.3345135595
 40
0.617129123
 40
0.8418095476
 40
1.0
 40
1.0
 40
1.0
 40
1.0
 10
36.1918040197
 20
66.8427073047
 30
0.0
 10
36.1799089232
 20
66.8401169722
 30
0.0
 10
36.1578580317
 20
66.8358935953
 30
0.0
 10
36.127319345
 20
66.8322496665
 30
0.0
 10
36.1032467032
 20
66.8320012689
 30
0.0
 10
36.0890004705
 20
66.8344191415
 30
0.0
 10
36.0840138927
 20
66.837296109
 30
0.0
  0
SPLINE
  5
2F5
100
AcDbEntity
  8
0
100
AcDbSpline
 62
7
  6
BYLAYER
 70
0
 71
3
 72
10
 73
6
 74
0
 42
0.0000001
 43
0.0000001
 44
0.0000000001
 40
0.0
 40
0.0
 40
0.0
 40
0.0
 40
0.547690877
 40
0.781622547
 40
1.0
 40
1.0
 40
1.0
 40
1.0
 10
39.7376017104
 20
64.7955863656
 30
0.0
 10
39.7376017846
 20
64.7764869936
 30
0.0
 10
39.741657665
 20
64.7483499929
 30
0.0
 10
39.7600832197
 20
64.7182228254
 30
0.0
 10
39.7724278318
 20
64.7078391112
 30
0.0
 10
39.7790228941
 20
64.7040313414
 30
0.0
  0
SPLINE
  5
2F6
100
AcDbEntity
  8
0
100
AcDbSpline
 62
7
  6
BYLAYER
 70
0
 71
3
 72
11
 73
7
 74
0
 42
0.0000001
 43
0.0000001
 44
0.0000000001
 40
0.0
 40
0.0
 40
0.0
 40
0.0
 40
0.2372015857
 40
0.4999776556
 40
0.7627705166
 40
1.0
 40
1.0
 40
1.0
 40
1.0
 10
40.0204444228
 20
64.7955885116
 30
0.0
 10
40.0003698142
 20
64.7839985001
 30
0.0
 10
39.9536820454
 20
64.7670820096
 30
0.0
 10
39.8790281727
 20
64.7589760314
 30
0.0
 10
39.8043713902
 20
64.7670800601
 30
0.0
 10
39.7576787635
 20
64.7839966019
 30
0.0
 10
39.7376017103
 20
64.7955878317
 30
0.0
  0
SPLINE
  5
2F7
100
AcDbEntity
  8
0
100
AcDbSpline
 62
7
  6
BYLAYER
 70
0
 71
3
 72
11
 73
7
 74
0
 42
0.0000001
 43
0.0000001
 44
0.0000000001
 40
0.0
 40
0.0
 40
0.0
 40
0.0
 40
0.2372185796
 40
0.5000005262
 40
0.7627821863
 40
1.0
 40
1.0
 40
1.0
 40
1.0
 10
39.7376017103
 20
78.1862274726
 30
0.0
 10
39.75767784
 20
78.174636776
 30
0.0
 10
39.8043681831
 20
78.1577204856
 30
0.0
 10
39.8790232889
 20
78.1496157093
 30
0.0
 10
39.9536782822
 20
78.1577208263
 30
0.0
 10
40.0003684416
 20
78.1746373485
 30
0.0
 10
40.0204444228
 20
78.1862281525
 30
0.0
  0
SPLINE
  5
2F8
100
AcDbEntity
  8
0
100
AcDbSpline
 62
7
  6
BYLAYER
 70
0
 71
3
 72
11
 73
7
 74
0
 42
0.0000001
 43
0.0000001
 44
0.0000000001
 40
0.0
 40
0.0
 40
0.0
 40
0.0
 40
0.2372218725
 40
0.5000031537
 40
0.7627826595
 40
1.0
 40
1.0
 40
1.0
 40
1.0
 10
39.8790109611
 20
78.4311701372
 30
0.0
 10
39.8589359219
 20
78.4195789332
 30
0.0
 10
39.8209442174
 20
78.3876008488
 30
0.0
 10
39.77660095
 20
78.3270019634
 30
0.0
 10
39.7462955903
 20
78.2582988757
 30
0.0
 10
39.7376017103
 20
78.2094081257
 30
0.0
 10
39.7376017103
 20
78.1862274726
 30
0.0
  0
SPLINE
  5
2F9
100
AcDbEntity
  8
0
100
AcDbSpline
 62
7
  6
BYLAYER
 70
0
 71
3
 72
11
 73
7
 74
0
 42
0.0000001
 43
0.0000001
 44
0.0000000001
 40
0.0
 40
0.0
 40
0.0
 40
0.0
 40
0.2372193281
 40
0.5000010182
 40
0.7627821549
 40
1.0
 40
1.0
 40
1.0
 40
1.0
 10
40.0204444228
 20
78.1862281525
 30
0.0
 10
40.0204444228
 20
78.2094100368
 30
0.0
 10
40.0117495857
 20
78.2583034012
 30
0.0
 10
39.9814411513
 20
78.3270092042
 30
0.0
 10
39.9370942499
 20
78.3876096854
 30
0.0
 10
39.8990987381
 20
78.4195860002
 30
0.0
 10
39.8790226557
 20
78.4311766841
 30
0.0
  0
SPLINE
  5
2FA
100
AcDbEntity
  8
0
100
AcDbSpline
 62
7
  6
BYLAYER
 70
0
 71
3
 72
16
 73
12
 74
0
 42
0.0000001
 43
0.0000001
 44
0.0000000001
 40
0.0
 40
0.0
 40
0.0
 40
0.0
 40
0.0552983376
 40
0.1103107629
 40
0.1663940065
 40
0.2241835365
 40
0.3444013932
 40
0.4697823817
 40
0.5988792401
 40
0.7307142359
 40
1.0
 40
1.0
 40
1.0
 40
1.0
 10
36.1198302963
 20
80.6014850069
 30
0.0
 10
36.1133118869
 20
80.5977281763
 30
0.0
 10
36.1014327671
 20
80.5880723499
 30
0.0
 10
36.0888538135
 20
80.5688928648
 30
0.0
 10
36.0815336976
 20
80.5469144527
 30
0.0
 10
36.0770784137
 20
80.5152563306
 30
0.0
 10
36.0799518968
 20
80.4736925624
 30
0.0
 10
36.0918316264
 20
80.4239976555
 30
0.0
 10
36.1099878628
 20
80.3745620662
 30
0.0
 10
36.1410215048
 20
80.3093732478
 30
0.0
 10
36.1702203168
 20
80.2629588209
 30
0.0
 10
36.1917995545
 20
80.2333509897
 30
0.0
  0
SPLINE
  5
2FB
100
AcDbEntity
  8
0
100
AcDbSpline
 62
7
  6
BYLAYER
 70
0
 71
3
 72
11
 73
7
 74
0
 42
0.0000001
 43
0.0000001
 44
0.0000000001
 40
0.0
 40
0.0
 40
0.0
 40
0.0
 40
0.2373987606
 40
0.5002474298
 40
0.7629613815
 40
1.0
 40
1.0
 40
1.0
 40
1.0
 10
42.9897289633
 20
79.9005351482
 30
0.0
 10
42.9897705923
 20
79.9237345848
 30
0.0
 10
42.981168638
 20
79.9726675053
 30
0.0
 10
42.9510114671
 20
80.0414582222
 30
0.0
 10
42.9068137728
 20
80.1021471881
 30
0.0
 10
42.868898913
 20
80.1341841665
 30
0.0
 10
42.8488587904
 20
80.145802141
 30
0.0
  0
SPLINE
  5
2FC
100
AcDbEntity
  8
0
100
AcDbSpline
 62
7
  6
BYLAYER
 70
0
 71
3
 72
11
 73
7
 74
0
 42
0.0000001
 43
0.0000001
 44
0.0000000001
 40
0.0
 40
0.0
 40
0.0
 40
0.0
 40
0.2372196796
 40
0.5000016607
 40
0.7627827448
 40
1.0
 40
1.0
 40
1.0
 40
1.0
 10
42.9902792781
 20
80.3907515955
 30
0.0
 10
42.990279347
 20
80.3675696753
 30
0.0
 10
42.9815844582
 20
80.3186762502
 30
0.0
 10
42.9512763102
 20
80.2499702703
 30
0.0
 10
42.9069297093
 20
80.1893696441
 30
0.0
 10
42.8689345407
 20
80.1573929767
 30
0.0
 10
42.8488585249
 20
80.1458022895
 30
0.0
  0
SPLINE
  5
2FD
100
AcDbEntity
  8
0
100
AcDbSpline
 62
7
  6
BYLAYER
 70
0
 71
3
 72
11
 73
7
 74
0
 42
0.0000001
 43
0.0000001
 44
0.0000000001
 40
0.0
 40
0.0
 40
0.0
 40
0.0
 40
0.2372177584
 40
0.4999993504
 40
0.7627812898
 40
1.0
 40
1.0
 40
1.0
 40
1.0
 10
43.273122096
 20
80.3907519409
 30
0.0
 10
43.2530461193
 20
80.3791611359
 30
0.0
 10
43.2063559697
 20
80.3622446103
 30
0.0
 10
43.1317009837
 20
80.354139485
 30
0.0
 10
43.0570458657
 20
80.3622442548
 30
0.0
 10
43.010355504
 20
80.3791605443
 30
0.0
 10
42.9902793615
 20
80.3907512484
 30
0.0
  0
SPLINE
  5
2FE
100
AcDbEntity
  8
0
100
AcDbSpline
 62
7
  6
BYLAYER
 70
0
 71
3
 72
13
 73
9
 74
0
 42
0.0000001
 43
0.0000001
 44
0.0000000001
 40
0.0
 40
0.0
 40
0.0
 40
0.0
 40
0.1142275529
 40
0.2375666251
 40
0.500003572
 40
0.7624384999
 40
0.8857748552
 40
1.0
 40
1.0
 40
1.0
 40
1.0
 10
42.9902793615
 20
85.616859341
 30
0.0
 10
42.9902793615
 20
85.6894711605
 30
0.0
 10
42.9769342456
 20
85.8406367407
 30
0.0
 10
42.9046632319
 20
86.1509328847
 30
0.0
 10
42.7368156966
 20
86.5315112436
 30
0.0
 10
42.4911401321
 20
86.8671522587
 30
0.0
 10
42.2585459565
 20
87.0848769336
 30
0.0
 10
42.1343040714
 20
87.1720090068
 30
0.0
 10
42.0714213611
 20
87.2083135352
 30
0.0
  0
SPLINE
  5
2FF
100
AcDbEntity
  8
0
100
AcDbSpline
 62
7
  6
BYLAYER
 70
0
 71
3
 72
9
 73
5
 74
0
 42
0.0000001
 43
0.0000001
 44
0.0000000001
 40
0.0
 40
0.0
 40
0.0
 40
0.0
 40
0.5147170095
 40
1.0
 40
1.0
 40
1.0
 40
1.0
 10
38.5640129442
 20
86.4444551002
 30
0.0
 10
38.5999947904
 20
86.5157389628
 30
0.0
 10
38.6870617587
 20
86.6467523688
 30
0.0
 10
38.8095212502
 20
86.746598431
 30
0.0
 10
38.8747196259
 20
86.7842398163
 30
0.0
  0
SPLINE
  5
300
100
AcDbEntity
  8
0
100
AcDbSpline
 62
7
  6
BYLAYER
 70
0
 71
3
 72
19
 73
15
 74
0
 42
0.0000001
 43
0.0000001
 44
0.0000000001
 40
0.0
 40
0.0
 40
0.0
 40
0.0
 40
0.204144641
 40
0.3785986772
 40
0.4498692682
 40
0.5084958763
 40
0.5546785816
 40
0.5893786275
 40
0.6147630811
 40
0.6359126129
 40
0.6613294705
 40
0.6977874984
 40
0.8156944842
 40
1.0
 40
1.0
 40
1.0
 40
1.0
 10
22.3551255261
 20
90.4456923814
 30
0.0
 10
22.3427292514
 20
90.4427084161
 30
0.0
 10
22.3197121365
 20
90.4372945358
 30
0.0
 10
22.2921660641
 20
90.4316756275
 30
0.0
 10
22.2733311878
 20
90.4290290341
 30
0.0
 10
22.2623545578
 20
90.4282430977
 30
0.0
 10
22.2536097914
 20
90.4285077157
 30
0.0
 10
22.2470842513
 20
90.4298030074
 30
0.0
 10
22.2424197882
 20
90.4322629434
 30
0.0
 10
22.2403100569
 20
90.4366237507
 30
0.0
 10
22.2416672328
 20
90.4419110706
 30
0.0
 10
22.2478392431
 20
90.4513175478
 30
0.0
 10
22.2638212366
 20
90.4655797542
 30
0.0
 10
22.2790106213
 20
90.4766812054
 30
0.0
 10
22.2884968053
 20
90.4832020471
 30
0.0
  0
SPLINE
  5
301
100
AcDbEntity
  8
0
100
AcDbSpline
 62
7
  6
BYLAYER
 70
0
 71
3
 72
9
 73
5
 74
0
 42
0.0000001
 43
0.0000001
 44
0.0000000001
 40
0.0
 40
0.0
 40
0.0
 40
0.0
 40
0.2143356986
 40
1.0
 40
1.0
 40
1.0
 40
1.0
 10
22.2884968053
 20
90.4832020471
 30
0.0
 10
22.2933957731
 20
90.4865696176
 30
0.0
 10
22.3164847975
 20
90.5019427108
 30
0.0
 10
22.3402855601
 20
90.516223542
 30
0.0
 10
22.359175198
 20
90.5270877884
 30
0.0
  0
SPLINE
  5
302
100
AcDbEntity
  8
0
100
AcDbSpline
 62
7
  6
BYLAYER
 70
0
 71
3
 72
11
 73
7
 74
0
 42
0.0000001
 43
0.0000001
 44
0.0000000001
 40
0.0
 40
0.0
 40
0.0
 40
0.0
 40
0.2372172422
 40
0.4999983127
 40
0.7627802907
 40
1.0
 40
1.0
 40
1.0
 40
1.0
 10
42.2124574857
 20
87.4534824546
 30
0.0
 10
42.1923815292
 20
87.4418916648
 30
0.0
 10
42.1543862644
 20
87.4099151579
 30
0.0
 10
42.1100397124
 20
87.3493144636
 30
0.0
 10
42.0797315031
 20
87.2806084989
 30
0.0
 10
42.0710367183
 20
87.2317150647
 30
0.0
 10
42.0710367183
 20
87.2085331404
 30
0.0
  0
SPLINE
  5
303
100
AcDbEntity
  8
0
100
AcDbSpline
 62
7
  6
BYLAYER
 70
0
 71
3
 72
15
 73
11
 74
0
 42
0.0000001
 43
0.0000001
 44
0.0000000001
 40
0.0
 40
0.0
 40
0.0
 40
0.0
 40
0.1141225843
 40
0.2373453283
 40
0.3669717175
 40
0.5000010821
 40
0.6330302961
 40
0.7626562459
 40
0.8858782968
 40
1.0
 40
1.0
 40
1.0
 40
1.0
 10
43.273122074
 20
85.6163676985
 30
0.0
 10
43.273122074
 20
85.7001873377
 30
0.0
 10
43.2577336474
 20
85.8746690509
 30
0.0
 10
43.1965618347
 20
86.1378875177
 30
0.0
 10
43.0984492627
 20
86.4045114809
 30
0.0
 10
42.9672211071
 20
86.6645040772
 30
0.0
 10
42.8076740119
 20
86.9081462663
 30
0.0
 10
42.6258266243
 20
87.1264245539
 30
0.0
 10
42.4284585519
 20
87.3110078747
 30
0.0
 10
42.2850472728
 20
87.4115736696
 30
0.0
 10
42.2124574858
 20
87.4534824545
 30
0.0
  0
SPLINE
  5
304
100
AcDbEntity
  8
0
100
AcDbSpline
 62
7
  6
BYLAYER
 70
0
 71
3
 72
11
 73
7
 74
0
 42
0.0000001
 43
0.0000001
 44
0.0000000001
 40
0.0
 40
0.0
 40
0.0
 40
0.0
 40
0.237218584
 40
0.5000005353
 40
0.7627821951
 40
1.0
 40
1.0
 40
1.0
 40
1.0
 10
42.9902793615
 20
85.6163670169
 30
0.0
 10
43.0103554933
 20
85.6047763191
 30
0.0
 10
43.0570458416
 20
85.5878600277
 30
0.0
 10
43.1317009551
 20
85.5797552531
 30
0.0
 10
43.206355954
 20
85.5878603747
 30
0.0
 10
43.2530461153
 20
85.6047769022
 30
0.0
 10
43.273122096
 20
85.6163677095
 30
0.0
  0
SPLINE
  5
305
100
AcDbEntity
  8
0
100
AcDbSpline
 62
7
  6
BYLAYER
 70
0
 71
3
 72
11
 73
7
 74
0
 42
0.0000001
 43
0.0000001
 44
0.0000000001
 40
0.0
 40
0.0
 40
0.0
 40
0.0
 40
0.2372197375
 40
0.5000017203
 40
0.7627827728
 40
1.0
 40
1.0
 40
1.0
 40
1.0
 10
37.5455344687
 20
89.8212739743
 30
0.0
 10
37.5455344687
 20
89.8444559014
 30
0.0
 10
37.5542292555
 20
89.8933493388
 30
0.0
 10
37.5845374666
 20
89.9620553041
 30
0.0
 10
37.6288840181
 20
90.0226559953
 30
0.0
 10
37.6668792808
 20
90.0546324995
 30
0.0
 10
37.6869552361
 20
90.0662232885
 30
0.0
  0
SPLINE
  5
306
100
AcDbEntity
  8
0
100
AcDbSpline
 62
7
  6
BYLAYER
 70
0
 71
3
 72
11
 73
7
 74
0
 42
0.0000001
 43
0.0000001
 44
0.0000000001
 40
0.0
 40
0.0
 40
0.0
 40
0.0
 40
0.2372178196
 40
0.4999994846
 40
0.7627814272
 40
1.0
 40
1.0
 40
1.0
 40
1.0
 10
37.2626917655
 20
89.8212782287
 30
0.0
 10
37.2827677629
 20
89.8328690058
 30
0.0
 10
37.3294578971
 20
89.8497855647
 30
0.0
 10
37.4041129142
 20
89.8578906856
 30
0.0
 10
37.4787679701
 20
89.8497858334
 30
0.0
 10
37.5254584189
 20
89.8328697263
 30
0.0
 10
37.5455344779
 20
89.8212789085
 30
0.0
  0
SPLINE
  5
307
100
AcDbEntity
  8
0
100
AcDbSpline
 62
7
  6
BYLAYER
 70
0
 71
3
 72
11
 73
7
 74
0
 42
0.0000001
 43
0.0000001
 44
0.0000000001
 40
0.0
 40
0.0
 40
0.0
 40
0.0
 40
0.2370803291
 40
0.499415068
 40
0.7614359622
 40
1.0
 40
1.0
 40
1.0
 40
1.0
 10
37.2626917657
 20
89.821277094
 30
0.0
 10
37.2627553685
 20
89.8444632901
 30
0.0
 10
37.2542458558
 20
89.8935063841
 30
0.0
 10
37.222532081
 20
89.9613002526
 30
0.0
 10
37.1810027876
 20
90.0239208366
 30
0.0
 10
37.1419213851
 20
90.0553664357
 30
0.0
 10
37.1212688828
 20
90.06622129
 30
0.0
  0
SPLINE
  5
308
100
AcDbEntity
  8
0
100
AcDbSpline
 62
7
  6
BYLAYER
 70
0
 71
3
 72
9
 73
5
 74
0
 42
0.0000001
 43
0.0000001
 44
0.0000000001
 40
0.0
 40
0.0
 40
0.0
 40
0.0
 40
0.4551188031
 40
1.0
 40
1.0
 40
1.0
 40
1.0
 10
34.2928492794
 20
83.7659132888
 30
0.0
 10
34.2928488936
 20
83.7400364072
 30
0.0
 10
34.30405037
 20
83.6832106182
 30
0.0
 10
34.3297696095
 20
83.6317057845
 30
0.0
 10
34.347109259
 20
83.6060322495
 30
0.0
  0
SPLINE
  5
309
100
AcDbEntity
  8
0
100
AcDbSpline
 62
7
  6
BYLAYER
 70
0
 71
3
 72
10
 73
6
 74
0
 42
0.0000001
 43
0.0000001
 44
0.0000000001
 40
0.0
 40
0.0
 40
0.0
 40
0.0
 40
0.1955222056
 40
0.4665204933
 40
1.0
 40
1.0
 40
1.0
 40
1.0
 10
34.0100136689
 20
84.0122977696
 30
0.0
 10
33.9972045662
 20
83.9993361531
 30
0.0
 10
33.9644815145
 20
83.9705800169
 30
0.0
 10
33.8908310407
 20
83.9134856971
 30
0.0
 10
33.828521727
 20
83.871391783
 30
0.0
 10
33.7854623829
 20
83.8465305384
 30
0.0
  0
SPLINE
  5
30A
100
AcDbEntity
  8
0
100
AcDbSpline
 62
7
  6
BYLAYER
 70
0
 71
3
 72
16
 73
12
 74
0
 42
0.0000001
 43
0.0000001
 44
0.0000000001
 40
0.0
 40
0.0
 40
0.0
 40
0.0
 40
0.0464452528
 40
0.0944235804
 40
0.1961803066
 40
0.3074563348
 40
0.4289693049
 40
0.5603894298
 40
0.7005859319
 40
0.8478297848
 40
1.0
 40
1.0
 40
1.0
 40
1.0
 10
22.3551255261
 20
90.4456923814
 30
0.0
 10
22.5636145573
 20
90.5002468424
 30
0.0
 10
22.9952501884
 20
90.5832568429
 30
0.0
 10
23.905334525
 20
90.6445627544
 30
0.0
 10
25.1195030524
 20
90.5133126718
 30
0.0
 10
26.6097017623
 20
90.0528274047
 30
0.0
 10
28.1302674577
 20
89.3015191595
 30
0.0
 10
29.6462434903
 20
88.2785661223
 30
0.0
 10
31.1227725179
 20
87.0087045245
 30
0.0
 10
32.5247867637
 20
85.5226317801
 30
0.0
 10
33.3782168926
 20
84.4233293924
 30
0.0
 10
33.7854625912
 20
83.8465307483
 30
0.0
  0
SPLINE
  5
30B
100
AcDbEntity
  8
0
100
AcDbSpline
 62
7
  6
BYLAYER
 70
0
 71
3
 72
11
 73
7
 74
0
 42
0.0000001
 43
0.0000001
 44
0.0000000001
 40
0.0
 40
0.0
 40
0.0
 40
0.0
 40
0.2574412595
 40
0.5299115923
 40
0.7838068492
 40
1.0
 40
1.0
 40
1.0
 40
1.0
 10
22.4134008712
 20
90.7074544789
 30
0.0
 10
22.4238702952
 20
90.6847763128
 30
0.0
 10
22.4383073184
 20
90.6344860727
 30
0.0
 10
22.4357064616
 20
90.5570682194
 30
0.0
 10
22.4075775777
 20
90.4887518287
 30
0.0
 10
22.3732878112
 20
90.4561818206
 30
0.0
 10
22.3551230665
 20
90.4456919463
 30
0.0
  0
SPLINE
  5
30C
100
AcDbEntity
  8
0
100
AcDbSpline
 62
7
  6
BYLAYER
 70
0
 71
3
 72
13
 73
9
 74
0
 42
0.0000001
 43
0.0000001
 44
0.0000000001
 40
0.0
 40
0.0
 40
0.0
 40
0.0
 40
0.109875173
 40
0.2258956793
 40
0.3470594211
 40
0.4736569764
 40
0.7351404593
 40
1.0
 40
1.0
 40
1.0
 40
1.0
 10
34.3470928139
 20
83.6060169692
 30
0.0
 10
34.3269363253
 20
83.5926070291
 30
0.0
 10
34.2782441683
 20
83.5763372584
 30
0.0
 10
34.2014007554
 20
83.572725017
 30
0.0
 10
34.121837801
 20
83.5872324811
 30
0.0
 10
34.0172249757
 20
83.6289793308
 30
0.0
 10
33.8963688877
 20
83.7109528359
 30
0.0
 10
33.8206924302
 20
83.8000054922
 30
0.0
 10
33.7854625912
 20
83.8465307483
 30
0.0
  0
SPLINE
  5
30D
100
AcDbEntity
  8
0
100
AcDbSpline
 62
7
  6
BYLAYER
 70
0
 71
3
 72
11
 73
7
 74
0
 42
0.0000001
 43
0.0000001
 44
0.0000000001
 40
0.0
 40
0.0
 40
0.0
 40
0.0
 40
0.2658535223
 40
0.5282374162
 40
0.7759277448
 40
1.0
 40
1.0
 40
1.0
 40
1.0
 10
35.9359710368
 20
80.1217606249
 30
0.0
 10
35.913712152
 20
80.1757068239
 30
0.0
 10
35.8738917173
 20
80.2856087062
 30
0.0
 10
35.8616358068
 20
80.4577611785
 30
0.0
 10
35.8954000112
 20
80.6181362203
 30
0.0
 10
35.9655612711
 20
80.7043994995
 30
0.0
 10
36.0084912698
 20
80.7284062585
 30
0.0
  0
SPLINE
  5
30E
100
AcDbEntity
  8
0
100
AcDbSpline
 62
7
  6
BYLAYER
 70
0
 71
3
 72
11
 73
7
 74
0
 42
0.0000001
 43
0.0000001
 44
0.0000000001
 40
0.0
 40
0.0
 40
0.0
 40
0.0
 40
0.2372033974
 40
0.4999797999
 40
0.7627718262
 40
1.0
 40
1.0
 40
1.0
 40
1.0
 10
22.4134134442
 20
94.8017955371
 30
0.0
 10
22.4134134442
 20
94.8249758683
 30
0.0
 10
22.4221070559
 20
94.8738672098
 30
0.0
 10
22.4524139551
 20
94.942572634
 30
0.0
 10
22.4967607003
 20
95.0031751626
 30
0.0
 10
22.5347573292
 20
95.035153527
 30
0.0
 10
22.5548342117
 20
95.0467448513
 30
0.0
  0
SPLINE
  5
30F
100
AcDbEntity
  8
0
100
AcDbSpline
 62
7
  6
BYLAYER
 70
0
 71
3
 72
19
 73
15
 74
0
 42
0.0000001
 43
0.0000001
 44
0.0000000001
 40
0.0
 40
0.0
 40
0.0
 40
0.0
 40
0.2613742685
 40
0.4639828569
 40
0.544134749
 40
0.6098914619
 40
0.6611932993
 40
0.6989334937
 40
0.7254063278
 40
0.7450533056
 40
0.7909958669
 40
0.8272563584
 40
0.8740366756
 40
1.0
 40
1.0
 40
1.0
 40
1.0
 10
36.0084913295
 20
66.8859101342
 30
0.0
 10
35.9929938452
 20
66.8768085459
 30
0.0
 10
35.9651274395
 20
66.8612469952
 30
0.0
 10
35.9315700032
 20
66.8446466498
 30
0.0
 10
35.9095162769
 20
66.8352440549
 30
0.0
 10
35.8967719343
 20
66.830600616
 30
0.0
 10
35.8864844787
 20
66.8277487221
 30
0.0
 10
35.8785951535
 20
66.8267294918
 30
0.0
 10
35.8727212061
 20
66.8272483415
 30
0.0
 10
35.8672379691
 20
66.8313516091
 30
0.0
 10
35.8685284958
 20
66.8396200249
 30
0.0
 10
35.8721429918
 20
66.8474011644
 30
0.0
 10
35.8796880948
 20
66.8598239794
 30
0.0
 10
35.8871319583
 20
66.8690486167
 30
0.0
 10
35.8926941402
 20
66.8756880898
 30
0.0
  0
SPLINE
  5
310
100
AcDbEntity
  8
0
100
AcDbSpline
 62
7
  6
BYLAYER
 70
0
 71
3
 72
9
 73
5
 74
0
 42
0.0000001
 43
0.0000001
 44
0.0000000001
 40
0.0
 40
0.0
 40
0.0
 40
0.0
 40
0.2225577571
 40
1.0
 40
1.0
 40
1.0
 40
1.0
 10
35.8926941402
 20
66.8756880898
 30
0.0
 10
35.8957528349
 20
66.8793391966
 30
0.0
 10
35.9097658664
 20
66.8955184319
 30
0.0
 10
35.9244615659
 20
66.9110888454
 30
0.0
 10
35.9359690819
 20
66.9231057761
 30
0.0
  0
SPLINE
  5
311
100
AcDbEntity
  8
0
100
AcDbSpline
 62
7
  6
BYLAYER
 70
0
 71
3
 72
11
 73
7
 74
0
 42
0.0000001
 43
0.0000001
 44
0.0000000001
 40
0.0
 40
0.0
 40
0.0
 40
0.0
 40
0.2372185807
 40
0.5000005285
 40
0.7627821885
 40
1.0
 40
1.0
 40
1.0
 40
1.0
 10
34.0100129367
 20
88.106647163
 30
0.0
 10
34.0300890669
 20
88.095056466
 30
0.0
 10
34.0767794112
 20
88.0781401754
 30
0.0
 10
34.151434519
 20
88.0700353996
 30
0.0
 10
34.2260895138
 20
88.0781405175
 30
0.0
 10
34.2727796734
 20
88.0950570416
 30
0.0
 10
34.2928556547
 20
88.1066478461
 30
0.0
  0
SPLINE
  5
312
100
AcDbEntity
  8
0
100
AcDbSpline
 62
7
  6
BYLAYER
 70
0
 71
3
 72
11
 73
7
 74
0
 42
0.0000001
 43
0.0000001
 44
0.0000000001
 40
0.0
 40
0.0
 40
0.0
 40
0.0
 40
0.23721727
 40
0.499998382
 40
0.7627803746
 40
1.0
 40
1.0
 40
1.0
 40
1.0
 10
34.1514337041
 20
88.3515964772
 30
0.0
 10
34.1313577452
 20
88.3400056861
 30
0.0
 10
34.0933624758
 20
88.3080291736
 30
0.0
 10
34.0490159214
 20
88.2474284708
 30
0.0
 10
34.0187077161
 20
88.1787225069
 30
0.0
 10
34.0100129367
 20
88.1298290792
 30
0.0
 10
34.0100129367
 20
88.106647163
 30
0.0
  0
SPLINE
  5
313
100
AcDbEntity
  8
0
100
AcDbSpline
 62
7
  6
BYLAYER
 70
0
 71
3
 72
11
 73
7
 74
0
 42
0.0000001
 43
0.0000001
 44
0.0000000001
 40
0.0
 40
0.0
 40
0.0
 40
0.0
 40
0.2372208292
 40
0.50000256
 40
0.7627829025
 40
1.0
 40
1.0
 40
1.0
 40
1.0
 10
34.2928556491
 20
88.1066516475
 30
0.0
 10
34.2928554152
 20
88.1298333898
 30
0.0
 10
34.2841596605
 20
88.1787261315
 30
0.0
 10
34.2538511741
 20
88.247430886
 30
0.0
 10
34.2095045549
 20
88.3080302495
 30
0.0
 10
34.1715095565
 20
88.340005934
 30
0.0
 10
34.1514337839
 20
88.3515964311
 30
0.0
  0
SPLINE
  5
314
100
AcDbEntity
  8
0
100
AcDbSpline
 62
7
  6
BYLAYER
 70
0
 71
3
 72
16
 73
12
 74
0
 42
0.0000001
 43
0.0000001
 44
0.0000000001
 40
0.0
 40
0.0
 40
0.0
 40
0.0
 40
0.2692846162
 40
0.4011203554
 40
0.5302180083
 40
0.6555994448
 40
0.7758171148
 40
0.8336068948
 40
0.8896926511
 40
0.9447032446
 40
1.0
 40
1.0
 40
1.0
 40
1.0
 10
34.0100129367
 20
84.012302982
 30
0.0
 10
34.0248657574
 20
83.9788096439
 30
0.0
 10
34.0504596805
 20
83.9303111627
 30
0.0
 10
34.0914001466
 20
83.8708376081
 30
0.0
 10
34.1251377214
 20
83.8303949855
 30
0.0
 10
34.1622371708
 20
83.7952578607
 30
0.0
 10
34.1967971774
 20
83.7719861234
 30
0.0
 10
34.2264446715
 20
83.7600160756
 30
0.0
 10
34.2491413943
 20
83.7553757316
 30
0.0
 10
34.2720418423
 20
83.7566772255
 30
0.0
 10
34.2863425487
 20
83.7621407176
 30
0.0
 10
34.2928556547
 20
83.7659070566
 30
0.0
  0
SPLINE
  5
315
100
AcDbEntity
  8
0
100
AcDbSpline
 62
7
  6
BYLAYER
 70
0
 71
3
 72
16
 73
12
 74
0
 42
0.0000001
 43
0.0000001
 44
0.0000000001
 40
0.0
 40
0.0
 40
0.0
 40
0.0
 40
0.046445307
 40
0.0944237616
 40
0.1961806008
 40
0.3074566289
 40
0.4289694802
 40
0.5603894138
 40
0.7005857479
 40
0.8478295786
 40
1.0
 40
1.0
 40
1.0
 40
1.0
 10
22.4134140161
 20
90.7074596571
 30
0.0
 10
22.6249358519
 20
90.7628077725
 30
0.0
 10
23.062850873
 20
90.8470245513
 30
0.0
 10
23.9861743257
 20
90.9092205903
 30
0.0
 10
25.2180043657
 20
90.7760585007
 30
0.0
 10
26.7298779782
 20
90.3088732395
 30
0.0
 10
28.2725594158
 20
89.5466370136
 30
0.0
 10
29.8105846952
 20
88.5088067229
 30
0.0
 10
31.308590505
 20
87.2204770821
 30
0.0
 10
32.730999506
 20
85.7127902451
 30
0.0
 10
33.5968446483
 20
84.5974979226
 30
0.0
 10
34.0100144953
 20
84.0123086644
 30
0.0
  0
SPLINE
  5
316
100
AcDbEntity
  8
0
100
AcDbSpline
 62
7
  6
BYLAYER
 70
0
 71
3
 72
9
 73
5
 74
0
 42
0.0000001
 43
0.0000001
 44
0.0000000001
 40
0.0
 40
0.0
 40
0.0
 40
0.0
 40
0.5447191393
 40
1.0
 40
1.0
 40
1.0
 40
1.0
 10
25.3832493331
 20
96.8430136908
 30
0.0
 10
25.3972567156
 20
96.8349266416
 30
0.0
 10
25.421477672
 20
96.8168247937
 30
0.0
 10
25.4369663171
 20
96.7899209075
 30
0.0
 10
25.4400363377
 20
96.7767555221
 30
0.0
  0
SPLINE
  5
317
100
AcDbEntity
  8
0
100
AcDbSpline
 62
7
  6
BYLAYER
 70
0
 71
3
 72
11
 73
7
 74
0
 42
0.0000001
 43
0.0000001
 44
0.0000000001
 40
0.0
 40
0.0
 40
0.0
 40
0.0
 40
0.2372172147
 40
0.4999982585
 40
0.762780244
 40
1.0
 40
1.0
 40
1.0
 40
1.0
 10
25.5246682536
 20
97.0879641242
 30
0.0
 10
25.5045922961
 20
97.0763733375
 30
0.0
 10
25.4665970286
 20
97.0443968352
 30
0.0
 10
25.4222504707
 20
96.9837961429
 30
0.0
 10
25.3919422536
 20
96.9150901718
 30
0.0
 10
25.3832474642
 20
96.8661967282
 30
0.0
 10
25.3832474642
 20
96.8430147973
 30
0.0
  0
SPLINE
  5
318
100
AcDbEntity
  8
0
100
AcDbSpline
 62
7
  6
BYLAYER
 70
0
 71
3
 72
15
 73
11
 74
0
 42
0.0000001
 43
0.0000001
 44
0.0000000001
 40
0.0
 40
0.0
 40
0.0
 40
0.0
 40
0.144850416
 40
0.2745331147
 40
0.391094564
 40
0.4999931996
 40
0.6088931276
 40
0.7254580781
 40
0.85514559
 40
1.0
 40
1.0
 40
1.0
 40
1.0
 10
20.8573179123
 20
99.4560023287
 30
0.0
 10
20.8003084677
 20
99.4889160023
 30
0.0
 10
20.68688353
 20
99.5428452593
 30
0.0
 10
20.5125928097
 20
99.5848968804
 30
0.0
 10
20.3489329363
 20
99.5806354025
 30
0.0
 10
20.2032768825
 20
99.5278322439
 30
0.0
 10
20.0847295334
 20
99.4280785172
 30
0.0
 10
19.9992185504
 20
99.2884649593
 30
0.0
 10
19.9485024939
 20
99.1164897307
 30
0.0
 10
19.9385003002
 20
98.9912922165
 30
0.0
 10
19.9385003002
 20
98.9254619373
 30
0.0
  0
SPLINE
  5
319
100
AcDbEntity
  8
0
100
AcDbSpline
 62
7
  6
BYLAYER
 70
0
 71
3
 72
9
 73
5
 74
0
 42
0.0000001
 43
0.0000001
 44
0.0000000001
 40
0.0
 40
0.0
 40
0.0
 40
0.0
 40
0.5147170095
 40
1.0
 40
1.0
 40
1.0
 40
1.0
 10
21.5933795407
 20
96.2422332087
 30
0.0
 10
21.6293613869
 20
96.3135170713
 30
0.0
 10
21.7164283552
 20
96.4445304773
 30
0.0
 10
21.8388878467
 20
96.5443765395
 30
0.0
 10
21.9040862224
 20
96.5820179247
 30
0.0
  0
SPLINE
  5
31A
100
AcDbEntity
  8
0
100
AcDbSpline
 62
7
  6
BYLAYER
 70
0
 71
3
 72
11
 73
7
 74
0
 42
0.0000001
 43
0.0000001
 44
0.0000000001
 40
0.0
 40
0.0
 40
0.0
 40
0.0
 40
0.2896993547
 40
0.5490830395
 40
0.7822131548
 40
1.0
 40
1.0
 40
1.0
 40
1.0
 10
20.9991657321
 20
99.7007050897
 30
0.0
 10
20.933347796
 20
99.7387042332
 30
0.0
 10
20.8024154501
 20
99.8009934808
 30
0.0
 10
20.6011676999
 20
99.849592839
 30
0.0
 10
20.4123365813
 20
99.8448153964
 30
0.0
 10
20.2986487366
 20
99.8035584188
 30
0.0
 10
20.2491690895
 20
99.7749915084
 30
0.0
  0
SPLINE
  5
31B
100
AcDbEntity
  8
0
100
AcDbSpline
 62
7
  6
BYLAYER
 70
0
 71
3
 72
11
 73
7
 74
0
 42
0.0000001
 43
0.0000001
 44
0.0000000001
 40
0.0
 40
0.0
 40
0.0
 40
0.0
 40
0.2372196298
 40
0.5000016272
 40
0.7627827388
 40
1.0
 40
1.0
 40
1.0
 40
1.0
 10
20.8577449644
 20
99.4557557757
 30
0.0
 10
20.8577449644
 20
99.4789376943
 30
0.0
 10
20.8664397456
 20
99.527831127
 30
0.0
 10
20.8967479563
 20
99.5965370967
 30
0.0
 10
20.9410945174
 20
99.657137802
 30
0.0
 10
20.9790897924
 20
99.6891143136
 30
0.0
 10
20.9991657539
 20
99.7007051026
 30
0.0
  0
SPLINE
  5
31C
100
AcDbEntity
  8
0
100
AcDbSpline
 62
7
  6
BYLAYER
 70
0
 71
3
 72
23
 73
19
 74
0
 42
0.0000001
 43
0.0000001
 44
0.0000000001
 40
0.0
 40
0.0
 40
0.0
 40
0.0
 40
0.0428150083
 40
0.0873978007
 40
0.1351815264
 40
0.1870910381
 40
0.2435373333
 40
0.3044944358
 40
0.3695923728
 40
0.4382002277
 40
0.5094973395
 40
0.582532873
 40
0.6562758653
 40
0.7296630738
 40
0.8016521125
 40
0.8712512733
 40
0.9376127181
 40
1.0
 40
1.0
 40
1.0
 40
1.0
 10
24.3856274485
 20
69.5854280665
 30
0.0
 10
24.2500215112
 20
69.5071533166
 30
0.0
 10
23.9511327668
 20
69.3828857162
 30
0.0
 10
23.4577139922
 20
69.3105934525
 30
0.0
 10
22.9278761909
 20
69.3496077856
 30
0.0
 10
22.3733690238
 20
69.4969398445
 30
0.0
 10
21.8050812122
 20
69.7480923673
 30
0.0
 10
21.2343222552
 20
70.0972724515
 30
0.0
 10
20.6726935735
 20
70.5369704977
 30
0.0
 10
20.1318518993
 20
71.0578580408
 30
0.0
 10
19.6231721384
 20
71.6488880092
 30
0.0
 10
19.1574472778
 20
72.2974998623
 30
0.0
 10
18.7446023571
 20
72.9898691386
 30
0.0
 10
18.3934424506
 20
73.7112399581
 30
0.0
 10
18.1114930471
 20
74.4462070538
 30
0.0
 10
17.9046437079
 20
75.1792260142
 30
0.0
 10
17.7774819532
 20
75.8945846104
 30
0.0
 10
17.7465440161
 20
76.3657336103
 30
0.0
 10
17.7465440161
 20
76.5938854697
 30
0.0
  0
SPLINE
  5
31D
100
AcDbEntity
  8
0
100
AcDbSpline
 62
7
  6
BYLAYER
 70
0
 71
3
 72
12
 73
8
 74
0
 42
0.0000001
 43
0.0000001
 44
0.0000000001
 40
0.0
 40
0.0
 40
0.0
 40
0.0
 40
0.107994786
 40
0.2193348528
 40
0.4556490837
 40
0.7151817293
 40
1.0
 40
1.0
 40
1.0
 40
1.0
 10
18.2905775704
 20
79.2932291727
 30
0.0
 10
18.217744963
 20
79.2274769701
 30
0.0
 10
18.0790735712
 20
79.0833144676
 30
0.0
 10
17.8336022395
 20
78.7487121163
 30
0.0
 10
17.5942994518
 20
78.2456563224
 30
0.0
 10
17.4267432765
 20
77.552562631
 30
0.0
 10
17.3929891535
 20
77.0567864757
 30
0.0
 10
17.3929891535
 20
76.798005847
 30
0.0
  0
SPLINE
  5
31E
100
AcDbEntity
  8
0
100
AcDbSpline
 62
7
  6
BYLAYER
 70
0
 71
3
 72
25
 73
21
 74
0
 42
0.0000001
 43
0.0000001
 44
0.0000000001
 40
0.0
 40
0.0
 40
0.0
 40
0.0
 40
0.0623835804
 40
0.1287227289
 40
0.1983152439
 40
0.270291522
 40
0.3436686947
 40
0.4174003513
 40
0.490424557
 40
0.5617108193
 40
0.6303078745
 40
0.6953954302
 40
0.7563431565
 40
0.8127807177
 40
0.8646816357
 40
0.912456881
 40
0.9351016568
 40
0.9571072055
 40
0.9786677616
 40
1.0
 40
1.0
 40
1.0
 40
1.0
 10
37.227368074
 20
72.1236774223
 30
0.0
 10
37.227368074
 20
72.6941156146
 30
0.0
 10
37.1500875798
 20
73.8719477199
 30
0.0
 10
36.8320865798
 20
75.6603214361
 30
0.0
 10
36.3150801497
 20
77.4928238602
 30
0.0
 10
35.610127216
 20
79.3302672739
 30
0.0
 10
34.7322308117
 20
81.1337067607
 30
0.0
 10
33.7001173072
 20
82.8646615002
 30
0.0
 10
32.5358037436
 20
84.486210428
 30
0.0
 10
31.2640931394
 20
85.9637952002
 30
0.0
 10
29.9119683756
 20
87.2660068136
 30
0.0
 10
28.5078701263
 20
88.365240254
 30
0.0
 10
27.0810002513
 20
89.2382110758
 30
0.0
 10
25.6601831142
 20
89.8660874829
 30
0.0
 10
24.2742288498
 20
90.2344617369
 30
0.0
 10
23.1501382508
 20
90.3169826883
 30
0.0
 10
22.3070587984
 20
90.2378549043
 30
0.0
 10
21.7134763425
 20
90.1112596602
 30
0.0
 10
21.1512240005
 20
89.9169021791
 30
0.0
 10
20.7985817858
 20
89.7423651666
 30
0.0
 10
20.6296475744
 20
89.6448419589
 30
0.0
  0
SPLINE
  5
31F
100
AcDbEntity
  8
0
100
AcDbSpline
 62
7
  6
BYLAYER
 70
0
 71
3
 72
23
 73
19
 74
0
 42
0.0000001
 43
0.0000001
 44
0.0000000001
 40
0.0
 40
0.0
 40
0.0
 40
0.0
 40
0.0428151459
 40
0.0873979436
 40
0.1351816501
 40
0.1870911599
 40
0.2435374701
 40
0.3044945955
 40
0.3695925345
 40
0.4382003542
 40
0.5094973676
 40
0.5825328894
 40
0.6562760075
 40
0.7296631384
 40
0.8016520185
 40
0.8712511147
 40
0.9376126477
 40
1.0
 40
1.0
 40
1.0
 40
1.0
 10
23.9285217385
 20
68.7441719297
 30
0.0
 10
23.7805874296
 20
68.658781165
 30
0.0
 10
23.4545265587
 20
68.5232160158
 30
0.0
 10
22.9162508861
 20
68.4443523576
 30
0.0
 10
22.338246147
 20
68.4869136944
 30
0.0
 10
21.7333292819
 20
68.6476396817
 30
0.0
 10
21.1133788994
 20
68.9216245111
 30
0.0
 10
20.4907327602
 20
69.3025485339
 30
0.0
 10
19.8780471212
 20
69.78221931
 30
0.0
 10
19.2880385405
 20
70.350460027
 30
0.0
 10
18.7331154374
 20
70.9952194629
 30
0.0
 10
18.2250521723
 20
71.7027962616
 30
0.0
 10
17.7746757289
 20
72.4581082661
 30
0.0
 10
17.3915925608
 20
73.2450579378
 30
0.0
 10
17.084011732
 20
74.0468390573
 30
0.0
 10
16.858358029
 20
74.8464955792
 30
0.0
 10
16.7196359611
 20
75.6268871214
 30
0.0
 10
16.6858853163
 20
76.1408684756
 30
0.0
 10
16.6858853163
 20
76.3897616931
 30
0.0
  0
SPLINE
  5
320
100
AcDbEntity
  8
0
100
AcDbSpline
 62
7
  6
BYLAYER
 70
0
 71
3
 72
11
 73
7
 74
0
 42
0.0000001
 43
0.0000001
 44
0.0000000001
 40
0.0
 40
0.0
 40
0.0
 40
0.0
 40
0.2370071115
 40
0.4999250314
 40
0.7626871324
 40
1.0
 40
1.0
 40
1.0
 40
1.0
 10
37.1212689643
 20
90.0662212448
 30
0.0
 10
37.1613922633
 20
90.0893864822
 30
0.0
 10
37.2545795306
 20
90.123782217
 30
0.0
 10
37.4040268265
 20
90.139368841
 30
0.0
 10
37.5533701372
 20
90.1233174556
 30
0.0
 10
37.6467799941
 20
90.0894178945
 30
0.0
 10
37.6869553237
 20
90.0662232379
 30
0.0
  0
SPLINE
  5
321
100
AcDbEntity
  8
0
100
AcDbSpline
 62
7
  6
BYLAYER
 70
0
 71
3
 72
9
 73
5
 74
0
 42
0.0000001
 43
0.0000001
 44
0.0000000001
 40
0.0
 40
0.0
 40
0.0
 40
0.0
 40
0.4750091495
 40
1.0
 40
1.0
 40
1.0
 40
1.0
 10
36.1198252363
 20
80.601481698
 30
0.0
 10
36.0964362466
 20
80.6149849848
 30
0.0
 10
36.0530395862
 20
80.6534864566
 30
0.0
 10
36.0215499659
 20
80.7015639954
 30
0.0
 10
36.0084743436
 20
80.7283964863
 30
0.0
  0
SPLINE
  5
322
100
AcDbEntity
  8
0
100
AcDbSpline
 62
7
  6
BYLAYER
 70
0
 71
3
 72
11
 73
7
 74
0
 42
0.0000001
 43
0.0000001
 44
0.0000000001
 40
0.0
 40
0.0
 40
0.0
 40
0.0
 40
0.266482917
 40
0.5243401534
 40
0.7698484997
 40
1.0
 40
1.0
 40
1.0
 40
1.0
 10
35.9359710368
 20
80.1217606249
 30
0.0
 10
36.2318747507
 20
79.4806750817
 30
0.0
 10
36.7571946041
 20
78.1919481418
 30
0.0
 10
37.3431641953
 20
76.2346404215
 30
0.0
 10
37.7046694312
 20
74.3213199093
 30
0.0
 10
37.7930511438
 20
73.0600885255
 30
0.0
 10
37.7930511438
 20
72.4502727454
 30
0.0
  0
SPLINE
  5
323
100
AcDbEntity
  8
0
100
AcDbSpline
 62
7
  6
BYLAYER
 70
0
 71
3
 72
10
 73
6
 74
0
 42
0.0000001
 43
0.0000001
 44
0.0000000001
 40
0.0
 40
0.0
 40
0.0
 40
0.0
 40
0.1955126112
 40
0.4665098927
 40
1.0
 40
1.0
 40
1.0
 40
1.0
 10
36.1918088373
 20
80.2333511235
 30
0.0
 10
36.1741797018
 20
80.2287389951
 30
0.0
 10
36.1329148179
 20
80.2147776965
 30
0.0
 10
36.0466428513
 20
80.1795403676
 30
0.0
 10
35.9790316725
 20
80.1466245852
 30
0.0
 10
35.9359697125
 20
80.1217637809
 30
0.0
  0
SPLINE
  5
324
100
AcDbEntity
  8
0
100
AcDbSpline
 62
7
  6
BYLAYER
 70
0
 71
3
 72
12
 73
8
 74
0
 42
0.0000001
 43
0.0000001
 44
0.0000000001
 40
0.0
 40
0.0
 40
0.0
 40
0.0
 40
0.2832736421
 40
0.5426682794
 40
0.7798823453
 40
0.8917205959
 40
1.0
 40
1.0
 40
1.0
 40
1.0
 10
37.7930511438
 20
72.4502727454
 30
0.0
 10
37.7930511438
 20
71.8864287523
 30
0.0
 10
37.722984182
 20
70.8039623273
 30
0.0
 10
37.3766766723
 20
69.2834063647
 30
0.0
 10
36.8832800989
 20
68.1662411801
 30
0.0
 10
36.3751832678
 20
67.4087031905
 30
0.0
 10
36.0874676395
 20
67.0764009994
 30
0.0
 10
35.9359690819
 20
66.9231057761
 30
0.0
  0
SPLINE
  5
325
100
AcDbEntity
  8
0
100
AcDbSpline
 62
7
  6
BYLAYER
 70
0
 71
3
 72
10
 73
6
 74
0
 42
0.0000001
 43
0.0000001
 44
0.0000000001
 40
0.0
 40
0.0
 40
0.0
 40
0.0
 40
0.2148975343
 40
0.4585423135
 40
1.0
 40
1.0
 40
1.0
 40
1.0
 10
35.9359688323
 20
66.9231062183
 30
0.0
 10
35.9486782037
 20
66.9304421477
 30
0.0
 10
35.9785691879
 20
66.9416658172
 30
0.0
 10
36.0475987732
 20
66.9451440921
 30
0.0
 10
36.100403292
 20
66.924058208
 30
0.0
 10
36.1308429142
 20
66.9030695177
 30
0.0
  0
SPLINE
  5
326
100
AcDbEntity
  8
0
100
AcDbSpline
 62
7
  6
BYLAYER
 70
0
 71
3
 72
12
 73
8
 74
0
 42
0.0000001
 43
0.0000001
 44
0.0000000001
 40
0.0
 40
0.0
 40
0.0
 40
0.0
 40
0.2832747371
 40
0.5426696961
 40
0.7798834604
 40
0.8917212566
 40
1.0
 40
1.0
 40
1.0
 40
1.0
 10
38.0759116408
 20
72.4505367767
 30
0.0
 10
38.0759116408
 20
71.8784633022
 30
0.0
 10
38.0048605342
 20
70.7801975593
 30
0.0
 10
37.6535155233
 20
69.2374472526
 30
0.0
 10
37.1529389396
 20
68.1039737696
 30
0.0
 10
36.6374369279
 20
67.3353795651
 30
0.0
 10
36.3455260223
 20
66.9982289316
 30
0.0
 10
36.1918178267
 20
66.8426978671
 30
0.0
  0
SPLINE
  5
327
100
AcDbEntity
  8
0
100
AcDbSpline
 62
7
  6
BYLAYER
 70
0
 71
3
 72
11
 73
7
 74
0
 42
0.0000001
 43
0.0000001
 44
0.0000000001
 40
0.0
 40
0.0
 40
0.0
 40
0.0
 40
0.2664818667
 40
0.5243385906
 40
0.7698471571
 40
1.0
 40
1.0
 40
1.0
 40
1.0
 10
36.1918219374
 20
80.2333378366
 30
0.0
 10
36.4920184372
 20
79.5829519966
 30
0.0
 10
37.0249596456
 20
78.2755284181
 30
0.0
 10
37.6194435242
 20
76.289824604
 30
0.0
 10
37.9862050359
 20
74.3487407266
 30
0.0
 10
38.0759116408
 20
73.0692052955
 30
0.0
 10
38.0759116408
 20
72.4505367767
 30
0.0
  0
SPLINE
  5
328
100
AcDbEntity
  8
0
100
AcDbSpline
 62
7
  6
BYLAYER
 70
0
 71
3
 72
14
 73
10
 74
0
 42
0.0000001
 43
0.0000001
 44
0.0000000001
 40
0.0
 40
0.0
 40
0.0
 40
0.0
 40
0.1080464382
 40
0.2181289048
 40
0.3321032264
 40
0.4515021559
 40
0.5774503443
 40
0.7107175146
 40
1.0
 40
1.0
 40
1.0
 40
1.0
 10
24.4285161616
 20
67.8781507604
 30
0.0
 10
24.543284128
 20
67.944411369
 30
0.0
 10
24.7639588706
 20
68.0983577124
 30
0.0
 10
25.0554972536
 20
68.3853166393
 30
0.0
 10
25.3062626874
 20
68.7258697398
 30
0.0
 10
25.5138638738
 20
69.1162101197
 30
0.0
 10
25.6767742782
 20
69.5523980247
 30
0.0
 10
25.8368894629
 20
70.2070000055
 30
0.0
 10
25.8783117432
 20
70.7278180208
 30
0.0
 10
25.8783117432
 20
71.0826318843
 30
0.0
  0
SPLINE
  5
329
100
AcDbEntity
  8
0
100
AcDbSpline
 62
7
  6
BYLAYER
 70
0
 71
3
 72
10
 73
6
 74
0
 42
0.0000001
 43
0.0000001
 44
0.0000000001
 40
0.0
 40
0.0
 40
0.0
 40
0.0
 40
0.2183785291
 40
0.4523111954
 40
1.0
 40
1.0
 40
1.0
 40
1.0
 10
34.2514341204
 20
61.397112355
 30
0.0
 10
34.2580293157
 20
61.4009202016
 30
0.0
 10
34.2703741395
 20
61.4113041611
 30
0.0
 10
34.2887999596
 20
61.4414318087
 30
0.0
 10
34.2928556389
 20
61.4695692509
 30
0.0
 10
34.2928556491
 20
61.4886688416
 30
0.0
  0
SPLINE
  5
32A
100
AcDbEntity
  8
0
100
AcDbSpline
 62
7
  6
BYLAYER
 70
0
 71
3
 72
15
 73
11
 74
0
 42
0.0000001
 43
0.0000001
 44
0.0000000001
 40
0.0
 40
0.0
 40
0.0
 40
0.0
 40
0.1485793323
 40
0.2895082532
 40
0.4227234642
 40
0.5486404829
 40
0.6680008203
 40
0.7819381813
 40
0.8919868373
 40
1.0
 40
1.0
 40
1.0
 40
1.0
 10
18.6657377889
 20
82.8399972285
 30
0.0
 10
18.6657377889
 20
83.1655254906
 30
0.0
 10
18.6919992578
 20
83.8002568348
 30
0.0
 10
18.8169192753
 20
84.7194255871
 30
0.0
 10
19.0256396452
 20
85.5725832427
 30
0.0
 10
19.3165076678
 20
86.3514260576
 30
0.0
 10
19.6872415044
 20
87.0484938122
 30
0.0
 10
20.1350087426
 20
87.6566497747
 30
0.0
 10
20.6556765373
 20
88.169015082
 30
0.0
 10
21.0496932202
 20
88.4439945689
 30
0.0
 10
21.2546441373
 20
88.5623096802
 30
0.0
  0
SPLINE
  5
32B
100
AcDbEntity
  8
0
100
AcDbSpline
 62
7
  6
BYLAYER
 70
0
 71
3
 72
15
 73
11
 74
0
 42
0.0000001
 43
0.0000001
 44
0.0000000001
 40
0.0
 40
0.0
 40
0.0
 40
0.0
 40
0.1028311675
 40
0.2085815861
 40
0.3197812515
 40
0.4383213336
 40
0.5653796084
 40
0.701465483
 40
0.8465161217
 40
1.0
 40
1.0
 40
1.0
 40
1.0
 10
33.7545745692
 20
66.9116659137
 30
0.0
 10
33.5013711607
 20
66.765495358
 30
0.0
 10
32.9545908266
 20
66.5229334791
 30
0.0
 10
32.0600481597
 20
66.3311396408
 30
0.0
 10
31.1012906512
 20
66.3098909349
 30
0.0
 10
30.093503002
 20
66.4575159002
 30
0.0
 10
29.0508289246
 20
66.7700838063
 30
0.0
 10
27.9876494752
 20
67.2421709341
 30
0.0
 10
26.9187622095
 20
67.8664599415
 30
0.0
 10
26.2301751853
 20
68.3651716601
 30
0.0
 10
25.8881069432
 20
68.6361267587
 30
0.0
  0
SPLINE
  5
32C
100
AcDbEntity
  8
0
100
AcDbSpline
 62
7
  6
BYLAYER
 70
0
 71
3
 72
9
 73
5
 74
0
 42
0.0000001
 43
0.0000001
 44
0.0000000001
 40
0.0
 40
0.0
 40
0.0
 40
0.0
 40
0.2577730651
 40
1.0
 40
1.0
 40
1.0
 40
1.0
 10
18.8144267752
 20
80.8899498213
 30
0.0
 10
18.7899395322
 20
81.0562820009
 30
0.0
 10
18.7057626508
 20
81.7030511431
 30
0.0
 10
18.6657377889
 20
82.3559012236
 30
0.0
 10
18.6657377889
 20
82.8399972285
 30
0.0
  0
SPLINE
  5
32D
100
AcDbEntity
  8
0
100
AcDbSpline
 62
7
  6
BYLAYER
 70
0
 71
3
 72
15
 73
11
 74
0
 42
0.0000001
 43
0.0000001
 44
0.0000000001
 40
0.0
 40
0.0
 40
0.0
 40
0.0
 40
0.1080126597
 40
0.2180609619
 40
0.3319981863
 40
0.4513585858
 40
0.577275571
 40
0.7104911329
 40
0.8514207315
 40
1.0
 40
1.0
 40
1.0
 40
1.0
 10
34.3795711321
 20
65.8291336351
 30
0.0
 10
34.6050160774
 20
65.9592796489
 30
0.0
 10
35.0384321862
 20
66.2617566172
 30
0.0
 10
35.611165599
 20
66.8253559151
 30
0.0
 10
36.1037107417
 20
67.4943253844
 30
0.0
 10
36.511517293
 20
68.2610999328
 30
0.0
 10
36.8314745412
 20
69.1178269799
 30
0.0
 10
37.0610679081
 20
70.0563027001
 30
0.0
 10
37.1984797902
 20
71.0673906132
 30
0.0
 10
37.227368074
 20
71.7655965059
 30
0.0
 10
37.227368074
 20
72.1236774223
 30
0.0
  0
SPLINE
  5
32E
100
AcDbEntity
  8
0
100
AcDbSpline
 62
7
  6
BYLAYER
 70
0
 71
3
 72
9
 73
5
 74
0
 42
0.0000001
 43
0.0000001
 44
0.0000000001
 40
0.0
 40
0.0
 40
0.0
 40
0.0
 40
0.5531601906
 40
1.0
 40
1.0
 40
1.0
 40
1.0
 10
34.1618002564
 20
65.7305913273
 30
0.0
 10
34.132350274
 20
65.7049482943
 30
0.0
 10
34.0805971752
 20
65.6568763079
 30
0.0
 10
34.0312330703
 20
65.60635655
 30
0.0
 10
34.0100129367
 20
65.5830170913
 30
0.0
  0
SPLINE
  5
32F
100
AcDbEntity
  8
0
100
AcDbSpline
 62
7
  6
BYLAYER
 70
0
 71
3
 72
9
 73
5
 74
0
 42
0.0000001
 43
0.0000001
 44
0.0000000001
 40
0.0
 40
0.0
 40
0.0
 40
0.0
 40
0.2435097489
 40
1.0
 40
1.0
 40
1.0
 40
1.0
 10
34.0100132319
 20
65.583002313
 30
0.0
 10
34.0072810772
 20
65.5889226349
 30
0.0
 10
33.9950696268
 20
65.6127524763
 30
0.0
 10
33.9787809886
 20
65.6345979711
 30
0.0
 10
33.9643525542
 20
65.6488153179
 30
0.0
  0
SPLINE
  5
330
100
AcDbEntity
  8
0
100
AcDbSpline
 62
7
  6
BYLAYER
 70
0
 71
3
 72
10
 73
6
 74
0
 42
0.0000001
 43
0.0000001
 44
0.0000000001
 40
0.0
 40
0.0
 40
0.0
 40
0.0
 40
0.5476900707
 40
0.7816224132
 40
1.0
 40
1.0
 40
1.0
 40
1.0
 10
34.0100129367
 20
61.4886683646
 30
0.0
 10
34.0100129367
 20
61.4695687561
 30
0.0
 10
34.0140685167
 20
61.4414313159
 30
0.0
 10
34.0324942079
 20
61.4113036437
 30
0.0
 10
34.0448389627
 20
61.4009196992
 30
0.0
 10
34.0514341204
 20
61.3971118742
 30
0.0
  0
SPLINE
  5
331
100
AcDbEntity
  8
0
100
AcDbSpline
 62
7
  6
BYLAYER
 70
0
 71
3
 72
11
 73
7
 74
0
 42
0.0000001
 43
0.0000001
 44
0.0000000001
 40
0.0
 40
0.0
 40
0.0
 40
0.0
 40
0.2372224165
 40
0.5000042459
 40
0.7627837053
 40
1.0
 40
1.0
 40
1.0
 40
1.0
 10
34.2928441314
 20
61.4886623953
 30
0.0
 10
34.2727682525
 20
61.4770725942
 30
0.0
 10
34.2260785143
 20
61.4601599454
 30
0.0
 10
34.1514267385
 20
61.4520567664
 30
0.0
 10
34.0767755465
 20
61.460162569
 30
0.0
 10
34.0300879724
 20
61.4770782995
 30
0.0
 10
34.0100129367
 20
61.4886683646
 30
0.0
  0
SPLINE
  5
332
100
AcDbEntity
  8
0
100
AcDbSpline
 62
7
  6
BYLAYER
 70
0
 71
3
 72
9
 73
5
 74
0
 42
0.0000001
 43
0.0000001
 44
0.0000000001
 40
0.0
 40
0.0
 40
0.0
 40
0.0
 40
0.4897071885
 40
1.0
 40
1.0
 40
1.0
 40
1.0
 10
30.290043578
 20
105.5720584934
 30
0.0
 10
30.3274988626
 20
105.593683178
 30
0.0
 10
30.4101528458
 20
105.627834381
 30
0.0
 10
30.4984892801
 20
105.640404444
 30
0.0
 10
30.5435303958
 20
105.6419502831
 30
0.0
  0
SPLINE
  5
333
100
AcDbEntity
  8
0
100
AcDbSpline
 62
7
  6
BYLAYER
 70
0
 71
3
 72
9
 73
5
 74
0
 42
0.0000001
 43
0.0000001
 44
0.0000000001
 40
0.0
 40
0.0
 40
0.0
 40
0.0
 40
0.2258839118
 40
1.0
 40
1.0
 40
1.0
 40
1.0
 10
30.5435303958
 20
105.6419502831
 30
0.0
 10
30.5827359141
 20
105.643295841
 30
0.0
 10
30.7569399418
 20
105.6330704722
 30
0.0
 10
30.9236124159
 20
105.5649901784
 30
0.0
 10
31.0400402205
 20
105.4977720747
 30
0.0
  0
SPLINE
  5
334
100
AcDbEntity
  8
0
100
AcDbSpline
 62
7
  6
BYLAYER
 70
0
 71
3
 72
10
 73
6
 74
0
 42
0.0000001
 43
0.0000001
 44
0.0000000001
 40
0.0
 40
0.0
 40
0.0
 40
0.0
 40
0.218376811
 40
0.4523085097
 40
1.0
 40
1.0
 40
1.0
 40
1.0
 10
16.627245438
 20
91.57652442
 30
0.0
 10
16.6272454929
 20
91.5689090734
 30
0.0
 10
16.630065794
 20
91.5530264955
 30
0.0
 10
16.6469441882
 20
91.5220060686
 30
0.0
 10
16.66928404
 20
91.5044255909
 30
0.0
 10
16.6858246775
 20
91.494876066
 30
0.0
  0
SPLINE
  5
335
100
AcDbEntity
  8
0
100
AcDbSpline
 62
7
  6
BYLAYER
 70
0
 71
3
 72
11
 73
7
 74
0
 42
0.0000001
 43
0.0000001
 44
0.0000000001
 40
0.0
 40
0.0
 40
0.0
 40
0.0
 40
0.2177858914
 40
0.4509156058
 40
0.7102996464
 40
1.0
 40
1.0
 40
1.0
 40
1.0
 10
42.9624541286
 20
60.4346162705
 30
0.0
 10
43.0119348815
 20
60.4631838194
 30
0.0
 10
43.1045107498
 20
60.5410137297
 30
0.0
 10
43.2030654001
 20
60.7021622069
 30
0.0
 10
43.2616010122
 20
60.9007536114
 30
0.0
 10
43.273122074
 20
61.0452933116
 30
0.0
 10
43.273122074
 20
61.1212951816
 30
0.0
  0
SPLINE
  5
336
100
AcDbEntity
  8
0
100
AcDbSpline
 62
7
  6
BYLAYER
 70
0
 71
3
 72
24
 73
20
 74
0
 42
0.0000001
 43
0.0000001
 44
0.0000000001
 40
0.0
 40
0.0
 40
0.0
 40
0.0
 40
0.062383904
 40
0.1287347361
 40
0.1983295068
 40
0.2703120116
 40
0.3436936969
 40
0.417431928
 40
0.4904626271
 40
0.5617548346
 40
0.6303570909
 40
0.6954492158
 40
0.7564011736
 40
0.8128427429
 40
0.8647473163
 40
0.9125257968
 40
0.9571037599
 40
0.9786660949
 40
1.0
 40
1.0
 40
1.0
 40
1.0
 10
25.8783117432
 20
71.0826318843
 30
0.0
 10
25.8783117432
 20
71.3730161141
 30
0.0
 10
25.8389510073
 20
71.9726478283
 30
0.0
 10
25.6770915161
 20
72.8830946143
 30
0.0
 10
25.4138480383
 20
73.8160147758
 30
0.0
 10
25.0549902091
 20
74.7514328883
 30
0.0
 10
24.608054414
 20
75.6695479622
 30
0.0
 10
24.0826216927
 20
76.550769188
 30
0.0
 10
23.4898711669
 20
77.3762926654
 30
0.0
 10
22.8424455905
 20
78.1285178754
 30
0.0
 10
22.1540848643
 20
78.7914570364
 30
0.0
 10
21.4392789995
 20
79.3510641007
 30
0.0
 10
20.7128570071
 20
79.7954772325
 30
0.0
 10
19.9896088028
 20
80.1151498013
 30
0.0
 10
19.2838052328
 20
80.3026097111
 30
0.0
 10
18.6097154727
 20
80.3524042436
 30
0.0
 10
18.0797786308
 20
80.2743679601
 30
0.0
 10
17.6941106694
 20
80.1410053491
 30
0.0
 10
17.5145719997
 20
80.0521356419
 30
0.0
 10
17.4285711727
 20
80.0024835716
 30
0.0
  0
SPLINE
  5
337
100
AcDbEntity
  8
0
100
AcDbSpline
 62
7
  6
BYLAYER
 70
0
 71
3
 72
15
 73
11
 74
0
 42
0.0000001
 43
0.0000001
 44
0.0000000001
 40
0.0
 40
0.0
 40
0.0
 40
0.0
 40
0.1450359947
 40
0.2748912682
 40
0.3911979529
 40
0.4999463012
 40
0.6087477539
 40
0.725313361
 40
0.8551592283
 40
1.0
 40
1.0
 40
1.0
 40
1.0
 10
25.5246683857
 20
97.0879640734
 30
0.0
 10
25.5422826663
 20
97.0777946374
 30
0.0
 10
25.5743195829
 20
97.0559436584
 30
0.0
 10
25.6127497264
 20
97.0160641943
 30
0.0
 10
25.6365580935
 20
96.9715005168
 30
0.0
 10
25.6446064396
 20
96.9244758506
 30
0.0
 10
25.6361887613
 20
96.877461655
 30
0.0
 10
25.6119530406
 20
96.8331129568
 30
0.0
 10
25.5736880608
 20
96.7931290541
 30
0.0
 10
25.5417263537
 20
96.7711780703
 30
0.0
 10
25.5241187655
 20
96.7610518548
 30
0.0
  0
SPLINE
  5
338
100
AcDbEntity
  8
0
100
AcDbSpline
 62
7
  6
BYLAYER
 70
0
 71
3
 72
11
 73
7
 74
0
 42
0.0000001
 43
0.0000001
 44
0.0000000001
 40
0.0
 40
0.0
 40
0.0
 40
0.0
 40
0.289746783
 40
0.5490797733
 40
0.7822221188
 40
1.0
 40
1.0
 40
1.0
 40
1.0
 10
123.8949360297
 20
130.842602716
 30
0.0
 10
123.8949360297
 20
130.6855072732
 30
0.0
 10
123.8711565026
 20
130.3867905288
 30
0.0
 10
123.7501378888
 20
129.9763740243
 30
0.0
 10
123.5464605188
 20
129.643371976
 30
0.0
 10
123.3551462893
 20
129.4825017928
 30
0.0
 10
123.2528800447
 20
129.4234817048
 30
0.0
  0
SPLINE
  5
339
100
AcDbEntity
  8
0
100
AcDbSpline
 62
7
  6
BYLAYER
 70
0
 71
3
 72
17
 73
13
 74
0
 42
0.0000001
 43
0.0000001
 44
0.0000000001
 40
0.0
 40
0.0
 40
0.0
 40
0.0
 40
0.042858162
 40
0.087486983
 40
0.1353186348
 40
0.1872839876
 40
0.3045444317
 40
0.4382116486
 40
0.5825549029
 40
0.7297153754
 40
0.8713049603
 40
1.0
 40
1.0
 40
1.0
 40
1.0
 10
120.1529117187
 20
134.7928164052
 30
0.0
 10
120.2293425201
 20
134.8369262936
 30
0.0
 10
120.397792706
 20
134.9069854393
 30
0.0
 10
120.6758869431
 20
134.9476740308
 30
0.0
 10
120.9745321871
 20
134.9257812633
 30
0.0
 10
121.4084392956
 20
134.8102872681
 30
0.0
 10
121.9631627692
 20
134.5070432843
 30
0.0
 10
122.5760129757
 20
133.9642674763
 30
0.0
 10
123.1177508567
 20
133.2708581855
 30
0.0
 10
123.544092961
 20
132.4828063568
 30
0.0
 10
123.8208101432
 20
131.6647484493
 30
0.0
 10
123.8949360297
 20
131.107588822
 30
0.0
 10
123.8949360297
 20
130.842602716
 30
0.0
  0
ENDSEC
  0
SECTION
  2
OBJECTS
  0
DICTIONARY
  5
C
100
AcDbDictionary
280
0
281
1
  3
ACAD_GROUP
350
D
  3
ACAD_MLINESTYLE
350
17
  3
ACAD_LAYOUT
350
1A
  3
ACAD_PLOTSETTINGS
350
19
  3
ACAD_PLOTSTYLENAME
350
E
  0
DICTIONARY
  5
D
102
{ACAD_REACTORS
330
C
102
}
100
AcDbDictionary
280
0
281
1
  0
ACDBDICTIONARYWDFLT
  5
E
102
{ACAD_REACTORS
330
C
102
}
100
AcDbDictionary
281
1
  3
Normal
350
F
100
AcDbDictionaryWithDefault
340
F
  0
DICTIONARY
  5
17
102
{ACAD_REACTORS
330
C
102
}
100
AcDbDictionary
280
0
281
1
  3
Standard
350
18
  0
DICTIONARY
  5
19
102
{ACAD_REACTORS
330
C
102
}
100
AcDbDictionary
281
1
  0
DICTIONARY
  5
1A
102
{ACAD_REACTORS
330
C
102
}
100
AcDbDictionary
281
1
  3
Model
350
33A
  3
Layout1
350
33B
  0
ACDBPLACEHOLDER
  5
F
102
{ACAD_REACTORS
330
E
102
}
  0
MLINESTYLE
  5
18
102
{ACAD_REACTORS
330
17
102
}
100
AcDbMlineStyle
  2
STANDARD
 70
0
  3

 62
256
 51
90.0
 52
90.0
 71
2
 49
0.5
 62
256
  6
BYLAYER
 49
-0.5
 62
256
  6
BYLAYER
  0
LAYOUT
  5
33A
102
{ACAD_REACTORS
330
1A
102
}
100
AcDbPlotSettings
  1

  2
none_device
  4

  6

 40
0.0
 41
0.0
 42
0.0
 43
0.0
 44
210.0
 45
297.0
 46
0.0
 47
0.0
 48
0.0
 49
0.0
140
0.0
141
0.0
142
1.0
143
1.0
 70
1024
 72
1
 73
0
 74
0
  7

 75
0
147
1.0
148
0.0
149
0.0
100
AcDbLayout
  1
Model
 70
0
 71
0
 10
0.0
 20
0.0
 11
210.0
 21
297.0
 12
0.0
 22
0.0
 32
0.0
 14
0.0
 24
0.0
 34
0.0
 15
0.0
 25
0.0
 35
0.0
146
0.0
 13
0.0
 23
0.0
 33
0.0
 16
1.0
 26
0.0
 36
0.0
 17
0.0
 27
1.0
 37
0.0
 76
0
330
210
345
0
346
0
  0
LAYOUT
  5
33B
102
{ACAD_REACTORS
330
1A
102
}
100
AcDbPlotSettings
  1

  2
none_device
  4

  6

 40
0.0
 41
0.0
 42
0.0
 43
0.0
 44
210.0
 45
297.0
 46
0.0
 47
0.0
 48
0.0
 49
0.0
140
0.0
141
0.0
142
1.0
143
1.0
 70
0
 72
1
 73
0
 74
0
  7

 75
0
147
1.0
148
0.0
149
0.0
100
AcDbLayout
  1
Layout1
 70
0
 71
1
 10
0.0
 20
0.0
 11
210.0
 21
297.0
 12
0.0
 22
0.0
 32
0.0
 14
0.0
 24
0.0
 34
0.0
 15
0.0
 25
0.0
 35
0.0
146
0.0
 13
0.0
 23
0.0
 33
0.0
 16
1.0
 26
0.0
 36
0.0
 17
0.0
 27
1.0
 37
0.0
 76
0
330
211
345
0
346
0
  0
ENDSEC
  0
EOF
