999
DXF file: C:\Users\sesa63760\Dev\_Creo\CAD\MCADID0004746_3D-CAD\drw0001_1.dxf
999
Pro/ENGINEER 2019471 by Parametric Technology Corporation
  0
SECTION
  2
HEADER
  9
$ACADVER
  1
AC1024
  9
$DWGCODEPAGE
  3
ANSI_1252
  9
$EXTMAX
 10
32.4669547447
 20
45.9175502818
 30
0.0
  9
$EXTMIN
 10
0.0
 20
0.0
 30
0.0
  9
$LIMMIN
 10
0.0
 20
0.0
  9
$LIMMAX
 10
32.4669547447
 20
45.9175502818
  9
$VIEWCTR
 10
16.2334773724
 20
22.9587751409
  9
$VIEWSIZE
 40
45.9175502818
  9
$CLAYER
  8
0
  9
$LTSCALE
 40
2.9931440184
  9
$CELTYPE
  6
BYLAYER
  9
$DIMSCALE
 40
1.0
  9
$DIMASZ
 40
0.386511366
  9
$DIMEXO
 40
1.0
  9
$DIMDLI
 40
2.0679904127
  9
$DIMEXE
 40
1.0
  9
$DIMCEN
 40
0.489787203
  9
$DIMLFAC
 40
1.0
  9
$DIMBLK
  1
_FILLED
  9
$DIMALT
 70
0
  9
$DIMALTF
 40
0.0393700787
  9
$DIMTXT
 40
0.5411159124
  9
$DIMTOL
 70
1
  9
$DIMLIM
 70
0
  9
$DIMTFAC
 40
1.0
  9
$DIMTP
 40
0.01
  9
$DIMTM
 40
0.01
  9
$DIMGAP
 40
0.625
  9
$DIMDSEP
 70
46
  9
$AUNITS
 70
0
  9
$PDMODE
 70
3
  9
$PDSIZE
 40
0.3125
  9
$HANDSEED
  5
34A
  9
$TILEMODE
 70
1
  9
$MEASUREMENT
 70
1
  9
$INSUNITS
 70
4
  0
ENDSEC
  0
SECTION
  2
CLASSES
  0
CLASS
  1
ACDBDICTIONARYWDFLT
  2
AcDbDictionaryWithDefault
  3
AutoCAD 2000
 90
0
 91
1
280
0
281
0
  0
CLASS
  1
ACDBPLACEHOLDER
  2
AcDbPlaceHolder
  3
AutoCAD 2000
 90
0
 91
1
280
0
281
0
  0
CLASS
  1
LAYOUT
  2
AcDbLayout
  3
AutoCAD 2000
 90
0
 91
0
280
0
281
0
  0
ENDSEC
  0
SECTION
  2
TABLES
  0
TABLE
  2
VPORT
  5
8
100
AcDbSymbolTable
 70
2
  0
VPORT
  5
1F4
100
AcDbSymbolTableRecord
100
AcDbViewportTableRecord
  2
*ACTIVE
 70
0
 10
0.0
 20
0.0
 11
1.0
 21
1.0
 12
16.2334773724
 22
22.9587751409
 13
0.0
 23
0.0
 14
1.0
 24
1.0
 15
0.0
 25
0.0
 16
0.0
 26
0.0
 36
1.0
 17
0.0
 27
0.0
 37
0.0
 40
45.9175502818
 41
0.7070707071
 42
50.0
 43
0.0
 44
0.0
 50
0.0
 51
0.0
 71
0
 72
100
 73
1
 74
1
 75
0
 76
0
 77
0
 78
0
  0
ENDTAB
  0
TABLE
  2
LTYPE
  5
5
100
AcDbSymbolTable
 70
6
  0
LTYPE
  5
14
100
AcDbSymbolTableRecord
100
AcDbLinetypeTableRecord
  2
BYBLOCK
 70
0
  3

 72
65
 73
0
 40
0.0
  0
LTYPE
  5
15
100
AcDbSymbolTableRecord
100
AcDbLinetypeTableRecord
  2
BYLAYER
 70
0
  3

 72
65
 73
0
 40
0.0
  0
LTYPE
  5
16
100
AcDbSymbolTableRecord
100
AcDbLinetypeTableRecord
  2
CONTINUOUS
 70
64
  3
Solid line
 72
65
 73
0
 40
0.0
  0
LTYPE
  5
1F5
100
AcDbSymbolTableRecord
100
AcDbLinetypeTableRecord
  2
CENTER
 70
64
  3
____ _ ____ _ ____ _ ____ _ ____ _ ____ _ ____
 72
65
 73
4
 40
0.6
 49
0.375
 74
0
 49
-0.075
 74
0
 49
0.075
 74
0
 49
-0.075
 74
0
  0
LTYPE
  5
1F6
100
AcDbSymbolTableRecord
100
AcDbLinetypeTableRecord
  2
HIDDEN
 70
64
  3
- - - - - - - - - - - - - - - - - - - -
 72
65
 73
2
 40
0.2
 49
0.1
 74
0
 49
-0.1
 74
0
  0
LTYPE
  5
1F7
100
AcDbSymbolTableRecord
100
AcDbLinetypeTableRecord
  2
PHANTOM
 70
64
  3
_____ _ _ _____ _ _ _____ _ _ _____
 72
65
 73
6
 40
0.8
 49
0.45
 74
0
 49
-0.05
 74
0
 49
0.1
 74
0
 49
-0.05
 74
0
 49
0.1
 74
0
 49
-0.05
 74
0
  0
LTYPE
  5
1F8
100
AcDbSymbolTableRecord
100
AcDbLinetypeTableRecord
  2
DOT
 70
64
  3
. . . . . . . . . . . . . . . . . . . .
 72
65
 73
2
 40
0.2
 49
0.1
 74
0
 49
-0.1
 74
0
  0
LTYPE
  5
1F9
100
AcDbSymbolTableRecord
100
AcDbLinetypeTableRecord
  2
DASHED
 70
64
  3
- - - - - - - - - - - - - - - - - - - -
 72
65
 73
2
 40
0.2
 49
0.1
 74
0
 49
-0.1
 74
0
  0
ENDTAB
  0
TABLE
  2
LAYER
  5
2
100
AcDbSymbolTable
 70
36
  0
LAYER
  5
10
100
AcDbSymbolTableRecord
100
AcDbLayerTableRecord
  2
0
 70
0
 62
7
  6
CONTINUOUS
370
-3
390
F
  0
LAYER
  5
1FA
100
AcDbSymbolTableRecord
100
AcDbLayerTableRecord
  2
DEFAULT_1
 70
0
 62
7
  6
CENTER
370
-3
390
F
  0
LAYER
  5
1FB
100
AcDbSymbolTableRecord
100
AcDbLayerTableRecord
  2
DEFAULT_2
 70
0
 62
7
  6
HIDDEN
370
-3
390
F
  0
LAYER
  5
1FC
100
AcDbSymbolTableRecord
100
AcDbLayerTableRecord
  2
DEFAULT_3
 70
0
 62
7
  6
PHANTOM
370
-3
390
F
  0
LAYER
  5
1FD
100
AcDbSymbolTableRecord
100
AcDbLayerTableRecord
  2
00_COMPONENTS
 70
0
 62
7
  6
CONTINUOUS
370
-3
390
F
  0
LAYER
  5
1FE
100
AcDbSymbolTableRecord
100
AcDbLayerTableRecord
  2
01_1_DEFAULT_DATUMS
 70
0
 62
7
  6
CONTINUOUS
370
-3
390
F
  0
LAYER
  5
1FF
100
AcDbSymbolTableRecord
100
AcDbLayerTableRecord
  2
01_PLANES
 70
0
 62
7
  6
CONTINUOUS
370
-3
390
F
  0
LAYER
  5
200
100
AcDbSymbolTableRecord
100
AcDbLayerTableRecord
  2
02_COORD_SYS
 70
0
 62
7
  6
CONTINUOUS
370
-3
390
F
  0
LAYER
  5
201
100
AcDbSymbolTableRecord
100
AcDbLayerTableRecord
  2
03_AXES
 70
0
 62
7
  6
CONTINUOUS
370
-3
390
F
  0
LAYER
  5
202
100
AcDbSymbolTableRecord
100
AcDbLayerTableRecord
  2
04_POINTS
 70
0
 62
7
  6
CONTINUOUS
370
-3
390
F
  0
LAYER
  5
203
100
AcDbSymbolTableRecord
100
AcDbLayerTableRecord
  2
05_CURVES
 70
0
 62
7
  6
CONTINUOUS
370
-3
390
F
  0
LAYER
  5
204
100
AcDbSymbolTableRecord
100
AcDbLayerTableRecord
  2
06_SURFS
 70
0
 62
7
  6
CONTINUOUS
370
-3
390
F
  0
LAYER
  5
205
100
AcDbSymbolTableRecord
100
AcDbLayerTableRecord
  2
07_COSMETICS
 70
0
 62
7
  6
CONTINUOUS
370
-3
390
F
  0
LAYER
  5
206
100
AcDbSymbolTableRecord
100
AcDbLayerTableRecord
  2
10_NOTES
 70
0
 62
7
  6
CONTINUOUS
370
-3
390
F
  0
LAYER
  5
207
100
AcDbSymbolTableRecord
100
AcDbLayerTableRecord
  2
11_NOTES_PUB
 70
0
 62
7
  6
CONTINUOUS
370
-3
390
F
  0
LAYER
  5
208
100
AcDbSymbolTableRecord
100
AcDbLayerTableRecord
  2
13_REF_GTOL
 70
0
 62
7
  6
CONTINUOUS
370
-3
390
F
  0
LAYER
  5
209
100
AcDbSymbolTableRecord
100
AcDbLayerTableRecord
  2
16_MISC
 70
0
 62
7
  6
CONTINUOUS
370
-3
390
F
  0
LAYER
  5
20A
100
AcDbSymbolTableRecord
100
AcDbLayerTableRecord
  2
17_NO_PRINT
 70
0
 62
7
  6
CONTINUOUS
370
-3
390
F
  0
LAYER
  5
20B
100
AcDbSymbolTableRecord
100
AcDbLayerTableRecord
  2
18_DATUM_CAMS_JOINTS
 70
0
 62
7
  6
CONTINUOUS
370
-3
390
F
  0
LAYER
  5
20C
100
AcDbSymbolTableRecord
100
AcDbLayerTableRecord
  2
19_DATUM_FUNCTIONAL
 70
0
 62
7
  6
CONTINUOUS
370
-3
390
F
  0
LAYER
  5
20D
100
AcDbSymbolTableRecord
100
AcDbLayerTableRecord
  2
20_DATUM_KINEMATIC_SCHEME
 70
0
 62
7
  6
CONTINUOUS
370
-3
390
F
  0
ENDTAB
  0
TABLE
  2
STYLE
  5
3
100
AcDbSymbolTable
 70
1
  0
STYLE
  5
11
100
AcDbSymbolTableRecord
100
AcDbTextStyleTableRecord
  2
STANDARD
 70
0
 40
0.0
 41
1.0
 50
0.0
 71
0
 42
0.2
  3
ARIAL.TTF
  4

  0
STYLE
  5
20E
100
AcDbSymbolTableRecord
100
AcDbTextStyleTableRecord
  2
TEXTSTYLE_1
 70
0
 40
0.0
 41
0.8
 50
0.0
 71
0
 42
0.2
  3
gdt
  4

  0
ENDTAB
  0
TABLE
  2
VIEW
  5
6
100
AcDbSymbolTable
 70
0
  0
ENDTAB
  0
TABLE
  2
UCS
  5
7
100
AcDbSymbolTable
 70
0
  0
ENDTAB
  0
TABLE
  2
APPID
  5
9
100
AcDbSymbolTable
 70
1
  0
APPID
  5
20F
100
AcDbSymbolTableRecord
100
AcDbRegAppTableRecord
  2
ACAD
 70
0
  0
ENDTAB
  0
TABLE
  2
BLOCK_RECORD
  5
1
100
AcDbSymbolTable
 70
0
  0
BLOCK_RECORD
  5
210
100
AcDbSymbolTableRecord
100
AcDbBlockTableRecord
  2
*Model_Space
  0
BLOCK_RECORD
  5
211
100
AcDbSymbolTableRecord
100
AcDbBlockTableRecord
  2
*Paper_Space
  0
BLOCK_RECORD
  5
212
100
AcDbSymbolTableRecord
100
AcDbBlockTableRecord
  2
_FILLED
  0
ENDTAB
  0
TABLE
  2
DIMSTYLE
  5
A
100
AcDbSymbolTable
 70
1
100
AcDbDimStyleTable
 71
0
  0
DIMSTYLE
105
213
100
AcDbSymbolTableRecord
100
AcDbDimStyleTableRecord
  2
STANDARD
 70
0
  3

  4

 40
1.0
 41
0.386511366
 42
1.0
 43
0.38
 44
1.0
 45
0.0
 46
0.0
 47
0.01
 48
0.01
140
0.5411159124
141
0.09
142
0.0
143
25.4
144
1.0
145
0.0
146
1.0
147
0.625
 71
1
 72
0
 73
0
 74
0
 75
0
 76
0
 77
1
 78
8
 79
2
170
0
171
1
172
0
173
0
174
0
175
0
176
0
177
0
178
0
270
2
179
2
271
2
272
2
273
2
274
2
275
0
280
0
281
0
282
0
283
1
284
8
285
0
286
0
287
3
288
0
340
11
278
46
341
212
342
212
343
212
344
212
  0
ENDTAB
  0
ENDSEC
  0
SECTION
  2
BLOCKS
  0
BLOCK
  5
20
100
AcDbEntity
  8
0
100
AcDbBlockBegin
  2
*Model_Space
 70
0
 10
0.0
 20
0.0
 30
0.0
  3
*Model_Space
  1

  0
ENDBLK
  5
21
100
AcDbEntity
  8
0
100
AcDbBlockEnd
  0
BLOCK
  5
1C
100
AcDbEntity
  8
0
100
AcDbBlockBegin
  2
*Paper_Space
 70
0
 10
0.0
 20
0.0
 30
0.0
  3
*Paper_Space
  1

  0
ENDBLK
  5
1D
100
AcDbEntity
  8
0
100
AcDbBlockEnd
  0
BLOCK
  5
214
100
AcDbEntity
  8
0
100
AcDbBlockBegin
  2
_FILLED
 70
64
 10
0.0
 20
0.0
  3
_FILLED
  1

  0
SOLID
  5
215
100
AcDbEntity
  8
0
  6
BYBLOCK
 62
0
100
AcDbTrace
 10
0.0
 20
0.0
 11
-1.0
 21
0.25
 12
-1.0
 22
-0.25
 13
-1.0
 23
-0.25
  0
ENDBLK
  5
216
100
AcDbEntity
  8
0
  6
BYBLOCK
 62
0
100
AcDbBlockEnd
  0
ENDSEC
  0
SECTION
  2
ENTITIES
  0
LINE
  5
217
100
AcDbEntity
  8
0
100
AcDbLine
 62
7
  6
BYLAYER
 10
5.888507805
 20
38.7791696097
 11
5.8466819814
 21
38.7544870774
  0
LINE
  5
218
100
AcDbEntity
  8
0
100
AcDbLine
 62
7
  6
BYLAYER
 10
5.8884914444
 20
38.7791979581
 11
9.7775625491
 21
41.0245408044
  0
LINE
  5
219
100
AcDbEntity
  8
0
100
AcDbLine
 62
7
  6
BYLAYER
 10
7.7160674569
 20
38.0479359288
 11
7.709359285
 21
38.0438975076
  0
LINE
  5
21A
100
AcDbEntity
  8
0
100
AcDbLine
 62
7
  6
BYLAYER
 10
6.7036842935
 20
36.550738479
 11
4.7591487411
 21
35.4280670558
  0
LINE
  5
21B
100
AcDbEntity
  8
0
100
AcDbLine
 62
7
  6
BYLAYER
 10
6.4220925895
 20
37.7733198719
 11
7.0800276024
 21
38.0280916033
  0
LINE
  5
21C
100
AcDbEntity
  8
0
100
AcDbLine
 62
7
  6
BYLAYER
 10
7.7167539024
 20
38.0467616524
 11
7.709359285
 21
38.0438975076
  0
LINE
  5
21D
100
AcDbEntity
  8
0
100
AcDbLine
 62
7
  6
BYLAYER
 10
7.9703032465
 20
36.7176032816
 11
8.1188923272
 21
36.8899885958
  0
LINE
  5
21E
100
AcDbEntity
  8
0
100
AcDbLine
 62
7
  6
BYLAYER
 10
6.0251965746
 20
34.0516904123
 11
6.0077698632
 21
34.0413906056
  0
LINE
  5
21F
100
AcDbEntity
  8
0
100
AcDbLine
 62
7
  6
BYLAYER
 10
6.0251965746
 20
34.0516904123
 11
6.275163279
 21
34.196007895
  0
LWPOLYLINE
  5
220
100
AcDbEntity
  8
0
100
AcDbPolyline
 62
7
  6
BYLAYER
 90
8
 70
0
 10
15.8679177265
 20
7.1395622567
 10
15.0496118497
 20
6.9161562311
 10
13.1262684516
 20
6.7909966151
 10
11.2300283193
 20
7.0333681005
 10
9.5790815591
 20
7.6149492566
 10
8.9011257753
 20
8.0136326127
 10
7.9269961784
 20
8.973324136
 10
7.6680555706
 20
9.7038424311
  0
LINE
  5
221
100
AcDbEntity
  8
0
100
AcDbLine
 62
7
  6
BYLAYER
 10
10.930637539
 20
9.3323152895
 11
10.4143815972
 21
9.4776147643
  0
LWPOLYLINE
  5
222
100
AcDbEntity
  8
0
100
AcDbPolyline
 62
7
  6
BYLAYER
 90
4
 70
0
 10
8.9459530363
 20
9.51904354
 10
10.5514581873
 20
8.8453751526
 10
12.4363920437
 20
8.4909882858
 10
13.2723964107
 20
8.4909656505
  0
LINE
  5
223
100
AcDbEntity
  8
0
100
AcDbLine
 62
7
  6
BYLAYER
 10
8.9327625653
 20
8.5666417834
 11
8.8057807768
 21
8.6914147634
  0
LINE
  5
224
100
AcDbEntity
  8
0
100
AcDbLine
 62
7
  6
BYLAYER
 10
10.4876612776
 20
35.3781814798
 11
11.3335268735
 21
35.8898359146
  0
LWPOLYLINE
  5
225
100
AcDbEntity
  8
0
100
AcDbPolyline
 62
7
  6
BYLAYER
 90
3
 70
0
 10
12.3317580382
 20
9.0340311823
 10
11.8743088245
 20
9.0667203955
 10
11.008741655
 20
9.310333001
  0
LINE
  5
226
100
AcDbEntity
  8
0
100
AcDbLine
 62
7
  6
BYLAYER
 10
11.5276347125
 20
9.4982814981
 11
11.5120939017
 21
9.5002330965
  0
LINE
  5
227
100
AcDbEntity
  8
0
100
AcDbLine
 62
7
  6
BYLAYER
 10
11.5272911715
 20
9.4976141287
 11
11.5120939017
 21
9.5002330965
  0
LINE
  5
228
100
AcDbEntity
  8
0
100
AcDbLine
 62
7
  6
BYLAYER
 10
14.8503289564
 20
7.57996648
 11
7.7792317049
 21
11.6623740252
  0
LINE
  5
229
100
AcDbEntity
  8
0
100
AcDbLine
 62
7
  6
BYLAYER
 10
7.221519819
 20
11.4352702665
 11
7.4628635177
 21
11.0059378781
  0
LINE
  5
22A
100
AcDbEntity
  8
0
100
AcDbLine
 62
7
  6
BYLAYER
 10
9.5307188425
 20
32.7056810724
 11
11.4752543949
 21
33.8283524955
  0
LINE
  5
22B
100
AcDbEntity
  8
0
100
AcDbLine
 62
7
  6
BYLAYER
 10
16.8852452195
 20
36.95179351
 11
18.0159648891
 21
37.6046109188
  0
LINE
  5
22C
100
AcDbEntity
  8
0
100
AcDbLine
 62
7
  6
BYLAYER
 10
7.3701784314
 20
11.4315233427
 11
6.8148233535
 21
11.4455210055
  0
LINE
  5
22D
100
AcDbEntity
  8
0
100
AcDbLine
 62
7
  6
BYLAYER
 10
10.254115743
 20
13.0096396026
 11
7.7792317049
 21
14.4384822435
  0
LINE
  5
22E
100
AcDbEntity
  8
0
100
AcDbLine
 62
7
  6
BYLAYER
 10
6.5602179774
 20
11.6262088418
 11
6.5460533184
 21
11.6688925807
  0
LINE
  5
22F
100
AcDbEntity
  8
0
100
AcDbLine
 62
7
  6
BYLAYER
 10
5.4090414269
 20
32.2815179542
 11
5.409038483
 21
32.6897570088
  0
LINE
  5
230
100
AcDbEntity
  8
0
100
AcDbLine
 62
7
  6
BYLAYER
 10
5.4360624027
 20
17.7044354744
 11
5.4360624027
 21
14.9283272562
  0
LINE
  5
231
100
AcDbEntity
  8
0
100
AcDbLine
 62
7
  6
BYLAYER
 10
8.3721349721
 20
10.5855628691
 11
7.8294280893
 21
10.5160984693
  0
LINE
  5
232
100
AcDbEntity
  8
0
100
AcDbLine
 62
7
  6
BYLAYER
 10
10.6076676616
 20
13.6220128881
 11
8.1327836236
 21
15.050855529
  0
LINE
  5
233
100
AcDbEntity
  8
0
100
AcDbLine
 62
7
  6
BYLAYER
 10
6.5460516105
 20
12.6739543122
 11
6.5460516105
 21
11.66889258
  0
LINE
  5
234
100
AcDbEntity
  8
0
100
AcDbLine
 62
7
  6
BYLAYER
 10
6.5602179774
 20
12.6589688554
 11
6.5602179774
 21
11.6262088418
  0
LINE
  5
235
100
AcDbEntity
  8
0
100
AcDbLine
 62
7
  6
BYLAYER
 10
6.6398653989
 20
12.5747162726
 11
6.6398653989
 21
11.5151954285
  0
LINE
  5
236
100
AcDbEntity
  8
0
100
AcDbLine
 62
7
  6
BYLAYER
 10
6.8148233535
 20
11.4455210055
 11
6.8148233535
 21
12.389642365
  0
LINE
  5
237
100
AcDbEntity
  8
0
100
AcDbLine
 62
7
  6
BYLAYER
 10
7.0860624027
 20
8.5596084026
 11
7.0860624027
 21
10.1926132368
  0
LINE
  5
238
100
AcDbEntity
  8
0
100
AcDbLine
 62
7
  6
BYLAYER
 10
7.0860624027
 20
11.1724161374
 11
7.0860624027
 21
11.4386844556
  0
LINE
  5
239
100
AcDbEntity
  8
0
100
AcDbLine
 62
7
  6
BYLAYER
 10
7.3701784314
 20
11.9349667424
 11
7.3701784314
 21
11.4315233427
  0
LINE
  5
23A
100
AcDbEntity
  8
0
100
AcDbLine
 62
7
  6
BYLAYER
 10
7.4628635177
 20
11.873201488
 11
7.4628635177
 21
10.7215824792
  0
LINE
  5
23B
100
AcDbEntity
  8
0
100
AcDbLine
 62
7
  6
BYLAYER
 10
7.502496882
 20
11.8467898513
 11
7.502496882
 21
10.6525845716
  0
LINE
  5
23C
100
AcDbEntity
  8
0
100
AcDbLine
 62
7
  6
BYLAYER
 10
7.6291970466
 20
11.7623569806
 11
7.6291970466
 21
10.5572553325
  0
LINE
  5
23D
100
AcDbEntity
  8
0
100
AcDbLine
 62
7
  6
BYLAYER
 10
13.2043419156
 20
32.6978326864
 11
12.4174099115
 21
32.221826508
  0
LINE
  5
23E
100
AcDbEntity
  8
0
100
AcDbLine
 62
7
  6
BYLAYER
 10
9.0001832559
 20
28.8988315702
 11
9.0176099673
 21
28.9091313769
  0
LINE
  5
23F
100
AcDbEntity
  8
0
100
AcDbLine
 62
7
  6
BYLAYER
 10
9.0001832559
 20
28.8988315702
 11
9.2676270178
 21
29.0532393765
  0
LINE
  5
240
100
AcDbEntity
  8
0
100
AcDbLine
 62
7
  6
BYLAYER
 10
17.8909007745
 20
13.1730529897
 11
18.5980075557
 21
13.1730546894
  0
LINE
  5
241
100
AcDbEntity
  8
0
100
AcDbLine
 62
7
  6
BYLAYER
 10
15.203880875
 20
13.1117668287
 11
14.8503289564
 21
13.3158959603
  0
LINE
  5
242
100
AcDbEntity
  8
0
100
AcDbLine
 62
7
  6
BYLAYER
 10
7.7792317049
 20
11.6623740252
 11
7.7792317049
 21
14.4384822435
  0
LINE
  5
243
100
AcDbEntity
  8
0
100
AcDbLine
 62
7
  6
BYLAYER
 10
7.8294280893
 20
10.5160984693
 11
7.8294280893
 21
11.6333937848
  0
LINE
  5
244
100
AcDbEntity
  8
0
100
AcDbLine
 62
7
  6
BYLAYER
 10
8.3721349721
 20
11.3200689083
 11
8.3721349721
 21
10.5855628691
  0
LINE
  5
245
100
AcDbEntity
  8
0
100
AcDbLine
 62
7
  6
BYLAYER
 10
8.5609494671
 20
10.5520396185
 11
8.5609494671
 21
11.2110592749
  0
LINE
  5
246
100
AcDbEntity
  8
0
100
AcDbLine
 62
7
  6
BYLAYER
 10
8.7731093882
 20
11.0885714584
 11
8.7731093882
 21
9.9435477403
  0
LINE
  5
247
100
AcDbEntity
  8
0
100
AcDbLine
 62
7
  6
BYLAYER
 10
8.8491384711
 20
11.0446770399
 11
8.8491384711
 21
9.8529377565
  0
LINE
  5
248
100
AcDbEntity
  8
0
100
AcDbLine
 62
7
  6
BYLAYER
 10
9.014256972
 20
10.9493479856
 11
9.014256972
 21
9.7797892219
  0
LINE
  5
249
100
AcDbEntity
  8
0
100
AcDbLine
 62
7
  6
BYLAYER
 10
9.2261156881
 20
9.7699546906
 11
9.2261156881
 21
10.8270340659
  0
LWPOLYLINE
  5
24A
100
AcDbEntity
  8
0
100
AcDbPolyline
 62
7
  6
BYLAYER
 90
5
 70
0
 10
11.8097571383
 20
16.3199040469
 10
11.1566019998
 20
16.5301747608
 10
10.692344072
 20
16.7985268364
 10
10.0563304095
 20
17.457815894
 10
9.8711854831
 20
18.1126867323
  0
LINE
  5
24B
100
AcDbEntity
  8
0
100
AcDbLine
 62
7
  6
BYLAYER
 10
10.3876885232
 20
9.3827730036
 11
10.3634388891
 21
9.703402707
  0
LINE
  5
24C
100
AcDbEntity
  8
0
100
AcDbLine
 62
7
  6
BYLAYER
 10
9.7191897986
 20
10.5423640356
 11
9.7191897986
 21
9.918147269
  0
LINE
  5
24D
100
AcDbEntity
  8
0
100
AcDbLine
 62
7
  6
BYLAYER
 10
9.9165988727
 20
9.9139802996
 11
9.9165988727
 21
10.428392432
  0
LINE
  5
24E
100
AcDbEntity
  8
0
100
AcDbLine
 62
7
  6
BYLAYER
 10
9.9360624027
 20
22.175714128
 11
9.9360624027
 21
17.8832124305
  0
LINE
  5
24F
100
AcDbEntity
  8
0
100
AcDbLine
 62
7
  6
BYLAYER
 10
10.2584824151
 20
10.2310103421
 11
10.2584824151
 21
9.8000218437
  0
LINE
  5
250
100
AcDbEntity
  8
0
100
AcDbLine
 62
7
  6
BYLAYER
 10
10.3634388891
 20
9.703402707
 11
10.3634388891
 21
10.1704150644
  0
LINE
  5
251
100
AcDbEntity
  8
0
100
AcDbLine
 62
7
  6
BYLAYER
 10
10.3876885232
 20
10.1564148484
 11
10.3876885232
 21
9.3827730036
  0
LINE
  5
252
100
AcDbEntity
  8
0
100
AcDbLine
 62
7
  6
BYLAYER
 10
10.5083713459
 20
10.0867401644
 11
10.5083713459
 21
9.2817630057
  0
LINE
  5
253
100
AcDbEntity
  8
0
100
AcDbLine
 62
7
  6
BYLAYER
 10
10.7006556301
 20
9.9757272926
 11
10.7006556301
 21
9.2357801272
  0
LINE
  5
254
100
AcDbEntity
  8
0
100
AcDbLine
 62
7
  6
BYLAYER
 10
23.3408416055
 20
12.4766668834
 11
23.3455834243
 21
12.4746595903
  0
LINE
  5
255
100
AcDbEntity
  8
0
100
AcDbLine
 62
7
  6
BYLAYER
 10
4.7875571507
 20
29.8365967563
 11
9.2252678687
 21
22.2695895404
  0
LINE
  5
256
100
AcDbEntity
  8
0
100
AcDbLine
 62
7
  6
BYLAYER
 10
10.9097041983
 20
9.2579381349
 11
10.9097041983
 21
9.8550357759
  0
LINE
  5
257
100
AcDbEntity
  8
0
100
AcDbLine
 62
7
  6
BYLAYER
 10
11.3195433507
 20
9.6184203839
 11
11.3195433507
 21
9.4747598126
  0
LINE
  5
258
100
AcDbEntity
  8
0
100
AcDbLine
 62
7
  6
BYLAYER
 10
11.5120939017
 20
9.5002330965
 11
11.5120939017
 21
9.5072537864
  0
LINE
  5
259
100
AcDbEntity
  8
0
100
AcDbLine
 62
7
  6
BYLAYER
 10
11.8097541943
 20
17.0921659328
 11
11.8097571383
 21
13.9078152604
  0
LINE
  5
25A
100
AcDbEntity
  8
0
100
AcDbLine
 62
7
  6
BYLAYER
 10
15.0662813834
 20
28.5120612845
 11
18.9553524881
 21
30.7574041308
  0
LINE
  5
25B
100
AcDbEntity
  8
0
100
AcDbLine
 62
7
  6
BYLAYER
 10
23.3408421867
 20
12.4758579093
 11
23.3455855176
 21
12.4731260007
  0
LINE
  5
25C
100
AcDbEntity
  8
0
100
AcDbLine
 62
7
  6
BYLAYER
 10
11.3055734316
 20
22.3537666609
 11
12.2210438302
 21
20.7927430718
  0
LINE
  5
25D
100
AcDbEntity
  8
0
100
AcDbLine
 62
7
  6
BYLAYER
 10
13.4537872493
 20
15.7347502963
 11
13.4537843053
 21
16.1429893509
  0
LINE
  5
25E
100
AcDbEntity
  8
0
100
AcDbLine
 62
7
  6
BYLAYER
 10
11.9948001723
 20
17.783205807
 11
11.8097571383
 21
16.6839234786
  0
LINE
  5
25F
100
AcDbEntity
  8
0
100
AcDbLine
 62
7
  6
BYLAYER
 10
7.7792317049
 20
14.4384822435
 11
8.1327836236
 21
15.050855529
  0
LWPOLYLINE
  5
260
100
AcDbEntity
  8
0
100
AcDbPolyline
 62
7
  6
BYLAYER
 90
6
 70
0
 10
8.1327394641
 20
21.1744923419
 10
6.7526445608
 20
20.0775057832
 10
6.028255187
 20
18.789524712
 10
6.0282723183
 20
17.4357861557
 10
6.752687167
 20
16.1478192763
 10
8.1327836236
 20
15.050855529
  0
LINE
  5
261
100
AcDbEntity
  8
0
100
AcDbLine
 62
7
  6
BYLAYER
 10
22.453675607
 20
30.037603703
 11
20.8626919733
 21
29.1190543567
  0
LINE
  5
262
100
AcDbEntity
  8
0
100
AcDbLine
 62
7
  6
BYLAYER
 10
15.5594131942
 20
26.0572232027
 11
13.9684295605
 21
25.1386738565
  0
LINE
  5
263
100
AcDbEntity
  8
0
100
AcDbLine
 62
7
  6
BYLAYER
 10
12.2210438302
 20
20.7927430718
 11
13.7465497865
 21
19.9327568311
  0
LINE
  5
264
100
AcDbEntity
  8
0
100
AcDbLine
 62
7
  6
BYLAYER
 10
12.5491882424
 20
22.5158989705
 11
12.6853720153
 21
22.2836838357
  0
LWPOLYLINE
  5
265
100
AcDbEntity
  8
0
100
AcDbPolyline
 62
7
  6
BYLAYER
 90
11
 70
0
 10
14.4029984813
 20
28.8384398819
 10
14.5038773326
 20
29.7522239055
 10
14.3168798464
 20
31.3653464961
 10
13.7972410793
 20
33.0669395941
 10
12.9810782582
 20
34.7355604217
 10
11.9262728987
 20
36.2552496256
 10
10.7045319922
 20
37.5248232614
 10
9.4002008099
 20
38.4582675204
 10
8.0969380759
 20
38.9953968678
 10
6.8852968788
 20
39.097109854
 10
5.888507805
 20
38.7791696097
  0
LINE
  5
266
100
AcDbEntity
  8
0
100
AcDbLine
 62
7
  6
BYLAYER
 10
14.7680942597
 20
24.4281756442
 11
14.8190165993
 21
24.4730743337
  0
LINE
  5
267
100
AcDbEntity
  8
0
100
AcDbLine
 62
7
  6
BYLAYER
 10
7.7791846015
 20
20.9703615106
 11
8.1327394641
 21
21.1744923419
  0
LINE
  5
268
100
AcDbEntity
  8
0
100
AcDbLine
 62
7
  6
BYLAYER
 10
14.7680942597
 20
24.4281756442
 11
14.8620940592
 21
24.4824461299
  0
LINE
  5
269
100
AcDbEntity
  8
0
100
AcDbLine
 62
7
  6
BYLAYER
 10
15.1764474799
 20
24.3529189203
 11
12.1591156122
 21
22.6108719529
  0
LINE
  5
26A
100
AcDbEntity
  8
0
100
AcDbLine
 62
7
  6
BYLAYER
 10
12.5491882424
 20
22.5158989705
 11
14.4937237947
 21
23.6385703936
  0
LINE
  5
26B
100
AcDbEntity
  8
0
100
AcDbLine
 62
7
  6
BYLAYER
 10
16.8264394326
 20
21.0366479909
 11
16.6971405023
 21
21.0161968478
  0
LINE
  5
26C
100
AcDbEntity
  8
0
100
AcDbLine
 62
7
  6
BYLAYER
 10
15.1234240183
 20
20.7896780719
 11
12.9365751798
 21
22.0224886708
  0
LINE
  5
26D
100
AcDbEntity
  8
0
100
AcDbLine
 62
7
  6
BYLAYER
 10
14.4937237947
 20
23.6385703936
 11
14.6299075676
 21
23.4063552589
  0
LINE
  5
26E
100
AcDbEntity
  8
0
100
AcDbLine
 62
7
  6
BYLAYER
 10
10.6076676616
 20
13.6220128881
 11
10.254115743
 21
13.0096396026
  0
LINE
  5
26F
100
AcDbEntity
  8
0
100
AcDbLine
 62
7
  6
BYLAYER
 10
14.6299075676
 20
23.4063552589
 11
12.6853720153
 21
22.2836838357
  0
LINE
  5
270
100
AcDbEntity
  8
0
100
AcDbLine
 62
7
  6
BYLAYER
 10
12.9365751798
 20
22.0224886708
 11
14.8811107322
 21
23.145160094
  0
LINE
  5
271
100
AcDbEntity
  8
0
100
AcDbLine
 62
7
  6
BYLAYER
 10
14.8811107322
 20
23.145160094
 11
16.4458108843
 21
22.2630785812
  0
LINE
  5
272
100
AcDbEntity
  8
0
100
AcDbLine
 62
7
  6
BYLAYER
 10
13.9684295605
 20
25.1386738565
 11
9.5307188425
 21
32.7056810724
  0
LINE
  5
273
100
AcDbEntity
  8
0
100
AcDbLine
 62
7
  6
BYLAYER
 10
16.8235156152
 20
21.6190315476
 11
15.3160325626
 21
24.1895314882
  0
LWPOLYLINE
  5
274
100
AcDbEntity
  8
0
100
AcDbPolyline
 62
7
  6
BYLAYER
 90
9
 70
0
 10
17.8909007745
 20
13.1730529897
 10
17.7075369599
 20
14.4797167794
 10
17.1807979138
 20
15.8380913246
 10
16.3681695068
 20
17.0943877749
 10
15.3738806475
 20
18.0847387892
 10
14.3205504982
 20
18.6916010346
 10
13.3313808247
 20
18.8469017633
 10
12.5225923918
 20
18.5312060429
 10
11.9948001723
 20
17.783205807
  0
LINE
  5
275
100
AcDbEntity
  8
0
100
AcDbLine
 62
7
  6
BYLAYER
 10
17.8909007745
 20
13.1730529897
 11
17.8910336579
 21
6.7176042301
  0
LINE
  5
276
100
AcDbEntity
  8
0
100
AcDbLine
 62
7
  6
BYLAYER
 10
18.7876603046
 20
30.6605875814
 11
18.9865785805
 21
31.5111433431
  0
LINE
  5
277
100
AcDbEntity
  8
0
100
AcDbLine
 62
7
  6
BYLAYER
 10
15.4555729482
 20
20.8203813706
 11
15.3773982366
 21
20.7723067094
  0
LINE
  5
278
100
AcDbEntity
  8
0
100
AcDbLine
 62
7
  6
BYLAYER
 10
15.3773982366
 20
20.7723067094
 11
15.3692313707
 21
20.7673400686
  0
LINE
  5
279
100
AcDbEntity
  8
0
100
AcDbLine
 62
7
  6
BYLAYER
 10
16.757616039
 20
21.733173643
 11
15.1234240184
 21
20.7896780719
  0
LINE
  5
27A
100
AcDbEntity
  8
0
100
AcDbLine
 62
7
  6
BYLAYER
 10
23.4104491777
 20
25.4132007607
 11
23.13072152
 21
25.2517008862
  0
LINE
  5
27B
100
AcDbEntity
  8
0
100
AcDbLine
 62
7
  6
BYLAYER
 10
16.8273157025
 20
21.612449564
 11
15.4555310091
 21
20.8204540296
  0
LINE
  5
27C
100
AcDbEntity
  8
0
100
AcDbLine
 62
7
  6
BYLAYER
 10
15.2787550498
 20
20.7183929912
 11
12.8038916195
 21
19.2895384526
  0
LINE
  5
27D
100
AcDbEntity
  8
0
100
AcDbLine
 62
7
  6
BYLAYER
 10
7.1590931812
 20
29.2503213062
 11
7.5126360462
 21
29.0461974017
  0
LINE
  5
27E
100
AcDbEntity
  8
0
100
AcDbLine
 62
7
  6
BYLAYER
 10
20.2271011105
 20
18.0980680462
 11
15.5594131942
 21
26.0572232027
  0
LINE
  5
27F
100
AcDbEntity
  8
0
100
AcDbLine
 62
7
  6
BYLAYER
 10
14.3904007002
 20
28.8575613534
 11
11.4752543949
 21
33.8283524955
  0
LINE
  5
280
100
AcDbEntity
  8
0
100
AcDbLine
 62
7
  6
BYLAYER
 10
18.5980075557
 20
13.1730546894
 11
18.5980075557
 21
7.1863600788
  0
LINE
  5
281
100
AcDbEntity
  8
0
100
AcDbLine
 62
7
  6
BYLAYER
 10
16.8575837506
 20
13.7696253554
 11
16.7254272826
 21
13.0188950634
  0
LWPOLYLINE
  5
282
100
AcDbEntity
  8
0
100
AcDbPolyline
 62
7
  6
BYLAYER
 90
3
 70
0
 10
22.453675607
 20
30.037603703
 10
22.1123857076
 20
29.1362733129
 10
21.3899511782
 20
28.2199930024
  0
LINE
  5
283
100
AcDbEntity
  8
0
100
AcDbLine
 62
7
  6
BYLAYER
 10
16.6971405023
 20
21.0161968478
 11
16.9083041129
 21
21.1381114875
  0
LINE
  5
284
100
AcDbEntity
  8
0
100
AcDbLine
 62
7
  6
BYLAYER
 10
21.072870986
 20
14.601909228
 11
21.072870986
 21
8.6152146174
  0
LINE
  5
285
100
AcDbEntity
  8
0
100
AcDbLine
 62
7
  6
BYLAYER
 10
13.4007510759
 20
16.1736241704
 11
13.4561725724
 21
16.2100563219
  0
LINE
  5
286
100
AcDbEntity
  8
0
100
AcDbLine
 62
7
  6
BYLAYER
 10
13.9663864152
 20
17.2760263841
 11
14.2767706014
 21
17.4552257079
  0
LINE
  5
287
100
AcDbEntity
  8
0
100
AcDbLine
 62
7
  6
BYLAYER
 10
13.4007510759
 20
16.1736242351
 11
13.4560320822
 21
16.2044517682
  0
LINE
  5
288
100
AcDbEntity
  8
0
100
AcDbLine
 62
7
  6
BYLAYER
 10
13.4007510759
 20
16.1736242351
 11
13.4559661767
 21
16.2026496698
  0
LINE
  5
289
100
AcDbEntity
  8
0
100
AcDbLine
 62
7
  6
BYLAYER
 10
14.3023159755
 20
17.4562524536
 11
14.3036078168
 21
17.4569275234
  0
LINE
  5
28A
100
AcDbEntity
  8
0
100
AcDbLine
 62
7
  6
BYLAYER
 10
6.9015665715
 20
36.6422541056
 11
6.0954883546
 21
37.3453234793
  0
LINE
  5
28B
100
AcDbEntity
  8
0
100
AcDbLine
 62
7
  6
BYLAYER
 10
11.8097645805
 20
14.3160397251
 11
10.6076676616
 21
13.6220128881
  0
LINE
  5
28C
100
AcDbEntity
  8
0
100
AcDbLine
 62
7
  6
BYLAYER
 10
25.5303798896
 20
21.1598992002
 11
20.2271011105
 21
18.0980680462
  0
LINE
  5
28D
100
AcDbEntity
  8
0
100
AcDbLine
 62
7
  6
BYLAYER
 10
13.45590743
 20
16.201043321
 11
13.4007510767
 21
16.1735623502
  0
LINE
  5
28E
100
AcDbEntity
  8
0
100
AcDbLine
 62
7
  6
BYLAYER
 10
7.61491709
 20
37.5575433909
 11
8.0588551922
 21
37.1703361983
  0
LINE
  5
28F
100
AcDbEntity
  8
0
100
AcDbLine
 62
7
  6
BYLAYER
 10
26.164068213
 20
24.9713101365
 11
25.810525348
 21
25.175434041
  0
LWPOLYLINE
  5
290
100
AcDbEntity
  8
0
100
AcDbPolyline
 62
7
  6
BYLAYER
 90
5
 70
0
 10
26.14747985
 20
24.9468523238
 10
26.3998223461
 20
24.775669328
 10
27.5075017736
 20
23.6706316187
 10
28.4104903162
 20
22.2743865819
 10
28.9998742291
 20
20.7553419754
  0
LINE
  5
291
100
AcDbEntity
  8
0
100
AcDbLine
 62
7
  6
BYLAYER
 10
18.9865785805
 20
31.5111433431
 11
18.3172659399
 21
32.652428547
  0
LINE
  5
292
100
AcDbEntity
  8
0
100
AcDbLine
 62
7
  6
BYLAYER
 10
25.5303798896
 20
21.1598992002
 11
20.8626919733
 21
29.1190543567
  0
LINE
  5
293
100
AcDbEntity
  8
0
100
AcDbLine
 62
7
  6
BYLAYER
 10
16.1054457746
 20
12.8089681686
 11
16.3465509676
 21
12.9622949449
  0
LINE
  5
294
100
AcDbEntity
  8
0
100
AcDbLine
 62
7
  6
BYLAYER
 10
16.1054457746
 20
12.8089681686
 11
16.1763041152
 21
12.8530253423
  0
LINE
  5
295
100
AcDbEntity
  8
0
100
AcDbLine
 62
7
  6
BYLAYER
 10
16.4413753349
 20
12.9891942382
 11
16.678316735
 21
13.1259916027
  0
LINE
  5
296
100
AcDbEntity
  8
0
100
AcDbLine
 62
7
  6
BYLAYER
 10
16.7514820212
 20
13.1651548702
 11
16.677595089
 21
13.1243084567
  0
LINE
  5
297
100
AcDbEntity
  8
0
100
AcDbLine
 62
7
  6
BYLAYER
 10
16.4221752452
 20
12.9837476546
 11
16.1054919279
 21
12.8089722926
  0
LINE
  5
298
100
AcDbEntity
  8
0
100
AcDbLine
 62
7
  6
BYLAYER
 10
22.453675607
 20
30.037603703
 11
18.0159648891
 21
37.6046109188
  0
LINE
  5
299
100
AcDbEntity
  8
0
100
AcDbLine
 62
7
  6
BYLAYER
 10
26.7297016837
 20
11.8811678484
 11
26.7297016837
 21
17.8678624589
  0
LWPOLYLINE
  5
29A
100
AcDbEntity
  8
0
100
AcDbPolyline
 62
7
  6
BYLAYER
 90
9
 70
0
 10
19.4921082636
 20
7.5334610282
 10
19.1252477566
 20
6.8159818674
 10
17.9631785994
 20
5.8221246212
 10
16.3653091026
 20
5.110683317
 10
15.4559566683
 20
4.879324565
 10
13.5255353809
 20
4.6825340861
 10
11.5893055536
 20
4.8462112086
 10
9.8198864635
 20
5.3595190502
 10
9.0495091967
 20
5.7383649516
  0
LWPOLYLINE
  5
29B
100
AcDbEntity
  8
0
100
AcDbPolyline
 62
7
  6
BYLAYER
 90
8
 70
0
 10
19.4361988583
 20
7.5011819106
 10
19.0787883987
 20
6.8781506208
 10
17.9065675082
 20
5.9559889582
 10
16.2991511743
 20
5.2872848562
 10
14.4130184185
 20
4.9371354282
 10
12.4317807927
 20
4.9396270765
 10
10.5483081331
 20
5.2945172438
 10
8.9459530363
 20
5.9672580255
  0
LINE
  5
29C
100
AcDbEntity
  8
0
100
AcDbLine
 62
7
  6
BYLAYER
 10
21.072870986
 20
12.9394603805
 11
21.345029017
 21
13.3417635072
  0
LINE
  5
29D
100
AcDbEntity
  8
0
100
AcDbLine
 62
7
  6
BYLAYER
 10
18.5980075557
 20
13.1730546894
 11
21.072870986
 21
14.601909228
  0
LINE
  5
29E
100
AcDbEntity
  8
0
100
AcDbLine
 62
7
  6
BYLAYER
 10
26.7297016837
 20
17.8678624589
 11
29.2045651139
 21
19.2967169975
  0
LINE
  5
29F
100
AcDbEntity
  8
0
100
AcDbLine
 62
7
  6
BYLAYER
 10
11.3195433507
 20
9.4747598126
 11
10.9097041983
 21
9.2579381349
  0
LINE
  5
2A0
100
AcDbEntity
  8
0
100
AcDbLine
 62
7
  6
BYLAYER
 10
9.7191897986
 20
9.918147269
 11
9.2261156881
 21
9.7699546906
  0
LWPOLYLINE
  5
2A1
100
AcDbEntity
  8
0
100
AcDbPolyline
 62
7
  6
BYLAYER
 90
5
 70
0
 10
26.7297016837
 20
17.8678624589
 10
26.5247206415
 20
19.3275728488
 10
25.9362416564
 20
20.8443273966
 10
25.0281450897
 20
22.2473568563
 10
24.7025925587
 20
22.5714091214
  0
LINE
  5
2A2
100
AcDbEntity
  8
0
100
AcDbLine
 62
7
  6
BYLAYER
 10
25.5876520364
 20
15.7912284247
 11
23.3482417462
 21
12.4809393311
  0
LINE
  5
2A3
100
AcDbEntity
  8
0
100
AcDbLine
 62
7
  6
BYLAYER
 10
21.345029017
 20
13.3417635072
 11
25.5876520403
 21
15.7912284304
  0
LINE
  5
2A4
100
AcDbEntity
  8
0
100
AcDbLine
 62
7
  6
BYLAYER
 10
25.5587882992
 20
15.5684289007
 11
25.3588290964
 21
15.4529830903
  0
LINE
  5
2A5
100
AcDbEntity
  8
0
100
AcDbLine
 62
7
  6
BYLAYER
 10
28.9998742291
 20
20.7553419754
 11
29.2045651139
 21
19.2967169975
  0
LINE
  5
2A6
100
AcDbEntity
  8
0
100
AcDbLine
 62
7
  6
BYLAYER
 10
29.2045642516
 20
13.1409393731
 11
29.20456217
 21
19.7049594517
  0
LINE
  5
2A7
100
AcDbEntity
  8
0
100
AcDbLine
 62
7
  6
BYLAYER
 10
23.3482417462
 20
12.4809393311
 11
21.072870986
 21
11.1672612518
  0
LINE
  5
2A8
100
AcDbEntity
  8
0
100
AcDbLine
 62
7
  6
BYLAYER
 10
29.2045651139
 20
13.3100223869
 11
26.7297016837
 21
11.8811678484
  0
LINE
  5
2A9
100
AcDbEntity
  8
0
100
AcDbLine
 62
7
  6
BYLAYER
 10
21.072870986
 20
8.6152146174
 11
18.5980075557
 21
7.1863600788
  0
LINE
  5
2AA
100
AcDbEntity
  8
0
100
AcDbLine
 62
7
  6
BYLAYER
 10
29.2045642517
 20
13.1409166353
 11
26.6261457019
 21
11.6522748775
  0
LINE
  5
2AB
100
AcDbEntity
  8
0
100
AcDbLine
 62
7
  6
BYLAYER
 10
20.9693150042
 20
8.3863216466
 11
18.3908964544
 21
6.8976798888
  0
LINE
  5
2AC
100
AcDbEntity
  8
0
100
AcDbLine
 62
7
  6
BYLAYER
 10
26.5550039869
 20
11.6298688224
 11
26.6261450996
 21
11.6522759209
  0
LINE
  5
2AD
100
AcDbEntity
  8
0
100
AcDbLine
 62
7
  6
BYLAYER
 10
18.2486123832
 20
6.8342031597
 11
18.3908823565
 21
6.8976961242
  0
ARC
  5
2AE
100
AcDbEntity
  8
0
100
AcDbCircle
 62
7
  6
BYLAYER
 10
12.9774748398
 20
22.3928169651
 40
16.4272747145
100
AcDbArc
 50
287.40414337
 51
288.7159811468
  0
ARC
  5
2AF
100
AcDbEntity
  8
0
100
AcDbCircle
 62
7
  6
BYLAYER
 10
13.1757449117
 20
20.0121192603
 40
11.0569232639
100
AcDbArc
 50
256.5515593188
 51
257.0647526551
  0
ARC
  5
2B0
100
AcDbEntity
  8
0
100
AcDbCircle
 62
7
  6
BYLAYER
 10
13.1477301278
 20
19.8945898254
 40
10.9361011281
100
AcDbArc
 50
256.0341415774
 51
256.5511022394
  0
ARC
  5
2B1
100
AcDbEntity
  8
0
100
AcDbCircle
 62
7
  6
BYLAYER
 10
12.8924109093
 20
18.2718130716
 40
8.8717994749
100
AcDbArc
 50
250.4016934405
 51
252.7292309037
  0
ARC
  5
2B2
100
AcDbEntity
  8
0
100
AcDbCircle
 62
7
  6
BYLAYER
 10
12.3585646043
 20
17.5530162429
 40
8.462118639
100
AcDbArc
 50
246.1077303168
 51
246.7209743873
  0
ARC
  5
2B3
100
AcDbEntity
  8
0
100
AcDbCircle
 62
7
  6
BYLAYER
 10
12.2975056217
 20
17.414854414
 40
8.3110660893
100
AcDbArc
 50
245.4861789739
 51
246.1068251023
  0
ARC
  5
2B4
100
AcDbEntity
  8
0
100
AcDbCircle
 62
7
  6
BYLAYER
 10
11.8421865548
 20
15.9140565303
 40
6.2863138793
100
AcDbArc
 50
238.5358341497
 51
240.7746777937
  0
ARC
  5
2B5
100
AcDbEntity
  8
0
100
AcDbCircle
 62
7
  6
BYLAYER
 10
10.704970293
 20
16.9235368773
 40
6.0149759859
100
AcDbArc
 50
232.3514801226
 51
232.5917666492
  0
ARC
  5
2B6
100
AcDbEntity
  8
0
100
AcDbCircle
 62
7
  6
BYLAYER
 10
12.0391175008
 20
10.9167266137
 40
5.9793969023
100
AcDbArc
 50
239.5659316204
 51
240.0009974339
  0
ARC
  5
2B7
100
AcDbEntity
  8
0
100
AcDbCircle
 62
7
  6
BYLAYER
 10
11.9197195175
 20
11.1181880207
 40
5.9477194705
100
AcDbArc
 50
239.5659714932
 51
240.0010373069
  0
ARC
  5
2B8
100
AcDbEntity
  8
0
100
AcDbCircle
 62
7
  6
BYLAYER
 10
11.019145648
 20
15.1955308534
 40
5.7450284009
100
AcDbArc
 50
233.044507963
 51
233.8382750804
  0
ARC
  5
2B9
100
AcDbEntity
  8
0
100
AcDbCircle
 62
7
  6
BYLAYER
 10
10.9394224341
 20
15.0893135803
 40
5.6122207322
100
AcDbArc
 50
232.2367380205
 51
233.0429746085
  0
ARC
  5
2BA
100
AcDbEntity
  8
0
100
AcDbCircle
 62
7
  6
BYLAYER
 10
9.5856713414
 20
13.7133337869
 40
3.6755387215
100
AcDbArc
 50
215.6609466769
 51
216.7300246545
  0
ARC
  5
2BB
100
AcDbEntity
  8
0
100
AcDbCircle
 62
7
  6
BYLAYER
 10
9.51756309
 20
13.664303632
 40
3.5916180878
100
AcDbArc
 50
214.5731998906
 51
215.6588758546
  0
ARC
  5
2BC
100
AcDbEntity
  8
0
100
AcDbCircle
 62
7
  6
BYLAYER
 10
8.9342964004
 20
32.7668696802
 40
3.580300782
100
AcDbArc
 50
187.0699601771
 51
187.5862689066
  0
ARC
  5
2BD
100
AcDbEntity
  8
0
100
AcDbCircle
 62
7
  6
BYLAYER
 10
9.3248102794
 20
32.0380396753
 40
3.5519061359
100
AcDbArc
 50
232.4391714591
 51
233.2917843365
  0
ARC
  5
2BE
100
AcDbEntity
  8
0
100
AcDbCircle
 62
7
  6
BYLAYER
 10
10.3693451439
 20
12.7347630225
 40
3.4565827813
100
AcDbArc
 50
219.9775289347
 51
220.8201761995
  0
ARC
  5
2BF
100
AcDbEntity
  8
0
100
AcDbCircle
 62
7
  6
BYLAYER
 10
16.8569968425
 20
15.7774061068
 40
3.1919814138
100
AcDbArc
 50
229.6021136684
 51
230.8659734535
  0
ARC
  5
2C0
100
AcDbEntity
  8
0
100
AcDbCircle
 62
7
  6
BYLAYER
 10
16.7889429713
 20
15.693520378
 40
3.0839623426
100
AcDbArc
 50
230.8630772806
 51
232.0118935719
  0
ARC
  5
2C1
100
AcDbEntity
  8
0
100
AcDbCircle
 62
7
  6
BYLAYER
 10
16.4790189555
 20
16.224320228
 40
3.0807574852
100
AcDbArc
 50
187.8061954184
 51
188.9493933812
  0
ARC
  5
2C2
100
AcDbEntity
  8
0
100
AcDbCircle
 62
7
  6
BYLAYER
 10
15.8335023828
 20
16.1738501338
 40
2.4327513231
100
AcDbArc
 50
180.0067778353
 51
180.819306932
  0
ARC
  5
2C3
100
AcDbEntity
  8
0
100
AcDbCircle
 62
7
  6
BYLAYER
 10
9.2375281527
 20
10.1907728604
 40
2.1514637479
100
AcDbArc
 50
166.7000606088
 51
179.9509888036
  0
ARC
  5
2C4
100
AcDbEntity
  8
0
100
AcDbCircle
 62
7
  6
BYLAYER
 10
8.6745285366
 20
36.4482840987
 40
1.8648146919
100
AcDbArc
 50
121.1692888814
 51
121.7264345448
  0
ARC
  5
2C5
100
AcDbEntity
  8
0
100
AcDbCircle
 62
7
  6
BYLAYER
 10
8.9310846632
 20
36.3665542121
 40
1.774085116
100
AcDbArc
 50
113.8843125687
 51
121.7132403178
  0
ARC
  5
2C6
100
AcDbEntity
  8
0
100
AcDbCircle
 62
7
  6
BYLAYER
 10
9.1445053048
 20
36.0013038355
 40
1.595391122
100
AcDbArc
 50
122.0010630587
 51
132.8820632655
  0
ARC
  5
2C7
100
AcDbEntity
  8
0
100
AcDbCircle
 62
7
  6
BYLAYER
 10
9.07977777
 20
35.7492306716
 40
1.4915373819
100
AcDbArc
 50
121.9923253502
 51
130.1060665472
  0
ARC
  5
2C8
100
AcDbEntity
  8
0
100
AcDbCircle
 62
7
  6
BYLAYER
 10
9.0682639083
 20
35.7663107556
 40
1.4709515021
100
AcDbArc
 50
121.1693194974
 51
121.9644360549
  0
ARC
  5
2C9
100
AcDbEntity
  8
0
100
AcDbCircle
 62
7
  6
BYLAYER
 10
11.0731838188
 20
18.1121419583
 40
1.2021115227
100
AcDbArc
 50
168.0876477034
 51
179.9740348147
  0
ARC
  5
2CA
100
AcDbEntity
  8
0
100
AcDbCircle
 62
7
  6
BYLAYER
 10
6.4969324544
 20
33.2346783858
 40
1.018412063
100
AcDbArc
 50
120.0016342728
 51
121.5114321227
  0
ARC
  5
2CB
100
AcDbEntity
  8
0
100
AcDbCircle
 62
7
  6
BYLAYER
 10
8.5286206295
 20
29.7155480933
 40
1.0180695227
100
AcDbArc
 50
299.7080664888
 51
300.379661598
  0
ARC
  5
2CC
100
AcDbEntity
  8
0
100
AcDbCircle
 62
7
  6
BYLAYER
 10
14.3925352678
 20
16.4457923608
 40
1.0144797266
100
AcDbArc
 50
95.1047621021
 51
96.0440511204
  0
ARC
  5
2CD
100
AcDbEntity
  8
0
100
AcDbCircle
 62
7
  6
BYLAYER
 10
16.0153275148
 20
13.8178319808
 40
1.0128807885
100
AcDbArc
 50
275.1071040154
 51
276.4295052909
  0
ARC
  5
2CE
100
AcDbEntity
  8
0
100
AcDbCircle
 62
7
  6
BYLAYER
 10
16.0186663152
 20
13.789658813
 40
0.9845109515
100
AcDbArc
 50
276.4200220372
 51
279.144948406
  0
ARC
  5
2CF
100
AcDbEntity
  8
0
100
AcDbCircle
 62
7
  6
BYLAYER
 10
16.0214376232
 20
13.7721035123
 40
0.966738339
100
AcDbArc
 50
279.1481504402
 51
279.912584488
  0
SPLINE
  5
2D0
100
AcDbEntity
  8
0
100
AcDbSpline
 62
7
  6
BYLAYER
 70
0
 71
3
 72
15
 73
11
 74
0
 42
0.0000001
 43
0.0000001
 44
0.0000000001
 40
0.0
 40
0.0
 40
0.0
 40
0.0
 40
0.1023838267
 40
0.2110238472
 40
0.3264100751
 40
0.448684965
 40
0.5776892097
 40
0.7130117223
 40
0.8540412462
 40
1.0
 40
1.0
 40
1.0
 40
1.0
 10
10.1392510702
 20
22.1388864997
 30
0.0
 10
10.1814569687
 20
22.0705334063
 30
0.0
 10
10.2792695722
 20
21.9361327049
 30
0.0
 10
10.4563568
 20
21.7502666094
 30
0.0
 10
10.6658293511
 20
21.5763253615
 30
0.0
 10
10.905361449
 20
21.4161512326
 30
0.0
 10
11.1723678234
 20
21.2713784933
 30
0.0
 10
11.463960324
 20
21.143513593
 30
0.0
 10
11.7769763856
 20
21.0339263078
 30
0.0
 10
11.9944503647
 20
20.9747233078
 30
0.0
 10
12.1058816453
 20
20.9482888891
 30
0.0
  0
SPLINE
  5
2D1
100
AcDbEntity
  8
0
100
AcDbSpline
 62
7
  6
BYLAYER
 70
0
 71
3
 72
13
 73
9
 74
0
 42
0.0000001
 43
0.0000001
 44
0.0000000001
 40
0.0
 40
0.0
 40
0.0
 40
0.0
 40
0.2176601698
 40
0.2755787483
 40
0.3348936148
 40
0.4576892976
 40
0.719239206
 40
1.0
 40
1.0
 40
1.0
 40
1.0
 10
10.3978901708
 20
22.1866351215
 30
0.0
 10
10.4797667245
 20
22.0819024532
 30
0.0
 10
10.5990692612
 20
21.9609575158
 30
0.0
 10
10.7576468646
 20
21.8318315105
 30
0.0
 10
10.8752448213
 20
21.7441962955
 30
0.0
 10
11.1024963178
 20
21.5961014215
 30
0.0
 10
11.4672021523
 20
21.4140249268
 30
0.0
 10
11.7807444164
 20
21.3045912113
 30
0.0
 10
11.9454955164
 20
21.2570322388
 30
0.0
  0
SPLINE
  5
2D2
100
AcDbEntity
  8
0
100
AcDbSpline
 62
7
  6
BYLAYER
 70
0
 71
3
 72
15
 73
11
 74
0
 42
0.0000001
 43
0.0000001
 44
0.0000000001
 40
0.0
 40
0.0
 40
0.0
 40
0.0
 40
0.1078948022
 40
0.2180367197
 40
0.3321211267
 40
0.4516363127
 40
0.5776585015
 40
0.7108818796
 40
0.8516526162
 40
1.0
 40
1.0
 40
1.0
 40
1.0
 10
6.0077698632
 20
34.0413906056
 30
0.0
 10
5.9602510966
 20
34.0126470466
 30
0.0
 10
5.8689718742
 20
33.9462989623
 30
0.0
 10
5.7485485934
 20
33.8239832042
 30
0.0
 10
5.6450421328
 20
33.6796653136
 30
0.0
 10
5.55937785
 20
33.5149398023
 30
0.0
 10
5.4921780926
 20
33.3314194919
 30
0.0
 10
5.4439686408
 20
33.130825677
 30
0.0
 10
5.415104626
 20
32.9150290186
 30
0.0
 10
5.4090370846
 20
32.7661141422
 30
0.0
 10
5.4090393372
 20
32.6897565157
 30
0.0
  0
SPLINE
  5
2D3
100
AcDbEntity
  8
0
100
AcDbSpline
 62
7
  6
BYLAYER
 70
0
 71
3
 72
15
 73
11
 74
0
 42
0.0000001
 43
0.0000001
 44
0.0000000001
 40
0.0
 40
0.0
 40
0.0
 40
0.0
 40
0.1486035241
 40
0.2894971359
 40
0.4227175372
 40
0.5486374191
 40
0.6679945595
 40
0.781923945
 40
0.8919916995
 40
1.0
 40
1.0
 40
1.0
 40
1.0
 10
7.5126360463
 20
29.0461998287
 30
0.0
 10
7.5797426696
 20
29.0074530595
 30
0.0
 10
7.7136878995
 20
28.937326944
 30
0.0
 10
7.9180095938
 20
28.853699676
 30
0.0
 10
8.1186832952
 20
28.7951956739
 30
0.0
 10
8.3138307951
 20
28.7624552957
 30
0.0
 10
8.5016219371
 20
28.7559154091
 30
0.0
 10
8.6802626637
 20
28.7758321781
 30
0.0
 10
8.8478338524
 20
28.8221802567
 30
0.0
 10
8.9514057261
 20
28.8706747029
 30
0.0
 10
9.0001829246
 20
28.8988321441
 30
0.0
  0
SPLINE
  5
2D4
100
AcDbEntity
  8
0
100
AcDbSpline
 62
7
  6
BYLAYER
 70
0
 71
3
 72
23
 73
19
 74
0
 42
0.0000001
 43
0.0000001
 44
0.0000000001
 40
0.0
 40
0.0
 40
0.0
 40
0.0
 40
0.0558398845
 40
0.1141813054
 40
0.1747858825
 40
0.2373567127
 40
0.3015520841
 40
0.3669961056
 40
0.4332858703
 40
0.5000029717
 40
0.5667198145
 40
0.6330093272
 40
0.6984526032
 40
0.7626471275
 40
0.8252172017
 40
0.8858203989
 40
0.9441610915
 40
1.0
 40
1.0
 40
1.0
 40
1.0
 10
5.4090424578
 20
32.2815173576
 30
0.0
 10
5.4090417397
 20
32.2138113513
 30
0.0
 10
5.4150600165
 20
32.0753157684
 30
0.0
 10
5.440564541
 20
31.8647464851
 30
0.0
 10
5.4825218353
 20
31.6485136846
 30
0.0
 10
5.540522244
 20
31.4286936796
 30
0.0
 10
5.6140017387
 20
31.2073716774
 30
0.0
 10
5.7022735242
 20
30.9866677615
 30
0.0
 10
5.8044800393
 20
30.7686853105
 30
0.0
 10
5.9196466584
 20
30.5555103133
 30
0.0
 10
6.0466795391
 20
30.3491868819
 30
0.0
 10
6.1843499569
 20
30.1516807412
 30
0.0
 10
6.3313516388
 20
29.9648878166
 30
0.0
 10
6.4862786102
 20
29.7905924271
 30
0.0
 10
6.6476436975
 20
29.6304529731
 30
0.0
 10
6.8139287449
 20
29.4860067566
 30
0.0
 10
6.9835276461
 20
29.3586309787
 30
0.0
 10
7.1004600613
 20
29.2841765404
 30
0.0
 10
7.1590931816
 20
29.2503224382
 30
0.0
  0
SPLINE
  5
2D5
100
AcDbEntity
  8
0
100
AcDbSpline
 62
7
  6
BYLAYER
 70
0
 71
3
 72
15
 73
11
 74
0
 42
0.0000001
 43
0.0000001
 44
0.0000000001
 40
0.0
 40
0.0
 40
0.0
 40
0.0
 40
0.1488541953
 40
0.2898643831
 40
0.4230768091
 40
0.5488894046
 40
0.6680850393
 40
0.7818684461
 40
0.8918888073
 40
1.0
 40
1.0
 40
1.0
 40
1.0
 10
7.1590931816
 20
29.2503224382
 30
0.0
 10
7.2157371048
 20
29.217616876
 30
0.0
 10
7.3287939199
 20
29.1585167826
 30
0.0
 10
7.50127548
 20
29.0883535564
 30
0.0
 10
7.6705887087
 20
29.0397339218
 30
0.0
 10
7.8351059683
 20
29.0132293263
 30
0.0
 10
7.9932346472
 20
29.0091867353
 30
0.0
 10
8.1434186543
 20
29.0278419395
 30
0.0
 10
8.2839654482
 20
29.0691589605
 30
0.0
 10
8.3704830174
 20
29.111704506
 30
0.0
 10
8.4111303088
 20
29.1362915881
 30
0.0
  0
SPLINE
  5
2D6
100
AcDbEntity
  8
0
100
AcDbSpline
 62
7
  6
BYLAYER
 70
0
 71
3
 72
11
 73
7
 74
0
 42
0.0000001
 43
0.0000001
 44
0.0000000001
 40
0.0
 40
0.0
 40
0.0
 40
0.0
 40
0.2388643238
 40
0.482718984
 40
0.7353299169
 40
1.0
 40
1.0
 40
1.0
 40
1.0
 10
9.0176099673
 20
28.9091313769
 30
0.0
 10
9.0652131605
 20
28.9379260046
 30
0.0
 10
9.1566487147
 20
29.0044079734
 30
0.0
 10
9.2772462766
 20
29.1270107237
 30
0.0
 10
9.3808504251
 20
29.2716605645
 30
0.0
 10
9.4365406884
 20
29.3789820983
 30
0.0
 10
9.4614577753
 20
29.4353668419
 30
0.0
  0
SPLINE
  5
2D7
100
AcDbEntity
  8
0
100
AcDbSpline
 62
7
  6
BYLAYER
 70
0
 71
3
 72
11
 73
7
 74
0
 42
0.0000001
 43
0.0000001
 44
0.0000000001
 40
0.0
 40
0.0
 40
0.0
 40
0.0
 40
0.2648492573
 40
0.5173424555
 40
0.7610215278
 40
1.0
 40
1.0
 40
1.0
 40
1.0
 10
6.7203790417
 20
34.1829080799
 30
0.0
 10
6.6572864218
 20
34.1897103989
 30
0.0
 10
6.5329753518
 20
34.1950601174
 30
0.0
 10
6.3509228031
 20
34.1759417028
 30
0.0
 10
6.180205503
 20
34.1294918257
 30
0.0
 10
6.0747869554
 20
34.0803165113
 30
0.0
 10
6.0251969059
 20
34.0516898385
 30
0.0
  0
SPLINE
  5
2D8
100
AcDbEntity
  8
0
100
AcDbSpline
 62
7
  6
BYLAYER
 70
0
 71
3
 72
15
 73
11
 74
0
 42
0.0000001
 43
0.0000001
 44
0.0000000001
 40
0.0
 40
0.0
 40
0.0
 40
0.0
 40
0.1078899325
 40
0.2180360233
 40
0.3321219639
 40
0.4516355699
 40
0.5776571398
 40
0.7108804122
 40
0.8516501899
 40
1.0
 40
1.0
 40
1.0
 40
1.0
 10
5.9071456844
 20
33.4059862405
 30
0.0
 10
5.8676150637
 20
33.3820746197
 30
0.0
 10
5.7916789815
 20
33.3268754224
 30
0.0
 10
5.6914912947
 20
33.2251203116
 30
0.0
 10
5.6053803171
 20
33.1050552731
 30
0.0
 10
5.5341166917
 20
32.9680137726
 30
0.0
 10
5.4782060533
 20
32.8153400258
 30
0.0
 10
5.4381049908
 20
32.648458783
 30
0.0
 10
5.4140869134
 20
32.4689306887
 30
0.0
 10
5.4090431315
 20
32.3450427856
 30
0.0
 10
5.4090424578
 20
32.2815173576
 30
0.0
  0
SPLINE
  5
2D9
100
AcDbEntity
  8
0
100
AcDbSpline
 62
7
  6
BYLAYER
 70
0
 71
3
 72
39
 73
35
 74
0
 42
0.0000001
 43
0.0000001
 44
0.0000000001
 40
0.0
 40
0.0
 40
0.0
 40
0.0
 40
0.0225499025
 40
0.0455840486
 40
0.0694645759
 40
0.0945090707
 40
0.1209453623
 40
0.1489175382
 40
0.1784942053
 40
0.2096760398
 40
0.2424067481
 40
0.2765809409
 40
0.3120551224
 40
0.3486530366
 40
0.3861724837
 40
0.4243923595
 40
0.4630763913
 40
0.5019797451
 40
0.5408530073
 40
0.5794474284
 40
0.6175198703
 40
0.6548370661
 40
0.6911822002
 40
0.7263586563
 40
0.7601973993
 40
0.792563705
 40
0.8233629516
 40
0.8525517177
 40
0.8801459574
 40
0.9062318779
 40
0.9309730637
 40
0.954617685
 40
0.9775017051
 40
1.0
 40
1.0
 40
1.0
 40
1.0
 10
8.4111303088
 20
29.1362915881
 30
0.0
 10
8.4512655968
 20
29.1605689653
 30
0.0
 10
8.5283246366
 20
29.2167376622
 30
0.0
 10
8.6297390174
 20
29.320513792
 30
0.0
 10
8.7166076722
 20
29.4431217045
 30
0.0
 10
8.7881343695
 20
29.5831594251
 30
0.0
 10
8.8437994875
 20
29.739214735
 30
0.0
 10
8.883142784
 20
29.9097838179
 30
0.0
 10
8.905883119
 20
30.0932439696
 30
0.0
 10
8.9118641445
 20
30.2878718292
 30
0.0
 10
8.9010364149
 20
30.4918339875
 30
0.0
 10
8.8735402563
 20
30.7032044766
 30
0.0
 10
8.8296366722
 20
30.9199793134
 30
0.0
 10
8.769743445
 20
31.1400956364
 30
0.0
 10
8.6944484974
 20
31.3614602229
 30
0.0
 10
8.6044564261
 20
31.5819541155
 30
0.0
 10
8.5006358809
 20
31.7994728144
 30
0.0
 10
8.3839838174
 20
32.0119379827
 30
0.0
 10
8.255603768
 20
32.2173096463
 30
0.0
 10
8.1167373356
 20
32.4136310412
 30
0.0
 10
7.9687066767
 20
32.5990208867
 30
0.0
 10
7.8129217725
 20
32.7717034488
 30
0.0
 10
7.6508797143
 20
32.930039467
 30
0.0
 10
7.4841112009
 20
33.0725076803
 30
0.0
 10
7.3142023202
 20
33.1977537429
 30
0.0
 10
7.1427604078
 20
33.3045888333
 30
0.0
 10
6.9713834979
 20
33.3919706579
 30
0.0
 10
6.8016787485
 20
33.4590666763
 30
0.0
 10
6.6352101939
 20
33.5051919908
 30
0.0
 10
6.4735169891
 20
33.5298167357
 30
0.0
 10
6.3181267745
 20
33.5326276025
 30
0.0
 10
6.1705254168
 20
33.5134110091
 30
0.0
 10
6.0323304676
 20
33.4722142572
 30
0.0
 10
5.9471891189
 20
33.4302080566
 30
0.0
 10
5.9071456844
 20
33.4059862405
 30
0.0
  0
SPLINE
  5
2DA
100
AcDbEntity
  8
0
100
AcDbSpline
 62
7
  6
BYLAYER
 70
0
 71
3
 72
15
 73
11
 74
0
 42
0.0000001
 43
0.0000001
 44
0.0000000001
 40
0.0
 40
0.0
 40
0.0
 40
0.0
 40
0.1485637042
 40
0.2895076336
 40
0.4227260112
 40
0.5486363971
 40
0.6679989431
 40
0.7819371233
 40
0.8919863741
 40
1.0
 40
1.0
 40
1.0
 40
1.0
 10
15.203880875
 20
13.1117668287
 30
0.0
 10
15.2596931299
 20
13.0795443373
 30
0.0
 10
15.3711319517
 20
13.0212166452
 30
0.0
 10
15.5411051636
 20
12.9516341479
 30
0.0
 10
15.7080636863
 20
12.902963744
 30
0.0
 10
15.870405586
 20
12.875742071
 30
0.0
 10
16.0266311996
 20
12.8702939417
 30
0.0
 10
16.1752377297
 20
12.8868804649
 30
0.0
 10
16.3146427699
 20
12.9254198173
 30
0.0
 10
16.4007941224
 20
12.965771587
 30
0.0
 10
16.4413738995
 20
12.9891967244
 30
0.0
  0
SPLINE
  5
2DB
100
AcDbEntity
  8
0
100
AcDbSpline
 62
7
  6
BYLAYER
 70
0
 71
3
 72
21
 73
17
 74
0
 42
0.0000001
 43
0.0000001
 44
0.0000000001
 40
0.0
 40
0.0
 40
0.0
 40
0.0
 40
0.0558452445
 40
0.1141918653
 40
0.1748024551
 40
0.2373790795
 40
0.3015812722
 40
0.3670319866
 40
0.4999998359
 40
0.6329654826
 40
0.6984164768
 40
0.7626198686
 40
0.8251924167
 40
0.8858041467
 40
0.9441724287
 40
1.0
 40
1.0
 40
1.0
 40
1.0
 10
13.4537889495
 20
15.7347493144
 30
0.0
 10
13.4537892199
 20
15.6807212076
 30
0.0
 10
13.4585926887
 20
15.570204894
 30
0.0
 10
13.4789416237
 20
15.4021744156
 30
0.0
 10
13.5124263322
 20
15.2296255873
 30
0.0
 10
13.5587057135
 20
15.0542128792
 30
0.0
 10
13.6173444741
 20
14.8775980568
 30
0.0
 10
13.7117481133
 20
14.6415761948
 30
0.0
 10
13.8565727682
 20
14.3547246606
 30
0.0
 10
14.0325813968
 20
14.0858767276
 30
0.0
 10
14.1897829022
 20
13.886112556
 30
0.0
 10
14.3134165674
 20
13.7470260684
 30
0.0
 10
14.4421845455
 20
13.6192389365
 30
0.0
 10
14.5748879066
 20
13.5039538237
 30
0.0
 10
14.710245258
 20
13.4023253561
 30
0.0
 10
14.8035537863
 20
13.3429010065
 30
0.0
 10
14.8503289564
 20
13.3158959603
 30
0.0
  0
SPLINE
  5
2DC
100
AcDbEntity
  8
0
100
AcDbSpline
 62
7
  6
BYLAYER
 70
0
 71
3
 72
16
 73
12
 74
0
 42
0.0000001
 43
0.0000001
 44
0.0000000001
 40
0.0
 40
0.0
 40
0.0
 40
0.0
 40
0.0539200476
 40
0.1080988249
 40
0.2181367251
 40
0.3320642386
 40
0.4514096101
 40
0.5773181626
 40
0.7105279478
 40
0.8514077832
 40
1.0
 40
1.0
 40
1.0
 40
1.0
 10
13.9663878505
 20
17.2760238978
 30
0.0
 10
13.9461277612
 20
17.2643285312
 30
0.0
 10
13.9064873491
 20
17.239135267
 30
0.0
 10
13.8311320825
 20
17.1817303941
 30
0.0
 10
13.744675963
 20
17.0966922095
 30
0.0
 10
13.6560504389
 20
16.9762840383
 30
0.0
 10
13.5826252273
 20
16.8382645408
 30
0.0
 10
13.5250452978
 20
16.6840439948
 30
0.0
 10
13.4837237664
 20
16.5151265068
 30
0.0
 10
13.4589724156
 20
16.3331307602
 30
0.0
 10
13.4537872701
 20
16.2074547182
 30
0.0
 10
13.4537877345
 20
16.1429873712
 30
0.0
  0
SPLINE
  5
2DD
100
AcDbEntity
  8
0
100
AcDbSpline
 62
7
  6
BYLAYER
 70
0
 71
3
 72
11
 73
7
 74
0
 42
0.0000001
 43
0.0000001
 44
0.0000000001
 40
0.0
 40
0.0
 40
0.0
 40
0.0
 40
0.2641927187
 40
0.5165732941
 40
0.7604977283
 40
1.0
 40
1.0
 40
1.0
 40
1.0
 10
14.5275621876
 20
17.3869162067
 30
0.0
 10
14.4766378501
 20
17.3916771831
 30
0.0
 10
14.3763088453
 20
17.3946658386
 30
0.0
 10
14.2295102761
 20
17.3776750023
 30
0.0
 10
14.0917324702
 20
17.3391996992
 30
0.0
 10
14.0065439279
 20
17.2992044497
 30
0.0
 10
13.9663878505
 20
17.2760238978
 30
0.0
  0
SPLINE
  5
2DE
100
AcDbEntity
  8
0
100
AcDbSpline
 62
7
  6
BYLAYER
 70
0
 71
3
 72
39
 73
35
 74
0
 42
0.0000001
 43
0.0000001
 44
0.0000000001
 40
0.0
 40
0.0
 40
0.0
 40
0.0
 40
0.0309811207
 40
0.0603771416
 40
0.0881610135
 40
0.1014786897
 40
0.1144320488
 40
0.1393250407
 40
0.1630871099
 40
0.1860379055
 40
0.2085642906
 40
0.2310910052
 40
0.2540426568
 40
0.2778049521
 40
0.3026979691
 40
0.3156523722
 40
0.328971982
 40
0.3567560843
 40
0.3861403428
 40
0.4171320478
 40
0.4496823783
 40
0.4836906944
 40
0.519018619
 40
0.5554924961
 40
0.5929138783
 40
0.6310629963
 40
0.7085657138
 40
0.7860671774
 40
0.8242164952
 40
0.8616386268
 40
0.898110191
 40
0.9334388543
 40
0.9674598794
 40
1.0
 40
1.0
 40
1.0
 40
1.0
 10
14.8503289564
 20
13.3158959603
 30
0.0
 10
14.894863295
 20
13.2901846297
 30
0.0
 10
14.9837931638
 20
13.2436426469
 30
0.0
 10
15.1194188116
 20
13.1881126826
 30
0.0
 10
15.2320180771
 20
13.1552968449
 30
0.0
 10
15.3201033816
 20
13.1379624604
 30
0.0
 10
15.4043325661
 20
13.1267837966
 30
0.0
 10
15.5068789643
 20
13.1232101081
 30
0.0
 10
15.6254513618
 20
13.1364399636
 30
0.0
 10
15.7367192526
 20
13.1672063165
 30
0.0
 10
15.8394339698
 20
13.2153133703
 30
0.0
 10
15.9324532419
 20
13.2802162141
 30
0.0
 10
16.0147297482
 20
13.3611990116
 30
0.0
 10
16.0854745066
 20
13.4572719611
 30
0.0
 10
16.1336530161
 20
13.5478691935
 30
0.0
 10
16.1660845106
 20
13.626409397
 30
0.0
 10
16.1951104412
 20
13.7113681998
 30
0.0
 10
16.2229848611
 20
13.8252723492
 30
0.0
 10
16.2427197692
 20
13.9704983669
 30
0.0
 10
16.2491056531
 20
14.1248145512
 30
0.0
 10
16.2420659319
 20
14.2867541207
 30
0.0
 10
16.2217177397
 20
14.4547954439
 30
0.0
 10
16.1882335319
 20
14.6273417493
 30
0.0
 10
16.1419545761
 20
14.8027558558
 30
0.0
 10
16.0833161138
 20
14.97937109
 30
0.0
 10
15.9889127156
 20
15.2153940146
 30
0.0
 10
15.8440880797
 20
15.5022468203
 30
0.0
 10
15.6680791811
 20
15.7710960474
 30
0.0
 10
15.5108772894
 20
15.9708612091
 30
0.0
 10
15.3872432595
 20
16.1099483968
 30
0.0
 10
15.2584748607
 20
16.2377361639
 30
0.0
 10
15.1257710352
 20
16.3530218316
 30
0.0
 10
14.9904131899
 20
16.4546507606
 30
0.0
 10
14.8971043059
 20
16.5140753583
 30
0.0
 10
14.8503289564
 20
16.541080508
 30
0.0
  0
SPLINE
  5
2DF
100
AcDbEntity
  8
0
100
AcDbSpline
 62
7
  6
BYLAYER
 70
0
 71
3
 72
25
 73
21
 74
0
 42
0.0000001
 43
0.0000001
 44
0.0000000001
 40
0.0
 40
0.0
 40
0.0
 40
0.0
 40
0.0742716666
 40
0.1447433262
 40
0.2113501343
 40
0.2432768499
 40
0.2743301786
 40
0.3340066055
 40
0.3909718507
 40
0.4459922253
 40
0.4999951741
 40
0.5539989436
 40
0.6090214606
 40
0.6659873893
 40
0.7256640581
 40
0.7567199916
 40
0.7886514502
 40
0.8552590369
 40
0.9257027306
 40
1.0
 40
1.0
 40
1.0
 40
1.0
 10
14.8503289564
 20
16.541080508
 30
0.0
 10
14.8057944552
 20
16.5667919326
 30
0.0
 10
14.7168642629
 20
16.6133340678
 30
0.0
 10
14.5812381168
 20
16.6688641511
 30
0.0
 10
14.4686384464
 20
16.7016799828
 30
0.0
 10
14.3805528409
 20
16.7190142921
 30
0.0
 10
14.2963233867
 20
16.7301928379
 30
0.0
 10
14.1937766781
 20
16.7337663005
 30
0.0
 10
14.0752039669
 20
16.7205360341
 30
0.0
 10
13.9639358436
 20
16.68976914
 30
0.0
 10
13.8612209898
 20
16.6416614214
 30
0.0
 10
13.7682016889
 20
16.5767578024
 30
0.0
 10
13.6859252668
 20
16.4957741407
 30
0.0
 10
13.61518071
 20
16.3997002402
 30
0.0
 10
13.5670024649
 20
16.3091022212
 30
0.0
 10
13.5345712335
 20
16.2305612884
 30
0.0
 10
13.5055456094
 20
16.1456020083
 30
0.0
 10
13.4776716259
 20
16.0316949583
 30
0.0
 10
13.4579374599
 20
15.886476726
 30
0.0
 10
13.4537886921
 20
15.7861907628
 30
0.0
 10
13.4537889495
 20
15.7347493144
 30
0.0
  0
SPLINE
  5
2E0
100
AcDbEntity
  8
0
100
AcDbSpline
 62
7
  6
BYLAYER
 70
0
 71
3
 72
11
 73
7
 74
0
 42
0.0000001
 43
0.0000001
 44
0.0000000001
 40
0.0
 40
0.0
 40
0.0
 40
0.0
 40
0.2411872978
 40
0.4860571674
 40
0.7380202799
 40
1.0
 40
1.0
 40
1.0
 40
1.0
 10
16.4413738995
 20
12.9891967244
 30
0.0
 10
16.4777998686
 20
13.0102240288
 30
0.0
 10
16.5480556289
 20
13.0583346462
 30
0.0
 10
16.6424038382
 20
13.1465317382
 30
0.0
 10
16.7253174774
 20
13.2502001861
 30
0.0
 10
16.7715430472
 20
13.3273203908
 30
0.0
 10
16.7926299861
 20
13.3678480687
 30
0.0
  0
SPLINE
  5
2E1
100
AcDbEntity
  8
0
100
AcDbSpline
 62
7
  6
BYLAYER
 70
0
 71
3
 72
38
 73
34
 74
0
 42
0.0000001
 43
0.0000001
 44
0.0000000001
 40
0.0
 40
0.0
 40
0.0
 40
0.0
 40
0.0216349975
 40
0.0435719655
 40
0.0660814768
 40
0.0894112871
 40
0.1137570258
 40
0.1392646287
 40
0.1660318971
 40
0.1941097302
 40
0.2235086619
 40
0.254203112
 40
0.2861362175
 40
0.3192253798
 40
0.3533651202
 40
0.3884313875
 40
0.424285008
 40
0.4607738492
 40
0.4977366534
 40
0.5350051935
 40
0.5724067563
 40
0.609766971
 40
0.6469118083
 40
0.6836705672
 40
0.7198778872
 40
0.755376467
 40
0.7900202435
 40
0.8236764392
 40
0.8562296486
 40
0.8875848521
 40
0.9176706169
 40
0.9464448343
 40
1.0
 40
1.0
 40
1.0
 40
1.0
 10
9.7775631398
 20
41.0245397712
 30
0.0
 10
9.8772986266
 20
41.0821158183
 30
0.0
 10
10.0869351162
 20
41.1835575805
 30
0.0
 10
10.4233072089
 20
41.2901578188
 30
0.0
 10
10.7800175433
 20
41.351002826
 30
0.0
 10
11.1542734966
 20
41.3658106196
 30
0.0
 10
11.5434267236
 20
41.334718658
 30
0.0
 10
11.9447555943
 20
41.2580984198
 30
0.0
 10
12.3555089206
 20
41.1366103698
 30
0.0
 10
12.77290298
 20
40.9712110983
 30
0.0
 10
13.1940904235
 20
40.76308207
 30
0.0
 10
13.6161914481
 20
40.5136962675
 30
0.0
 10
14.0363213487
 20
40.2248153208
 30
0.0
 10
14.4515730262
 20
39.8984331543
 30
0.0
 10
14.8590812147
 20
39.5368274481
 30
0.0
 10
15.2560289796
 20
39.1425196489
 30
0.0
 10
15.6396429257
 20
38.7182383591
 30
0.0
 10
16.0072671919
 20
38.2669499144
 30
0.0
 10
16.3563413304
 20
37.7917974183
 30
0.0
 10
16.6844197294
 20
37.2960830621
 30
0.0
 10
16.9892328178
 20
36.7832737263
 30
0.0
 10
17.2686472001
 20
36.2569391121
 30
0.0
 10
17.5207086503
 20
35.7207452046
 30
0.0
 10
17.743677249
 20
35.1784368435
 30
0.0
 10
17.9359838976
 20
34.6337853321
 30
0.0
 10
18.096290958
 20
34.0905844111
 30
0.0
 10
18.2234943431
 20
33.5526151153
 30
0.0
 10
18.3166861165
 20
33.0236114265
 30
0.0
 10
18.3752218214
 20
32.5072325572
 30
0.0
 10
18.3986966907
 20
32.0070911589
 30
0.0
 10
18.3868778427
 20
31.5264980372
 30
0.0
 10
18.3257161331
 20
30.9309863131
 30
0.0
 10
18.2263280711
 20
30.5006929013
 30
0.0
 10
18.1326839955
 20
30.2314424706
 30
0.0
  0
SPLINE
  5
2E2
100
AcDbEntity
  8
0
100
AcDbSpline
 62
7
  6
BYLAYER
 70
0
 71
3
 72
26
 73
22
 74
0
 42
0.0000001
 43
0.0000001
 44
0.0000000001
 40
0.0
 40
0.0
 40
0.0
 40
0.0
 40
0.0217479958
 40
0.0441540149
 40
0.0673425043
 40
0.0914124716
 40
0.1424259967
 40
0.1694828294
 40
0.1975738098
 40
0.2567595486
 40
0.3197138673
 40
0.385931418
 40
0.4547526638
 40
0.5254069225
 40
0.5970508339
 40
0.66880355
 40
0.7397802024
 40
0.8091251728
 40
0.8760466396
 40
0.9398540974
 40
1.0
 40
1.0
 40
1.0
 40
1.0
 10
7.0800032562
 20
38.0281472169
 30
0.0
 10
7.1608568595
 20
38.0446242747
 30
0.0
 10
7.327001961
 20
38.06892496
 30
0.0
 10
7.5827087828
 20
38.0792973261
 30
0.0
 10
7.8470044826
 20
38.0641512389
 30
0.0
 10
8.2161750702
 20
38.0089505204
 30
0.0
 10
8.5907646882
 20
37.9024699645
 30
0.0
 10
8.9646109078
 20
37.7520361541
 30
0.0
 10
9.3556270183
 20
37.5634731791
 30
0.0
 10
9.8446710267
 20
37.2679374819
 30
0.0
 10
10.4139164334
 20
36.8339082351
 30
0.0
 10
10.9654602526
 20
36.3223002036
 30
0.0
 10
11.4892527949
 20
35.7424845703
 30
0.0
 10
11.9757714178
 20
35.1050376664
 30
0.0
 10
12.4161098109
 20
34.4216316799
 30
0.0
 10
12.8022003049
 20
33.7047916073
 30
0.0
 10
13.1269655354
 20
32.9676533677
 30
0.0
 10
13.3844571467
 20
32.2237240598
 30
0.0
 10
13.569961229
 20
31.4865413124
 30
0.0
 10
13.6800670466
 20
30.7696453957
 30
0.0
 10
13.7025216634
 20
30.2986983373
 30
0.0
 10
13.6993372477
 20
30.0705171879
 30
0.0
  0
SPLINE
  5
2E3
100
AcDbEntity
  8
0
100
AcDbSpline
 62
7
  6
BYLAYER
 70
0
 71
3
 72
18
 73
14
 74
0
 42
0.0000001
 43
0.0000001
 44
0.0000000001
 40
0.0
 40
0.0
 40
0.0
 40
0.0
 40
0.0529292511
 40
0.1062334995
 40
0.160162449
 40
0.2149661442
 40
0.2708877112
 40
0.3281455172
 40
0.4472931112
 40
0.5736027637
 40
0.7077278827
 40
0.8499017577
 40
1.0
 40
1.0
 40
1.0
 40
1.0
 10
5.8466819814
 20
38.7544870774
 30
0.0
 10
5.7853594322
 20
38.717393768
 30
0.0
 10
5.6655896919
 20
38.637313552
 30
0.0
 10
5.4966056715
 20
38.5009560146
 30
0.0
 10
5.33843737
 20
38.3484934733
 30
0.0
 10
5.1915845904
 20
38.1803965048
 30
0.0
 10
5.0564043662
 20
37.9971528232
 30
0.0
 10
4.8900584787
 20
37.7298253486
 30
0.0
 10
4.7138258768
 20
37.3580515528
 30
0.0
 10
4.5573624741
 20
36.8671066048
 30
0.0
 10
4.4542519876
 20
36.3306219743
 30
0.0
 10
4.4053866788
 20
35.7544208706
 30
0.0
 10
4.4091072461
 20
35.3580748553
 30
0.0
 10
4.4194150732
 20
35.1550969963
 30
0.0
  0
SPLINE
  5
2E4
100
AcDbEntity
  8
0
100
AcDbSpline
 62
7
  6
BYLAYER
 70
0
 71
3
 72
9
 73
5
 74
0
 42
0.0000001
 43
0.0000001
 44
0.0000000001
 40
0.0
 40
0.0
 40
0.0
 40
0.0
 40
0.499938687
 40
1.0
 40
1.0
 40
1.0
 40
1.0
 10
6.0954883546
 20
37.3453234793
 30
0.0
 10
6.2872767604
 20
37.3963902464
 30
0.0
 10
6.6709495895
 20
37.4983523195
 30
0.0
 10
7.054676338
 20
37.6001113345
 30
0.0
 10
7.2465914916
 20
37.6508903372
 30
0.0
  0
LINE
  5
2E5
100
AcDbEntity
  8
0
100
AcDbLine
 62
7
  6
BYLAYER
 10
12.4180038942
 20
32.2208501694
 11
13.211058748
 21
32.682485769
  0
SPLINE
  5
2E6
100
AcDbEntity
  8
0
100
AcDbSpline
 62
7
  6
BYLAYER
 70
0
 71
3
 72
16
 73
12
 74
0
 42
0.0000001
 43
0.0000001
 44
0.0000000001
 40
0.0
 40
0.0
 40
0.0
 40
0.0
 40
0.1109129143
 40
0.2233331678
 40
0.3387725358
 40
0.4586348866
 40
0.5206105459
 40
0.5840796446
 40
0.7157969175
 40
0.8543541508
 40
1.0
 40
1.0
 40
1.0
 40
1.0
 10
8.3069451453
 20
37.0249179471
 30
0.0
 10
8.3707897577
 20
37.0635368237
 30
0.0
 10
8.5055311301
 20
37.131547785
 30
0.0
 10
8.7229031651
 20
37.2026632317
 30
0.0
 10
8.954183886
 20
37.2425872836
 30
0.0
 10
9.1546529356
 20
37.2496269459
 30
0.0
 10
9.3194910822
 20
37.2401856041
 30
0.0
 10
9.4914110177
 20
37.2200405986
 30
0.0
 10
9.7118165224
 20
37.1747617436
 30
0.0
 10
9.979112904
 20
37.090663203
 30
0.0
 10
10.1556971053
 20
37.0165986536
 30
0.0
 10
10.2444303023
 20
36.9750417824
 30
0.0
  0
SPLINE
  5
2E7
100
AcDbEntity
  8
0
100
AcDbSpline
 62
7
  6
BYLAYER
 70
0
 71
3
 72
14
 73
10
 74
0
 42
0.0000001
 43
0.0000001
 44
0.0000000001
 40
0.0
 40
0.0
 40
0.0
 40
0.0
 40
0.2812896392
 40
0.4116810272
 40
0.535361629
 40
0.6535049037
 40
0.7682191015
 40
0.8826012773
 40
1.0
 40
1.0
 40
1.0
 40
1.0
 10
8.0588551922
 20
37.1703361983
 30
0.0
 10
8.0813954563
 20
37.1506763575
 30
0.0
 10
8.1113314877
 20
37.1177329371
 30
0.0
 10
8.139018885
 20
37.0677565866
 30
0.0
 10
8.1519949699
 20
37.0301177657
 30
0.0
 10
8.1570498085
 20
36.9922593018
 30
0.0
 10
8.1535370047
 20
36.9551459015
 30
0.0
 10
8.1410296164
 20
36.9200907743
 30
0.0
 10
8.1270509534
 20
36.8994364022
 30
0.0
 10
8.1188923272
 20
36.8899885958
 30
0.0
  0
SPLINE
  5
2E8
100
AcDbEntity
  8
0
100
AcDbSpline
 62
7
  6
BYLAYER
 70
0
 71
3
 72
11
 73
7
 74
0
 42
0.0000001
 43
0.0000001
 44
0.0000000001
 40
0.0
 40
0.0
 40
0.0
 40
0.0
 40
0.2429164436
 40
0.4994736396
 40
0.7557878078
 40
1.0
 40
1.0
 40
1.0
 40
1.0
 10
7.2465914916
 20
37.6508903372
 30
0.0
 10
7.2773654477
 20
37.6590328459
 30
0.0
 10
7.3434890073
 20
37.66565864
 30
0.0
 10
7.4422689597
 20
37.651118594
 30
0.0
 10
7.5356251689
 20
37.615366368
 30
0.0
 10
7.5907992459
 20
37.5785792126
 30
0.0
 10
7.61491709
 20
37.5575433909
 30
0.0
  0
SPLINE
  5
2E9
100
AcDbEntity
  8
0
100
AcDbSpline
 62
7
  6
BYLAYER
 70
0
 71
3
 72
9
 73
5
 74
0
 42
0.0000001
 43
0.0000001
 44
0.0000000001
 40
0.0
 40
0.0
 40
0.0
 40
0.0
 40
0.4953027835
 40
1.0
 40
1.0
 40
1.0
 40
1.0
 10
7.6938893741
 20
38.034436887
 30
0.0
 10
7.6109030069
 20
37.9831305974
 30
0.0
 10
7.4512947159
 20
37.8661480664
 30
0.0
 10
7.3115878843
 20
37.7261170836
 30
0.0
 10
7.2465914916
 20
37.6508903372
 30
0.0
  0
SPLINE
  5
2EA
100
AcDbEntity
  8
0
100
AcDbSpline
 62
7
  6
BYLAYER
 70
0
 71
3
 72
15
 73
11
 74
0
 42
0.0000001
 43
0.0000001
 44
0.0000000001
 40
0.0
 40
0.0
 40
0.0
 40
0.0
 40
0.1431364545
 40
0.2800025254
 40
0.4108958255
 40
0.5363028456
 40
0.6569144496
 40
0.7736476179
 40
0.8876180782
 40
1.0
 40
1.0
 40
1.0
 40
1.0
 10
5.2625999107
 20
35.7546989249
 30
0.0
 10
5.2787613312
 20
35.8683323136
 30
0.0
 10
5.31898082
 20
36.0895302299
 30
0.0
 10
5.4058060999
 20
36.407816462
 30
0.0
 10
5.5172815378
 20
36.7032714167
 30
0.0
 10
5.652845802
 20
36.9740517176
 30
0.0
 10
5.8117400586
 20
37.218481668
 30
0.0
 10
5.9931247471
 20
37.4349971628
 30
0.0
 10
6.1958845052
 20
37.6220440537
 30
0.0
 10
6.3449857634
 20
37.7266788338
 30
0.0
 10
6.4220925895
 20
37.7733198719
 30
0.0
  0
SPLINE
  5
2EB
100
AcDbEntity
  8
0
100
AcDbSpline
 62
7
  6
BYLAYER
 70
0
 71
3
 72
11
 73
7
 74
0
 42
0.0000001
 43
0.0000001
 44
0.0000000001
 40
0.0
 40
0.0
 40
0.0
 40
0.0
 40
0.2420922992
 40
0.4872311402
 40
0.7388104083
 40
1.0
 40
1.0
 40
1.0
 40
1.0
 10
8.2990517126
 20
37.3542565529
 30
0.0
 10
8.3672673447
 20
37.3968234834
 30
0.0
 10
8.5114403424
 20
37.4719730704
 30
0.0
 10
8.7446559069
 20
37.5511178139
 30
0.0
 10
8.9931577719
 20
37.5962499901
 30
0.0
 10
9.1638956704
 20
37.6033649746
 30
0.0
 10
9.2506280883
 20
37.6016156464
 30
0.0
  0
SPLINE
  5
2EC
100
AcDbEntity
  8
0
100
AcDbSpline
 62
7
  6
BYLAYER
 70
0
 71
3
 72
9
 73
5
 74
0
 42
0.0000001
 43
0.0000001
 44
0.0000000001
 40
0.0
 40
0.0
 40
0.0
 40
0.0
 40
0.4961536917
 40
1.0
 40
1.0
 40
1.0
 40
1.0
 10
7.9985044475
 20
37.8757500709
 30
0.0
 10
7.9282301633
 20
37.8323030217
 30
0.0
 10
7.792595179
 20
37.734647572
 30
0.0
 10
7.6717195112
 20
37.6192922226
 30
0.0
 10
7.61491709
 20
37.5575433909
 30
0.0
  0
SPLINE
  5
2ED
100
AcDbEntity
  8
0
100
AcDbSpline
 62
7
  6
BYLAYER
 70
0
 71
3
 72
11
 73
7
 74
0
 42
0.0000001
 43
0.0000001
 44
0.0000000001
 40
0.0
 40
0.0
 40
0.0
 40
0.0
 40
0.2301710377
 40
0.4722612896
 40
0.7284193934
 40
1.0
 40
1.0
 40
1.0
 40
1.0
 10
6.0954883546
 20
37.3453234793
 30
0.0
 10
6.0176397751
 20
37.2491328463
 30
0.0
 10
5.8739840502
 20
37.0383264457
 30
0.0
 10
5.7027383777
 20
36.6848092259
 30
0.0
 10
5.5724028926
 20
36.2908853843
 30
0.0
 10
5.5151809589
 20
36.0123102053
 30
0.0
 10
5.4930658109
 20
35.8679860398
 30
0.0
  0
SPLINE
  5
2EE
100
AcDbEntity
  8
0
100
AcDbSpline
 62
7
  6
BYLAYER
 70
0
 71
3
 72
15
 73
11
 74
0
 42
0.0000001
 43
0.0000001
 44
0.0000000001
 40
0.0
 40
0.0
 40
0.0
 40
0.0
 40
0.1200746271
 40
0.2434749015
 40
0.3692657561
 40
0.4965083088
 40
0.6241985026
 40
0.7513315587
 40
0.8769059517
 40
1.0
 40
1.0
 40
1.0
 40
1.0
 10
10.4876560776
 20
35.3781783344
 30
0.0
 10
10.5889218281
 20
35.2833652849
 30
0.0
 10
10.787157628
 20
35.0834028708
 30
0.0
 10
11.0661864844
 20
34.7602899126
 30
0.0
 10
11.3283946668
 20
34.4129412971
 30
0.0
 10
11.5706937081
 20
34.0454916491
 30
0.0
 10
11.7902387411
 20
33.6622249256
 30
0.0
 10
11.9844450455
 20
33.2676538742
 30
0.0
 10
12.1510494451
 20
32.8664136347
 30
0.0
 10
12.2435648304
 20
32.5941525195
 30
0.0
 10
12.2845720425
 20
32.4579809937
 30
0.0
  0
SPLINE
  5
2EF
100
AcDbEntity
  8
0
100
AcDbSpline
 62
7
  6
BYLAYER
 70
0
 71
3
 72
9
 73
5
 74
0
 42
0.0000001
 43
0.0000001
 44
0.0000000001
 40
0.0
 40
0.0
 40
0.0
 40
0.0
 40
0.516388601
 40
1.0
 40
1.0
 40
1.0
 40
1.0
 10
13.6439767801
 20
31.1213725217
 30
0.0
 10
13.6341204533
 20
30.9939756447
 30
0.0
 10
13.6020898308
 20
30.7480192241
 30
0.0
 10
13.5399970353
 20
30.5076271536
 30
0.0
 10
13.501750599
 20
30.3942366278
 30
0.0
  0
SPLINE
  5
2F0
100
AcDbEntity
  8
0
100
AcDbSpline
 62
7
  6
BYLAYER
 70
0
 71
3
 72
15
 73
11
 74
0
 42
0.0000001
 43
0.0000001
 44
0.0000000001
 40
0.0
 40
0.0
 40
0.0
 40
0.0
 40
0.1307069607
 40
0.2624046768
 40
0.393722051
 40
0.5232986307
 40
0.6498374942
 40
0.7721267329
 40
0.8891446814
 40
1.0
 40
1.0
 40
1.0
 40
1.0
 10
14.7944763561
 20
7.5911709966
 30
0.0
 10
14.5339390829
 20
7.5582271438
 30
0.0
 10
14.0082228108
 20
7.5116635581
 30
0.0
 10
13.2166250186
 20
7.4989715362
 30
0.0
 10
12.4283801555
 20
7.5431167571
 30
0.0
 10
11.6557308565
 20
7.6434233895
 30
0.0
 10
10.9106267841
 20
7.7983537983
 30
0.0
 10
10.2044660658
 20
8.0054998176
 30
0.0
 10
9.5482834679
 20
8.2617260796
 30
0.0
 10
9.1388410214
 20
8.4687043495
 30
0.0
 10
8.9459530363
 20
8.5800657603
 30
0.0
  0
SPLINE
  5
2F1
100
AcDbEntity
  8
0
100
AcDbSpline
 62
7
  6
BYLAYER
 70
0
 71
3
 72
11
 73
7
 74
0
 42
0.0000001
 43
0.0000001
 44
0.0000000001
 40
0.0
 40
0.0
 40
0.0
 40
0.0
 40
0.2612949879
 40
0.5155146145
 40
0.7619932759
 40
1.0
 40
1.0
 40
1.0
 40
1.0
 10
9.927744783
 20
21.9398012026
 30
0.0
 10
9.7648800375
 20
21.8900367433
 30
0.0
 10
9.4459373176
 20
21.7838365437
 30
0.0
 10
8.9834970027
 20
21.60210395
 30
0.0
 10
8.5458019364
 20
21.4009529663
 30
0.0
 10
8.2670775355
 20
21.2520520006
 30
0.0
 10
8.1327394641
 20
21.1744923419
 30
0.0
  0
SPLINE
  5
2F2
100
AcDbEntity
  8
0
100
AcDbSpline
 62
7
  6
BYLAYER
 70
0
 71
3
 72
9
 73
5
 74
0
 42
0.0000001
 43
0.0000001
 44
0.0000000001
 40
0.0
 40
0.0
 40
0.0
 40
0.0
 40
0.5090791145
 40
1.0
 40
1.0
 40
1.0
 40
1.0
 10
7.7792317049
 20
11.6623740252
 30
0.0
 10
7.6507118438
 20
11.736573323
 30
0.0
 10
7.4024964831
 20
11.8898261236
 30
0.0
 10
7.164606824
 20
12.0587401767
 30
0.0
 10
7.0509325909
 20
12.1456770444
 30
0.0
  0
SPLINE
  5
2F3
100
AcDbEntity
  8
0
100
AcDbSpline
 62
7
  6
BYLAYER
 70
0
 71
3
 72
17
 73
13
 74
0
 42
0.0000001
 43
0.0000001
 44
0.0000000001
 40
0.0
 40
0.0
 40
0.0
 40
0.0
 40
0.1436329267
 40
0.2807726385
 40
0.4117474779
 40
0.4750977998
 40
0.5371151965
 40
0.6575170601
 40
0.7739746856
 40
0.8311185042
 40
0.8877333667
 40
1.0
 40
1.0
 40
1.0
 40
1.0
 10
7.0309274372
 20
12.1610432863
 30
0.0
 10
6.9055204567
 20
12.2577894739
 30
0.0
 10
6.6677060248
 20
12.4567289865
 30
0.0
 10
6.3461266171
 20
12.7781180125
 30
0.0
 10
6.1134479473
 20
13.0609196323
 30
0.0
 10
5.9519435375
 20
13.29307382
 30
0.0
 10
5.8097403597
 20
13.5239252141
 30
0.0
 10
5.6612759823
 20
13.8191038412
 30
0.0
 10
5.5526223043
 20
14.1255904199
 30
0.0
 10
5.4920887668
 20
14.3723193715
 30
0.0
 10
5.4491309067
 20
14.6179691469
 30
0.0
 10
5.436074858
 20
14.804527792
 30
0.0
 10
5.4360748578
 20
14.9283272562
 30
0.0
  0
SPLINE
  5
2F4
100
AcDbEntity
  8
0
100
AcDbSpline
 62
7
  6
BYLAYER
 70
0
 71
3
 72
15
 73
11
 74
0
 42
0.0000001
 43
0.0000001
 44
0.0000000001
 40
0.0
 40
0.0
 40
0.0
 40
0.0
 40
0.1080125061
 40
0.2180623682
 40
0.3319993297
 40
0.4513581837
 40
0.5772781677
 40
0.7105004996
 40
0.8513962255
 40
1.0
 40
1.0
 40
1.0
 40
1.0
 10
23.4104553272
 20
25.4131901094
 30
0.0
 10
23.4891548078
 20
25.4586271366
 30
0.0
 10
23.6562408833
 20
25.5368933701
 30
0.0
 10
23.9266148987
 20
25.6116287701
 30
0.0
 10
24.2148288534
 20
25.6437887285
 30
0.0
 10
24.5178290397
 20
25.6332385667
 30
0.0
 10
24.832689881
 20
25.5804083569
 30
0.0
 10
25.1564711898
 20
25.4860220123
 30
0.0
 10
25.4861323126
 20
25.3510842577
 30
0.0
 10
25.7022513403
 20
25.237947864
 30
0.0
 10
25.810525348
 20
25.175434041
 30
0.0
  0
SPLINE
  5
2F5
100
AcDbEntity
  8
0
100
AcDbSpline
 62
7
  6
BYLAYER
 70
0
 71
3
 72
21
 73
17
 74
0
 42
0.0000001
 43
0.0000001
 44
0.0000000001
 40
0.0
 40
0.0
 40
0.0
 40
0.0
 40
0.0558450666
 40
0.1141914794
 40
0.1748018388
 40
0.2373782366
 40
0.3015802083
 40
0.3670307105
 40
0.4999984539
 40
0.6329642213
 40
0.6984152408
 40
0.7626187127
 40
0.8251914436
 40
0.8858034534
 40
0.9441720561
 40
1.0
 40
1.0
 40
1.0
 40
1.0
 10
26.1640682134
 20
24.971305862
 30
0.0
 10
26.2659376083
 20
24.9124902062
 30
0.0
 10
26.4690863854
 20
24.7831249668
 30
0.0
 10
26.7637551184
 20
24.5618391142
 30
0.0
 10
27.0526437394
 20
24.3108674196
 30
0.0
 10
27.3330040558
 20
24.0326539153
 30
0.0
 10
27.6021768579
 20
23.729828399
 30
0.0
 10
27.944428634
 20
23.2948975647
 30
0.0
 10
28.3276324373
 20
22.7095642123
 30
0.0
 10
28.6429447346
 20
22.0850320713
 30
0.0
 10
28.8484730862
 20
21.5711649433
 30
0.0
 10
28.9761354089
 20
21.1866436012
 30
0.0
 10
29.0769039729
 20
20.804741419
 30
0.0
 10
29.1498164214
 20
20.4290282103
 30
0.0
 10
29.1940905256
 20
20.0631769808
 30
0.0
 10
29.20456217
 20
19.8225526969
 30
0.0
 10
29.20456217
 20
19.7049594517
 30
0.0
  0
SPLINE
  5
2F6
100
AcDbEntity
  8
0
100
AcDbSpline
 62
7
  6
BYLAYER
 70
0
 71
3
 72
10
 73
6
 74
0
 42
0.0000001
 43
0.0000001
 44
0.0000000001
 40
0.0
 40
0.0
 40
0.0
 40
0.0
 40
0.2454690945
 40
0.4929381927
 40
1.0
 40
1.0
 40
1.0
 40
1.0
 10
13.9288860758
 20
17.3409776865
 30
0.0
 10
13.9555894732
 20
17.3563952847
 30
0.0
 10
14.0109587857
 20
17.3844575401
 30
0.0
 10
14.1286451164
 20
17.4288597793
 30
0.0
 10
14.2223771631
 20
17.4479251666
 30
0.0
 10
14.2857175955
 20
17.4546328341
 30
0.0
  0
SPLINE
  5
2F7
100
AcDbEntity
  8
0
100
AcDbSpline
 62
7
  6
BYLAYER
 70
0
 71
3
 72
9
 73
5
 74
0
 42
0.0000001
 43
0.0000001
 44
0.0000000001
 40
0.0
 40
0.0
 40
0.0
 40
0.0
 40
0.5065122553
 40
1.0
 40
1.0
 40
1.0
 40
1.0
 10
16.7867065509
 20
13.2214964097
 30
0.0
 10
16.7675787277
 20
13.1920572182
 30
0.0
 10
16.726888304
 20
13.1357745113
 30
0.0
 10
16.6804004564
 20
13.0841506305
 30
0.0
 10
16.6561139953
 20
13.060064637
 30
0.0
  0
SPLINE
  5
2F8
100
AcDbEntity
  8
0
100
AcDbSpline
 62
7
  6
BYLAYER
 70
0
 71
3
 72
9
 73
5
 74
0
 42
0.0000001
 43
0.0000001
 44
0.0000000001
 40
0.0
 40
0.0
 40
0.0
 40
0.0
 40
0.5028088088
 40
1.0
 40
1.0
 40
1.0
 40
1.0
 10
16.6561139953
 20
13.060064637
 30
0.0
 10
16.6294853259
 20
13.0336557686
 30
0.0
 10
16.5732040526
 20
12.9843634103
 30
0.0
 10
16.5109902385
 20
12.9427847506
 30
0.0
 10
16.4788743044
 20
12.9242421449
 30
0.0
  0
SPLINE
  5
2F9
100
AcDbEntity
  8
0
100
AcDbSpline
 62
7
  6
BYLAYER
 70
0
 71
3
 72
22
 73
18
 74
0
 42
0.0000001
 43
0.0000001
 44
0.0000000001
 40
0.0
 40
0.0
 40
0.0
 40
0.0
 40
0.099153566
 40
0.1541179916
 40
0.2125135559
 40
0.2740577732
 40
0.3383432755
 40
0.4048596402
 40
0.4730221271
 40
0.5421959044
 40
0.6117115263
 40
0.6808950337
 40
0.7490812498
 40
0.8156270133
 40
0.8799509235
 40
0.9415694454
 40
1.0
 40
1.0
 40
1.0
 40
1.0
 10
14.1341284363
 20
17.5071958834
 30
0.0
 10
14.2958057956
 20
17.4851469199
 30
0.0
 10
14.5420170035
 20
17.4088367953
 30
0.0
 10
14.8537466407
 20
17.2499116899
 30
0.0
 10
15.0956830361
 20
17.0929011043
 30
0.0
 10
15.3338149645
 20
16.9046811723
 30
0.0
 10
15.5649304975
 20
16.6878659424
 30
0.0
 10
15.7856555681
 20
16.4455960003
 30
0.0
 10
15.992856369
 20
16.1813848858
 30
0.0
 10
16.1834948138
 20
15.89902559
 30
0.0
 10
16.3548445099
 20
15.6026246935
 30
0.0
 10
16.5044242558
 20
15.2964657701
 30
0.0
 10
16.6300291315
 20
14.9849656657
 30
0.0
 10
16.7299107456
 20
14.672657755
 30
0.0
 10
16.8025881927
 20
14.3639687947
 30
0.0
 10
16.8469440639
 20
14.0634414554
 30
0.0
 10
16.8575837506
 20
13.8657826851
 30
0.0
 10
16.8575837506
 20
13.7696253554
 30
0.0
  0
SPLINE
  5
2FA
100
AcDbEntity
  8
0
100
AcDbSpline
 62
7
  6
BYLAYER
 70
0
 71
3
 72
15
 73
11
 74
0
 42
0.0000001
 43
0.0000001
 44
0.0000000001
 40
0.0
 40
0.0
 40
0.0
 40
0.0
 40
0.1080124352
 40
0.2180618367
 40
0.3320011043
 40
0.451362035
 40
0.5772693389
 40
0.7104922434
 40
0.8514459498
 40
1.0
 40
1.0
 40
1.0
 40
1.0
 10
12.803897769
 20
19.2895278013
 30
0.0
 10
12.7251993641
 20
19.2440913951
 30
0.0
 10
12.5738777517
 20
19.1385262494
 30
0.0
 10
12.3739651728
 20
18.9417489999
 30
0.0
 10
12.2020088115
 20
18.7082268153
 30
0.0
 10
12.0596540443
 20
18.4405545969
 30
0.0
 10
11.9479582876
 20
18.1414826407
 30
0.0
 10
11.867796339
 20
17.8138526075
 30
0.0
 10
11.8198562739
 20
17.4608822454
 30
0.0
 10
11.8097541943
 20
17.2171474249
 30
0.0
 10
11.8097541943
 20
17.0921659328
 30
0.0
  0
SPLINE
  5
2FB
100
AcDbEntity
  8
0
100
AcDbSpline
 62
7
  6
BYLAYER
 70
0
 71
3
 72
29
 73
25
 74
0
 42
0.0000001
 43
0.0000001
 44
0.0000000001
 40
0.0
 40
0.0
 40
0.0
 40
0.0
 40
0.0213289158
 40
0.0428862081
 40
0.0648881641
 40
0.0875291965
 40
0.1109752591
 40
0.1353577365
 40
0.1607770704
 40
0.1872977903
 40
0.2149570691
 40
0.2437628803
 40
0.3046997036
 40
0.3697752407
 40
0.4383595937
 40
0.5096328647
 40
0.5826441022
 40
0.6563631051
 40
0.7297259363
 40
0.8016903276
 40
0.8712679002
 40
0.9376033682
 40
0.9693434537
 40
1.0
 40
1.0
 40
1.0
 40
1.0
 10
15.2787633193
 20
20.7183787219
 30
0.0
 10
15.3377361793
 20
20.7524264255
 30
0.0
 10
15.4608354867
 20
20.813372177
 30
0.0
 10
15.6571263277
 20
20.8811999431
 30
0.0
 10
15.8643298384
 20
20.9254051657
 30
0.0
 10
16.0812248264
 20
20.9457490379
 30
0.0
 10
16.3065967916
 20
20.9421811545
 30
0.0
 10
16.5392202621
 20
20.9148504344
 30
0.0
 10
16.7778324234
 20
20.8638741448
 30
0.0
 10
17.0211848942
 20
20.7896633434
 30
0.0
 10
17.2679757407
 20
20.6925731058
 30
0.0
 10
17.6061815402
 20
20.5303558858
 30
0.0
 10
18.0290256676
 20
20.2716459325
 30
0.0
 10
18.5191234194
 20
19.8879524692
 30
0.0
 10
18.9911497699
 20
19.4333586363
 30
0.0
 10
19.4350865864
 20
18.917556958
 30
0.0
 10
19.8415387577
 20
18.3514917942
 30
0.0
 10
20.2018317866
 20
17.7472324668
 30
0.0
 10
20.5082997011
 20
17.11767855
 30
0.0
 10
20.7543790348
 20
16.4762315266
 30
0.0
 10
20.9348738336
 20
15.836582131
 30
0.0
 10
21.0287737176
 20
15.3085027337
 30
0.0
 10
21.0663907442
 20
14.8990439403
 30
0.0
 10
21.072870986
 20
14.6997849707
 30
0.0
 10
21.072870986
 20
14.601909228
 30
0.0
  0
SPLINE
  5
2FC
100
AcDbEntity
  8
0
100
AcDbSpline
 62
7
  6
BYLAYER
 70
0
 71
3
 72
17
 73
13
 74
0
 42
0.0000001
 43
0.0000001
 44
0.0000000001
 40
0.0
 40
0.0
 40
0.0
 40
0.0
 40
0.1410479814
 40
0.276455506
 40
0.4063195547
 40
0.5312690667
 40
0.6521091993
 40
0.7698034587
 40
0.8277894832
 40
0.8853559125
 40
0.9426905967
 40
1.0
 40
1.0
 40
1.0
 40
1.0
 10
9.0102747489
 20
5.7612151066
 30
0.0
 10
8.866181964
 20
5.8458705324
 30
0.0
 10
8.5905685505
 20
6.0238340002
 30
0.0
 10
8.2120483703
 20
6.3225661223
 30
0.0
 10
7.8807205709
 20
6.6464262596
 30
0.0
 10
7.6005186623
 20
6.9937330868
 30
0.0
 10
7.3755113007
 20
7.362506796
 30
0.0
 10
7.2371352592
 20
7.6870270677
 30
0.0
 10
7.1590291829
 20
7.9523780626
 30
0.0
 10
7.1170711375
 20
8.1531206961
 30
0.0
 10
7.0917268104
 20
8.3558018981
 30
0.0
 10
7.0860624027
 20
8.4917054252
 30
0.0
 10
7.0860624027
 20
8.5596084026
 30
0.0
  0
SPLINE
  5
2FD
100
AcDbEntity
  8
0
100
AcDbSpline
 62
7
  6
BYLAYER
 70
0
 71
3
 72
15
 73
11
 74
0
 42
0.0000001
 43
0.0000001
 44
0.0000000001
 40
0.0
 40
0.0
 40
0.0
 40
0.0
 40
0.1485733642
 40
0.2895095326
 40
0.4227262941
 40
0.5486405953
 40
0.6680019171
 40
0.7819380343
 40
0.8919859505
 40
1.0
 40
1.0
 40
1.0
 40
1.0
 10
8.9459530363
 20
8.5800657603
 30
0.0
 10
8.802748117
 20
8.6627432886
 30
0.0
 10
8.530180689
 20
8.8355170196
 30
0.0
 10
8.1575279443
 20
9.1239267104
 30
0.0
 10
7.8352014734
 20
9.4324468572
 30
0.0
 10
7.5664486217
 20
9.7582328856
 30
0.0
 10
7.3539341975
 20
10.0983670712
 30
0.0
 10
7.2001282294
 20
10.449825228
 30
0.0
 10
7.1069601964
 20
10.809016556
 30
0.0
 10
7.0860653533
 20
11.0521996205
 30
0.0
 10
7.0860652594
 20
11.1724161372
 30
0.0
  0
SPLINE
  5
2FE
100
AcDbEntity
  8
0
100
AcDbSpline
 62
7
  6
BYLAYER
 70
0
 71
3
 72
11
 73
7
 74
0
 42
0.0000001
 43
0.0000001
 44
0.0000000001
 40
0.0
 40
0.0
 40
0.0
 40
0.0
 40
0.2488326103
 40
0.5073753735
 40
0.7620593365
 40
1.0
 40
1.0
 40
1.0
 40
1.0
 10
9.2261156881
 20
9.7699546906
 30
0.0
 10
9.2089729219
 20
9.7648024616
 30
0.0
 10
9.1729548663
 20
9.7576741621
 30
0.0
 10
9.1179464957
 20
9.7557797916
 30
0.0
 10
9.0641163332
 20
9.7625960603
 30
0.0
 10
9.0299802058
 20
9.7730244022
 30
0.0
 10
9.014256972
 20
9.7797892219
 30
0.0
  0
SPLINE
  5
2FF
100
AcDbEntity
  8
0
100
AcDbSpline
 62
7
  6
BYLAYER
 70
0
 71
3
 72
12
 73
8
 74
0
 42
0.0000001
 43
0.0000001
 44
0.0000000001
 40
0.0
 40
0.0
 40
0.0
 40
0.0
 40
0.2951984119
 40
0.5571628188
 40
0.7875524328
 40
0.8950136999
 40
1.0
 40
1.0
 40
1.0
 40
1.0
 10
8.8491384711
 20
9.8529377565
 30
0.0
 10
8.8379876748
 20
9.8580230494
 30
0.0
 10
8.8176681819
 20
9.8694133118
 30
0.0
 10
8.7928929492
 20
9.8911959433
 30
0.0
 10
8.7792825488
 20
9.9126330335
 30
0.0
 10
8.7739954919
 20
9.9303441532
 30
0.0
 10
8.7731357268
 20
9.9391888463
 30
0.0
 10
8.7731368996
 20
9.9435475188
 30
0.0
  0
SPLINE
  5
300
100
AcDbEntity
  8
0
100
AcDbSpline
 62
7
  6
BYLAYER
 70
0
 71
3
 72
9
 73
5
 74
0
 42
0.0000001
 43
0.0000001
 44
0.0000000001
 40
0.0
 40
0.0
 40
0.0
 40
0.0
 40
0.5210651938
 40
1.0
 40
1.0
 40
1.0
 40
1.0
 10
11.8097541943
 20
14.3160577146
 30
0.0
 10
11.8097541943
 20
14.248383675
 30
0.0
 10
11.8015622379
 20
14.1183101795
 30
0.0
 10
11.7735062451
 20
13.990755725
 30
0.0
 10
11.7543736757
 20
13.9315689799
 30
0.0
  0
SPLINE
  5
301
100
AcDbEntity
  8
0
100
AcDbSpline
 62
7
  6
BYLAYER
 70
0
 71
3
 72
11
 73
7
 74
0
 42
0.0000001
 43
0.0000001
 44
0.0000000001
 40
0.0
 40
0.0
 40
0.0
 40
0.0
 40
0.270154643
 40
0.5237731435
 40
0.7651753571
 40
1.0
 40
1.0
 40
1.0
 40
1.0
 10
11.7543736757
 20
13.9315689799
 30
0.0
 10
11.7404190558
 20
13.8884002595
 30
0.0
 10
11.7074280909
 20
13.8064160966
 30
0.0
 10
11.6399345319
 20
13.6962940123
 30
0.0
 10
11.5570515923
 20
13.6049731159
 30
0.0
 10
11.4918116903
 20
13.557545929
 30
0.0
 10
11.4576598853
 20
13.5378284917
 30
0.0
  0
SPLINE
  5
302
100
AcDbEntity
  8
0
100
AcDbSpline
 62
7
  6
BYLAYER
 70
0
 71
3
 72
17
 73
13
 74
0
 42
0.0000001
 43
0.0000001
 44
0.0000000001
 40
0.0
 40
0.0
 40
0.0
 40
0.0
 40
0.1485576233
 40
0.289453947
 40
0.4226437727
 40
0.5485394313
 40
0.6678761692
 40
0.7817921135
 40
0.8372270127
 40
0.8919114359
 40
0.9460849019
 40
1.0
 40
1.0
 40
1.0
 40
1.0
 10
7.7791846015
 20
20.9703615106
 30
0.0
 10
7.5987570743
 20
20.866192251
 30
0.0
 10
7.2553649878
 20
20.6485366584
 30
0.0
 10
6.785904144
 20
20.2851718898
 30
0.0
 10
6.3798470242
 20
19.896499328
 30
0.0
 10
6.0412383788
 20
19.4860661045
 30
0.0
 10
5.7735484214
 20
19.0575786794
 30
0.0
 10
5.6105481003
 20
18.6850834341
 30
0.0
 10
5.5198745063
 20
18.3839539322
 30
0.0
 10
5.4715592777
 20
18.1583899323
 30
0.0
 10
5.442525335
 20
17.9317109499
 30
0.0
 10
5.4360708098
 20
17.7800468213
 30
0.0
 10
5.4360708103
 20
17.7044354744
 30
0.0
  0
SPLINE
  5
303
100
AcDbEntity
  8
0
100
AcDbSpline
 62
7
  6
BYLAYER
 70
0
 71
3
 72
11
 73
7
 74
0
 42
0.0000001
 43
0.0000001
 44
0.0000000001
 40
0.0
 40
0.0
 40
0.0
 40
0.0
 40
0.2260690028
 40
0.4747706929
 40
0.7366086072
 40
1.0
 40
1.0
 40
1.0
 40
1.0
 10
8.5609494671
 20
10.5520396185
 30
0.0
 10
8.5484217097
 20
10.5597116533
 30
0.0
 10
8.5201385081
 20
10.5726597453
 30
0.0
 10
8.4735923532
 20
10.5846294536
 30
0.0
 10
8.4233467315
 20
10.5894465275
 30
0.0
 10
8.3891120301
 20
10.5877358675
 30
0.0
 10
8.3721349721
 20
10.5855628691
 30
0.0
  0
SPLINE
  5
304
100
AcDbEntity
  8
0
100
AcDbSpline
 62
7
  6
BYLAYER
 70
0
 71
3
 72
14
 73
10
 74
0
 42
0.0000001
 43
0.0000001
 44
0.0000000001
 40
0.0
 40
0.0
 40
0.0
 40
0.0
 40
0.1405967462
 40
0.2766990592
 40
0.4081788976
 40
0.5350650134
 40
0.6574756767
 40
0.7756146015
 40
1.0
 40
1.0
 40
1.0
 40
1.0
 10
14.8503289564
 20
7.57996648
 30
0.0
 10
14.9803003191
 20
7.5049291764
 30
0.0
 10
15.240075179
 20
7.3640104891
 30
0.0
 10
15.6345470307
 20
7.1784269293
 30
0.0
 10
16.0261212993
 20
7.0228251874
 30
0.0
 10
16.413183273
 20
6.8978043427
 30
0.0
 10
16.7944004175
 20
6.8038785511
 30
0.0
 10
17.2841460153
 20
6.7219934249
 30
0.0
 10
17.6518252747
 20
6.7053845697
 30
0.0
 10
17.8910336588
 20
6.71751299
 30
0.0
  0
SPLINE
  5
305
100
AcDbEntity
  8
0
100
AcDbSpline
 62
7
  6
BYLAYER
 70
0
 71
3
 72
11
 73
7
 74
0
 42
0.0000001
 43
0.0000001
 44
0.0000000001
 40
0.0
 40
0.0
 40
0.0
 40
0.0
 40
0.2669803221
 40
0.531187295
 40
0.7790188439
 40
1.0
 40
1.0
 40
1.0
 40
1.0
 10
7.8294280893
 20
10.5160984693
 30
0.0
 10
7.8110142114
 20
10.5137415636
 30
0.0
 10
7.7739280949
 20
10.5121300728
 30
0.0
 10
7.7198738259
 20
10.5183125378
 30
0.0
 10
7.6707310404
 20
10.5327544651
 30
0.0
 10
7.641602426
 20
10.548188432
 30
0.0
 10
7.6291970466
 20
10.5572553325
 30
0.0
  0
SPLINE
  5
306
100
AcDbEntity
  8
0
100
AcDbSpline
 62
7
  6
BYLAYER
 70
0
 71
3
 72
12
 73
8
 74
0
 42
0.0000001
 43
0.0000001
 44
0.0000000001
 40
0.0
 40
0.0
 40
0.0
 40
0.0
 40
0.2894821226
 40
0.5486670408
 40
0.7816021005
 40
0.8917932739
 40
1.0
 40
1.0
 40
1.0
 40
1.0
 10
21.072870986
 20
8.6152146174
 30
0.0
 10
21.072870986
 20
8.5898806401
 30
0.0
 10
21.0690207125
 20
8.5416937951
 30
0.0
 10
21.0495500376
 20
8.475527182
 30
0.0
 10
21.0215476542
 20
8.4298711294
 30
0.0
 10
20.993276726
 20
8.4020633529
 30
0.0
 10
20.977516686
 20
8.3910553016
 30
0.0
 10
20.9693142097
 20
8.3863230228
 30
0.0
  0
SPLINE
  5
307
100
AcDbEntity
  8
0
100
AcDbSpline
 62
7
  6
BYLAYER
 70
0
 71
3
 72
11
 73
7
 74
0
 42
0.0000001
 43
0.0000001
 44
0.0000000001
 40
0.0
 40
0.0
 40
0.0
 40
0.0
 40
0.2801710015
 40
0.537032753
 40
0.7741348121
 40
1.0
 40
1.0
 40
1.0
 40
1.0
 10
7.502496882
 20
10.6525845716
 30
0.0
 10
7.496424161
 20
10.6572892262
 30
0.0
 10
7.4854606699
 20
10.6672480634
 30
0.0
 10
7.4726402383
 20
10.6843567816
 30
0.0
 10
7.4646694101
 20
10.7026318815
 30
0.0
 10
7.4628571144
 20
10.715389623
 30
0.0
 10
7.462858166
 20
10.7215825396
 30
0.0
  0
SPLINE
  5
308
100
AcDbEntity
  8
0
100
AcDbSpline
 62
7
  6
BYLAYER
 70
0
 71
3
 72
9
 73
5
 74
0
 42
0.0000001
 43
0.0000001
 44
0.0000000001
 40
0.0
 40
0.0
 40
0.0
 40
0.0
 40
0.4882516881
 40
1.0
 40
1.0
 40
1.0
 40
1.0
 10
7.4643691195
 20
11.4151758083
 30
0.0
 10
7.4496251851
 20
11.4202839524
 30
0.0
 10
7.4184583055
 20
11.4280366864
 30
0.0
 10
7.3865278945
 20
11.4311112563
 30
0.0
 10
7.3701784314
 20
11.4315233427
 30
0.0
  0
SPLINE
  5
309
100
AcDbEntity
  8
0
100
AcDbSpline
 62
7
  6
BYLAYER
 70
0
 71
3
 72
11
 73
7
 74
0
 42
0.0000001
 43
0.0000001
 44
0.0000000001
 40
0.0
 40
0.0
 40
0.0
 40
0.0
 40
0.2848261504
 40
0.5533129542
 40
0.7935303648
 40
1.0
 40
1.0
 40
1.0
 40
1.0
 10
6.8148233535
 20
11.4455210055
 30
0.0
 10
6.7964362656
 20
11.44598445
 30
0.0
 10
6.7607207399
 20
11.4497345839
 30
0.0
 10
6.7110918766
 20
11.463608723
 30
0.0
 10
6.6696919823
 20
11.4848133261
 30
0.0
 10
6.64783893
 20
11.5045094038
 30
0.0
 10
6.6398653989
 20
11.5151954285
 30
0.0
  0
SPLINE
  5
30A
100
AcDbEntity
  8
0
100
AcDbSpline
 62
7
  6
BYLAYER
 70
0
 71
3
 72
11
 73
7
 74
0
 42
0.0000001
 43
0.0000001
 44
0.0000000001
 40
0.0
 40
0.0
 40
0.0
 40
0.0
 40
0.2586870402
 40
0.5190966119
 40
0.7695732884
 40
1.0
 40
1.0
 40
1.0
 40
1.0
 10
11.5120939017
 20
9.5002330965
 30
0.0
 10
11.4953317829
 20
9.5031342644
 30
0.0
 10
11.4611877958
 20
9.5062716231
 30
0.0
 10
11.4104743184
 20
9.503539437
 30
0.0
 10
11.3625751417
 20
9.4935207881
 30
0.0
 10
11.3329373758
 20
9.4818457998
 30
0.0
 10
11.3195433507
 20
9.4747598126
 30
0.0
  0
SPLINE
  5
30B
100
AcDbEntity
  8
0
100
AcDbSpline
 62
7
  6
BYLAYER
 70
0
 71
3
 72
11
 73
7
 74
0
 42
0.0000001
 43
0.0000001
 44
0.0000000001
 40
0.0
 40
0.0
 40
0.0
 40
0.0
 40
0.2312200161
 40
0.4833350247
 40
0.7441769624
 40
1.0
 40
1.0
 40
1.0
 40
1.0
 10
10.9097041983
 20
9.2579381349
 30
0.0
 10
10.8951216649
 20
9.2502233782
 30
0.0
 10
10.862645044
 20
9.2377887597
 30
0.0
 10
10.8102348491
 20
9.227942212
 30
0.0
 10
10.7551723508
 20
9.22669631
 30
0.0
 10
10.7184453501
 20
9.2316941427
 30
0.0
 10
10.7006556301
 20
9.2357801272
 30
0.0
  0
SPLINE
  5
30C
100
AcDbEntity
  8
0
100
AcDbSpline
 62
7
  6
BYLAYER
 70
0
 71
3
 72
12
 73
8
 74
0
 42
0.0000001
 43
0.0000001
 44
0.0000000001
 40
0.0
 40
0.0
 40
0.0
 40
0.0
 40
0.3028159396
 40
0.5705640022
 40
0.7992522369
 40
0.90215068
 40
1.0
 40
1.0
 40
1.0
 40
1.0
 10
10.5083713459
 20
9.2817630057
 30
0.0
 10
10.4920290353
 20
9.2858274797
 30
0.0
 10
10.4617831956
 20
9.2961662214
 30
0.0
 10
10.4233328309
 20
9.3192125059
 30
0.0
 10
10.4003399288
 20
9.3444036082
 30
0.0
 10
10.3903558418
 20
9.3662857409
 30
0.0
 10
10.3880989052
 20
9.3773469161
 30
0.0
 10
10.3876885232
 20
9.3827730036
 30
0.0
  0
SPLINE
  5
30D
100
AcDbEntity
  8
0
100
AcDbSpline
 62
7
  6
BYLAYER
 70
0
 71
3
 72
12
 73
8
 74
0
 42
0.0000001
 43
0.0000001
 44
0.0000000001
 40
0.0
 40
0.0
 40
0.0
 40
0.0
 40
0.0998832608
 40
0.2042637235
 40
0.4336874993
 40
0.6994736251
 40
1.0
 40
1.0
 40
1.0
 40
1.0
 10
10.3634388891
 20
9.703402707
 30
0.0
 10
10.3630607776
 20
9.7084021144
 30
0.0
 10
10.3610971914
 20
9.7185654262
 30
0.0
 10
10.3525366444
 20
9.7387276356
 30
0.0
 10
10.3328476494
 20
9.762329431
 30
0.0
 10
10.29942486
 20
9.784809038
 30
0.0
 10
10.2728868701
 20
9.7955418166
 30
0.0
 10
10.2584824151
 20
9.8000218437
 30
0.0
  0
SPLINE
  5
30E
100
AcDbEntity
  8
0
100
AcDbSpline
 62
7
  6
BYLAYER
 70
0
 71
3
 72
11
 73
7
 74
0
 42
0.0000001
 43
0.0000001
 44
0.0000000001
 40
0.0
 40
0.0
 40
0.0
 40
0.0
 40
0.242045922
 40
0.4968934289
 40
0.7533547638
 40
1.0
 40
1.0
 40
1.0
 40
1.0
 10
9.9165988727
 20
9.9139802996
 30
0.0
 10
9.9013722647
 20
9.9194071589
 30
0.0
 10
9.86902753
 20
9.9276116024
 30
0.0
 10
9.818765924
 20
9.9323850092
 30
0.0
 10
9.7680432985
 20
9.9296964944
 30
0.0
 10
9.7349646819
 20
9.9228883832
 30
0.0
 10
9.7191897986
 20
9.918147269
 30
0.0
  0
SPLINE
  5
30F
100
AcDbEntity
  8
0
100
AcDbSpline
 62
7
  6
BYLAYER
 70
0
 71
3
 72
15
 73
11
 74
0
 42
0.0000001
 43
0.0000001
 44
0.0000000001
 40
0.0
 40
0.0
 40
0.0
 40
0.0
 40
0.141548447
 40
0.2782797245
 40
0.4100583868
 40
0.5369342178
 40
0.6590638937
 40
0.7767086258
 40
0.8902184698
 40
1.0
 40
1.0
 40
1.0
 40
1.0
 10
23.3455855176
 20
12.4731260007
 30
0.0
 10
23.4834187222
 20
12.3938008093
 30
0.0
 10
23.7588715461
 20
12.2454501731
 30
0.0
 10
24.1773501339
 20
12.0520725883
 30
0.0
 10
24.5923244763
 20
11.8925911544
 30
0.0
 10
25.0019021761
 20
11.7676912947
 30
0.0
 10
25.4043857157
 20
11.6779651926
 30
0.0
 10
25.7980898502
 20
11.6238037266
 30
0.0
 10
26.1812102251
 20
11.605588081
 30
0.0
 10
26.4322746463
 20
11.6176141553
 30
0.0
 10
26.5550039869
 20
11.6298688224
 30
0.0
  0
SPLINE
  5
310
100
AcDbEntity
  8
0
100
AcDbSpline
 62
7
  6
BYLAYER
 70
0
 71
3
 72
23
 73
19
 74
0
 42
0.0000001
 43
0.0000001
 44
0.0000000001
 40
0.0
 40
0.0
 40
0.0
 40
0.0
 40
0.0742630538
 40
0.144750755
 40
0.2113712731
 40
0.2743232104
 40
0.3339987966
 40
0.3909711085
 40
0.4459957939
 40
0.5000019828
 40
0.5540080803
 40
0.6090325003
 40
0.6660043955
 40
0.725679448
 40
0.7886307664
 40
0.8552506116
 40
0.9257376211
 40
1.0
 40
1.0
 40
1.0
 40
1.0
 10
11.8097571383
 20
13.9078152604
 30
0.0
 10
11.8097571383
 20
13.8505438042
 30
0.0
 10
11.8051181377
 20
13.7388370355
 30
0.0
 10
11.7831586033
 20
13.5770551074
 30
0.0
 10
11.7464094982
 20
13.4268820254
 30
0.0
 10
11.6952304828
 20
13.2898012726
 30
0.0
 10
11.6299572649
 20
13.1671382732
 30
0.0
 10
11.5511815619
 20
13.0600927505
 30
0.0
 10
11.4595068235
 20
12.9699124736
 30
0.0
 10
11.3559136879
 20
12.8975856407
 30
0.0
 10
11.2414817567
 20
12.8440320159
 30
0.0
 10
11.117547355
 20
12.8097267258
 30
0.0
 10
10.9854565997
 20
12.79502497
 30
0.0
 10
10.8465918223
 20
12.799825503
 30
0.0
 10
10.7022878741
 20
12.8240409152
 30
0.0
 10
10.5538604576
 20
12.867299247
 30
0.0
 10
10.402774121
 20
12.9291702516
 30
0.0
 10
10.3037141087
 20
12.9810046206
 30
0.0
 10
10.254115743
 20
13.0096396026
 30
0.0
  0
SPLINE
  5
311
100
AcDbEntity
  8
0
100
AcDbSpline
 62
7
  6
BYLAYER
 70
0
 71
3
 72
19
 73
15
 74
0
 42
0.0000001
 43
0.0000001
 44
0.0000000001
 40
0.0
 40
0.0
 40
0.0
 40
0.0
 40
0.1513176618
 40
0.2904727392
 40
0.4180930479
 40
0.4783086277
 40
0.5365824569
 40
0.5934052789
 40
0.6493486845
 40
0.7050273334
 40
0.7610723328
 40
0.8180902132
 40
0.8766413274
 40
1.0
 40
1.0
 40
1.0
 40
1.0
 10
12.8430741622
 20
16.087351113
 30
0.0
 10
12.8430741537
 20
16.1992312981
 30
0.0
 10
12.8564953643
 20
16.4144110713
 30
0.0
 10
12.92240154
 20
16.7177535134
 30
0.0
 10
13.0162811968
 20
16.9424996085
 30
0.0
 10
13.1131304522
 20
17.0969599982
 30
0.0
 10
13.1943803768
 20
17.1983592395
 30
0.0
 10
13.2852285053
 20
17.286809863
 30
0.0
 10
13.3850917366
 20
17.3618140967
 30
0.0
 10
13.4934090706
 20
17.4228418655
 30
0.0
 10
13.6094780387
 20
17.4695275251
 30
0.0
 10
13.7325906296
 20
17.5016411793
 30
0.0
 10
13.9080121554
 20
17.5251360019
 30
0.0
 10
14.0437568874
 20
17.5195204228
 30
0.0
 10
14.1341284363
 20
17.5071958834
 30
0.0
  0
SPLINE
  5
312
100
AcDbEntity
  8
0
100
AcDbSpline
 62
7
  6
BYLAYER
 70
0
 71
3
 72
29
 73
25
 74
0
 42
0.0000001
 43
0.0000001
 44
0.0000000001
 40
0.0
 40
0.0
 40
0.0
 40
0.0
 40
0.0306563649
 40
0.0623959388
 40
0.1287301166
 40
0.1983071156
 40
0.2702720836
 40
0.3436359143
 40
0.4173546719
 40
0.490366288
 40
0.561640219
 40
0.630225276
 40
0.6953014479
 40
0.7562387131
 40
0.7850446131
 40
0.8127039708
 40
0.8392246345
 40
0.864643875
 40
0.8890261971
 40
0.9124720312
 40
0.9351128505
 40
0.9571145331
 40
0.9786714894
 40
1.0
 40
1.0
 40
1.0
 40
1.0
 10
18.5980075557
 20
13.1730546894
 30
0.0
 10
18.5980075557
 20
13.2709299217
 30
0.0
 10
18.5915278531
 20
13.4701868253
 30
0.0
 10
18.5539119763
 20
13.8796396748
 30
0.0
 10
18.4600139231
 20
14.4077119767
 30
0.0
 10
18.2795238034
 20
15.0473589369
 30
0.0
 10
18.0334430242
 20
15.6888093773
 30
0.0
 10
17.7269760725
 20
16.3183690227
 30
0.0
 10
17.3666811501
 20
16.9226320622
 30
0.0
 10
16.9602284484
 20
17.4887005451
 30
0.0
 10
16.5162880322
 20
18.004507151
 30
0.0
 10
16.0442565926
 20
18.4591056408
 30
0.0
 10
15.5541534771
 20
18.8428021215
 30
0.0
 10
15.1313055966
 20
19.1015140271
 30
0.0
 10
14.7930965396
 20
19.26372951
 30
0.0
 10
14.5463052052
 20
19.3608199981
 30
0.0
 10
14.3029520408
 20
19.4350285302
 30
0.0
 10
14.0643404038
 20
19.4860031163
 30
0.0
 10
13.831718145
 20
19.5133330678
 30
0.0
 10
13.6063479139
 20
19.5168978769
 30
0.0
 10
13.3894550688
 20
19.4965540308
 30
0.0
 10
13.182254503
 20
19.452346751
 30
0.0
 10
12.9859668355
 20
19.3845196148
 30
0.0
 10
12.8628694683
 20
19.3235750235
 30
0.0
 10
12.803897769
 20
19.2895278013
 30
0.0
  0
SPLINE
  5
313
100
AcDbEntity
  8
0
100
AcDbSpline
 62
7
  6
BYLAYER
 70
0
 71
3
 72
12
 73
8
 74
0
 42
0.0000001
 43
0.0000001
 44
0.0000000001
 40
0.0
 40
0.0
 40
0.0
 40
0.0
 40
0.1082067261
 40
0.2183978995
 40
0.4513329592
 40
0.7105178774
 40
1.0
 40
1.0
 40
1.0
 40
1.0
 10
26.6261449074
 20
11.6522762538
 30
0.0
 10
26.6343473837
 20
11.6570085326
 30
0.0
 10
26.6501074237
 20
11.6680165838
 30
0.0
 10
26.6783783519
 20
11.6958243603
 30
0.0
 10
26.7063807353
 20
11.7414804129
 30
0.0
 10
26.7258514102
 20
11.807647026
 30
0.0
 10
26.7297016837
 20
11.8558338711
 30
0.0
 10
26.7297016837
 20
11.8811678484
 30
0.0
  0
SPLINE
  5
314
100
AcDbEntity
  8
0
100
AcDbSpline
 62
7
  6
BYLAYER
 70
0
 71
3
 72
9
 73
5
 74
0
 42
0.0000001
 43
0.0000001
 44
0.0000000001
 40
0.0
 40
0.0
 40
0.0
 40
0.0
 40
0.2455681154
 40
1.0
 40
1.0
 40
1.0
 40
1.0
 10
25.810525348
 20
25.175434041
 30
0.0
 10
25.8389317834
 20
25.1590331068
 30
0.0
 10
25.9538779505
 20
25.0909855733
 30
0.0
 10
26.0659121359
 20
25.0180430302
 30
0.0
 10
26.1487392429
 20
24.9606449027
 30
0.0
  0
SPLINE
  5
315
100
AcDbEntity
  8
0
100
AcDbSpline
 62
7
  6
BYLAYER
 70
0
 71
3
 72
9
 73
5
 74
0
 42
0.0000001
 43
0.0000001
 44
0.0000000001
 40
0.0
 40
0.0
 40
0.0
 40
0.0
 40
0.4947385778
 40
1.0
 40
1.0
 40
1.0
 40
1.0
 10
16.4788743044
 20
12.9242421449
 30
0.0
 10
16.4345442568
 20
12.8986475416
 30
0.0
 10
16.3400398385
 20
12.854985775
 30
0.0
 10
16.2393537382
 20
12.8287968505
 30
0.0
 10
16.1878572453
 20
12.8197970882
 30
0.0
  0
SPLINE
  5
316
100
AcDbEntity
  8
0
100
AcDbSpline
 62
7
  6
BYLAYER
 70
0
 71
3
 72
9
 73
5
 74
0
 42
0.0000001
 43
0.0000001
 44
0.0000000001
 40
0.0
 40
0.0
 40
0.0
 40
0.0
 40
0.5109558772
 40
1.0
 40
1.0
 40
1.0
 40
1.0
 10
10.3669783181
 20
9.4763633311
 30
0.0
 10
10.222727212
 20
9.532365877
 30
0.0
 10
9.9440958586
 20
9.6517715007
 30
0.0
 10
9.6752545159
 20
9.7919999427
 30
0.0
 10
9.546991298
 20
9.8660510708
 30
0.0
  0
SPLINE
  5
317
100
AcDbEntity
  8
0
100
AcDbSpline
 62
7
  6
BYLAYER
 70
0
 71
3
 72
33
 73
29
 74
0
 42
0.0000001
 43
0.0000001
 44
0.0000000001
 40
0.0
 40
0.0
 40
0.0
 40
0.0
 40
0.025082048
 40
0.0490856109
 40
0.0722261042
 40
0.0947741361
 40
0.1170419528
 40
0.1393616976
 40
0.16206021
 40
0.185439025
 40
0.2097532697
 40
0.2352055461
 40
0.2619397771
 40
0.29004409
 40
0.3195581873
 40
0.3504734061
 40
0.3827473764
 40
0.4162995886
 40
0.4510264555
 40
0.4867976019
 40
0.5608395359
 40
0.6371055354
 40
0.7141001704
 40
0.7902886292
 40
0.8641776791
 40
0.9344383063
 40
0.9678801214
 40
1.0
 40
1.0
 40
1.0
 40
1.0
 10
16.725450349
 20
13.0188715727
 30
0.0
 10
16.7052306263
 20
12.9694194579
 30
0.0
 10
16.6602676107
 20
12.8747111763
 30
0.0
 10
16.5774313736
 20
12.74458335
 30
0.0
 10
16.4813240388
 20
12.6308083609
 30
0.0
 10
16.3726371971
 20
12.5344195254
 30
0.0
 10
16.252266595
 20
12.4562106643
 30
0.0
 10
16.1211818787
 20
12.396939617
 30
0.0
 10
15.9805499576
 20
12.3569748848
 30
0.0
 10
15.8315210628
 20
12.3366805998
 30
0.0
 10
15.6753085091
 20
12.3360214513
 30
0.0
 10
15.5131035254
 20
12.354978366
 30
0.0
 10
15.3461123107
 20
12.3932915383
 30
0.0
 10
15.1755501933
 20
12.450623761
 30
0.0
 10
15.0026760538
 20
12.5265395621
 30
0.0
 10
14.8287245697
 20
12.6204047747
 30
0.0
 10
14.6550115441
 20
12.7315721511
 30
0.0
 10
14.4827734676
 20
12.8591430068
 30
0.0
 10
14.3133265584
 20
13.0022259726
 30
0.0
 10
14.0902282508
 20
13.2146130744
 30
0.0
 10
13.8269547845
 20
13.5120474459
 30
0.0
 10
13.5448317477
 20
13.906504763
 30
0.0
 10
13.3011247569
 20
14.3310831584
 30
0.0
 10
13.1030552009
 20
14.7732660024
 30
0.0
 10
12.9564175146
 20
15.2200108989
 30
0.0
 10
12.8794007152
 20
15.5914148106
 30
0.0
 10
12.8484452819
 20
15.8792400566
 30
0.0
 10
12.8430741674
 20
16.0189340502
 30
0.0
 10
12.8430741622
 20
16.087351113
 30
0.0
  0
SPLINE
  5
318
100
AcDbEntity
  8
0
100
AcDbSpline
 62
7
  6
BYLAYER
 70
0
 71
3
 72
14
 73
10
 74
0
 42
0.0000001
 43
0.0000001
 44
0.0000000001
 40
0.0
 40
0.0
 40
0.0
 40
0.0
 40
0.2654364259
 40
0.3945507304
 40
0.5208148697
 40
0.6441287366
 40
0.7646540923
 40
0.8829579988
 40
1.0
 40
1.0
 40
1.0
 40
1.0
 10
18.3908972436
 20
6.897678935
 30
0.0
 10
18.4193790304
 20
6.9141241616
 30
0.0
 10
18.4600847422
 20
6.9417710666
 30
0.0
 10
18.5077048322
 20
6.9854634826
 30
0.0
 10
18.5386065263
 20
7.0209261167
 30
0.0
 10
18.5641206184
 20
7.0592033356
 30
0.0
 10
18.583313585
 20
7.0999708984
 30
0.0
 10
18.5952845623
 20
7.1426294953
 30
0.0
 10
18.5980075557
 20
7.1718581379
 30
0.0
 10
18.5980075557
 20
7.1863600788
 30
0.0
  0
SPLINE
  5
319
100
AcDbEntity
  8
0
100
AcDbSpline
 62
7
  6
BYLAYER
 70
0
 71
3
 72
15
 73
11
 74
0
 42
0.0000001
 43
0.0000001
 44
0.0000000001
 40
0.0
 40
0.0
 40
0.0
 40
0.0
 40
0.1482960204
 40
0.2890152916
 40
0.4220947433
 40
0.5479646785
 40
0.6673813997
 40
0.7814650615
 40
0.8917305445
 40
1.0
 40
1.0
 40
1.0
 40
1.0
 10
8.9069264276
 20
5.9899870986
 30
0.0
 10
8.7665415766
 20
6.0724640897
 30
0.0
 10
8.4994008058
 20
6.2446213248
 30
0.0
 10
8.1344004581
 20
6.5313581587
 30
0.0
 10
7.8188464331
 20
6.8375790619
 30
0.0
 10
7.5558524591
 20
7.1605150911
 30
0.0
 10
7.3479683892
 20
7.4973335792
 30
0.0
 10
7.1975702826
 20
7.845100215
 30
0.0
 10
7.1064807424
 20
8.2003258688
 30
0.0
 10
7.0860653611
 20
8.4407351154
 30
0.0
 10
7.0860627027
 20
8.5596084026
 30
0.0
  0
SPLINE
  5
31A
100
AcDbEntity
  8
0
100
AcDbSpline
 62
7
  6
BYLAYER
 70
0
 71
3
 72
17
 73
13
 74
0
 42
0.0000001
 43
0.0000001
 44
0.0000000001
 40
0.0
 40
0.0
 40
0.0
 40
0.0
 40
0.053914974
 40
0.1080883207
 40
0.1627726342
 40
0.2182074373
 40
0.332123242
 40
0.4514599276
 40
0.5773556282
 40
0.7105455846
 40
0.851442114
 40
1.0
 40
1.0
 40
1.0
 40
1.0
 10
5.4360708103
 20
17.7044354744
 30
0.0
 10
5.4360708107
 20
17.6288233251
 30
0.0
 10
5.4425254756
 20
17.4771575779
 30
0.0
 10
5.4715600306
 20
17.2504761929
 30
0.0
 10
5.5198762891
 20
17.0249098281
 30
0.0
 10
5.6105518196
 20
16.723777168
 30
0.0
 10
5.7735556266
 20
16.3512781268
 30
0.0
 10
6.041251177
 20
15.9227867264
 30
0.0
 10
6.3798667787
 20
15.5123500958
 30
0.0
 10
6.7859320706
 20
15.123674792
 30
0.0
 10
7.255402147
 20
14.7603080421
 30
0.0
 10
7.5988007774
 20
14.5426517314
 30
0.0
 10
7.7792317049
 20
14.4384822435
 30
0.0
  0
SPLINE
  5
31B
100
AcDbEntity
  8
0
100
AcDbSpline
 62
7
  6
BYLAYER
 70
0
 71
3
 72
15
 73
11
 74
0
 42
0.0000001
 43
0.0000001
 44
0.0000000001
 40
0.0
 40
0.0
 40
0.0
 40
0.0
 40
0.1080132134
 40
0.2180692915
 40
0.3320072107
 40
0.4513450946
 40
0.5772524299
 40
0.7105305573
 40
0.8515215253
 40
1.0
 40
1.0
 40
1.0
 40
1.0
 10
11.4576598853
 20
13.5378284917
 30
0.0
 10
11.4297881812
 20
13.5217368509
 30
0.0
 10
11.3706163636
 20
13.4940081792
 30
0.0
 10
11.2748544725
 20
13.4675615337
 30
0.0
 10
11.1727900881
 20
13.4561615911
 30
0.0
 10
11.0654911151
 20
13.4598858685
 30
0.0
 10
10.9539749334
 20
13.4785901261
 30
0.0
 10
10.8392694154
 20
13.5120378797
 30
0.0
 10
10.7225222248
 20
13.5598504331
 30
0.0
 10
10.6459811723
 20
13.5998930728
 30
0.0
 10
10.6076676616
 20
13.6220128881
 30
0.0
  0
SPLINE
  5
31C
100
AcDbEntity
  8
0
100
AcDbSpline
 62
7
  6
BYLAYER
 70
0
 71
3
 72
15
 73
11
 74
0
 42
0.0000001
 43
0.0000001
 44
0.0000000001
 40
0.0
 40
0.0
 40
0.0
 40
0.0
 40
0.1485557778
 40
0.2895110563
 40
0.4227353955
 40
0.5486436204
 40
0.6680055251
 40
0.7819479969
 40
0.8919973985
 40
1.0
 40
1.0
 40
1.0
 40
1.0
 10
13.4007510759
 20
16.1736241704
 30
0.0
 10
13.4007510798
 20
16.2400213336
 30
0.0
 10
13.4061178226
 20
16.3695068837
 30
0.0
 10
13.4315866363
 20
16.5570243927
 30
0.0
 10
13.4741741635
 20
16.7310792228
 30
0.0
 10
13.5335128902
 20
16.8899624839
 30
0.0
 10
13.6091397293
 20
17.0321656311
 30
0.0
 10
13.7004979209
 20
17.1562221567
 30
0.0
 10
13.8067002315
 20
17.2607558752
 30
0.0
 10
13.887081664
 20
17.3168412961
 30
0.0
 10
13.9288860758
 20
17.3409776865
 30
0.0
  0
SPLINE
  5
31D
100
AcDbEntity
  8
0
100
AcDbSpline
 62
7
  6
BYLAYER
 70
0
 71
3
 72
11
 73
7
 74
0
 42
0.0000001
 43
0.0000001
 44
0.0000000001
 40
0.0
 40
0.0
 40
0.0
 40
0.0
 40
0.2230164252
 40
0.4628172801
 40
0.7215691658
 40
1.0
 40
1.0
 40
1.0
 40
1.0
 10
16.1054561906
 20
12.8089690991
 30
0.0
 10
16.0342301169
 20
12.8026051757
 30
0.0
 10
15.8847717792
 20
12.8049338759
 30
0.0
 10
15.6567489059
 20
12.849495564
 30
0.0
 10
15.4215074482
 20
12.9339724133
 30
0.0
 10
15.267900605
 20
13.0129785805
 30
0.0
 10
15.190863232
 20
13.0580991442
 30
0.0
  0
SPLINE
  5
31E
100
AcDbEntity
  8
0
100
AcDbSpline
 62
7
  6
BYLAYER
 70
0
 71
3
 72
9
 73
5
 74
0
 42
0.0000001
 43
0.0000001
 44
0.0000000001
 40
0.0
 40
0.0
 40
0.0
 40
0.0
 40
0.2429353301
 40
1.0
 40
1.0
 40
1.0
 40
1.0
 10
15.190863232
 20
13.0580991442
 30
0.0
 10
15.1654643917
 20
13.0729751707
 30
0.0
 10
15.0620341686
 20
13.1361118657
 30
0.0
 10
14.9630664679
 20
13.2064746183
 30
0.0
 10
14.8907706713
 20
13.2629308096
 30
0.0
  0
SPLINE
  5
31F
100
AcDbEntity
  8
0
100
AcDbSpline
 62
7
  6
BYLAYER
 70
0
 71
3
 72
9
 73
5
 74
0
 42
0.0000001
 43
0.0000001
 44
0.0000000001
 40
0.0
 40
0.0
 40
0.0
 40
0.0
 40
0.256535869
 40
1.0
 40
1.0
 40
1.0
 40
1.0
 10
13.4268103579
 20
15.8058834232
 30
0.0
 10
13.4229301281
 20
15.8342048733
 30
0.0
 10
13.4093736071
 20
15.9448094658
 30
0.0
 10
13.4021830762
 20
16.0562275128
 30
0.0
 10
13.4009997783
 20
16.1390639399
 30
0.0
  0
SPLINE
  5
320
100
AcDbEntity
  8
0
100
AcDbSpline
 62
7
  6
BYLAYER
 70
0
 71
3
 72
16
 73
12
 74
0
 42
0.0000001
 43
0.0000001
 44
0.0000000001
 40
0.0
 40
0.0
 40
0.0
 40
0.0
 40
0.1314823169
 40
0.2654130874
 40
0.3995312531
 40
0.5315634342
 40
0.6593463225
 40
0.7809508364
 40
0.8389597896
 40
0.8948805604
 40
1.0
 40
1.0
 40
1.0
 40
1.0
 10
15.2671955031
 20
7.382185512
 30
0.0
 10
14.9807738142
 20
7.3249614555
 30
0.0
 10
14.3964521815
 20
7.2384750219
 30
0.0
 10
13.508988846
 20
7.191059841
 30
0.0
 10
12.6196087597
 20
7.2251816167
 30
0.0
 10
11.7507330811
 20
7.3400140185
 30
0.0
 10
10.9241869443
 20
7.5326598663
 30
0.0
 10
10.277750651
 20
7.7575771063
 30
0.0
 10
9.800861903
 20
7.9737101906
 30
0.0
 10
9.3713059467
 20
8.2026903865
 30
0.0
 10
9.0727581677
 20
8.4029969899
 30
0.0
 10
8.890618153
 20
8.5491330695
 30
0.0
  0
SPLINE
  5
321
100
AcDbEntity
  8
0
100
AcDbSpline
 62
7
  6
BYLAYER
 70
0
 71
3
 72
23
 73
19
 74
0
 42
0.0000001
 43
0.0000001
 44
0.0000000001
 40
0.0
 40
0.0
 40
0.0
 40
0.0
 40
0.0546941509
 40
0.1114312641
 40
0.1700259539
 40
0.2303089435
 40
0.2920964548
 40
0.3551658603
 40
0.4192775693
 40
0.4841804821
 40
0.5496153641
 40
0.6153129793
 40
0.6810012635
 40
0.7464088838
 40
0.8112676639
 40
0.8753173298
 40
0.9383064806
 40
1.0
 40
1.0
 40
1.0
 40
1.0
 10
8.9459530363
 20
7.6002628598
 30
0.0
 10
9.0661353175
 20
7.5308771571
 30
0.0
 10
9.3159720927
 20
7.3980039841
 30
0.0
 10
9.7090714218
 20
7.219690462
 30
0.0
 10
10.1252459856
 20
7.0598072385
 30
0.0
 10
10.5618103344
 20
6.9193036902
 30
0.0
 10
11.0161264385
 20
6.7990704033
 30
0.0
 10
11.4853941144
 20
6.6997727655
 30
0.0
 10
11.9667224951
 20
6.622107164
 30
0.0
 10
12.4571269313
 20
6.5664819744
 30
0.0
 10
12.9535883205
 20
6.5333057618
 30
0.0
 10
13.4530353574
 20
6.5227136927
 30
0.0
 10
13.952378185
 20
6.5348451742
 30
0.0
 10
14.4485300206
 20
6.5695529646
 30
0.0
 10
14.9384188947
 20
6.626693505
 30
0.0
 10
15.4190295972
 20
6.7058430366
 30
0.0
 10
15.8873665511
 20
6.8065810553
 30
0.0
 10
16.1930676144
 20
6.8886300425
 30
0.0
 10
16.3431102851
 20
6.9332370961
 30
0.0
  0
SPLINE
  5
322
100
AcDbEntity
  8
0
100
AcDbSpline
 62
7
  6
BYLAYER
 70
0
 71
3
 72
10
 73
6
 74
0
 42
0.0000001
 43
0.0000001
 44
0.0000000001
 40
0.0
 40
0.0
 40
0.0
 40
0.0
 40
0.4771834193
 40
0.7330268438
 40
1.0
 40
1.0
 40
1.0
 40
1.0
 10
7.753524578
 20
10.4752393358
 30
0.0
 10
7.9130525959
 20
10.2905426146
 30
0.0
 10
8.188169266
 20
10.0318643356
 30
0.0
 10
8.6005693928
 20
9.729038705
 30
0.0
 10
8.8277032894
 20
9.5873135188
 30
0.0
 10
8.9459530363
 20
9.51904354
 30
0.0
  0
SPLINE
  5
323
100
AcDbEntity
  8
0
100
AcDbSpline
 62
7
  6
BYLAYER
 70
0
 71
3
 72
15
 73
11
 74
0
 42
0.0000001
 43
0.0000001
 44
0.0000000001
 40
0.0
 40
0.0
 40
0.0
 40
0.0
 40
0.1080127032
 40
0.2180594928
 40
0.3319947313
 40
0.4513555686
 40
0.5772694811
 40
0.7104868681
 40
0.8514254575
 40
1.0
 40
1.0
 40
1.0
 40
1.0
 10
7.0860651919
 20
10.1926132368
 30
0.0
 10
7.086065203
 20
10.0723982214
 30
0.0
 10
7.1069592839
 20
9.8292178672
 30
0.0
 10
7.2001261459
 20
9.4700301571
 30
0.0
 10
7.35392906
 20
9.1185737531
 30
0.0
 10
7.5664414479
 20
8.7784405619
 30
0.0
 10
7.8351926838
 20
8.4526536455
 30
0.0
 10
8.157519885
 20
8.1441298724
 30
0.0
 10
8.5301768755
 20
7.8557179744
 30
0.0
 10
8.8027469847
 20
7.6829410418
 30
0.0
 10
8.9459530363
 20
7.6002628598
 30
0.0
  0
SPLINE
  5
324
100
AcDbEntity
  8
0
100
AcDbSpline
 62
7
  6
BYLAYER
 70
0
 71
3
 72
17
 73
13
 74
0
 42
0.0000001
 43
0.0000001
 44
0.0000000001
 40
0.0
 40
0.0
 40
0.0
 40
0.0
 40
0.1345577566
 40
0.2683677393
 40
0.400471358
 40
0.5297246677
 40
0.6548501131
 40
0.7747013778
 40
0.832630224
 40
0.8892799262
 40
0.944932689
 40
1.0
 40
1.0
 40
1.0
 40
1.0
 10
14.3904007002
 20
28.8575613534
 30
0.0
 10
14.4092975389
 20
28.8253392182
 30
0.0
 10
14.4504825657
 20
28.7630461375
 30
0.0
 10
14.5219838418
 20
28.6775978281
 30
0.0
 10
14.6024014588
 20
28.6025242757
 30
0.0
 10
14.6906653927
 20
28.5407848859
 30
0.0
 10
14.7850222184
 20
28.4960038823
 30
0.0
 10
14.8676457653
 20
28.4762013857
 30
0.0
 10
14.9328741892
 20
28.4738036624
 30
0.0
 10
14.9800399242
 20
28.478964449
 30
0.0
 10
15.0250347729
 20
28.4913285072
 30
0.0
 10
15.0530422669
 20
28.5044177226
 30
0.0
 10
15.0662813834
 20
28.5120612845
 30
0.0
  0
SPLINE
  5
325
100
AcDbEntity
  8
0
100
AcDbSpline
 62
7
  6
BYLAYER
 70
0
 71
3
 72
15
 73
11
 74
0
 42
0.0000001
 43
0.0000001
 44
0.0000000001
 40
0.0
 40
0.0
 40
0.0
 40
0.0
 40
0.1375909898
 40
0.2706265958
 40
0.3993991679
 40
0.5243836064
 40
0.6461997444
 40
0.7655518191
 40
0.8832095106
 40
1.0
 40
1.0
 40
1.0
 40
1.0
 10
9.2252678687
 20
22.2695895404
 30
0.0
 10
9.3605574538
 20
22.2392111011
 30
0.0
 10
9.6289451175
 20
22.1890590973
 30
0.0
 10
10.0295982381
 20
22.1463473325
 30
0.0
 10
10.4197936323
 20
22.1377797917
 30
0.0
 10
10.797946508
 20
22.1634525038
 30
0.0
 10
11.162642588
 20
22.2232951964
 30
0.0
 10
11.5125026536
 20
22.3171729318
 30
0.0
 10
11.8461314831
 20
22.4446696672
 30
0.0
 10
12.0571823999
 20
22.5520325682
 30
0.0
 10
12.1591098269
 20
22.6108819644
 30
0.0
  0
SPLINE
  5
326
100
AcDbEntity
  8
0
100
AcDbSpline
 62
7
  6
BYLAYER
 70
0
 71
3
 72
15
 73
11
 74
0
 42
0.0000001
 43
0.0000001
 44
0.0000000001
 40
0.0
 40
0.0
 40
0.0
 40
0.0
 40
0.1425875667
 40
0.2833898476
 40
0.4204060523
 40
0.5519449474
 40
0.6765037557
 40
0.7929849275
 40
0.9007929122
 40
1.0
 40
1.0
 40
1.0
 40
1.0
 10
8.8087084133
 20
32.2689452128
 30
0.0
 10
8.8903018064
 20
32.129815415
 30
0.0
 10
9.0409928303
 20
31.8463789409
 30
0.0
 10
9.2283120345
 20
31.4086708061
 30
0.0
 10
9.3726445067
 20
30.9680165072
 30
0.0
 10
9.4710376717
 20
30.5336306849
 30
0.0
 10
9.521402347
 20
30.11436652
 30
0.0
 10
9.5225985148
 20
29.7187093959
 30
0.0
 10
9.4744528535
 20
29.3547696056
 30
0.0
 10
9.4070104575
 20
29.1290429331
 30
0.0
 10
9.364532687
 20
29.0251731996
 30
0.0
  0
SPLINE
  5
327
100
AcDbEntity
  8
0
100
AcDbSpline
 62
7
  6
BYLAYER
 70
0
 71
3
 72
16
 73
12
 74
0
 42
0.0000001
 43
0.0000001
 44
0.0000000001
 40
0.0
 40
0.0
 40
0.0
 40
0.0
 40
0.1548867785
 40
0.3062168025
 40
0.4499437408
 40
0.5832166224
 40
0.7040512826
 40
0.81207567
 40
0.909135159
 40
0.9549993954
 40
1.0
 40
1.0
 40
1.0
 40
1.0
 10
16.8235156152
 20
21.6190315476
 30
0.0
 10
16.840117538
 20
21.5907226113
 30
0.0
 10
16.8697852908
 20
21.5328339334
 30
0.0
 10
16.9033165738
 20
21.4433595765
 30
0.0
 10
16.9244037198
 20
21.354814564
 30
0.0
 10
16.9322620823
 20
21.2705614844
 30
0.0
 10
16.9265086098
 20
21.1936039413
 30
0.0
 10
16.9071486931
 20
21.1266935401
 30
0.0
 10
16.8790458319
 20
21.0805463298
 30
0.0
 10
16.8506067675
 20
21.0524465891
 30
0.0
 10
16.8347309212
 20
21.0413565005
 30
0.0
 10
16.8264738022
 20
21.036588464
 30
0.0
  0
SPLINE
  5
328
100
AcDbEntity
  8
0
100
AcDbSpline
 62
7
  6
BYLAYER
 70
0
 71
3
 72
9
 73
5
 74
0
 42
0.0000001
 43
0.0000001
 44
0.0000000001
 40
0.0
 40
0.0
 40
0.0
 40
0.0
 40
0.2447930196
 40
1.0
 40
1.0
 40
1.0
 40
1.0
 10
13.7465497865
 20
19.9327568311
 30
0.0
 10
13.7531094736
 20
19.9290588837
 30
0.0
 10
13.7797198344
 20
19.9136229657
 30
0.0
 10
13.8055878445
 20
19.8969154515
 30
0.0
 10
13.8246915167
 20
19.8836962717
 30
0.0
  0
SPLINE
  5
329
100
AcDbEntity
  8
0
100
AcDbSpline
 62
7
  6
BYLAYER
 70
0
 71
3
 72
16
 73
12
 74
0
 42
0.0000001
 43
0.0000001
 44
0.0000000001
 40
0.0
 40
0.0
 40
0.0
 40
0.0
 40
0.0452173595
 40
0.0912409324
 40
0.1884312934
 40
0.296398972
 40
0.4170102938
 40
0.5499708399
 40
0.693468208
 40
0.8447984604
 40
1.0
 40
1.0
 40
1.0
 40
1.0
 10
14.8190018638
 20
24.4730998416
 30
0.0
 10
14.8271420864
 20
24.4778077948
 30
0.0
 10
14.8444149577
 20
24.4859223284
 30
0.0
 10
14.8823167302
 20
24.4964703648
 30
0.0
 10
14.9353548145
 20
24.4980635049
 30
0.0
 10
15.0018388038
 20
24.4822951387
 30
0.0
 10
15.0702831056
 20
24.4501468797
 30
0.0
 10
15.1384100072
 20
24.4029266375
 30
0.0
 10
15.2039043789
 20
24.342335678
 30
0.0
 10
15.2643437675
 20
24.2706056015
 30
0.0
 10
15.2997045845
 20
24.2173733048
 30
0.0
 10
15.3160325626
 20
24.1895314882
 30
0.0
  0
SPLINE
  5
32A
100
AcDbEntity
  8
0
100
AcDbSpline
 62
7
  6
BYLAYER
 70
0
 71
3
 72
23
 73
19
 74
0
 42
0.0000001
 43
0.0000001
 44
0.0000000001
 40
0.0
 40
0.0
 40
0.0
 40
0.0
 40
0.0776437682
 40
0.1548875836
 40
0.2311628643
 40
0.3060171979
 40
0.3790110737
 40
0.4497276345
 40
0.5178153399
 40
0.5829872287
 40
0.6450347843
 40
0.7038512892
 40
0.7594451998
 40
0.811968235
 40
0.8617268607
 40
0.9091990643
 40
0.9550298852
 40
1.0
 40
1.0
 40
1.0
 40
1.0
 10
25.5303798896
 20
21.1598992002
 30
0.0
 10
25.6103479079
 20
21.0235409268
 30
0.0
 10
25.7621390864
 20
20.7469064058
 30
0.0
 10
25.9647215093
 20
20.3218321272
 30
0.0
 10
26.1400390918
 20
19.8909023723
 30
0.0
 10
26.2863748555
 20
19.4584032702
 30
0.0
 10
26.4023748699
 20
19.0284861856
 30
0.0
 10
26.4868467438
 20
18.6052885586
 30
0.0
 10
26.5390108428
 20
18.1929141865
 30
0.0
 10
26.5583241117
 20
17.7953178176
 30
0.0
 10
26.544560945
 20
17.4163106171
 30
0.0
 10
26.4978248873
 20
17.0595125402
 30
0.0
 10
26.4184030377
 20
16.7283391348
 30
0.0
 10
26.3069620454
 20
16.4259648126
 30
0.0
 10
26.1643212158
 20
16.1553908146
 30
0.0
 10
25.9916167221
 20
15.9194167544
 30
0.0
 10
25.790492868
 20
15.7207036456
 30
0.0
 10
25.6380705238
 20
15.6142202042
 30
0.0
 10
25.5587814346
 20
15.5684407875
 30
0.0
  0
SPLINE
  5
32B
100
AcDbEntity
  8
0
100
AcDbSpline
 62
7
  6
BYLAYER
 70
0
 71
3
 72
9
 73
5
 74
0
 42
0.0000001
 43
0.0000001
 44
0.0000000001
 40
0.0
 40
0.0
 40
0.0
 40
0.0
 40
0.2555364427
 40
1.0
 40
1.0
 40
1.0
 40
1.0
 10
9.4426719523
 20
29.2495830159
 30
0.0
 10
9.4325393292
 20
29.2319695973
 30
0.0
 10
9.3913295883
 20
29.1639562728
 30
0.0
 10
9.3436972464
 20
29.099785787
 30
0.0
 10
9.3048016143
 20
29.055157862
 30
0.0
  0
SPLINE
  5
32C
100
AcDbEntity
  8
0
100
AcDbSpline
 62
7
  6
BYLAYER
 70
0
 71
3
 72
9
 73
5
 74
0
 42
0.0000001
 43
0.0000001
 44
0.0000000001
 40
0.0
 40
0.0
 40
0.0
 40
0.0
 40
0.504624748
 40
1.0
 40
1.0
 40
1.0
 40
1.0
 10
9.3048016143
 20
29.055157862
 30
0.0
 10
9.2670744626
 20
29.0118706237
 30
0.0
 10
9.1856332093
 20
28.9316321683
 30
0.0
 10
9.0921150473
 20
28.8657734226
 30
0.0
 10
9.0434866742
 20
28.8372665265
 30
0.0
  0
SPLINE
  5
32D
100
AcDbEntity
  8
0
100
AcDbSpline
 62
7
  6
BYLAYER
 70
0
 71
3
 72
15
 73
11
 74
0
 42
0.0000001
 43
0.0000001
 44
0.0000000001
 40
0.0
 40
0.0
 40
0.0
 40
0.0
 40
0.0994173322
 40
0.2072780472
 40
0.3236725172
 40
0.4480578827
 40
0.5794074177
 40
0.7163002815
 40
0.8571393366
 40
1.0
 40
1.0
 40
1.0
 40
1.0
 10
6.3167866025
 20
34.3040576987
 30
0.0
 10
6.4256342505
 20
34.2892287506
 30
0.0
 10
6.6498739362
 20
34.2364311216
 30
0.0
 10
6.9820582719
 20
34.1008962212
 30
0.0
 10
7.3172269143
 20
33.9089513555
 30
0.0
 10
7.6488459726
 20
33.66449578
 30
0.0
 10
7.9705219277
 20
33.3723773482
 30
0.0
 10
8.2760072042
 20
33.0383826382
 30
0.0
 10
8.5591266028
 20
32.6691675831
 30
0.0
 10
8.7288520512
 20
32.4051130944
 30
0.0
 10
8.8087084133
 20
32.2689452128
 30
0.0
  0
SPLINE
  5
32E
100
AcDbEntity
  8
0
100
AcDbSpline
 62
7
  6
BYLAYER
 70
0
 71
3
 72
11
 73
7
 74
0
 42
0.0000001
 43
0.0000001
 44
0.0000000001
 40
0.0
 40
0.0
 40
0.0
 40
0.0
 40
0.2427257774
 40
0.4884695605
 40
0.7400583613
 40
1.0
 40
1.0
 40
1.0
 40
1.0
 10
5.9877012663
 20
34.1166345792
 30
0.0
 10
6.028110645
 20
34.139966361
 30
0.0
 10
6.1127875777
 20
34.1813600359
 30
0.0
 10
6.2483217138
 20
34.2259456402
 30
0.0
 10
6.3917498008
 20
34.2530384318
 30
0.0
 10
6.4901682505
 20
34.2591934478
 30
0.0
 10
6.5401383582
 20
34.2594929035
 30
0.0
  0
SPLINE
  5
32F
100
AcDbEntity
  8
0
100
AcDbSpline
 62
7
  6
BYLAYER
 70
0
 71
3
 72
23
 73
19
 74
0
 42
0.0000001
 43
0.0000001
 44
0.0000000001
 40
0.0
 40
0.0
 40
0.0
 40
0.0
 40
0.0449702741
 40
0.0908010871
 40
0.1382730869
 40
0.1880313996
 40
0.2405538679
 40
0.2961471508
 40
0.3549629137
 40
0.4170097776
 40
0.4821810397
 40
0.5502683471
 40
0.6209847897
 40
0.6939788053
 40
0.7688334256
 40
0.8451097027
 40
0.9223552648
 40
1.0
 40
1.0
 40
1.0
 40
1.0
 10
4.7591555134
 20
35.4280553386
 30
0.0
 10
4.6798663997
 20
35.3822753107
 30
0.0
 10
4.5274432536
 20
35.275792472
 30
0.0
 10
4.3263205075
 20
35.077078391
 30
0.0
 10
4.1536150811
 20
34.8411063482
 30
0.0
 10
4.0109768652
 20
34.5705334182
 30
0.0
 10
3.8995350288
 20
34.2681627761
 30
0.0
 10
3.8201142081
 20
33.9369931173
 30
0.0
 10
3.7733770099
 20
33.5801994684
 30
0.0
 10
3.7596131008
 20
33.2011964719
 30
0.0
 10
3.7789241386
 20
32.8036035051
 30
0.0
 10
3.8310865954
 20
32.3912312397
 30
0.0
 10
3.9155567756
 20
31.9680340617
 30
0.0
 10
4.0315550764
 20
31.5381158384
 30
0.0
 10
4.177890666
 20
31.1056136084
 30
0.0
 10
4.3532090248
 20
30.6746774686
 30
0.0
 10
4.5557950523
 20
30.2495965161
 30
0.0
 10
4.7075881343
 20
29.9729567316
 30
0.0
 10
4.7875571507
 20
29.8365967563
 30
0.0
  0
SPLINE
  5
330
100
AcDbEntity
  8
0
100
AcDbSpline
 62
7
  6
BYLAYER
 70
0
 71
3
 72
23
 73
19
 74
0
 42
0.0000001
 43
0.0000001
 44
0.0000000001
 40
0.0
 40
0.0
 40
0.0
 40
0.0
 40
0.0451331368
 40
0.0911049341
 40
0.1386786757
 40
0.1884875785
 40
0.241006972
 40
0.2965454708
 40
0.3552629354
 40
0.4171804016
 40
0.4822047746
 40
0.5501453432
 40
0.6207325971
 40
0.6936330174
 40
0.7684479923
 40
0.8447581339
 40
0.9221272772
 40
1.0
 40
1.0
 40
1.0
 40
1.0
 10
6.703691158
 20
36.5507265922
 30
0.0
 10
6.7817948378
 20
36.595821585
 30
0.0
 10
6.9475349445
 20
36.6735751114
 30
0.0
 10
7.2156110879
 20
36.7482419242
 30
0.0
 10
7.5013159535
 20
36.7809474764
 30
0.0
 10
7.8016588127
 20
36.7716281056
 30
0.0
 10
8.1137804265
 20
36.7206117908
 30
0.0
 10
8.4348046847
 20
36.6286522039
 30
0.0
 10
8.7617897969
 20
36.4966831544
 30
0.0
 10
9.0917633
 20
36.3260509644
 30
0.0
 10
9.4216939088
 20
36.1183851874
 30
0.0
 10
9.7485181924
 20
35.875629531
 30
0.0
 10
10.0692252525
 20
35.6000931133
 30
0.0
 10
10.3807754272
 20
35.2943338162
 30
0.0
 10
10.6802944706
 20
34.9612666995
 30
0.0
 10
10.9649737792
 20
34.6039527827
 30
0.0
 10
11.2320433254
 20
34.2258192852
 30
0.0
 10
11.3965350205
 20
33.9625816311
 30
0.0
 10
11.4752543949
 20
33.8283524955
 30
0.0
  0
SPLINE
  5
331
100
AcDbEntity
  8
0
100
AcDbSpline
 62
7
  6
BYLAYER
 70
0
 71
3
 72
21
 73
17
 74
0
 42
0.0000001
 43
0.0000001
 44
0.0000000001
 40
0.0
 40
0.0
 40
0.0
 40
0.0
 40
0.045349349
 40
0.0923705615
 40
0.1415160905
 40
0.1931252363
 40
0.2474163189
 40
0.3045042245
 40
0.3644038195
 40
0.4270493155
 40
0.4923004391
 40
0.5599603328
 40
0.629782903
 40
0.7014737972
 40
0.8490877047
 40
1.0
 40
1.0
 40
1.0
 40
1.0
 10
13.6302495542
 20
40.4874423956
 30
0.0
 10
13.7115427031
 20
40.5097147841
 30
0.0
 10
13.8807064591
 20
40.5428339729
 30
0.0
 10
14.1440549171
 20
40.5574340926
 30
0.0
 10
14.4187049501
 20
40.5378916156
 30
0.0
 10
14.7024569046
 20
40.4844052344
 30
0.0
 10
14.9932021398
 20
40.3975835231
 30
0.0
 10
15.2887368922
 20
40.2781079987
 30
0.0
 10
15.5868606099
 20
40.1269795187
 30
0.0
 10
15.8853094367
 20
39.9453565085
 30
0.0
 10
16.181829598
 20
39.7346573653
 30
0.0
 10
16.4741639174
 20
39.4965003476
 30
0.0
 10
16.7600727726
 20
39.2326971824
 30
0.0
 10
17.1333865077
 20
38.8457877455
 30
0.0
 10
17.5690420658
 20
38.3113688416
 30
0.0
 10
17.8740686033
 20
37.8465668026
 30
0.0
 10
18.0159648891
 20
37.6046109188
 30
0.0
  0
SPLINE
  5
332
100
AcDbEntity
  8
0
100
AcDbSpline
 62
7
  6
BYLAYER
 70
0
 71
3
 72
11
 73
7
 74
0
 42
0.0000001
 43
0.0000001
 44
0.0000000001
 40
0.0
 40
0.0
 40
0.0
 40
0.0
 40
0.2387524808
 40
0.4830277965
 40
0.7365001927
 40
1.0
 40
1.0
 40
1.0
 40
1.0
 10
18.9553524881
 20
30.7574041308
 30
0.0
 10
18.9774611562
 20
30.7701685001
 30
0.0
 10
19.0186257326
 20
30.8027236376
 30
0.0
 10
19.0651758272
 20
30.8672866962
 30
0.0
 10
19.096104442
 20
30.9432628886
 30
0.0
 10
19.1065458278
 20
30.9978921499
 30
0.0
 10
19.1096048541
 20
31.0259005808
 30
0.0
  0
SPLINE
  5
333
100
AcDbEntity
  8
0
100
AcDbSpline
 62
7
  6
BYLAYER
 70
0
 71
3
 72
28
 73
24
 74
0
 42
0.0000001
 43
0.0000001
 44
0.0000000001
 40
0.0
 40
0.0
 40
0.0
 40
0.0
 40
0.0817795642
 40
0.162833478
 40
0.2422568991
 40
0.319315591
 40
0.3933121709
 40
0.4636666155
 40
0.5299563016
 40
0.5919511956
 40
0.6496700365
 40
0.7034314148
 40
0.7290506242
 40
0.7539622475
 40
0.7783073001
 40
0.8022437329
 40
0.8259454912
 40
0.8495952215
 40
0.8733771719
 40
0.89747137
 40
0.922044779
 40
0.9472490244
 40
1.0
 40
1.0
 40
1.0
 40
1.0
 10
5.50956758
 20
30.2733326159
 30
0.0
 10
5.4392072093
 20
30.3933083119
 30
0.0
 10
5.3076813755
 20
30.6373422133
 30
0.0
 10
5.1388263382
 20
31.0135539139
 30
0.0
 10
5.0012786032
 20
31.3938269731
 30
0.0
 10
4.897170643
 20
31.7721770882
 30
0.0
 10
4.8280844188
 20
32.1428380341
 30
0.0
 10
4.795116684
 20
32.5001291286
 30
0.0
 10
4.7988398617
 20
32.8386118808
 30
0.0
 10
4.8393222479
 20
33.1531967338
 30
0.0
 10
4.9161083563
 20
33.4390816113
 30
0.0
 10
5.011370467
 20
33.6532432136
 30
0.0
 10
5.1049396108
 20
33.8041977903
 30
0.0
 10
5.1821577542
 20
33.9057201494
 30
0.0
 10
5.2671866637
 20
33.9969326307
 30
0.0
 10
5.3597247274
 20
34.0774376528
 30
0.0
 10
5.4594043071
 20
34.1468710385
 30
0.0
 10
5.5657848799
 20
34.2049802308
 30
0.0
 10
5.6784438356
 20
34.2514919163
 30
0.0
 10
5.7968998472
 20
34.2862121567
 30
0.0
 10
5.9206669926
 20
34.3090602696
 30
0.0
 10
6.0946291103
 20
34.3237717531
 30
0.0
 10
6.227892304
 20
34.316168286
 30
0.0
 10
6.3167866025
 20
34.3040576987
 30
0.0
  0
SPLINE
  5
334
100
AcDbEntity
  8
0
100
AcDbSpline
 62
7
  6
BYLAYER
 70
0
 71
3
 72
9
 73
5
 74
0
 42
0.0000001
 43
0.0000001
 44
0.0000000001
 40
0.0
 40
0.0
 40
0.0
 40
0.0
 40
0.4862151825
 40
1.0
 40
1.0
 40
1.0
 40
1.0
 10
14.3949466276
 20
23.9027204522
 30
0.0
 10
14.4024809138
 20
23.8574513772
 30
0.0
 10
14.4281284298
 20
23.7659251074
 30
0.0
 10
14.4691917284
 20
23.6804014941
 30
0.0
 10
14.4937237947
 20
23.6385703936
 30
0.0
  0
SPLINE
  5
335
100
AcDbEntity
  8
0
100
AcDbSpline
 62
7
  6
BYLAYER
 70
0
 71
3
 72
10
 73
6
 74
0
 42
0.0000001
 43
0.0000001
 44
0.0000000001
 40
0.0
 40
0.0
 40
0.0
 40
0.0
 40
0.4797803613
 40
0.7349700134
 40
1.0
 40
1.0
 40
1.0
 40
1.0
 10
21.0943420985
 20
13.6216649541
 30
0.0
 10
21.1448563073
 20
13.7786397516
 30
0.0
 10
21.2006612364
 20
14.0264629402
 30
0.0
 10
21.2396115821
 20
14.368067731
 30
0.0
 10
21.2478149392
 20
14.5468583616
 30
0.0
 10
21.2491611012
 20
14.6379402157
 30
0.0
  0
SPLINE
  5
336
100
AcDbEntity
  8
0
100
AcDbSpline
 62
7
  6
BYLAYER
 70
0
 71
3
 72
9
 73
5
 74
0
 42
0.0000001
 43
0.0000001
 44
0.0000000001
 40
0.0
 40
0.0
 40
0.0
 40
0.0
 40
0.4889705971
 40
1.0
 40
1.0
 40
1.0
 40
1.0
 10
15.3692580132
 20
20.7672939033
 30
0.0
 10
15.3564026779
 20
20.7598809938
 30
0.0
 10
15.3279357206
 20
20.7482503201
 30
0.0
 10
15.2975210077
 20
20.7442479017
 30
0.0
 10
15.2820156356
 20
20.743914578
 30
0.0
  0
SPLINE
  5
337
100
AcDbEntity
  8
0
100
AcDbSpline
 62
7
  6
BYLAYER
 70
0
 71
3
 72
9
 73
5
 74
0
 42
0.0000001
 43
0.0000001
 44
0.0000000001
 40
0.0
 40
0.0
 40
0.0
 40
0.0
 40
0.2402507511
 40
1.0
 40
1.0
 40
1.0
 40
1.0
 10
15.2820156356
 20
20.743914578
 30
0.0
 10
15.2767816902
 20
20.7438020623
 30
0.0
 10
15.2549809668
 20
20.7441323669
 30
0.0
 10
15.2332732192
 20
20.7475518813
 30
0.0
 10
15.2171929669
 20
20.7514889992
 30
0.0
  0
SPLINE
  5
338
100
AcDbEntity
  8
0
100
AcDbSpline
 62
7
  6
BYLAYER
 70
0
 71
3
 72
9
 73
5
 74
0
 42
0.0000001
 43
0.0000001
 44
0.0000000001
 40
0.0
 40
0.0
 40
0.0
 40
0.0
 40
0.2365339527
 40
1.0
 40
1.0
 40
1.0
 40
1.0
 10
15.2171929669
 20
20.7514889992
 30
0.0
 10
15.2094252653
 20
20.7533908572
 30
0.0
 10
15.1769153907
 20
20.7627685818
 30
0.0
 10
15.1459096991
 20
20.7770020309
 30
0.0
 10
15.1234240183
 20
20.7896780719
 30
0.0
  0
SPLINE
  5
339
100
AcDbEntity
  8
0
100
AcDbSpline
 62
7
  6
BYLAYER
 70
0
 71
3
 72
15
 73
11
 74
0
 42
0.0000001
 43
0.0000001
 44
0.0000000001
 40
0.0
 40
0.0
 40
0.0
 40
0.0
 40
0.1161188066
 40
0.233183634
 40
0.3520973427
 40
0.4736881757
 40
0.5987048693
 40
0.7277988043
 40
0.8614685453
 40
1.0
 40
1.0
 40
1.0
 40
1.0
 10
12.1591098269
 20
22.6108819644
 30
0.0
 10
12.2659593837
 20
22.6725732294
 30
0.0
 10
12.4738210973
 20
22.808512835
 30
0.0
 10
12.7629634473
 20
23.0470283108
 30
0.0
 10
13.0288767222
 20
23.3193924007
 30
0.0
 10
13.2704065755
 20
23.6243747434
 30
0.0
 10
13.4865987495
 20
23.9606825768
 30
0.0
 10
13.6766361686
 20
24.3268973959
 30
0.0
 10
13.8397144404
 20
24.721383391
 30
0.0
 10
13.9284910961
 20
24.9970014749
 30
0.0
 10
13.9684295605
 20
25.1386738565
 30
0.0
  0
SPLINE
  5
33A
100
AcDbEntity
  8
0
100
AcDbSpline
 62
7
  6
BYLAYER
 70
0
 71
3
 72
27
 73
23
 74
0
 42
0.0000001
 43
0.0000001
 44
0.0000000001
 40
0.0
 40
0.0
 40
0.0
 40
0.0
 40
0.0529717681
 40
0.102922702
 40
0.1271290764
 40
0.1510154324
 40
0.1747578677
 40
0.1985366781
 40
0.2225316491
 40
0.246914018
 40
0.2718407873
 40
0.2974529248
 40
0.3511354905
 40
0.4087031288
 40
0.4704966366
 40
0.5365607637
 40
0.6066957076
 40
0.6805084127
 40
0.7574465752
 40
0.8368429278
 40
0.9179893909
 40
1.0
 40
1.0
 40
1.0
 40
1.0
 10
9.364532687
 20
29.0251731996
 30
0.0
 10
9.3309586824
 20
28.9430756016
 30
0.0
 10
9.2532048111
 20
28.7882085925
 30
0.0
 10
9.1235841017
 20
28.6175485868
 30
0.0
 10
9.0052543468
 20
28.5033761706
 30
0.0
 10
8.9102363963
 20
28.4292455453
 30
0.0
 10
8.8084618989
 20
28.3660579433
 30
0.0
 10
8.7003419675
 20
28.3140496977
 30
0.0
 10
8.5862999403
 20
28.2734787378
 30
0.0
 10
8.4668222747
 20
28.2444563218
 30
0.0
 10
8.342377643
 20
28.2270717706
 30
0.0
 10
8.1678115423
 20
28.219414509
 30
0.0
 10
7.9384223039
 20
28.240583043
 30
0.0
 10
7.6566157924
 20
28.3120104953
 30
0.0
 10
7.3678562754
 20
28.4283247869
 30
0.0
 10
7.0763656319
 20
28.5876381135
 30
0.0
 10
6.786367842
 20
28.7875145937
 30
0.0
 10
6.5021375127
 20
29.0249184328
 30
0.0
 10
6.2279009417
 20
29.2962572378
 30
0.0
 10
5.967747123
 20
29.5975070863
 30
0.0
 10
5.7256906815
 20
29.924058969
 30
0.0
 10
5.579035299
 20
30.1548790337
 30
0.0
 10
5.50956758
 20
30.2733326159
 30
0.0
  0
SPLINE
  5
33B
100
AcDbEntity
  8
0
100
AcDbSpline
 62
7
  6
BYLAYER
 70
0
 71
3
 72
11
 73
7
 74
0
 42
0.0000001
 43
0.0000001
 44
0.0000000001
 40
0.0
 40
0.0
 40
0.0
 40
0.0
 40
0.2672400423
 40
0.5202841411
 40
0.7628780441
 40
1.0
 40
1.0
 40
1.0
 40
1.0
 10
16.6971405023
 20
21.0161968478
 30
0.0
 10
16.5844769907
 20
21.0340062082
 30
0.0
 10
16.3623622769
 20
21.0538896452
 30
0.0
 10
16.0360377842
 20
21.0318325017
 30
0.0
 10
15.7307662868
 20
20.9566495386
 30
0.0
 10
15.5431899963
 20
20.8710392883
 30
0.0
 10
15.4555349335
 20
20.8204472211
 30
0.0
  0
SPLINE
  5
33C
100
AcDbEntity
  8
0
100
AcDbSpline
 62
7
  6
BYLAYER
 70
0
 71
3
 72
11
 73
7
 74
0
 42
0.0000001
 43
0.0000001
 44
0.0000000001
 40
0.0
 40
0.0
 40
0.0
 40
0.0
 40
0.240801853
 40
0.4896915955
 40
0.7436160604
 40
1.0
 40
1.0
 40
1.0
 40
1.0
 10
19.1096048541
 20
31.0259005808
 30
0.0
 10
19.114034293
 20
31.0664565024
 30
0.0
 10
19.1134757292
 20
31.150106462
 30
0.0
 10
19.0901120473
 20
31.2744107001
 30
0.0
 10
19.0476746121
 20
31.3962734813
 30
0.0
 10
19.0085493521
 20
31.4736796601
 30
0.0
 10
18.9865754714
 20
31.5111486447
 30
0.0
  0
SPLINE
  5
33D
100
AcDbEntity
  8
0
100
AcDbSpline
 62
7
  6
BYLAYER
 70
0
 71
3
 72
11
 73
7
 74
0
 42
0.0000001
 43
0.0000001
 44
0.0000000001
 40
0.0
 40
0.0
 40
0.0
 40
0.0
 40
0.2643772956
 40
0.5185217117
 40
0.7633273946
 40
1.0
 40
1.0
 40
1.0
 40
1.0
 10
15.5594131942
 20
26.0572232027
 30
0.0
 10
15.5158590622
 20
25.9027250842
 30
0.0
 10
15.4182368599
 20
25.60295159
 30
0.0
 10
15.2360609275
 20
25.1760949974
 30
0.0
 10
15.0219103194
 20
24.7833445548
 30
0.0
 10
14.8559497796
 20
24.5418889087
 30
0.0
 10
14.7680942597
 20
24.4281756442
 30
0.0
  0
SPLINE
  5
33E
100
AcDbEntity
  8
0
100
AcDbSpline
 62
7
  6
BYLAYER
 70
0
 71
3
 72
15
 73
11
 74
0
 42
0.0000001
 43
0.0000001
 44
0.0000000001
 40
0.0
 40
0.0
 40
0.0
 40
0.0
 40
0.1110397077
 40
0.2273867787
 40
0.3484508948
 40
0.4736453197
 40
0.60223102
 40
0.733397141
 40
0.8663260744
 40
1.0
 40
1.0
 40
1.0
 40
1.0
 10
21.2491611012
 20
14.6379402157
 30
0.0
 10
21.2511575057
 20
14.7730177344
 30
0.0
 10
21.2425478648
 20
15.0499253812
 30
0.0
 10
21.195181779
 20
15.4715964207
 30
0.0
 10
21.11344811
 20
15.9055004589
 30
0.0
 10
20.9982347194
 20
16.3470950854
 30
0.0
 10
20.8507747343
 20
16.7919342996
 30
0.0
 10
20.6725022247
 20
17.2354896783
 30
0.0
 10
20.4652757556
 20
17.6731056937
 30
0.0
 10
20.309371861
 20
17.9577832456
 30
0.0
 10
20.2271011105
 20
18.0980680462
 30
0.0
  0
SPLINE
  5
33F
100
AcDbEntity
  8
0
100
AcDbSpline
 62
7
  6
BYLAYER
 70
0
 71
3
 72
15
 73
11
 74
0
 42
0.0000001
 43
0.0000001
 44
0.0000000001
 40
0.0
 40
0.0
 40
0.0
 40
0.0
 40
0.1077638142
 40
0.2176429609
 40
0.3314926094
 40
0.450845609
 40
0.5768292976
 40
0.7101720748
 40
0.8512230796
 40
1.0
 40
1.0
 40
1.0
 40
1.0
 10
9.0331564962
 20
28.8312918452
 30
0.0
 10
8.9826941896
 20
28.8024992378
 30
0.0
 10
8.8755408948
 20
28.7530473094
 30
0.0
 10
8.7022402703
 20
28.7063380824
 30
0.0
 10
8.5175530146
 20
28.6870099329
 30
0.0
 10
8.3234567328
 20
28.6951404121
 30
0.0
 10
8.1218397134
 20
28.7304235344
 30
0.0
 10
7.9146093739
 20
28.7923988769
 30
0.0
 10
7.7037233689
 20
28.8803774453
 30
0.0
 10
7.5655614163
 20
28.9538763205
 30
0.0
 10
7.4963588138
 20
28.9944307086
 30
0.0
  0
SPLINE
  5
340
100
AcDbEntity
  8
0
100
AcDbSpline
 62
7
  6
BYLAYER
 70
0
 71
3
 72
9
 73
5
 74
0
 42
0.0000001
 43
0.0000001
 44
0.0000000001
 40
0.0
 40
0.0
 40
0.0
 40
0.0
 40
0.2440893175
 40
1.0
 40
1.0
 40
1.0
 40
1.0
 10
7.4963588138
 20
28.9944307086
 30
0.0
 10
7.4715057191
 20
29.0089952193
 30
0.0
 10
7.3705770012
 20
29.0701776379
 30
0.0
 10
7.2732122944
 20
29.1371895125
 30
0.0
 10
7.201693523
 20
29.1905122501
 30
0.0
  0
SPLINE
  5
341
100
AcDbEntity
  8
0
100
AcDbSpline
 62
7
  6
BYLAYER
 70
0
 71
3
 72
9
 73
5
 74
0
 42
0.0000001
 43
0.0000001
 44
0.0000000001
 40
0.0
 40
0.0
 40
0.0
 40
0.0
 40
0.2562720242
 40
1.0
 40
1.0
 40
1.0
 40
1.0
 10
5.3812180595
 20
32.3262020128
 30
0.0
 10
5.3772360299
 20
32.3583117988
 30
0.0
 10
5.3634091877
 20
32.483809458
 30
0.0
 10
5.3565847441
 20
32.610112628
 30
0.0
 10
5.3560563534
 20
32.7040108974
 30
0.0
  0
SPLINE
  5
342
100
AcDbEntity
  8
0
100
AcDbSpline
 62
7
  6
BYLAYER
 70
0
 71
3
 72
15
 73
11
 74
0
 42
0.0000001
 43
0.0000001
 44
0.0000000001
 40
0.0
 40
0.0
 40
0.0
 40
0.0
 40
0.1484760747
 40
0.2893674726
 40
0.4226936556
 40
0.5487746233
 40
0.6682991048
 40
0.7823255157
 40
0.892304939
 40
1.0
 40
1.0
 40
1.0
 40
1.0
 10
5.3560563534
 20
32.7040108974
 30
0.0
 10
5.3556126002
 20
32.7828685477
 30
0.0
 10
5.3609764892
 20
32.9366937007
 30
0.0
 10
5.3894608324
 20
33.1597231265
 30
0.0
 10
5.4379249308
 20
33.3671641296
 30
0.0
 10
5.5060614193
 20
33.5570625743
 30
0.0
 10
5.5932967883
 20
33.7276400566
 30
0.0
 10
5.6990353678
 20
33.8771747637
 30
0.0
 10
5.8222571221
 20
34.0040934742
 30
0.0
 10
5.9158759547
 20
34.0730150435
 30
0.0
 10
5.9646403657
 20
34.1029112246
 30
0.0
  0
SPLINE
  5
343
100
AcDbEntity
  8
0
100
AcDbSpline
 62
7
  6
BYLAYER
 70
0
 71
3
 72
9
 73
5
 74
0
 42
0.0000001
 43
0.0000001
 44
0.0000000001
 40
0.0
 40
0.0
 40
0.0
 40
0.0
 40
0.5137844401
 40
1.0
 40
1.0
 40
1.0
 40
1.0
 10
12.5491882424
 20
22.5158989705
 30
0.0
 10
12.524656488
 20
22.557729539
 30
0.0
 10
12.4835935953
 20
22.6432520727
 30
0.0
 10
12.4579460786
 20
22.7347771379
 30
0.0
 10
12.4504116343
 20
22.7800456652
 30
0.0
  0
SPLINE
  5
344
100
AcDbEntity
  8
0
100
AcDbSpline
 62
7
  6
BYLAYER
 70
0
 71
3
 72
11
 73
7
 74
0
 42
0.0000001
 43
0.0000001
 44
0.0000000001
 40
0.0
 40
0.0
 40
0.0
 40
0.0
 40
0.2277271271
 40
0.4739038377
 40
0.733449681
 40
1.0
 40
1.0
 40
1.0
 40
1.0
 10
12.9365751798
 20
22.0224886708
 30
0.0
 10
12.9123642361
 20
22.0361373088
 30
0.0
 10
12.8644769744
 20
22.0690734471
 30
0.0
 10
12.798434111
 20
22.1298522641
 30
0.0
 10
12.7374610713
 20
22.2020157938
 30
0.0
 10
12.7018289001
 20
22.2556222124
 30
0.0
 10
12.6853720153
 20
22.2836838357
 30
0.0
  0
SPLINE
  5
345
100
AcDbEntity
  8
0
100
AcDbSpline
 62
7
  6
BYLAYER
 70
0
 71
3
 72
23
 73
19
 74
0
 42
0.0000001
 43
0.0000001
 44
0.0000000001
 40
0.0
 40
0.0
 40
0.0
 40
0.0
 40
0.0778717581
 40
0.1552391458
 40
0.2315482553
 40
0.306362925
 40
0.3792632079
 40
0.4498505444
 40
0.5177914908
 40
0.5828164677
 40
0.6447346156
 40
0.7034528087
 40
0.7589919565
 40
0.811511926
 40
0.8613211718
 40
0.9088951653
 40
0.9548669797
 40
1.0
 40
1.0
 40
1.0
 40
1.0
 10
9.5307188425
 20
32.7056810724
 30
0.0
 10
9.4520004456
 20
32.8399085413
 30
0.0
 10
9.287512354
 20
33.1031420318
 30
0.0
 10
9.0204468363
 20
33.4812691661
 30
0.0
 10
8.7357727095
 20
33.8385792658
 30
0.0
 10
8.4362564127
 20
34.1716448661
 30
0.0
 10
8.1247083067
 20
34.4774052157
 30
0.0
 10
7.8040015901
 20
34.7529430286
 30
0.0
 10
7.4771765791
 20
34.9957012222
 30
0.0
 10
7.1472441563
 20
35.2033703699
 30
0.0
 10
6.8172676269
 20
35.3740054435
 30
0.0
 10
6.4902791983
 20
35.5059773558
 30
0.0
 10
6.1692513586
 20
35.5979384125
 30
0.0
 10
5.8571268154
 20
35.648956926
 30
0.0
 10
5.5567816794
 20
35.6582748301
 30
0.0
 10
5.2710751896
 20
35.6255716781
 30
0.0
 10
5.0029996275
 20
35.5509019448
 30
0.0
 10
4.8372587347
 20
35.4731506549
 30
0.0
 10
4.7591555134
 20
35.4280553386
 30
0.0
  0
SPLINE
  5
346
100
AcDbEntity
  8
0
100
AcDbSpline
 62
7
  6
BYLAYER
 70
0
 71
3
 72
9
 73
5
 74
0
 42
0.0000001
 43
0.0000001
 44
0.0000000001
 40
0.0
 40
0.0
 40
0.0
 40
0.0
 40
0.5059550732
 40
1.0
 40
1.0
 40
1.0
 40
1.0
 10
21.345029017
 20
13.3417635072
 30
0.0
 10
21.3086992875
 20
13.288061018
 30
0.0
 10
21.2315522463
 20
13.1854196563
 30
0.0
 10
21.1439236824
 20
13.0915216645
 30
0.0
 10
21.098204425
 20
13.0477270195
 30
0.0
  0
SPLINE
  5
347
100
AcDbEntity
  8
0
100
AcDbSpline
 62
7
  6
BYLAYER
 70
0
 71
3
 72
11
 73
7
 74
0
 42
0.0000001
 43
0.0000001
 44
0.0000000001
 40
0.0
 40
0.0
 40
0.0
 40
0.0
 40
0.266550319
 40
0.5260961623
 40
0.7722728729
 40
1.0
 40
1.0
 40
1.0
 40
1.0
 10
14.6299075676
 20
23.4063552589
 30
0.0
 10
14.6463644525
 20
23.3782936356
 30
0.0
 10
14.6819966237
 20
23.3246872169
 30
0.0
 10
14.7429696633
 20
23.2525236873
 30
0.0
 10
14.8090125267
 20
23.1917448703
 30
0.0
 10
14.8568997884
 20
23.1588087319
 30
0.0
 10
14.8811107322
 20
23.145160094
 30
0.0
  0
ENDSEC
  0
SECTION
  2
OBJECTS
  0
DICTIONARY
  5
C
100
AcDbDictionary
280
0
281
1
  3
ACAD_GROUP
350
D
  3
ACAD_MLINESTYLE
350
17
  3
ACAD_LAYOUT
350
1A
  3
ACAD_PLOTSETTINGS
350
19
  3
ACAD_PLOTSTYLENAME
350
E
  0
DICTIONARY
  5
D
102
{ACAD_REACTORS
330
C
102
}
100
AcDbDictionary
280
0
281
1
  0
ACDBDICTIONARYWDFLT
  5
E
102
{ACAD_REACTORS
330
C
102
}
100
AcDbDictionary
281
1
  3
Normal
350
F
100
AcDbDictionaryWithDefault
340
F
  0
DICTIONARY
  5
17
102
{ACAD_REACTORS
330
C
102
}
100
AcDbDictionary
280
0
281
1
  3
Standard
350
18
  0
DICTIONARY
  5
19
102
{ACAD_REACTORS
330
C
102
}
100
AcDbDictionary
281
1
  0
DICTIONARY
  5
1A
102
{ACAD_REACTORS
330
C
102
}
100
AcDbDictionary
281
1
  3
Model
350
348
  3
Layout1
350
349
  0
ACDBPLACEHOLDER
  5
F
102
{ACAD_REACTORS
330
E
102
}
  0
MLINESTYLE
  5
18
102
{ACAD_REACTORS
330
17
102
}
100
AcDbMlineStyle
  2
STANDARD
 70
0
  3

 62
256
 51
90.0
 52
90.0
 71
2
 49
0.5
 62
256
  6
BYLAYER
 49
-0.5
 62
256
  6
BYLAYER
  0
LAYOUT
  5
348
102
{ACAD_REACTORS
330
1A
102
}
100
AcDbPlotSettings
  1

  2
none_device
  4

  6

 40
0.0
 41
0.0
 42
0.0
 43
0.0
 44
210.0
 45
297.0
 46
0.0
 47
0.0
 48
0.0
 49
0.0
140
0.0
141
0.0
142
1.0
143
1.0
 70
1024
 72
1
 73
0
 74
0
  7

 75
0
147
1.0
148
0.0
149
0.0
100
AcDbLayout
  1
Model
 70
0
 71
0
 10
0.0
 20
0.0
 11
210.0
 21
297.0
 12
0.0
 22
0.0
 32
0.0
 14
0.0
 24
0.0
 34
0.0
 15
0.0
 25
0.0
 35
0.0
146
0.0
 13
0.0
 23
0.0
 33
0.0
 16
1.0
 26
0.0
 36
0.0
 17
0.0
 27
1.0
 37
0.0
 76
0
330
210
345
0
346
0
  0
LAYOUT
  5
349
102
{ACAD_REACTORS
330
1A
102
}
100
AcDbPlotSettings
  1

  2
none_device
  4

  6

 40
0.0
 41
0.0
 42
0.0
 43
0.0
 44
210.0
 45
297.0
 46
0.0
 47
0.0
 48
0.0
 49
0.0
140
0.0
141
0.0
142
1.0
143
1.0
 70
0
 72
1
 73
0
 74
0
  7

 75
0
147
1.0
148
0.0
149
0.0
100
AcDbLayout
  1
Layout1
 70
0
 71
1
 10
0.0
 20
0.0
 11
210.0
 21
297.0
 12
0.0
 22
0.0
 32
0.0
 14
0.0
 24
0.0
 34
0.0
 15
0.0
 25
0.0
 35
0.0
146
0.0
 13
0.0
 23
0.0
 33
0.0
 16
1.0
 26
0.0
 36
0.0
 17
0.0
 27
1.0
 37
0.0
 76
0
330
211
345
0
346
0
  0
ENDSEC
  0
EOF
