999
DXF file: C:\Users\sesa63760\Dev\_Creo\CAD\MCADID0004780_3D-CAD\drw0001_1.dxf
999
Pro/ENGINEER 2019471 by Parametric Technology Corporation
  0
SECTION
  2
HEADER
  9
$ACADVER
  1
AC1024
  9
$DWGCODEPAGE
  3
ANSI_1252
  9
$EXTMAX
 10
57.9781477805
 20
81.9976661467
 30
0.0
  9
$EXTMIN
 10
0.0
 20
0.0
 30
0.0
  9
$LIMMIN
 10
0.0
 20
0.0
  9
$LIMMAX
 10
57.9781477805
 20
81.9976661467
  9
$VIEWCTR
 10
28.9890738903
 20
40.9988330734
  9
$VIEWSIZE
 40
81.9976661467
  9
$CLAYER
  8
0
  9
$LTSCALE
 40
5.3450330525
  9
$CELTYPE
  6
BYLAYER
  9
$DIMSCALE
 40
1.0
  9
$DIMASZ
 40
0.690216045
  9
$DIMEXO
 40
1.0
  9
$DIMDLI
 40
3.6929319272
  9
$DIMEXE
 40
1.0
  9
$DIMCEN
 40
0.8746417722
  9
$DIMLFAC
 40
1.0
  9
$DIMBLK
  1
_FILLED
  9
$DIMALT
 70
0
  9
$DIMALTF
 40
0.0393700787
  9
$DIMTXT
 40
0.966302463
  9
$DIMTOL
 70
1
  9
$DIMLIM
 70
0
  9
$DIMTFAC
 40
1.0
  9
$DIMTP
 40
0.01
  9
$DIMTM
 40
0.01
  9
$DIMGAP
 40
0.625
  9
$DIMDSEP
 70
46
  9
$AUNITS
 70
0
  9
$PDMODE
 70
3
  9
$PDSIZE
 40
0.3125
  9
$HANDSEED
  5
2FF
  9
$TILEMODE
 70
1
  9
$MEASUREMENT
 70
1
  9
$INSUNITS
 70
4
  0
ENDSEC
  0
SECTION
  2
CLASSES
  0
CLASS
  1
ACDBDICTIONARYWDFLT
  2
AcDbDictionaryWithDefault
  3
AutoCAD 2000
 90
0
 91
1
280
0
281
0
  0
CLASS
  1
ACDBPLACEHOLDER
  2
AcDbPlaceHolder
  3
AutoCAD 2000
 90
0
 91
1
280
0
281
0
  0
CLASS
  1
LAYOUT
  2
AcDbLayout
  3
AutoCAD 2000
 90
0
 91
0
280
0
281
0
  0
ENDSEC
  0
SECTION
  2
TABLES
  0
TABLE
  2
VPORT
  5
8
100
AcDbSymbolTable
 70
2
  0
VPORT
  5
1F4
100
AcDbSymbolTableRecord
100
AcDbViewportTableRecord
  2
*ACTIVE
 70
0
 10
0.0
 20
0.0
 11
1.0
 21
1.0
 12
28.9890738903
 22
40.9988330734
 13
0.0
 23
0.0
 14
1.0
 24
1.0
 15
0.0
 25
0.0
 16
0.0
 26
0.0
 36
1.0
 17
0.0
 27
0.0
 37
0.0
 40
81.9976661467
 41
0.7070707071
 42
50.0
 43
0.0
 44
0.0
 50
0.0
 51
0.0
 71
0
 72
100
 73
1
 74
1
 75
0
 76
0
 77
0
 78
0
  0
ENDTAB
  0
TABLE
  2
LTYPE
  5
5
100
AcDbSymbolTable
 70
6
  0
LTYPE
  5
14
100
AcDbSymbolTableRecord
100
AcDbLinetypeTableRecord
  2
BYBLOCK
 70
0
  3

 72
65
 73
0
 40
0.0
  0
LTYPE
  5
15
100
AcDbSymbolTableRecord
100
AcDbLinetypeTableRecord
  2
BYLAYER
 70
0
  3

 72
65
 73
0
 40
0.0
  0
LTYPE
  5
16
100
AcDbSymbolTableRecord
100
AcDbLinetypeTableRecord
  2
CONTINUOUS
 70
64
  3
Solid line
 72
65
 73
0
 40
0.0
  0
LTYPE
  5
1F5
100
AcDbSymbolTableRecord
100
AcDbLinetypeTableRecord
  2
CENTER
 70
64
  3
____ _ ____ _ ____ _ ____ _ ____ _ ____ _ ____
 72
65
 73
4
 40
0.6
 49
0.375
 74
0
 49
-0.075
 74
0
 49
0.075
 74
0
 49
-0.075
 74
0
  0
LTYPE
  5
1F6
100
AcDbSymbolTableRecord
100
AcDbLinetypeTableRecord
  2
HIDDEN
 70
64
  3
- - - - - - - - - - - - - - - - - - - -
 72
65
 73
2
 40
0.2
 49
0.1
 74
0
 49
-0.1
 74
0
  0
LTYPE
  5
1F7
100
AcDbSymbolTableRecord
100
AcDbLinetypeTableRecord
  2
PHANTOM
 70
64
  3
_____ _ _ _____ _ _ _____ _ _ _____
 72
65
 73
6
 40
0.8
 49
0.45
 74
0
 49
-0.05
 74
0
 49
0.1
 74
0
 49
-0.05
 74
0
 49
0.1
 74
0
 49
-0.05
 74
0
  0
LTYPE
  5
1F8
100
AcDbSymbolTableRecord
100
AcDbLinetypeTableRecord
  2
DOT
 70
64
  3
. . . . . . . . . . . . . . . . . . . .
 72
65
 73
2
 40
0.2
 49
0.1
 74
0
 49
-0.1
 74
0
  0
LTYPE
  5
1F9
100
AcDbSymbolTableRecord
100
AcDbLinetypeTableRecord
  2
DASHED
 70
64
  3
- - - - - - - - - - - - - - - - - - - -
 72
65
 73
2
 40
0.2
 49
0.1
 74
0
 49
-0.1
 74
0
  0
ENDTAB
  0
TABLE
  2
LAYER
  5
2
100
AcDbSymbolTable
 70
36
  0
LAYER
  5
10
100
AcDbSymbolTableRecord
100
AcDbLayerTableRecord
  2
0
 70
0
 62
7
  6
CONTINUOUS
370
-3
390
F
  0
LAYER
  5
1FA
100
AcDbSymbolTableRecord
100
AcDbLayerTableRecord
  2
DEFAULT_1
 70
0
 62
7
  6
CENTER
370
-3
390
F
  0
LAYER
  5
1FB
100
AcDbSymbolTableRecord
100
AcDbLayerTableRecord
  2
DEFAULT_2
 70
0
 62
7
  6
HIDDEN
370
-3
390
F
  0
LAYER
  5
1FC
100
AcDbSymbolTableRecord
100
AcDbLayerTableRecord
  2
DEFAULT_3
 70
0
 62
7
  6
PHANTOM
370
-3
390
F
  0
LAYER
  5
1FD
100
AcDbSymbolTableRecord
100
AcDbLayerTableRecord
  2
00_COMPONENTS
 70
0
 62
7
  6
CONTINUOUS
370
-3
390
F
  0
LAYER
  5
1FE
100
AcDbSymbolTableRecord
100
AcDbLayerTableRecord
  2
01_1_DEFAULT_DATUMS
 70
0
 62
7
  6
CONTINUOUS
370
-3
390
F
  0
LAYER
  5
1FF
100
AcDbSymbolTableRecord
100
AcDbLayerTableRecord
  2
01_PLANES
 70
0
 62
7
  6
CONTINUOUS
370
-3
390
F
  0
LAYER
  5
200
100
AcDbSymbolTableRecord
100
AcDbLayerTableRecord
  2
02_COORD_SYS
 70
0
 62
7
  6
CONTINUOUS
370
-3
390
F
  0
LAYER
  5
201
100
AcDbSymbolTableRecord
100
AcDbLayerTableRecord
  2
03_AXES
 70
0
 62
7
  6
CONTINUOUS
370
-3
390
F
  0
LAYER
  5
202
100
AcDbSymbolTableRecord
100
AcDbLayerTableRecord
  2
04_POINTS
 70
0
 62
7
  6
CONTINUOUS
370
-3
390
F
  0
LAYER
  5
203
100
AcDbSymbolTableRecord
100
AcDbLayerTableRecord
  2
05_CURVES
 70
0
 62
7
  6
CONTINUOUS
370
-3
390
F
  0
LAYER
  5
204
100
AcDbSymbolTableRecord
100
AcDbLayerTableRecord
  2
06_SURFS
 70
0
 62
7
  6
CONTINUOUS
370
-3
390
F
  0
LAYER
  5
205
100
AcDbSymbolTableRecord
100
AcDbLayerTableRecord
  2
07_COSMETICS
 70
0
 62
7
  6
CONTINUOUS
370
-3
390
F
  0
LAYER
  5
206
100
AcDbSymbolTableRecord
100
AcDbLayerTableRecord
  2
10_NOTES
 70
0
 62
7
  6
CONTINUOUS
370
-3
390
F
  0
LAYER
  5
207
100
AcDbSymbolTableRecord
100
AcDbLayerTableRecord
  2
11_NOTES_PUB
 70
0
 62
7
  6
CONTINUOUS
370
-3
390
F
  0
LAYER
  5
208
100
AcDbSymbolTableRecord
100
AcDbLayerTableRecord
  2
13_REF_GTOL
 70
0
 62
7
  6
CONTINUOUS
370
-3
390
F
  0
LAYER
  5
209
100
AcDbSymbolTableRecord
100
AcDbLayerTableRecord
  2
16_MISC
 70
0
 62
7
  6
CONTINUOUS
370
-3
390
F
  0
LAYER
  5
20A
100
AcDbSymbolTableRecord
100
AcDbLayerTableRecord
  2
17_NO_PRINT
 70
0
 62
7
  6
CONTINUOUS
370
-3
390
F
  0
LAYER
  5
20B
100
AcDbSymbolTableRecord
100
AcDbLayerTableRecord
  2
18_DATUM_CAMS_JOINTS
 70
0
 62
7
  6
CONTINUOUS
370
-3
390
F
  0
LAYER
  5
20C
100
AcDbSymbolTableRecord
100
AcDbLayerTableRecord
  2
19_DATUM_FUNCTIONAL
 70
0
 62
7
  6
CONTINUOUS
370
-3
390
F
  0
LAYER
  5
20D
100
AcDbSymbolTableRecord
100
AcDbLayerTableRecord
  2
20_DATUM_KINEMATIC_SCHEME
 70
0
 62
7
  6
CONTINUOUS
370
-3
390
F
  0
ENDTAB
  0
TABLE
  2
STYLE
  5
3
100
AcDbSymbolTable
 70
1
  0
STYLE
  5
11
100
AcDbSymbolTableRecord
100
AcDbTextStyleTableRecord
  2
STANDARD
 70
0
 40
0.0
 41
1.0
 50
0.0
 71
0
 42
0.2
  3
ARIAL.TTF
  4

  0
STYLE
  5
20E
100
AcDbSymbolTableRecord
100
AcDbTextStyleTableRecord
  2
TEXTSTYLE_1
 70
0
 40
0.0
 41
0.8
 50
0.0
 71
0
 42
0.2
  3
gdt
  4

  0
ENDTAB
  0
TABLE
  2
VIEW
  5
6
100
AcDbSymbolTable
 70
0
  0
ENDTAB
  0
TABLE
  2
UCS
  5
7
100
AcDbSymbolTable
 70
0
  0
ENDTAB
  0
TABLE
  2
APPID
  5
9
100
AcDbSymbolTable
 70
1
  0
APPID
  5
20F
100
AcDbSymbolTableRecord
100
AcDbRegAppTableRecord
  2
ACAD
 70
0
  0
ENDTAB
  0
TABLE
  2
BLOCK_RECORD
  5
1
100
AcDbSymbolTable
 70
0
  0
BLOCK_RECORD
  5
210
100
AcDbSymbolTableRecord
100
AcDbBlockTableRecord
  2
*Model_Space
  0
BLOCK_RECORD
  5
211
100
AcDbSymbolTableRecord
100
AcDbBlockTableRecord
  2
*Paper_Space
  0
BLOCK_RECORD
  5
212
100
AcDbSymbolTableRecord
100
AcDbBlockTableRecord
  2
_FILLED
  0
ENDTAB
  0
TABLE
  2
DIMSTYLE
  5
A
100
AcDbSymbolTable
 70
1
100
AcDbDimStyleTable
 71
0
  0
DIMSTYLE
105
213
100
AcDbSymbolTableRecord
100
AcDbDimStyleTableRecord
  2
STANDARD
 70
0
  3

  4

 40
1.0
 41
0.690216045
 42
1.0
 43
0.38
 44
1.0
 45
0.0
 46
0.0
 47
0.01
 48
0.01
140
0.966302463
141
0.09
142
0.0
143
25.4
144
1.0
145
0.0
146
1.0
147
0.625
 71
1
 72
0
 73
0
 74
0
 75
0
 76
0
 77
1
 78
8
 79
2
170
0
171
1
172
0
173
0
174
0
175
0
176
0
177
0
178
0
270
2
179
2
271
2
272
2
273
2
274
2
275
0
280
0
281
0
282
0
283
1
284
8
285
0
286
0
287
3
288
0
340
11
278
46
341
212
342
212
343
212
344
212
  0
ENDTAB
  0
ENDSEC
  0
SECTION
  2
BLOCKS
  0
BLOCK
  5
20
100
AcDbEntity
  8
0
100
AcDbBlockBegin
  2
*Model_Space
 70
0
 10
0.0
 20
0.0
 30
0.0
  3
*Model_Space
  1

  0
ENDBLK
  5
21
100
AcDbEntity
  8
0
100
AcDbBlockEnd
  0
BLOCK
  5
1C
100
AcDbEntity
  8
0
100
AcDbBlockBegin
  2
*Paper_Space
 70
0
 10
0.0
 20
0.0
 30
0.0
  3
*Paper_Space
  1

  0
ENDBLK
  5
1D
100
AcDbEntity
  8
0
100
AcDbBlockEnd
  0
BLOCK
  5
214
100
AcDbEntity
  8
0
100
AcDbBlockBegin
  2
_FILLED
 70
64
 10
0.0
 20
0.0
  3
_FILLED
  1

  0
SOLID
  5
215
100
AcDbEntity
  8
0
  6
BYBLOCK
 62
0
100
AcDbTrace
 10
0.0
 20
0.0
 11
-1.0
 21
0.25
 12
-1.0
 22
-0.25
 13
-1.0
 23
-0.25
  0
ENDBLK
  5
216
100
AcDbEntity
  8
0
  6
BYBLOCK
 62
0
100
AcDbBlockEnd
  0
ENDSEC
  0
SECTION
  2
ENTITIES
  0
LINE
  5
217
100
AcDbEntity
  8
0
100
AcDbLine
 62
7
  6
BYLAYER
 10
6.726132197
 20
35.3901511466
 11
6.726132197
 21
47.229436195
  0
LINE
  5
218
100
AcDbEntity
  8
0
100
AcDbLine
 62
7
  6
BYLAYER
 10
11.3373973238
 20
56.8641581887
 11
11.0545534337
 21
56.7008535236
  0
LINE
  5
219
100
AcDbEntity
  8
0
100
AcDbLine
 62
7
  6
BYLAYER
 10
28.3078894169
 20
66.6620178816
 11
28.0250455269
 21
66.4987132166
  0
LINE
  5
21A
100
AcDbEntity
  8
0
100
AcDbLine
 62
7
  6
BYLAYER
 10
25.0251678223
 20
17.1707854387
 11
27.8536051743
 21
15.5378233147
  0
LINE
  5
21B
100
AcDbEntity
  8
0
100
AcDbLine
 62
7
  6
BYLAYER
 10
7.1654764412
 20
34.7777849157
 11
7.1654764413
 21
46.6170699641
  0
LINE
  5
21C
100
AcDbEntity
  8
0
100
AcDbLine
 62
7
  6
BYLAYER
 10
24.9609092823
 20
63.7090984092
 11
22.3918734626
 21
62.2258737407
  0
LINE
  5
21D
100
AcDbEntity
  8
0
100
AcDbLine
 62
7
  6
BYLAYER
 10
10.468772884
 20
46.8645562584
 11
10.468772884
 21
55.8843720146
  0
LINE
  5
21E
100
AcDbEntity
  8
0
100
AcDbLine
 62
7
  6
BYLAYER
 10
20.0893356324
 20
59.0592625882
 11
14.468772884
 21
55.8142485426
  0
LWPOLYLINE
  5
21F
100
AcDbEntity
  8
0
100
AcDbPolyline
 62
7
  6
BYLAYER
 90
5
 70
0
 10
20.0893356324
 20
57.5012919538
 10
18.6873344824
 20
56.7501226505
 10
16.6401609431
 20
54.7026294433
 10
15.7281816389
 20
52.3981319347
 10
15.6895116895
 20
51.8019007209
  0
LINE
  5
220
100
AcDbEntity
  8
0
100
AcDbLine
 62
7
  6
BYLAYER
 10
11.8324006271
 20
47.6785921031
 11
11.8324006271
 21
43.9226809843
  0
LINE
  5
221
100
AcDbEntity
  8
0
100
AcDbLine
 62
7
  6
BYLAYER
 10
10.468772884
 20
49.7489501322
 11
7.1654676092
 21
47.8417973268
  0
LINE
  5
222
100
AcDbEntity
  8
0
100
AcDbLine
 62
7
  6
BYLAYER
 10
28.4823243582
 20
22.301669205
 11
7.2690326015
 21
34.5488918419
  0
LINE
  5
223
100
AcDbEntity
  8
0
100
AcDbLine
 62
7
  6
BYLAYER
 10
28.3787681967
 20
22.5305622795
 11
7.1654764412
 21
34.7777849157
  0
LINE
  5
224
100
AcDbEntity
  8
0
100
AcDbLine
 62
7
  6
BYLAYER
 10
14.468772884
 20
49.2006932496
 11
14.468772884
 21
55.8843720146
  0
LINE
  5
225
100
AcDbEntity
  8
0
100
AcDbLine
 62
7
  6
BYLAYER
 10
15.6893356324
 20
51.8019007212
 11
15.6893356324
 21
49.9053812745
  0
LINE
  5
226
100
AcDbEntity
  8
0
100
AcDbLine
 62
7
  6
BYLAYER
 10
15.8021626339
 20
49.9705215854
 11
11.8324006271
 21
47.6785921031
  0
LWPOLYLINE
  5
227
100
AcDbEntity
  8
0
100
AcDbPolyline
 62
7
  6
BYLAYER
 90
7
 70
0
 10
15.6895116895
 20
51.8019007209
 10
15.7272931324
 20
51.2125200074
 10
16.6359552989
 20
48.9073654022
 10
18.6796793807
 20
46.8592286009
 10
21.6797785047
 20
45.2483271408
 10
25.3724503955
 20
44.2186302501
 10
27.4394062876
 20
44.0381147819
  0
LINE
  5
228
100
AcDbEntity
  8
0
100
AcDbLine
 62
7
  6
BYLAYER
 10
20.0893356324
 20
59.2320727171
 11
20.0893356324
 21
50.985398304
  0
LINE
  5
229
100
AcDbEntity
  8
0
100
AcDbLine
 62
7
  6
BYLAYER
 10
33.9177619824
 20
55.5715494421
 11
36.4867978022
 21
57.0547741105
  0
LINE
  5
22A
100
AcDbEntity
  8
0
100
AcDbLine
 62
7
  6
BYLAYER
 10
21.0893356324
 20
59.2320727171
 11
21.0893356324
 21
59.6403239256
  0
LINE
  5
22B
100
AcDbEntity
  8
0
100
AcDbLine
 62
7
  6
BYLAYER
 10
22.3919107532
 20
54.4419324957
 11
22.3919107532
 21
57.0547402306
  0
LINE
  5
22C
100
AcDbEntity
  8
0
100
AcDbLine
 62
7
  6
BYLAYER
 10
23.1893356324
 20
59.6403239256
 11
23.1893356324
 21
61.1100282765
  0
LINE
  5
22D
100
AcDbEntity
  8
0
100
AcDbLine
 62
7
  6
BYLAYER
 10
23.7118440096
 20
40.8201474272
 11
23.7118440096
 21
37.0642363084
  0
LINE
  5
22E
100
AcDbEntity
  8
0
100
AcDbLine
 62
7
  6
BYLAYER
 10
23.7824908924
 20
20.325745333
 11
23.782493898
 21
19.9175026131
  0
LINE
  5
22F
100
AcDbEntity
  8
0
100
AcDbLine
 62
7
  6
BYLAYER
 10
24.4493356324
 20
23.1756630547
 11
24.4493356324
 21
24.6300636561
  0
LINE
  5
230
100
AcDbEntity
  8
0
100
AcDbLine
 62
7
  6
BYLAYER
 10
24.5691993807
 20
23.4252138461
 11
24.5691993807
 21
24.5608618543
  0
LINE
  5
231
100
AcDbEntity
  8
0
100
AcDbLine
 62
7
  6
BYLAYER
 10
24.9609679649
 20
55.5715279126
 11
24.9609679649
 21
55.2809338101
  0
LINE
  5
232
100
AcDbEntity
  8
0
100
AcDbLine
 62
7
  6
BYLAYER
 10
28.3080307273
 20
47.0663800802
 11
28.0251868373
 21
46.9030754152
  0
LINE
  5
233
100
AcDbEntity
  8
0
100
AcDbLine
 62
7
  6
BYLAYER
 10
45.2785228205
 20
56.8642397731
 11
44.9956789304
 21
56.7009351081
  0
LINE
  5
234
100
AcDbEntity
  8
0
100
AcDbLine
 62
7
  6
BYLAYER
 10
7.1654764411
 20
46.6170699642
 11
11.8324006271
 21
43.9226809843
  0
LINE
  5
235
100
AcDbEntity
  8
0
100
AcDbLine
 62
7
  6
BYLAYER
 10
23.7118440096
 20
37.0642363084
 11
28.3787681955
 21
34.3698473286
  0
LINE
  5
236
100
AcDbEntity
  8
0
100
AcDbLine
 62
7
  6
BYLAYER
 10
27.4392649772
 20
64.5536037919
 11
27.4392649772
 21
65.6822317075
  0
LINE
  5
237
100
AcDbEntity
  8
0
100
AcDbLine
 62
7
  6
BYLAYER
 10
27.4394062876
 20
37.0667781499
 11
27.4394062876
 21
46.0865939061
  0
LINE
  5
238
100
AcDbEntity
  8
0
100
AcDbLine
 62
7
  6
BYLAYER
 10
23.7118440096
 20
40.8201474272
 11
27.4394062876
 21
42.9722436655
  0
LINE
  5
239
100
AcDbEntity
  8
0
100
AcDbLine
 62
7
  6
BYLAYER
 10
43.1678383962
 20
52.0530039726
 11
44.4098983807
 21
52.7701033584
  0
LINE
  5
23A
100
AcDbEntity
  8
0
100
AcDbLine
 62
7
  6
BYLAYER
 10
11.8324006271
 20
47.6785921031
 11
23.7118440096
 21
40.8201474272
  0
LINE
  5
23B
100
AcDbEntity
  8
0
100
AcDbLine
 62
7
  6
BYLAYER
 10
28.3522364102
 20
22.3767738176
 11
28.3522364102
 21
16.834947786
  0
LINE
  5
23C
100
AcDbEntity
  8
0
100
AcDbLine
 62
7
  6
BYLAYER
 10
28.3787681954
 20
34.3698473286
 11
28.3787681967
 21
22.5305622795
  0
LINE
  5
23D
100
AcDbEntity
  8
0
100
AcDbLine
 62
7
  6
BYLAYER
 10
35.1669738647
 20
37.0642638431
 11
31.4394062876
 21
39.216327301
  0
LINE
  5
23E
100
AcDbEntity
  8
0
100
AcDbLine
 62
7
  6
BYLAYER
 10
30.5000885393
 20
22.5305673793
 11
30.5000885394
 21
34.3698524278
  0
LINE
  5
23F
100
AcDbEntity
  8
0
100
AcDbLine
 62
7
  6
BYLAYER
 10
31.4392649772
 20
64.5669247979
 11
31.4392649772
 21
65.6822317075
  0
LINE
  5
240
100
AcDbEntity
  8
0
100
AcDbLine
 62
7
  6
BYLAYER
 10
31.4394062876
 20
36.996399312
 11
31.4394062876
 21
46.0865939061
  0
LINE
  5
241
100
AcDbEntity
  8
0
100
AcDbLine
 62
7
  6
BYLAYER
 10
27.4394062876
 20
39.2163325467
 11
23.7118440096
 21
37.0642363084
  0
LINE
  5
242
100
AcDbEntity
  8
0
100
AcDbLine
 62
7
  6
BYLAYER
 10
33.9177619824
 20
55.3138986239
 11
33.9177619824
 21
55.5715494421
  0
LINE
  5
243
100
AcDbEntity
  8
0
100
AcDbLine
 62
7
  6
BYLAYER
 10
35.1669738647
 20
40.8201749619
 11
47.0463183299
 21
47.678676747
  0
LWPOLYLINE
  5
244
100
AcDbEntity
  8
0
100
AcDbPolyline
 62
7
  6
BYLAYER
 90
4
 70
0
 10
31.4394062876
 20
44.0154704559
 10
32.9981157522
 20
44.1339490754
 10
36.3144159417
 20
44.9270280356
 10
39.1620943531
 20
46.1885903465
  0
LWPOLYLINE
  5
245
100
AcDbEntity
  8
0
100
AcDbPolyline
 62
7
  6
BYLAYER
 90
7
 70
0
 10
27.4394062876
 20
44.7593016158
 10
25.7520800152
 20
44.9062489278
 10
22.3988211807
 20
45.8387352452
 10
19.6660553239
 20
47.3026001794
 10
17.8046345488
 20
49.1635332122
 10
16.9747695331
 20
51.25895823
 10
16.9395000185
 20
51.8019007216
  0
LINE
  5
246
100
AcDbEntity
  8
0
100
AcDbLine
 62
7
  6
BYLAYER
 10
14.468772884
 20
52.7700165283
 11
15.7059746271
 21
52.0557339281
  0
LINE
  5
247
100
AcDbEntity
  8
0
100
AcDbLine
 62
7
  6
BYLAYER
 10
31.4394062876
 20
42.9722384198
 11
35.1669738647
 21
40.8201749619
  0
LINE
  5
248
100
AcDbEntity
  8
0
100
AcDbLine
 62
7
  6
BYLAYER
 10
34.4293356324
 20
19.6466872913
 11
34.4293356324
 21
24.6300004512
  0
LINE
  5
249
100
AcDbEntity
  8
0
100
AcDbLine
 62
7
  6
BYLAYER
 10
35.0961772965
 20
23.1834697521
 11
35.0961803079
 21
22.7752269709
  0
LINE
  5
24A
100
AcDbEntity
  8
0
100
AcDbLine
 62
7
  6
BYLAYER
 10
35.1669738647
 20
40.8201749619
 11
35.1669738647
 21
37.0642638431
  0
LINE
  5
24B
100
AcDbEntity
  8
0
100
AcDbLine
 62
7
  6
BYLAYER
 10
35.6893356324
 20
59.6403239256
 11
35.6893356324
 21
61.1100282765
  0
LINE
  5
24C
100
AcDbEntity
  8
0
100
AcDbLine
 62
7
  6
BYLAYER
 10
36.4867978022
 20
57.0547741105
 11
36.4867978022
 21
54.4419663757
  0
LINE
  5
24D
100
AcDbEntity
  8
0
100
AcDbLine
 62
7
  6
BYLAYER
 10
51.7132036552
 20
46.6171770436
 11
47.0463183299
 21
43.9227656282
  0
LINE
  5
24E
100
AcDbEntity
  8
0
100
AcDbLine
 62
7
  6
BYLAYER
 10
35.1669738647
 20
37.0642638431
 11
30.5000885394
 21
34.3698524278
  0
LINE
  5
24F
100
AcDbEntity
  8
0
100
AcDbLine
 62
7
  6
BYLAYER
 10
13.6001679941
 20
56.8641469015
 11
13.8830167716
 21
56.7008394147
  0
LINE
  5
250
100
AcDbEntity
  8
0
100
AcDbLine
 62
7
  6
BYLAYER
 10
30.5708013976
 20
47.066368793
 11
30.8536501751
 21
46.9030613062
  0
LINE
  5
251
100
AcDbEntity
  8
0
100
AcDbLine
 62
7
  6
BYLAYER
 10
37.7893356324
 20
59.2320727171
 11
37.7893356324
 21
59.6403239256
  0
LINE
  5
252
100
AcDbEntity
  8
0
100
AcDbLine
 62
7
  6
BYLAYER
 10
38.7893356324
 20
59.2320727171
 11
38.7893356324
 21
50.985398304
  0
LINE
  5
253
100
AcDbEntity
  8
0
100
AcDbLine
 62
7
  6
BYLAYER
 10
22.3919107532
 20
57.0547402306
 11
24.9609679649
 21
55.5715279126
  0
LINE
  5
254
100
AcDbEntity
  8
0
100
AcDbLine
 62
7
  6
BYLAYER
 10
43.1893356324
 20
51.8019007212
 11
43.1893356324
 21
49.9054563692
  0
LWPOLYLINE
  5
255
100
AcDbEntity
  8
0
100
AcDbPolyline
 62
7
  6
BYLAYER
 90
7
 70
0
 10
41.9391712463
 20
51.8019007208
 10
41.9048856178
 20
51.2665407702
 10
41.0787038365
 20
49.1704040313
 10
39.2210910757
 20
47.3087436709
 10
36.4944444376
 20
45.8444878447
 10
33.1359484779
 20
44.907919163
 10
31.4394062876
 20
44.7597725343
  0
LWPOLYLINE
  5
256
100
AcDbEntity
  8
0
100
AcDbPolyline
 62
7
  6
BYLAYER
 90
5
 70
0
 10
43.1891817225
 20
51.8019007014
 10
43.1229708795
 20
52.5808682817
 10
42.1429068444
 20
54.8394851112
 10
40.0735673753
 20
56.8342373887
 10
38.7893356324
 20
57.5072114462
  0
LINE
  5
257
100
AcDbEntity
  8
0
100
AcDbLine
 62
7
  6
BYLAYER
 10
44.4098983807
 20
49.2007800798
 11
44.4098983807
 21
55.884453599
  0
LINE
  5
258
100
AcDbEntity
  8
0
100
AcDbLine
 62
7
  6
BYLAYER
 10
47.0463183299
 20
47.678676747
 11
43.0765232676
 21
49.9705871449
  0
LINE
  5
259
100
AcDbEntity
  8
0
100
AcDbLine
 62
7
  6
BYLAYER
 10
47.0463183299
 20
47.678676747
 11
47.0463183299
 21
43.9227656282
  0
LINE
  5
25A
100
AcDbEntity
  8
0
100
AcDbLine
 62
7
  6
BYLAYER
 10
51.7132036579
 20
34.7778919967
 11
30.5000885393
 21
22.5305673793
  0
LINE
  5
25B
100
AcDbEntity
  8
0
100
AcDbLine
 62
7
  6
BYLAYER
 10
51.6096476786
 20
34.5489990274
 11
30.3965325573
 21
22.3016744084
  0
LINE
  5
25C
100
AcDbEntity
  8
0
100
AcDbLine
 62
7
  6
BYLAYER
 10
48.4098983807
 20
49.7490203521
 11
51.7131948235
 21
47.8419044064
  0
LINE
  5
25D
100
AcDbEntity
  8
0
100
AcDbLine
 62
7
  6
BYLAYER
 10
48.4098983807
 20
46.7942590049
 11
48.4098983807
 21
55.884453599
  0
LINE
  5
25E
100
AcDbEntity
  8
0
100
AcDbLine
 62
7
  6
BYLAYER
 10
33.8382432262
 20
18.2865949775
 11
33.0400183882
 21
17.6521244782
  0
LINE
  5
25F
100
AcDbEntity
  8
0
100
AcDbLine
 62
7
  6
BYLAYER
 10
44.4098983807
 20
55.8142803032
 11
38.7893356324
 21
59.0592403082
  0
LINE
  5
260
100
AcDbEntity
  8
0
100
AcDbLine
 62
7
  6
BYLAYER
 10
51.7132036552
 20
46.6171770436
 11
51.7132036579
 21
34.7778919967
  0
LINE
  5
261
100
AcDbEntity
  8
0
100
AcDbLine
 62
7
  6
BYLAYER
 10
52.1525390678
 20
35.3902531271
 11
52.1525390678
 21
47.2295381755
  0
LINE
  5
262
100
AcDbEntity
  8
0
100
AcDbLine
 62
7
  6
BYLAYER
 10
31.2071097088
 20
16.0391217064
 11
30.8535545293
 21
15.8349907699
  0
LINE
  5
263
100
AcDbEntity
  8
0
100
AcDbLine
 62
7
  6
BYLAYER
 10
36.4867605115
 20
62.2259076207
 11
33.9177032998
 21
63.7091199387
  0
LINE
  5
264
100
AcDbEntity
  8
0
100
AcDbLine
 62
7
  6
BYLAYER
 10
30.5706600872
 20
66.6620065944
 11
30.8535088647
 21
66.4986991076
  0
LINE
  5
265
100
AcDbEntity
  8
0
100
AcDbLine
 62
7
  6
BYLAYER
 10
47.5412934907
 20
56.8642284859
 11
47.8241422682
 21
56.7009209991
  0
LWPOLYLINE
  5
266
100
AcDbEntity
  8
0
100
AcDbPolyline
 62
7
  6
BYLAYER
 90
4
 70
0
 10
29.4392987863
 20
64.7498007624
 10
26.5163311557
 20
64.4630669125
 10
23.9214220786
 20
63.6350605122
 10
23.1813064301
 20
63.2531921708
  0
LINE
  5
267
100
AcDbEntity
  8
0
100
AcDbLine
 62
7
  6
BYLAYER
 10
29.9069838987
 20
64.742648308
 11
29.8900696227
 21
64.7431562387
  0
LINE
  5
268
100
AcDbEntity
  8
0
100
AcDbLine
 62
7
  6
BYLAYER
 10
29.9037435807
 20
64.7073321497
 11
29.8870367292
 21
64.7088598163
  0
ARC
  5
269
100
AcDbEntity
  8
0
100
AcDbCircle
 62
7
  6
BYLAYER
 10
29.4392230924
 20
49.4509813089
 40
15.2988194537
100
AcDbArc
 50
88.311285141
 51
89.999716518
  0
ARC
  5
26A
100
AcDbEntity
  8
0
100
AcDbCircle
 62
7
  6
BYLAYER
 10
29.439340132
 20
47.7639518071
 40
12.9693619674
100
AcDbArc
 50
82.6204120432
 51
97.3844420935
  0
ARC
  5
26B
100
AcDbEntity
  8
0
100
AcDbCircle
 62
7
  6
BYLAYER
 10
28.7185350592
 20
53.4555083374
 40
10.92043318
100
AcDbArc
 50
107.7214800976
 51
110.1263336922
  0
ARC
  5
26C
100
AcDbEntity
  8
0
100
AcDbCircle
 62
7
  6
BYLAYER
 10
30.2046185373
 20
53.5847227188
 40
10.7838034811
100
AcDbArc
 50
69.8596770295
 51
72.1868751092
  0
ARC
  5
26D
100
AcDbEntity
  8
0
100
AcDbCircle
 62
7
  6
BYLAYER
 10
27.1958259705
 20
56.2963191712
 40
8.0320778035
100
AcDbArc
 50
119.9873961028
 51
123.0116615878
  0
ARC
  5
26E
100
AcDbEntity
  8
0
100
AcDbCircle
 62
7
  6
BYLAYER
 10
31.7513485665
 20
56.4094182019
 40
7.8998916602
100
AcDbArc
 50
56.8986578597
 51
60.0342451091
  0
ARC
  5
26F
100
AcDbEntity
  8
0
100
AcDbCircle
 62
7
  6
BYLAYER
 10
27.1791929881
 20
62.1577988814
 40
7.3078241058
100
AcDbArc
 50
236.8080232478
 51
238.0022772639
  0
ARC
  5
270
100
AcDbEntity
  8
0
100
AcDbCircle
 62
7
  6
BYLAYER
 10
31.7102061703
 20
62.1421222215
 40
7.2888531876
100
AcDbArc
 50
301.7350453468
 51
303.1270787691
  0
ARC
  5
271
100
AcDbEntity
  8
0
100
AcDbCircle
 62
7
  6
BYLAYER
 10
29.4393356324
 20
22.3669885837
 40
6.0
100
AcDbArc
 50
273.0954180963
 51
317.1512304485
  0
ARC
  5
272
100
AcDbEntity
  8
0
100
AcDbCircle
 62
7
  6
BYLAYER
 10
29.7156679422
 20
19.9155419347
 40
5.9331746172
100
AcDbArc
 50
176.2231019158
 51
179.9810674097
  0
ARC
  5
273
100
AcDbEntity
  8
0
100
AcDbCircle
 62
7
  6
BYLAYER
 10
21.195134483
 20
50.9770084196
 40
4.2562121847
100
AcDbArc
 50
169.4538626196
 51
174.3790702707
  0
ARC
  5
274
100
AcDbEntity
  8
0
100
AcDbCircle
 62
7
  6
BYLAYER
 10
37.7016631946
 20
50.979574361
 40
4.2379219295
100
AcDbArc
 50
5.6096218333
 51
10.5535789139
  0
ARC
  5
275
100
AcDbEntity
  8
0
100
AcDbCircle
 62
7
  6
BYLAYER
 10
28.79856168
 20
21.9206757054
 40
3.4460737112
100
AcDbArc
 50
323.7379813421
 51
333.8153804909
  0
ARC
  5
276
100
AcDbEntity
  8
0
100
AcDbCircle
 62
7
  6
BYLAYER
 10
34.9857844153
 20
59.641066612
 40
2.8035427897
100
AcDbArc
 50
351.9095435838
 51
359.9848217779
  0
ARC
  5
277
100
AcDbEntity
  8
0
100
AcDbCircle
 62
7
  6
BYLAYER
 10
23.8848569709
 20
59.6404976664
 40
2.7955128182
100
AcDbArc
 50
180.0035609263
 51
188.1020849535
  0
ARC
  5
278
100
AcDbEntity
  8
0
100
AcDbCircle
 62
7
  6
BYLAYER
 10
32.2527803095
 20
19.1667959661
 40
0.9312518977
100
AcDbArc
 50
192.518613439
 51
196.6072176155
  0
SPLINE
  5
279
100
AcDbEntity
  8
0
100
AcDbSpline
 62
7
  6
BYLAYER
 70
0
 71
3
 72
11
 73
7
 74
0
 42
0.0000001
 43
0.0000001
 44
0.0000000001
 40
0.0
 40
0.0
 40
0.0
 40
0.0
 40
0.2334667709
 40
0.4790058416
 40
0.7351162377
 40
1.0
 40
1.0
 40
1.0
 40
1.0
 10
31.2071099452
 20
16.0391215701
 30
0.0
 10
31.3607648552
 20
16.1278337442
 30
0.0
 10
31.6668540121
 20
16.3260611517
 30
0.0
 10
32.1073631952
 20
16.6706695807
 30
0.0
 10
32.5359480056
 20
17.0660661222
 30
0.0
 10
32.8061945207
 20
17.3559920336
 30
0.0
 10
32.93819721
 20
17.5079699513
 30
0.0
  0
SPLINE
  5
27A
100
AcDbEntity
  8
0
100
AcDbSpline
 62
7
  6
BYLAYER
 70
0
 71
3
 72
13
 73
9
 74
0
 42
0.0000001
 43
0.0000001
 44
0.0000000001
 40
0.0
 40
0.0
 40
0.0
 40
0.0
 40
0.2662172343
 40
0.5236043048
 40
0.6480069809
 40
0.769066433
 40
0.8865011213
 40
1.0
 40
1.0
 40
1.0
 40
1.0
 10
34.4492606833
 20
19.921568662
 30
0.0
 10
34.5526921767
 20
20.1615662468
 30
0.0
 10
34.7360782562
 20
20.6425541094
 30
0.0
 10
34.9080983948
 20
21.2560385485
 30
0.0
 10
35.005472232
 20
21.7401623323
 30
0.0
 10
35.0574425453
 20
22.0927755674
 30
0.0
 10
35.088871321
 20
22.437058221
 30
0.0
 10
35.0961805441
 20
22.6638086838
 30
0.0
 10
35.0961805441
 20
22.7752268345
 30
0.0
  0
SPLINE
  5
27B
100
AcDbEntity
  8
0
100
AcDbSpline
 62
7
  6
BYLAYER
 70
0
 71
3
 72
15
 73
11
 74
0
 42
0.0000001
 43
0.0000001
 44
0.0000000001
 40
0.0
 40
0.0
 40
0.0
 40
0.0
 40
0.1080132545
 40
0.2180628545
 40
0.3320004292
 40
0.4513586816
 40
0.5772803949
 40
0.7104957582
 40
0.8514075377
 40
1.0
 40
1.0
 40
1.0
 40
1.0
 10
27.8536054306
 20
15.5378231667
 30
0.0
 10
27.9519760441
 20
15.4810301555
 30
0.0
 10
28.1608356675
 20
15.3832295694
 30
0.0
 10
28.4987783205
 20
15.2897868745
 30
0.0
 10
28.8590305788
 20
15.2496037404
 30
0.0
 10
29.2377630802
 20
15.2627757299
 30
0.0
 10
29.6313143806
 20
15.3288100236
 30
0.0
 10
30.0360311495
 20
15.4467894602
 30
0.0
 10
30.4480906183
 20
15.6154395143
 30
0.0
 10
30.7182278918
 20
15.7568600697
 30
0.0
 10
30.8535545294
 20
15.834990474
 30
0.0
  0
SPLINE
  5
27C
100
AcDbEntity
  8
0
100
AcDbSpline
 62
7
  6
BYLAYER
 70
0
 71
3
 72
10
 73
6
 74
0
 42
0.0000001
 43
0.0000001
 44
0.0000000001
 40
0.0
 40
0.0
 40
0.0
 40
0.0
 40
0.2707077243
 40
0.5276508011
 40
1.0
 40
1.0
 40
1.0
 40
1.0
 10
35.0961775528
 20
23.1834699001
 30
0.0
 10
35.0961775528
 20
23.3373857236
 30
0.0
 10
35.0839261054
 20
23.6376957317
 30
0.0
 10
35.0086143811
 20
24.2015315518
 30
0.0
 10
34.8917078114
 20
24.6043786684
 30
0.0
 10
34.7829972482
 20
24.8499554876
 30
0.0
  0
SPLINE
  5
27D
100
AcDbEntity
  8
0
100
AcDbSpline
 62
7
  6
BYLAYER
 70
0
 71
3
 72
15
 73
11
 74
0
 42
0.0000001
 43
0.0000001
 44
0.0000000001
 40
0.0
 40
0.0
 40
0.0
 40
0.0
 40
0.1080125016
 40
0.2180614641
 40
0.3319986113
 40
0.4513567042
 40
0.5772785473
 40
0.7104943145
 40
0.8514067285
 40
1.0
 40
1.0
 40
1.0
 40
1.0
 10
25.0251675733
 20
17.1707855824
 30
0.0
 10
24.9267937397
 20
17.2275804527
 30
0.0
 10
24.7376575588
 20
17.3595591896
 30
0.0
 10
24.4877510569
 20
17.6055103892
 30
0.0
 10
24.2728154777
 20
17.8974155481
 30
0.0
 10
24.0948484619
 20
18.2320057853
 30
0.0
 10
23.9552540761
 20
18.6058634429
 30
0.0
 10
23.8550648061
 20
19.0153656878
 30
0.0
 10
23.7950883487
 20
19.4565642347
 30
0.0
 10
23.782493649
 20
19.7612339057
 30
0.0
 10
23.782493649
 20
19.9175024693
 30
0.0
  0
SPLINE
  5
27E
100
AcDbEntity
  8
0
100
AcDbSpline
 62
7
  6
BYLAYER
 70
0
 71
3
 72
15
 73
11
 74
0
 42
0.0000001
 43
0.0000001
 44
0.0000000001
 40
0.0
 40
0.0
 40
0.0
 40
0.0
 40
0.1114783844
 40
0.2281485502
 40
0.3494507371
 40
0.4747578821
 40
0.6033139715
 40
0.7342966279
 40
0.8668287359
 40
1.0
 40
1.0
 40
1.0
 40
1.0
 10
23.7824906631
 20
20.3257454654
 30
0.0
 10
23.7824906631
 20
20.4823464152
 30
0.0
 10
23.796979434
 20
20.8029659834
 30
0.0
 10
23.8582724153
 20
21.2904704812
 30
0.0
 10
23.9590335184
 20
21.7911904215
 30
0.0
 10
24.0981696025
 20
22.2999101405
 30
0.0
 10
24.2742717727
 20
22.8114211317
 30
0.0
 10
24.485512067
 20
23.3204401672
 30
0.0
 10
24.7296943425
 20
23.8216891771
 30
0.0
 10
24.9127725702
 20
24.1472490025
 30
0.0
 10
25.0092320516
 20
24.3075374344
 30
0.0
  0
SPLINE
  5
27F
100
AcDbEntity
  8
0
100
AcDbSpline
 62
7
  6
BYLAYER
 70
0
 71
3
 72
15
 73
11
 74
0
 42
0.0000001
 43
0.0000001
 44
0.0000000001
 40
0.0
 40
0.0
 40
0.0
 40
0.0
 40
0.1331951853
 40
0.2657324696
 40
0.3967076639
 40
0.5252498795
 40
0.6505426749
 40
0.7718356525
 40
0.8885067953
 40
1.0
 40
1.0
 40
1.0
 40
1.0
 10
27.9410853559
 20
22.6148169734
 30
0.0
 10
27.836462591
 20
22.440365266
 30
0.0
 10
27.6379054419
 20
22.0861058009
 30
0.0
 10
27.3730997457
 20
21.540803267
 30
0.0
 10
27.1440509078
 20
20.9871881846
 30
0.0
 10
26.9531251541
 20
20.4309644809
 30
0.0
 10
26.8022920465
 20
19.8778406355
 30
0.0
 10
26.6930686699
 20
19.3334436006
 30
0.0
 10
26.6266328435
 20
18.8034083127
 30
0.0
 10
26.6109315062
 20
18.4548153141
 30
0.0
 10
26.6109315062
 20
18.2845400536
 30
0.0
  0
SPLINE
  5
280
100
AcDbEntity
  8
0
100
AcDbSpline
 62
7
  6
BYLAYER
 70
0
 71
3
 72
15
 73
11
 74
0
 42
0.0000001
 43
0.0000001
 44
0.0000000001
 40
0.0
 40
0.0
 40
0.0
 40
0.0
 40
0.1485932715
 40
0.2895056855
 40
0.4227214527
 40
0.5486432958
 40
0.6680013887
 40
0.7819385359
 40
0.8919874984
 40
1.0
 40
1.0
 40
1.0
 40
1.0
 10
26.6109315062
 20
18.2845400536
 30
0.0
 10
26.6109315062
 20
18.12827149
 30
0.0
 10
26.6235262059
 20
17.823601819
 30
0.0
 10
26.6835026633
 20
17.382403272
 30
0.0
 10
26.7836919333
 20
16.9729010272
 30
0.0
 10
26.9232863192
 20
16.5990433696
 30
0.0
 10
27.1012533349
 20
16.2644531324
 30
0.0
 10
27.3161889142
 20
15.9725479735
 30
0.0
 10
27.566095416
 20
15.7265967739
 30
0.0
 10
27.755231597
 20
15.594618037
 30
0.0
 10
27.8536054306
 20
15.5378231667
 30
0.0
  0
SPLINE
  5
281
100
AcDbEntity
  8
0
100
AcDbSpline
 62
7
  6
BYLAYER
 70
0
 71
3
 72
24
 73
20
 74
0
 42
0.0000001
 43
0.0000001
 44
0.0000000001
 40
0.0
 40
0.0
 40
0.0
 40
0.0
 40
0.0753440104
 40
0.1470469504
 40
0.2150795005
 40
0.2477767797
 40
0.2796267337
 40
0.3409255853
 40
0.3994604309
 40
0.4558579655
 40
0.5108923163
 40
0.5654435454
 40
0.6204310842
 40
0.6767387745
 40
0.7351473513
 40
0.7962917742
 40
0.8606392859
 40
0.9284868209
 40
1.0
 40
1.0
 40
1.0
 40
1.0
 10
27.3180393464
 20
18.284541726
 30
0.0
 10
27.3180393464
 20
18.149911138
 30
0.0
 10
27.3282616262
 20
17.8869940074
 30
0.0
 10
27.3767407554
 20
17.5052384478
 30
0.0
 10
27.445126629
 20
17.2041887721
 30
0.0
 10
27.5164088505
 20
16.978141888
 30
0.0
 10
27.5961631953
 20
16.7677836688
 30
0.0
 10
27.7147237309
 20
16.5231945947
 30
0.0
 10
27.88891316
 20
16.2596593748
 30
0.0
 10
28.0919247295
 20
16.032236945
 30
0.0
 10
28.3220692161
 20
15.8432095048
 30
0.0
 10
28.5772291614
 20
15.6944879833
 30
0.0
 10
28.8549233876
 20
15.5875255204
 30
0.0
 10
29.1524391658
 20
15.5232290001
 30
0.0
 10
29.4669795175
 20
15.5019427383
 30
0.0
 10
29.7957561608
 20
15.5235956608
 30
0.0
 10
30.1359865077
 20
15.5877877529
 30
0.0
 10
30.4848573253
 20
15.6937890696
 30
0.0
 10
30.7153205341
 20
15.7892122017
 30
0.0
 10
30.8311806194
 20
15.8431152477
 30
0.0
  0
SPLINE
  5
282
100
AcDbEntity
  8
0
100
AcDbSpline
 62
7
  6
BYLAYER
 70
0
 71
3
 72
9
 73
5
 74
0
 42
0.0000001
 43
0.0000001
 44
0.0000000001
 40
0.0
 40
0.0
 40
0.0
 40
0.0
 40
0.2453545517
 40
1.0
 40
1.0
 40
1.0
 40
1.0
 10
30.8311806194
 20
15.8431152477
 30
0.0
 10
30.8626240205
 20
15.857744057
 30
0.0
 10
30.9900806389
 20
15.9188611439
 30
0.0
 10
31.114734428
 20
15.9857888587
 30
0.0
 10
31.2071099452
 20
16.0391215701
 30
0.0
  0
SPLINE
  5
283
100
AcDbEntity
  8
0
100
AcDbSpline
 62
7
  6
BYLAYER
 70
0
 71
3
 72
14
 73
10
 74
0
 42
0.0000001
 43
0.0000001
 44
0.0000000001
 40
0.0
 40
0.0
 40
0.0
 40
0.0
 40
0.2662546249
 40
0.3970018714
 40
0.5251776013
 40
0.6501204112
 40
0.7712275179
 40
0.8880100502
 40
1.0
 40
1.0
 40
1.0
 40
1.0
 10
28.3384422289
 20
21.9058823118
 30
0.0
 10
28.1773717864
 20
21.6097015779
 30
0.0
 10
27.9603036058
 20
21.1548268607
 30
0.0
 10
27.7246313064
 20
20.5327191616
 30
0.0
 10
27.5786019605
 20
20.0687919514
 30
0.0
 10
27.4635349282
 20
19.6088117686
 30
0.0
 10
27.3803858825
 20
19.1566209003
 30
0.0
 10
27.3299069293
 20
18.7161283162
 30
0.0
 10
27.3180393464
 20
18.4263490113
 30
0.0
 10
27.3180393464
 20
18.284541726
 30
0.0
  0
SPLINE
  5
284
100
AcDbEntity
  8
0
100
AcDbSpline
 62
7
  6
BYLAYER
 70
0
 71
3
 72
14
 73
10
 74
0
 42
0.0000001
 43
0.0000001
 44
0.0000000001
 40
0.0
 40
0.0
 40
0.0
 40
0.0
 40
0.1413563062
 40
0.2779708028
 40
0.5364495159
 40
0.658665529
 40
0.7764250524
 40
0.8900534005
 40
1.0
 40
1.0
 40
1.0
 40
1.0
 10
35.0961805441
 20
22.7752268345
 30
0.0
 10
35.0961805441
 20
22.8713045923
 30
0.0
 10
35.0909216695
 20
23.0603082567
 30
0.0
 10
35.0588392191
 20
23.4236332214
 30
0.0
 10
34.9944996869
 20
23.7707148013
 30
0.0
 10
34.8949541264
 20
24.0948608471
 30
0.0
 10
34.8059147653
 20
24.3184189741
 30
0.0
 10
34.7014476198
 20
24.5258985804
 30
0.0
 10
34.6205731077
 20
24.6548842084
 30
0.0
 10
34.5777239367
 20
24.7161082214
 30
0.0
  0
SPLINE
  5
285
100
AcDbEntity
  8
0
100
AcDbSpline
 62
7
  6
BYLAYER
 70
0
 71
3
 72
15
 73
11
 74
0
 42
0.0000001
 43
0.0000001
 44
0.0000000001
 40
0.0
 40
0.0
 40
0.0
 40
0.0
 40
0.1139121446
 40
0.2321128021
 40
0.3541444356
 40
0.479438573
 40
0.6073632671
 40
0.7372436156
 40
0.8683669902
 40
1.0
 40
1.0
 40
1.0
 40
1.0
 10
23.7953795329
 20
20.3063695032
 30
0.0
 10
23.8057186788
 20
20.4652363226
 30
0.0
 10
23.8389783165
 20
20.7882531997
 30
0.0
 10
23.9231296098
 20
21.2763353693
 30
0.0
 10
24.0417962364
 20
21.773558174
 30
0.0
 10
24.1939770728
 20
22.275751924
 30
0.0
 10
24.3783953239
 20
22.7787052374
 30
0.0
 10
24.5935045099
 20
23.2781906351
 30
0.0
 10
24.8374868134
 20
23.7699915978
 30
0.0
 10
25.0180280796
 20
24.0900076152
 30
0.0
 10
25.1126474987
 20
24.2477793892
 30
0.0
  0
SPLINE
  5
286
100
AcDbEntity
  8
0
100
AcDbSpline
 62
7
  6
BYLAYER
 70
0
 71
3
 72
15
 73
11
 74
0
 42
0.0000001
 43
0.0000001
 44
0.0000000001
 40
0.0
 40
0.0
 40
0.0
 40
0.0
 40
0.1141512577
 40
0.2373200215
 40
0.3669685884
 40
0.4999912727
 40
0.633015914
 40
0.7626659783
 40
0.8858477055
 40
1.0
 40
1.0
 40
1.0
 40
1.0
 10
30.5706516733
 20
66.6620017344
 30
0.0
 10
30.4932026581
 20
66.7067183834
 30
0.0
 10
30.3238453769
 20
66.7855845903
 30
0.0
 10
30.0480545234
 20
66.8694138938
 30
0.0
 10
29.7494648576
 20
66.9210142073
 30
0.0
 10
29.4392915946
 20
66.9384299669
 30
0.0
 10
29.1291172351
 20
66.9210202471
 30
0.0
 10
28.8305121272
 20
66.8694320982
 30
0.0
 10
28.5547096188
 20
66.7855987117
 30
0.0
 10
28.3853398744
 20
66.7067336572
 30
0.0
 10
28.3078894169
 20
66.6620178816
 30
0.0
  0
SPLINE
  5
287
100
AcDbEntity
  8
0
100
AcDbSpline
 62
7
  6
BYLAYER
 70
0
 71
3
 72
15
 73
11
 74
0
 42
0.0000001
 43
0.0000001
 44
0.0000000001
 40
0.0
 40
0.0
 40
0.0
 40
0.0
 40
0.1080131279
 40
0.2180612218
 40
0.3320010906
 40
0.4513569005
 40
0.5772797604
 40
0.7104997397
 40
0.8513973505
 40
1.0
 40
1.0
 40
1.0
 40
1.0
 10
31.4392649772
 20
65.6822317075
 30
0.0
 10
31.4392645963
 20
65.7200932921
 30
0.0
 10
31.4326738886
 20
65.7966812278
 30
0.0
 10
31.4033496938
 20
65.9098142473
 30
0.0
 10
31.3548886424
 20
66.0204954237
 30
0.0
 10
31.2879833551
 20
66.1276383103
 30
0.0
 10
31.2033179611
 20
66.2302295947
 30
0.0
 10
31.1018238514
 20
66.3274047015
 30
0.0
 10
30.9844577666
 20
66.4182364157
 30
0.0
 10
30.898619226
 20
66.4726538794
 30
0.0
 10
30.8535088647
 20
66.4986991076
 30
0.0
  0
SPLINE
  5
288
100
AcDbEntity
  8
0
100
AcDbSpline
 62
7
  6
BYLAYER
 70
0
 71
3
 72
15
 73
11
 74
0
 42
0.0000001
 43
0.0000001
 44
0.0000000001
 40
0.0
 40
0.0
 40
0.0
 40
0.0
 40
0.1485260938
 40
0.2895006119
 40
0.4227409634
 40
0.5486445713
 40
0.6679954014
 40
0.7819394365
 40
0.8919880463
 40
1.0
 40
1.0
 40
1.0
 40
1.0
 10
28.0250455269
 20
66.4987132166
 30
0.0
 10
27.9799568113
 20
66.4726813899
 30
0.0
 10
27.8941209033
 20
66.4182551075
 30
0.0
 10
27.7767346528
 20
66.3274319759
 30
0.0
 10
27.6752100544
 20
66.2302423829
 30
0.0
 10
27.5905513659
 20
66.1276424149
 30
0.0
 10
27.5236500972
 20
66.0205021045
 30
0.0
 10
27.4751816735
 20
65.9098208209
 30
0.0
 10
27.4458540789
 20
65.7966838533
 30
0.0
 10
27.4392645962
 20
65.7200938902
 30
0.0
 10
27.4392649771
 20
65.6822317075
 30
0.0
  0
SPLINE
  5
289
100
AcDbEntity
  8
0
100
AcDbSpline
 62
7
  6
BYLAYER
 70
0
 71
3
 72
15
 73
11
 74
0
 42
0.0000001
 43
0.0000001
 44
0.0000000001
 40
0.0
 40
0.0
 40
0.0
 40
0.0
 40
0.1485260938
 40
0.2895006119
 40
0.4227409634
 40
0.5486445713
 40
0.6679954014
 40
0.7819394365
 40
0.8919880463
 40
1.0
 40
1.0
 40
1.0
 40
1.0
 10
30.8534844275
 20
64.8657501985
 30
0.0
 10
30.8985731431
 20
64.8917820252
 30
0.0
 10
30.9844090511
 20
64.9462083075
 30
0.0
 10
31.1017953016
 20
65.0370314391
 30
0.0
 10
31.2033199
 20
65.1342210322
 30
0.0
 10
31.2879785885
 20
65.2368210002
 30
0.0
 10
31.3548798572
 20
65.3439613105
 30
0.0
 10
31.4033482809
 20
65.4546425942
 30
0.0
 10
31.4326758755
 20
65.5677795617
 30
0.0
 10
31.4392653582
 20
65.6443695249
 30
0.0
 10
31.4392649772
 20
65.6822317075
 30
0.0
  0
SPLINE
  5
28A
100
AcDbEntity
  8
0
100
AcDbSpline
 62
7
  6
BYLAYER
 70
0
 71
3
 72
9
 73
5
 74
0
 42
0.0000001
 43
0.0000001
 44
0.0000000001
 40
0.0
 40
0.0
 40
0.0
 40
0.0
 40
0.5175908732
 40
1.0
 40
1.0
 40
1.0
 40
1.0
 10
28.3078894169
 20
66.6620178816
 30
0.0
 10
28.2608643705
 20
66.6348681204
 30
0.0
 10
28.1727463996
 20
66.5774577035
 30
0.0
 10
28.0925064128
 20
66.5092762476
 30
0.0
 10
28.0565700507
 20
66.4736414585
 30
0.0
  0
SPLINE
  5
28B
100
AcDbEntity
  8
0
100
AcDbSpline
 62
7
  6
BYLAYER
 70
0
 71
3
 72
27
 73
23
 74
0
 42
0.0000001
 43
0.0000001
 44
0.0000000001
 40
0.0
 40
0.0
 40
0.0
 40
0.0
 40
0.0521182558
 40
0.0763994176
 40
0.0997525388
 40
0.1224626785
 40
0.1448671171
 40
0.1673253461
 40
0.1901930937
 40
0.2137929291
 40
0.2383991237
 40
0.291320302
 40
0.3499898693
 40
0.4144512727
 40
0.4840824668
 40
0.5577891877
 40
0.6341612853
 40
0.7116005095
 40
0.7884448437
 40
0.8630593364
 40
0.9339875222
 40
1.0
 40
1.0
 40
1.0
 40
1.0
 10
28.0565700507
 20
66.4736414585
 30
0.0
 10
28.0107096055
 20
66.4281658679
 30
0.0
 10
27.949570389
 20
66.3544001353
 30
0.0
 10
27.8904390465
 20
66.2455047103
 30
0.0
 10
27.8596633433
 20
66.1636142251
 30
0.0
 10
27.8418794974
 20
66.0803196958
 30
0.0
 10
27.8372215204
 20
65.9963694233
 30
0.0
 10
27.8457909758
 20
65.9125330247
 30
0.0
 10
27.8674622956
 20
65.8295847451
 30
0.0
 10
27.9019825181
 20
65.7482363414
 30
0.0
 10
27.966232092
 20
65.640261732
 30
0.0
 10
28.0792469053
 20
65.5127945893
 30
0.0
 10
28.2543024387
 20
65.3807868106
 30
0.0
 10
28.466510231
 20
65.2691943453
 30
0.0
 10
28.7092760215
 20
65.1812847018
 30
0.0
 10
28.975077453
 20
65.1196546983
 30
0.0
 10
29.2555610102
 20
65.0862262426
 30
0.0
 10
29.5418684951
 20
65.0820375931
 30
0.0
 10
29.8249140233
 20
65.1072400359
 30
0.0
 10
30.0957921281
 20
65.1610146019
 30
0.0
 10
30.345858722
 20
65.2416945238
 30
0.0
 10
30.4997972907
 20
65.3147463437
 30
0.0
 10
30.5706405374
 20
65.3556474671
 30
0.0
  0
SPLINE
  5
28C
100
AcDbEntity
  8
0
100
AcDbSpline
 62
7
  6
BYLAYER
 70
0
 71
3
 72
19
 73
15
 74
0
 42
0.0000001
 43
0.0000001
 44
0.0000000001
 40
0.0
 40
0.0
 40
0.0
 40
0.0
 40
0.1502310308
 40
0.2874245777
 40
0.41249624
 40
0.4714370892
 40
0.5285721513
 40
0.5845232331
 40
0.6399904438
 40
0.6957023035
 40
0.7523717849
 40
0.8106484086
 40
0.87109725
 40
1.0
 40
1.0
 40
1.0
 40
1.0
 10
30.5706405374
 20
65.3556474671
 30
0.0
 10
30.6293210973
 20
65.3895265019
 30
0.0
 10
30.7374963717
 20
65.4620270854
 30
0.0
 10
30.8735681734
 20
65.5902815673
 30
0.0
 10
30.9577413563
 20
65.7098305053
 30
0.0
 10
31.0031579666
 20
65.8089440663
 30
0.0
 10
31.0262114188
 20
65.883273873
 30
0.0
 10
31.0386557538
 20
65.9585176918
 30
0.0
 10
31.0404439774
 20
66.034128137
 30
0.0
 10
31.0315022241
 20
66.1095538615
 30
0.0
 10
31.0119485457
 20
66.1842398615
 30
0.0
 10
30.9819521587
 20
66.2576826784
 30
0.0
 10
30.927191992
 20
66.3552700779
 30
0.0
 10
30.8726352834
 20
66.4220561784
 30
0.0
 10
30.8319467978
 20
66.4635839823
 30
0.0
  0
SPLINE
  5
28D
100
AcDbEntity
  8
0
100
AcDbSpline
 62
7
  6
BYLAYER
 70
0
 71
3
 72
9
 73
5
 74
0
 42
0.0000001
 43
0.0000001
 44
0.0000000001
 40
0.0
 40
0.0
 40
0.0
 40
0.0
 40
0.2362491101
 40
1.0
 40
1.0
 40
1.0
 40
1.0
 10
30.8319467978
 20
66.4635839823
 30
0.0
 10
30.8138322839
 20
66.4820721606
 30
0.0
 10
30.7340135943
 20
66.5572425697
 30
0.0
 10
30.6431168485
 20
66.6201625995
 30
0.0
 10
30.5706516733
 20
66.6620017344
 30
0.0
  0
SPLINE
  5
28E
100
AcDbEntity
  8
0
100
AcDbSpline
 62
7
  6
BYLAYER
 70
0
 71
3
 72
15
 73
11
 74
0
 42
0.0000001
 43
0.0000001
 44
0.0000000001
 40
0.0
 40
0.0
 40
0.0
 40
0.0
 40
0.0993948548
 40
0.2024199741
 40
0.3120925186
 40
0.430476259
 40
0.5586259013
 40
0.6967131982
 40
0.8442024618
 40
1.0
 40
1.0
 40
1.0
 40
1.0
 10
27.4392649771
 20
65.6822317075
 30
0.0
 10
27.4392655141
 20
65.6288615902
 30
0.0
 10
27.4525806366
 20
65.5197595469
 30
0.0
 10
27.5113134902
 20
65.3614095785
 30
0.0
 10
27.6069842624
 20
65.2102233343
 30
0.0
 10
27.7371980458
 20
65.0689375352
 30
0.0
 10
27.8992425164
 20
64.9397981144
 30
0.0
 10
28.0900399724
 20
64.8249413581
 30
0.0
 10
28.3060383145
 20
64.7263632238
 30
0.0
 10
28.4605246846
 20
64.6739286292
 30
0.0
 10
28.540863353
 20
64.6506058469
 30
0.0
  0
SPLINE
  5
28F
100
AcDbEntity
  8
0
100
AcDbSpline
 62
7
  6
BYLAYER
 70
0
 71
3
 72
9
 73
5
 74
0
 42
0.0000001
 43
0.0000001
 44
0.0000000001
 40
0.0
 40
0.0
 40
0.0
 40
0.0
 40
0.5161467129
 40
1.0
 40
1.0
 40
1.0
 40
1.0
 10
30.3510373795
 20
64.6545191026
 30
0.0
 10
30.4411165415
 20
64.6811574629
 30
0.0
 10
30.6131747623
 20
64.7416505832
 30
0.0
 10
30.7772236802
 20
64.8217212983
 30
0.0
 10
30.8534844275
 20
64.8657501985
 30
0.0
  0
SPLINE
  5
290
100
AcDbEntity
  8
0
100
AcDbSpline
 62
7
  6
BYLAYER
 70
0
 71
3
 72
15
 73
11
 74
0
 42
0.0000001
 43
0.0000001
 44
0.0000000001
 40
0.0
 40
0.0
 40
0.0
 40
0.0
 40
0.1141512577
 40
0.2373200215
 40
0.3669685884
 40
0.4999912727
 40
0.633015914
 40
0.7626659783
 40
0.8858477055
 40
1.0
 40
1.0
 40
1.0
 40
1.0
 10
47.5412850768
 20
56.864223626
 30
0.0
 10
47.4638360616
 20
56.9089402749
 30
0.0
 10
47.2944787805
 20
56.9878064818
 30
0.0
 10
47.0186879269
 20
57.0716357853
 30
0.0
 10
46.7200982611
 20
57.1232360988
 30
0.0
 10
46.4099249981
 20
57.1406518584
 30
0.0
 10
46.0997506386
 20
57.1232421386
 30
0.0
 10
45.8011455307
 20
57.0716539897
 30
0.0
 10
45.5253430223
 20
56.9878206033
 30
0.0
 10
45.3559732779
 20
56.9089555487
 30
0.0
 10
45.2785228205
 20
56.8642397731
 30
0.0
  0
SPLINE
  5
291
100
AcDbEntity
  8
0
100
AcDbSpline
 62
7
  6
BYLAYER
 70
0
 71
3
 72
15
 73
11
 74
0
 42
0.0000001
 43
0.0000001
 44
0.0000000001
 40
0.0
 40
0.0
 40
0.0
 40
0.0
 40
0.1080131279
 40
0.2180612218
 40
0.3320010906
 40
0.4513569005
 40
0.5772797604
 40
0.7104997397
 40
0.8513973505
 40
1.0
 40
1.0
 40
1.0
 40
1.0
 10
48.4098983808
 20
55.884453599
 30
0.0
 10
48.4098979998
 20
55.9223151836
 30
0.0
 10
48.4033072921
 20
55.9989031193
 30
0.0
 10
48.3739830973
 20
56.1120361388
 30
0.0
 10
48.325522046
 20
56.2227173152
 30
0.0
 10
48.2586167586
 20
56.3298602018
 30
0.0
 10
48.1739513647
 20
56.4324514862
 30
0.0
 10
48.072457255
 20
56.5296265931
 30
0.0
 10
47.9550911701
 20
56.6204583073
 30
0.0
 10
47.8692526295
 20
56.6748757709
 30
0.0
 10
47.8241422682
 20
56.7009209991
 30
0.0
  0
SPLINE
  5
292
100
AcDbEntity
  8
0
100
AcDbSpline
 62
7
  6
BYLAYER
 70
0
 71
3
 72
15
 73
11
 74
0
 42
0.0000001
 43
0.0000001
 44
0.0000000001
 40
0.0
 40
0.0
 40
0.0
 40
0.0
 40
0.1485260938
 40
0.2895006119
 40
0.4227409634
 40
0.5486445713
 40
0.6679954014
 40
0.7819394365
 40
0.8919880463
 40
1.0
 40
1.0
 40
1.0
 40
1.0
 10
44.9956789304
 20
56.7009351081
 30
0.0
 10
44.9505902148
 20
56.6749032814
 30
0.0
 10
44.8647543068
 20
56.6204769991
 30
0.0
 10
44.7473680563
 20
56.5296538675
 30
0.0
 10
44.6458434579
 20
56.4324642744
 30
0.0
 10
44.5611847694
 20
56.3298643064
 30
0.0
 10
44.4942835007
 20
56.2227239961
 30
0.0
 10
44.445815077
 20
56.1120427124
 30
0.0
 10
44.4164874824
 20
55.9989057448
 30
0.0
 10
44.4098979997
 20
55.9223157817
 30
0.0
 10
44.4098983807
 20
55.884453599
 30
0.0
  0
SPLINE
  5
293
100
AcDbEntity
  8
0
100
AcDbSpline
 62
7
  6
BYLAYER
 70
0
 71
3
 72
15
 73
11
 74
0
 42
0.0000001
 43
0.0000001
 44
0.0000000001
 40
0.0
 40
0.0
 40
0.0
 40
0.0
 40
0.1485260938
 40
0.2895006119
 40
0.4227409634
 40
0.5486445713
 40
0.6679954014
 40
0.7819394365
 40
0.8919880463
 40
1.0
 40
1.0
 40
1.0
 40
1.0
 10
47.824117831
 20
55.06797209
 30
0.0
 10
47.8692065466
 20
55.0940039167
 30
0.0
 10
47.9550424546
 20
55.148430199
 30
0.0
 10
48.0724287051
 20
55.2392533306
 30
0.0
 10
48.1739533035
 20
55.3364429237
 30
0.0
 10
48.258611992
 20
55.4390428917
 30
0.0
 10
48.3255132607
 20
55.546183202
 30
0.0
 10
48.3739816844
 20
55.6568644857
 30
0.0
 10
48.403309279
 20
55.7700014532
 30
0.0
 10
48.4098987617
 20
55.8465914164
 30
0.0
 10
48.4098983808
 20
55.884453599
 30
0.0
  0
SPLINE
  5
294
100
AcDbEntity
  8
0
100
AcDbSpline
 62
7
  6
BYLAYER
 70
0
 71
3
 72
9
 73
5
 74
0
 42
0.0000001
 43
0.0000001
 44
0.0000000001
 40
0.0
 40
0.0
 40
0.0
 40
0.0
 40
0.5175908732
 40
1.0
 40
1.0
 40
1.0
 40
1.0
 10
45.2785228205
 20
56.8642397731
 30
0.0
 10
45.231497774
 20
56.837090012
 30
0.0
 10
45.1433798031
 20
56.779679595
 30
0.0
 10
45.0631398163
 20
56.7114981391
 30
0.0
 10
45.0272034543
 20
56.67586335
 30
0.0
  0
SPLINE
  5
295
100
AcDbEntity
  8
0
100
AcDbSpline
 62
7
  6
BYLAYER
 70
0
 71
3
 72
27
 73
23
 74
0
 42
0.0000001
 43
0.0000001
 44
0.0000000001
 40
0.0
 40
0.0
 40
0.0
 40
0.0
 40
0.0521182558
 40
0.0763994176
 40
0.0997525388
 40
0.1224626785
 40
0.1448671171
 40
0.1673253461
 40
0.1901930937
 40
0.2137929291
 40
0.2383991237
 40
0.291320302
 40
0.3499898693
 40
0.4144512727
 40
0.4840824668
 40
0.5577891877
 40
0.6341612853
 40
0.7116005095
 40
0.7884448437
 40
0.8630593364
 40
0.9339875222
 40
1.0
 40
1.0
 40
1.0
 40
1.0
 10
45.0272034543
 20
56.67586335
 30
0.0
 10
44.9813430091
 20
56.6303877594
 30
0.0
 10
44.9202037926
 20
56.5566220268
 30
0.0
 10
44.86107245
 20
56.4477266018
 30
0.0
 10
44.8302967468
 20
56.3658361166
 30
0.0
 10
44.8125129009
 20
56.2825415873
 30
0.0
 10
44.8078549239
 20
56.1985913148
 30
0.0
 10
44.8164243793
 20
56.1147549162
 30
0.0
 10
44.8380956992
 20
56.0318066366
 30
0.0
 10
44.8726159216
 20
55.9504582329
 30
0.0
 10
44.9368654955
 20
55.8424836235
 30
0.0
 10
45.0498803088
 20
55.7150164808
 30
0.0
 10
45.2249358423
 20
55.5830087021
 30
0.0
 10
45.4371436345
 20
55.4714162368
 30
0.0
 10
45.6799094251
 20
55.3835065933
 30
0.0
 10
45.9457108565
 20
55.3218765898
 30
0.0
 10
46.2261944138
 20
55.2884481341
 30
0.0
 10
46.5125018986
 20
55.2842594846
 30
0.0
 10
46.7955474268
 20
55.3094619274
 30
0.0
 10
47.0664255316
 20
55.3632364934
 30
0.0
 10
47.3164921255
 20
55.4439164153
 30
0.0
 10
47.4704306942
 20
55.5169682352
 30
0.0
 10
47.5412739409
 20
55.5578693587
 30
0.0
  0
SPLINE
  5
296
100
AcDbEntity
  8
0
100
AcDbSpline
 62
7
  6
BYLAYER
 70
0
 71
3
 72
19
 73
15
 74
0
 42
0.0000001
 43
0.0000001
 44
0.0000000001
 40
0.0
 40
0.0
 40
0.0
 40
0.0
 40
0.1502310308
 40
0.2874245777
 40
0.41249624
 40
0.4714370892
 40
0.5285721513
 40
0.5845232331
 40
0.6399904438
 40
0.6957023035
 40
0.7523717849
 40
0.8106484086
 40
0.87109725
 40
1.0
 40
1.0
 40
1.0
 40
1.0
 10
47.5412739409
 20
55.5578693587
 30
0.0
 10
47.5999545008
 20
55.5917483935
 30
0.0
 10
47.7081297753
 20
55.6642489769
 30
0.0
 10
47.8442015769
 20
55.7925034588
 30
0.0
 10
47.9283747599
 20
55.9120523969
 30
0.0
 10
47.9737913701
 20
56.0111659579
 30
0.0
 10
47.9968448223
 20
56.0854957645
 30
0.0
 10
48.0092891573
 20
56.1607395834
 30
0.0
 10
48.0110773809
 20
56.2363500285
 30
0.0
 10
48.0021356276
 20
56.311775753
 30
0.0
 10
47.9825819492
 20
56.386461753
 30
0.0
 10
47.9525855623
 20
56.4599045699
 30
0.0
 10
47.8978253955
 20
56.5574919694
 30
0.0
 10
47.843268687
 20
56.6242780699
 30
0.0
 10
47.8025802013
 20
56.6658058738
 30
0.0
  0
SPLINE
  5
297
100
AcDbEntity
  8
0
100
AcDbSpline
 62
7
  6
BYLAYER
 70
0
 71
3
 72
9
 73
5
 74
0
 42
0.0000001
 43
0.0000001
 44
0.0000000001
 40
0.0
 40
0.0
 40
0.0
 40
0.0
 40
0.2362491101
 40
1.0
 40
1.0
 40
1.0
 40
1.0
 10
47.8025802013
 20
56.6658058738
 30
0.0
 10
47.7844656874
 20
56.6842940521
 30
0.0
 10
47.7046469978
 20
56.7594644612
 30
0.0
 10
47.613750252
 20
56.8223844911
 30
0.0
 10
47.5412850768
 20
56.864223626
 30
0.0
  0
SPLINE
  5
298
100
AcDbEntity
  8
0
100
AcDbSpline
 62
7
  6
BYLAYER
 70
0
 71
3
 72
25
 73
21
 74
0
 42
0.0000001
 43
0.0000001
 44
0.0000000001
 40
0.0
 40
0.0
 40
0.0
 40
0.0
 40
0.0213317797
 40
0.042892043
 40
0.0648969414
 40
0.0875419536
 40
0.1353163243
 40
0.1872166937
 40
0.2436548455
 40
0.3046029226
 40
0.3696903377
 40
0.4382877458
 40
0.5095749599
 40
0.5825996089
 40
0.6563309761
 40
0.7297087932
 40
0.8016867703
 40
0.8712723804
 40
0.9376269365
 40
1.0
 40
1.0
 40
1.0
 40
1.0
 10
44.4098983807
 20
55.884453599
 30
0.0
 10
44.4098986661
 20
55.8560814597
 30
0.0
 10
44.4135714888
 20
55.7989681892
 30
0.0
 10
44.4299728625
 20
55.7140093525
 30
0.0
 10
44.4571901679
 20
55.6300289529
 30
0.0
 10
44.5085516404
 20
55.5180822806
 30
0.0
 10
44.6006894541
 20
55.3824830441
 30
0.0
 10
44.7478891944
 20
55.2346889226
 30
0.0
 10
44.9303184316
 20
55.1013829896
 30
0.0
 10
45.144059867
 20
54.9851377346
 30
0.0
 10
45.3846436723
 20
54.8882111449
 30
0.0
 10
45.6470169581
 20
54.8125919014
 30
0.0
 10
45.9256356279
 20
54.7598644019
 30
0.0
 10
46.2145765575
 20
54.7311344705
 30
0.0
 10
46.5076834317
 20
54.7270071033
 30
0.0
 10
46.7987080714
 20
54.7475755356
 30
0.0
 10
47.0814265134
 20
54.792417241
 30
0.0
 10
47.3498794006
 20
54.8605525068
 30
0.0
 10
47.5982733457
 20
54.9505770407
 30
0.0
 10
47.7522733606
 20
55.0264929132
 30
0.0
 10
47.824117831
 20
55.06797209
 30
0.0
  0
SPLINE
  5
299
100
AcDbEntity
  8
0
100
AcDbSpline
 62
7
  6
BYLAYER
 70
0
 71
3
 72
15
 73
11
 74
0
 42
0.0000001
 43
0.0000001
 44
0.0000000001
 40
0.0
 40
0.0
 40
0.0
 40
0.0
 40
0.1141512577
 40
0.2373200215
 40
0.3669685884
 40
0.4999912727
 40
0.633015914
 40
0.7626659783
 40
0.8858477055
 40
1.0
 40
1.0
 40
1.0
 40
1.0
 10
13.6001595802
 20
56.8641420415
 30
0.0
 10
13.5227105649
 20
56.9088586905
 30
0.0
 10
13.3533532838
 20
56.9877248973
 30
0.0
 10
13.0775624302
 20
57.0715542009
 30
0.0
 10
12.7789727644
 20
57.1231545144
 30
0.0
 10
12.4687995014
 20
57.140570274
 30
0.0
 10
12.158625142
 20
57.1231605541
 30
0.0
 10
11.860020034
 20
57.0715724053
 30
0.0
 10
11.5842175257
 20
56.9877390188
 30
0.0
 10
11.4148477813
 20
56.9088739642
 30
0.0
 10
11.3373973238
 20
56.8641581887
 30
0.0
  0
SPLINE
  5
29A
100
AcDbEntity
  8
0
100
AcDbSpline
 62
7
  6
BYLAYER
 70
0
 71
3
 72
15
 73
11
 74
0
 42
0.0000001
 43
0.0000001
 44
0.0000000001
 40
0.0
 40
0.0
 40
0.0
 40
0.0
 40
0.1080131279
 40
0.2180612218
 40
0.3320010906
 40
0.4513569005
 40
0.5772797604
 40
0.7104997397
 40
0.8513973505
 40
1.0
 40
1.0
 40
1.0
 40
1.0
 10
14.4687728841
 20
55.8843720146
 30
0.0
 10
14.4687725031
 20
55.9222335992
 30
0.0
 10
14.4621817955
 20
55.9988215349
 30
0.0
 10
14.4328576007
 20
56.1119545544
 30
0.0
 10
14.3843965493
 20
56.2226357308
 30
0.0
 10
14.317491262
 20
56.3297786174
 30
0.0
 10
14.232825868
 20
56.4323699018
 30
0.0
 10
14.1313317583
 20
56.5295450086
 30
0.0
 10
14.0139656735
 20
56.6203767228
 30
0.0
 10
13.9281271328
 20
56.6747941865
 30
0.0
 10
13.8830167716
 20
56.7008394147
 30
0.0
  0
SPLINE
  5
29B
100
AcDbEntity
  8
0
100
AcDbSpline
 62
7
  6
BYLAYER
 70
0
 71
3
 72
15
 73
11
 74
0
 42
0.0000001
 43
0.0000001
 44
0.0000000001
 40
0.0
 40
0.0
 40
0.0
 40
0.0
 40
0.1485260938
 40
0.2895006119
 40
0.4227409634
 40
0.5486445713
 40
0.6679954014
 40
0.7819394365
 40
0.8919880463
 40
1.0
 40
1.0
 40
1.0
 40
1.0
 10
11.0545534337
 20
56.7008535236
 30
0.0
 10
11.0094647181
 20
56.6748216969
 30
0.0
 10
10.9236288101
 20
56.6203954146
 30
0.0
 10
10.8062425596
 20
56.529572283
 30
0.0
 10
10.7047179612
 20
56.4323826899
 30
0.0
 10
10.6200592727
 20
56.3297827219
 30
0.0
 10
10.553158004
 20
56.2226424116
 30
0.0
 10
10.5046895803
 20
56.111961128
 30
0.0
 10
10.4753619858
 20
55.9988241604
 30
0.0
 10
10.468772503
 20
55.9222341973
 30
0.0
 10
10.468772884
 20
55.8843720146
 30
0.0
  0
SPLINE
  5
29C
100
AcDbEntity
  8
0
100
AcDbSpline
 62
7
  6
BYLAYER
 70
0
 71
3
 72
15
 73
11
 74
0
 42
0.0000001
 43
0.0000001
 44
0.0000000001
 40
0.0
 40
0.0
 40
0.0
 40
0.0
 40
0.1485260938
 40
0.2895006119
 40
0.4227409634
 40
0.5486445713
 40
0.6679954014
 40
0.7819394365
 40
0.8919880463
 40
1.0
 40
1.0
 40
1.0
 40
1.0
 10
13.8829923343
 20
55.0678905056
 30
0.0
 10
13.9280810499
 20
55.0939223323
 30
0.0
 10
14.0139169579
 20
55.1483486146
 30
0.0
 10
14.1313032085
 20
55.2391717462
 30
0.0
 10
14.2328278069
 20
55.3363613393
 30
0.0
 10
14.3174864954
 20
55.4389613073
 30
0.0
 10
14.3843877641
 20
55.5461016176
 30
0.0
 10
14.4328561877
 20
55.6567829012
 30
0.0
 10
14.4621837823
 20
55.7699198688
 30
0.0
 10
14.468773265
 20
55.8465098319
 30
0.0
 10
14.4687728841
 20
55.8843720146
 30
0.0
  0
SPLINE
  5
29D
100
AcDbEntity
  8
0
100
AcDbSpline
 62
7
  6
BYLAYER
 70
0
 71
3
 72
9
 73
5
 74
0
 42
0.0000001
 43
0.0000001
 44
0.0000000001
 40
0.0
 40
0.0
 40
0.0
 40
0.0
 40
0.5175908732
 40
1.0
 40
1.0
 40
1.0
 40
1.0
 10
11.3373973238
 20
56.8641581887
 30
0.0
 10
11.2903722774
 20
56.8370084275
 30
0.0
 10
11.2022543064
 20
56.7795980106
 30
0.0
 10
11.1220143196
 20
56.7114165547
 30
0.0
 10
11.0860779576
 20
56.6757817656
 30
0.0
  0
SPLINE
  5
29E
100
AcDbEntity
  8
0
100
AcDbSpline
 62
7
  6
BYLAYER
 70
0
 71
3
 72
27
 73
23
 74
0
 42
0.0000001
 43
0.0000001
 44
0.0000000001
 40
0.0
 40
0.0
 40
0.0
 40
0.0
 40
0.0521182558
 40
0.0763994176
 40
0.0997525388
 40
0.1224626785
 40
0.1448671171
 40
0.1673253461
 40
0.1901930937
 40
0.2137929291
 40
0.2383991237
 40
0.291320302
 40
0.3499898693
 40
0.4144512727
 40
0.4840824668
 40
0.5577891877
 40
0.6341612853
 40
0.7116005095
 40
0.7884448437
 40
0.8630593364
 40
0.9339875222
 40
1.0
 40
1.0
 40
1.0
 40
1.0
 10
11.0860779576
 20
56.6757817656
 30
0.0
 10
11.0402175124
 20
56.630306175
 30
0.0
 10
10.9790782959
 20
56.5565404424
 30
0.0
 10
10.9199469533
 20
56.4476450174
 30
0.0
 10
10.8891712501
 20
56.3657545322
 30
0.0
 10
10.8713874043
 20
56.2824600029
 30
0.0
 10
10.8667294272
 20
56.1985097303
 30
0.0
 10
10.8752988826
 20
56.1146733318
 30
0.0
 10
10.8969702025
 20
56.0317250522
 30
0.0
 10
10.931490425
 20
55.9503766485
 30
0.0
 10
10.9957399988
 20
55.8424020391
 30
0.0
 10
11.1087548122
 20
55.7149348964
 30
0.0
 10
11.2838103456
 20
55.5829271176
 30
0.0
 10
11.4960181378
 20
55.4713346524
 30
0.0
 10
11.7387839284
 20
55.3834250089
 30
0.0
 10
12.0045853598
 20
55.3217950053
 30
0.0
 10
12.2850689171
 20
55.2883665497
 30
0.0
 10
12.571376402
 20
55.2841779002
 30
0.0
 10
12.8544219301
 20
55.309380343
 30
0.0
 10
13.1253000349
 20
55.363154909
 30
0.0
 10
13.3753666289
 20
55.4438348309
 30
0.0
 10
13.5293051976
 20
55.5168866508
 30
0.0
 10
13.6001484443
 20
55.5577877742
 30
0.0
  0
SPLINE
  5
29F
100
AcDbEntity
  8
0
100
AcDbSpline
 62
7
  6
BYLAYER
 70
0
 71
3
 72
19
 73
15
 74
0
 42
0.0000001
 43
0.0000001
 44
0.0000000001
 40
0.0
 40
0.0
 40
0.0
 40
0.0
 40
0.1502310308
 40
0.2874245777
 40
0.41249624
 40
0.4714370892
 40
0.5285721513
 40
0.5845232331
 40
0.6399904438
 40
0.6957023035
 40
0.7523717849
 40
0.8106484086
 40
0.87109725
 40
1.0
 40
1.0
 40
1.0
 40
1.0
 10
13.6001484443
 20
55.5577877742
 30
0.0
 10
13.6588290041
 20
55.591666809
 30
0.0
 10
13.7670042786
 20
55.6641673925
 30
0.0
 10
13.9030760803
 20
55.7924218744
 30
0.0
 10
13.9872492632
 20
55.9119708124
 30
0.0
 10
14.0326658734
 20
56.0110843734
 30
0.0
 10
14.0557193256
 20
56.0854141801
 30
0.0
 10
14.0681636607
 20
56.1606579989
 30
0.0
 10
14.0699518843
 20
56.2362684441
 30
0.0
 10
14.061010131
 20
56.3116941686
 30
0.0
 10
14.0414564525
 20
56.3863801686
 30
0.0
 10
14.0114600656
 20
56.4598229855
 30
0.0
 10
13.9566998988
 20
56.5574103849
 30
0.0
 10
13.9021431903
 20
56.6241964855
 30
0.0
 10
13.8614547046
 20
56.6657242893
 30
0.0
  0
SPLINE
  5
2A0
100
AcDbEntity
  8
0
100
AcDbSpline
 62
7
  6
BYLAYER
 70
0
 71
3
 72
9
 73
5
 74
0
 42
0.0000001
 43
0.0000001
 44
0.0000000001
 40
0.0
 40
0.0
 40
0.0
 40
0.0
 40
0.2362491101
 40
1.0
 40
1.0
 40
1.0
 40
1.0
 10
13.8614547046
 20
56.6657242893
 30
0.0
 10
13.8433401908
 20
56.6842124677
 30
0.0
 10
13.7635215012
 20
56.7593828767
 30
0.0
 10
13.6726247554
 20
56.8223029066
 30
0.0
 10
13.6001595802
 20
56.8641420415
 30
0.0
  0
SPLINE
  5
2A1
100
AcDbEntity
  8
0
100
AcDbSpline
 62
7
  6
BYLAYER
 70
0
 71
3
 72
25
 73
21
 74
0
 42
0.0000001
 43
0.0000001
 44
0.0000000001
 40
0.0
 40
0.0
 40
0.0
 40
0.0
 40
0.0213317797
 40
0.042892043
 40
0.0648969414
 40
0.0875419536
 40
0.1353163243
 40
0.1872166937
 40
0.2436548455
 40
0.3046029226
 40
0.3696903377
 40
0.4382877458
 40
0.5095749599
 40
0.5825996089
 40
0.6563309761
 40
0.7297087932
 40
0.8016867703
 40
0.8712723804
 40
0.9376269365
 40
1.0
 40
1.0
 40
1.0
 40
1.0
 10
10.468772884
 20
55.8843720146
 30
0.0
 10
10.4687731695
 20
55.8559998753
 30
0.0
 10
10.4724459921
 20
55.7988866048
 30
0.0
 10
10.4888473659
 20
55.7139277681
 30
0.0
 10
10.5160646712
 20
55.6299473685
 30
0.0
 10
10.5674261438
 20
55.5180006962
 30
0.0
 10
10.6595639575
 20
55.3824014597
 30
0.0
 10
10.8067636978
 20
55.2346073382
 30
0.0
 10
10.989192935
 20
55.1013014051
 30
0.0
 10
11.2029343704
 20
54.9850561502
 30
0.0
 10
11.4435181756
 20
54.8881295604
 30
0.0
 10
11.7058914614
 20
54.812510317
 30
0.0
 10
11.9845101313
 20
54.7597828174
 30
0.0
 10
12.2734510608
 20
54.7310528861
 30
0.0
 10
12.566557935
 20
54.7269255189
 30
0.0
 10
12.8575825748
 20
54.7474939511
 30
0.0
 10
13.1403010167
 20
54.7923356565
 30
0.0
 10
13.408753904
 20
54.8604709223
 30
0.0
 10
13.657147849
 20
54.9504954562
 30
0.0
 10
13.8111478639
 20
55.0264113288
 30
0.0
 10
13.8829923343
 20
55.0678905056
 30
0.0
  0
SPLINE
  5
2A2
100
AcDbEntity
  8
0
100
AcDbSpline
 62
7
  6
BYLAYER
 70
0
 71
3
 72
15
 73
11
 74
0
 42
0.0000001
 43
0.0000001
 44
0.0000000001
 40
0.0
 40
0.0
 40
0.0
 40
0.0
 40
0.1141512577
 40
0.2373200215
 40
0.3669685884
 40
0.4999912727
 40
0.633015914
 40
0.7626659783
 40
0.8858477055
 40
1.0
 40
1.0
 40
1.0
 40
1.0
 10
30.5707929837
 20
47.066363933
 30
0.0
 10
30.4933439684
 20
47.111080582
 30
0.0
 10
30.3239866873
 20
47.1899467889
 30
0.0
 10
30.0481958338
 20
47.2737760924
 30
0.0
 10
29.749606168
 20
47.3253764059
 30
0.0
 10
29.439432905
 20
47.3427921655
 30
0.0
 10
29.1292585455
 20
47.3253824457
 30
0.0
 10
28.8306534376
 20
47.2737942968
 30
0.0
 10
28.5548509292
 20
47.1899609103
 30
0.0
 10
28.3854811848
 20
47.1110958558
 30
0.0
 10
28.3080307273
 20
47.0663800802
 30
0.0
  0
SPLINE
  5
2A3
100
AcDbEntity
  8
0
100
AcDbSpline
 62
7
  6
BYLAYER
 70
0
 71
3
 72
15
 73
11
 74
0
 42
0.0000001
 43
0.0000001
 44
0.0000000001
 40
0.0
 40
0.0
 40
0.0
 40
0.0
 40
0.1080131279
 40
0.2180612218
 40
0.3320010906
 40
0.4513569005
 40
0.5772797604
 40
0.7104997397
 40
0.8513973505
 40
1.0
 40
1.0
 40
1.0
 40
1.0
 10
31.4394062876
 20
46.0865939061
 30
0.0
 10
31.4394059067
 20
46.1244554907
 30
0.0
 10
31.432815199
 20
46.2010434264
 30
0.0
 10
31.4034910042
 20
46.3141764459
 30
0.0
 10
31.3550299528
 20
46.4248576223
 30
0.0
 10
31.2881246655
 20
46.5320005089
 30
0.0
 10
31.2034592715
 20
46.6345917933
 30
0.0
 10
31.1019651618
 20
46.7317669001
 30
0.0
 10
30.984599077
 20
46.8225986143
 30
0.0
 10
30.8987605364
 20
46.877016078
 30
0.0
 10
30.8536501751
 20
46.9030613062
 30
0.0
  0
SPLINE
  5
2A4
100
AcDbEntity
  8
0
100
AcDbSpline
 62
7
  6
BYLAYER
 70
0
 71
3
 72
15
 73
11
 74
0
 42
0.0000001
 43
0.0000001
 44
0.0000000001
 40
0.0
 40
0.0
 40
0.0
 40
0.0
 40
0.1485260938
 40
0.2895006119
 40
0.4227409634
 40
0.5486445713
 40
0.6679954014
 40
0.7819394365
 40
0.8919880463
 40
1.0
 40
1.0
 40
1.0
 40
1.0
 10
28.0251868373
 20
46.9030754152
 30
0.0
 10
27.9800981217
 20
46.8770435885
 30
0.0
 10
27.8942622137
 20
46.8226173061
 30
0.0
 10
27.7768759632
 20
46.7317941745
 30
0.0
 10
27.6753513648
 20
46.6346045815
 30
0.0
 10
27.5906926763
 20
46.5320046134
 30
0.0
 10
27.5237914075
 20
46.4248643031
 30
0.0
 10
27.4753229839
 20
46.3141830195
 30
0.0
 10
27.4459953893
 20
46.2010460519
 30
0.0
 10
27.4394059066
 20
46.1244560888
 30
0.0
 10
27.4394062875
 20
46.0865939061
 30
0.0
  0
SPLINE
  5
2A5
100
AcDbEntity
  8
0
100
AcDbSpline
 62
7
  6
BYLAYER
 70
0
 71
3
 72
15
 73
11
 74
0
 42
0.0000001
 43
0.0000001
 44
0.0000000001
 40
0.0
 40
0.0
 40
0.0
 40
0.0
 40
0.1485260938
 40
0.2895006119
 40
0.4227409634
 40
0.5486445713
 40
0.6679954014
 40
0.7819394365
 40
0.8919880463
 40
1.0
 40
1.0
 40
1.0
 40
1.0
 10
30.8536257379
 20
45.2701123971
 30
0.0
 10
30.8987144535
 20
45.2961442238
 30
0.0
 10
30.9845503615
 20
45.3505705061
 30
0.0
 10
31.101936612
 20
45.4413936377
 30
0.0
 10
31.2034612104
 20
45.5385832308
 30
0.0
 10
31.2881198989
 20
45.6411831988
 30
0.0
 10
31.3550211676
 20
45.7483235091
 30
0.0
 10
31.4034895913
 20
45.8590047928
 30
0.0
 10
31.4328171858
 20
45.9721417603
 30
0.0
 10
31.4394066686
 20
46.0487317235
 30
0.0
 10
31.4394062876
 20
46.0865939061
 30
0.0
  0
SPLINE
  5
2A6
100
AcDbEntity
  8
0
100
AcDbSpline
 62
7
  6
BYLAYER
 70
0
 71
3
 72
9
 73
5
 74
0
 42
0.0000001
 43
0.0000001
 44
0.0000000001
 40
0.0
 40
0.0
 40
0.0
 40
0.0
 40
0.5175908732
 40
1.0
 40
1.0
 40
1.0
 40
1.0
 10
28.3080307273
 20
47.0663800802
 30
0.0
 10
28.2610056809
 20
47.039230319
 30
0.0
 10
28.17288771
 20
46.9818199021
 30
0.0
 10
28.0926477232
 20
46.9136384462
 30
0.0
 10
28.0567113611
 20
46.8780036571
 30
0.0
  0
SPLINE
  5
2A7
100
AcDbEntity
  8
0
100
AcDbSpline
 62
7
  6
BYLAYER
 70
0
 71
3
 72
27
 73
23
 74
0
 42
0.0000001
 43
0.0000001
 44
0.0000000001
 40
0.0
 40
0.0
 40
0.0
 40
0.0
 40
0.0521182558
 40
0.0763994176
 40
0.0997525388
 40
0.1224626785
 40
0.1448671171
 40
0.1673253461
 40
0.1901930937
 40
0.2137929291
 40
0.2383991237
 40
0.291320302
 40
0.3499898693
 40
0.4144512727
 40
0.4840824668
 40
0.5577891877
 40
0.6341612853
 40
0.7116005095
 40
0.7884448437
 40
0.8630593364
 40
0.9339875222
 40
1.0
 40
1.0
 40
1.0
 40
1.0
 10
28.0567113611
 20
46.8780036571
 30
0.0
 10
28.0108509159
 20
46.8325280665
 30
0.0
 10
27.9497116994
 20
46.7587623339
 30
0.0
 10
27.8905803568
 20
46.6498669089
 30
0.0
 10
27.8598046537
 20
46.5679764237
 30
0.0
 10
27.8420208078
 20
46.4846818944
 30
0.0
 10
27.8373628308
 20
46.4007316219
 30
0.0
 10
27.8459322861
 20
46.3168952233
 30
0.0
 10
27.867603606
 20
46.2339469437
 30
0.0
 10
27.9021238285
 20
46.15259854
 30
0.0
 10
27.9663734024
 20
46.0446239306
 30
0.0
 10
28.0793882157
 20
45.9171567879
 30
0.0
 10
28.2544437491
 20
45.7851490092
 30
0.0
 10
28.4666515414
 20
45.6735565439
 30
0.0
 10
28.7094173319
 20
45.5856469004
 30
0.0
 10
28.9752187634
 20
45.5240168968
 30
0.0
 10
29.2557023206
 20
45.4905884412
 30
0.0
 10
29.5420098055
 20
45.4863997917
 30
0.0
 10
29.8250553337
 20
45.5116022345
 30
0.0
 10
30.0959334385
 20
45.5653768005
 30
0.0
 10
30.3460000324
 20
45.6460567224
 30
0.0
 10
30.4999386011
 20
45.7191085423
 30
0.0
 10
30.5707818478
 20
45.7600096657
 30
0.0
  0
SPLINE
  5
2A8
100
AcDbEntity
  8
0
100
AcDbSpline
 62
7
  6
BYLAYER
 70
0
 71
3
 72
19
 73
15
 74
0
 42
0.0000001
 43
0.0000001
 44
0.0000000001
 40
0.0
 40
0.0
 40
0.0
 40
0.0
 40
0.1502310308
 40
0.2874245777
 40
0.41249624
 40
0.4714370892
 40
0.5285721513
 40
0.5845232331
 40
0.6399904438
 40
0.6957023035
 40
0.7523717849
 40
0.8106484086
 40
0.87109725
 40
1.0
 40
1.0
 40
1.0
 40
1.0
 10
30.5707818478
 20
45.7600096657
 30
0.0
 10
30.6294624077
 20
45.7938887005
 30
0.0
 10
30.7376376821
 20
45.866389284
 30
0.0
 10
30.8737094838
 20
45.9946437659
 30
0.0
 10
30.9578826667
 20
46.1141927039
 30
0.0
 10
31.0032992769
 20
46.2133062649
 30
0.0
 10
31.0263527292
 20
46.2876360716
 30
0.0
 10
31.0387970642
 20
46.3628798904
 30
0.0
 10
31.0405852878
 20
46.4384903356
 30
0.0
 10
31.0316435345
 20
46.5139160601
 30
0.0
 10
31.0120898561
 20
46.5886020601
 30
0.0
 10
30.9820934691
 20
46.662044877
 30
0.0
 10
30.9273333024
 20
46.7596322765
 30
0.0
 10
30.8727765938
 20
46.826418377
 30
0.0
 10
30.8320881082
 20
46.8679461809
 30
0.0
  0
SPLINE
  5
2A9
100
AcDbEntity
  8
0
100
AcDbSpline
 62
7
  6
BYLAYER
 70
0
 71
3
 72
9
 73
5
 74
0
 42
0.0000001
 43
0.0000001
 44
0.0000000001
 40
0.0
 40
0.0
 40
0.0
 40
0.0
 40
0.2362491101
 40
1.0
 40
1.0
 40
1.0
 40
1.0
 10
30.8320881082
 20
46.8679461809
 30
0.0
 10
30.8139735943
 20
46.8864343592
 30
0.0
 10
30.7341549047
 20
46.9616047683
 30
0.0
 10
30.6432581589
 20
47.0245247981
 30
0.0
 10
30.5707929837
 20
47.066363933
 30
0.0
  0
SPLINE
  5
2AA
100
AcDbEntity
  8
0
100
AcDbSpline
 62
7
  6
BYLAYER
 70
0
 71
3
 72
25
 73
21
 74
0
 42
0.0000001
 43
0.0000001
 44
0.0000000001
 40
0.0
 40
0.0
 40
0.0
 40
0.0
 40
0.0213317797
 40
0.042892043
 40
0.0648969414
 40
0.0875419536
 40
0.1353163243
 40
0.1872166937
 40
0.2436548455
 40
0.3046029226
 40
0.3696903377
 40
0.4382877458
 40
0.5095749599
 40
0.5825996089
 40
0.6563309761
 40
0.7297087932
 40
0.8016867703
 40
0.8712723804
 40
0.9376269365
 40
1.0
 40
1.0
 40
1.0
 40
1.0
 10
27.4394062875
 20
46.0865939061
 30
0.0
 10
27.439406573
 20
46.0582217668
 30
0.0
 10
27.4430793956
 20
46.0011084963
 30
0.0
 10
27.4594807694
 20
45.9161496596
 30
0.0
 10
27.4866980748
 20
45.83216926
 30
0.0
 10
27.5380595473
 20
45.7202225877
 30
0.0
 10
27.630197361
 20
45.5846233512
 30
0.0
 10
27.7773971013
 20
45.4368292297
 30
0.0
 10
27.9598263385
 20
45.3035232966
 30
0.0
 10
28.1735677739
 20
45.1872780417
 30
0.0
 10
28.4141515791
 20
45.0903514519
 30
0.0
 10
28.6765248649
 20
45.0147322085
 30
0.0
 10
28.9551435348
 20
44.962004709
 30
0.0
 10
29.2440844644
 20
44.9332747776
 30
0.0
 10
29.5371913386
 20
44.9291474104
 30
0.0
 10
29.8282159783
 20
44.9497158426
 30
0.0
 10
30.1109344202
 20
44.9945575481
 30
0.0
 10
30.3793873075
 20
45.0626928139
 30
0.0
 10
30.6277812525
 20
45.1527173477
 30
0.0
 10
30.7817812674
 20
45.2286332203
 30
0.0
 10
30.8536257379
 20
45.2701123971
 30
0.0
  0
SPLINE
  5
2AB
100
AcDbEntity
  8
0
100
AcDbSpline
 62
7
  6
BYLAYER
 70
0
 71
3
 72
23
 73
19
 74
0
 42
0.0000001
 43
0.0000001
 44
0.0000000001
 40
0.0
 40
0.0
 40
0.0
 40
0.0
 40
0.0457811485
 40
0.0949746517
 40
0.1479196237
 40
0.2046662713
 40
0.2650339284
 40
0.3286524406
 40
0.3950076248
 40
0.4634799645
 40
0.5333701617
 40
0.6039304068
 40
0.6743911252
 40
0.7439893375
 40
0.8119839948
 40
0.8776908572
 40
0.9405454215
 40
1.0
 40
1.0
 40
1.0
 40
1.0
 10
31.2513277838
 20
60.7867942824
 30
0.0
 10
31.2261152347
 20
60.8329463308
 30
0.0
 10
31.1644051374
 20
60.9237359002
 30
0.0
 10
31.0468170435
 20
61.0472289922
 30
0.0
 10
30.9032412312
 20
61.1607720425
 30
0.0
 10
30.7360762933
 20
61.2626570219
 30
0.0
 10
30.5479752347
 20
61.3513496142
 30
0.0
 10
30.3419558672
 20
61.4254711244
 30
0.0
 10
30.1213312995
 20
61.4838705705
 30
0.0
 10
29.8896534256
 20
61.5255907241
 30
0.0
 10
29.6506731122
 20
61.549964864
 30
0.0
 10
29.4082662502
 20
61.5566153362
 30
0.0
 10
29.1663616757
 20
61.5454110406
 30
0.0
 10
28.9288856977
 20
61.5165363034
 30
0.0
 10
28.6996883481
 20
61.4704855064
 30
0.0
 10
28.482438819
 20
61.4079634455
 30
0.0
 10
28.2807266888
 20
61.3299718211
 30
0.0
 10
28.1549739467
 20
61.2666319888
 30
0.0
 10
28.0958271546
 20
61.2324837763
 30
0.0
  0
SPLINE
  5
2AC
100
AcDbEntity
  8
0
100
AcDbSpline
 62
7
  6
BYLAYER
 70
0
 71
3
 72
14
 73
10
 74
0
 42
0.0000001
 43
0.0000001
 44
0.0000000001
 40
0.0
 40
0.0
 40
0.0
 40
0.0
 40
0.1080578617
 40
0.2181536135
 40
0.3321483672
 40
0.4515529382
 40
0.7103677854
 40
0.8514074843
 40
1.0
 40
1.0
 40
1.0
 40
1.0
 10
31.339333391
 20
61.1100282763
 30
0.0
 10
31.3393336898
 20
61.0740601076
 30
0.0
 10
31.3330751313
 20
61.0013007841
 30
0.0
 10
31.3052148506
 20
60.8938246118
 30
0.0
 10
31.2591676835
 20
60.7886699799
 30
0.0
 10
31.1721364197
 20
60.6493003987
 30
0.0
 10
31.0517281437
 20
60.5226033576
 30
0.0
 10
30.9072463571
 20
60.4108268794
 30
0.0
 10
30.825678262
 20
60.3591010043
 30
0.0
 10
30.7828441102
 20
60.3343708429
 30
0.0
  0
SPLINE
  5
2AD
100
AcDbEntity
  8
0
100
AcDbSpline
 62
7
  6
BYLAYER
 70
0
 71
3
 72
28
 73
24
 74
0
 42
0.0000001
 43
0.0000001
 44
0.0000000001
 40
0.0
 40
0.0
 40
0.0
 40
0.0
 40
0.021329098
 40
0.0428866739
 40
0.0648889103
 40
0.087530704
 40
0.1109768854
 40
0.1353607094
 40
0.187254797
 40
0.2149150587
 40
0.2437224237
 40
0.3046626035
 40
0.3697422387
 40
0.438331036
 40
0.5096087139
 40
0.5826239842
 40
0.6563464097
 40
0.7297145361
 40
0.8016819268
 40
0.871266416
 40
0.9375963875
 40
0.9693350078
 40
1.0
 40
1.0
 40
1.0
 40
1.0
 10
35.689326996
 20
61.110028276
 30
0.0
 10
35.6893268916
 20
61.1986913262
 30
0.0
 10
35.6778964394
 20
61.3771737191
 30
0.0
 10
35.6265988751
 20
61.6426681091
 30
0.0
 10
35.541556406
 20
61.9050953072
 30
0.0
 10
35.4232736181
 20
62.1628970709
 30
0.0
 10
35.2725480277
 20
62.4147386732
 30
0.0
 10
35.0244049573
 20
62.7475288411
 30
0.0
 10
34.7177817432
 20
63.0555447412
 30
0.0
 10
34.3652026549
 20
63.3362683484
 30
0.0
 10
33.96204148
 20
63.6120537332
 30
0.0
 10
33.3950406941
 20
63.9204273752
 30
0.0
 10
32.6432766959
 20
64.2232807498
 30
0.0
 10
31.8233377409
 20
64.4595889863
 30
0.0
 10
30.9526648278
 20
64.6243729771
 30
0.0
 10
30.0497247633
 20
64.7141658283
 30
0.0
 10
29.133763469
 20
64.7270542058
 30
0.0
 10
28.2243270023
 20
64.6627642047
 30
0.0
 10
27.3407744634
 20
64.522662125
 30
0.0
 10
26.5020021438
 20
64.3097285551
 30
0.0
 10
25.8454131936
 20
64.0718430255
 30
0.0
 10
25.3592126493
 20
63.8477070567
 30
0.0
 10
25.1302935572
 20
63.7252684482
 30
0.0
 10
25.0198998502
 20
63.6615329922
 30
0.0
  0
SPLINE
  5
2AE
100
AcDbEntity
  8
0
100
AcDbSpline
 62
7
  6
BYLAYER
 70
0
 71
3
 72
15
 73
11
 74
0
 42
0.0000001
 43
0.0000001
 44
0.0000000001
 40
0.0
 40
0.0
 40
0.0
 40
0.0
 40
0.1145548202
 40
0.2302436291
 40
0.3481465996
 40
0.4692404232
 40
0.5943589897
 40
0.7242032221
 40
0.8593218132
 40
1.0
 40
1.0
 40
1.0
 40
1.0
 10
37.7893271067
 20
59.6403239256
 30
0.0
 10
37.7893271064
 20
59.7541514046
 30
0.0
 10
37.7752315303
 20
59.9831774732
 30
0.0
 10
37.7119892327
 20
60.3240911672
 30
0.0
 10
37.6070604398
 20
60.6613775088
 30
0.0
 10
37.4610665982
 20
60.9932061876
 30
0.0
 10
37.2748816028
 20
61.3179403609
 30
0.0
 10
37.0494984361
 20
61.6340059393
 30
0.0
 10
36.7861383314
 20
61.9397912545
 30
0.0
 10
36.5902220179
 20
62.1319099741
 30
0.0
 10
36.4867605115
 20
62.2259076207
 30
0.0
  0
SPLINE
  5
2AF
100
AcDbEntity
  8
0
100
AcDbSpline
 62
7
  6
BYLAYER
 70
0
 71
3
 72
15
 73
11
 74
0
 42
0.0000001
 43
0.0000001
 44
0.0000000001
 40
0.0
 40
0.0
 40
0.0
 40
0.0
 40
0.1406778591
 40
0.2757962216
 40
0.4056403317
 40
0.5307588797
 40
0.6518527803
 40
0.7697559084
 40
0.8854449332
 40
1.0
 40
1.0
 40
1.0
 40
1.0
 10
22.3918734626
 20
62.2258737407
 30
0.0
 10
22.2884148045
 20
62.131876953
 30
0.0
 10
22.0925039203
 20
61.9397601097
 30
0.0
 10
21.829151291
 20
61.6339782489
 30
0.0
 10
21.6037745981
 20
61.3179165678
 30
0.0
 10
21.417595005
 20
60.9931866704
 30
0.0
 10
21.2716054382
 20
60.6613625812
 30
0.0
 10
21.1666797379
 20
60.3240810754
 30
0.0
 10
21.1034393152
 20
59.9831723824
 30
0.0
 10
21.0893441577
 20
59.7541497278
 30
0.0
 10
21.0893441581
 20
59.6403239256
 30
0.0
  0
SPLINE
  5
2B0
100
AcDbEntity
  8
0
100
AcDbSpline
 62
7
  6
BYLAYER
 70
0
 71
3
 72
16
 73
12
 74
0
 42
0.0000001
 43
0.0000001
 44
0.0000000001
 40
0.0
 40
0.0
 40
0.0
 40
0.0
 40
0.148571225
 40
0.2894805763
 40
0.422682787
 40
0.5485900627
 40
0.6679373439
 40
0.7818631986
 40
0.8919013685
 40
0.9460798862
 40
1.0
 40
1.0
 40
1.0
 40
1.0
 10
25.0198998502
 20
63.6615329922
 30
0.0
 10
24.8789408427
 20
63.5801507571
 30
0.0
 10
24.6106656168
 20
63.4101068702
 30
0.0
 10
24.2438993644
 20
63.1262292828
 30
0.0
 10
23.9266662456
 20
62.8225734777
 30
0.0
 10
23.6621315515
 20
62.5019389577
 30
0.0
 10
23.4529901265
 20
62.1671258206
 30
0.0
 10
23.3015963808
 20
61.8212849751
 30
0.0
 10
23.2247650206
 20
61.5248625505
 30
0.0
 10
23.1943898607
 20
61.2875935762
 30
0.0
 10
23.1893441991
 20
61.1690997293
 30
0.0
 10
23.1893442687
 20
61.1100282769
 30
0.0
  0
SPLINE
  5
2B1
100
AcDbEntity
  8
0
100
AcDbSpline
 62
7
  6
BYLAYER
 70
0
 71
3
 72
25
 73
21
 74
0
 42
0.0000001
 43
0.0000001
 44
0.0000000001
 40
0.0
 40
0.0
 40
0.0
 40
0.0
 40
0.0623731472
 40
0.128728048
 40
0.1983142965
 40
0.2702924517
 40
0.3436691482
 40
0.4174005707
 40
0.4904262446
 40
0.5617140822
 40
0.6303117052
 40
0.6953989143
 40
0.7563464804
 40
0.8127840572
 40
0.8646839837
 40
0.9124580541
 40
0.9351030159
 40
0.9571079433
 40
0.9786682911
 40
1.0
 40
1.0
 40
1.0
 40
1.0
 10
30.7828441102
 20
60.3343708429
 30
0.0
 10
30.7145918452
 20
60.2949656145
 30
0.0
 10
30.5682914917
 20
60.2228453809
 30
0.0
 10
30.3323161084
 20
60.1373220149
 30
0.0
 10
30.0772845766
 20
60.0725937201
 30
0.0
 10
29.8087026403
 20
60.0299948836
 30
0.0
 10
29.5322306592
 20
60.0104547016
 30
0.0
 10
29.2537794929
 20
60.0143768756
 30
0.0
 10
28.9792837577
 20
60.0416703328
 30
0.0
 10
28.7145941079
 20
60.0917626261
 30
0.0
 10
28.4653392423
 20
60.163601908
 30
0.0
 10
28.2367857021
 20
60.255682419
 30
0.0
 10
28.0337333529
 20
60.3661151994
 30
0.0
 10
27.8604277458
 20
60.4927550489
 30
0.0
 10
27.7205892084
 20
60.6331580503
 30
0.0
 10
27.6330591749
 20
60.7619764081
 30
0.0
 10
27.5842652898
 20
60.8683249814
 30
0.0
 10
27.5584097047
 20
60.9481066253
 30
0.0
 10
27.5428276615
 20
61.0288172843
 30
0.0
 10
27.5393380978
 20
61.0830748628
 30
0.0
 10
27.5393378738
 20
61.1100282766
 30
0.0
  0
SPLINE
  5
2B2
100
AcDbEntity
  8
0
100
AcDbSpline
 62
7
  6
BYLAYER
 70
0
 71
3
 72
11
 73
7
 74
0
 42
0.0000001
 43
0.0000001
 44
0.0000000001
 40
0.0
 40
0.0
 40
0.0
 40
0.0
 40
0.2755217852
 40
0.5337303489
 40
0.774654546
 40
1.0
 40
1.0
 40
1.0
 40
1.0
 10
28.0958271546
 20
61.2324837763
 30
0.0
 10
28.0439535787
 20
61.2025347321
 30
0.0
 10
27.9462703681
 20
61.1394181863
 30
0.0
 10
27.8160672316
 20
61.0319248168
 30
0.0
 10
27.7087504741
 20
60.915952813
 30
0.0
 10
27.6518466371
 20
60.8314019544
 30
0.0
 10
27.6282597435
 20
60.7884638344
 30
0.0
  0
SPLINE
  5
2B3
100
AcDbEntity
  8
0
100
AcDbSpline
 62
7
  6
BYLAYER
 70
0
 71
3
 72
16
 73
12
 74
0
 42
0.0000001
 43
0.0000001
 44
0.0000000001
 40
0.0
 40
0.0
 40
0.0
 40
0.0
 40
0.0539198454
 40
0.1080981286
 40
0.2181358948
 40
0.3320616074
 40
0.4514089954
 40
0.5773163581
 40
0.7105188782
 40
0.8514287932
 40
1.0
 40
1.0
 40
1.0
 40
1.0
 10
35.6893269185
 20
59.6403239249
 30
0.0
 10
35.6893270672
 20
59.5812527686
 30
0.0
 10
35.6842815866
 20
59.4627594551
 30
0.0
 10
35.6539059144
 20
59.2254915698
 30
0.0
 10
35.5770759649
 20
58.9290697376
 30
0.0
 10
35.4256824903
 20
58.5832292229
 30
0.0
 10
35.2165411577
 20
58.2484160369
 30
0.0
 10
34.9520069119
 20
57.9277804449
 30
0.0
 10
34.6347730352
 20
57.6241238788
 30
0.0
 10
34.2680060208
 20
57.3402457931
 30
0.0
 10
33.9997303997
 20
57.1702014321
 30
0.0
 10
33.8587714145
 20
57.0888192099
 30
0.0
  0
SPLINE
  5
2B4
100
AcDbEntity
  8
0
100
AcDbSpline
 62
7
  6
BYLAYER
 70
0
 71
3
 72
13
 73
9
 74
0
 42
0.0000001
 43
0.0000001
 44
0.0000000001
 40
0.0
 40
0.0
 40
0.0
 40
0.0
 40
0.2734758189
 40
0.5288871907
 40
0.6508414581
 40
0.7695819094
 40
0.8857306405
 40
1.0
 40
1.0
 40
1.0
 40
1.0
 10
36.4867978022
 20
57.0547741105
 30
0.0
 10
36.6612291371
 20
57.2132527288
 30
0.0
 10
36.979517938
 20
57.5418589588
 30
0.0
 10
37.3054244317
 20
58.0016760105
 30
0.0
 10
37.5045061527
 20
58.3806172121
 30
0.0
 10
37.6220020051
 20
58.6653184061
 30
0.0
 10
37.7093850266
 20
58.9537314955
 30
0.0
 10
37.7475802984
 20
59.1490104327
 30
0.0
 10
37.7614238618
 20
59.2465063035
 30
0.0
  0
SPLINE
  5
2B5
100
AcDbEntity
  8
0
100
AcDbSpline
 62
7
  6
BYLAYER
 70
0
 71
3
 72
15
 73
11
 74
0
 42
0.0000001
 43
0.0000001
 44
0.0000000001
 40
0.0
 40
0.0
 40
0.0
 40
0.0
 40
0.1192530835
 40
0.243358334
 40
0.3708233628
 40
0.5000003825
 40
0.6291773519
 40
0.7566422315
 40
0.8807472403
 40
1.0
 40
1.0
 40
1.0
 40
1.0
 10
24.9609679649
 20
55.5715279126
 30
0.0
 10
25.3015050274
 20
55.4465927916
 30
0.0
 10
26.0099377933
 20
55.2273433937
 30
0.0
 10
27.1147552514
 20
54.9934767037
 30
0.0
 10
28.2654982952
 20
54.8512560424
 30
0.0
 10
29.4393702574
 20
54.8035492527
 30
0.0
 10
30.6132415393
 20
54.8512616445
 30
0.0
 10
31.7639825573
 20
54.9934877994
 30
0.0
 10
32.8687966838
 20
55.2273597673
 30
0.0
 10
33.577226588
 20
55.4466126348
 30
0.0
 10
33.9177619824
 20
55.5715494421
 30
0.0
  0
SPLINE
  5
2B6
100
AcDbEntity
  8
0
100
AcDbSpline
 62
7
  6
BYLAYER
 70
0
 71
3
 72
13
 73
9
 74
0
 42
0.0000001
 43
0.0000001
 44
0.0000000001
 40
0.0
 40
0.0
 40
0.0
 40
0.0
 40
0.1142691123
 40
0.2304176379
 40
0.3491579462
 40
0.4711121486
 40
0.7265236585
 40
1.0
 40
1.0
 40
1.0
 40
1.0
 10
21.1172474806
 20
59.2465057548
 30
0.0
 10
21.1310912994
 20
59.1490082214
 30
0.0
 10
21.1692874473
 20
58.9537259382
 30
0.0
 10
21.2566727957
 20
58.6653080158
 30
0.0
 10
21.3741719871
 20
58.3806021589
 30
0.0
 10
21.5732596198
 20
58.0016548095
 30
0.0
 10
21.8991760628
 20
57.5418308056
 30
0.0
 10
22.2174742773
 20
57.2132206044
 30
0.0
 10
22.3919107532
 20
57.0547402306
 30
0.0
  0
SPLINE
  5
2B7
100
AcDbEntity
  8
0
100
AcDbSpline
 62
7
  6
BYLAYER
 70
0
 71
3
 72
14
 73
10
 74
0
 42
0.0000001
 43
0.0000001
 44
0.0000000001
 40
0.0
 40
0.0
 40
0.0
 40
0.0
 40
0.1080578617
 40
0.2181536135
 40
0.3321483672
 40
0.4515529382
 40
0.7103677854
 40
0.8514074843
 40
1.0
 40
1.0
 40
1.0
 40
1.0
 10
27.5393378738
 20
61.1100282766
 30
0.0
 10
27.5393375749
 20
61.1459964453
 30
0.0
 10
27.5455961334
 20
61.2187557689
 30
0.0
 10
27.5734564141
 20
61.3262319411
 30
0.0
 10
27.6195035812
 20
61.431386573
 30
0.0
 10
27.7065348451
 20
61.5707561542
 30
0.0
 10
27.8269431211
 20
61.6974531953
 30
0.0
 10
27.9714249076
 20
61.8092296735
 30
0.0
 10
28.0529930028
 20
61.8609555486
 30
0.0
 10
28.0958271546
 20
61.88568571
 30
0.0
  0
SPLINE
  5
2B8
100
AcDbEntity
  8
0
100
AcDbSpline
 62
7
  6
BYLAYER
 70
0
 71
3
 72
28
 73
24
 74
0
 42
0.0000001
 43
0.0000001
 44
0.0000000001
 40
0.0
 40
0.0
 40
0.0
 40
0.0
 40
0.0306649623
 40
0.0624034409
 40
0.1287330966
 40
0.1983173565
 40
0.2702846573
 40
0.3436529429
 40
0.4173756199
 40
0.4903910395
 40
0.5616687709
 40
0.6302576308
 40
0.6953373499
 40
0.7562775816
 40
0.7850849601
 40
0.812745222
 40
0.864639328
 40
0.8890231727
 40
0.9124693698
 40
0.9351111722
 40
0.9571133983
 40
0.9786709441
 40
1.0
 40
1.0
 40
1.0
 40
1.0
 10
33.8587714145
 20
57.0888192099
 30
0.0
 10
33.7483778158
 20
57.0250838164
 30
0.0
 10
33.5194594231
 20
56.9026454169
 30
0.0
 10
33.0332607037
 20
56.678510331
 30
0.0
 10
32.3766745803
 20
56.440625478
 30
0.0
 10
31.5379050401
 20
56.2276917275
 30
0.0
 10
30.6543532777
 20
56.0875890248
 30
0.0
 10
29.7449155377
 20
56.0232981373
 30
0.0
 10
28.8289519019
 20
56.0361860107
 30
0.0
 10
27.9260099228
 20
56.1259786952
 30
0.0
 10
27.055335881
 20
56.2907626548
 30
0.0
 10
26.2353960876
 20
56.5270709582
 30
0.0
 10
25.483631249
 20
56.8299244843
 30
0.0
 10
24.9166299872
 20
57.1382985169
 30
0.0
 10
24.5134684319
 20
57.41408383
 30
0.0
 10
24.1608894125
 20
57.6948077506
 30
0.0
 10
23.8542661654
 20
58.0028237959
 30
0.0
 10
23.6061227943
 20
58.3356140404
 30
0.0
 10
23.4553974002
 20
58.5874559746
 30
0.0
 10
23.337114513
 20
58.8452577541
 30
0.0
 10
23.2520723161
 20
59.107684902
 30
0.0
 10
23.2007748393
 20
59.3731789618
 30
0.0
 10
23.1893445696
 20
59.5516610517
 30
0.0
 10
23.1893443463
 20
59.6403239263
 30
0.0
  0
SPLINE
  5
2B9
100
AcDbEntity
  8
0
100
AcDbSpline
 62
7
  6
BYLAYER
 70
0
 71
3
 72
28
 73
24
 74
0
 42
0.0000001
 43
0.0000001
 44
0.0000000001
 40
0.0
 40
0.0
 40
0.0
 40
0.0
 40
0.021329098
 40
0.0428866739
 40
0.0648889103
 40
0.087530704
 40
0.1109768854
 40
0.1353607094
 40
0.187254797
 40
0.2149150587
 40
0.2437224237
 40
0.3046626035
 40
0.3697422387
 40
0.438331036
 40
0.5096087139
 40
0.5826239842
 40
0.6563464097
 40
0.7297145361
 40
0.8016819268
 40
0.871266416
 40
0.9375963875
 40
0.9693350078
 40
1.0
 40
1.0
 40
1.0
 40
1.0
 10
23.1893442687
 20
61.1100282769
 30
0.0
 10
23.1893443732
 20
61.0213652267
 30
0.0
 10
23.2007748253
 20
60.8428828338
 30
0.0
 10
23.2520723897
 20
60.5773884438
 30
0.0
 10
23.3371148588
 20
60.3149612457
 30
0.0
 10
23.4553976467
 20
60.057159482
 30
0.0
 10
23.606123237
 20
59.8053178797
 30
0.0
 10
23.8542663075
 20
59.4725277119
 30
0.0
 10
24.1608895216
 20
59.1645118117
 30
0.0
 10
24.5134686098
 20
58.8837882045
 30
0.0
 10
24.9166297848
 20
58.6080028197
 30
0.0
 10
25.4836305707
 20
58.2996291777
 30
0.0
 10
26.2353945688
 20
57.9967758031
 30
0.0
 10
27.0553335239
 20
57.7604675666
 30
0.0
 10
27.9260064369
 20
57.5956835758
 30
0.0
 10
28.8289465014
 20
57.5058907246
 30
0.0
 10
29.7449077957
 20
57.4930023472
 30
0.0
 10
30.6543442625
 20
57.5572923482
 30
0.0
 10
31.5378968014
 20
57.6973944279
 30
0.0
 10
32.3766691209
 20
57.9103279978
 30
0.0
 10
33.0332580712
 20
58.1482135274
 30
0.0
 10
33.5194586154
 20
58.3723494962
 30
0.0
 10
33.7483777076
 20
58.4947881047
 30
0.0
 10
33.8587714145
 20
58.5585235607
 30
0.0
  0
SPLINE
  5
2BA
100
AcDbEntity
  8
0
100
AcDbSpline
 62
7
  6
BYLAYER
 70
0
 71
3
 72
16
 73
12
 74
0
 42
0.0000001
 43
0.0000001
 44
0.0000000001
 40
0.0
 40
0.0
 40
0.0
 40
0.0
 40
0.148571225
 40
0.2894805763
 40
0.422682787
 40
0.5485900627
 40
0.6679373439
 40
0.7818631986
 40
0.8919013685
 40
0.9460798862
 40
1.0
 40
1.0
 40
1.0
 40
1.0
 10
33.8587714145
 20
58.5585235607
 30
0.0
 10
33.999730422
 20
58.6399057958
 30
0.0
 10
34.268005648
 20
58.8099496828
 30
0.0
 10
34.6347719004
 20
59.0938272701
 30
0.0
 10
34.9520050192
 20
59.3974830752
 30
0.0
 10
35.2165397133
 20
59.7181175952
 30
0.0
 10
35.4256811382
 20
60.0529307323
 30
0.0
 10
35.5770748839
 20
60.3987715778
 30
0.0
 10
35.6539062442
 20
60.6951940024
 30
0.0
 10
35.684281404
 20
60.9324629767
 30
0.0
 10
35.6893270656
 20
61.0509568236
 30
0.0
 10
35.689326996
 20
61.110028276
 30
0.0
  0
SPLINE
  5
2BB
100
AcDbEntity
  8
0
100
AcDbSpline
 62
7
  6
BYLAYER
 70
0
 71
3
 72
25
 73
21
 74
0
 42
0.0000001
 43
0.0000001
 44
0.0000000001
 40
0.0
 40
0.0
 40
0.0
 40
0.0
 40
0.0623731472
 40
0.128728048
 40
0.1983142965
 40
0.2702924517
 40
0.3436691482
 40
0.4174005707
 40
0.4904262446
 40
0.5617140822
 40
0.6303117052
 40
0.6953989143
 40
0.7563464804
 40
0.8127840572
 40
0.8646839837
 40
0.9124580541
 40
0.9351030159
 40
0.9571079433
 40
0.9786682911
 40
1.0
 40
1.0
 40
1.0
 40
1.0
 10
28.0958271546
 20
61.88568571
 30
0.0
 10
28.1640794196
 20
61.9250909384
 30
0.0
 10
28.3103797731
 20
61.997211172
 30
0.0
 10
28.5463551564
 20
62.082734538
 30
0.0
 10
28.8013866881
 20
62.1474628328
 30
0.0
 10
29.0699686244
 20
62.1900616693
 30
0.0
 10
29.3464406056
 20
62.2096018513
 30
0.0
 10
29.6248917719
 20
62.2056796773
 30
0.0
 10
29.8993875071
 20
62.1783862201
 30
0.0
 10
30.1640771568
 20
62.1282939268
 30
0.0
 10
30.4133320225
 20
62.0564546449
 30
0.0
 10
30.6418855627
 20
61.9643741339
 30
0.0
 10
30.8449379119
 20
61.8539413535
 30
0.0
 10
31.0182435189
 20
61.7273015041
 30
0.0
 10
31.1580820563
 20
61.5868985026
 30
0.0
 10
31.2456120899
 20
61.4580801448
 30
0.0
 10
31.2944059749
 20
61.3517315715
 30
0.0
 10
31.3202615601
 20
61.2719499276
 30
0.0
 10
31.3358436032
 20
61.1912392686
 30
0.0
 10
31.339333167
 20
61.1369816901
 30
0.0
 10
31.339333391
 20
61.1100282763
 30
0.0
  0
SPLINE
  5
2BC
100
AcDbEntity
  8
0
100
AcDbSpline
 62
7
  6
BYLAYER
 70
0
 71
3
 72
11
 73
7
 74
0
 42
0.0000001
 43
0.0000001
 44
0.0000000001
 40
0.0
 40
0.0
 40
0.0
 40
0.0
 40
0.2485741145
 40
0.499991377
 40
0.7514132687
 40
1.0
 40
1.0
 40
1.0
 40
1.0
 10
31.2214172644
 20
60.7535398381
 30
0.0
 10
30.9287261757
 20
60.7987196108
 30
0.0
 10
30.3361578476
 20
60.8662420746
 30
0.0
 10
29.4407274758
 20
60.8999350939
 30
0.0
 10
28.5452743119
 20
60.8664497341
 30
0.0
 10
27.9526695997
 20
60.7990666425
 30
0.0
 10
27.6599525499
 20
60.7539565775
 30
0.0
  0
SPLINE
  5
2BD
100
AcDbEntity
  8
0
100
AcDbSpline
 62
7
  6
BYLAYER
 70
0
 71
3
 72
11
 73
7
 74
0
 42
0.0000001
 43
0.0000001
 44
0.0000000001
 40
0.0
 40
0.0
 40
0.0
 40
0.0
 40
0.2338172766
 40
0.4746844497
 40
0.7285816291
 40
1.0
 40
1.0
 40
1.0
 40
1.0
 10
31.6315351802
 20
18.5297211075
 30
0.0
 10
31.5998015189
 20
18.5480421326
 30
0.0
 10
31.539263653
 20
18.5924428374
 30
0.0
 10
31.4630305726
 20
18.678459543
 30
0.0
 10
31.4017734973
 20
18.7824875596
 30
0.0
 10
31.3725436143
 20
18.8598784175
 30
0.0
 10
31.3603741148
 20
18.9006357122
 30
0.0
  0
SPLINE
  5
2BE
100
AcDbEntity
  8
0
100
AcDbSpline
 62
7
  6
BYLAYER
 70
0
 71
3
 72
9
 73
5
 74
0
 42
0.0000001
 43
0.0000001
 44
0.0000000001
 40
0.0
 40
0.0
 40
0.0
 40
0.0
 40
0.2445463712
 40
1.0
 40
1.0
 40
1.0
 40
1.0
 10
31.3436683279
 20
18.9649408148
 30
0.0
 10
31.3415880153
 20
18.9742703851
 30
0.0
 10
31.3336350024
 20
19.0125432645
 30
0.0
 10
31.3278430714
 20
19.0512571887
 30
0.0
 10
31.3245608388
 20
19.0806029534
 30
0.0
  0
SPLINE
  5
2BF
100
AcDbEntity
  8
0
100
AcDbSpline
 62
7
  6
BYLAYER
 70
0
 71
3
 72
15
 73
11
 74
0
 42
0.0000001
 43
0.0000001
 44
0.0000000001
 40
0.0
 40
0.0
 40
0.0
 40
0.0
 40
0.1145916482
 40
0.2372619338
 40
0.3657936663
 40
0.4975305228
 40
0.6296057166
 40
0.7591185614
 40
0.8833401103
 40
1.0
 40
1.0
 40
1.0
 40
1.0
 10
31.3692489335
 20
19.2403243429
 30
0.0
 10
31.4371593159
 20
19.2823422353
 30
0.0
 10
31.5710550657
 20
19.3804561452
 30
0.0
 10
31.7560269278
 20
19.5566946203
 30
0.0
 10
31.9272340292
 20
19.7621291858
 30
0.0
 10
32.0791076997
 20
19.9900949597
 30
0.0
 10
32.2067456359
 20
20.2332326625
 30
0.0
 10
32.3060222604
 20
20.4836845311
 30
0.0
 10
32.3737400671
 20
20.7333410846
 30
0.0
 10
32.3971849664
 20
20.9001846454
 30
0.0
 10
32.4024324795
 20
20.9813146056
 30
0.0
  0
SPLINE
  5
2C0
100
AcDbEntity
  8
0
100
AcDbSpline
 62
7
  6
BYLAYER
 70
0
 71
3
 72
11
 73
7
 74
0
 42
0.0000001
 43
0.0000001
 44
0.0000000001
 40
0.0
 40
0.0
 40
0.0
 40
0.0
 40
0.2747092757
 40
0.5293674636
 40
0.7688435553
 40
1.0
 40
1.0
 40
1.0
 40
1.0
 10
32.6444502061
 20
21.1983404724
 30
0.0
 10
32.6902588427
 20
21.2119840469
 30
0.0
 10
32.7807010666
 20
21.2318328844
 30
0.0
 10
32.9152062897
 20
21.2367092522
 30
0.0
 10
33.040524588
 20
21.2150485938
 30
0.0
 10
33.1166710616
 20
21.182550291
 30
0.0
 10
33.1515022895
 20
21.1624409253
 30
0.0
  0
SPLINE
  5
2C1
100
AcDbEntity
  8
0
100
AcDbSpline
 62
7
  6
BYLAYER
 70
0
 71
3
 72
17
 73
13
 74
0
 42
0.0000001
 43
0.0000001
 44
0.0000000001
 40
0.0
 40
0.0
 40
0.0
 40
0.0
 40
0.112429051
 40
0.2304544423
 40
0.3543281999
 40
0.483619628
 40
0.61692061
 40
0.751280357
 40
0.8173415863
 40
0.8814946114
 40
0.9427196874
 40
1.0
 40
1.0
 40
1.0
 40
1.0
 10
31.316724005
 20
18.8812092076
 30
0.0
 10
31.3167254698
 20
18.9991065694
 30
0.0
 10
31.340225184
 20
19.2411989976
 30
0.0
 10
31.4385986573
 20
19.6010102202
 30
0.0
 10
31.5956913929
 20
19.9584888991
 30
0.0
 10
31.8046404222
 20
20.3068135706
 30
0.0
 10
32.0571190195
 20
20.6386841852
 30
0.0
 10
32.2963834787
 20
20.8949536067
 30
0.0
 10
32.5007924813
 20
21.0827018883
 30
0.0
 10
32.655841187
 20
21.2103955094
 30
0.0
 10
32.8106667117
 20
21.3233560795
 30
0.0
 10
32.9157941366
 20
21.3898649271
 30
0.0
 10
32.9678131609
 20
21.4198979455
 30
0.0
  0
SPLINE
  5
2C2
100
AcDbEntity
  8
0
100
AcDbSpline
 62
7
  6
BYLAYER
 70
0
 71
3
 72
13
 73
9
 74
0
 42
0.0000001
 43
0.0000001
 44
0.0000000001
 40
0.0
 40
0.0
 40
0.0
 40
0.0
 40
0.1221289866
 40
0.2435120291
 40
0.3649156247
 40
0.4871782032
 40
0.737284413
 40
1.0
 40
1.0
 40
1.0
 40
1.0
 10
28.3522364102
 20
16.834947786
 30
0.0
 10
28.3986883147
 20
16.7939478848
 30
0.0
 10
28.4954729662
 20
16.7167719841
 30
0.0
 10
28.6515233926
 20
16.6165931599
 30
0.0
 10
28.8172017146
 20
16.53307184
 30
0.0
 10
29.0516264495
 20
16.4437177727
 30
0.0
 10
29.3686634906
 20
16.3751931188
 30
0.0
 10
29.6302653752
 20
16.3685712355
 30
0.0
 10
29.7633485339
 20
16.3758021392
 30
0.0
  0
SPLINE
  5
2C3
100
AcDbEntity
  8
0
100
AcDbSpline
 62
7
  6
BYLAYER
 70
0
 71
3
 72
12
 73
8
 74
0
 42
0.0000001
 43
0.0000001
 44
0.0000000001
 40
0.0
 40
0.0
 40
0.0
 40
0.0
 40
0.1167974301
 40
0.2344645112
 40
0.4754547978
 40
0.7291884229
 40
1.0
 40
1.0
 40
1.0
 40
1.0
 10
34.4293366531
 20
19.6466872913
 30
0.0
 10
34.4293351369
 20
19.5876224983
 30
0.0
 10
34.4229894685
 20
19.4689492007
 30
0.0
 10
34.3848029953
 20
19.2311941813
 30
0.0
 10
34.2877085249
 20
18.9346827065
 30
0.0
 10
34.0983658838
 20
18.594766694
 30
0.0
 10
33.931378658
 20
18.3869996193
 30
0.0
 10
33.8382428025
 20
18.2865951085
 30
0.0
  0
SPLINE
  5
2C4
100
AcDbEntity
  8
0
100
AcDbSpline
 62
7
  6
BYLAYER
 70
0
 71
3
 72
15
 73
11
 74
0
 42
0.0000001
 43
0.0000001
 44
0.0000000001
 40
0.0
 40
0.0
 40
0.0
 40
0.0
 40
0.1141454591
 40
0.2373335362
 40
0.36697592
 40
0.5000016033
 40
0.6330270636
 40
0.7626687962
 40
0.8858558469
 40
1.0
 40
1.0
 40
1.0
 40
1.0
 10
33.4663165674
 20
20.4666121303
 30
0.0
 10
33.4663165674
 20
20.3816577615
 30
0.0
 10
33.4507463501
 20
20.2048552743
 30
0.0
 10
33.3887261879
 20
19.9381307463
 30
0.0
 10
33.2893255701
 20
19.6679625001
 30
0.0
 10
33.1563310828
 20
19.4045040641
 30
0.0
 10
32.9946681028
 20
19.157597852
 30
0.0
 10
32.8103976631
 20
18.936430583
 30
0.0
 10
32.6104196096
 20
18.7493582843
 30
0.0
 10
32.4650906444
 20
18.6474738506
 30
0.0
 10
32.3915187349
 20
18.6049973424
 30
0.0
  0
SPLINE
  5
2C5
100
AcDbEntity
  8
0
100
AcDbSpline
 62
7
  6
BYLAYER
 70
0
 71
3
 72
14
 73
10
 74
0
 42
0.0000001
 43
0.0000001
 44
0.0000000001
 40
0.0
 40
0.0
 40
0.0
 40
0.0
 40
0.2892426566
 40
0.422563512
 40
0.5485111296
 40
0.6678871157
 40
0.7818613445
 40
0.891952444
 40
1.0
 40
1.0
 40
1.0
 40
1.0
 10
32.3915187349
 20
18.6049973424
 30
0.0
 10
32.3248073911
 20
18.56648176
 30
0.0
 10
32.2223661377
 20
18.517738094
 30
0.0
 10
32.0818914136
 20
18.4767595242
 30
0.0
 10
31.9821742601
 20
18.4600349604
 30
0.0
 10
31.8862399927
 20
18.4567042795
 30
0.0
 10
31.7949828985
 20
18.4668962779
 30
0.0
 10
31.7093616035
 20
18.4905416965
 30
0.0
 10
31.6564555277
 20
18.5153336624
 30
0.0
 10
31.6315351802
 20
18.5297211075
 30
0.0
  0
SPLINE
  5
2C6
100
AcDbEntity
  8
0
100
AcDbSpline
 62
7
  6
BYLAYER
 70
0
 71
3
 72
15
 73
11
 74
0
 42
0.0000001
 43
0.0000001
 44
0.0000000001
 40
0.0
 40
0.0
 40
0.0
 40
0.0
 40
0.1115271833
 40
0.2289990635
 40
0.3515055734
 40
0.4780536681
 40
0.6074618547
 40
0.7384535513
 40
0.8697649012
 40
1.0
 40
1.0
 40
1.0
 40
1.0
 10
32.894099134
 20
17.5678784604
 30
0.0
 10
32.742175088
 20
17.483720226
 30
0.0
 10
32.4208185273
 20
17.3275376015
 30
0.0
 10
31.9078458946
 20
17.1346333406
 30
0.0
 10
31.3579217068
 20
16.9793864677
 30
0.0
 10
30.7793728475
 20
16.8640658561
 30
0.0
 10
30.180774731
 20
16.7904294958
 30
0.0
 10
29.5710412578
 20
16.7595160464
 30
0.0
 10
28.9593987144
 20
16.7718579466
 30
0.0
 10
28.5533824842
 20
16.809025578
 30
0.0
 10
28.3522364102
 20
16.834947786
 30
0.0
  0
SPLINE
  5
2C7
100
AcDbEntity
  8
0
100
AcDbSpline
 62
7
  6
BYLAYER
 70
0
 71
3
 72
10
 73
6
 74
0
 42
0.0000001
 43
0.0000001
 44
0.0000000001
 40
0.0
 40
0.0
 40
0.0
 40
0.0
 40
0.5028347312
 40
0.7521376763
 40
1.0
 40
1.0
 40
1.0
 40
1.0
 10
32.9669176692
 20
17.608382686
 30
0.0
 10
32.9548222113
 20
17.6013994118
 30
0.0
 10
32.9366241099
 20
17.5911357942
 30
0.0
 10
32.912259681
 20
17.5777994823
 30
0.0
 10
32.9001611389
 20
17.5711417844
 30
0.0
 10
32.894099134
 20
17.5678784604
 30
0.0
  0
SPLINE
  5
2C8
100
AcDbEntity
  8
0
100
AcDbSpline
 62
7
  6
BYLAYER
 70
0
 71
3
 72
10
 73
6
 74
0
 42
0.0000001
 43
0.0000001
 44
0.0000000001
 40
0.0
 40
0.0
 40
0.0
 40
0.0
 40
0.2520076466
 40
0.5026925288
 40
1.0
 40
1.0
 40
1.0
 40
1.0
 10
33.0400183882
 20
17.6521244782
 30
0.0
 10
33.0339253249
 20
17.648371415
 30
0.0
 10
33.0217062585
 20
17.6409909448
 30
0.0
 10
32.9974347817
 20
17.6262513205
 30
0.0
 10
32.9791475934
 20
17.6154435939
 30
0.0
 10
32.9669176692
 20
17.608382686
 30
0.0
  0
SPLINE
  5
2C9
100
AcDbEntity
  8
0
100
AcDbSpline
 62
7
  6
BYLAYER
 70
0
 71
3
 72
14
 73
10
 74
0
 42
0.0000001
 43
0.0000001
 44
0.0000000001
 40
0.0
 40
0.0
 40
0.0
 40
0.0
 40
0.1080468035
 40
0.2181372646
 40
0.3321110702
 40
0.4514868989
 40
0.5774346435
 40
0.7107558953
 40
1.0
 40
1.0
 40
1.0
 40
1.0
 10
33.1515022895
 20
21.1624409253
 30
0.0
 10
33.1764234527
 20
21.1480530092
 30
0.0
 10
33.2243491372
 20
21.1146306642
 30
0.0
 10
33.2876402175
 20
21.0523017338
 30
0.0
 10
33.3420977766
 20
20.9783644539
 30
0.0
 10
33.3871825011
 20
20.8936144958
 30
0.0
 10
33.4225587247
 20
20.7988908041
 30
0.0
 10
33.4573090462
 20
20.656740664
 30
0.0
 10
33.4663165674
 20
20.5436470837
 30
0.0
 10
33.4663165674
 20
20.4666121303
 30
0.0
  0
SPLINE
  5
2CA
100
AcDbEntity
  8
0
100
AcDbSpline
 62
7
  6
BYLAYER
 70
0
 71
3
 72
32
 73
28
 74
0
 42
0.0000001
 43
0.0000001
 44
0.0000000001
 40
0.0
 40
0.0
 40
0.0
 40
0.0
 40
0.0320589907
 40
0.0609055406
 40
0.0864839869
 40
0.1090265051
 40
0.1290526046
 40
0.1473265022
 40
0.1647671282
 40
0.1823018408
 40
0.2007199547
 40
0.2205995923
 40
0.2423155114
 40
0.2660822453
 40
0.291997222
 40
0.3200718955
 40
0.3502514764
 40
0.3824275361
 40
0.4521198285
 40
0.5276105786
 40
0.607110303
 40
0.6887987801
 40
0.7708661896
 40
0.8514119784
 40
0.8905108821
 40
0.9284676567
 40
1.0
 40
1.0
 40
1.0
 40
1.0
 10
32.9678131609
 20
21.4198979455
 30
0.0
 10
33.0147748211
 20
21.4470111108
 30
0.0
 10
33.1059344481
 20
21.4952985486
 30
0.0
 10
33.2411724096
 20
21.5517000066
 30
0.0
 10
33.3665620243
 20
21.5879854442
 30
0.0
 10
33.4811774612
 20
21.6041194338
 30
0.0
 10
33.5846648608
 20
21.6003575453
 30
0.0
 10
33.6768480826
 20
21.5771005477
 30
0.0
 10
33.7574825837
 20
21.5351614698
 30
0.0
 10
33.8266231546
 20
21.475968178
 30
0.0
 10
33.8849921844
 20
21.4010667511
 30
0.0
 10
33.9336628835
 20
21.31158033
 30
0.0
 10
33.9736200228
 20
21.2082415012
 30
0.0
 10
34.0056313748
 20
21.0916300237
 30
0.0
 10
34.0302737467
 20
20.9623258742
 30
0.0
 10
34.0479719267
 20
20.8209831415
 30
0.0
 10
34.0590324316
 20
20.6683650564
 30
0.0
 10
34.0653140947
 20
20.445042094
 30
0.0
 10
34.0561549808
 20
20.1449091958
 30
0.0
 10
34.0198995691
 20
19.7663538953
 30
0.0
 10
33.955562171
 20
19.3709006281
 30
0.0
 10
33.8592161344
 20
18.9703937272
 30
0.0
 10
33.7257782532
 20
18.5785840777
 30
0.0
 10
33.5775390541
 20
18.2699026089
 30
0.0
 10
33.4334270039
 20
18.0451625444
 30
0.0
 10
33.2782976746
 20
17.8472430022
 30
0.0
 10
33.1401498872
 20
17.7200457111
 30
0.0
 10
33.0400183882
 20
17.6521244782
 30
0.0
  0
SPLINE
  5
2CB
100
AcDbEntity
  8
0
100
AcDbSpline
 62
7
  6
BYLAYER
 70
0
 71
3
 72
18
 73
14
 74
0
 42
0.0000001
 43
0.0000001
 44
0.0000000001
 40
0.0
 40
0.0
 40
0.0
 40
0.0
 40
0.0655437771
 40
0.1287135445
 40
0.1901317419
 40
0.2504338499
 40
0.3101820339
 40
0.3698156041
 40
0.4896646903
 40
0.6117873812
 40
0.7370030503
 40
0.8660849402
 40
1.0
 40
1.0
 40
1.0
 40
1.0
 10
32.894099134
 20
17.5678784604
 30
0.0
 10
32.8458267924
 20
17.5446852722
 30
0.0
 10
32.7473875108
 20
17.5062133293
 30
0.0
 10
32.594781191
 20
17.4737077386
 30
0.0
 10
32.4431732833
 20
17.4669211317
 30
0.0
 10
32.2953021055
 20
17.484336894
 30
0.0
 10
32.1533314399
 20
17.5239048168
 30
0.0
 10
31.9740657635
 20
17.6032493152
 30
0.0
 10
31.7711016202
 20
17.7481429676
 30
0.0
 10
31.5734707251
 20
17.9771503919
 30
0.0
 10
31.4265541562
 20
18.2500260097
 30
0.0
 10
31.3361496639
 20
18.5562402625
 30
0.0
 10
31.3167226455
 20
18.7717887945
 30
0.0
 10
31.316724005
 20
18.8812092076
 30
0.0
  0
SPLINE
  5
2CC
100
AcDbEntity
  8
0
100
AcDbSpline
 62
7
  6
BYLAYER
 70
0
 71
3
 72
13
 73
9
 74
0
 42
0.0000001
 43
0.0000001
 44
0.0000000001
 40
0.0
 40
0.0
 40
0.0
 40
0.0
 40
0.2659769341
 40
0.5251852922
 40
0.6503575048
 40
0.77159226
 40
0.8882996875
 40
1.0
 40
1.0
 40
1.0
 40
1.0
 10
29.4393724784
 20
54.5308470888
 30
0.0
 10
30.015849457
 20
54.5308484745
 30
0.0
 10
31.1551160582
 20
54.5947649651
 30
0.0
 10
32.5476397235
 20
54.8354015879
 30
0.0
 10
33.6057396514
 20
55.1232009659
 30
0.0
 10
34.3503833542
 20
55.3799269953
 30
0.0
 10
35.048072978
 20
55.6773854583
 30
0.0
 10
35.4876885847
 20
55.9064156867
 30
0.0
 10
35.6973539251
 20
56.0274619791
 30
0.0
  0
SPLINE
  5
2CD
100
AcDbEntity
  8
0
100
AcDbSpline
 62
7
  6
BYLAYER
 70
0
 71
3
 72
13
 73
9
 74
0
 42
0.0000001
 43
0.0000001
 44
0.0000000001
 40
0.0
 40
0.0
 40
0.0
 40
0.0
 40
0.1116798938
 40
0.2284166979
 40
0.3496458487
 40
0.4748140097
 40
0.7340245056
 40
1.0
 40
1.0
 40
1.0
 40
1.0
 10
23.181466673
 20
56.0273631639
 30
0.0
 10
23.3910897358
 20
55.9063399701
 30
0.0
 10
23.8307482823
 20
55.6773692789
 30
0.0
 10
24.5284030519
 20
55.3798453886
 30
0.0
 10
25.2730931492
 20
55.1231550156
 30
0.0
 10
26.3311618369
 20
54.8353769558
 30
0.0
 10
27.7236580907
 20
54.594754201
 30
0.0
 10
28.8629079268
 20
54.5308457031
 30
0.0
 10
29.4393724784
 20
54.5308470888
 30
0.0
  0
SPLINE
  5
2CE
100
AcDbEntity
  8
0
100
AcDbSpline
 62
7
  6
BYLAYER
 70
0
 71
3
 72
14
 73
10
 74
0
 42
0.0000001
 43
0.0000001
 44
0.0000000001
 40
0.0
 40
0.0
 40
0.0
 40
0.0
 40
0.2856866926
 40
0.4179486157
 40
0.5436058994
 40
0.6634198123
 40
0.7784584605
 40
0.8901095964
 40
1.0
 40
1.0
 40
1.0
 40
1.0
 10
23.1785535892
 20
56.0423121828
 30
0.0
 10
22.8620804466
 20
56.2493840326
 30
0.0
 10
22.4207909955
 20
56.5901668826
 30
0.0
 10
21.9257249527
 20
57.1140387466
 30
0.0
 10
21.6248139038
 20
57.5149483396
 30
0.0
 10
21.3874982241
 20
57.9305728269
 30
0.0
 10
21.2161635337
 20
58.357788193
 30
0.0
 10
21.1125196741
 20
58.7928117304
 30
0.0
 10
21.0893546398
 20
59.086597371
 30
0.0
 10
21.0893453138
 20
59.2320727173
 30
0.0
  0
SPLINE
  5
2CF
100
AcDbEntity
  8
0
100
AcDbSpline
 62
7
  6
BYLAYER
 70
0
 71
3
 72
14
 73
10
 74
0
 42
0.0000001
 43
0.0000001
 44
0.0000000001
 40
0.0
 40
0.0
 40
0.0
 40
0.0
 40
0.1080431444
 40
0.2181326404
 40
0.3321056638
 40
0.4514814971
 40
0.5774303852
 40
0.7107553626
 40
1.0
 40
1.0
 40
1.0
 40
1.0
 10
48.5598826004
 20
47.2295279779
 30
0.0
 10
48.5598836385
 20
47.1888276155
 30
0.0
 10
48.5528382178
 20
47.1064873055
 30
0.0
 10
48.5212483918
 20
46.9848838569
 30
0.0
 10
48.4691981624
 20
46.8658873603
 30
0.0
 10
48.397268339
 20
46.750727133
 30
0.0
 10
48.306257992
 20
46.640401975
 30
0.0
 10
48.1567072616
 20
46.4973063982
 30
0.0
 10
48.0245464028
 20
46.4062900214
 30
0.0
 10
47.9301842898
 20
46.3518103552
 30
0.0
  0
SPLINE
  5
2D0
100
AcDbEntity
  8
0
100
AcDbSpline
 62
7
  6
BYLAYER
 70
0
 71
3
 72
14
 73
10
 74
0
 42
0.0000001
 43
0.0000001
 44
0.0000000001
 40
0.0
 40
0.0
 40
0.0
 40
0.0
 40
0.1080431444
 40
0.2181326404
 40
0.3321056638
 40
0.4514814971
 40
0.5774303852
 40
0.7107553626
 40
1.0
 40
1.0
 40
1.0
 40
1.0
 10
31.5893905073
 20
37.431668285
 30
0.0
 10
31.5893915454
 20
37.3909679226
 30
0.0
 10
31.5823461247
 20
37.3086276126
 30
0.0
 10
31.5507562986
 20
37.187024164
 30
0.0
 10
31.4987060693
 20
37.0680276674
 30
0.0
 10
31.4267762458
 20
36.9528674401
 30
0.0
 10
31.3357658988
 20
36.8425422821
 30
0.0
 10
31.1862151685
 20
36.6994467052
 30
0.0
 10
31.0540543097
 20
36.6084303285
 30
0.0
 10
30.9596921966
 20
36.5539506623
 30
0.0
  0
SPLINE
  5
2D1
100
AcDbEntity
  8
0
100
AcDbSpline
 62
7
  6
BYLAYER
 70
0
 71
3
 72
12
 73
8
 74
0
 42
0.0000001
 43
0.0000001
 44
0.0000000001
 40
0.0
 40
0.0
 40
0.0
 40
0.0
 40
0.2548564345
 40
0.503934778
 40
0.7514770213
 40
0.8754143235
 40
1.0
 40
1.0
 40
1.0
 40
1.0
 10
7.2690326015
 20
34.5488918419
 30
0.0
 10
7.1919656926
 20
34.5933854359
 30
0.0
 10
7.04714097
 20
34.6958463663
 30
0.0
 10
6.8706484622
 20
34.8934137612
 30
0.0
 10
6.7731897897
 20
35.0906575237
 30
0.0
 10
6.7329557405
 20
35.2597047017
 30
0.0
 10
6.726132197
 20
35.3466493329
 30
0.0
 10
6.726132197
 20
35.3901511466
 30
0.0
  0
SPLINE
  5
2D2
100
AcDbEntity
  8
0
100
AcDbSpline
 62
7
  6
BYLAYER
 70
0
 71
3
 72
13
 73
9
 74
0
 42
0.0000001
 43
0.0000001
 44
0.0000000001
 40
0.0
 40
0.0
 40
0.0
 40
0.0
 40
0.2431637846
 40
0.3705652065
 40
0.5000102065
 40
0.6294542157
 40
0.7568528182
 40
1.0
 40
1.0
 40
1.0
 40
1.0
 10
28.4823243585
 20
22.3016692048
 30
0.0
 10
28.6219944665
 20
22.221032455
 30
0.0
 10
28.8561324268
 20
22.1330806685
 30
0.0
 10
29.1830252358
 20
22.0754290103
 30
0.0
 10
29.4394488951
 20
22.0606246824
 30
0.0
 10
29.6958703986
 20
22.0754346875
 30
0.0
 10
30.022748293
 20
22.1330927396
 30
0.0
 10
30.2568725674
 20
22.2210421569
 30
0.0
 10
30.3965325573
 20
22.3016744084
 30
0.0
  0
SPLINE
  5
2D3
100
AcDbEntity
  8
0
100
AcDbSpline
 62
7
  6
BYLAYER
 70
0
 71
3
 72
12
 73
8
 74
0
 42
0.0000001
 43
0.0000001
 44
0.0000000001
 40
0.0
 40
0.0
 40
0.0
 40
0.0
 40
0.1245855944
 40
0.248509433
 40
0.4960607137
 40
0.7451475046
 40
1.0
 40
1.0
 40
1.0
 40
1.0
 10
52.1525390678
 20
35.3902531271
 30
0.0
 10
52.1525390678
 20
35.3467517735
 30
0.0
 10
52.145721241
 20
35.2598120177
 30
0.0
 10
52.1054778492
 20
35.090770578
 30
0.0
 10
52.008033316
 20
34.8935217001
 30
0.0
 10
51.8315344287
 20
34.6959550874
 30
0.0
 10
51.6867123118
 20
34.593492049
 30
0.0
 10
51.6096476793
 20
34.5489990278
 30
0.0
  0
SPLINE
  5
2D4
100
AcDbEntity
  8
0
100
AcDbSpline
 62
7
  6
BYLAYER
 70
0
 71
3
 72
12
 73
8
 74
0
 42
0.0000001
 43
0.0000001
 44
0.0000000001
 40
0.0
 40
0.0
 40
0.0
 40
0.0
 40
0.1081697852
 40
0.218371964
 40
0.451322281
 40
0.7105133255
 40
1.0
 40
1.0
 40
1.0
 40
1.0
 10
52.152531583
 20
47.2295381755
 30
0.0
 10
52.1525315777
 20
47.2579367519
 30
0.0
 10
52.1475626344
 20
47.3153837604
 30
0.0
 10
52.1177466607
 20
47.4305443555
 30
0.0
 10
52.0411448976
 20
47.5717969576
 30
0.0
 10
51.8984253591
 20
47.7216165117
 30
0.0
 10
51.7790139734
 20
47.8039045621
 30
0.0
 10
51.7131948236
 20
47.8419044063
 30
0.0
  0
SPLINE
  5
2D5
100
AcDbEntity
  8
0
100
AcDbSpline
 62
7
  6
BYLAYER
 70
0
 71
3
 72
22
 73
18
 74
0
 42
0.0000001
 43
0.0000001
 44
0.0000000001
 40
0.0
 40
0.0
 40
0.0
 40
0.0
 40
0.062381819
 40
0.1287711536
 40
0.1983767448
 40
0.270373488
 40
0.4173890991
 40
0.490433548
 40
0.5617415043
 40
0.6303610233
 40
0.6954679348
 40
0.7564347634
 40
0.8128902258
 40
0.8648051613
 40
0.9125944043
 40
0.9571819392
 40
1.0
 40
1.0
 40
1.0
 40
1.0
 10
30.9596921966
 20
36.5539506623
 30
0.0
 10
30.8824715148
 20
36.509367547
 30
0.0
 10
30.716905644
 20
36.427771121
 30
0.0
 10
30.4498918144
 20
36.3309705939
 30
0.0
 10
30.1612648392
 20
36.2577086368
 30
0.0
 10
29.7534010919
 20
36.1930904257
 30
0.0
 10
29.3336618243
 20
36.1814978958
 30
0.0
 10
28.9188572437
 20
36.2227382709
 30
0.0
 10
28.6193175072
 20
36.2794264814
 30
0.0
 10
28.337266116
 20
36.3607017349
 30
0.0
 10
28.0786387974
 20
36.4649110247
 30
0.0
 10
27.848862511
 20
36.5898748725
 30
0.0
 10
27.652752487
 20
36.7331632324
 30
0.0
 10
27.4945092366
 20
36.89209973
 30
0.0
 10
27.377737441
 20
37.063832991
 30
0.0
 10
27.3057746332
 20
37.2449974973
 30
0.0
 10
27.289423629
 20
37.3704654811
 30
0.0
 10
27.2894220679
 20
37.4316682841
 30
0.0
  0
SPLINE
  5
2D6
100
AcDbEntity
  8
0
100
AcDbSpline
 62
7
  6
BYLAYER
 70
0
 71
3
 72
13
 73
9
 74
0
 42
0.0000001
 43
0.0000001
 44
0.0000000001
 40
0.0
 40
0.0
 40
0.0
 40
0.0
 40
0.2893072232
 40
0.5483377861
 40
0.6677621071
 40
0.7817625478
 40
0.8918968242
 40
1.0
 40
1.0
 40
1.0
 40
1.0
 10
7.1654676092
 20
47.8417973268
 30
0.0
 10
7.0996496907
 20
47.8037975605
 30
0.0
 10
6.9802738228
 20
47.721614103
 30
0.0
 10
6.8581593535
 20
47.5931873417
 30
0.0
 10
6.7894035354
 20
47.4831378284
 30
0.0
 10
6.7530975635
 20
47.4001183059
 30
0.0
 10
6.7311010265
 20
47.315277747
 30
0.0
 10
6.7261396765
 20
47.2578344752
 30
0.0
 10
6.7261396818
 20
47.229436195
 30
0.0
  0
SPLINE
  5
2D7
100
AcDbEntity
  8
0
100
AcDbSpline
 62
7
  6
BYLAYER
 70
0
 71
3
 72
16
 73
12
 74
0
 42
0.0000001
 43
0.0000001
 44
0.0000000001
 40
0.0
 40
0.0
 40
0.0
 40
0.0
 40
0.1570153845
 40
0.3065556416
 40
0.4467559898
 40
0.5763728863
 40
0.6950350583
 40
0.8035006882
 40
0.9038992871
 40
0.952242732
 40
1.0
 40
1.0
 40
1.0
 40
1.0
 10
11.8163067688
 20
46.0467045356
 30
0.0
 10
11.7106056635
 20
46.0661358319
 30
0.0
 10
11.505867444
 20
46.1139179896
 30
0.0
 10
11.216374939
 20
46.2142363999
 30
0.0
 10
10.9572784946
 20
46.3395042464
 30
0.0
 10
10.7348328919
 20
46.4868893399
 30
0.0
 10
10.5543862793
 20
46.6532474672
 30
0.0
 10
10.4205665525
 20
46.8350889882
 30
0.0
 10
10.350659044
 20
46.9988484388
 30
0.0
 10
10.3233111514
 20
47.1308873844
 30
0.0
 10
10.3187894981
 20
47.1967579763
 30
0.0
 10
10.3187886644
 20
47.2294463926
 30
0.0
  0
SPLINE
  5
2D8
100
AcDbEntity
  8
0
100
AcDbSpline
 62
7
  6
BYLAYER
 70
0
 71
3
 72
15
 73
11
 74
0
 42
0.0000001
 43
0.0000001
 44
0.0000000001
 40
0.0
 40
0.0
 40
0.0
 40
0.0
 40
0.1080124495
 40
0.2180620536
 40
0.3319994798
 40
0.4513572193
 40
0.5772780622
 40
0.7104994083
 40
0.8513950056
 40
1.0
 40
1.0
 40
1.0
 40
1.0
 10
38.7893173119
 20
59.2320727171
 30
0.0
 10
38.7893173104
 20
59.4090749646
 30
0.0
 10
38.7586043188
 20
59.7671389996
 30
0.0
 10
38.6213813727
 20
60.2960022391
 30
0.0
 10
38.3949248706
 20
60.8134782206
 30
0.0
 10
38.0820741009
 20
61.3143305597
 30
0.0
 10
37.6863103668
 20
61.7939841638
 30
0.0
 10
37.2117899422
 20
62.2482398399
 30
0.0
 10
36.6631330883
 20
62.6729209114
 30
0.0
 10
36.2618168631
 20
62.9272964921
 30
0.0
 10
36.0509181463
 20
63.0490533895
 30
0.0
  0
SPLINE
  5
2D9
100
AcDbEntity
  8
0
100
AcDbSpline
 62
7
  6
BYLAYER
 70
0
 71
3
 72
10
 73
6
 74
0
 42
0.0000001
 43
0.0000001
 44
0.0000000001
 40
0.0
 40
0.0
 40
0.0
 40
0.0
 40
0.232936713
 40
0.4786551182
 40
1.0
 40
1.0
 40
1.0
 40
1.0
 10
47.9301842898
 20
46.3518103552
 30
0.0
 10
47.8672849374
 20
46.315495614
 30
0.0
 10
47.7339439872
 20
46.2477873879
 30
0.0
 10
47.4438230347
 20
46.1327690041
 30
0.0
 10
47.2107234852
 20
46.0734997348
 30
0.0
 10
47.0507445077
 20
46.0446715241
 30
0.0
  0
SPLINE
  5
2DA
100
AcDbEntity
  8
0
100
AcDbSpline
 62
7
  6
BYLAYER
 70
0
 71
3
 72
15
 73
11
 74
0
 42
0.0000001
 43
0.0000001
 44
0.0000000001
 40
0.0
 40
0.0
 40
0.0
 40
0.0
 40
0.1486049948
 40
0.2895005918
 40
0.4227219378
 40
0.5486427811
 40
0.6680005201
 40
0.7819379466
 40
0.8919875506
 40
1.0
 40
1.0
 40
1.0
 40
1.0
 10
22.8277531205
 20
63.0490533884
 30
0.0
 10
22.6168544033
 20
62.9272964901
 30
0.0
 10
22.2155381741
 20
62.6729209151
 30
0.0
 10
21.6668813239
 20
62.2482398379
 30
0.0
 10
21.192360899
 20
61.7939841628
 30
0.0
 10
20.7965971594
 20
61.3143305625
 30
0.0
 10
20.4837463999
 20
60.8134782174
 30
0.0
 10
20.2572898857
 20
60.2960022411
 30
0.0
 10
20.1200669524
 20
59.7671389984
 30
0.0
 10
20.0893539514
 20
59.4090749645
 30
0.0
 10
20.0893539528
 20
59.2320727171
 30
0.0
  0
SPLINE
  5
2DB
100
AcDbEntity
  8
0
100
AcDbSpline
 62
7
  6
BYLAYER
 70
0
 71
3
 72
13
 73
9
 74
0
 42
0.0000001
 43
0.0000001
 44
0.0000000001
 40
0.0
 40
0.0
 40
0.0
 40
0.0
 40
0.1120491978
 40
0.2288745873
 40
0.3499767379
 40
0.4748840755
 40
0.7336326502
 40
1.0
 40
1.0
 40
1.0
 40
1.0
 10
35.6972045917
 20
63.2532846874
 30
0.0
 10
35.5020035158
 20
63.3659815316
 30
0.0
 10
35.0938227882
 20
63.5800950862
 30
0.0
 10
34.4479073799
 20
63.8614604695
 30
0.0
 10
33.7602152902
 20
64.1075901568
 30
0.0
 10
32.7841234372
 20
64.3892803577
 30
0.0
 10
31.4975222844
 20
64.638748209
 30
0.0
 10
30.4425564981
 20
64.7262688752
 30
0.0
 10
29.9069838987
 20
64.742648308
 30
0.0
  0
SPLINE
  5
2DC
100
AcDbEntity
  8
0
100
AcDbSpline
 62
7
  6
BYLAYER
 70
0
 71
3
 72
15
 73
11
 74
0
 42
0.0000001
 43
0.0000001
 44
0.0000000001
 40
0.0
 40
0.0
 40
0.0
 40
0.0
 40
0.1098262311
 40
0.2214190366
 40
0.3364083458
 40
0.4561784751
 40
0.5818153032
 40
0.7140742583
 40
0.8534138291
 40
1.0
 40
1.0
 40
1.0
 40
1.0
 10
37.789325951
 20
59.2320727168
 30
0.0
 10
37.7893352929
 20
59.0863507939
 30
0.0
 10
37.7660511771
 20
58.7920590915
 30
0.0
 10
37.6620945553
 20
58.3562913075
 30
0.0
 10
37.4901259957
 20
57.9284155862
 30
0.0
 10
37.2520804167
 20
57.5121096676
 30
0.0
 10
36.950129945
 20
57.1107127146
 30
0.0
 10
36.5870670651
 20
56.7272270029
 30
0.0
 10
36.1658915248
 20
56.3647205222
 30
0.0
 10
35.8564270063
 20
56.1442944624
 30
0.0
 10
35.6935485282
 20
56.0379953839
 30
0.0
  0
SPLINE
  5
2DD
100
AcDbEntity
  8
0
100
AcDbSpline
 62
7
  6
BYLAYER
 70
0
 71
3
 72
11
 73
7
 74
0
 42
0.0000001
 43
0.0000001
 44
0.0000000001
 40
0.0
 40
0.0
 40
0.0
 40
0.0
 40
0.2895368706
 40
0.5491085983
 40
0.7822509632
 40
1.0
 40
1.0
 40
1.0
 40
1.0
 10
28.3787681978
 20
22.5305622789
 30
0.0
 10
28.3787681978
 20
22.5052429456
 30
0.0
 10
28.3826326186
 20
22.4570646957
 30
0.0
 10
28.4021088659
 20
22.3908587729
 30
0.0
 10
28.4349602411
 20
22.3371158074
 30
0.0
 10
28.4658453258
 20
22.3112099889
 30
0.0
 10
28.4823359725
 20
22.301689322
 30
0.0
  0
SPLINE
  5
2DE
100
AcDbEntity
  8
0
100
AcDbSpline
 62
7
  6
BYLAYER
 70
0
 71
3
 72
15
 73
11
 74
0
 42
0.0000001
 43
0.0000001
 44
0.0000000001
 40
0.0
 40
0.0
 40
0.0
 40
0.0
 40
0.1141216057
 40
0.2373437884
 40
0.3669699918
 40
0.4999994786
 40
0.633029038
 40
0.7626554531
 40
0.8858779697
 40
1.0
 40
1.0
 40
1.0
 40
1.0
 10
30.5000885393
 20
22.5305673794
 30
0.0
 10
30.4274992501
 20
22.4886581838
 30
0.0
 10
30.2687005701
 20
22.4147451428
 30
0.0
 10
30.0101623952
 20
22.3361131093
 30
0.0
 10
29.7302040154
 20
22.2877690599
 30
0.0
 10
29.4394301563
 20
22.2714187367
 30
0.0
 10
29.1486560646
 20
22.2877676798
 30
0.0
 10
28.868696998
 20
22.3361103998
 30
0.0
 10
28.6101577097
 20
22.4147412043
 30
0.0
 10
28.4513580571
 20
22.4886534523
 30
0.0
 10
28.3787681955
 20
22.5305622802
 30
0.0
  0
SPLINE
  5
2DF
100
AcDbEntity
  8
0
100
AcDbSpline
 62
7
  6
BYLAYER
 70
0
 71
3
 72
16
 73
12
 74
0
 42
0.0000001
 43
0.0000001
 44
0.0000000001
 40
0.0
 40
0.0
 40
0.0
 40
0.0
 40
0.1421684387
 40
0.2824777583
 40
0.4190805314
 40
0.5503589978
 40
0.674897081
 40
0.7916384708
 40
0.8469069908
 40
0.9000501572
 40
1.0
 40
1.0
 40
1.0
 40
1.0
 10
29.4393745601
 20
53.8339248725
 30
0.0
 10
29.8788057043
 20
53.8339259288
 30
0.0
 10
30.7523474576
 20
53.8694049567
 30
0.0
 10
32.039368877
 20
54.0282493318
 30
0.0
 10
33.2753644256
 20
54.2896170754
 30
0.0
 10
34.4360021318
 20
54.6482953805
 30
0.0
 10
35.4985780213
 20
55.0974342583
 30
0.0
 10
36.2996049536
 20
55.5480702296
 30
0.0
 10
36.8698038728
 20
55.9480398533
 30
0.0
 10
37.3700066076
 20
56.3541478591
 30
0.0
 10
37.7037284637
 20
56.6936046461
 30
0.0
 10
37.8989589831
 20
56.9330353036
 30
0.0
  0
SPLINE
  5
2E0
100
AcDbEntity
  8
0
100
AcDbSpline
 62
7
  6
BYLAYER
 70
0
 71
3
 72
12
 73
8
 74
0
 42
0.0000001
 43
0.0000001
 44
0.0000000001
 40
0.0
 40
0.0
 40
0.0
 40
0.0
 40
0.2674077912
 40
0.5203930648
 40
0.7628513876
 40
0.8817805619
 40
1.0
 40
1.0
 40
1.0
 40
1.0
 10
37.8989589831
 20
56.9330353036
 30
0.0
 10
38.0404968653
 20
57.1066173251
 30
0.0
 10
38.2935331447
 20
57.4638274832
 30
0.0
 10
38.5777582269
 20
58.039145658
 30
0.0
 10
38.7226811968
 20
58.5361799163
 30
0.0
 10
38.7798317049
 20
58.9342854116
 30
0.0
 10
38.7893173127
 20
59.1330557606
 30
0.0
 10
38.7893173119
 20
59.2320727171
 30
0.0
  0
SPLINE
  5
2E1
100
AcDbEntity
  8
0
100
AcDbSpline
 62
7
  6
BYLAYER
 70
0
 71
3
 72
10
 73
6
 74
0
 42
0.0000001
 43
0.0000001
 44
0.0000000001
 40
0.0
 40
0.0
 40
0.0
 40
0.0
 40
0.2411144641
 40
0.4860913638
 40
1.0
 40
1.0
 40
1.0
 40
1.0
 10
10.3187886644
 20
47.2294463926
 30
0.0
 10
10.3187877116
 20
47.2667974954
 30
0.0
 10
10.3247142844
 20
47.3422446281
 30
0.0
 10
10.3606101051
 20
47.4934035022
 30
0.0
 10
10.4134415118
 20
47.6006259467
 30
0.0
 10
10.456964395
 20
47.6672852725
 30
0.0
  0
SPLINE
  5
2E2
100
AcDbEntity
  8
0
100
AcDbSpline
 62
7
  6
BYLAYER
 70
0
 71
3
 72
13
 73
9
 74
0
 42
0.0000001
 43
0.0000001
 44
0.0000000001
 40
0.0
 40
0.0
 40
0.0
 40
0.0
 40
0.2893046904
 40
0.5483332376
 40
0.6677587623
 40
0.7817604793
 40
0.8918958913
 40
1.0
 40
1.0
 40
1.0
 40
1.0
 10
7.1654764411
 20
34.7777849158
 30
0.0
 10
7.0996575913
 20
34.8157845868
 30
0.0
 10
6.9802787129
 20
34.8979663575
 30
0.0
 10
6.8581611424
 20
35.0263933589
 30
0.0
 10
6.7894008054
 20
35.1364430544
 30
0.0
 10
6.7530925171
 20
35.2194645083
 30
0.0
 10
6.7310940738
 20
35.3043071827
 30
0.0
 10
6.7261321956
 20
35.3617520891
 30
0.0
 10
6.726132197
 20
35.3901511466
 30
0.0
  0
SPLINE
  5
2E3
100
AcDbEntity
  8
0
100
AcDbSpline
 62
7
  6
BYLAYER
 70
0
 71
3
 72
10
 73
6
 74
0
 42
0.0000001
 43
0.0000001
 44
0.0000000001
 40
0.0
 40
0.0
 40
0.0
 40
0.0
 40
0.2411144641
 40
0.4860913638
 40
1.0
 40
1.0
 40
1.0
 40
1.0
 10
27.2894220679
 20
37.4316682841
 30
0.0
 10
27.2894211152
 20
37.4690193869
 30
0.0
 10
27.2953476879
 20
37.5444665196
 30
0.0
 10
27.3312435086
 20
37.6956253937
 30
0.0
 10
27.3840749154
 20
37.8028478382
 30
0.0
 10
27.4275977986
 20
37.869507164
 30
0.0
  0
SPLINE
  5
2E4
100
AcDbEntity
  8
0
100
AcDbSpline
 62
7
  6
BYLAYER
 70
0
 71
3
 72
9
 73
5
 74
0
 42
0.0000001
 43
0.0000001
 44
0.0000000001
 40
0.0
 40
0.0
 40
0.0
 40
0.0
 40
0.2478758841
 40
1.0
 40
1.0
 40
1.0
 40
1.0
 10
7.2690442158
 20
34.5489119589
 30
0.0
 10
7.2652313652
 20
34.5511132601
 30
0.0
 10
7.2502006734
 20
34.5605936203
 30
0.0
 10
7.2367085256
 20
34.5724781536
 30
0.0
 10
7.2277277154
 20
34.5823678608
 30
0.0
  0
SPLINE
  5
2E5
100
AcDbEntity
  8
0
100
AcDbSpline
 62
7
  6
BYLAYER
 70
0
 71
3
 72
11
 73
7
 74
0
 42
0.0000001
 43
0.0000001
 44
0.0000000001
 40
0.0
 40
0.0
 40
0.0
 40
0.0
 40
0.2204811653
 40
0.458551267
 40
0.7182988132
 40
1.0
 40
1.0
 40
1.0
 40
1.0
 10
7.2277277154
 20
34.5823678608
 30
0.0
 10
7.2173807851
 20
34.5937619455
 30
0.0
 10
7.1988329446
 20
34.620267876
 30
0.0
 10
7.1794242234
 20
34.6668344971
 30
0.0
 10
7.1678651557
 20
34.7202590194
 30
0.0
 10
7.1654764411
 20
34.7581203135
 30
0.0
 10
7.1654764411
 20
34.7777849158
 30
0.0
  0
SPLINE
  5
2E6
100
AcDbEntity
  8
0
100
AcDbSpline
 62
7
  6
BYLAYER
 70
0
 71
3
 72
14
 73
10
 74
0
 42
0.0000001
 43
0.0000001
 44
0.0000000001
 40
0.0
 40
0.0
 40
0.0
 40
0.0
 40
0.1439785118
 40
0.2819392741
 40
0.5400504616
 40
0.6611483027
 40
0.7776067703
 40
0.8902294745
 40
1.0
 40
1.0
 40
1.0
 40
1.0
 10
20.0344308649
 20
55.7391829223
 30
0.0
 10
19.8287521881
 20
55.6035543642
 30
0.0
 10
19.4349637385
 20
55.3238006948
 30
0.0
 10
18.7245880917
 20
54.7319968845
 30
0.0
 10
18.1150839168
 20
54.0820887943
 30
0.0
 10
17.63521268
 20
53.3810787965
 30
0.0
 10
17.351833847
 20
52.8515956876
 30
0.0
 10
17.1394215889
 20
52.3106395356
 30
0.0
 10
17.0451785122
 20
51.9406775478
 30
0.0
 10
17.0108188994
 20
51.7560111526
 30
0.0
  0
SPLINE
  5
2E7
100
AcDbEntity
  8
0
100
AcDbSpline
 62
7
  6
BYLAYER
 70
0
 71
3
 72
19
 73
15
 74
0
 42
0.0000001
 43
0.0000001
 44
0.0000000001
 40
0.0
 40
0.0
 40
0.0
 40
0.0
 40
0.1569560792
 40
0.307245726
 40
0.4484974584
 40
0.5790172768
 40
0.6400229926
 40
0.6981552369
 40
0.7535239208
 40
0.8063348413
 40
0.8569091533
 40
0.9056749315
 40
0.9531674168
 40
1.0
 40
1.0
 40
1.0
 40
1.0
 10
27.4247440237
 20
45.7140422317
 30
0.0
 10
26.9178927589
 20
45.778613784
 30
0.0
 10
25.9311190808
 20
45.9541587154
 30
0.0
 10
24.5262818565
 20
46.3626313306
 30
0.0
 10
23.2584223432
 20
46.9010290881
 30
0.0
 10
22.3243044076
 20
47.4586029105
 30
0.0
 10
21.6830296515
 20
47.9593853971
 30
0.0
 10
21.2679946997
 20
48.3485369405
 30
0.0
 10
20.9110078548
 20
48.7568724694
 30
0.0
 10
20.6148386783
 20
49.1817737555
 30
0.0
 10
20.3816648547
 20
49.6202245974
 30
0.0
 10
20.2136080175
 20
50.0692732382
 30
0.0
 10
20.112023132
 20
50.5254125911
 30
0.0
 10
20.0893623587
 20
50.8329415905
 30
0.0
 10
20.0893629345
 20
50.9853982976
 30
0.0
  0
SPLINE
  5
2E8
100
AcDbEntity
  8
0
100
AcDbSpline
 62
7
  6
BYLAYER
 70
0
 71
3
 72
11
 73
7
 74
0
 42
0.0000001
 43
0.0000001
 44
0.0000000001
 40
0.0
 40
0.0
 40
0.0
 40
0.0
 40
0.2177498847
 40
0.4508926469
 40
0.7104640923
 40
1.0
 40
1.0
 40
1.0
 40
1.0
 10
30.3965209428
 20
22.3016945253
 30
0.0
 10
30.4130115659
 20
22.311215336
 30
0.0
 10
30.4438965605
 20
22.3371213245
 30
0.0
 10
30.4767478864
 20
22.3908643151
 30
0.0
 10
30.496224114
 20
22.4570700774
 30
0.0
 10
30.5000885391
 20
22.5052481604
 30
0.0
 10
30.5000885391
 20
22.5305673792
 30
0.0
  0
SPLINE
  5
2E9
100
AcDbEntity
  8
0
100
AcDbSpline
 62
7
  6
BYLAYER
 70
0
 71
3
 72
16
 73
12
 74
0
 42
0.0000001
 43
0.0000001
 44
0.0000000001
 40
0.0
 40
0.0
 40
0.0
 40
0.0
 40
0.1485676571
 40
0.2894810567
 40
0.4226834269
 40
0.548589163
 40
0.6679371918
 40
0.7818631223
 40
0.8919010006
 40
0.9460798465
 40
1.0
 40
1.0
 40
1.0
 40
1.0
 10
39.1620943531
 20
46.1885903465
 30
0.0
 10
39.4721966376
 20
46.3676269152
 30
0.0
 10
40.0623994665
 20
46.7417292498
 30
0.0
 10
40.8692914155
 20
47.3662532415
 30
0.0
 10
41.5672124025
 20
48.0342977994
 30
0.0
 10
42.1491741477
 20
48.7397032
 30
0.0
 10
42.6092941719
 20
49.4762824273
 30
0.0
 10
42.942370625
 20
50.2371320658
 30
0.0
 10
43.1113694675
 20
50.8892675683
 30
0.0
 10
43.1782217486
 20
51.4112553805
 30
0.0
 10
43.1893205608
 20
51.6719434476
 30
0.0
 10
43.1893159632
 20
51.801900703
 30
0.0
  0
SPLINE
  5
2EA
100
AcDbEntity
  8
0
100
AcDbSpline
 62
7
  6
BYLAYER
 70
0
 71
3
 72
16
 73
12
 74
0
 42
0.0000001
 43
0.0000001
 44
0.0000000001
 40
0.0
 40
0.0
 40
0.0
 40
0.0
 40
0.1464025706
 40
0.2855999243
 40
0.4177715515
 40
0.4813827565
 40
0.5434344512
 40
0.6632357942
 40
0.7783086253
 40
0.8900267606
 40
1.0
 40
1.0
 40
1.0
 40
1.0
 10
38.8442331166
 20
56.5556901442
 30
0.0
 10
39.0849551021
 20
56.3969536248
 30
0.0
 10
39.5422875605
 20
56.0680008976
 30
0.0
 10
40.1643807685
 20
55.5276478191
 30
0.0
 10
40.616914088
 20
55.0456064916
 30
0.0
 10
40.9316943886
 20
54.6467749932
 30
0.0
 10
41.2082804988
 20
54.249971182
 30
0.0
 10
41.4978021695
 20
53.7398164426
 30
0.0
 10
41.7515412446
 20
53.1036251519
 30
0.0
 10
41.9050097241
 20
52.4558731395
 30
0.0
 10
41.9393107362
 20
52.0184988519
 30
0.0
 10
41.939310912
 20
51.8019007208
 30
0.0
  0
SPLINE
  5
2EB
100
AcDbEntity
  8
0
100
AcDbSpline
 62
7
  6
BYLAYER
 70
0
 71
3
 72
13
 73
9
 74
0
 42
0.0000001
 43
0.0000001
 44
0.0000000001
 40
0.0
 40
0.0
 40
0.0
 40
0.0
 40
0.1081043534
 40
0.2182399707
 40
0.3322418252
 40
0.4516674016
 40
0.7106957836
 40
1.0
 40
1.0
 40
1.0
 40
1.0
 10
52.1525390678
 20
35.3902531271
 30
0.0
 10
52.1525390664
 20
35.3618543719
 30
0.0
 10
52.1475772961
 20
35.3044100913
 30
0.0
 10
52.1255793305
 20
35.2195683087
 30
0.0
 10
52.0892718098
 20
35.1365476883
 30
0.0
 10
52.0205129374
 20
35.0264990519
 30
0.0
 10
51.898397888
 20
34.898073048
 30
0.0
 10
51.7790212749
 20
34.8158915891
 30
0.0
 10
51.7132036566
 20
34.777891996
 30
0.0
  0
SPLINE
  5
2EC
100
AcDbEntity
  8
0
100
AcDbSpline
 62
7
  6
BYLAYER
 70
0
 71
3
 72
12
 73
8
 74
0
 42
0.0000001
 43
0.0000001
 44
0.0000000001
 40
0.0
 40
0.0
 40
0.0
 40
0.0
 40
0.1081697852
 40
0.218371964
 40
0.451322281
 40
0.7105133255
 40
1.0
 40
1.0
 40
1.0
 40
1.0
 10
6.7261396818
 20
47.229436195
 30
0.0
 10
6.726139687
 20
47.2010376186
 30
0.0
 10
6.7311086303
 20
47.1435906101
 30
0.0
 10
6.760924604
 20
47.028430015
 30
0.0
 10
6.8375263672
 20
46.8871774129
 30
0.0
 10
6.9802459057
 20
46.7373578588
 30
0.0
 10
7.0996572913
 20
46.6550698084
 30
0.0
 10
7.1654764411
 20
46.6170699642
 30
0.0
  0
SPLINE
  5
2ED
100
AcDbEntity
  8
0
100
AcDbSpline
 62
7
  6
BYLAYER
 70
0
 71
3
 72
15
 73
11
 74
0
 42
0.0000001
 43
0.0000001
 44
0.0000000001
 40
0.0
 40
0.0
 40
0.0
 40
0.0
 40
0.1141236058
 40
0.2373475862
 40
0.3669728832
 40
0.5000004526
 40
0.6330279586
 40
0.7626530685
 40
0.8858767805
 40
1.0
 40
1.0
 40
1.0
 40
1.0
 10
28.3787681955
 20
34.3698473286
 30
0.0
 10
28.4513589801
 20
34.3279379677
 30
0.0
 10
28.6101614095
 20
34.2540266793
 30
0.0
 10
28.8687020301
 20
34.1753966222
 30
0.0
 10
29.1486600094
 20
34.1270564077
 30
0.0
 10
29.4394300099
 20
34.1107084572
 30
0.0
 10
29.7301997974
 20
34.1270577545
 30
0.0
 10
30.010157169
 20
34.1753992782
 30
0.0
 10
30.268696765
 20
34.2540305953
 30
0.0
 10
30.4274983025
 20
34.3279426851
 30
0.0
 10
30.5000885391
 20
34.3698524276
 30
0.0
  0
SPLINE
  5
2EE
100
AcDbEntity
  8
0
100
AcDbSpline
 62
7
  6
BYLAYER
 70
0
 71
3
 72
9
 73
5
 74
0
 42
0.0000001
 43
0.0000001
 44
0.0000000001
 40
0.0
 40
0.0
 40
0.0
 40
0.0
 40
0.5108717254
 40
1.0
 40
1.0
 40
1.0
 40
1.0
 10
31.4894718142
 20
37.805689793
 30
0.0
 10
31.5213714731
 20
37.7473916077
 30
0.0
 10
31.5716857916
 20
37.6259156326
 30
0.0
 10
31.5893888843
 20
37.4952948599
 30
0.0
 10
31.5893905073
 20
37.431668285
 30
0.0
  0
SPLINE
  5
2EF
100
AcDbEntity
  8
0
100
AcDbSpline
 62
7
  6
BYLAYER
 70
0
 71
3
 72
9
 73
5
 74
0
 42
0.0000001
 43
0.0000001
 44
0.0000000001
 40
0.0
 40
0.0
 40
0.0
 40
0.0
 40
0.5046855457
 40
1.0
 40
1.0
 40
1.0
 40
1.0
 10
27.434392194
 20
43.1317953803
 30
0.0
 10
26.9396400873
 20
43.1739087722
 30
0.0
 10
25.961711204
 20
43.2886100303
 30
0.0
 10
24.9934033309
 20
43.4676214279
 30
0.0
 10
24.5175957816
 20
43.5729270766
 30
0.0
  0
SPLINE
  5
2F0
100
AcDbEntity
  8
0
100
AcDbSpline
 62
7
  6
BYLAYER
 70
0
 71
3
 72
18
 73
14
 74
0
 42
0.0000001
 43
0.0000001
 44
0.0000000001
 40
0.0
 40
0.0
 40
0.0
 40
0.0
 40
0.1529761259
 40
0.2992862772
 40
0.4376337169
 40
0.5671296928
 40
0.687396211
 40
0.7441701408
 40
0.7988020927
 40
0.8514540564
 40
0.9023536106
 40
0.9517710828
 40
1.0
 40
1.0
 40
1.0
 40
1.0
 10
24.5175957816
 20
43.5729270766
 30
0.0
 10
23.9523535209
 20
43.698026401
 30
0.0
 10
22.8559679735
 20
43.988918878
 30
0.0
 10
21.2982367626
 20
44.5584455638
 30
0.0
 10
19.8851097461
 20
45.2433797763
 30
0.0
 10
18.6418426317
 20
46.0318116947
 30
0.0
 10
17.7484904295
 20
46.7787261353
 30
0.0
 10
17.1456470732
 20
47.4164835549
 30
0.0
 10
16.7575542458
 20
47.9021035095
 30
0.0
 10
16.4267611437
 20
48.4020565109
 30
0.0
 10
16.1547924531
 20
48.9141912791
 30
0.0
 10
15.9431816252
 20
49.4360653498
 30
0.0
 10
15.8419332256
 20
49.7923906124
 30
0.0
 10
15.8021626339
 20
49.9705215854
 30
0.0
  0
SPLINE
  5
2F1
100
AcDbEntity
  8
0
100
AcDbSpline
 62
7
  6
BYLAYER
 70
0
 71
3
 72
16
 73
12
 74
0
 42
0.0000001
 43
0.0000001
 44
0.0000000001
 40
0.0
 40
0.0
 40
0.0
 40
0.0
 40
0.1099764648
 40
0.2216973585
 40
0.3367721657
 40
0.4565743588
 40
0.518626079
 40
0.5822369446
 40
0.7144069689
 40
0.8536014049
 40
1.0
 40
1.0
 40
1.0
 40
1.0
 10
16.9393603528
 20
51.8019007215
 30
0.0
 10
16.939360177
 20
52.0184664753
 30
0.0
 10
16.9736520074
 20
52.4557740331
 30
0.0
 10
17.1270726323
 20
53.103430532
 30
0.0
 10
17.3807377861
 20
53.7395307357
 30
0.0
 10
17.6701736218
 20
54.2496196413
 30
0.0
 10
17.9466813582
 20
54.6463739227
 30
0.0
 10
18.2613695442
 20
55.045157494
 30
0.0
 10
18.7137733649
 20
55.5271448624
 30
0.0
 10
19.3356909663
 20
56.0674496873
 30
0.0
 10
19.7928989379
 20
56.3963796146
 30
0.0
 10
20.0335554641
 20
56.5551075233
 30
0.0
  0
SPLINE
  5
2F2
100
AcDbEntity
  8
0
100
AcDbSpline
 62
7
  6
BYLAYER
 70
0
 71
3
 72
14
 73
10
 74
0
 42
0.0000001
 43
0.0000001
 44
0.0000000001
 40
0.0
 40
0.0
 40
0.0
 40
0.0
 40
0.1097734836
 40
0.2223984022
 40
0.3388581445
 40
0.4599564407
 40
0.7180657782
 40
0.8560243079
 40
1.0
 40
1.0
 40
1.0
 40
1.0
 10
41.8678967082
 20
51.7557705932
 30
0.0
 10
41.8335519695
 20
51.940415316
 30
0.0
 10
41.7393461015
 20
52.3103347348
 30
0.0
 10
41.5270015448
 20
52.8512324408
 30
0.0
 10
41.2437089857
 20
53.3806636711
 30
0.0
 10
40.7639732937
 20
54.0816067254
 30
0.0
 10
40.154630347
 20
54.7314675012
 30
0.0
 10
39.4444316616
 20
55.3232417252
 30
0.0
 10
39.0507380392
 20
55.6029847264
 30
0.0
 10
38.8451085887
 20
55.7386098649
 30
0.0
  0
SPLINE
  5
2F3
100
AcDbEntity
  8
0
100
AcDbSpline
 62
7
  6
BYLAYER
 70
0
 71
3
 72
12
 73
8
 74
0
 42
0.0000001
 43
0.0000001
 44
0.0000000001
 40
0.0
 40
0.0
 40
0.0
 40
0.0
 40
0.1129170734
 40
0.2300724899
 40
0.4755775001
 40
0.7335037165
 40
1.0
 40
1.0
 40
1.0
 40
1.0
 10
39.1620943531
 20
45.3720879294
 30
0.0
 10
38.8981874865
 20
45.2197221384
 30
0.0
 10
38.3493739971
 20
44.928137408
 30
0.0
 10
37.1792175888
 20
44.3992501724
 30
0.0
 10
35.5931665603
 20
43.8490173072
 30
0.0
 10
33.5661726842
 20
43.3778275134
 30
0.0
 10
32.1604794545
 20
43.1927408796
 30
0.0
 10
31.4438673147
 20
43.1317595858
 30
0.0
  0
SPLINE
  5
2F4
100
AcDbEntity
  8
0
100
AcDbSpline
 62
7
  6
BYLAYER
 70
0
 71
3
 72
14
 73
10
 74
0
 42
0.0000001
 43
0.0000001
 44
0.0000000001
 40
0.0
 40
0.0
 40
0.0
 40
0.0
 40
0.1079557862
 40
0.2193178129
 40
0.3350589545
 40
0.4560138352
 40
0.7153510608
 40
0.8545632634
 40
1.0
 40
1.0
 40
1.0
 40
1.0
 10
43.0765232676
 20
49.9705871449
 30
0.0
 10
43.0278529583
 20
49.7525803572
 30
0.0
 10
42.8978008864
 20
49.3161105463
 30
0.0
 10
42.613897939
 20
48.6817178615
 30
0.0
 10
42.2408703613
 20
48.0636709623
 30
0.0
 10
41.6143356528
 20
47.2485534799
 30
0.0
 10
40.8290969646
 20
46.5034806812
 30
0.0
 10
39.9228411557
 20
45.8349992379
 30
0.0
 10
39.4227044818
 20
45.5225503592
 30
0.0
 10
39.1620943531
 20
45.3720879294
 30
0.0
  0
SPLINE
  5
2F5
100
AcDbEntity
  8
0
100
AcDbSpline
 62
7
  6
BYLAYER
 70
0
 71
3
 72
13
 73
9
 74
0
 42
0.0000001
 43
0.0000001
 44
0.0000000001
 40
0.0
 40
0.0
 40
0.0
 40
0.0
 40
0.2893072232
 40
0.5483377861
 40
0.6677621071
 40
0.7817625478
 40
0.8918968242
 40
1.0
 40
1.0
 40
1.0
 40
1.0
 10
51.7132036555
 20
46.6171770437
 30
0.0
 10
51.7790215741
 20
46.65517681
 30
0.0
 10
51.8983974419
 20
46.7373602675
 30
0.0
 10
52.0205119113
 20
46.8657870288
 30
0.0
 10
52.0892677293
 20
46.9758365421
 30
0.0
 10
52.1255737012
 20
47.0588560646
 30
0.0
 10
52.1475702383
 20
47.1436966235
 30
0.0
 10
52.1525315882
 20
47.2011398953
 30
0.0
 10
52.152531583
 20
47.2295381755
 30
0.0
  0
SPLINE
  5
2F6
100
AcDbEntity
  8
0
100
AcDbSpline
 62
7
  6
BYLAYER
 70
0
 71
3
 72
19
 73
15
 74
0
 42
0.0000001
 43
0.0000001
 44
0.0000000001
 40
0.0
 40
0.0
 40
0.0
 40
0.0
 40
0.0468328529
 40
0.0943254501
 40
0.1430912413
 40
0.1936654243
 40
0.2464761034
 40
0.3018444389
 40
0.3599762667
 40
0.4209815123
 40
0.5515004986
 40
0.6927519336
 40
0.8430422332
 40
1.0
 40
1.0
 40
1.0
 40
1.0
 10
38.7893083303
 20
50.9853983105
 30
0.0
 10
38.7893077544
 20
50.8329393482
 30
0.0
 10
38.7666486022
 20
50.5254062529
 30
0.0
 10
38.6650600245
 20
50.0692619064
 30
0.0
 10
38.4970010493
 20
49.6202094997
 30
0.0
 10
38.2638228401
 20
49.1817571791
 30
0.0
 10
37.9676511525
 20
48.7568548401
 30
0.0
 10
37.6106608972
 20
48.348520103
 30
0.0
 10
37.1956237933
 20
47.9593692802
 30
0.0
 10
36.5543456854
 20
47.4585882261
 30
0.0
 10
35.6202221022
 20
46.9010149944
 30
0.0
 10
34.3523507869
 20
46.3626170898
 30
0.0
 10
32.9474929127
 20
45.9541441871
 30
0.0
 10
31.9607019064
 20
45.7786009972
 30
0.0
 10
31.4538402477
 20
45.7140310384
 30
0.0
  0
SPLINE
  5
2F7
100
AcDbEntity
  8
0
100
AcDbSpline
 62
7
  6
BYLAYER
 70
0
 71
3
 72
9
 73
5
 74
0
 42
0.0000001
 43
0.0000001
 44
0.0000000001
 40
0.0
 40
0.0
 40
0.0
 40
0.0
 40
0.5108717254
 40
1.0
 40
1.0
 40
1.0
 40
1.0
 10
48.4599639073
 20
47.6035494859
 30
0.0
 10
48.4918635662
 20
47.5452513006
 30
0.0
 10
48.5421778847
 20
47.4237753256
 30
0.0
 10
48.5598809775
 20
47.2931545528
 30
0.0
 10
48.5598826004
 20
47.2295279779
 30
0.0
  0
SPLINE
  5
2F8
100
AcDbEntity
  8
0
100
AcDbSpline
 62
7
  6
BYLAYER
 70
0
 71
3
 72
12
 73
8
 74
0
 42
0.0000001
 43
0.0000001
 44
0.0000000001
 40
0.0
 40
0.0
 40
0.0
 40
0.0
 40
0.1182194125
 40
0.2371485638
 40
0.47960686
 40
0.7325921462
 40
1.0
 40
1.0
 40
1.0
 40
1.0
 10
20.0893539528
 20
59.2320727171
 30
0.0
 10
20.0893539537
 20
59.1330555436
 30
0.0
 10
20.0988396069
 20
58.9342847568
 30
0.0
 10
20.1559903544
 20
58.5361783792
 30
0.0
 10
20.3009139864
 20
58.0391430343
 30
0.0
 10
20.5851403019
 20
57.4638236917
 30
0.0
 10
20.8381776436
 20
57.1066129108
 30
0.0
 10
20.9797161113
 20
56.9330306033
 30
0.0
  0
SPLINE
  5
2F9
100
AcDbEntity
  8
0
100
AcDbSpline
 62
7
  6
BYLAYER
 70
0
 71
3
 72
16
 73
12
 74
0
 42
0.0000001
 43
0.0000001
 44
0.0000000001
 40
0.0
 40
0.0
 40
0.0
 40
0.0
 40
0.0999498017
 40
0.1530929663
 40
0.208361496
 40
0.3251029307
 40
0.4496410774
 40
0.5809196014
 40
0.7175224
 40
0.8578316835
 40
1.0
 40
1.0
 40
1.0
 40
1.0
 10
20.9797161113
 20
56.9330306033
 30
0.0
 10
21.1749483523
 20
56.6935984303
 30
0.0
 10
21.5086733103
 20
56.3541396772
 30
0.0
 10
22.0088807305
 20
55.9480296962
 30
0.0
 10
22.5790851927
 20
55.5480582996
 30
0.0
 10
23.3801199286
 20
55.0974209218
 30
0.0
 10
24.4427059455
 20
54.6482817328
 30
0.0
 10
25.6033543172
 20
54.2896045391
 30
0.0
 10
26.8393605667
 20
54.0282394029
 30
0.0
 10
28.1263921996
 20
53.8693991413
 30
0.0
 10
28.9999403947
 20
53.8339238162
 30
0.0
 10
29.4393745601
 20
53.8339248725
 30
0.0
  0
SPLINE
  5
2FA
100
AcDbEntity
  8
0
100
AcDbSpline
 62
7
  6
BYLAYER
 70
0
 71
3
 72
23
 73
19
 74
0
 42
0.0000001
 43
0.0000001
 44
0.0000000001
 40
0.0
 40
0.0
 40
0.0
 40
0.0
 40
0.0726147522
 40
0.1414841032
 40
0.2067060898
 40
0.268540101
 40
0.3274198654
 40
0.3839582269
 40
0.4389366024
 40
0.4932584011
 40
0.5478839556
 40
0.6037481449
 40
0.6616834928
 40
0.7223681943
 40
0.7862948351
 40
0.8537982987
 40
0.9250565291
 40
1.0
 40
1.0
 40
1.0
 40
1.0
 10
22.8198719036
 20
63.0316959124
 30
0.0
 10
22.6396387818
 20
62.9144347712
 30
0.0
 10
22.2978856038
 20
62.6709306972
 30
0.0
 10
21.8349786018
 20
62.2689381689
 30
0.0
 10
21.4392930105
 20
61.8429510545
 30
0.0
 10
21.1145007535
 20
61.3965779123
 30
0.0
 10
20.8637833199
 20
60.9335307154
 30
0.0
 10
20.6899040344
 20
60.4578187238
 30
0.0
 10
20.5948491924
 20
59.9738828985
 30
0.0
 10
20.5800512179
 20
59.4865070068
 30
0.0
 10
20.6455241593
 20
59.000716092
 30
0.0
 10
20.7905533247
 20
58.5214421643
 30
0.0
 10
21.0131882374
 20
58.0532232176
 30
0.0
 10
21.3109946671
 20
57.6002638863
 30
0.0
 10
21.6808888683
 20
57.1663403695
 30
0.0
 10
22.1194975825
 20
56.7550061401
 30
0.0
 10
22.6227674034
 20
56.3698865105
 30
0.0
 10
22.9892799038
 20
56.1383197367
 30
0.0
 10
23.181466673
 20
56.0273631639
 30
0.0
  0
SPLINE
  5
2FB
100
AcDbEntity
  8
0
100
AcDbSpline
 62
7
  6
BYLAYER
 70
0
 71
3
 72
22
 73
18
 74
0
 42
0.0000001
 43
0.0000001
 44
0.0000000001
 40
0.0
 40
0.0
 40
0.0
 40
0.0
 40
0.0749902136
 40
0.1462451003
 40
0.2137741814
 40
0.2777350956
 40
0.3384459577
 40
0.3964084141
 40
0.4522969709
 40
0.5069434487
 40
0.5612801226
 40
0.6162654577
 40
0.6728042952
 40
0.7316785203
 40
0.7934973914
 40
0.8586943599
 40
1.0
 40
1.0
 40
1.0
 40
1.0
 10
35.6973539251
 20
56.0274619791
 30
0.0
 10
35.889448508
 20
56.1383641292
 30
0.0
 10
36.2556942159
 20
56.3696982933
 30
0.0
 10
36.7585540556
 20
56.7545374723
 30
0.0
 10
37.1968707233
 20
57.1654458294
 30
0.0
 10
37.5666956011
 20
57.5989370792
 30
0.0
 10
37.8644598116
 20
58.0515106382
 30
0.0
 10
38.0872847721
 20
58.5192574208
 30
0.0
 10
38.2325117979
 20
58.9981111168
 30
0.0
 10
38.2984780874
 20
59.4834643641
 30
0.0
 10
38.2841539788
 20
59.9704414779
 30
0.0
 10
38.1898243744
 20
60.4540238712
 30
0.0
 10
38.0167199566
 20
60.9294361073
 30
0.0
 10
37.7668819281
 20
61.3922112155
 30
0.0
 10
37.4430886048
 20
61.8384538843
 30
0.0
 10
36.9026713207
 20
62.4216243942
 30
0.0
 10
36.4157314915
 20
62.7988749028
 30
0.0
 10
36.0656499152
 20
63.0272042452
 30
0.0
  0
SPLINE
  5
2FC
100
AcDbEntity
  8
0
100
AcDbSpline
 62
7
  6
BYLAYER
 70
0
 71
3
 72
11
 73
7
 74
0
 42
0.0000001
 43
0.0000001
 44
0.0000000001
 40
0.0
 40
0.0
 40
0.0
 40
0.0
 40
0.2895359088
 40
0.5491073527
 40
0.7822501147
 40
1.0
 40
1.0
 40
1.0
 40
1.0
 10
51.7132036604
 20
34.7778919982
 30
0.0
 10
51.7132036604
 20
34.7525727793
 30
0.0
 10
51.7093392355
 20
34.7043946965
 30
0.0
 10
51.6898630077
 20
34.6381889345
 30
0.0
 10
51.6570116823
 20
34.5844459439
 30
0.0
 10
51.6261266876
 20
34.5585399555
 30
0.0
 10
51.6096360648
 20
34.5490191447
 30
0.0
  0
ENDSEC
  0
SECTION
  2
OBJECTS
  0
DICTIONARY
  5
C
100
AcDbDictionary
280
0
281
1
  3
ACAD_GROUP
350
D
  3
ACAD_MLINESTYLE
350
17
  3
ACAD_LAYOUT
350
1A
  3
ACAD_PLOTSETTINGS
350
19
  3
ACAD_PLOTSTYLENAME
350
E
  0
DICTIONARY
  5
D
102
{ACAD_REACTORS
330
C
102
}
100
AcDbDictionary
280
0
281
1
  0
ACDBDICTIONARYWDFLT
  5
E
102
{ACAD_REACTORS
330
C
102
}
100
AcDbDictionary
281
1
  3
Normal
350
F
100
AcDbDictionaryWithDefault
340
F
  0
DICTIONARY
  5
17
102
{ACAD_REACTORS
330
C
102
}
100
AcDbDictionary
280
0
281
1
  3
Standard
350
18
  0
DICTIONARY
  5
19
102
{ACAD_REACTORS
330
C
102
}
100
AcDbDictionary
281
1
  0
DICTIONARY
  5
1A
102
{ACAD_REACTORS
330
C
102
}
100
AcDbDictionary
281
1
  3
Model
350
2FD
  3
Layout1
350
2FE
  0
ACDBPLACEHOLDER
  5
F
102
{ACAD_REACTORS
330
E
102
}
  0
MLINESTYLE
  5
18
102
{ACAD_REACTORS
330
17
102
}
100
AcDbMlineStyle
  2
STANDARD
 70
0
  3

 62
256
 51
90.0
 52
90.0
 71
2
 49
0.5
 62
256
  6
BYLAYER
 49
-0.5
 62
256
  6
BYLAYER
  0
LAYOUT
  5
2FD
102
{ACAD_REACTORS
330
1A
102
}
100
AcDbPlotSettings
  1

  2
none_device
  4

  6

 40
0.0
 41
0.0
 42
0.0
 43
0.0
 44
210.0
 45
297.0
 46
0.0
 47
0.0
 48
0.0
 49
0.0
140
0.0
141
0.0
142
1.0
143
1.0
 70
1024
 72
1
 73
0
 74
0
  7

 75
0
147
1.0
148
0.0
149
0.0
100
AcDbLayout
  1
Model
 70
0
 71
0
 10
0.0
 20
0.0
 11
210.0
 21
297.0
 12
0.0
 22
0.0
 32
0.0
 14
0.0
 24
0.0
 34
0.0
 15
0.0
 25
0.0
 35
0.0
146
0.0
 13
0.0
 23
0.0
 33
0.0
 16
1.0
 26
0.0
 36
0.0
 17
0.0
 27
1.0
 37
0.0
 76
0
330
210
345
0
346
0
  0
LAYOUT
  5
2FE
102
{ACAD_REACTORS
330
1A
102
}
100
AcDbPlotSettings
  1

  2
none_device
  4

  6

 40
0.0
 41
0.0
 42
0.0
 43
0.0
 44
210.0
 45
297.0
 46
0.0
 47
0.0
 48
0.0
 49
0.0
140
0.0
141
0.0
142
1.0
143
1.0
 70
0
 72
1
 73
0
 74
0
  7

 75
0
147
1.0
148
0.0
149
0.0
100
AcDbLayout
  1
Layout1
 70
0
 71
1
 10
0.0
 20
0.0
 11
210.0
 21
297.0
 12
0.0
 22
0.0
 32
0.0
 14
0.0
 24
0.0
 34
0.0
 15
0.0
 25
0.0
 35
0.0
146
0.0
 13
0.0
 23
0.0
 33
0.0
 16
1.0
 26
0.0
 36
0.0
 17
0.0
 27
1.0
 37
0.0
 76
0
330
211
345
0
346
0
  0
ENDSEC
  0
EOF
