999
DXF file: C:\Users\sesa63760\Dev\_Creo\CAD\MCADID0004782_3D-CAD\drw0001_1.dxf
999
Pro/ENGINEER 2019471 by Parametric Technology Corporation
  0
SECTION
  2
HEADER
  9
$ACADVER
  1
AC1024
  9
$DWGCODEPAGE
  3
ANSI_1252
  9
$EXTMAX
 10
53.3996528402
 20
75.5223661597
 30
0.0
  9
$EXTMIN
 10
0.0
 20
0.0
 30
0.0
  9
$LIMMIN
 10
0.0
 20
0.0
  9
$LIMMAX
 10
53.3996528402
 20
75.5223661597
  9
$VIEWCTR
 10
26.6998264201
 20
37.7611830799
  9
$VIEWSIZE
 40
75.5223661597
  9
$CLAYER
  8
0
  9
$LTSCALE
 40
4.9229394237
  9
$CELTYPE
  6
BYLAYER
  9
$DIMSCALE
 40
1.0
  9
$DIMASZ
 40
0.6357101529
  9
$DIMEXO
 40
1.0
  9
$DIMDLI
 40
3.4013036019
  9
$DIMEXE
 40
1.0
  9
$DIMCEN
 40
0.8055719057
  9
$DIMLFAC
 40
1.0
  9
$DIMBLK
  1
_FILLED
  9
$DIMALT
 70
0
  9
$DIMALTF
 40
0.0393700787
  9
$DIMTXT
 40
0.889994214
  9
$DIMTOL
 70
1
  9
$DIMLIM
 70
0
  9
$DIMTFAC
 40
1.0
  9
$DIMTP
 40
0.01
  9
$DIMTM
 40
0.01
  9
$DIMGAP
 40
0.625
  9
$DIMDSEP
 70
46
  9
$AUNITS
 70
0
  9
$PDMODE
 70
3
  9
$PDSIZE
 40
0.3125
  9
$HANDSEED
  5
2C6
  9
$TILEMODE
 70
1
  9
$MEASUREMENT
 70
1
  9
$INSUNITS
 70
4
  0
ENDSEC
  0
SECTION
  2
CLASSES
  0
CLASS
  1
ACDBDICTIONARYWDFLT
  2
AcDbDictionaryWithDefault
  3
AutoCAD 2000
 90
0
 91
1
280
0
281
0
  0
CLASS
  1
ACDBPLACEHOLDER
  2
AcDbPlaceHolder
  3
AutoCAD 2000
 90
0
 91
1
280
0
281
0
  0
CLASS
  1
LAYOUT
  2
AcDbLayout
  3
AutoCAD 2000
 90
0
 91
0
280
0
281
0
  0
ENDSEC
  0
SECTION
  2
TABLES
  0
TABLE
  2
VPORT
  5
8
100
AcDbSymbolTable
 70
2
  0
VPORT
  5
1F4
100
AcDbSymbolTableRecord
100
AcDbViewportTableRecord
  2
*ACTIVE
 70
0
 10
0.0
 20
0.0
 11
1.0
 21
1.0
 12
26.6998264201
 22
37.7611830799
 13
0.0
 23
0.0
 14
1.0
 24
1.0
 15
0.0
 25
0.0
 16
0.0
 26
0.0
 36
1.0
 17
0.0
 27
0.0
 37
0.0
 40
75.5223661597
 41
0.7070707071
 42
50.0
 43
0.0
 44
0.0
 50
0.0
 51
0.0
 71
0
 72
100
 73
1
 74
1
 75
0
 76
0
 77
0
 78
0
  0
ENDTAB
  0
TABLE
  2
LTYPE
  5
5
100
AcDbSymbolTable
 70
6
  0
LTYPE
  5
14
100
AcDbSymbolTableRecord
100
AcDbLinetypeTableRecord
  2
BYBLOCK
 70
0
  3

 72
65
 73
0
 40
0.0
  0
LTYPE
  5
15
100
AcDbSymbolTableRecord
100
AcDbLinetypeTableRecord
  2
BYLAYER
 70
0
  3

 72
65
 73
0
 40
0.0
  0
LTYPE
  5
16
100
AcDbSymbolTableRecord
100
AcDbLinetypeTableRecord
  2
CONTINUOUS
 70
64
  3
Solid line
 72
65
 73
0
 40
0.0
  0
LTYPE
  5
1F5
100
AcDbSymbolTableRecord
100
AcDbLinetypeTableRecord
  2
CENTER
 70
64
  3
____ _ ____ _ ____ _ ____ _ ____ _ ____ _ ____
 72
65
 73
4
 40
0.6
 49
0.375
 74
0
 49
-0.075
 74
0
 49
0.075
 74
0
 49
-0.075
 74
0
  0
LTYPE
  5
1F6
100
AcDbSymbolTableRecord
100
AcDbLinetypeTableRecord
  2
HIDDEN
 70
64
  3
- - - - - - - - - - - - - - - - - - - -
 72
65
 73
2
 40
0.2
 49
0.1
 74
0
 49
-0.1
 74
0
  0
LTYPE
  5
1F7
100
AcDbSymbolTableRecord
100
AcDbLinetypeTableRecord
  2
PHANTOM
 70
64
  3
_____ _ _ _____ _ _ _____ _ _ _____
 72
65
 73
6
 40
0.8
 49
0.45
 74
0
 49
-0.05
 74
0
 49
0.1
 74
0
 49
-0.05
 74
0
 49
0.1
 74
0
 49
-0.05
 74
0
  0
LTYPE
  5
1F8
100
AcDbSymbolTableRecord
100
AcDbLinetypeTableRecord
  2
DOT
 70
64
  3
. . . . . . . . . . . . . . . . . . . .
 72
65
 73
2
 40
0.2
 49
0.1
 74
0
 49
-0.1
 74
0
  0
LTYPE
  5
1F9
100
AcDbSymbolTableRecord
100
AcDbLinetypeTableRecord
  2
DASHED
 70
64
  3
- - - - - - - - - - - - - - - - - - - -
 72
65
 73
2
 40
0.2
 49
0.1
 74
0
 49
-0.1
 74
0
  0
ENDTAB
  0
TABLE
  2
LAYER
  5
2
100
AcDbSymbolTable
 70
36
  0
LAYER
  5
10
100
AcDbSymbolTableRecord
100
AcDbLayerTableRecord
  2
0
 70
0
 62
7
  6
CONTINUOUS
370
-3
390
F
  0
LAYER
  5
1FA
100
AcDbSymbolTableRecord
100
AcDbLayerTableRecord
  2
DEFAULT_1
 70
0
 62
7
  6
CENTER
370
-3
390
F
  0
LAYER
  5
1FB
100
AcDbSymbolTableRecord
100
AcDbLayerTableRecord
  2
DEFAULT_2
 70
0
 62
7
  6
HIDDEN
370
-3
390
F
  0
LAYER
  5
1FC
100
AcDbSymbolTableRecord
100
AcDbLayerTableRecord
  2
DEFAULT_3
 70
0
 62
7
  6
PHANTOM
370
-3
390
F
  0
LAYER
  5
1FD
100
AcDbSymbolTableRecord
100
AcDbLayerTableRecord
  2
00_COMPONENTS
 70
0
 62
7
  6
CONTINUOUS
370
-3
390
F
  0
LAYER
  5
1FE
100
AcDbSymbolTableRecord
100
AcDbLayerTableRecord
  2
01_1_DEFAULT_DATUMS
 70
0
 62
7
  6
CONTINUOUS
370
-3
390
F
  0
LAYER
  5
1FF
100
AcDbSymbolTableRecord
100
AcDbLayerTableRecord
  2
01_PLANES
 70
0
 62
7
  6
CONTINUOUS
370
-3
390
F
  0
LAYER
  5
200
100
AcDbSymbolTableRecord
100
AcDbLayerTableRecord
  2
02_COORD_SYS
 70
0
 62
7
  6
CONTINUOUS
370
-3
390
F
  0
LAYER
  5
201
100
AcDbSymbolTableRecord
100
AcDbLayerTableRecord
  2
03_AXES
 70
0
 62
7
  6
CONTINUOUS
370
-3
390
F
  0
LAYER
  5
202
100
AcDbSymbolTableRecord
100
AcDbLayerTableRecord
  2
04_POINTS
 70
0
 62
7
  6
CONTINUOUS
370
-3
390
F
  0
LAYER
  5
203
100
AcDbSymbolTableRecord
100
AcDbLayerTableRecord
  2
05_CURVES
 70
0
 62
7
  6
CONTINUOUS
370
-3
390
F
  0
LAYER
  5
204
100
AcDbSymbolTableRecord
100
AcDbLayerTableRecord
  2
06_SURFS
 70
0
 62
7
  6
CONTINUOUS
370
-3
390
F
  0
LAYER
  5
205
100
AcDbSymbolTableRecord
100
AcDbLayerTableRecord
  2
07_COSMETICS
 70
0
 62
7
  6
CONTINUOUS
370
-3
390
F
  0
LAYER
  5
206
100
AcDbSymbolTableRecord
100
AcDbLayerTableRecord
  2
10_NOTES
 70
0
 62
7
  6
CONTINUOUS
370
-3
390
F
  0
LAYER
  5
207
100
AcDbSymbolTableRecord
100
AcDbLayerTableRecord
  2
11_NOTES_PUB
 70
0
 62
7
  6
CONTINUOUS
370
-3
390
F
  0
LAYER
  5
208
100
AcDbSymbolTableRecord
100
AcDbLayerTableRecord
  2
13_REF_GTOL
 70
0
 62
7
  6
CONTINUOUS
370
-3
390
F
  0
LAYER
  5
209
100
AcDbSymbolTableRecord
100
AcDbLayerTableRecord
  2
16_MISC
 70
0
 62
7
  6
CONTINUOUS
370
-3
390
F
  0
LAYER
  5
20A
100
AcDbSymbolTableRecord
100
AcDbLayerTableRecord
  2
17_NO_PRINT
 70
0
 62
7
  6
CONTINUOUS
370
-3
390
F
  0
LAYER
  5
20B
100
AcDbSymbolTableRecord
100
AcDbLayerTableRecord
  2
18_DATUM_CAMS_JOINTS
 70
0
 62
7
  6
CONTINUOUS
370
-3
390
F
  0
LAYER
  5
20C
100
AcDbSymbolTableRecord
100
AcDbLayerTableRecord
  2
19_DATUM_FUNCTIONAL
 70
0
 62
7
  6
CONTINUOUS
370
-3
390
F
  0
LAYER
  5
20D
100
AcDbSymbolTableRecord
100
AcDbLayerTableRecord
  2
20_DATUM_KINEMATIC_SCHEME
 70
0
 62
7
  6
CONTINUOUS
370
-3
390
F
  0
ENDTAB
  0
TABLE
  2
STYLE
  5
3
100
AcDbSymbolTable
 70
1
  0
STYLE
  5
11
100
AcDbSymbolTableRecord
100
AcDbTextStyleTableRecord
  2
STANDARD
 70
0
 40
0.0
 41
1.0
 50
0.0
 71
0
 42
0.2
  3
ARIAL.TTF
  4

  0
STYLE
  5
20E
100
AcDbSymbolTableRecord
100
AcDbTextStyleTableRecord
  2
TEXTSTYLE_1
 70
0
 40
0.0
 41
0.8
 50
0.0
 71
0
 42
0.2
  3
gdt
  4

  0
ENDTAB
  0
TABLE
  2
VIEW
  5
6
100
AcDbSymbolTable
 70
0
  0
ENDTAB
  0
TABLE
  2
UCS
  5
7
100
AcDbSymbolTable
 70
0
  0
ENDTAB
  0
TABLE
  2
APPID
  5
9
100
AcDbSymbolTable
 70
1
  0
APPID
  5
20F
100
AcDbSymbolTableRecord
100
AcDbRegAppTableRecord
  2
ACAD
 70
0
  0
ENDTAB
  0
TABLE
  2
BLOCK_RECORD
  5
1
100
AcDbSymbolTable
 70
0
  0
BLOCK_RECORD
  5
210
100
AcDbSymbolTableRecord
100
AcDbBlockTableRecord
  2
*Model_Space
  0
BLOCK_RECORD
  5
211
100
AcDbSymbolTableRecord
100
AcDbBlockTableRecord
  2
*Paper_Space
  0
BLOCK_RECORD
  5
212
100
AcDbSymbolTableRecord
100
AcDbBlockTableRecord
  2
_FILLED
  0
ENDTAB
  0
TABLE
  2
DIMSTYLE
  5
A
100
AcDbSymbolTable
 70
1
100
AcDbDimStyleTable
 71
0
  0
DIMSTYLE
105
213
100
AcDbSymbolTableRecord
100
AcDbDimStyleTableRecord
  2
STANDARD
 70
0
  3

  4

 40
1.0
 41
0.6357101529
 42
1.0
 43
0.38
 44
1.0
 45
0.0
 46
0.0
 47
0.01
 48
0.01
140
0.889994214
141
0.09
142
0.0
143
25.4
144
1.0
145
0.0
146
1.0
147
0.625
 71
1
 72
0
 73
0
 74
0
 75
0
 76
0
 77
1
 78
8
 79
2
170
0
171
1
172
0
173
0
174
0
175
0
176
0
177
0
178
0
270
2
179
2
271
2
272
2
273
2
274
2
275
0
280
0
281
0
282
0
283
1
284
8
285
0
286
0
287
3
288
0
340
11
278
46
341
212
342
212
343
212
344
212
  0
ENDTAB
  0
ENDSEC
  0
SECTION
  2
BLOCKS
  0
BLOCK
  5
20
100
AcDbEntity
  8
0
100
AcDbBlockBegin
  2
*Model_Space
 70
0
 10
0.0
 20
0.0
 30
0.0
  3
*Model_Space
  1

  0
ENDBLK
  5
21
100
AcDbEntity
  8
0
100
AcDbBlockEnd
  0
BLOCK
  5
1C
100
AcDbEntity
  8
0
100
AcDbBlockBegin
  2
*Paper_Space
 70
0
 10
0.0
 20
0.0
 30
0.0
  3
*Paper_Space
  1

  0
ENDBLK
  5
1D
100
AcDbEntity
  8
0
100
AcDbBlockEnd
  0
BLOCK
  5
214
100
AcDbEntity
  8
0
100
AcDbBlockBegin
  2
_FILLED
 70
64
 10
0.0
 20
0.0
  3
_FILLED
  1

  0
SOLID
  5
215
100
AcDbEntity
  8
0
  6
BYBLOCK
 62
0
100
AcDbTrace
 10
0.0
 20
0.0
 11
-1.0
 21
0.25
 12
-1.0
 22
-0.25
 13
-1.0
 23
-0.25
  0
ENDBLK
  5
216
100
AcDbEntity
  8
0
  6
BYBLOCK
 62
0
100
AcDbBlockEnd
  0
ENDSEC
  0
SECTION
  2
ENTITIES
  0
LINE
  5
217
100
AcDbEntity
  8
0
100
AcDbLine
 62
7
  6
BYLAYER
 10
25.9724010763
 20
11.7144740698
 11
17.7152870176
 21
16.4816132472
  0
LINE
  5
218
100
AcDbEntity
  8
0
100
AcDbLine
 62
7
  6
BYLAYER
 10
26.7855627141
 20
11.612482913
 11
27.0683970061
 21
11.4491837894
  0
LWPOLYLINE
  5
219
100
AcDbEntity
  8
0
100
AcDbPolyline
 62
7
  6
BYLAYER
 90
3
 70
0
 10
23.1480129834
 20
60.3702745912
 10
21.9818459545
 20
59.6950953264
 10
21.1505001047
 20
58.8474097743
  0
LWPOLYLINE
  5
21A
100
AcDbEntity
  8
0
100
AcDbPolyline
 62
7
  6
BYLAYER
 90
6
 70
0
 10
23.4477326147
 20
60.543804176
 10
22.8174481026
 20
60.3260009127
 10
21.6546789483
 20
59.6522702578
 10
19.9783923099
 20
58.0244439049
 10
19.304401434
 20
56.1680628309
 10
19.2959626115
 20
55.9278998125
  0
LWPOLYLINE
  5
21B
100
AcDbEntity
  8
0
100
AcDbPolyline
 62
7
  6
BYLAYER
 90
4
 70
0
 10
20.6374420022
 20
18.1687101435
 10
22.7770941488
 20
17.3297022628
 10
25.2324606402
 20
17.3606248958
 10
25.5339196715
 20
17.4840665791
  0
LINE
  5
21C
100
AcDbEntity
  8
0
100
AcDbLine
 62
7
  6
BYLAYER
 10
8.3653689201
 20
32.6763355842
 11
8.3653689201
 21
42.2105790439
  0
LINE
  5
21D
100
AcDbEntity
  8
0
100
AcDbLine
 62
7
  6
BYLAYER
 10
8.6835827219
 20
42.9658913804
 11
8.6835803667
 21
43.2924853438
  0
LINE
  5
21E
100
AcDbEntity
  8
0
100
AcDbLine
 62
7
  6
BYLAYER
 10
19.2957396526
 20
55.134863438
 11
11.6180465713
 21
50.7021717304
  0
LINE
  5
21F
100
AcDbEntity
  8
0
100
AcDbLine
 62
7
  6
BYLAYER
 10
34.9526675012
 20
10.285647066
 11
30.5886505957
 21
12.8051564021
  0
LINE
  5
220
100
AcDbEntity
  8
0
100
AcDbLine
 62
7
  6
BYLAYER
 10
21.15047717
 20
58.8474156917
 11
20.623428633
 21
58.1669911746
  0
LINE
  5
221
100
AcDbEntity
  8
0
100
AcDbLine
 62
7
  6
BYLAYER
 10
27.7301947876
 20
17.3133039348
 11
31.69998985
 21
15.0213935369
  0
LINE
  5
222
100
AcDbEntity
  8
0
100
AcDbLine
 62
7
  6
BYLAYER
 10
11.6180465713
 20
45.6631110988
 11
11.6180465713
 21
50.7021717304
  0
LWPOLYLINE
  5
223
100
AcDbEntity
  8
0
100
AcDbPolyline
 62
7
  6
BYLAYER
 90
3
 70
0
 10
11.1938369662
 20
29.6773440926
 10
11.2749434872
 20
30.7010399966
 10
11.6492859829
 20
31.672528369
  0
LWPOLYLINE
  5
224
100
AcDbEntity
  8
0
100
AcDbPolyline
 62
7
  6
BYLAYER
 90
3
 70
0
 10
11.193843206
 20
29.8406354333
 10
11.2776576548
 20
30.8947888094
 10
11.5864245085
 20
31.6959579008
  0
LWPOLYLINE
  5
225
100
AcDbEntity
  8
0
100
AcDbPolyline
 62
7
  6
BYLAYER
 90
4
 70
0
 10
10.582815728
 20
33.9565714536
 10
10.9185807368
 20
36.2127340143
 10
12.1698322619
 20
38.3302461667
 10
13.075606411
 20
39.0330708456
  0
LINE
  5
226
100
AcDbEntity
  8
0
100
AcDbLine
 62
7
  6
BYLAYER
 10
14.121102752
 20
47.1082426322
 11
9.0978042939
 21
44.208057227
  0
LINE
  5
227
100
AcDbEntity
  8
0
100
AcDbLine
 62
7
  6
BYLAYER
 10
14.0929576938
 20
40.9335603347
 11
14.0929576938
 21
45.517498511
  0
LWPOLYLINE
  5
228
100
AcDbEntity
  8
0
100
AcDbPolyline
 62
7
  6
BYLAYER
 90
7
 70
0
 10
11.1124585588
 20
31.8726130044
 10
10.8575092093
 20
31.2071233001
 10
10.8599971141
 20
28.844830016
 10
11.5589267045
 20
26.2243865075
 10
12.8751822586
 20
23.650654208
 10
14.6450780339
 20
21.4455123042
 10
16.6739361583
 20
19.8590313765
  0
LWPOLYLINE
  5
229
100
AcDbEntity
  8
0
100
AcDbPolyline
 62
7
  6
BYLAYER
 90
7
 70
0
 10
11.9041100946
 20
31.5775511246
 10
11.5545543049
 20
30.6673882138
 10
11.556130675
 20
28.5862299117
 10
12.1719439286
 20
26.2774326558
 10
13.3302415494
 20
24.0128863248
 10
14.8886291989
 20
22.0714429664
 10
16.6739361583
 20
20.6755337936
  0
LINE
  5
22A
100
AcDbEntity
  8
0
100
AcDbLine
 62
7
  6
BYLAYER
 10
17.345635345
 20
47.3954216188
 11
14.0929576938
 21
45.517498511
  0
LINE
  5
22B
100
AcDbEntity
  8
0
100
AcDbLine
 62
7
  6
BYLAYER
 10
8.7807352215
 20
42.4503894583
 11
8.3653689201
 21
42.2105790439
  0
LWPOLYLINE
  5
22C
100
AcDbEntity
  8
0
100
AcDbPolyline
 62
7
  6
BYLAYER
 90
4
 70
0
 10
13.1434100341
 20
38.9456237214
 10
12.8791047085
 20
38.7406900674
 10
11.6293767524
 20
36.6319485445
 10
11.2904193251
 20
34.3651041423
  0
LINE
  5
22D
100
AcDbEntity
  8
0
100
AcDbLine
 62
7
  6
BYLAYER
 10
14.0929576938
 20
42.4731979114
 11
11.0977953401
 21
40.7439504424
  0
LINE
  5
22E
100
AcDbEntity
  8
0
100
AcDbLine
 62
7
  6
BYLAYER
 10
12.4506063264
 20
40.1156092085
 11
14.0929576938
 21
41.0638155526
  0
LINE
  5
22F
100
AcDbEntity
  8
0
100
AcDbLine
 62
7
  6
BYLAYER
 10
19.2957396526
 20
47.4362745887
 11
19.2957396526
 21
55.9278997269
  0
LINE
  5
230
100
AcDbEntity
  8
0
100
AcDbLine
 62
7
  6
BYLAYER
 10
15.3577003145
 20
36.7133358993
 11
8.109885983
 21
32.5288333221
  0
LINE
  5
231
100
AcDbEntity
  8
0
100
AcDbLine
 62
7
  6
BYLAYER
 10
9.8149293105
 20
41.0063190326
 11
10.0977636025
 21
40.843019909
  0
LINE
  5
232
100
AcDbEntity
  8
0
100
AcDbLine
 62
7
  6
BYLAYER
 10
26.7855627141
 20
31.2085409241
 11
27.0683970061
 21
31.0452418005
  0
LINE
  5
233
100
AcDbEntity
  8
0
100
AcDbLine
 62
7
  6
BYLAYER
 10
12.2613752703
 20
39.961269615
 11
11.0497735453
 21
40.6607723722
  0
LINE
  5
234
100
AcDbEntity
  8
0
100
AcDbLine
 62
7
  6
BYLAYER
 10
9.0640578645
 20
41.8071999194
 11
8.3653689201
 21
42.2105790439
  0
LINE
  5
235
100
AcDbEntity
  8
0
100
AcDbLine
 62
7
  6
BYLAYER
 10
27.9246868126
 20
30.9182570599
 11
31.69998985
 21
28.7386341447
  0
LINE
  5
236
100
AcDbEntity
  8
0
100
AcDbLine
 62
7
  6
BYLAYER
 10
23.0457396526
 20
57.4792543194
 11
23.0457396526
 21
57.1526533526
  0
LINE
  5
237
100
AcDbEntity
  8
0
100
AcDbLine
 62
7
  6
BYLAYER
 10
34.9526675012
 20
30.6165572525
 11
31.2250603457
 21
32.7686435604
  0
LINE
  5
238
100
AcDbEntity
  8
0
100
AcDbLine
 62
7
  6
BYLAYER
 10
27.362053963
 20
29.8869698648
 11
26.5152936325
 21
31.4287201128
  0
LINE
  5
239
100
AcDbEntity
  8
0
100
AcDbLine
 62
7
  6
BYLAYER
 10
25.6542161254
 20
13.5720552608
 11
25.6542137702
 21
13.8986492242
  0
LINE
  5
23A
100
AcDbEntity
  8
0
100
AcDbLine
 62
7
  6
BYLAYER
 10
25.6542161254
 20
33.1681132719
 11
25.6542137702
 21
33.4947072353
  0
LINE
  5
23B
100
AcDbEntity
  8
0
100
AcDbLine
 62
7
  6
BYLAYER
 10
25.9724010763
 20
16.1963205306
 11
25.9724010763
 21
14.7037037708
  0
LINE
  5
23C
100
AcDbEntity
  8
0
100
AcDbLine
 62
7
  6
BYLAYER
 10
25.9724010763
 20
12.5141356609
 11
25.9724010763
 21
11.7144740698
  0
LINE
  5
23D
100
AcDbEntity
  8
0
100
AcDbLine
 62
7
  6
BYLAYER
 10
25.9724010763
 20
34.2997617819
 11
25.9724010763
 21
38.659053835
  0
LINE
  5
23E
100
AcDbEntity
  8
0
100
AcDbLine
 62
7
  6
BYLAYER
 10
29.2250787275
 20
40.5369769429
 11
25.9724010763
 21
38.659053835
  0
LINE
  5
23F
100
AcDbEntity
  8
0
100
AcDbLine
 62
7
  6
BYLAYER
 10
14.0929576938
 20
45.517498511
 11
25.9724010763
 21
38.659053835
  0
LWPOLYLINE
  5
240
100
AcDbEntity
  8
0
100
AcDbPolyline
 62
7
  6
BYLAYER
 90
3
 70
0
 10
29.0483342686
 20
22.5944317619
 10
28.6169340156
 20
26.1506046249
 10
27.362053963
 20
29.8869698648
  0
LINE
  5
241
100
AcDbEntity
  8
0
100
AcDbLine
 62
7
  6
BYLAYER
 10
29.2250787275
 20
36.2327557883
 11
29.2250787275
 21
40.5369769429
  0
LINE
  5
242
100
AcDbEntity
  8
0
100
AcDbLine
 62
7
  6
BYLAYER
 10
31.0917361555
 20
37.3104645238
 11
26.0684376974
 21
34.4102791185
  0
LINE
  5
243
100
AcDbEntity
  8
0
100
AcDbLine
 62
7
  6
BYLAYER
 10
31.69998985
 20
28.7386341447
 11
31.69998985
 21
15.0213935369
  0
LINE
  5
244
100
AcDbEntity
  8
0
100
AcDbLine
 62
7
  6
BYLAYER
 10
34.9526675012
 20
37.2302268312
 11
48.0340884896
 21
44.7827436779
  0
LINE
  5
245
100
AcDbEntity
  8
0
100
AcDbLine
 62
7
  6
BYLAYER
 10
34.9526675012
 20
37.2302268312
 11
29.2250787275
 21
40.5369769429
  0
LINE
  5
246
100
AcDbEntity
  8
0
100
AcDbLine
 62
7
  6
BYLAYER
 10
11.6180465713
 20
50.7021717304
 11
17.345635345
 21
47.3954216188
  0
LINE
  5
247
100
AcDbEntity
  8
0
100
AcDbLine
 62
7
  6
BYLAYER
 10
33.133717737
 20
33.8706008413
 11
28.0684287437
 21
30.946172334
  0
LINE
  5
248
100
AcDbEntity
  8
0
100
AcDbLine
 62
7
  6
BYLAYER
 10
34.9526675012
 20
37.2302268312
 11
34.9526675012
 21
30.6165572525
  0
LINE
  5
249
100
AcDbEntity
  8
0
100
AcDbLine
 62
7
  6
BYLAYER
 10
34.9526675012
 20
16.8993166447
 11
34.9526675012
 21
10.285647066
  0
LINE
  5
24A
100
AcDbEntity
  8
0
100
AcDbLine
 62
7
  6
BYLAYER
 10
35.5457396526
 20
57.4792543194
 11
35.5457396526
 21
57.1526533526
  0
LINE
  5
24B
100
AcDbEntity
  8
0
100
AcDbLine
 62
7
  6
BYLAYER
 10
34.9526675012
 20
30.6165572525
 11
31.69998985
 21
28.7386341447
  0
LINE
  5
24C
100
AcDbEntity
  8
0
100
AcDbLine
 62
7
  6
BYLAYER
 10
39.2957396526
 20
47.4362745887
 11
39.2957396526
 21
55.9278997269
  0
LINE
  5
24D
100
AcDbEntity
  8
0
100
AcDbLine
 62
7
  6
BYLAYER
 10
24.7076584556
 20
20.5186366814
 11
17.4598441242
 21
16.3341341042
  0
LINE
  5
24E
100
AcDbEntity
  8
0
100
AcDbLine
 62
7
  6
BYLAYER
 10
26.2005447693
 20
16.2998750645
 11
27.8430311035
 21
17.2481593312
  0
LWPOLYLINE
  5
24F
100
AcDbEntity
  8
0
100
AcDbPolyline
 62
7
  6
BYLAYER
 90
4
 70
0
 10
25.5755446847
 20
17.3824134275
 10
24.5124232509
 20
16.9490044099
 10
22.0367603043
 20
16.9281941755
 10
19.9350153783
 20
17.7631663639
  0
LINE
  5
250
100
AcDbEntity
  8
0
100
AcDbLine
 62
7
  6
BYLAYER
 10
39.2957396526
 20
49.8277175987
 11
48.0340884896
 21
44.7827436779
  0
LINE
  5
251
100
AcDbEntity
  8
0
100
AcDbLine
 62
7
  6
BYLAYER
 10
48.0340884896
 20
44.7827436779
 11
48.0340884896
 21
17.8381639126
  0
LINE
  5
252
100
AcDbEntity
  8
0
100
AcDbLine
 62
7
  6
BYLAYER
 10
29.0636094791
 20
16.5434740196
 11
26.0684376974
 21
14.8142211074
  0
LINE
  5
253
100
AcDbEntity
  8
0
100
AcDbLine
 62
7
  6
BYLAYER
 10
37.4410021351
 20
58.8474156917
 11
37.9680506722
 21
58.1669911746
  0
LINE
  5
254
100
AcDbEntity
  8
0
100
AcDbLine
 62
7
  6
BYLAYER
 10
34.9526675012
 20
16.8993166447
 11
31.69998985
 21
15.0213935369
  0
LINE
  5
255
100
AcDbEntity
  8
0
100
AcDbLine
 62
7
  6
BYLAYER
 10
26.3877639582
 20
11.95428251
 11
25.9724010763
 21
11.7144740698
  0
LINE
  5
256
100
AcDbEntity
  8
0
100
AcDbLine
 62
7
  6
BYLAYER
 10
37.4410067173
 20
58.8474168743
 11
35.6049795153
 21
60.3870217337
  0
LINE
  5
257
100
AcDbEntity
  8
0
100
AcDbLine
 62
7
  6
BYLAYER
 10
33.133717737
 20
14.2745428302
 11
28.0684287437
 21
11.3501143229
  0
LINE
  5
258
100
AcDbEntity
  8
0
100
AcDbLine
 62
7
  6
BYLAYER
 10
34.9526675012
 20
10.285647066
 11
48.0340884896
 21
17.8381639126
  0
ARC
  5
259
100
AcDbEntity
  8
0
100
AcDbCircle
 62
7
  6
BYLAYER
 10
22.8125235084
 20
33.8219041489
 40
13.2097067088
100
AcDbArc
 50
180.0036938936
 51
181.6468474006
  0
ARC
  5
25A
100
AcDbEntity
  8
0
100
AcDbCircle
 62
7
  6
BYLAYER
 10
30.9494640613
 20
59.5606880669
 40
6.531495072
100
AcDbArc
 50
299.9996538117
 51
300.2796772557
  0
ARC
  5
25B
100
AcDbEntity
  8
0
100
AcDbCircle
 62
7
  6
BYLAYER
 10
30.8654064207
 20
59.5371705147
 40
6.1996047573
100
AcDbArc
 50
299.9996545771
 51
300.2796780211
  0
ARC
  5
25C
100
AcDbEntity
  8
0
100
AcDbCircle
 62
7
  6
BYLAYER
 10
23.9058715485
 20
20.2749314531
 40
4.5898215554
100
AcDbArc
 50
297.4045307926
 51
299.9964687324
  0
ARC
  5
25D
100
AcDbEntity
  8
0
100
AcDbCircle
 62
7
  6
BYLAYER
 10
14.743094023
 20
36.1445138397
 40
4.5852984451
100
AcDbArc
 50
119.9975622376
 51
122.6426187034
  0
ARC
  5
25E
100
AcDbEntity
  8
0
100
AcDbCircle
 62
7
  6
BYLAYER
 10
24.1563999896
 20
21.4941698352
 40
4.2709926365
100
AcDbArc
 50
289.0116021022
 51
294.3315647596
  0
ARC
  5
25F
100
AcDbEntity
  8
0
100
AcDbCircle
 62
7
  6
BYLAYER
 10
15.9152130353
 20
35.7629401741
 40
4.2521699643
100
AcDbArc
 50
125.6396583078
 51
130.99753275
  0
SPLINE
  5
260
100
AcDbEntity
  8
0
100
AcDbSpline
 62
7
  6
BYLAYER
 70
0
 71
3
 72
21
 73
17
 74
0
 42
0.0000001
 43
0.0000001
 44
0.0000000001
 40
0.0
 40
0.0
 40
0.0
 40
0.0
 40
0.0518943725
 40
0.1039527598
 40
0.156556899
 40
0.2100691578
 40
0.2648204749
 40
0.3211019898
 40
0.3791607624
 40
0.439194774
 40
0.565673977
 40
0.6323706969
 40
0.7013906896
 40
0.7727250332
 40
0.8463303846
 40
1.0
 40
1.0
 40
1.0
 40
1.0
 10
37.890353431
 20
56.5688618518
 30
0.0
 10
37.8965507291
 20
56.6700050134
 30
0.0
 10
37.8982461522
 20
56.8734356449
 30
0.0
 10
37.8682578599
 20
57.1782109994
 30
0.0
 10
37.8059561857
 20
57.481296071
 30
0.0
 10
37.7115676669
 20
57.7814485453
 30
0.0
 10
37.5855368842
 20
58.0775327253
 30
0.0
 10
37.4283916273
 20
58.3684257318
 30
0.0
 10
37.2407491475
 20
58.6530558762
 30
0.0
 10
36.9458824841
 20
59.0292698292
 30
0.0
 10
36.5962693462
 20
59.3817515776
 30
0.0
 10
36.2018305138
 20
59.7084796198
 30
0.0
 10
35.8749031499
 20
59.9468038687
 30
0.0
 10
35.523416733
 20
60.173065293
 30
0.0
 10
35.0165533317
 20
60.4617235258
 30
0.0
 10
34.6142129287
 20
60.6511940473
 30
0.0
 10
34.3373385616
 20
60.7668689481
 30
0.0
  0
SPLINE
  5
261
100
AcDbEntity
  8
0
100
AcDbSpline
 62
7
  6
BYLAYER
 70
0
 71
3
 72
9
 73
5
 74
0
 42
0.0000001
 43
0.0000001
 44
0.0000000001
 40
0.0
 40
0.0
 40
0.0
 40
0.0
 40
0.5093704908
 40
1.0
 40
1.0
 40
1.0
 40
1.0
 10
24.2796625999
 20
60.7774990406
 30
0.0
 10
24.093511647
 20
60.7003279373
 30
0.0
 10
23.7324834431
 20
60.5378705744
 30
0.0
 10
23.3826909376
 20
60.3523217017
 30
0.0
 10
23.2145960163
 20
60.2552726329
 30
0.0
  0
SPLINE
  5
262
100
AcDbEntity
  8
0
100
AcDbSpline
 62
7
  6
BYLAYER
 70
0
 71
3
 72
34
 73
30
 74
0
 42
0.0000001
 43
0.0000001
 44
0.0000000001
 40
0.0
 40
0.0
 40
0.0
 40
0.0
 40
0.031433418
 40
0.0640513308
 40
0.097745226
 40
0.1324158905
 40
0.1679548592
 40
0.2042309582
 40
0.2784038686
 40
0.3537583445
 40
0.4290287863
 40
0.502956101
 40
0.5743511589
 40
0.6087765846
 40
0.6421919765
 40
0.6745003705
 40
0.7056254854
 40
0.735512209
 40
0.7641331857
 40
0.7914900166
 40
0.8176201722
 40
0.8425986481
 40
0.8665434111
 40
0.8896152294
 40
0.9120173902
 40
0.9339890695
 40
0.9557948062
 40
0.9777093478
 40
1.0
 40
1.0
 40
1.0
 40
1.0
 10
32.8489660214
 20
55.9177459782
 30
0.0
 10
32.7529014879
 20
55.862283425
 30
0.0
 10
32.5531282844
 20
55.7561235756
 30
0.0
 10
32.2386855962
 20
55.6138377932
 30
0.0
 10
31.9056612152
 20
55.4864430579
 30
0.0
 10
31.5562465414
 20
55.3747121957
 30
0.0
 10
31.1925870873
 20
55.2793597198
 30
0.0
 10
30.6881048556
 20
55.1740405495
 30
0.0
 10
30.0370618349
 20
55.0874883324
 30
0.0
 10
29.2433243842
 20
55.0560304416
 30
0.0
 10
28.4508223574
 20
55.0970048244
 30
0.0
 10
27.6793884882
 20
55.2093833374
 30
0.0
 10
27.0624515919
 20
55.3620608424
 30
0.0
 10
26.5964440352
 20
55.51851005
 30
0.0
 10
26.2681300666
 20
55.6498902263
 30
0.0
 10
25.9588880531
 20
55.7959316748
 30
0.0
 10
25.6706306206
 20
55.9556910973
 30
0.0
 10
25.4051889517
 20
56.1282264077
 30
0.0
 10
25.1642042103
 20
56.3124409916
 30
0.0
 10
24.9492243569
 20
56.5072561482
 30
0.0
 10
24.7615895961
 20
56.7114618816
 30
0.0
 10
24.6025547724
 20
56.9238634028
 30
0.0
 10
24.4731590229
 20
57.1431504384
 30
0.0
 10
24.3743606862
 20
57.3679948221
 30
0.0
 10
24.3068781982
 20
57.5969483004
 30
0.0
 10
24.271300864
 20
57.8284951183
 30
0.0
 10
24.2679096633
 20
58.0610413607
 30
0.0
 10
24.2967534883
 20
58.2929003032
 30
0.0
 10
24.3368210911
 20
58.4442153022
 30
0.0
 10
24.3617585895
 20
58.5188194168
 30
0.0
  0
SPLINE
  5
263
100
AcDbEntity
  8
0
100
AcDbSpline
 62
7
  6
BYLAYER
 70
0
 71
3
 72
15
 73
11
 74
0
 42
0.0000001
 43
0.0000001
 44
0.0000000001
 40
0.0
 40
0.0
 40
0.0
 40
0.0
 40
0.1431147218
 40
0.2798868895
 40
0.4106600486
 40
0.5359508685
 40
0.6564866271
 40
0.7732206596
 40
0.8872956877
 40
1.0
 40
1.0
 40
1.0
 40
1.0
 10
24.2392628185
 20
59.60011665
 30
0.0
 10
24.1452320361
 20
59.5253941092
 30
0.0
 10
23.9669741548
 20
59.3719405308
 30
0.0
 10
23.7261826906
 20
59.1247261475
 30
0.0
 10
23.5195637829
 20
58.8671125828
 30
0.0
 10
23.3484284024
 20
58.6006505734
 30
0.0
 10
23.213993053
 20
58.3268974127
 30
0.0
 10
23.1171879695
 20
58.0475371035
 30
0.0
 10
23.0587927316
 20
57.7644047909
 30
0.0
 10
23.0457420779
 20
57.5738383622
 30
0.0
 10
23.0457464613
 20
57.479254327
 30
0.0
  0
SPLINE
  5
264
100
AcDbEntity
  8
0
100
AcDbSpline
 62
7
  6
BYLAYER
 70
0
 71
3
 72
18
 73
14
 74
0
 42
0.0000001
 43
0.0000001
 44
0.0000000001
 40
0.0
 40
0.0
 40
0.0
 40
0.0
 40
0.149269834
 40
0.2904644563
 40
0.4235901106
 40
0.549132872
 40
0.6679628186
 40
0.7253083849
 40
0.7815184912
 40
0.8368291649
 40
0.8914960319
 40
0.9457923115
 40
1.0
 40
1.0
 40
1.0
 40
1.0
 10
23.2145960163
 20
60.2552726329
 30
0.0
 10
23.01213582
 20
60.1383828818
 30
0.0
 10
22.6276868803
 20
59.8937442773
 30
0.0
 10
22.1047943424
 20
59.4835890173
 30
0.0
 10
21.6567057668
 20
59.0439993183
 30
0.0
 10
21.2883246758
 20
58.579460808
 30
0.0
 10
21.0483954162
 20
58.1701384792
 30
0.0
 10
20.9024247333
 20
57.836370334
 30
0.0
 10
20.8163491791
 20
57.5859697618
 30
0.0
 10
20.7526303092
 20
57.3332900515
 30
0.0
 10
20.7115006579
 20
57.0789813445
 30
0.0
 10
20.6930636719
 20
56.8237762179
 30
0.0
 10
20.6959257249
 20
56.6536006971
 30
0.0
 10
20.7011185023
 20
56.568861702
 30
0.0
  0
SPLINE
  5
265
100
AcDbEntity
  8
0
100
AcDbSpline
 62
7
  6
BYLAYER
 70
0
 71
3
 72
14
 73
10
 74
0
 42
0.0000001
 43
0.0000001
 44
0.0000000001
 40
0.0
 40
0.0
 40
0.0
 40
0.0
 40
0.1126301788
 40
0.2266447346
 40
0.3433459129
 40
0.4638852081
 40
0.5892163148
 40
0.7200799054
 40
1.0
 40
1.0
 40
1.0
 40
1.0
 10
35.5457328438
 20
57.4792543118
 30
0.0
 10
35.5457284361
 20
57.5743646232
 30
0.0
 10
35.5325471679
 20
57.7660072067
 30
0.0
 10
35.4734798828
 20
58.0507025809
 30
0.0
 10
35.3756082717
 20
58.3315705073
 30
0.0
 10
35.2396705481
 20
58.6067095577
 30
0.0
 10
35.0666753974
 20
58.874490796
 30
0.0
 10
34.7819096688
 20
59.2272416855
 30
0.0
 10
34.5249448157
 20
59.4638770082
 30
0.0
 10
34.3393632565
 20
59.61028058
 30
0.0
  0
SPLINE
  5
266
100
AcDbEntity
  8
0
100
AcDbSpline
 62
7
  6
BYLAYER
 70
0
 71
3
 72
19
 73
15
 74
0
 42
0.0000001
 43
0.0000001
 44
0.0000000001
 40
0.0
 40
0.0
 40
0.0
 40
0.0
 40
0.0566546186
 40
0.1124603487
 40
0.1678081267
 40
0.223104841
 40
0.2787592716
 40
0.3351661937
 40
0.3926962671
 40
0.4516813206
 40
0.5750140025
 40
0.7069907217
 40
0.848594688
 40
1.0
 40
1.0
 40
1.0
 40
1.0
 10
34.2297180519
 20
58.5188191387
 30
0.0
 10
34.2488864955
 20
58.4614762905
 30
0.0
 10
34.2813911574
 20
58.3456956056
 30
0.0
 10
34.3119370093
 20
58.1689227567
 30
0.0
 10
34.3237289836
 20
57.9913436677
 30
0.0
 10
34.3166433173
 20
57.8136794572
 30
0.0
 10
34.2907659396
 20
57.6366312538
 30
0.0
 10
34.2462038848
 20
57.4608943481
 30
0.0
 10
34.1831200334
 20
57.2871498246
 30
0.0
 10
34.0731556788
 20
57.0556422745
 30
0.0
 10
33.8880764931
 20
56.7737574916
 30
0.0
 10
33.601625454
 20
56.4597144309
 30
0.0
 10
33.2520327128
 20
56.1688719384
 30
0.0
 10
32.9888984191
 20
55.9985355034
 30
0.0
 10
32.8489660214
 20
55.9177459782
 30
0.0
  0
SPLINE
  5
267
100
AcDbEntity
  8
0
100
AcDbSpline
 62
7
  6
BYLAYER
 70
0
 71
3
 72
38
 73
34
 74
0
 42
0.0000001
 43
0.0000001
 44
0.0000000001
 40
0.0
 40
0.0
 40
0.0
 40
0.0
 40
0.0323493152
 40
0.0660591918
 40
0.1009918832
 40
0.1370154039
 40
0.2116427868
 40
0.2884878444
 40
0.3659142827
 40
0.404333584
 40
0.4422732535
 40
0.4795364752
 40
0.515937768
 40
0.5513082026
 40
0.5854976422
 40
0.6183814697
 40
0.6498645136
 40
0.6798866528
 40
0.7084311761
 40
0.7355290815
 40
0.7612688311
 40
0.7858009048
 40
0.8093405456
 40
0.8321660966
 40
0.8546058334
 40
0.8658011113
 40
0.8770350954
 40
0.8997800485
 40
0.9231923274
 40
0.9475586987
 40
0.9601790772
 40
0.9731164942
 40
1.0
 40
1.0
 40
1.0
 40
1.0
 10
33.4323315447
 20
55.0910459055
 30
0.0
 10
33.3050267242
 20
55.0175468718
 30
0.0
 10
33.0389810743
 20
54.8778005975
 30
0.0
 10
32.6181975355
 20
54.6938049401
 30
0.0
 10
32.1704256224
 20
54.5324522244
 30
0.0
 10
31.5350105193
 20
54.347117792
 30
0.0
 10
30.6972387344
 20
54.1814551779
 30
0.0
 10
29.6593186742
 20
54.0901350659
 30
0.0
 10
28.7820754938
 20
54.1040657558
 30
0.0
 10
28.0861170077
 20
54.1701156775
 30
0.0
 10
27.5752026728
 20
54.2463924754
 30
0.0
 10
27.0782585388
 20
54.3489004419
 30
0.0
 10
26.5992947309
 20
54.4768303154
 30
0.0
 10
26.1421831344
 20
54.629117745
 30
0.0
 10
25.7106271245
 20
54.8045789459
 30
0.0
 10
25.3080998836
 20
55.0017846311
 30
0.0
 10
24.937845697
 20
55.2191778243
 30
0.0
 10
24.6028624377
 20
55.4550712888
 30
0.0
 10
24.3058359675
 20
55.7075980332
 30
0.0
 10
24.0492262069
 20
55.9748570887
 30
0.0
 10
23.8351690489
 20
56.2547865197
 30
0.0
 10
23.6655455758
 20
56.5452393967
 30
0.0
 10
23.5420069911
 20
56.8439531141
 30
0.0
 10
23.4657834496
 20
57.1483778942
 30
0.0
 10
23.4424842921
 20
57.4050227699
 30
0.0
 10
23.4480647029
 20
57.6090166873
 30
0.0
 10
23.4696964124
 20
57.8133349846
 30
0.0
 10
23.5273793278
 20
58.0687981987
 30
0.0
 10
23.6438471537
 20
58.3684839175
 30
0.0
 10
23.7779113451
 20
58.608955603
 30
0.0
 10
23.9064895071
 20
58.795998325
 30
0.0
 10
24.053066683
 20
58.984028661
 30
0.0
 10
24.1765729541
 20
59.1169205364
 30
0.0
 10
24.2641081017
 20
59.2021322237
 30
0.0
  0
SPLINE
  5
268
100
AcDbEntity
  8
0
100
AcDbSpline
 62
7
  6
BYLAYER
 70
0
 71
3
 72
32
 73
28
 74
0
 42
0.0000001
 43
0.0000001
 44
0.0000000001
 40
0.0
 40
0.0
 40
0.0
 40
0.0
 40
0.0213030582
 40
0.0429306829
 40
0.0650834874
 40
0.0879370724
 40
0.1116382897
 40
0.1363012381
 40
0.1620089662
 40
0.1888135858
 40
0.2167398379
 40
0.2457872588
 40
0.2759331071
 40
0.3071354898
 40
0.3724353293
 40
0.4410757253
 40
0.5122453886
 40
0.5850149137
 40
0.658384498
 40
0.7313288209
 40
0.802840054
 40
0.8377692525
 40
0.8719936991
 40
0.9054111332
 40
0.9379364453
 40
0.9694940834
 40
1.0
 40
1.0
 40
1.0
 40
1.0
 10
20.7011185023
 20
56.568861702
 30
0.0
 10
20.7084962822
 20
56.4484664673
 30
0.0
 10
20.7387285253
 20
56.2065231187
 30
0.0
 10
20.829215396
 20
55.8484116678
 30
0.0
 10
20.9645200921
 20
55.4953081726
 30
0.0
 10
21.1437169668
 20
55.1491543722
 30
0.0
 10
21.3657920115
 20
54.811755896
 30
0.0
 10
21.6294435416
 20
54.4848118085
 30
0.0
 10
21.9332528327
 20
54.1699903414
 30
0.0
 10
22.2755788537
 20
53.8688646083
 30
0.0
 10
22.6546195887
 20
53.5829591053
 30
0.0
 10
23.0683897691
 20
53.3137348083
 30
0.0
 10
23.5147294079
 20
53.062541063
 30
0.0
 10
24.1599061733
 20
52.7487100595
 30
0.0
 10
25.034251186
 20
52.4118266377
 30
0.0
 10
26.1556721352
 20
52.1035129602
 30
0.0
 10
27.3420988706
 20
51.8913355122
 30
0.0
 10
28.5689251492
 20
51.7796890078
 30
0.0
 10
29.8108274852
 20
51.770868193
 30
0.0
 10
31.0419992698
 20
51.8650584715
 30
0.0
 10
32.0458434497
 20
52.0290497247
 30
0.0
 10
32.8215069185
 20
52.2109533668
 30
0.0
 10
33.3802974093
 20
52.3700754036
 30
0.0
 10
33.9176958073
 20
52.5521294426
 30
0.0
 10
34.4309535123
 20
52.7561714663
 30
0.0
 10
34.9172769229
 20
52.9811558746
 30
0.0
 10
35.2272953408
 20
53.1471675286
 30
0.0
 10
35.3768832888
 20
53.2335316551
 30
0.0
  0
SPLINE
  5
269
100
AcDbEntity
  8
0
100
AcDbSpline
 62
7
  6
BYLAYER
 70
0
 71
3
 72
33
 73
29
 74
0
 42
0.0000001
 43
0.0000001
 44
0.0000000001
 40
0.0
 40
0.0
 40
0.0
 40
0.0
 40
0.0306591528
 40
0.0623937289
 40
0.0951136451
 40
0.1287375058
 40
0.1631784521
 40
0.1983310025
 40
0.27028834
 40
0.3436458842
 40
0.4173578532
 40
0.4903627878
 40
0.5616303766
 40
0.6302094121
 40
0.663239154
 40
0.6953039587
 40
0.726330967
 40
0.756264901
 40
0.7850677787
 40
0.8127243676
 40
0.8392425692
 40
0.8646588309
 40
0.889038894
 40
0.9124819888
 40
0.9351203427
 40
0.9571195868
 40
0.9786739358
 40
1.0
 40
1.0
 40
1.0
 40
1.0
 10
33.7151754347
 20
54.6011486368
 30
0.0
 10
33.6047867868
 20
54.5374161017
 30
0.0
 10
33.3758729228
 20
54.4149862455
 30
0.0
 10
33.0165819031
 20
54.2493368127
 30
0.0
 10
32.6371686897
 20
54.0994036867
 30
0.0
 10
32.2397793251
 20
53.9659718572
 30
0.0
 10
31.8265016341
 20
53.8497724991
 30
0.0
 10
31.2528551179
 20
53.7175771267
 30
0.0
 10
30.5107337065
 20
53.5999173702
 30
0.0
 10
29.6013266075
 20
53.5356261234
 30
0.0
 10
28.6853578244
 20
53.5485127249
 30
0.0
 10
27.7824054526
 20
53.6383064667
 30
0.0
 10
26.9117720207
 20
53.8030849495
 30
0.0
 10
26.219909507
 20
54.0024595868
 30
0.0
 10
25.699290032
 20
54.1975620824
 30
0.0
 10
25.3330659738
 20
54.3580413969
 30
0.0
 10
24.9882187452
 20
54.5336484391
 30
0.0
 10
24.66658115
 20
54.7234262975
 30
0.0
 10
24.3698986116
 20
54.9264003868
 30
0.0
 10
24.0997529838
 20
55.1414783706
 30
0.0
 10
23.8576225048
 20
55.3675619389
 30
0.0
 10
23.6448137522
 20
55.6034563521
 30
0.0
 10
23.4625276263
 20
55.8479563612
 30
0.0
 10
23.3117931253
 20
56.0997758732
 30
0.0
 10
23.1935268948
 20
56.3575904682
 30
0.0
 10
23.1084655828
 20
56.6200101601
 30
0.0
 10
23.0571862279
 20
56.8855094688
 30
0.0
 10
23.0457481305
 20
57.0639900927
 30
0.0
 10
23.045744131
 20
57.1526533526
 30
0.0
  0
SPLINE
  5
26A
100
AcDbEntity
  8
0
100
AcDbSpline
 62
7
  6
BYLAYER
 70
0
 71
3
 72
34
 73
30
 74
0
 42
0.0000001
 43
0.0000001
 44
0.0000000001
 40
0.0
 40
0.0
 40
0.0
 40
0.0
 40
0.0320499858
 40
0.0653845454
 40
0.0998824284
 40
0.1354285498
 40
0.2090605559
 40
0.285007174
 40
0.3618235484
 40
0.4380117242
 40
0.5121113683
 40
0.5479689636
 40
0.5828216847
 40
0.6165405426
 40
0.6490175748
 40
0.6801704873
 40
0.7099483573
 40
0.7383348065
 40
0.7653562338
 40
0.7910855645
 40
0.8156479647
 40
0.8392244224
 40
0.8620490104
 40
0.8844030541
 40
0.9065995785
 40
0.9289628173
 40
0.951804991
 40
0.975406324
 40
1.0
 40
1.0
 40
1.0
 40
1.0
 10
33.9651764307
 20
54.1681366136
 30
0.0
 10
33.8289896696
 20
54.0895096197
 30
0.0
 10
33.5450002701
 20
53.939582103
 30
0.0
 10
33.0967488864
 20
53.7406678749
 30
0.0
 10
32.6206935469
 20
53.5646159325
 30
0.0
 10
31.9458192662
 20
53.3597217936
 30
0.0
 10
31.0555077978
 20
53.1701690019
 30
0.0
 10
29.949231756
 20
53.0516131666
 30
0.0
 10
28.8240601557
 20
53.0426773434
 30
0.0
 10
27.7125589694
 20
53.1436286931
 30
0.0
 10
26.8142541637
 20
53.3188387789
 30
0.0
 10
26.1303535795
 20
53.5127077622
 30
0.0
 10
25.6460838674
 20
53.6810774938
 30
0.0
 10
25.1884523604
 20
53.8727150462
 30
0.0
 10
24.7607767025
 20
54.0862657335
 30
0.0
 10
24.3661716248
 20
54.3202082684
 30
0.0
 10
24.00748649
 20
54.5728567941
 30
0.0
 10
23.6873611496
 20
54.8424747644
 30
0.0
 10
23.4081277826
 20
55.1271538646
 30
0.0
 10
23.1718935912
 20
55.4249415428
 30
0.0
 10
22.9805170732
 20
55.7337780365
 30
0.0
 10
22.8355504052
 20
56.0514597401
 30
0.0
 10
22.7383530635
 20
56.3756718927
 30
0.0
 10
22.6898355689
 20
56.7038778606
 30
0.0
 10
22.6905308427
 20
57.0334163843
 30
0.0
 10
22.7404447064
 20
57.3615423948
 30
0.0
 10
22.8390134586
 20
57.6856114884
 30
0.0
 10
22.9852946792
 20
58.0030436337
 30
0.0
 10
23.1109014383
 20
58.2041922317
 30
0.0
 10
23.1804924761
 20
58.3027738226
 30
0.0
  0
SPLINE
  5
26B
100
AcDbEntity
  8
0
100
AcDbSpline
 62
7
  6
BYLAYER
 70
0
 71
3
 72
16
 73
12
 74
0
 42
0.0000001
 43
0.0000001
 44
0.0000000001
 40
0.0
 40
0.0
 40
0.0
 40
0.0
 40
0.1477787286
 40
0.2882903168
 40
0.4214741475
 40
0.5476680278
 40
0.667482442
 40
0.7818746483
 40
0.8921505117
 40
0.9462792151
 40
1.0
 40
1.0
 40
1.0
 40
1.0
 10
35.3768832888
 20
53.2335316551
 30
0.0
 10
35.5623328017
 20
53.3406003422
 30
0.0
 10
35.9160707316
 20
53.563920113
 30
0.0
 10
36.4021145218
 20
53.9351551792
 30
0.0
 10
36.8263181155
 20
54.3314601644
 30
0.0
 10
37.1848384412
 20
54.7494782261
 30
0.0
 10
37.4743973239
 20
55.185860515
 30
0.0
 10
37.6921073499
 20
55.6368717758
 30
0.0
 10
37.8124178121
 20
56.0243696917
 30
0.0
 10
37.8696905801
 20
56.3354863543
 30
0.0
 10
37.8855926633
 20
56.4911636217
 30
0.0
 10
37.890353431
 20
56.5688618518
 30
0.0
  0
SPLINE
  5
26C
100
AcDbEntity
  8
0
100
AcDbSpline
 62
7
  6
BYLAYER
 70
0
 71
3
 72
39
 73
35
 74
0
 42
0.0000001
 43
0.0000001
 44
0.0000000001
 40
0.0
 40
0.0
 40
0.0
 40
0.0
 40
0.0324630597
 40
0.0663261025
 40
0.1014463978
 40
0.1376815694
 40
0.1748555531
 40
0.2127733016
 40
0.2512279925
 40
0.2900020647
 40
0.3288724862
 40
0.3676144506
 40
0.4060056467
 40
0.4438298501
 40
0.4808809385
 40
0.5169678282
 40
0.5519179591
 40
0.585582958
 40
0.6178446126
 40
0.6486197219
 40
0.677868505
 40
0.705602098
 40
0.7318895835
 40
0.7568671196
 40
0.7807419971
 40
0.803791305
 40
0.8263528628
 40
0.8488035831
 40
0.8715297041
 40
0.8948942021
 40
0.91921122
 40
0.9447293889
 40
0.9716221496
 40
1.0
 40
1.0
 40
1.0
 40
1.0
 10
34.2151774203
 20
53.9042276779
 30
0.0
 10
34.0589420609
 20
53.8140256894
 30
0.0
 10
33.7320303554
 20
53.6428282676
 30
0.0
 10
33.2143446922
 20
53.4185026807
 30
0.0
 10
32.6628470098
 20
53.2229141738
 30
0.0
 10
32.0823851861
 20
53.0577457004
 30
0.0
 10
31.477899995
 20
52.9243685846
 30
0.0
 10
30.8545980944
 20
52.8239539676
 30
0.0
 10
30.2178530016
 20
52.7573713154
 30
0.0
 10
29.5731536315
 20
52.7251704604
 30
0.0
 10
28.9260607358
 20
52.7276443932
 30
0.0
 10
28.2821580164
 20
52.7647797587
 30
0.0
 10
27.6469974195
 20
52.8362330911
 30
0.0
 10
27.0260558596
 20
52.9414060953
 30
0.0
 10
26.4246838082
 20
53.0793980681
 30
0.0
 10
25.848051269
 20
53.2490033943
 30
0.0
 10
25.30111946
 20
53.4487930299
 30
0.0
 10
24.788582724
 20
53.6770655538
 30
0.0
 10
24.3148231636
 20
53.9318729112
 30
0.0
 10
23.8839095613
 20
54.2111073882
 30
0.0
 10
23.4995360466
 20
54.5124494011
 30
0.0
 10
23.1650125783
 20
54.833422526
 30
0.0
 10
22.8833170656
 20
55.1714564054
 30
0.0
 10
22.6570330219
 20
55.5238009966
 30
0.0
 10
22.4883861614
 20
55.8875419141
 30
0.0
 10
22.3792630499
 20
56.2595378991
 30
0.0
 10
22.3309667153
 20
56.6363183275
 30
0.0
 10
22.3441290092
 20
57.0141844776
 30
0.0
 10
22.4186137298
 20
57.3893552184
 30
0.0
 10
22.5534187912
 20
57.7582221514
 30
0.0
 10
22.7469843591
 20
58.1174633478
 30
0.0
 10
22.9973179945
 20
58.4640116924
 30
0.0
 10
23.3019310101
 20
58.7950573002
 30
0.0
 10
23.5331714947
 20
58.9981412578
 30
0.0
 10
23.6563690656
 20
59.0965911527
 30
0.0
  0
SPLINE
  5
26D
100
AcDbEntity
  8
0
100
AcDbSpline
 62
7
  6
BYLAYER
 70
0
 71
3
 72
24
 73
20
 74
0
 42
0.0000001
 43
0.0000001
 44
0.0000000001
 40
0.0
 40
0.0
 40
0.0
 40
0.0
 40
0.0717142351
 40
0.1397746637
 40
0.2043199535
 40
0.2656438755
 40
0.3242042847
 40
0.3806256342
 40
0.4356820267
 40
0.490252062
 40
0.5452542935
 40
0.6015712703
 40
0.6599849014
 40
0.7211311242
 40
0.752894442
 40
0.7855000736
 40
0.8533424801
 40
0.924854599
 40
1.0
 40
1.0
 40
1.0
 40
1.0
 10
34.6472228411
 20
59.3109991105
 30
0.0
 10
34.7801892149
 20
59.2185913188
 30
0.0
 10
35.0318436429
 20
59.0272782254
 30
0.0
 10
35.3709282184
 20
58.7133279115
 30
0.0
 10
35.6589497797
 20
58.3822535376
 30
0.0
 10
35.8933383794
 20
58.0367252245
 30
0.0
 10
36.071871531
 20
57.6794957377
 30
0.0
 10
36.1926642146
 20
57.3135512396
 30
0.0
 10
36.254360324
 20
56.9421690291
 30
0.0
 10
36.2561510229
 20
56.5688580515
 30
0.0
 10
36.1980069159
 20
56.197261285
 30
0.0
 10
36.0807006152
 20
55.8308947737
 30
0.0
 10
35.9055731766
 20
55.4730706713
 30
0.0
 10
35.7153535636
 20
55.1880677787
 30
0.0
 10
35.5375419109
 20
54.9672290468
 30
0.0
 10
35.3372223621
 20
54.74570133
 30
0.0
 10
35.0533815643
 20
54.4796478366
 30
0.0
 10
34.6689148799
 20
54.1840656158
 30
0.0
 10
34.389306413
 20
54.0058079612
 30
0.0
 10
34.2427833026
 20
53.9202557917
 30
0.0
  0
SPLINE
  5
26E
100
AcDbEntity
  8
0
100
AcDbSpline
 62
7
  6
BYLAYER
 70
0
 71
3
 72
22
 73
18
 74
0
 42
0.0000001
 43
0.0000001
 44
0.0000000001
 40
0.0
 40
0.0
 40
0.0
 40
0.0
 40
0.0634384459
 40
0.1243972922
 40
0.1832604799
 40
0.2405017144
 40
0.2966760832
 40
0.3523946835
 40
0.4082941189
 40
0.4650012026
 40
0.5230977507
 40
0.5830959063
 40
0.7102343431
 40
0.778089927
 40
0.8489793436
 40
0.9229740971
 40
1.0
 40
1.0
 40
1.0
 40
1.0
 10
35.2885067606
 20
58.465365684
 30
0.0
 10
35.3571360504
 20
58.3797589661
 30
0.0
 10
35.4838605032
 20
58.2053557532
 30
0.0
 10
35.642404498
 20
57.9301932172
 30
0.0
 10
35.7644627647
 20
57.648549828
 30
0.0
 10
35.8491135881
 20
57.3620572022
 30
0.0
 10
35.8958037965
 20
57.0724498078
 30
0.0
 10
35.9041222133
 20
56.7815212466
 30
0.0
 10
35.8740413
 20
56.491113994
 30
0.0
 10
35.8057753048
 20
56.203061009
 30
0.0
 10
35.6998293108
 20
55.9190949503
 30
0.0
 10
35.5057227718
 20
55.5410744813
 30
0.0
 10
35.2397672036
 20
55.1847733046
 30
0.0
 10
34.9172096742
 20
54.8565656721
 30
0.0
 10
34.637743719
 20
54.6165149967
 30
0.0
 10
34.3278103715
 20
54.3895905352
 30
0.0
 10
34.1064249287
 20
54.2505231732
 30
0.0
 10
33.991379552
 20
54.1833502778
 30
0.0
  0
SPLINE
  5
26F
100
AcDbEntity
  8
0
100
AcDbSpline
 62
7
  6
BYLAYER
 70
0
 71
3
 72
17
 73
13
 74
0
 42
0.0000001
 43
0.0000001
 44
0.0000000001
 40
0.0
 40
0.0
 40
0.0
 40
0.0
 40
0.0539150287
 40
0.1080887733
 40
0.1627728946
 40
0.2182075996
 40
0.3321237571
 40
0.4514617022
 40
0.5773549169
 40
0.7105451098
 40
0.8514478287
 40
1.0
 40
1.0
 40
1.0
 40
1.0
 10
35.5457351741
 20
57.1526533525
 30
0.0
 10
35.5457378388
 20
57.0935820706
 30
0.0
 10
35.5406929043
 20
56.9750938568
 30
0.0
 10
35.5179981349
 20
56.7980030999
 30
0.0
 10
35.4802662859
 20
56.6217785038
 30
0.0
 10
35.4094216057
 20
56.3865228597
 30
0.0
 10
35.2820823879
 20
56.0955075774
 30
0.0
 10
35.0729392433
 20
55.7607594827
 30
0.0
 10
34.8084119531
 20
55.440101829
 30
0.0
 10
34.4911738585
 20
55.1364496601
 30
0.0
 10
34.1244026463
 20
54.8525756498
 30
0.0
 10
33.8561292511
 20
54.6825278749
 30
0.0
 10
33.7151754347
 20
54.6011486368
 30
0.0
  0
SPLINE
  5
270
100
AcDbEntity
  8
0
100
AcDbSpline
 62
7
  6
BYLAYER
 70
0
 71
3
 72
33
 73
29
 74
0
 42
0.0000001
 43
0.0000001
 44
0.0000000001
 40
0.0
 40
0.0
 40
0.0
 40
0.0
 40
0.0231840928
 40
0.0457022414
 40
0.0678181751
 40
0.0898203898
 40
0.1120052994
 40
0.1346576707
 40
0.1580325159
 40
0.1823441563
 40
0.2077589246
 40
0.2343948253
 40
0.2623242093
 40
0.291576294
 40
0.3221444976
 40
0.3539878323
 40
0.3870391935
 40
0.4212059467
 40
0.492396085
 40
0.566509
 40
0.6422884518
 40
0.71838444
 40
0.7934288679
 40
0.8661140255
 40
0.9012085841
 40
0.9352928911
 40
0.9682614795
 40
1.0
 40
1.0
 40
1.0
 40
1.0
 10
24.2480541506
 20
58.802472921
 30
0.0
 10
24.2091588096
 20
58.7239368437
 30
0.0
 10
24.1418127058
 20
58.564234764
 30
0.0
 10
24.0742480848
 20
58.3161389201
 30
0.0
 10
24.042390093
 20
58.065404533
 30
0.0
 10
24.046645901
 20
57.813945489
 30
0.0
 10
24.0868960174
 20
57.5636592206
 30
0.0
 10
24.1628189356
 20
57.3164158328
 30
0.0
 10
24.2736993268
 20
57.0739649282
 30
0.0
 10
24.4186498062
 20
56.837959486
 30
0.0
 10
24.5965615827
 20
56.6099463337
 30
0.0
 10
24.8061438695
 20
56.3913800188
 30
0.0
 10
25.0459629594
 20
56.1836839503
 30
0.0
 10
25.3143618442
 20
55.9881588333
 30
0.0
 10
25.6095622175
 20
55.8061159515
 30
0.0
 10
25.929556007
 20
55.6387029391
 30
0.0
 10
26.2722260372
 20
55.4870595345
 30
0.0
 10
26.7629260172
 20
55.3047425714
 30
0.0
 10
27.4183782655
 20
55.1240182113
 30
0.0
 10
28.2439303688
 20
54.9857254614
 30
0.0
 10
29.0974749946
 20
54.9267019475
 30
0.0
 10
29.9562834553
 20
54.948530725
 30
0.0
 10
30.7974939453
 20
55.050612044
 30
0.0
 10
31.4732185939
 20
55.2020861001
 30
0.0
 10
31.9853151795
 20
55.3620962097
 30
0.0
 10
32.3468718924
 20
55.4983351561
 30
0.0
 10
32.687821433
 20
55.6512753332
 30
0.0
 10
32.9041622437
 20
55.7659034726
 30
0.0
 10
33.0080657096
 20
55.8258918085
 30
0.0
  0
SPLINE
  5
271
100
AcDbEntity
  8
0
100
AcDbSpline
 62
7
  6
BYLAYER
 70
0
 71
3
 72
20
 73
16
 74
0
 42
0.0000001
 43
0.0000001
 44
0.0000000001
 40
0.0
 40
0.0
 40
0.0
 40
0.0
 40
0.1518124528
 40
0.2929233754
 40
0.4236922106
 40
0.4856379547
 40
0.5455679072
 40
0.6038033708
 40
0.6607214729
 40
0.7167510096
 40
0.7723545534
 40
0.8280146601
 40
0.8842106821
 40
0.9414004684
 40
1.0
 40
1.0
 40
1.0
 40
1.0
 10
33.0080657096
 20
55.8258918085
 30
0.0
 10
33.1660301187
 20
55.9170920582
 30
0.0
 10
33.4615642127
 20
56.1100996979
 30
0.0
 10
33.8490482829
 20
56.4426261884
 30
0.0
 10
34.1115351712
 20
56.7486116407
 30
0.0
 10
34.2764646646
 20
57.0039110172
 30
0.0
 10
34.376193165
 20
57.1963653185
 30
0.0
 10
34.4537118472
 20
57.3923320351
 30
0.0
 10
34.5085753501
 20
57.5909807813
 30
0.0
 10
34.540554906
 20
57.7913882971
 30
0.0
 10
34.5494196085
 20
57.9926366076
 30
0.0
 10
34.5351532933
 20
58.1937706562
 30
0.0
 10
34.4978259311
 20
58.39385752
 30
0.0
 10
34.437633729
 20
58.591940097
 30
0.0
 10
34.3832497457
 20
58.7203035131
 30
0.0
 10
34.3526143221
 20
58.7836958691
 30
0.0
  0
SPLINE
  5
272
100
AcDbEntity
  8
0
100
AcDbSpline
 62
7
  6
BYLAYER
 70
0
 71
3
 72
33
 73
29
 74
0
 42
0.0000001
 43
0.0000001
 44
0.0000000001
 40
0.0
 40
0.0
 40
0.0
 40
0.0
 40
0.0213261028
 40
0.042880465
 40
0.0648796998
 40
0.0875180168
 40
0.1109610564
 40
0.1353410586
 40
0.1607572581
 40
0.1872754068
 40
0.2149319409
 40
0.2437347708
 40
0.2736686457
 40
0.3046955974
 40
0.3367603302
 40
0.3697900023
 40
0.438368872
 40
0.5096362878
 40
0.5826410656
 40
0.6563529465
 40
0.7297104849
 40
0.8016676652
 40
0.8368203507
 40
0.8712614983
 40
0.9048856328
 40
0.9376059078
 40
0.9693407569
 40
1.0
 40
1.0
 40
1.0
 40
1.0
 10
23.0457464613
 20
57.479254327
 30
0.0
 10
23.0457505703
 20
57.3905909399
 30
0.0
 10
23.0571890397
 20
57.2121101959
 30
0.0
 10
23.1084685303
 20
56.9466108365
 30
0.0
 10
23.1935302596
 20
56.6841915325
 30
0.0
 10
23.3117963022
 20
56.4263774472
 30
0.0
 10
23.4625305924
 20
56.1745586716
 30
0.0
 10
23.6448162823
 20
55.9300594204
 30
0.0
 10
23.857624336
 20
55.6941655213
 30
0.0
 10
24.0997542522
 20
55.4680825738
 30
0.0
 10
24.3698990265
 20
55.2530047663
 30
0.0
 10
24.6665809101
 20
55.0500311517
 30
0.0
 10
24.9882175242
 20
54.8602532488
 30
0.0
 10
25.3330639198
 20
54.6846466085
 30
0.0
 10
25.6992868233
 20
54.5241670971
 30
0.0
 10
26.2199048412
 20
54.3290649367
 30
0.0
 10
26.9117651827
 20
54.1296899568
 30
0.0
 10
27.7823960801
 20
53.9649109428
 30
0.0
 10
28.685346248
 20
53.8751161169
 30
0.0
 10
29.6013136186
 20
53.8622282589
 30
0.0
 10
30.5107194528
 20
53.9265177446
 30
0.0
 10
31.2528406451
 20
54.0441763175
 30
0.0
 10
31.8264879268
 20
54.1763706717
 30
0.0
 10
32.2397682021
 20
54.292569632
 30
0.0
 10
32.6371608878
 20
54.4260019916
 30
0.0
 10
33.0165776142
 20
54.5759360763
 30
0.0
 10
33.3758712577
 20
54.7415866308
 30
0.0
 10
33.6047865032
 20
54.8640169048
 30
0.0
 10
33.7151754347
 20
54.9277496037
 30
0.0
  0
SPLINE
  5
273
100
AcDbEntity
  8
0
100
AcDbSpline
 62
7
  6
BYLAYER
 70
0
 71
3
 72
25
 73
21
 74
0
 42
0.0000001
 43
0.0000001
 44
0.0000000001
 40
0.0
 40
0.0
 40
0.0
 40
0.0
 40
0.0605531636
 40
0.1246964326
 40
0.1918582576
 40
0.2613561229
 40
0.3323998547
 40
0.4041453583
 40
0.4757178872
 40
0.5462513899
 40
0.6149185262
 40
0.6809652858
 40
0.7437481904
 40
0.8027765631
 40
0.8577623659
 40
0.9086791501
 40
0.9327135796
 40
0.9558758398
 40
0.9782631647
 40
1.0
 40
1.0
 40
1.0
 40
1.0
 10
25.7425132837
 20
60.0205655612
 30
0.0
 10
25.9080047401
 20
60.1161115277
 30
0.0
 10
26.2608568874
 20
60.2924506097
 30
0.0
 10
26.8281577199
 20
60.5065146701
 30
0.0
 10
27.4400122772
 20
60.674674803
 30
0.0
 10
28.085296776
 20
60.7939350596
 30
0.0
 10
28.7524579902
 20
60.8621384858
 30
0.0
 10
29.4294336642
 20
60.8780730476
 30
0.0
 10
30.1039982923
 20
60.8414380999
 30
0.0
 10
30.7639596285
 20
60.7528970848
 30
0.0
 10
31.3974146938
 20
60.6140447035
 30
0.0
 10
31.9929741017
 20
60.4273627163
 30
0.0
 10
32.539966064
 20
60.1961595966
 30
0.0
 10
33.0286702875
 20
59.924413759
 30
0.0
 10
33.4503025754
 20
59.6168041224
 30
0.0
 10
33.7451205163
 20
59.3291413896
 30
0.0
 10
33.9375325172
 20
59.0861075595
 30
0.0
 10
34.0579159395
 20
58.9020540893
 30
0.0
 10
34.156465271
 20
58.7135865038
 30
0.0
 10
34.2079705478
 20
58.5838773071
 30
0.0
 10
34.2297180519
 20
58.5188191387
 30
0.0
  0
SPLINE
  5
274
100
AcDbEntity
  8
0
100
AcDbSpline
 62
7
  6
BYLAYER
 70
0
 71
3
 72
23
 73
19
 74
0
 42
0.0000001
 43
0.0000001
 44
0.0000000001
 40
0.0
 40
0.0
 40
0.0
 40
0.0
 40
0.0664031138
 40
0.1297908217
 40
0.1904837584
 40
0.2489216047
 40
0.3056629837
 40
0.3613623492
 40
0.4167412653
 40
0.4725418347
 40
0.5294774268
 40
0.588192848
 40
0.6492311806
 40
0.7130152963
 40
0.779843472
 40
0.8499147951
 40
0.9233263211
 40
1.0
 40
1.0
 40
1.0
 40
1.0
 10
34.34923973
 20
59.1806558304
 30
0.0
 10
34.4279609874
 20
59.102714043
 30
0.0
 10
34.5749590955
 20
58.9431713133
 30
0.0
 10
34.7653242383
 20
58.6879730157
 30
0.0
 10
34.9189639735
 20
58.4242543996
 30
0.0
 10
35.0346331087
 20
58.1537443627
 30
0.0
 10
35.1114413412
 20
57.8783007694
 30
0.0
 10
35.148627376
 20
57.5998716907
 30
0.0
 10
35.1459188674
 20
57.3205357055
 30
0.0
 10
35.1032635303
 20
57.0423979959
 30
0.0
 10
35.0211332201
 20
56.7675079351
 30
0.0
 10
34.9002030317
 20
56.4978235377
 30
0.0
 10
34.7414826195
 20
56.2351644414
 30
0.0
 10
34.5461833207
 20
55.9812470638
 30
0.0
 10
34.3157005275
 20
55.7376906786
 30
0.0
 10
34.0515931424
 20
55.5060158386
 30
0.0
 10
33.7556861913
 20
55.2878026871
 30
0.0
 10
33.5431076461
 20
55.1550021357
 30
0.0
 10
33.4323315447
 20
55.0910459055
 30
0.0
  0
SPLINE
  5
275
100
AcDbEntity
  8
0
100
AcDbSpline
 62
7
  6
BYLAYER
 70
0
 71
3
 72
17
 73
13
 74
0
 42
0.0000001
 43
0.0000001
 44
0.0000000001
 40
0.0
 40
0.0
 40
0.0
 40
0.0
 40
0.1485523134
 40
0.2894554625
 40
0.4226458602
 40
0.5485390312
 40
0.6678765726
 40
0.7817920893
 40
0.8372267159
 40
0.8919109301
 40
0.9460848343
 40
1.0
 40
1.0
 40
1.0
 40
1.0
 10
33.7151754347
 20
54.9277496037
 30
0.0
 10
33.8561293384
 20
55.0091288921
 30
0.0
 10
34.1244030708
 20
55.1791771108
 30
0.0
 10
34.4911748049
 20
55.4630515735
 30
0.0
 10
34.8084130402
 20
55.7667043748
 30
0.0
 10
35.0729392566
 20
56.0873623569
 30
0.0
 10
35.2820818238
 20
56.4221092278
 30
0.0
 10
35.4094200717
 20
56.7131235029
 30
0.0
 10
35.4802641025
 20
56.9483785325
 30
0.0
 10
35.5179958666
 20
57.1246032746
 30
0.0
 10
35.5406906845
 20
57.3016943943
 30
0.0
 10
35.5457355814
 20
57.4201828997
 30
0.0
 10
35.5457328438
 20
57.4792543118
 30
0.0
  0
SPLINE
  5
276
100
AcDbEntity
  8
0
100
AcDbSpline
 62
7
  6
BYLAYER
 70
0
 71
3
 72
14
 73
10
 74
0
 42
0.0000001
 43
0.0000001
 44
0.0000000001
 40
0.0
 40
0.0
 40
0.0
 40
0.0
 40
0.1086578216
 40
0.2209585045
 40
0.3376261978
 40
0.4592016121
 40
0.7183083249
 40
0.8564111891
 40
1.0
 40
1.0
 40
1.0
 40
1.0
 10
24.3617585895
 20
58.5188194168
 30
0.0
 10
24.3856798208
 20
58.5903832221
 30
0.0
 10
24.4432518706
 20
58.7330646522
 30
0.0
 10
24.5552507632
 20
58.9395440463
 30
0.0
 10
24.6934518326
 20
59.1404688195
 30
0.0
 10
24.9161497601
 20
59.4050299514
 30
0.0
 10
25.1849439041
 20
59.6478450352
 30
0.0
 10
25.4897594589
 20
59.8674880662
 30
0.0
 10
25.6561588787
 20
59.9707091198
 30
0.0
 10
25.7425132837
 20
60.0205655612
 30
0.0
  0
SPLINE
  5
277
100
AcDbEntity
  8
0
100
AcDbSpline
 62
7
  6
BYLAYER
 70
0
 71
3
 72
15
 73
11
 74
0
 42
0.0000001
 43
0.0000001
 44
0.0000000001
 40
0.0
 40
0.0
 40
0.0
 40
0.0
 40
0.1486025682
 40
0.2895002298
 40
0.4227203132
 40
0.5486432716
 40
0.6679991308
 40
0.7819389812
 40
0.8919869925
 40
1.0
 40
1.0
 40
1.0
 40
1.0
 10
10.0977636025
 20
40.843019909
 30
0.0
 10
10.1428773515
 20
40.8169727248
 30
0.0
 10
10.2329292203
 20
40.769837404
 30
0.0
 10
10.3702840288
 20
40.7136039855
 30
0.0
 10
10.5051967188
 20
40.6742893932
 30
0.0
 10
10.6363857118
 20
40.6522586739
 30
0.0
 10
10.7626363628
 20
40.6478862171
 30
0.0
 10
10.8827288438
 20
40.6612578827
 30
0.0
 10
10.9953757425
 20
40.6924302806
 30
0.0
 10
11.0650035615
 20
40.7250186563
 30
0.0
 10
11.0977953401
 20
40.7439504425
 30
0.0
  0
SPLINE
  5
278
100
AcDbEntity
  8
0
100
AcDbSpline
 62
7
  6
BYLAYER
 70
0
 71
3
 72
14
 73
10
 74
0
 42
0.0000001
 43
0.0000001
 44
0.0000000001
 40
0.0
 40
0.0
 40
0.0
 40
0.0
 40
0.1080610879
 40
0.2181596691
 40
0.332155279
 40
0.4515599132
 40
0.7103708631
 40
0.8514080973
 40
1.0
 40
1.0
 40
1.0
 40
1.0
 10
9.0978042939
 20
44.2080572269
 30
0.0
 10
9.0650130709
 20
44.1891257615
 30
0.0
 10
9.0019759025
 20
44.1451221012
 30
0.0
 10
8.9186578358
 20
44.0631541702
 30
0.0
 10
8.8470303831
 20
43.9658278071
 30
0.0
 10
8.7657851522
 20
43.8131317365
 30
0.0
 10
8.7136579413
 20
43.636680301
 30
0.0
 10
8.6878034884
 20
43.4461355599
 30
0.0
 10
8.6835803667
 20
43.344550791
 30
0.0
 10
8.6835803667
 20
43.2924853438
 30
0.0
  0
SPLINE
  5
279
100
AcDbEntity
  8
0
100
AcDbSpline
 62
7
  6
BYLAYER
 70
0
 71
3
 72
15
 73
11
 74
0
 42
0.0000001
 43
0.0000001
 44
0.0000000001
 40
0.0
 40
0.0
 40
0.0
 40
0.0
 40
0.1141515087
 40
0.2373301591
 40
0.3669778071
 40
0.5000005759
 40
0.6330236626
 40
0.7626743904
 40
0.8858459846
 40
1.0
 40
1.0
 40
1.0
 40
1.0
 10
8.6835827219
 20
42.9658913804
 30
0.0
 10
8.6835827219
 20
42.8764624096
 30
0.0
 10
8.6999661715
 20
42.6903592403
 30
0.0
 10
8.7652601392
 20
42.409602243
 30
0.0
 10
8.869876703
 20
42.1252198592
 30
0.0
 10
9.009877765
 20
41.8479042615
 30
0.0
 10
9.1800386282
 20
41.5879979848
 30
0.0
 10
9.3740148616
 20
41.3552120279
 30
0.0
 10
9.5845041178
 20
41.1582822295
 30
0.0
 10
9.7374804706
 20
41.0510452982
 30
0.0
 10
9.8149293086
 20
41.0063287516
 30
0.0
  0
SPLINE
  5
27A
100
AcDbEntity
  8
0
100
AcDbSpline
 62
7
  6
BYLAYER
 70
0
 71
3
 72
25
 73
21
 74
0
 42
0.0000001
 43
0.0000001
 44
0.0000000001
 40
0.0
 40
0.0
 40
0.0
 40
0.0
 40
0.0623733757
 40
0.1287280346
 40
0.1983135594
 40
0.2702912948
 40
0.3436687514
 40
0.4173996816
 40
0.4904238624
 40
0.5617106244
 40
0.6303076443
 40
0.6953947824
 40
0.7563427378
 40
0.8127809614
 40
0.8646816231
 40
0.9124565119
 40
0.9351018586
 40
0.9571071324
 40
0.9786678002
 40
1.0
 40
1.0
 40
1.0
 40
1.0
 10
11.5120192673
 20
41.6595223257
 30
0.0
 10
11.5120192673
 20
41.7424814965
 30
0.0
 10
11.5007648117
 20
41.9138080062
 30
0.0
 10
11.4545319825
 20
42.1739364005
 30
0.0
 10
11.379312947
 20
42.4404910112
 30
0.0
 10
11.2767882211
 20
42.7077525308
 30
0.0
 10
11.1490889963
 20
42.9700702249
 30
0.0
 10
10.9989613007
 20
43.2218428086
 30
0.0
 10
10.8296099292
 20
43.4577059142
 30
0.0
 10
10.6446369396
 20
43.6726306135
 30
0.0
 10
10.4479615272
 20
43.8620403419
 30
0.0
 10
10.243727834
 20
44.021926066
 30
0.0
 10
10.0361845228
 20
44.1489062789
 30
0.0
 10
9.8295219693
 20
44.2402390571
 30
0.0
 10
9.6279266748
 20
44.2938182241
 30
0.0
 10
9.464423676
 20
44.3058103439
 30
0.0
 10
9.3417927231
 20
44.2943160317
 30
0.0
 10
9.2554535581
 20
44.2758958244
 30
0.0
 10
9.173674924
 20
44.2476196096
 30
0.0
 10
9.1223759606
 20
44.2222432687
 30
0.0
 10
9.0978042939
 20
44.2080572269
 30
0.0
  0
SPLINE
  5
27B
100
AcDbEntity
  8
0
100
AcDbSpline
 62
7
  6
BYLAYER
 70
0
 71
3
 72
27
 73
23
 74
0
 42
0.0000001
 43
0.0000001
 44
0.0000000001
 40
0.0
 40
0.0
 40
0.0
 40
0.0
 40
0.0660126528
 40
0.1369399478
 40
0.2115540965
 40
0.2883979008
 40
0.3658370048
 40
0.4422091809
 40
0.5159155427
 40
0.5855452021
 40
0.6500037508
 40
0.7086695419
 40
0.7615868221
 40
0.7861914351
 40
0.8097901234
 40
0.832657395
 40
0.8551158317
 40
0.8775213426
 40
0.9002333962
 40
0.9235891638
 40
0.9478734838
 40
1.0
 40
1.0
 40
1.0
 40
1.0
 10
10.9463338424
 20
41.659520966
 30
0.0
 10
10.9463338424
 20
41.7413294115
 30
0.0
 10
10.9326285035
 20
41.9111809017
 30
0.0
 10
10.8774598688
 20
42.1681007159
 30
0.0
 10
10.7885821987
 20
42.4295901164
 30
0.0
 10
10.6688715443
 20
42.6873297875
 30
0.0
 10
10.5220728198
 20
42.9331967264
 30
0.0
 10
10.3528602383
 20
43.1593964928
 30
0.0
 10
10.1665638533
 20
43.3587740141
 30
0.0
 10
9.9690272194
 20
43.5250534615
 30
0.0
 10
9.7662628172
 20
43.6530174804
 30
0.0
 10
9.564399166
 20
43.7385900881
 30
0.0
 10
9.3974950727
 20
43.7726995886
 30
0.0
 10
9.2718605475
 20
43.7743275131
 30
0.0
 10
9.1841514339
 20
43.7635252703
 30
0.0
 10
9.1014818219
 20
43.7407979605
 30
0.0
 10
9.0245972093
 20
43.7062742001
 30
0.0
 10
8.9542275645
 20
43.6602406488
 30
0.0
 10
8.8909923752
 20
43.603163854
 30
0.0
 10
8.835470394
 20
43.5355383641
 30
0.0
 10
8.7707441973
 20
43.4298421721
 30
0.0
 10
8.7374465953
 20
43.3399833064
 30
0.0
 10
8.7210045942
 20
43.2775111881
 30
0.0
  0
SPLINE
  5
27C
100
AcDbEntity
  8
0
100
AcDbSpline
 62
7
  6
BYLAYER
 70
0
 71
3
 72
9
 73
5
 74
0
 42
0.0000001
 43
0.0000001
 44
0.0000000001
 40
0.0
 40
0.0
 40
0.0
 40
0.0
 40
0.4824304407
 40
1.0
 40
1.0
 40
1.0
 40
1.0
 10
8.7210045942
 20
43.2775111881
 30
0.0
 10
8.7081321374
 20
43.2286017127
 30
0.0
 10
8.6892352029
 20
43.1250927104
 30
0.0
 10
8.6835827219
 20
43.0201502134
 30
0.0
 10
8.6835827219
 20
42.9658913804
 30
0.0
  0
SPLINE
  5
27D
100
AcDbEntity
  8
0
100
AcDbSpline
 62
7
  6
BYLAYER
 70
0
 71
3
 72
14
 73
10
 74
0
 42
0.0000001
 43
0.0000001
 44
0.0000000001
 40
0.0
 40
0.0
 40
0.0
 40
0.0
 40
0.1080610879
 40
0.2181596691
 40
0.332155279
 40
0.4515599132
 40
0.7103708631
 40
0.8514080973
 40
1.0
 40
1.0
 40
1.0
 40
1.0
 10
11.0977953401
 20
40.7439504425
 30
0.0
 10
11.1305865631
 20
40.762881908
 30
0.0
 10
11.1936237315
 20
40.8068855683
 30
0.0
 10
11.2769417982
 20
40.8888534993
 30
0.0
 10
11.3485692509
 20
40.9861798624
 30
0.0
 10
11.4298144818
 20
41.138875933
 30
0.0
 10
11.4819416927
 20
41.3153273685
 30
0.0
 10
11.5077961456
 20
41.5058721096
 30
0.0
 10
11.5120192673
 20
41.6074568785
 30
0.0
 10
11.5120192673
 20
41.6595223257
 30
0.0
  0
SPLINE
  5
27E
100
AcDbEntity
  8
0
100
AcDbSpline
 62
7
  6
BYLAYER
 70
0
 71
3
 72
9
 73
5
 74
0
 42
0.0000001
 43
0.0000001
 44
0.0000000001
 40
0.0
 40
0.0
 40
0.0
 40
0.0
 40
0.264352799
 40
1.0
 40
1.0
 40
1.0
 40
1.0
 10
9.8149293086
 20
41.0063287516
 30
0.0
 10
9.840024775
 20
40.991839411
 30
0.0
 10
9.936469128
 20
40.9397833369
 30
0.0
 10
10.0395148105
 20
40.8992452278
 30
0.0
 10
10.1176203493
 20
40.8791844977
 30
0.0
  0
SPLINE
  5
27F
100
AcDbEntity
  8
0
100
AcDbSpline
 62
7
  6
BYLAYER
 70
0
 71
3
 72
19
 73
15
 74
0
 42
0.0000001
 43
0.0000001
 44
0.0000000001
 40
0.0
 40
0.0
 40
0.0
 40
0.0
 40
0.1288908106
 40
0.1893352687
 40
0.2476088899
 40
0.3042768334
 40
0.3599882974
 40
0.4154564381
 40
0.4714093401
 40
0.5285470446
 40
0.5874904681
 40
0.7125676935
 40
0.8497672198
 40
1.0
 40
1.0
 40
1.0
 40
1.0
 10
10.1176203493
 20
40.8791844977
 30
0.0
 10
10.173920938
 20
40.8647241798
 30
0.0
 10
10.2590251199
 20
40.850888361
 30
0.0
 10
10.37089905
 20
40.8522791315
 30
0.0
 10
10.4494870315
 20
40.8630370366
 30
0.0
 10
10.5239316754
 20
40.8834548638
 30
0.0
 10
10.5937105936
 20
40.9134341273
 30
0.0
 10
10.6582864882
 20
40.9527934827
 30
0.0
 10
10.7172181345
 20
41.0011965095
 30
0.0
 10
10.7700530524
 20
41.0583297261
 30
0.0
 10
10.8331708539
 20
41.1472180256
 30
0.0
 10
10.8946058908
 20
41.2798855246
 30
0.0
 10
10.9376347164
 20
41.4618439504
 30
0.0
 10
10.9463338424
 20
41.5917681016
 30
0.0
 10
10.9463338424
 20
41.659520966
 30
0.0
  0
SPLINE
  5
280
100
AcDbEntity
  8
0
100
AcDbSpline
 62
7
  6
BYLAYER
 70
0
 71
3
 72
15
 73
11
 74
0
 42
0.0000001
 43
0.0000001
 44
0.0000000001
 40
0.0
 40
0.0
 40
0.0
 40
0.0
 40
0.1486025682
 40
0.2895002298
 40
0.4227203132
 40
0.5486432716
 40
0.6679991308
 40
0.7819389812
 40
0.8919869925
 40
1.0
 40
1.0
 40
1.0
 40
1.0
 10
27.0683970061
 20
11.4491837894
 30
0.0
 10
27.113510755
 20
11.4231366052
 30
0.0
 10
27.2035626239
 20
11.3760012844
 30
0.0
 10
27.3409174323
 20
11.3197678659
 30
0.0
 10
27.4758301224
 20
11.2804532736
 30
0.0
 10
27.6070191153
 20
11.2584225543
 30
0.0
 10
27.7332697663
 20
11.2540500975
 30
0.0
 10
27.8533622474
 20
11.2674217631
 30
0.0
 10
27.966009146
 20
11.298594161
 30
0.0
 10
28.035636965
 20
11.3311825367
 30
0.0
 10
28.0684287436
 20
11.3501143229
 30
0.0
  0
SPLINE
  5
281
100
AcDbEntity
  8
0
100
AcDbSpline
 62
7
  6
BYLAYER
 70
0
 71
3
 72
14
 73
10
 74
0
 42
0.0000001
 43
0.0000001
 44
0.0000000001
 40
0.0
 40
0.0
 40
0.0
 40
0.0
 40
0.1080610879
 40
0.2181596691
 40
0.332155279
 40
0.4515599132
 40
0.7103708631
 40
0.8514080973
 40
1.0
 40
1.0
 40
1.0
 40
1.0
 10
26.0684376975
 20
14.8142211073
 30
0.0
 10
26.0356464745
 20
14.7952896419
 30
0.0
 10
25.972609306
 20
14.7512859816
 30
0.0
 10
25.8892912393
 20
14.6693180506
 30
0.0
 10
25.8176637867
 20
14.5719916875
 30
0.0
 10
25.7364185558
 20
14.4192956169
 30
0.0
 10
25.6842913449
 20
14.2428441814
 30
0.0
 10
25.658436892
 20
14.0522994403
 30
0.0
 10
25.6542137702
 20
13.9507146714
 30
0.0
 10
25.6542137702
 20
13.8986492242
 30
0.0
  0
SPLINE
  5
282
100
AcDbEntity
  8
0
100
AcDbSpline
 62
7
  6
BYLAYER
 70
0
 71
3
 72
15
 73
11
 74
0
 42
0.0000001
 43
0.0000001
 44
0.0000000001
 40
0.0
 40
0.0
 40
0.0
 40
0.0
 40
0.1141515087
 40
0.2373301591
 40
0.3669778071
 40
0.5000005759
 40
0.6330236626
 40
0.7626743904
 40
0.8858459846
 40
1.0
 40
1.0
 40
1.0
 40
1.0
 10
25.6542161254
 20
13.5720552608
 30
0.0
 10
25.6542161254
 20
13.48262629
 30
0.0
 10
25.670599575
 20
13.2965231207
 30
0.0
 10
25.7358935427
 20
13.0157661234
 30
0.0
 10
25.8405101065
 20
12.7313837396
 30
0.0
 10
25.9805111686
 20
12.4540681419
 30
0.0
 10
26.1506720317
 20
12.1941618652
 30
0.0
 10
26.3446482651
 20
11.9613759083
 30
0.0
 10
26.5551375213
 20
11.7644461099
 30
0.0
 10
26.7081138741
 20
11.6572091786
 30
0.0
 10
26.7855627121
 20
11.612492632
 30
0.0
  0
SPLINE
  5
283
100
AcDbEntity
  8
0
100
AcDbSpline
 62
7
  6
BYLAYER
 70
0
 71
3
 72
25
 73
21
 74
0
 42
0.0000001
 43
0.0000001
 44
0.0000000001
 40
0.0
 40
0.0
 40
0.0
 40
0.0
 40
0.0623733757
 40
0.1287280346
 40
0.1983135594
 40
0.2702912948
 40
0.3436687514
 40
0.4173996816
 40
0.4904238624
 40
0.5617106244
 40
0.6303076443
 40
0.6953947824
 40
0.7563427378
 40
0.8127809614
 40
0.8646816231
 40
0.9124565119
 40
0.9351018586
 40
0.9571071324
 40
0.9786678002
 40
1.0
 40
1.0
 40
1.0
 40
1.0
 10
28.4826526708
 20
12.2656862061
 30
0.0
 10
28.4826526708
 20
12.3486453769
 30
0.0
 10
28.4713982153
 20
12.5199718866
 30
0.0
 10
28.425165386
 20
12.7801002809
 30
0.0
 10
28.3499463505
 20
13.0466548916
 30
0.0
 10
28.2474216246
 20
13.3139164112
 30
0.0
 10
28.1197223998
 20
13.5762341053
 30
0.0
 10
27.9695947042
 20
13.828006689
 30
0.0
 10
27.8002433327
 20
14.0638697946
 30
0.0
 10
27.6152703432
 20
14.2787944939
 30
0.0
 10
27.4185949308
 20
14.4682042223
 30
0.0
 10
27.2143612375
 20
14.6280899464
 30
0.0
 10
27.0068179263
 20
14.7550701593
 30
0.0
 10
26.8001553729
 20
14.8464029375
 30
0.0
 10
26.5985600783
 20
14.8999821045
 30
0.0
 10
26.4350570795
 20
14.9119742243
 30
0.0
 10
26.3124261266
 20
14.9004799121
 30
0.0
 10
26.2260869616
 20
14.8820597048
 30
0.0
 10
26.1443083275
 20
14.85378349
 30
0.0
 10
26.0930093642
 20
14.8284071491
 30
0.0
 10
26.0684376975
 20
14.8142211073
 30
0.0
  0
SPLINE
  5
284
100
AcDbEntity
  8
0
100
AcDbSpline
 62
7
  6
BYLAYER
 70
0
 71
3
 72
27
 73
23
 74
0
 42
0.0000001
 43
0.0000001
 44
0.0000000001
 40
0.0
 40
0.0
 40
0.0
 40
0.0
 40
0.0660126528
 40
0.1369399478
 40
0.2115540965
 40
0.2883979008
 40
0.3658370048
 40
0.4422091809
 40
0.5159155427
 40
0.5855452021
 40
0.6500037508
 40
0.7086695419
 40
0.7615868221
 40
0.7861914351
 40
0.8097901234
 40
0.832657395
 40
0.8551158317
 40
0.8775213426
 40
0.9002333962
 40
0.9235891638
 40
0.9478734838
 40
1.0
 40
1.0
 40
1.0
 40
1.0
 10
27.9169672459
 20
12.2656848464
 30
0.0
 10
27.9169672459
 20
12.3474932919
 30
0.0
 10
27.9032619071
 20
12.5173447821
 30
0.0
 10
27.8480932723
 20
12.7742645963
 30
0.0
 10
27.7592156022
 20
13.0357539968
 30
0.0
 10
27.6395049479
 20
13.2934936679
 30
0.0
 10
27.4927062233
 20
13.5393606068
 30
0.0
 10
27.3234936418
 20
13.7655603732
 30
0.0
 10
27.1371972568
 20
13.9649378945
 30
0.0
 10
26.9396606229
 20
14.1312173419
 30
0.0
 10
26.7368962207
 20
14.2591813608
 30
0.0
 10
26.5350325695
 20
14.3447539685
 30
0.0
 10
26.3681284762
 20
14.378863469
 30
0.0
 10
26.242493951
 20
14.3804913935
 30
0.0
 10
26.1547848375
 20
14.3696891507
 30
0.0
 10
26.0721152254
 20
14.3469618409
 30
0.0
 10
25.9952306128
 20
14.3124380805
 30
0.0
 10
25.9248609681
 20
14.2664045292
 30
0.0
 10
25.8616257788
 20
14.2093277344
 30
0.0
 10
25.8061037975
 20
14.1417022445
 30
0.0
 10
25.7413776008
 20
14.0360060525
 30
0.0
 10
25.7080799988
 20
13.9461471869
 30
0.0
 10
25.6916379977
 20
13.8836750685
 30
0.0
  0
SPLINE
  5
285
100
AcDbEntity
  8
0
100
AcDbSpline
 62
7
  6
BYLAYER
 70
0
 71
3
 72
9
 73
5
 74
0
 42
0.0000001
 43
0.0000001
 44
0.0000000001
 40
0.0
 40
0.0
 40
0.0
 40
0.0
 40
0.4824304407
 40
1.0
 40
1.0
 40
1.0
 40
1.0
 10
25.6916379977
 20
13.8836750685
 30
0.0
 10
25.6787655409
 20
13.8347655931
 30
0.0
 10
25.6598686064
 20
13.7312565908
 30
0.0
 10
25.6542161254
 20
13.6263140938
 30
0.0
 10
25.6542161254
 20
13.5720552608
 30
0.0
  0
SPLINE
  5
286
100
AcDbEntity
  8
0
100
AcDbSpline
 62
7
  6
BYLAYER
 70
0
 71
3
 72
14
 73
10
 74
0
 42
0.0000001
 43
0.0000001
 44
0.0000000001
 40
0.0
 40
0.0
 40
0.0
 40
0.0
 40
0.1080610879
 40
0.2181596691
 40
0.332155279
 40
0.4515599132
 40
0.7103708631
 40
0.8514080973
 40
1.0
 40
1.0
 40
1.0
 40
1.0
 10
28.0684287436
 20
11.3501143229
 30
0.0
 10
28.1012199666
 20
11.3690457884
 30
0.0
 10
28.1642571351
 20
11.4130494487
 30
0.0
 10
28.2475752018
 20
11.4950173797
 30
0.0
 10
28.3192026544
 20
11.5923437428
 30
0.0
 10
28.4004478853
 20
11.7450398134
 30
0.0
 10
28.4525750962
 20
11.9214912489
 30
0.0
 10
28.4784295491
 20
12.11203599
 30
0.0
 10
28.4826526708
 20
12.2136207589
 30
0.0
 10
28.4826526708
 20
12.2656862061
 30
0.0
  0
SPLINE
  5
287
100
AcDbEntity
  8
0
100
AcDbSpline
 62
7
  6
BYLAYER
 70
0
 71
3
 72
9
 73
5
 74
0
 42
0.0000001
 43
0.0000001
 44
0.0000000001
 40
0.0
 40
0.0
 40
0.0
 40
0.0
 40
0.264352799
 40
1.0
 40
1.0
 40
1.0
 40
1.0
 10
26.7855627121
 20
11.612492632
 30
0.0
 10
26.8106581785
 20
11.5980032914
 30
0.0
 10
26.9071025315
 20
11.5459472173
 30
0.0
 10
27.0101482141
 20
11.5054091082
 30
0.0
 10
27.0882537529
 20
11.4853483781
 30
0.0
  0
SPLINE
  5
288
100
AcDbEntity
  8
0
100
AcDbSpline
 62
7
  6
BYLAYER
 70
0
 71
3
 72
19
 73
15
 74
0
 42
0.0000001
 43
0.0000001
 44
0.0000000001
 40
0.0
 40
0.0
 40
0.0
 40
0.0
 40
0.1288908106
 40
0.1893352687
 40
0.2476088899
 40
0.3042768334
 40
0.3599882974
 40
0.4154564381
 40
0.4714093401
 40
0.5285470446
 40
0.5874904681
 40
0.7125676935
 40
0.8497672198
 40
1.0
 40
1.0
 40
1.0
 40
1.0
 10
27.0882537529
 20
11.4853483781
 30
0.0
 10
27.1445543415
 20
11.4708880603
 30
0.0
 10
27.2296585235
 20
11.4570522415
 30
0.0
 10
27.3415324535
 20
11.4584430119
 30
0.0
 10
27.420120435
 20
11.469200917
 30
0.0
 10
27.494565079
 20
11.4896187442
 30
0.0
 10
27.5643439971
 20
11.5195980077
 30
0.0
 10
27.6289198918
 20
11.5589573631
 30
0.0
 10
27.687851538
 20
11.6073603899
 30
0.0
 10
27.7406864559
 20
11.6644936065
 30
0.0
 10
27.8038042574
 20
11.753381906
 30
0.0
 10
27.8652392943
 20
11.886049405
 30
0.0
 10
27.9082681199
 20
12.0680078308
 30
0.0
 10
27.9169672459
 20
12.197931982
 30
0.0
 10
27.9169672459
 20
12.2656848464
 30
0.0
  0
SPLINE
  5
289
100
AcDbEntity
  8
0
100
AcDbSpline
 62
7
  6
BYLAYER
 70
0
 71
3
 72
15
 73
11
 74
0
 42
0.0000001
 43
0.0000001
 44
0.0000000001
 40
0.0
 40
0.0
 40
0.0
 40
0.0
 40
0.1486025682
 40
0.2895002298
 40
0.4227203132
 40
0.5486432716
 40
0.6679991308
 40
0.7819389812
 40
0.8919869925
 40
1.0
 40
1.0
 40
1.0
 40
1.0
 10
27.0683970061
 20
31.0452418005
 30
0.0
 10
27.113510755
 20
31.0191946163
 30
0.0
 10
27.2035626239
 20
30.9720592955
 30
0.0
 10
27.3409174323
 20
30.915825877
 30
0.0
 10
27.4758301224
 20
30.8765112848
 30
0.0
 10
27.6070191153
 20
30.8544805654
 30
0.0
 10
27.7332697663
 20
30.8501081086
 30
0.0
 10
27.8533622474
 20
30.8634797742
 30
0.0
 10
27.966009146
 20
30.8946521721
 30
0.0
 10
28.035636965
 20
30.9272405478
 30
0.0
 10
28.0684287436
 20
30.946172334
 30
0.0
  0
SPLINE
  5
28A
100
AcDbEntity
  8
0
100
AcDbSpline
 62
7
  6
BYLAYER
 70
0
 71
3
 72
14
 73
10
 74
0
 42
0.0000001
 43
0.0000001
 44
0.0000000001
 40
0.0
 40
0.0
 40
0.0
 40
0.0
 40
0.1080610879
 40
0.2181596691
 40
0.332155279
 40
0.4515599132
 40
0.7103708631
 40
0.8514080973
 40
1.0
 40
1.0
 40
1.0
 40
1.0
 10
26.0684376975
 20
34.4102791185
 30
0.0
 10
26.0356464745
 20
34.391347653
 30
0.0
 10
25.972609306
 20
34.3473439927
 30
0.0
 10
25.8892912393
 20
34.2653760617
 30
0.0
 10
25.8176637867
 20
34.1680496986
 30
0.0
 10
25.7364185558
 20
34.015353628
 30
0.0
 10
25.6842913449
 20
33.8389021925
 30
0.0
 10
25.658436892
 20
33.6483574514
 30
0.0
 10
25.6542137702
 20
33.5467726825
 30
0.0
 10
25.6542137702
 20
33.4947072353
 30
0.0
  0
SPLINE
  5
28B
100
AcDbEntity
  8
0
100
AcDbSpline
 62
7
  6
BYLAYER
 70
0
 71
3
 72
15
 73
11
 74
0
 42
0.0000001
 43
0.0000001
 44
0.0000000001
 40
0.0
 40
0.0
 40
0.0
 40
0.0
 40
0.1141515087
 40
0.2373301591
 40
0.3669778071
 40
0.5000005759
 40
0.6330236626
 40
0.7626743904
 40
0.8858459846
 40
1.0
 40
1.0
 40
1.0
 40
1.0
 10
25.6542161254
 20
33.1681132719
 30
0.0
 10
25.6542161254
 20
33.0786843011
 30
0.0
 10
25.670599575
 20
32.8925811318
 30
0.0
 10
25.7358935427
 20
32.6118241345
 30
0.0
 10
25.8405101065
 20
32.3274417507
 30
0.0
 10
25.9805111686
 20
32.050126153
 30
0.0
 10
26.1506720317
 20
31.7902198764
 30
0.0
 10
26.3446482651
 20
31.5574339194
 30
0.0
 10
26.5551375213
 20
31.360504121
 30
0.0
 10
26.7081138741
 20
31.2532671897
 30
0.0
 10
26.7855627121
 20
31.2085506431
 30
0.0
  0
SPLINE
  5
28C
100
AcDbEntity
  8
0
100
AcDbSpline
 62
7
  6
BYLAYER
 70
0
 71
3
 72
25
 73
21
 74
0
 42
0.0000001
 43
0.0000001
 44
0.0000000001
 40
0.0
 40
0.0
 40
0.0
 40
0.0
 40
0.0623733757
 40
0.1287280346
 40
0.1983135594
 40
0.2702912948
 40
0.3436687514
 40
0.4173996816
 40
0.4904238624
 40
0.5617106244
 40
0.6303076443
 40
0.6953947824
 40
0.7563427378
 40
0.8127809614
 40
0.8646816231
 40
0.9124565119
 40
0.9351018586
 40
0.9571071324
 40
0.9786678002
 40
1.0
 40
1.0
 40
1.0
 40
1.0
 10
28.4826526708
 20
31.8617442172
 30
0.0
 10
28.4826526708
 20
31.9447033881
 30
0.0
 10
28.4713982153
 20
32.1160298977
 30
0.0
 10
28.425165386
 20
32.376158292
 30
0.0
 10
28.3499463505
 20
32.6427129027
 30
0.0
 10
28.2474216246
 20
32.9099744223
 30
0.0
 10
28.1197223998
 20
33.1722921164
 30
0.0
 10
27.9695947042
 20
33.4240647001
 30
0.0
 10
27.8002433327
 20
33.6599278057
 30
0.0
 10
27.6152703432
 20
33.874852505
 30
0.0
 10
27.4185949308
 20
34.0642622334
 30
0.0
 10
27.2143612375
 20
34.2241479575
 30
0.0
 10
27.0068179263
 20
34.3511281704
 30
0.0
 10
26.8001553729
 20
34.4424609487
 30
0.0
 10
26.5985600783
 20
34.4960401156
 30
0.0
 10
26.4350570795
 20
34.5080322354
 30
0.0
 10
26.3124261266
 20
34.4965379232
 30
0.0
 10
26.2260869616
 20
34.478117716
 30
0.0
 10
26.1443083275
 20
34.4498415011
 30
0.0
 10
26.0930093642
 20
34.4244651602
 30
0.0
 10
26.0684376975
 20
34.4102791185
 30
0.0
  0
SPLINE
  5
28D
100
AcDbEntity
  8
0
100
AcDbSpline
 62
7
  6
BYLAYER
 70
0
 71
3
 72
27
 73
23
 74
0
 42
0.0000001
 43
0.0000001
 44
0.0000000001
 40
0.0
 40
0.0
 40
0.0
 40
0.0
 40
0.0660126528
 40
0.1369399478
 40
0.2115540965
 40
0.2883979008
 40
0.3658370048
 40
0.4422091809
 40
0.5159155427
 40
0.5855452021
 40
0.6500037508
 40
0.7086695419
 40
0.7615868221
 40
0.7861914351
 40
0.8097901234
 40
0.832657395
 40
0.8551158317
 40
0.8775213426
 40
0.9002333962
 40
0.9235891638
 40
0.9478734838
 40
1.0
 40
1.0
 40
1.0
 40
1.0
 10
27.9169672459
 20
31.8617428575
 30
0.0
 10
27.9169672459
 20
31.943551303
 30
0.0
 10
27.9032619071
 20
32.1134027932
 30
0.0
 10
27.8480932723
 20
32.3703226075
 30
0.0
 10
27.7592156022
 20
32.6318120079
 30
0.0
 10
27.6395049479
 20
32.889551679
 30
0.0
 10
27.4927062233
 20
33.1354186179
 30
0.0
 10
27.3234936418
 20
33.3616183843
 30
0.0
 10
27.1371972568
 20
33.5609959056
 30
0.0
 10
26.9396606229
 20
33.7272753531
 30
0.0
 10
26.7368962207
 20
33.8552393719
 30
0.0
 10
26.5350325695
 20
33.9408119796
 30
0.0
 10
26.3681284762
 20
33.9749214802
 30
0.0
 10
26.242493951
 20
33.9765494046
 30
0.0
 10
26.1547848375
 20
33.9657471618
 30
0.0
 10
26.0721152254
 20
33.943019852
 30
0.0
 10
25.9952306128
 20
33.9084960916
 30
0.0
 10
25.9248609681
 20
33.8624625404
 30
0.0
 10
25.8616257788
 20
33.8053857455
 30
0.0
 10
25.8061037975
 20
33.7377602556
 30
0.0
 10
25.7413776008
 20
33.6320640636
 30
0.0
 10
25.7080799988
 20
33.542205198
 30
0.0
 10
25.6916379977
 20
33.4797330796
 30
0.0
  0
SPLINE
  5
28E
100
AcDbEntity
  8
0
100
AcDbSpline
 62
7
  6
BYLAYER
 70
0
 71
3
 72
9
 73
5
 74
0
 42
0.0000001
 43
0.0000001
 44
0.0000000001
 40
0.0
 40
0.0
 40
0.0
 40
0.0
 40
0.4824304407
 40
1.0
 40
1.0
 40
1.0
 40
1.0
 10
25.6916379977
 20
33.4797330796
 30
0.0
 10
25.6787655409
 20
33.4308236042
 30
0.0
 10
25.6598686064
 20
33.3273146019
 30
0.0
 10
25.6542161254
 20
33.2223721049
 30
0.0
 10
25.6542161254
 20
33.1681132719
 30
0.0
  0
SPLINE
  5
28F
100
AcDbEntity
  8
0
100
AcDbSpline
 62
7
  6
BYLAYER
 70
0
 71
3
 72
14
 73
10
 74
0
 42
0.0000001
 43
0.0000001
 44
0.0000000001
 40
0.0
 40
0.0
 40
0.0
 40
0.0
 40
0.1080610879
 40
0.2181596691
 40
0.332155279
 40
0.4515599132
 40
0.7103708631
 40
0.8514080973
 40
1.0
 40
1.0
 40
1.0
 40
1.0
 10
28.0684287436
 20
30.946172334
 30
0.0
 10
28.1012199666
 20
30.9651037995
 30
0.0
 10
28.1642571351
 20
31.0091074598
 30
0.0
 10
28.2475752018
 20
31.0910753908
 30
0.0
 10
28.3192026544
 20
31.1884017539
 30
0.0
 10
28.4004478853
 20
31.3410978245
 30
0.0
 10
28.4525750962
 20
31.51754926
 30
0.0
 10
28.4784295491
 20
31.7080940011
 30
0.0
 10
28.4826526708
 20
31.80967877
 30
0.0
 10
28.4826526708
 20
31.8617442172
 30
0.0
  0
SPLINE
  5
290
100
AcDbEntity
  8
0
100
AcDbSpline
 62
7
  6
BYLAYER
 70
0
 71
3
 72
9
 73
5
 74
0
 42
0.0000001
 43
0.0000001
 44
0.0000000001
 40
0.0
 40
0.0
 40
0.0
 40
0.0
 40
0.264352799
 40
1.0
 40
1.0
 40
1.0
 40
1.0
 10
26.7855627121
 20
31.2085506431
 30
0.0
 10
26.8106581785
 20
31.1940613025
 30
0.0
 10
26.9071025315
 20
31.1420052284
 30
0.0
 10
27.0101482141
 20
31.1014671193
 30
0.0
 10
27.0882537529
 20
31.0814063892
 30
0.0
  0
SPLINE
  5
291
100
AcDbEntity
  8
0
100
AcDbSpline
 62
7
  6
BYLAYER
 70
0
 71
3
 72
19
 73
15
 74
0
 42
0.0000001
 43
0.0000001
 44
0.0000000001
 40
0.0
 40
0.0
 40
0.0
 40
0.0
 40
0.1288908106
 40
0.1893352687
 40
0.2476088899
 40
0.3042768334
 40
0.3599882974
 40
0.4154564381
 40
0.4714093401
 40
0.5285470446
 40
0.5874904681
 40
0.7125676935
 40
0.8497672198
 40
1.0
 40
1.0
 40
1.0
 40
1.0
 10
27.0882537529
 20
31.0814063892
 30
0.0
 10
27.1445543415
 20
31.0669460714
 30
0.0
 10
27.2296585235
 20
31.0531102526
 30
0.0
 10
27.3415324535
 20
31.054501023
 30
0.0
 10
27.420120435
 20
31.0652589281
 30
0.0
 10
27.494565079
 20
31.0856767553
 30
0.0
 10
27.5643439971
 20
31.1156560188
 30
0.0
 10
27.6289198918
 20
31.1550153742
 30
0.0
 10
27.687851538
 20
31.203418401
 30
0.0
 10
27.7406864559
 20
31.2605516176
 30
0.0
 10
27.8038042574
 20
31.3494399171
 30
0.0
 10
27.8652392943
 20
31.4821074162
 30
0.0
 10
27.9082681199
 20
31.6640658419
 30
0.0
 10
27.9169672459
 20
31.7939899931
 30
0.0
 10
27.9169672459
 20
31.8617428575
 30
0.0
  0
SPLINE
  5
292
100
AcDbEntity
  8
0
100
AcDbSpline
 62
7
  6
BYLAYER
 70
0
 71
3
 72
25
 73
21
 74
0
 42
0.0000001
 43
0.0000001
 44
0.0000000001
 40
0.0
 40
0.0
 40
0.0
 40
0.0
 40
0.0213319025
 40
0.0428919457
 40
0.0648973843
 40
0.0875416961
 40
0.1353167895
 40
0.1872174294
 40
0.2436545993
 40
0.304602289
 40
0.3696905114
 40
0.4382882868
 40
0.5095749344
 40
0.5825994469
 40
0.6563313808
 40
0.7297086177
 40
0.8016865587
 40
0.8712739706
 40
0.9376235182
 40
1.0
 40
1.0
 40
1.0
 40
1.0
 10
34.2957303139
 20
62.5374030428
 30
0.0
 10
34.2957240123
 20
62.6083338205
 30
0.0
 10
34.286565966
 20
62.7511166943
 30
0.0
 10
34.2455727325
 20
62.9635209046
 30
0.0
 10
34.1774853545
 20
63.1734546118
 30
0.0
 10
34.0491427169
 20
63.4533501204
 30
0.0
 10
33.818748699
 20
63.7923252065
 30
0.0
 10
33.4507519636
 20
64.161804151
 30
0.0
 10
32.9946915768
 20
64.4950822039
 30
0.0
 10
32.4603460752
 20
64.7857075926
 30
0.0
 10
31.8588780612
 20
65.0280130696
 30
0.0
 10
31.2029385894
 20
65.2170451085
 30
0.0
 10
30.5063953287
 20
65.3488737205
 30
0.0
 10
29.7840441739
 20
65.4207111936
 30
0.0
 10
29.051276674
 20
65.4310260606
 30
0.0
 10
28.3237162133
 20
65.3795931155
 30
0.0
 10
27.6169151223
 20
65.2674934419
 30
0.0
 10
26.9457946755
 20
65.0971535918
 30
0.0
 10
26.3248025173
 20
64.8721088448
 30
0.0
 10
25.9398121003
 20
64.6823104718
 30
0.0
 10
25.7601910268
 20
64.5786068157
 30
0.0
  0
SPLINE
  5
293
100
AcDbEntity
  8
0
100
AcDbSpline
 62
7
  6
BYLAYER
 70
0
 71
3
 72
15
 73
11
 74
0
 42
0.0000001
 43
0.0000001
 44
0.0000000001
 40
0.0
 40
0.0
 40
0.0
 40
0.0
 40
0.1485422169
 40
0.2895065925
 40
0.4227365852
 40
0.5486414656
 40
0.6679983291
 40
0.7819398679
 40
0.8919885884
 40
1.0
 40
1.0
 40
1.0
 40
1.0
 10
25.7601910268
 20
64.5786068157
 30
0.0
 10
25.647456939
 20
64.5135201483
 30
0.0
 10
25.4328565607
 20
64.3774603339
 30
0.0
 10
25.139403102
 20
64.1503929801
 30
0.0
 10
24.8856005093
 20
63.9074328257
 30
0.0
 10
24.6739704053
 20
63.6509247796
 30
0.0
 10
24.5066824763
 20
63.3830886592
 30
0.0
 10
24.385545096
 20
63.1063674699
 30
0.0
 10
24.312194086
 20
62.8235366895
 30
0.0
 10
24.2957405818
 20
62.6320580771
 30
0.0
 10
24.2957489912
 20
62.5374030434
 30
0.0
  0
SPLINE
  5
294
100
AcDbEntity
  8
0
100
AcDbSpline
 62
7
  6
BYLAYER
 70
0
 71
3
 72
15
 73
11
 74
0
 42
0.0000001
 43
0.0000001
 44
0.0000000001
 40
0.0
 40
0.0
 40
0.0
 40
0.0
 40
0.1485422169
 40
0.2895065925
 40
0.4227365852
 40
0.5486414656
 40
0.6679983291
 40
0.7819398679
 40
0.8919885884
 40
1.0
 40
1.0
 40
1.0
 40
1.0
 10
32.8312882783
 20
60.4961992705
 30
0.0
 10
32.9440223662
 20
60.561285938
 30
0.0
 10
33.1586227444
 20
60.6973457523
 30
0.0
 10
33.4520762031
 20
60.9244131061
 30
0.0
 10
33.7058787958
 20
61.1673732605
 30
0.0
 10
33.9175088999
 20
61.4238813066
 30
0.0
 10
34.0847968289
 20
61.6917174271
 30
0.0
 10
34.2059342092
 20
61.9684386163
 30
0.0
 10
34.2792852192
 20
62.2512693968
 30
0.0
 10
34.2957387233
 20
62.4427480092
 30
0.0
 10
34.2957303139
 20
62.5374030428
 30
0.0
  0
SPLINE
  5
295
100
AcDbEntity
  8
0
100
AcDbSpline
 62
7
  6
BYLAYER
 70
0
 71
3
 72
25
 73
21
 74
0
 42
0.0000001
 43
0.0000001
 44
0.0000000001
 40
0.0
 40
0.0
 40
0.0
 40
0.0
 40
0.0213319025
 40
0.0428919457
 40
0.0648973843
 40
0.0875416961
 40
0.1353167895
 40
0.1872174294
 40
0.2436545993
 40
0.304602289
 40
0.3696905114
 40
0.4382882868
 40
0.5095749344
 40
0.5825994469
 40
0.6563313808
 40
0.7297086177
 40
0.8016865587
 40
0.8712739706
 40
0.9376235182
 40
1.0
 40
1.0
 40
1.0
 40
1.0
 10
24.2957489912
 20
62.5374030434
 30
0.0
 10
24.2957552929
 20
62.4664722658
 30
0.0
 10
24.3049133392
 20
62.323689392
 30
0.0
 10
24.3459065726
 20
62.1112851816
 30
0.0
 10
24.4139939506
 20
61.9013514744
 30
0.0
 10
24.5423365882
 20
61.6214559658
 30
0.0
 10
24.7727306061
 20
61.2824808798
 30
0.0
 10
25.1407273415
 20
60.9130019353
 30
0.0
 10
25.5967877283
 20
60.5797238824
 30
0.0
 10
26.1311332299
 20
60.2890984936
 30
0.0
 10
26.7326012439
 20
60.0467930166
 30
0.0
 10
27.3885407157
 20
59.8577609777
 30
0.0
 10
28.0850839764
 20
59.7259323657
 30
0.0
 10
28.8074351312
 20
59.6540948926
 30
0.0
 10
29.5402026311
 20
59.6437800257
 30
0.0
 10
30.2677630919
 20
59.6952129707
 30
0.0
 10
30.9745641828
 20
59.8073126444
 30
0.0
 10
31.6456846296
 20
59.9776524945
 30
0.0
 10
32.2666767879
 20
60.2026972415
 30
0.0
 10
32.6516672048
 20
60.3924956144
 30
0.0
 10
32.8312882783
 20
60.4961992705
 30
0.0
  0
SPLINE
  5
296
100
AcDbEntity
  8
0
100
AcDbSpline
 62
7
  6
BYLAYER
 70
0
 71
3
 72
22
 73
18
 74
0
 42
0.0000001
 43
0.0000001
 44
0.0000000001
 40
0.0
 40
0.0
 40
0.0
 40
0.0
 40
0.0428184687
 40
0.0874059793
 40
0.1351932462
 40
0.1871102295
 40
0.2435625034
 40
0.3045255173
 40
0.3696316116
 40
0.438246209
 40
0.5095535931
 40
0.5825967692
 40
0.7296196733
 40
0.8016145919
 40
0.87122677
 40
0.9376267433
 40
1.0
 40
1.0
 40
1.0
 40
1.0
 10
30.6956847957
 20
37.2549959301
 30
0.0
 10
30.7486937132
 20
37.2855884072
 30
0.0
 10
30.8655222802
 20
37.334177643
 30
0.0
 10
31.058398602
 20
37.3624002877
 30
0.0
 10
31.2655125957
 20
37.3472004445
 30
0.0
 10
31.4822659105
 20
37.2895853249
 30
0.0
 10
31.7044086359
 20
37.1914151037
 30
0.0
 10
31.9275283031
 20
37.05493728
 30
0.0
 10
32.1470559408
 20
36.8830440398
 30
0.0
 10
32.3584881414
 20
36.6794544055
 30
0.0
 10
32.5573459624
 20
36.4483959866
 30
0.0
 10
32.800462405
 20
36.1097759607
 30
0.0
 10
33.0003048484
 20
35.7404757516
 30
0.0
 10
33.1482935904
 20
35.3549355477
 30
0.0
 10
33.2291741019
 20
35.0683265257
 30
0.0
 10
33.2788269925
 20
34.7886698001
 30
0.0
 10
33.2909596471
 20
34.6044860057
 30
0.0
 10
33.2909596471
 20
34.5153317273
 30
0.0
  0
SPLINE
  5
297
100
AcDbEntity
  8
0
100
AcDbSpline
 62
7
  6
BYLAYER
 70
0
 71
3
 72
9
 73
5
 74
0
 42
0.0000001
 43
0.0000001
 44
0.0000000001
 40
0.0
 40
0.0
 40
0.0
 40
0.0
 40
0.2454764846
 40
1.0
 40
1.0
 40
1.0
 40
1.0
 10
36.3667780247
 20
60.0103412656
 30
0.0
 10
36.3084426407
 20
60.0440204533
 30
0.0
 10
36.0693281365
 20
60.1786582826
 30
0.0
 10
35.8245693186
 20
60.3032221377
 30
0.0
 10
35.6374472187
 20
60.3918358005
 30
0.0
  0
SPLINE
  5
298
100
AcDbEntity
  8
0
100
AcDbSpline
 62
7
  6
BYLAYER
 70
0
 71
3
 72
13
 73
9
 74
0
 42
0.0000001
 43
0.0000001
 44
0.0000000001
 40
0.0
 40
0.0
 40
0.0
 40
0.0
 40
0.2893470396
 40
0.5483223607
 40
0.6677484676
 40
0.7817629939
 40
0.891904606
 40
1.0
 40
1.0
 40
1.0
 40
1.0
 10
33.2909596471
 20
34.5153317273
 30
0.0
 10
33.2909596471
 20
34.4063788086
 30
0.0
 10
33.2745224741
 20
34.199291297
 30
0.0
 10
33.2025895505
 20
33.9556751312
 30
0.0
 10
33.1152653945
 20
33.7914627718
 30
0.0
 10
33.0382120339
 20
33.6868991767
 30
0.0
 10
32.9486926082
 20
33.5987449024
 30
0.0
 10
32.8809160836
 20
33.5514481935
 30
0.0
 10
32.8456626803
 20
33.5311027689
 30
0.0
  0
SPLINE
  5
299
100
AcDbEntity
  8
0
100
AcDbSpline
 62
7
  6
BYLAYER
 70
0
 71
3
 72
15
 73
11
 74
0
 42
0.0000001
 43
0.0000001
 44
0.0000000001
 40
0.0
 40
0.0
 40
0.0
 40
0.0
 40
0.0958874063
 40
0.1962985528
 40
0.3047808178
 40
0.4234744286
 40
0.553131585
 40
0.6933652395
 40
0.842946048
 40
1.0
 40
1.0
 40
1.0
 40
1.0
 10
13.7250513922
 20
47.0527740386
 30
0.0
 10
13.7819346408
 20
47.0856024675
 30
0.0
 10
13.9084002417
 20
47.1367605815
 30
0.0
 10
14.1177179268
 20
47.1617408186
 30
0.0
 10
14.3423853126
 20
47.1367731659
 30
0.0
 10
14.5768412647
 20
47.063489159
 30
0.0
 10
14.8158669311
 20
46.9442914578
 30
0.0
 10
15.0540629311
 20
46.7822987314
 30
0.0
 10
15.2858110674
 20
46.5814526526
 30
0.0
 10
15.4295939429
 20
46.4277973751
 30
0.0
 10
15.499296612
 20
46.345863326
 30
0.0
  0
SPLINE
  5
29A
100
AcDbEntity
  8
0
100
AcDbSpline
 62
7
  6
BYLAYER
 70
0
 71
3
 72
13
 73
9
 74
0
 42
0.0000001
 43
0.0000001
 44
0.0000000001
 40
0.0
 40
0.0
 40
0.0
 40
0.0
 40
0.2893470396
 40
0.5483223607
 40
0.6677484676
 40
0.7817629939
 40
0.891904606
 40
1.0
 40
1.0
 40
1.0
 40
1.0
 10
33.2909596471
 20
14.9192737162
 30
0.0
 10
33.2909596471
 20
14.8103207975
 30
0.0
 10
33.2745224741
 20
14.6032332859
 30
0.0
 10
33.2025895505
 20
14.3596171201
 30
0.0
 10
33.1152653945
 20
14.1954047607
 30
0.0
 10
33.0382120339
 20
14.0908411656
 30
0.0
 10
32.9486926082
 20
14.0026868913
 30
0.0
 10
32.8809160836
 20
13.9553901824
 30
0.0
 10
32.8456626803
 20
13.9350447578
 30
0.0
  0
SPLINE
  5
29B
100
AcDbEntity
  8
0
100
AcDbSpline
 62
7
  6
BYLAYER
 70
0
 71
3
 72
15
 73
11
 74
0
 42
0.0000001
 43
0.0000001
 44
0.0000000001
 40
0.0
 40
0.0
 40
0.0
 40
0.0
 40
0.1080123718
 40
0.2180599367
 40
0.3319979203
 40
0.4513585807
 40
0.5772662592
 40
0.7104904768
 40
0.8514459875
 40
1.0
 40
1.0
 40
1.0
 40
1.0
 10
8.6098978874
 20
31.6627820884
 30
0.0
 10
8.7467964043
 20
31.7418204172
 30
0.0
 10
9.0374402208
 20
31.8779653563
 30
0.0
 10
9.5077532044
 20
32.0079840651
 30
0.0
 10
10.0091073923
 20
32.063920726
 30
0.0
 10
10.5361647288
 20
32.0455745276
 30
0.0
 10
11.0838637835
 20
31.9537239146
 30
0.0
 10
11.6471619812
 20
31.7895309157
 30
0.0
 10
12.2206082092
 20
31.554752133
 30
0.0
 10
12.5965816711
 20
31.3579818986
 30
0.0
 10
12.7848650536
 20
31.2492788962
 30
0.0
  0
SPLINE
  5
29C
100
AcDbEntity
  8
0
100
AcDbSpline
 62
7
  6
BYLAYER
 70
0
 71
3
 72
26
 73
22
 74
0
 42
0.0000001
 43
0.0000001
 44
0.0000000001
 40
0.0
 40
0.0
 40
0.0
 40
0.0
 40
0.0213311985
 40
0.042890915
 40
0.0648951777
 40
0.0875392047
 40
0.1109873514
 40
0.1353733774
 40
0.1872713571
 40
0.2437054733
 40
0.3046493336
 40
0.3697327388
 40
0.4383254686
 40
0.5096072396
 40
0.5826267398
 40
0.6563537397
 40
0.7297251402
 40
0.8016969593
 40
0.8712833884
 40
0.9376225566
 40
1.0
 40
1.0
 40
1.0
 40
1.0
 10
8.1098942608
 20
32.5288188598
 30
0.0
 10
7.9950155876
 20
32.4625039518
 30
0.0
 10
7.7723296356
 20
32.3141668274
 30
0.0
 10
7.4667163602
 20
32.0491148973
 30
0.0
 10
7.190314966
 20
31.7426351749
 30
0.0
 10
6.9447935126
 20
31.3965334972
 30
0.0
 10
6.7312308125
 20
31.0128859271
 30
0.0
 10
6.4856856737
 20
30.4424141215
 30
0.0
 10
6.2690892487
 20
29.6413334151
 30
0.0
 10
6.1559088667
 20
28.5913748077
 30
0.0
 10
6.1848206786
 20
27.454206575
 30
0.0
 10
6.3547784078
 20
26.2536141364
 30
0.0
 10
6.6619272587
 20
25.0145889092
 30
0.0
 10
7.0996999232
 20
23.7633018084
 30
0.0
 10
7.6587641715
 20
22.52630961
 30
0.0
 10
8.327207106
 20
21.3299822662
 30
0.0
 10
9.0907558936
 20
20.1998170539
 30
0.0
 10
9.9331449021
 20
19.1599625845
 30
0.0
 10
10.8365141431
 20
18.2324125324
 30
0.0
 10
11.781588334
 20
17.4371138715
 30
0.0
 10
12.4489439564
 20
16.9911258614
 30
0.0
 10
12.7848650536
 20
16.797186113
 30
0.0
  0
SPLINE
  5
29D
100
AcDbEntity
  8
0
100
AcDbSpline
 62
7
  6
BYLAYER
 70
0
 71
3
 72
28
 73
24
 74
0
 42
0.0000001
 43
0.0000001
 44
0.0000000001
 40
0.0
 40
0.0
 40
0.0
 40
0.0
 40
0.0213299035
 40
0.0428880166
 40
0.0648911473
 40
0.0875333104
 40
0.1109803334
 40
0.135364391
 40
0.1872591944
 40
0.2149196469
 40
0.2437270608
 40
0.3046670768
 40
0.3697462065
 40
0.438334283
 40
0.5096112011
 40
0.5826257777
 40
0.6563479725
 40
0.7297153027
 40
0.8016818403
 40
0.8712647017
 40
0.9375973807
 40
0.9693377128
 40
1.0
 40
1.0
 40
1.0
 40
1.0
 10
13.0756063963
 20
39.033070871
 30
0.0
 10
13.2291811086
 20
39.1217372224
 30
0.0
 10
13.5497890465
 20
39.2803664344
 30
0.0
 10
14.0609236996
 20
39.457104134
 30
0.0
 10
14.6005370779
 20
39.572153881
 30
0.0
 10
15.1653537905
 20
39.6251615283
 30
0.0
 10
15.7522952042
 20
39.6158813126
 30
0.0
 10
16.5768663493
 20
39.5189329503
 30
0.0
 10
17.4169978577
 20
39.295838935
 30
0.0
 10
18.2558120137
 20
38.9658793705
 30
0.0
 10
19.1366525107
 20
38.5433775156
 30
0.0
 10
20.237770733
 20
37.8696848888
 30
0.0
 10
21.5140892949
 20
36.8704603564
 30
0.0
 10
22.7433206105
 20
35.6866108528
 30
0.0
 10
23.8994010638
 20
34.3433635598
 30
0.0
 10
24.9578652395
 20
32.8692343326
 30
0.0
 10
25.8961407822
 20
31.29564297
 30
0.0
 10
26.6942266535
 20
29.6561813479
 30
0.0
 10
27.335089375
 20
27.9857411478
 30
0.0
 10
27.8050695181
 20
26.3200155007
 30
0.0
 10
28.0496191659
 20
24.9448577789
 30
0.0
 10
28.147586641
 20
23.878582493
 30
0.0
 10
28.1644471122
 20
23.3596531535
 30
0.0
 10
28.1644471122
 20
23.104732705
 30
0.0
  0
SPLINE
  5
29E
100
AcDbEntity
  8
0
100
AcDbSpline
 62
7
  6
BYLAYER
 70
0
 71
3
 72
15
 73
11
 74
0
 42
0.0000001
 43
0.0000001
 44
0.0000000001
 40
0.0
 40
0.0
 40
0.0
 40
0.0
 40
0.1490978269
 40
0.2905597338
 40
0.4243249957
 40
0.5506486725
 40
0.6701522658
 40
0.7838643413
 40
0.8932176269
 40
1.0
 40
1.0
 40
1.0
 40
1.0
 10
18.978714167
 20
17.1882524509
 30
0.0
 10
19.2926104519
 20
16.9940988371
 30
0.0
 10
19.920001868
 20
16.6401740614
 30
0.0
 10
20.8796831601
 20
16.2092765361
 30
0.0
 10
21.8251002071
 20
15.8959891893
 30
0.0
 10
22.74725859
 20
15.7037864751
 30
0.0
 10
23.6373681408
 20
15.6351409701
 30
0.0
 10
24.4867644595
 20
15.6915092109
 30
0.0
 10
25.286368541
 20
15.8731337361
 30
0.0
 10
25.7837561273
 20
16.0785158875
 30
0.0
 10
26.0184286669
 20
16.2001843036
 30
0.0
  0
SPLINE
  5
29F
100
AcDbEntity
  8
0
100
AcDbSpline
 62
7
  6
BYLAYER
 70
0
 71
3
 72
15
 73
11
 74
0
 42
0.0000001
 43
0.0000001
 44
0.0000000001
 40
0.0
 40
0.0
 40
0.0
 40
0.0
 40
0.1485721183
 40
0.289507459
 40
0.4227237702
 40
0.5486379108
 40
0.6679993787
 40
0.781935988
 40
0.891984832
 40
1.0
 40
1.0
 40
1.0
 40
1.0
 10
28.1644471122
 20
23.104732705
 30
0.0
 10
28.1644471122
 20
22.7792203394
 30
0.0
 10
28.1381748843
 20
22.1444916623
 30
0.0
 10
28.013273062
 20
21.2253207156
 30
0.0
 10
27.804552057
 20
20.3721511379
 30
0.0
 10
27.5136652756
 20
19.5933191154
 30
0.0
 10
27.1429641667
 20
18.8962394436
 30
0.0
 10
26.6951732214
 20
18.2880989772
 30
0.0
 10
26.1745139185
 20
17.7757221405
 30
0.0
 10
25.7804936101
 20
17.5007406437
 30
0.0
 10
25.5755446994
 20
17.382413402
 30
0.0
  0
SPLINE
  5
2A0
100
AcDbEntity
  8
0
100
AcDbSpline
 62
7
  6
BYLAYER
 70
0
 71
3
 72
10
 73
6
 74
0
 42
0.0000001
 43
0.0000001
 44
0.0000000001
 40
0.0
 40
0.0
 40
0.0
 40
0.0
 40
0.5214212176
 40
0.7671551857
 40
1.0
 40
1.0
 40
1.0
 40
1.0
 10
33.1158149543
 20
15.8384059116
 30
0.0
 10
33.1712770896
 20
15.6848057912
 30
0.0
 10
33.2370368485
 20
15.4522950534
 30
0.0
 10
33.2828471971
 20
15.1421740595
 30
0.0
 10
33.2909596471
 20
14.9921995841
 30
0.0
 10
33.2909596471
 20
14.9192737162
 30
0.0
  0
SPLINE
  5
2A1
100
AcDbEntity
  8
0
100
AcDbSpline
 62
7
  6
BYLAYER
 70
0
 71
3
 72
15
 73
11
 74
0
 42
0.0000001
 43
0.0000001
 44
0.0000000001
 40
0.0
 40
0.0
 40
0.0
 40
0.0
 40
0.1485634656
 40
0.2895070254
 40
0.4227257335
 40
0.5486367082
 40
0.6679993296
 40
0.7819364074
 40
0.8919851004
 40
1.0
 40
1.0
 40
1.0
 40
1.0
 10
12.7848650536
 20
16.797186113
 30
0.0
 10
12.9957109124
 20
16.6754569536
 30
0.0
 10
13.416700739
 20
16.4551080423
 30
0.0
 10
14.058821321
 20
16.1922418416
 30
0.0
 10
14.6895539733
 20
16.0083752833
 30
0.0
 10
15.3028472628
 20
15.9055391016
 30
0.0
 10
15.8930317593
 20
15.8849583488
 30
0.0
 10
16.4544317462
 20
15.9476157894
 30
0.0
 10
16.9810712975
 20
16.0932121778
 30
0.0
 10
17.3065326659
 20
16.2456527124
 30
0.0
 10
17.4598358465
 20
16.3341485666
 30
0.0
  0
SPLINE
  5
2A2
100
AcDbEntity
  8
0
100
AcDbSpline
 62
7
  6
BYLAYER
 70
0
 71
3
 72
26
 73
22
 74
0
 42
0.0000001
 43
0.0000001
 44
0.0000000001
 40
0.0
 40
0.0
 40
0.0
 40
0.0
 40
0.0623757798
 40
0.1287181357
 40
0.1983040956
 40
0.2702775893
 40
0.3436502435
 40
0.4173795299
 40
0.4904013179
 40
0.5616848547
 40
0.6302788033
 40
0.6953630644
 40
0.7563076644
 40
0.8127424057
 40
0.8392661923
 40
0.864688428
 40
0.912461069
 40
0.93510462
 40
0.9571090112
 40
0.9786686983
 40
1.0
 40
1.0
 40
1.0
 40
1.0
 10
12.7848650536
 20
31.2492788962
 30
0.0
 10
13.0848466223
 20
31.0760883749
 30
0.0
 10
13.6808211308
 20
30.6777937139
 30
0.0
 10
14.5248215941
 20
29.9675724557
 30
0.0
 10
15.3315702087
 20
29.139210012
 30
0.0
 10
16.0838724494
 20
28.2105808919
 30
0.0
 10
16.7657675894
 20
27.2012802658
 30
0.0
 10
17.3627313678
 20
26.1328910107
 30
0.0
 10
17.8620054031
 20
25.0281790427
 30
0.0
 10
18.2529477795
 20
23.9106980575
 30
0.0
 10
18.5272387567
 20
22.804196134
 30
0.0
 10
18.6790054558
 20
21.7319549687
 30
0.0
 10
18.7048546494
 20
20.7165904572
 30
0.0
 10
18.6188554741
 20
19.9189761394
 30
0.0
 10
18.4828892764
 20
19.3319481311
 30
0.0
 10
18.3122184694
 20
18.8047010664
 30
0.0
 10
18.0786274474
 20
18.3216216648
 30
0.0
 10
17.7810511579
 20
17.9022930495
 30
0.0
 10
17.5342192509
 20
17.6285659588
 30
0.0
 10
17.2613060793
 20
17.3918556906
 30
0.0
 10
17.0624195148
 20
17.2594140904
 30
0.0
 10
16.9598322198
 20
17.200185338
 30
0.0
  0
SPLINE
  5
2A3
100
AcDbEntity
  8
0
100
AcDbSpline
 62
7
  6
BYLAYER
 70
0
 71
3
 72
19
 73
15
 74
0
 42
0.0000001
 43
0.0000001
 44
0.0000000001
 40
0.0
 40
0.0
 40
0.0
 40
0.0
 40
0.055833641
 40
0.1142076605
 40
0.1748254221
 40
0.237404591
 40
0.36701571
 40
0.4999982915
 40
0.632981645
 40
0.7625917533
 40
0.8251760892
 40
0.8857941665
 40
0.9441479562
 40
1.0
 40
1.0
 40
1.0
 40
1.0
 10
16.5325153909
 20
20.4305844794
 30
0.0
 10
16.3537053614
 20
20.5338181626
 30
0.0
 10
15.9970100858
 20
20.76098089
 30
0.0
 10
15.4795793441
 20
21.1494777456
 30
0.0
 10
14.9722749977
 20
21.5901856149
 30
0.0
 10
14.3083179318
 20
22.2491214657
 30
0.0
 10
13.5365304826
 20
23.1753821176
 30
0.0
 10
12.7336075277
 20
24.4017810814
 30
0.0
 10
12.0729729637
 20
25.7103244474
 30
0.0
 10
11.6566623666
 20
26.8418483266
 30
0.0
 10
11.4179964642
 20
27.7463406408
 30
0.0
 10
11.2899919948
 20
28.4059773731
 30
0.0
 10
11.2122006476
 20
29.0483217664
 30
0.0
 10
11.1938384594
 20
29.47080517
 30
0.0
 10
11.1938369662
 20
29.6773440926
 30
0.0
  0
SPLINE
  5
2A4
100
AcDbEntity
  8
0
100
AcDbSpline
 62
7
  6
BYLAYER
 70
0
 71
3
 72
15
 73
11
 74
0
 42
0.0000001
 43
0.0000001
 44
0.0000000001
 40
0.0
 40
0.0
 40
0.0
 40
0.0
 40
0.1078157043
 40
0.2180334567
 40
0.3323190992
 40
0.4520341771
 40
0.5781698973
 40
0.7113775957
 40
0.8520166604
 40
1.0
 40
1.0
 40
1.0
 40
1.0
 10
12.2697965004
 20
40.0055708446
 30
0.0
 10
12.0573866407
 20
39.8695062939
 30
0.0
 10
11.649956627
 20
39.5581052698
 30
0.0
 10
11.1135991845
 20
38.9910720309
 30
0.0
 10
10.6528290738
 20
38.3270571517
 30
0.0
 10
10.271634754
 20
37.5728976048
 30
0.0
 10
9.9726704611
 20
36.7357385591
 30
0.0
 10
9.7582083571
 20
35.8230003413
 30
0.0
 10
9.6298600957
 20
34.8429941861
 30
0.0
 10
9.6028168271
 20
34.1672842813
 30
0.0
 10
9.6028168271
 20
33.8210525112
 30
0.0
  0
SPLINE
  5
2A5
100
AcDbEntity
  8
0
100
AcDbSpline
 62
7
  6
BYLAYER
 70
0
 71
3
 72
15
 73
11
 74
0
 42
0.0000001
 43
0.0000001
 44
0.0000000001
 40
0.0
 40
0.0
 40
0.0
 40
0.0
 40
0.1080123313
 40
0.2180587787
 40
0.3319941707
 40
0.4513557784
 40
0.5772665129
 40
0.7104867315
 40
0.8514339157
 40
1.0
 40
1.0
 40
1.0
 40
1.0
 10
39.2957217665
 20
55.9278996456
 30
0.0
 10
39.2957095729
 20
56.1172138978
 30
0.0
 10
39.2628617448
 20
56.5001782099
 30
0.0
 10
39.1160913414
 20
57.0658172442
 30
0.0
 10
38.8739086726
 20
57.6193008862
 30
0.0
 10
38.5392351648
 20
58.1549360241
 30
0.0
 10
38.11601014
 20
58.6679893309
 30
0.0
 10
37.6084016166
 20
59.1538687921
 30
0.0
 10
37.0215236462
 20
59.6080469077
 30
0.0
 10
36.5922864313
 20
59.8801468717
 30
0.0
 10
36.3667780247
 20
60.0103412656
 30
0.0
  0
SPLINE
  5
2A6
100
AcDbEntity
  8
0
100
AcDbSpline
 62
7
  6
BYLAYER
 70
0
 71
3
 72
15
 73
11
 74
0
 42
0.0000001
 43
0.0000001
 44
0.0000000001
 40
0.0
 40
0.0
 40
0.0
 40
0.0
 40
0.1080123718
 40
0.2180599367
 40
0.3319979203
 40
0.4513585807
 40
0.5772662592
 40
0.7104904768
 40
0.8514459875
 40
1.0
 40
1.0
 40
1.0
 40
1.0
 10
16.9598322198
 20
17.200185338
 30
0.0
 10
16.822933703
 20
17.1211470092
 30
0.0
 10
16.5322898864
 20
16.9850020701
 30
0.0
 10
16.0619769028
 20
16.8549833613
 30
0.0
 10
15.5606227149
 20
16.7990467004
 30
0.0
 10
15.0335653784
 20
16.8173928988
 30
0.0
 10
14.4858663237
 20
16.9092435118
 30
0.0
 10
13.922568126
 20
17.0734365107
 30
0.0
 10
13.349121898
 20
17.3082152934
 30
0.0
 10
12.9731484361
 20
17.5049855278
 30
0.0
 10
12.7848650536
 20
17.6136885302
 30
0.0
  0
SPLINE
  5
2A7
100
AcDbEntity
  8
0
100
AcDbSpline
 62
7
  6
BYLAYER
 70
0
 71
3
 72
33
 73
29
 74
0
 42
0.0000001
 43
0.0000001
 44
0.0000000001
 40
0.0
 40
0.0
 40
0.0
 40
0.0
 40
0.0321274457
 40
0.0655682548
 40
0.1001867428
 40
0.1358568883
 40
0.2097524365
 40
0.2859443166
 40
0.3629465526
 40
0.4392185911
 40
0.5132664452
 40
0.5490401326
 40
0.5837695493
 40
0.6173242547
 40
0.6496001215
 40
0.6805175231
 40
0.7100332004
 40
0.7381389451
 40
0.7648746897
 40
0.8145533156
 40
0.8379322426
 40
0.8606318235
 40
0.8829522715
 40
0.9052213859
 40
0.9277702442
 40
0.9509104589
 40
0.974914941
 40
1.0
 40
1.0
 40
1.0
 40
1.0
 10
22.9864997898
 20
53.1017825544
 30
0.0
 10
23.1727723652
 20
52.9942404657
 30
0.0
 10
23.5614765248
 20
52.7893013783
 30
0.0
 10
24.1752924744
 20
52.5177780024
 30
0.0
 10
24.8275318515
 20
52.2779948153
 30
0.0
 10
25.7523333568
 20
51.9997176591
 30
0.0
 10
26.9721972864
 20
51.74423976
 30
0.0
 10
28.4870436671
 20
51.5885042149
 30
0.0
 10
30.0258654442
 20
51.5845932191
 30
0.0
 10
31.5430402596
 20
51.7326339844
 30
0.0
 10
32.7664770318
 20
51.9818439131
 30
0.0
 10
33.695260661
 20
52.2553453986
 30
0.0
 10
34.3510586126
 20
52.4917368408
 30
0.0
 10
34.9690301805
 20
52.7600719891
 30
0.0
 10
35.5446458895
 20
53.0582382901
 30
0.0
 10
36.0735622184
 20
53.3842195011
 30
0.0
 10
36.5518903549
 20
53.7354495421
 30
0.0
 10
36.9760765501
 20
54.1097540394
 30
0.0
 10
37.4531874978
 20
54.622495848
 30
0.0
 10
37.8287515548
 20
55.1844254947
 30
0.0
 10
38.0719151775
 20
55.7795145317
 30
0.0
 10
38.1843269464
 20
56.2251199506
 30
0.0
 10
38.2288527236
 20
56.6750978832
 30
0.0
 10
38.205268792
 20
57.1256718885
 30
0.0
 10
38.1136169593
 20
57.572985889
 30
0.0
 10
37.9550538791
 20
58.0134227984
 30
0.0
 10
37.730986254
 20
58.4434090996
 30
0.0
 10
37.5438217656
 20
58.7146361896
 30
0.0
 10
37.440990097
 20
58.8474125838
 30
0.0
  0
SPLINE
  5
2A8
100
AcDbEntity
  8
0
100
AcDbSpline
 62
7
  6
BYLAYER
 70
0
 71
3
 72
26
 73
22
 74
0
 42
0.0000001
 43
0.0000001
 44
0.0000000001
 40
0.0
 40
0.0
 40
0.0
 40
0.0
 40
0.0213311985
 40
0.042890915
 40
0.0648951777
 40
0.0875392047
 40
0.1109873514
 40
0.1353733774
 40
0.1872713571
 40
0.2437054733
 40
0.3046493336
 40
0.3697327388
 40
0.4383254686
 40
0.5096072396
 40
0.5826267398
 40
0.6563537397
 40
0.7297251402
 40
0.8016969593
 40
0.8712833884
 40
0.9376225566
 40
1.0
 40
1.0
 40
1.0
 40
1.0
 10
17.4598358465
 20
16.3341485666
 30
0.0
 10
17.5747145196
 20
16.4004634746
 30
0.0
 10
17.7974004716
 20
16.5488005989
 30
0.0
 10
18.103013747
 20
16.8138525291
 30
0.0
 10
18.3794151412
 20
17.1203322515
 30
0.0
 10
18.6249365947
 20
17.4664339291
 30
0.0
 10
18.8384992948
 20
17.8500814993
 30
0.0
 10
19.0840444336
 20
18.4205533049
 30
0.0
 10
19.3006408586
 20
19.2216340113
 30
0.0
 10
19.4138212405
 20
20.2715926187
 30
0.0
 10
19.3849094286
 20
21.4087608514
 30
0.0
 10
19.2149516995
 20
22.60935329
 30
0.0
 10
18.9078028485
 20
23.8483785171
 30
0.0
 10
18.4700301841
 20
25.099665618
 30
0.0
 10
17.9109659358
 20
26.3366578164
 30
0.0
 10
17.2425230012
 20
27.5329851602
 30
0.0
 10
16.4789742137
 20
28.6631503725
 30
0.0
 10
15.6365852052
 20
29.7030048419
 30
0.0
 10
14.7332159641
 20
30.630554894
 30
0.0
 10
13.7881417733
 20
31.4258535549
 30
0.0
 10
13.1207861508
 20
31.871841565
 30
0.0
 10
12.7848650536
 20
32.0657813134
 30
0.0
  0
SPLINE
  5
2A9
100
AcDbEntity
  8
0
100
AcDbSpline
 62
7
  6
BYLAYER
 70
0
 71
3
 72
9
 73
5
 74
0
 42
0.0000001
 43
0.0000001
 44
0.0000000001
 40
0.0
 40
0.0
 40
0.0
 40
0.0
 40
0.488824008
 40
1.0
 40
1.0
 40
1.0
 40
1.0
 10
32.8456626803
 20
33.5311027689
 30
0.0
 10
32.7897200418
 20
33.4988171844
 30
0.0
 10
32.6656756284
 20
33.4482713093
 30
0.0
 10
32.5331222771
 20
33.4316088729
 30
0.0
 10
32.4655870655
 20
33.4305187845
 30
0.0
  0
SPLINE
  5
2AA
100
AcDbEntity
  8
0
100
AcDbSpline
 62
7
  6
BYLAYER
 70
0
 71
3
 72
10
 73
6
 74
0
 42
0.0000001
 43
0.0000001
 44
0.0000000001
 40
0.0
 40
0.0
 40
0.0
 40
0.0
 40
0.5130443089
 40
0.7583324675
 40
1.0
 40
1.0
 40
1.0
 40
1.0
 10
30.3933587852
 20
36.9314373902
 30
0.0
 10
30.4291264669
 20
36.9991712383
 30
0.0
 10
30.4944857307
 20
37.0938155199
 30
0.0
 10
30.6041273571
 20
37.1957448646
 30
0.0
 10
30.6644345843
 20
37.2369608254
 30
0.0
 10
30.6956847957
 20
37.2549959301
 30
0.0
  0
SPLINE
  5
2AB
100
AcDbEntity
  8
0
100
AcDbSpline
 62
7
  6
BYLAYER
 70
0
 71
3
 72
15
 73
11
 74
0
 42
0.0000001
 43
0.0000001
 44
0.0000000001
 40
0.0
 40
0.0
 40
0.0
 40
0.0
 40
0.1080134886
 40
0.2180610782
 40
0.3319974163
 40
0.4513595351
 40
0.5772701869
 40
0.7104897268
 40
0.8514356726
 40
1.0
 40
1.0
 40
1.0
 40
1.0
 10
15.3577086258
 20
36.7133213861
 30
0.0
 10
15.5110097164
 20
36.8018162151
 30
0.0
 10
15.836467039
 20
36.9542555025
 30
0.0
 10
16.3631011287
 20
37.0998514975
 30
0.0
 10
16.924497004
 20
37.1625098003
 30
0.0
 10
17.5146790414
 20
37.1419329369
 30
0.0
 10
18.1279725628
 20
37.0390982285
 30
0.0
 10
18.7587107427
 20
36.8552335566
 30
0.0
 10
19.4008369081
 20
36.5923633217
 30
0.0
 10
19.8218323152
 20
36.3720137492
 30
0.0
 10
20.0326793851
 20
36.2502838905
 30
0.0
  0
SPLINE
  5
2AC
100
AcDbEntity
  8
0
100
AcDbSpline
 62
7
  6
BYLAYER
 70
0
 71
3
 72
24
 73
20
 74
0
 42
0.0000001
 43
0.0000001
 44
0.0000000001
 40
0.0
 40
0.0
 40
0.0
 40
0.0
 40
0.078478973
 40
0.156107324
 40
0.2324528222
 40
0.3071070404
 40
0.3796939169
 40
0.4498785078
 40
0.5173798572
 40
0.581978227
 40
0.6435308666
 40
0.701987079
 40
0.7574008128
 40
0.7840298346
 40
0.8099764045
 40
0.8599820607
 40
0.9079026261
 40
0.9543384032
 40
1.0
 40
1.0
 40
1.0
 40
1.0
 10
25.6080599515
 20
33.1489876789
 30
0.0
 10
25.3788785365
 20
33.5053695579
 30
0.0
 10
24.9038402697
 20
34.202167415
 30
0.0
 10
24.1409535582
 20
35.1994775749
 30
0.0
 10
23.3366221769
 20
36.1367175611
 30
0.0
 10
22.4978350235
 20
37.0058523049
 30
0.0
 10
21.6317481315
 20
37.7994272633
 30
0.0
 10
20.7457303051
 20
38.5106131977
 30
0.0
 10
19.8473616556
 20
39.1333808524
 30
0.0
 10
18.944214104
 20
39.6623347108
 30
0.0
 10
18.0438763161
 20
40.0929150722
 30
0.0
 10
17.1540031052
 20
40.4213828149
 30
0.0
 10
16.4175236422
 20
40.6098812803
 30
0.0
 10
15.8419399715
 20
40.7048361176
 30
0.0
 10
15.290754184
 20
40.761745226
 30
0.0
 10
14.6198623591
 20
40.7675217585
 30
0.0
 10
13.8444482114
 20
40.6647945141
 30
0.0
 10
13.1157417939
 20
40.4529000086
 30
0.0
 10
12.6641205572
 20
40.238850716
 30
0.0
 10
12.450613756
 20
40.1155963187
 30
0.0
  0
SPLINE
  5
2AD
100
AcDbEntity
  8
0
100
AcDbSpline
 62
7
  6
BYLAYER
 70
0
 71
3
 72
21
 73
17
 74
0
 42
0.0000001
 43
0.0000001
 44
0.0000000001
 40
0.0
 40
0.0
 40
0.0
 40
0.0
 40
0.0461292899
 40
0.0937054848
 40
0.1431294061
 40
0.1947501686
 40
0.248819813
 40
0.3054884498
 40
0.3648238197
 40
0.4268216858
 40
0.4914088673
 40
0.5584589181
 40
0.6991439222
 40
0.7723624891
 40
0.8471221372
 40
1.0
 40
1.0
 40
1.0
 40
1.0
 10
14.0929576938
 20
40.9335603347
 30
0.0
 10
14.3042637459
 20
40.9998428616
 30
0.0
 10
14.7433563856
 20
41.1047732923
 30
0.0
 10
15.4284463903
 20
41.1766414565
 30
0.0
 10
16.143488061
 20
41.1645315231
 30
0.0
 10
16.8834129597
 20
41.0689498754
 30
0.0
 10
17.6434991713
 20
40.8908197656
 30
0.0
 10
18.4188180162
 20
40.6314578166
 30
0.0
 10
19.2043808541
 20
40.2927345846
 30
0.0
 10
19.9950649412
 20
39.8768871892
 30
0.0
 10
20.7858414292
 20
39.3867704228
 30
0.0
 10
21.8502141607
 20
38.6263492783
 30
0.0
 10
22.8733368835
 20
37.7419940046
 30
0.0
 10
23.8464929106
 20
36.7547430635
 30
0.0
 10
24.8061378168
 20
35.6745970715
 30
0.0
 10
25.4699380609
 20
34.8035994503
 30
0.0
 10
25.8869863287
 20
34.199666472
 30
0.0
  0
SPLINE
  5
2AE
100
AcDbEntity
  8
0
100
AcDbSpline
 62
7
  6
BYLAYER
 70
0
 71
3
 72
9
 73
5
 74
0
 42
0.0000001
 43
0.0000001
 44
0.0000000001
 40
0.0
 40
0.0
 40
0.0
 40
0.0
 40
0.488824008
 40
1.0
 40
1.0
 40
1.0
 40
1.0
 10
32.8456626803
 20
13.9350447578
 30
0.0
 10
32.7897200418
 20
13.9027591732
 30
0.0
 10
32.6656756284
 20
13.8522132982
 30
0.0
 10
32.5331222771
 20
13.8355508618
 30
0.0
 10
32.4655870655
 20
13.8344607734
 30
0.0
  0
SPLINE
  5
2AF
100
AcDbEntity
  8
0
100
AcDbSpline
 62
7
  6
BYLAYER
 70
0
 71
3
 72
26
 73
22
 74
0
 42
0.0000001
 43
0.0000001
 44
0.0000000001
 40
0.0
 40
0.0
 40
0.0
 40
0.0
 40
0.0623767309
 40
0.1287150539
 40
0.1983014471
 40
0.2702735134
 40
0.3436456214
 40
0.4173736378
 40
0.4903942739
 40
0.561677051
 40
0.6302704397
 40
0.6953540516
 40
0.756297739
 40
0.8127313958
 40
0.8646287129
 40
0.8890143679
 40
0.9124621325
 40
0.935105777
 40
0.9571096953
 40
0.9786690861
 40
1.0
 40
1.0
 40
1.0
 40
1.0
 10
20.0326793851
 20
36.2502838905
 30
0.0
 10
20.368596649
 20
36.0563463552
 30
0.0
 10
21.0359452806
 20
35.6103653848
 30
0.0
 10
21.9810122917
 20
34.8150736049
 30
0.0
 10
22.8843817093
 20
33.8875292581
 30
0.0
 10
23.7267754671
 20
32.8476711622
 30
0.0
 10
24.4903322893
 20
31.7174965477
 30
0.0
 10
25.158783968
 20
30.5211536214
 30
0.0
 10
25.7178551819
 20
29.2841429274
 30
0.0
 10
26.1556307125
 20
28.0328382661
 30
0.0
 10
26.462777228
 20
26.7938003451
 30
0.0
 10
26.6327283569
 20
25.5932025492
 30
0.0
 10
26.6616324634
 20
24.4560367184
 30
0.0
 10
26.5484451976
 20
23.4060869918
 30
0.0
 10
26.3318456727
 20
22.6050167311
 30
0.0
 10
26.0862995306
 20
22.0345550098
 30
0.0
 10
25.8727384385
 20
21.650914576
 30
0.0
 10
25.6272175223
 20
21.3048210505
 30
0.0
 10
25.3508204215
 20
20.9983463656
 30
0.0
 10
25.0452102393
 20
20.7332998513
 30
0.0
 10
24.8225272274
 20
20.5849653206
 30
0.0
 10
24.7076501443
 20
20.5186511947
 30
0.0
  0
SPLINE
  5
2B0
100
AcDbEntity
  8
0
100
AcDbSpline
 62
7
  6
BYLAYER
 70
0
 71
3
 72
15
 73
11
 74
0
 42
0.0000001
 43
0.0000001
 44
0.0000000001
 40
0.0
 40
0.0
 40
0.0
 40
0.0
 40
0.1485634656
 40
0.2895070254
 40
0.4227257335
 40
0.5486367082
 40
0.6679993296
 40
0.7819364074
 40
0.8919851004
 40
1.0
 40
1.0
 40
1.0
 40
1.0
 10
12.7848650536
 20
32.0657813134
 30
0.0
 10
12.5740191948
 20
32.1875104728
 30
0.0
 10
12.1530293682
 20
32.4078593841
 30
0.0
 10
11.5109087862
 20
32.6707255848
 30
0.0
 10
10.880176134
 20
32.8545921431
 30
0.0
 10
10.2668828444
 20
32.9574283248
 30
0.0
 10
9.6766983479
 20
32.9780090776
 30
0.0
 10
9.1152983611
 20
32.915351637
 30
0.0
 10
8.5886588098
 20
32.7697552486
 30
0.0
 10
8.2631974413
 20
32.617314714
 30
0.0
 10
8.1098942608
 20
32.5288188598
 30
0.0
  0
SPLINE
  5
2B1
100
AcDbEntity
  8
0
100
AcDbSpline
 62
7
  6
BYLAYER
 70
0
 71
3
 72
26
 73
22
 74
0
 42
0.0000001
 43
0.0000001
 44
0.0000000001
 40
0.0
 40
0.0
 40
0.0
 40
0.0
 40
0.0623757798
 40
0.1287181357
 40
0.1983040956
 40
0.2702775893
 40
0.3436502435
 40
0.4173795299
 40
0.4904013179
 40
0.5616848547
 40
0.6302788033
 40
0.6953630644
 40
0.7563076644
 40
0.8127424057
 40
0.8392661923
 40
0.864688428
 40
0.912461069
 40
0.93510462
 40
0.9571090112
 40
0.9786686983
 40
1.0
 40
1.0
 40
1.0
 40
1.0
 10
12.7848650536
 20
17.6136885302
 30
0.0
 10
12.4848834849
 20
17.7868790515
 30
0.0
 10
11.8889089764
 20
18.1851737125
 30
0.0
 10
11.0449085132
 20
18.8953949707
 30
0.0
 10
10.2381598986
 20
19.7237574144
 30
0.0
 10
9.4858576578
 20
20.6523865345
 30
0.0
 10
8.8039625179
 20
21.6616871606
 30
0.0
 10
8.2069987395
 20
22.7300764157
 30
0.0
 10
7.7077247041
 20
23.8347883837
 30
0.0
 10
7.3167823278
 20
24.9522693689
 30
0.0
 10
7.0424913506
 20
26.0587712923
 30
0.0
 10
6.8907246514
 20
27.1310124577
 30
0.0
 10
6.8648754578
 20
28.1463769692
 30
0.0
 10
6.9508746332
 20
28.943991287
 30
0.0
 10
7.0868408309
 20
29.5310192953
 30
0.0
 10
7.2575116378
 20
30.05826636
 30
0.0
 10
7.4911026599
 20
30.5413457616
 30
0.0
 10
7.7886789494
 20
30.9606743769
 30
0.0
 10
8.0355108563
 20
31.2344014676
 30
0.0
 10
8.3084240279
 20
31.4711117358
 30
0.0
 10
8.5073105925
 20
31.603553336
 30
0.0
 10
8.6098978874
 20
31.6627820884
 30
0.0
  0
SPLINE
  5
2B2
100
AcDbEntity
  8
0
100
AcDbSpline
 62
7
  6
BYLAYER
 70
0
 71
3
 72
10
 73
6
 74
0
 42
0.0000001
 43
0.0000001
 44
0.0000000001
 40
0.0
 40
0.0
 40
0.0
 40
0.0
 40
0.5130443089
 40
0.7583324675
 40
1.0
 40
1.0
 40
1.0
 40
1.0
 10
13.4227253817
 20
46.7292154987
 30
0.0
 10
13.4584930634
 20
46.7969493467
 30
0.0
 10
13.5238523271
 20
46.8915936284
 30
0.0
 10
13.6334939536
 20
46.9935229731
 30
0.0
 10
13.6938011808
 20
47.0347389338
 30
0.0
 10
13.7250513922
 20
47.0527740386
 30
0.0
  0
SPLINE
  5
2B3
100
AcDbEntity
  8
0
100
AcDbSpline
 62
7
  6
BYLAYER
 70
0
 71
3
 72
9
 73
5
 74
0
 42
0.0000001
 43
0.0000001
 44
0.0000000001
 40
0.0
 40
0.0
 40
0.0
 40
0.0
 40
0.5201279792
 40
1.0
 40
1.0
 40
1.0
 40
1.0
 10
16.6739361583
 20
19.8590313765
 30
0.0
 10
16.9484682632
 20
19.7005337775
 30
0.0
 10
17.4952987977
 20
19.4270549784
 30
0.0
 10
18.0770104637
 20
19.2353950615
 30
0.0
 10
18.3618552546
 20
19.169064385
 30
0.0
  0
SPLINE
  5
2B4
100
AcDbEntity
  8
0
100
AcDbSpline
 62
7
  6
BYLAYER
 70
0
 71
3
 72
10
 73
6
 74
0
 42
0.0000001
 43
0.0000001
 44
0.0000000001
 40
0.0
 40
0.0
 40
0.0
 40
0.0
 40
0.4756874719
 40
0.731917717
 40
1.0
 40
1.0
 40
1.0
 40
1.0
 10
18.5154385777
 20
19.6537341921
 30
0.0
 10
18.2061472833
 20
19.7048713914
 30
0.0
 10
17.7382140102
 20
19.8377778178
 30
0.0
 10
17.132699814
 20
20.0986004282
 30
0.0
 10
16.8269404046
 20
20.2605977823
 30
0.0
 10
16.6739361583
 20
20.3489328267
 30
0.0
  0
SPLINE
  5
2B5
100
AcDbEntity
  8
0
100
AcDbSpline
 62
7
  6
BYLAYER
 70
0
 71
3
 72
10
 73
6
 74
0
 42
0.0000001
 43
0.0000001
 44
0.0000000001
 40
0.0
 40
0.0
 40
0.0
 40
0.0
 40
0.2708698741
 40
0.5279598278
 40
1.0
 40
1.0
 40
1.0
 40
1.0
 10
16.5325153909
 20
20.4305844794
 30
0.0
 10
16.7018855525
 20
20.3328007831
 30
0.0
 10
17.0402326575
 20
20.1556630843
 30
0.0
 10
17.7084962469
 20
19.8813849818
 30
0.0
 10
18.2262304925
 20
19.7558738507
 30
0.0
 10
18.5652966657
 20
19.7213659408
 30
0.0
  0
SPLINE
  5
2B6
100
AcDbEntity
  8
0
100
AcDbSpline
 62
7
  6
BYLAYER
 70
0
 71
3
 72
10
 73
6
 74
0
 42
0.0000001
 43
0.0000001
 44
0.0000000001
 40
0.0
 40
0.0
 40
0.0
 40
0.0
 40
0.2703384869
 40
0.5272677114
 40
1.0
 40
1.0
 40
1.0
 40
1.0
 10
16.6739361583
 20
20.6755337936
 30
0.0
 10
16.8350638538
 20
20.5825087797
 30
0.0
 10
17.1569661271
 20
20.4135968409
 30
0.0
 10
17.7930834094
 20
20.1500557934
 30
0.0
 10
18.2856825937
 20
20.0267105375
 30
0.0
 10
18.6089325541
 20
19.9898458249
 30
0.0
  0
SPLINE
  5
2B7
100
AcDbEntity
  8
0
100
AcDbSpline
 62
7
  6
BYLAYER
 70
0
 71
3
 72
23
 73
19
 74
0
 42
0.0000001
 43
0.0000001
 44
0.0000000001
 40
0.0
 40
0.0
 40
0.0
 40
0.0
 40
0.0587969765
 40
0.120849441
 40
0.1856655511
 40
0.2527326448
 40
0.3214261474
 40
0.3910710974
 40
0.4609683621
 40
0.5304055212
 40
0.5986862806
 40
0.6651501932
 40
0.7291980969
 40
0.7903172611
 40
0.8481073679
 40
0.9023198486
 40
0.9528942403
 40
1.0
 40
1.0
 40
1.0
 40
1.0
 10
16.6739361583
 20
21.0429598813
 30
0.0
 10
16.4669091683
 20
21.1624842657
 30
0.0
 10
16.0546900636
 20
21.4316895183
 30
0.0
 10
15.463768337
 20
21.9029257681
 30
0.0
 10
14.8912196922
 20
22.4463923707
 30
0.0
 10
14.3457562575
 20
23.0536865541
 30
0.0
 10
13.8354604273
 20
23.715723763
 30
0.0
 10
13.3680703002
 20
24.4225177757
 30
0.0
 10
12.9506734294
 20
25.1634036141
 30
0.0
 10
12.5895373983
 20
25.9271654345
 30
0.0
 10
12.2901176515
 20
26.7022599659
 30
0.0
 10
12.0569908109
 20
27.4770158417
 30
0.0
 10
11.8936276479
 20
28.2397644467
 30
0.0
 10
11.8025043222
 20
28.9790953178
 30
0.0
 10
11.7851238549
 20
29.6839988772
 30
0.0
 10
11.8419130057
 20
30.3441207657
 30
0.0
 10
11.9722350398
 20
30.9495566814
 30
0.0
 10
12.1121810778
 20
31.3233218224
 30
0.0
 10
12.1946081316
 20
31.4961960041
 30
0.0
  0
SPLINE
  5
2B8
100
AcDbEntity
  8
0
100
AcDbSpline
 62
7
  6
BYLAYER
 70
0
 71
3
 72
10
 73
6
 74
0
 42
0.0000001
 43
0.0000001
 44
0.0000000001
 40
0.0
 40
0.0
 40
0.0
 40
0.0
 40
0.470708002
 40
0.7281241935
 40
1.0
 40
1.0
 40
1.0
 40
1.0
 10
18.6113375098
 20
20.3876492999
 30
0.0
 10
18.2892317012
 20
20.4126593211
 30
0.0
 10
17.7953049379
 20
20.5247341012
 30
0.0
 10
17.1583688063
 20
20.7814059106
 30
0.0
 10
16.8355415451
 20
20.9496590785
 30
0.0
 10
16.6739361583
 20
21.0429598813
 30
0.0
  0
SPLINE
  5
2B9
100
AcDbEntity
  8
0
100
AcDbSpline
 62
7
  6
BYLAYER
 70
0
 71
3
 72
15
 73
11
 74
0
 42
0.0000001
 43
0.0000001
 44
0.0000000001
 40
0.0
 40
0.0
 40
0.0
 40
0.0
 40
0.1485651051
 40
0.2895098187
 40
0.4227292061
 40
0.5486402875
 40
0.6680024427
 40
0.7819386286
 40
0.8919862284
 40
1.0
 40
1.0
 40
1.0
 40
1.0
 10
22.2247012804
 20
43.35383305
 30
0.0
 10
21.9991943493
 20
43.484026592
 30
0.0
 10
21.5699610046
 20
43.7561215012
 30
0.0
 10
20.9830900314
 20
44.2102963661
 30
0.0
 10
20.4754827036
 20
44.696169522
 30
0.0
 10
20.0522562891
 20
45.2092218513
 30
0.0
 10
19.7175776531
 20
45.744857315
 30
0.0
 10
19.4753919176
 20
46.298344535
 30
0.0
 10
19.3286185908
 20
46.8639889978
 30
0.0
 10
19.2957700262
 20
47.246957891
 30
0.0
 10
19.2957576746
 20
47.4362746768
 30
0.0
  0
SPLINE
  5
2BA
100
AcDbEntity
  8
0
100
AcDbSpline
 62
7
  6
BYLAYER
 70
0
 71
3
 72
11
 73
7
 74
0
 42
0.0000001
 43
0.0000001
 44
0.0000000001
 40
0.0
 40
0.0
 40
0.0
 40
0.0
 40
0.2471116369
 40
0.5005226597
 40
0.753662231
 40
1.0
 40
1.0
 40
1.0
 40
1.0
 10
15.3557672764
 20
28.9352320096
 30
0.0
 10
15.4829914367
 20
28.5110576236
 30
0.0
 10
15.7961336946
 20
27.6677520528
 30
0.0
 10
16.4109497981
 20
26.4620480195
 30
0.0
 10
17.157254147
 20
25.3346518521
 30
0.0
 10
17.7364638444
 20
24.6487805778
 30
0.0
 10
18.0424860349
 20
24.330607759
 30
0.0
  0
SPLINE
  5
2BB
100
AcDbEntity
  8
0
100
AcDbSpline
 62
7
  6
BYLAYER
 70
0
 71
3
 72
15
 73
11
 74
0
 42
0.0000001
 43
0.0000001
 44
0.0000000001
 40
0.0
 40
0.0
 40
0.0
 40
0.0
 40
0.1080125539
 40
0.2180607767
 40
0.3319980125
 40
0.4513585441
 40
0.577275767
 40
0.7104913654
 40
0.8514207096
 40
1.0
 40
1.0
 40
1.0
 40
1.0
 10
26.2005373397
 20
16.2998879543
 30
0.0
 10
26.4259820247
 20
16.4300339197
 30
0.0
 10
26.8593982159
 20
16.7325099861
 30
0.0
 10
27.432131121
 20
17.2961093112
 30
0.0
 10
27.9246764054
 20
17.9650788314
 30
0.0
 10
28.3324836844
 20
18.7318540766
 30
0.0
 10
28.6524410511
 20
19.5885821708
 30
0.0
 10
28.8820341661
 20
20.5270579982
 30
0.0
 10
29.0194463726
 20
21.5381454152
 30
0.0
 10
29.0483342686
 20
22.2363507854
 30
0.0
 10
29.0483342686
 20
22.5944317619
 30
0.0
  0
SPLINE
  5
2BC
100
AcDbEntity
  8
0
100
AcDbSpline
 62
7
  6
BYLAYER
 70
0
 71
3
 72
14
 73
10
 74
0
 42
0.0000001
 43
0.0000001
 44
0.0000000001
 40
0.0
 40
0.0
 40
0.0
 40
0.0
 40
0.1454356854
 40
0.284647197
 40
0.5439840693
 40
0.6649392146
 40
0.7806808476
 40
0.8920435161
 40
1.0
 40
1.0
 40
1.0
 40
1.0
 10
29.7554381058
 20
23.0026759157
 30
0.0
 10
29.7554381058
 20
22.7017455329
 30
0.0
 10
29.7349159185
 20
22.1123812593
 30
0.0
 10
29.6091171612
 20
20.9932809547
 30
0.0
 10
29.3564781351
 20
19.9406878366
 30
0.0
 10
28.9638259869
 20
18.9905127465
 30
0.0
 10
28.615089401
 20
18.3584206664
 30
0.0
 10
28.2076341489
 20
17.7953392247
 30
0.0
 10
27.8946615511
 20
17.4644634311
 30
0.0
 10
27.7301947876
 20
17.3133039348
 30
0.0
  0
SPLINE
  5
2BD
100
AcDbEntity
  8
0
100
AcDbSpline
 62
7
  6
BYLAYER
 70
0
 71
3
 72
12
 73
8
 74
0
 42
0.0000001
 43
0.0000001
 44
0.0000000001
 40
0.0
 40
0.0
 40
0.0
 40
0.0
 40
0.2665054018
 40
0.5245003643
 40
0.7700286442
 40
0.8871529114
 40
1.0
 40
1.0
 40
1.0
 40
1.0
 10
27.7953878006
 20
30.8942238457
 30
0.0
 10
28.1072512463
 20
30.236645071
 30
0.0
 10
28.6612290644
 20
28.9129364785
 30
0.0
 10
29.2796587178
 20
26.8996496423
 30
0.0
 10
29.6031645094
 20
25.2317361973
 30
0.0
 10
29.7330547435
 20
23.9390380726
 30
0.0
 10
29.7554381058
 20
23.3108431626
 30
0.0
 10
29.7554381058
 20
23.0026759157
 30
0.0
  0
SPLINE
  5
2BE
100
AcDbEntity
  8
0
100
AcDbSpline
 62
7
  6
BYLAYER
 70
0
 71
3
 72
20
 73
16
 74
0
 42
0.0000001
 43
0.0000001
 44
0.0000000001
 40
0.0
 40
0.0
 40
0.0
 40
0.0
 40
0.1233425027
 40
0.1818833123
 40
0.2388941703
 40
0.294931006
 40
0.3506038761
 40
0.4065403825
 40
0.4633563422
 40
0.5216192879
 40
0.5818285053
 40
0.7094410867
 40
0.7775418843
 40
0.8486816546
 40
1.0
 40
1.0
 40
1.0
 40
1.0
 10
21.1504813377
 20
58.8474146194
 30
0.0
 10
20.9749378695
 20
58.6207698182
 30
0.0
 10
20.7462295596
 20
58.2601545828
 30
0.0
 10
20.5346395441
 20
57.7456808497
 30
0.0
 10
20.4284827136
 20
57.3601348793
 30
0.0
 10
20.3732072353
 20
56.970807848
 30
0.0
 10
20.3691431456
 20
56.5800630484
 30
0.0
 10
20.416286412
 20
56.19034126
 30
0.0
 10
20.5143898399
 20
55.8040841816
 30
0.0
 10
20.6626059888
 20
55.4235238581
 30
0.0
 10
20.9309223263
 20
54.9172180027
 30
0.0
 10
21.2944266808
 20
54.4404868593
 30
0.0
 10
21.7331719404
 20
54.0014513194
 30
0.0
 10
22.2491649406
 20
53.5647288196
 30
0.0
 10
22.6819180228
 20
53.2776289413
 30
0.0
 10
22.9864997898
 20
53.1017825544
 30
0.0
  0
SPLINE
  5
2BF
100
AcDbEntity
  8
0
100
AcDbSpline
 62
7
  6
BYLAYER
 70
0
 71
3
 72
32
 73
28
 74
0
 42
0.0000001
 43
0.0000001
 44
0.0000000001
 40
0.0
 40
0.0
 40
0.0
 40
0.0
 40
0.0250853806
 40
0.0490888663
 40
0.0722288497
 40
0.0947774624
 40
0.1170464787
 40
0.1393667666
 40
0.1620660158
 40
0.1854452921
 40
0.2097603966
 40
0.2352137902
 40
0.2619486416
 40
0.290054934
 40
0.3195694698
 40
0.3504872402
 40
0.4162776898
 40
0.4867472383
 40
0.5607924489
 40
0.637061481
 40
0.714060923
 40
0.7902507018
 40
0.8641451629
 40
0.8998150713
 40
0.9344314134
 40
0.9678708126
 40
1.0
 40
1.0
 40
1.0
 40
1.0
 10
37.968035822
 20
58.166987373
 30
0.0
 10
38.077525693
 20
58.0256155809
 30
0.0
 10
38.2768365582
 20
57.736857783
 30
0.0
 10
38.515349309
 20
57.2790185344
 30
0.0
 10
38.6842250338
 20
56.8101007653
 30
0.0
 10
38.7817360976
 20
56.3338241279
 30
0.0
 10
38.8069275267
 20
55.8540945063
 30
0.0
 10
38.7594165245
 20
55.3749956676
 30
0.0
 10
38.6398388145
 20
54.9005636418
 30
0.0
 10
38.4493149736
 20
54.4346802726
 30
0.0
 10
38.1897999348
 20
53.9808543512
 30
0.0
 10
37.8634203776
 20
53.542487914
 30
0.0
 10
37.4729639118
 20
53.122595502
 30
0.0
 10
37.0213446862
 20
52.7242714589
 30
0.0
 10
36.5120761724
 20
52.3501925266
 30
0.0
 10
35.7453393159
 20
51.8778328035
 30
0.0
 10
34.6629489393
 20
51.3693971737
 30
0.0
 10
33.2335973352
 20
50.9066473536
 30
0.0
 10
31.6884767818
 20
50.5918442596
 30
0.0
 10
30.0730667046
 20
50.434226057
 30
0.0
 10
28.4347238875
 20
50.4383891053
 30
0.0
 10
26.8218600173
 20
50.6041876589
 30
0.0
 10
25.5230653685
 20
50.8762052396
 30
0.0
 10
24.5384255657
 20
51.1724800913
 30
0.0
 10
23.8439944821
 20
51.4277748301
 30
0.0
 10
23.1904552111
 20
51.7168578086
 30
0.0
 10
22.7765933887
 20
51.9350710937
 30
0.0
 10
22.578253199
 20
52.0495802651
 30
0.0
  0
SPLINE
  5
2C0
100
AcDbEntity
  8
0
100
AcDbSpline
 62
7
  6
BYLAYER
 70
0
 71
3
 72
26
 73
22
 74
0
 42
0.0000001
 43
0.0000001
 44
0.0000000001
 40
0.0
 40
0.0
 40
0.0
 40
0.0
 40
0.0623770807
 40
0.1287158321
 40
0.198302655
 40
0.2702751414
 40
0.3436477961
 40
0.4173763201
 40
0.4903972423
 40
0.5616802303
 40
0.6302737207
 40
0.6953573206
 40
0.7563008561
 40
0.8127341994
 40
0.8646310266
 40
0.8890163727
 40
0.9124637881
 40
0.9351070459
 40
0.957110545
 40
0.9786695019
 40
1.0
 40
1.0
 40
1.0
 40
1.0
 10
22.2247012804
 20
51.8454581882
 30
0.0
 10
22.5839692039
 20
51.6380394483
 30
0.0
 10
23.353924069
 20
51.2584287293
 30
0.0
 10
24.5959311159
 20
50.8083880851
 30
0.0
 10
25.9381332129
 20
50.4676884597
 30
0.0
 10
27.351754684
 20
50.2435227436
 30
0.0
 10
28.8068703026
 20
50.1406720099
 30
0.0
 10
30.2724131637
 20
50.1612895767
 30
0.0
 10
31.7171295847
 20
50.3049623396
 30
0.0
 10
33.1102200786
 20
50.5686217353
 30
0.0
 10
34.4220937656
 20
50.9467098092
 30
0.0
 10
35.6249970523
 20
51.4313122153
 30
0.0
 10
36.6937224885
 20
52.0126322484
 30
0.0
 10
37.6056822959
 20
52.6789188587
 30
0.0
 10
38.2318249927
 20
53.3078999311
 30
0.0
 10
38.6288933461
 20
53.8403753522
 30
0.0
 10
38.8700273232
 20
54.243324413
 30
0.0
 10
39.0592937974
 20
54.6557967999
 30
0.0
 10
39.1953539606
 20
55.0756807443
 30
0.0
 10
39.2774201431
 20
55.5004689491
 30
0.0
 10
39.2957309036
 20
55.7860392041
 30
0.0
 10
39.2957217665
 20
55.9278996456
 30
0.0
  0
SPLINE
  5
2C1
100
AcDbEntity
  8
0
100
AcDbSpline
 62
7
  6
BYLAYER
 70
0
 71
3
 72
26
 73
22
 74
0
 42
0.0000001
 43
0.0000001
 44
0.0000000001
 40
0.0
 40
0.0
 40
0.0
 40
0.0
 40
0.0213308052
 40
0.0428901086
 40
0.0648939687
 40
0.0875376265
 40
0.1109854407
 40
0.1353711709
 40
0.1872686891
 40
0.2437025206
 40
0.3046462566
 40
0.3697296738
 40
0.4383225202
 40
0.509604501
 40
0.5826242672
 40
0.656351729
 40
0.7297236142
 40
0.8016957881
 40
0.8712826023
 40
0.9376221837
 40
1.0
 40
1.0
 40
1.0
 40
1.0
 10
39.2957216305
 20
47.4362745007
 30
0.0
 10
39.295730886
 20
47.2944120187
 30
0.0
 10
39.277419642
 20
47.0088373286
 30
0.0
 10
39.1953494452
 20
46.5840430747
 30
0.0
 10
39.0592870818
 20
46.1641520347
 30
0.0
 10
38.8700128115
 20
45.7516746405
 30
0.0
 10
38.6288728235
 20
45.3487200814
 30
0.0
 10
38.2317942385
 20
44.8162399712
 30
0.0
 10
37.6056396308
 20
44.1872560937
 30
0.0
 10
36.6936672294
 20
43.5209710971
 30
0.0
 10
35.6249347579
 20
42.9396570583
 30
0.0
 10
34.4220323014
 20
42.4550639439
 30
0.0
 10
33.1101687534
 20
42.0769852085
 30
0.0
 10
31.7170960266
 20
41.8133329527
 30
0.0
 10
30.2724008734
 20
41.6696640259
 30
0.0
 10
28.8068779707
 20
41.6490469593
 30
0.0
 10
27.351776527
 20
41.7518954438
 30
0.0
 10
25.9381621073
 20
41.9760586318
 30
0.0
 10
24.595955653
 20
42.3167549244
 30
0.0
 10
23.3539386264
 20
42.7667984487
 30
0.0
 10
22.5839734364
 20
43.1464118665
 30
0.0
 10
22.2247012804
 20
43.35383305
 30
0.0
  0
SPLINE
  5
2C2
100
AcDbEntity
  8
0
100
AcDbSpline
 62
7
  6
BYLAYER
 70
0
 71
3
 72
22
 73
18
 74
0
 42
0.0000001
 43
0.0000001
 44
0.0000000001
 40
0.0
 40
0.0
 40
0.0
 40
0.0
 40
0.0771771132
 40
0.1513689383
 40
0.2904364631
 40
0.3556318097
 40
0.4181707965
 40
0.4783603548
 40
0.536605845
 40
0.5934048663
 40
0.6493253592
 40
0.7049814644
 40
0.7610020738
 40
0.8179954291
 40
0.8765202929
 40
0.9370572282
 40
1.0
 40
1.0
 40
1.0
 40
1.0
 10
22.578253199
 20
52.0495802651
 30
0.0
 10
22.4128046262
 20
52.1450998822
 30
0.0
 10
22.0941499511
 20
52.3429581087
 30
0.0
 10
21.5112182208
 20
52.7642733246
 30
0.0
 10
20.9983184868
 20
53.2305541122
 30
0.0
 10
20.5753441688
 20
53.7389052326
 30
0.0
 10
20.3141880189
 20
54.124887559
 30
0.0
 10
20.1039966774
 20
54.5215445119
 30
0.0
 10
19.9461807004
 20
54.9266953607
 30
0.0
 10
19.841734136
 20
55.3379597062
 30
0.0
 10
19.7915465191
 20
55.7528999102
 30
0.0
 10
19.7958303253
 20
56.1689344794
 30
0.0
 10
19.8547584699
 20
56.5834557088
 30
0.0
 10
19.9676763701
 20
56.9939320069
 30
0.0
 10
20.1339527508
 20
57.3978779084
 30
0.0
 10
20.3522763421
 20
57.7929781971
 30
0.0
 10
20.5280309739
 20
58.0438135918
 30
0.0
 10
20.6234477322
 20
58.1669862253
 30
0.0
  0
SPLINE
  5
2C3
100
AcDbEntity
  8
0
100
AcDbSpline
 62
7
  6
BYLAYER
 70
0
 71
3
 72
15
 73
11
 74
0
 42
0.0000001
 43
0.0000001
 44
0.0000000001
 40
0.0
 40
0.0
 40
0.0
 40
0.0
 40
0.1080123313
 40
0.2180587787
 40
0.3319941707
 40
0.4513557784
 40
0.5772665129
 40
0.7104867315
 40
0.8514339157
 40
1.0
 40
1.0
 40
1.0
 40
1.0
 10
19.2957575386
 20
55.9278998081
 30
0.0
 10
19.2957697322
 20
55.7385855559
 30
0.0
 10
19.3286175604
 20
55.3556212439
 30
0.0
 10
19.4753879638
 20
54.7899822096
 30
0.0
 10
19.7175706325
 20
54.2364985675
 30
0.0
 10
20.0522441403
 20
53.7008634296
 30
0.0
 10
20.4754691652
 20
53.1878101229
 30
0.0
 10
20.9830776886
 20
52.7019306616
 30
0.0
 10
21.5699556589
 20
52.247752546
 30
0.0
 10
21.9991928738
 20
51.975652582
 30
0.0
 10
22.2247012804
 20
51.8454581882
 30
0.0
  0
ENDSEC
  0
SECTION
  2
OBJECTS
  0
DICTIONARY
  5
C
100
AcDbDictionary
280
0
281
1
  3
ACAD_GROUP
350
D
  3
ACAD_MLINESTYLE
350
17
  3
ACAD_LAYOUT
350
1A
  3
ACAD_PLOTSETTINGS
350
19
  3
ACAD_PLOTSTYLENAME
350
E
  0
DICTIONARY
  5
D
102
{ACAD_REACTORS
330
C
102
}
100
AcDbDictionary
280
0
281
1
  0
ACDBDICTIONARYWDFLT
  5
E
102
{ACAD_REACTORS
330
C
102
}
100
AcDbDictionary
281
1
  3
Normal
350
F
100
AcDbDictionaryWithDefault
340
F
  0
DICTIONARY
  5
17
102
{ACAD_REACTORS
330
C
102
}
100
AcDbDictionary
280
0
281
1
  3
Standard
350
18
  0
DICTIONARY
  5
19
102
{ACAD_REACTORS
330
C
102
}
100
AcDbDictionary
281
1
  0
DICTIONARY
  5
1A
102
{ACAD_REACTORS
330
C
102
}
100
AcDbDictionary
281
1
  3
Model
350
2C4
  3
Layout1
350
2C5
  0
ACDBPLACEHOLDER
  5
F
102
{ACAD_REACTORS
330
E
102
}
  0
MLINESTYLE
  5
18
102
{ACAD_REACTORS
330
17
102
}
100
AcDbMlineStyle
  2
STANDARD
 70
0
  3

 62
256
 51
90.0
 52
90.0
 71
2
 49
0.5
 62
256
  6
BYLAYER
 49
-0.5
 62
256
  6
BYLAYER
  0
LAYOUT
  5
2C4
102
{ACAD_REACTORS
330
1A
102
}
100
AcDbPlotSettings
  1

  2
none_device
  4

  6

 40
0.0
 41
0.0
 42
0.0
 43
0.0
 44
210.0
 45
297.0
 46
0.0
 47
0.0
 48
0.0
 49
0.0
140
0.0
141
0.0
142
1.0
143
1.0
 70
1024
 72
1
 73
0
 74
0
  7

 75
0
147
1.0
148
0.0
149
0.0
100
AcDbLayout
  1
Model
 70
0
 71
0
 10
0.0
 20
0.0
 11
210.0
 21
297.0
 12
0.0
 22
0.0
 32
0.0
 14
0.0
 24
0.0
 34
0.0
 15
0.0
 25
0.0
 35
0.0
146
0.0
 13
0.0
 23
0.0
 33
0.0
 16
1.0
 26
0.0
 36
0.0
 17
0.0
 27
1.0
 37
0.0
 76
0
330
210
345
0
346
0
  0
LAYOUT
  5
2C5
102
{ACAD_REACTORS
330
1A
102
}
100
AcDbPlotSettings
  1

  2
none_device
  4

  6

 40
0.0
 41
0.0
 42
0.0
 43
0.0
 44
210.0
 45
297.0
 46
0.0
 47
0.0
 48
0.0
 49
0.0
140
0.0
141
0.0
142
1.0
143
1.0
 70
0
 72
1
 73
0
 74
0
  7

 75
0
147
1.0
148
0.0
149
0.0
100
AcDbLayout
  1
Layout1
 70
0
 71
1
 10
0.0
 20
0.0
 11
210.0
 21
297.0
 12
0.0
 22
0.0
 32
0.0
 14
0.0
 24
0.0
 34
0.0
 15
0.0
 25
0.0
 35
0.0
146
0.0
 13
0.0
 23
0.0
 33
0.0
 16
1.0
 26
0.0
 36
0.0
 17
0.0
 27
1.0
 37
0.0
 76
0
330
211
345
0
346
0
  0
ENDSEC
  0
EOF
