999
DXF file: C:\Users\sesa63760\Dev\_Creo\CAD\MCADID0004767_3D-CAD\drw0001_1.dxf
999
Pro/ENGINEER 2019471 by Parametric Technology Corporation
  0
SECTION
  2
HEADER
  9
$ACADVER
  1
AC1024
  9
$DWGCODEPAGE
  3
ANSI_1252
  9
$EXTMAX
 10
49.1989987722
 20
69.5814411206
 30
0.0
  9
$EXTMIN
 10
0.0
 20
0.0
 30
0.0
  9
$LIMMIN
 10
0.0
 20
0.0
  9
$LIMMAX
 10
49.1989987722
 20
69.5814411206
  9
$VIEWCTR
 10
24.5994993861
 20
34.7907205603
  9
$VIEWSIZE
 40
69.5814411206
  9
$CLAYER
  8
0
  9
$LTSCALE
 40
4.5356791249
  9
$CELTYPE
  6
BYLAYER
  9
$DIMSCALE
 40
1.0
  9
$DIMASZ
 40
0.5857023663
  9
$DIMEXO
 40
1.0
  9
$DIMDLI
 40
3.1337419408
  9
$DIMEXE
 40
1.0
  9
$DIMCEN
 40
0.7422020386
  9
$DIMLFAC
 40
1.0
  9
$DIMBLK
  1
_FILLED
  9
$DIMALT
 70
0
  9
$DIMALTF
 40
0.0393700787
  9
$DIMTXT
 40
0.8199833129
  9
$DIMTOL
 70
1
  9
$DIMLIM
 70
0
  9
$DIMTFAC
 40
1.0
  9
$DIMTP
 40
0.01
  9
$DIMTM
 40
0.01
  9
$DIMGAP
 40
0.625
  9
$DIMDSEP
 70
46
  9
$AUNITS
 70
0
  9
$PDMODE
 70
3
  9
$PDSIZE
 40
0.3125
  9
$HANDSEED
  5
323
  9
$TILEMODE
 70
1
  9
$MEASUREMENT
 70
1
  9
$INSUNITS
 70
4
  0
ENDSEC
  0
SECTION
  2
CLASSES
  0
CLASS
  1
ACDBDICTIONARYWDFLT
  2
AcDbDictionaryWithDefault
  3
AutoCAD 2000
 90
0
 91
1
280
0
281
0
  0
CLASS
  1
ACDBPLACEHOLDER
  2
AcDbPlaceHolder
  3
AutoCAD 2000
 90
0
 91
1
280
0
281
0
  0
CLASS
  1
LAYOUT
  2
AcDbLayout
  3
AutoCAD 2000
 90
0
 91
0
280
0
281
0
  0
ENDSEC
  0
SECTION
  2
TABLES
  0
TABLE
  2
VPORT
  5
8
100
AcDbSymbolTable
 70
2
  0
VPORT
  5
1F4
100
AcDbSymbolTableRecord
100
AcDbViewportTableRecord
  2
*ACTIVE
 70
0
 10
0.0
 20
0.0
 11
1.0
 21
1.0
 12
24.5994993861
 22
34.7907205603
 13
0.0
 23
0.0
 14
1.0
 24
1.0
 15
0.0
 25
0.0
 16
0.0
 26
0.0
 36
1.0
 17
0.0
 27
0.0
 37
0.0
 40
69.5814411206
 41
0.7070707071
 42
50.0
 43
0.0
 44
0.0
 50
0.0
 51
0.0
 71
0
 72
100
 73
1
 74
1
 75
0
 76
0
 77
0
 78
0
  0
ENDTAB
  0
TABLE
  2
LTYPE
  5
5
100
AcDbSymbolTable
 70
6
  0
LTYPE
  5
14
100
AcDbSymbolTableRecord
100
AcDbLinetypeTableRecord
  2
BYBLOCK
 70
0
  3

 72
65
 73
0
 40
0.0
  0
LTYPE
  5
15
100
AcDbSymbolTableRecord
100
AcDbLinetypeTableRecord
  2
BYLAYER
 70
0
  3

 72
65
 73
0
 40
0.0
  0
LTYPE
  5
16
100
AcDbSymbolTableRecord
100
AcDbLinetypeTableRecord
  2
CONTINUOUS
 70
64
  3
Solid line
 72
65
 73
0
 40
0.0
  0
LTYPE
  5
1F5
100
AcDbSymbolTableRecord
100
AcDbLinetypeTableRecord
  2
CENTER
 70
64
  3
____ _ ____ _ ____ _ ____ _ ____ _ ____ _ ____
 72
65
 73
4
 40
0.6
 49
0.375
 74
0
 49
-0.075
 74
0
 49
0.075
 74
0
 49
-0.075
 74
0
  0
LTYPE
  5
1F6
100
AcDbSymbolTableRecord
100
AcDbLinetypeTableRecord
  2
HIDDEN
 70
64
  3
- - - - - - - - - - - - - - - - - - - -
 72
65
 73
2
 40
0.2
 49
0.1
 74
0
 49
-0.1
 74
0
  0
LTYPE
  5
1F7
100
AcDbSymbolTableRecord
100
AcDbLinetypeTableRecord
  2
PHANTOM
 70
64
  3
_____ _ _ _____ _ _ _____ _ _ _____
 72
65
 73
6
 40
0.8
 49
0.45
 74
0
 49
-0.05
 74
0
 49
0.1
 74
0
 49
-0.05
 74
0
 49
0.1
 74
0
 49
-0.05
 74
0
  0
LTYPE
  5
1F8
100
AcDbSymbolTableRecord
100
AcDbLinetypeTableRecord
  2
DOT
 70
64
  3
. . . . . . . . . . . . . . . . . . . .
 72
65
 73
2
 40
0.2
 49
0.1
 74
0
 49
-0.1
 74
0
  0
LTYPE
  5
1F9
100
AcDbSymbolTableRecord
100
AcDbLinetypeTableRecord
  2
DASHED
 70
64
  3
- - - - - - - - - - - - - - - - - - - -
 72
65
 73
2
 40
0.2
 49
0.1
 74
0
 49
-0.1
 74
0
  0
ENDTAB
  0
TABLE
  2
LAYER
  5
2
100
AcDbSymbolTable
 70
36
  0
LAYER
  5
10
100
AcDbSymbolTableRecord
100
AcDbLayerTableRecord
  2
0
 70
0
 62
7
  6
CONTINUOUS
370
-3
390
F
  0
LAYER
  5
1FA
100
AcDbSymbolTableRecord
100
AcDbLayerTableRecord
  2
DEFAULT_1
 70
0
 62
7
  6
CENTER
370
-3
390
F
  0
LAYER
  5
1FB
100
AcDbSymbolTableRecord
100
AcDbLayerTableRecord
  2
DEFAULT_2
 70
0
 62
7
  6
HIDDEN
370
-3
390
F
  0
LAYER
  5
1FC
100
AcDbSymbolTableRecord
100
AcDbLayerTableRecord
  2
DEFAULT_3
 70
0
 62
7
  6
PHANTOM
370
-3
390
F
  0
LAYER
  5
1FD
100
AcDbSymbolTableRecord
100
AcDbLayerTableRecord
  2
00_COMPONENTS
 70
0
 62
7
  6
CONTINUOUS
370
-3
390
F
  0
LAYER
  5
1FE
100
AcDbSymbolTableRecord
100
AcDbLayerTableRecord
  2
01_1_DEFAULT_DATUMS
 70
0
 62
7
  6
CONTINUOUS
370
-3
390
F
  0
LAYER
  5
1FF
100
AcDbSymbolTableRecord
100
AcDbLayerTableRecord
  2
01_PLANES
 70
0
 62
7
  6
CONTINUOUS
370
-3
390
F
  0
LAYER
  5
200
100
AcDbSymbolTableRecord
100
AcDbLayerTableRecord
  2
02_COORD_SYS
 70
0
 62
7
  6
CONTINUOUS
370
-3
390
F
  0
LAYER
  5
201
100
AcDbSymbolTableRecord
100
AcDbLayerTableRecord
  2
03_AXES
 70
0
 62
7
  6
CONTINUOUS
370
-3
390
F
  0
LAYER
  5
202
100
AcDbSymbolTableRecord
100
AcDbLayerTableRecord
  2
04_POINTS
 70
0
 62
7
  6
CONTINUOUS
370
-3
390
F
  0
LAYER
  5
203
100
AcDbSymbolTableRecord
100
AcDbLayerTableRecord
  2
05_CURVES
 70
0
 62
7
  6
CONTINUOUS
370
-3
390
F
  0
LAYER
  5
204
100
AcDbSymbolTableRecord
100
AcDbLayerTableRecord
  2
06_SURFS
 70
0
 62
7
  6
CONTINUOUS
370
-3
390
F
  0
LAYER
  5
205
100
AcDbSymbolTableRecord
100
AcDbLayerTableRecord
  2
07_COSMETICS
 70
0
 62
7
  6
CONTINUOUS
370
-3
390
F
  0
LAYER
  5
206
100
AcDbSymbolTableRecord
100
AcDbLayerTableRecord
  2
10_NOTES
 70
0
 62
7
  6
CONTINUOUS
370
-3
390
F
  0
LAYER
  5
207
100
AcDbSymbolTableRecord
100
AcDbLayerTableRecord
  2
11_NOTES_PUB
 70
0
 62
7
  6
CONTINUOUS
370
-3
390
F
  0
LAYER
  5
208
100
AcDbSymbolTableRecord
100
AcDbLayerTableRecord
  2
13_REF_GTOL
 70
0
 62
7
  6
CONTINUOUS
370
-3
390
F
  0
LAYER
  5
209
100
AcDbSymbolTableRecord
100
AcDbLayerTableRecord
  2
16_MISC
 70
0
 62
7
  6
CONTINUOUS
370
-3
390
F
  0
LAYER
  5
20A
100
AcDbSymbolTableRecord
100
AcDbLayerTableRecord
  2
17_NO_PRINT
 70
0
 62
7
  6
CONTINUOUS
370
-3
390
F
  0
LAYER
  5
20B
100
AcDbSymbolTableRecord
100
AcDbLayerTableRecord
  2
18_DATUM_CAMS_JOINTS
 70
0
 62
7
  6
CONTINUOUS
370
-3
390
F
  0
LAYER
  5
20C
100
AcDbSymbolTableRecord
100
AcDbLayerTableRecord
  2
19_DATUM_FUNCTIONAL
 70
0
 62
7
  6
CONTINUOUS
370
-3
390
F
  0
LAYER
  5
20D
100
AcDbSymbolTableRecord
100
AcDbLayerTableRecord
  2
20_DATUM_KINEMATIC_SCHEME
 70
0
 62
7
  6
CONTINUOUS
370
-3
390
F
  0
ENDTAB
  0
TABLE
  2
STYLE
  5
3
100
AcDbSymbolTable
 70
1
  0
STYLE
  5
11
100
AcDbSymbolTableRecord
100
AcDbTextStyleTableRecord
  2
STANDARD
 70
0
 40
0.0
 41
1.0
 50
0.0
 71
0
 42
0.2
  3
ARIAL.TTF
  4

  0
STYLE
  5
20E
100
AcDbSymbolTableRecord
100
AcDbTextStyleTableRecord
  2
TEXTSTYLE_1
 70
0
 40
0.0
 41
0.8
 50
0.0
 71
0
 42
0.2
  3
gdt
  4

  0
ENDTAB
  0
TABLE
  2
VIEW
  5
6
100
AcDbSymbolTable
 70
0
  0
ENDTAB
  0
TABLE
  2
UCS
  5
7
100
AcDbSymbolTable
 70
0
  0
ENDTAB
  0
TABLE
  2
APPID
  5
9
100
AcDbSymbolTable
 70
1
  0
APPID
  5
20F
100
AcDbSymbolTableRecord
100
AcDbRegAppTableRecord
  2
ACAD
 70
0
  0
ENDTAB
  0
TABLE
  2
BLOCK_RECORD
  5
1
100
AcDbSymbolTable
 70
0
  0
BLOCK_RECORD
  5
210
100
AcDbSymbolTableRecord
100
AcDbBlockTableRecord
  2
*Model_Space
  0
BLOCK_RECORD
  5
211
100
AcDbSymbolTableRecord
100
AcDbBlockTableRecord
  2
*Paper_Space
  0
BLOCK_RECORD
  5
212
100
AcDbSymbolTableRecord
100
AcDbBlockTableRecord
  2
_FILLED
  0
ENDTAB
  0
TABLE
  2
DIMSTYLE
  5
A
100
AcDbSymbolTable
 70
1
100
AcDbDimStyleTable
 71
0
  0
DIMSTYLE
105
213
100
AcDbSymbolTableRecord
100
AcDbDimStyleTableRecord
  2
STANDARD
 70
0
  3

  4

 40
1.0
 41
0.5857023663
 42
1.0
 43
0.38
 44
1.0
 45
0.0
 46
0.0
 47
0.01
 48
0.01
140
0.8199833129
141
0.09
142
0.0
143
25.4
144
1.0
145
0.0
146
1.0
147
0.625
 71
1
 72
0
 73
0
 74
0
 75
0
 76
0
 77
1
 78
8
 79
2
170
0
171
1
172
0
173
0
174
0
175
0
176
0
177
0
178
0
270
2
179
2
271
2
272
2
273
2
274
2
275
0
280
0
281
0
282
0
283
1
284
8
285
0
286
0
287
3
288
0
340
11
278
46
341
212
342
212
343
212
344
212
  0
ENDTAB
  0
ENDSEC
  0
SECTION
  2
BLOCKS
  0
BLOCK
  5
20
100
AcDbEntity
  8
0
100
AcDbBlockBegin
  2
*Model_Space
 70
0
 10
0.0
 20
0.0
 30
0.0
  3
*Model_Space
  1

  0
ENDBLK
  5
21
100
AcDbEntity
  8
0
100
AcDbBlockEnd
  0
BLOCK
  5
1C
100
AcDbEntity
  8
0
100
AcDbBlockBegin
  2
*Paper_Space
 70
0
 10
0.0
 20
0.0
 30
0.0
  3
*Paper_Space
  1

  0
ENDBLK
  5
1D
100
AcDbEntity
  8
0
100
AcDbBlockEnd
  0
BLOCK
  5
214
100
AcDbEntity
  8
0
100
AcDbBlockBegin
  2
_FILLED
 70
64
 10
0.0
 20
0.0
  3
_FILLED
  1

  0
SOLID
  5
215
100
AcDbEntity
  8
0
  6
BYBLOCK
 62
0
100
AcDbTrace
 10
0.0
 20
0.0
 11
-1.0
 21
0.25
 12
-1.0
 22
-0.25
 13
-1.0
 23
-0.25
  0
ENDBLK
  5
216
100
AcDbEntity
  8
0
  6
BYBLOCK
 62
0
100
AcDbBlockEnd
  0
ENDSEC
  0
SECTION
  2
ENTITIES
  0
LINE
  5
217
100
AcDbEntity
  8
0
100
AcDbLine
 62
7
  6
BYLAYER
 10
24.6316148644
 20
6.0361690543
 11
25.3316148644
 21
6.0361707369
  0
LINE
  5
218
100
AcDbEntity
  8
0
100
AcDbLine
 62
7
  6
BYLAYER
 10
24.6316151189
 20
6.0796157968
 11
25.3316151189
 21
6.0796174794
  0
LINE
  5
219
100
AcDbEntity
  8
0
100
AcDbLine
 62
7
  6
BYLAYER
 10
17.6370695035
 20
61.8955469692
 11
21.1725886896
 21
63.9367677385
  0
LINE
  5
21A
100
AcDbEntity
  8
0
100
AcDbLine
 62
7
  6
BYLAYER
 10
25.4816209584
 20
7.4890895392
 11
25.4866435959
 21
7.4896478819
  0
LINE
  5
21B
100
AcDbEntity
  8
0
100
AcDbLine
 62
7
  6
BYLAYER
 10
25.487415058
 20
7.5352860881
 11
25.4816215591
 21
7.5348520998
  0
LINE
  5
21C
100
AcDbEntity
  8
0
100
AcDbLine
 62
7
  6
BYLAYER
 10
25.481620958
 20
7.4890895443
 11
25.4866794457
 21
7.4892453503
  0
LINE
  5
21D
100
AcDbEntity
  8
0
100
AcDbLine
 62
7
  6
BYLAYER
 10
25.487438637
 20
7.5350286962
 11
25.4816215591
 21
7.5348520998
  0
LINE
  5
21E
100
AcDbEntity
  8
0
100
AcDbLine
 62
7
  6
BYLAYER
 10
25.3316171105
 20
8.0185105224
 11
24.6316171105
 21
8.0185088399
  0
LINE
  5
21F
100
AcDbEntity
  8
0
100
AcDbLine
 62
7
  6
BYLAYER
 10
24.6316183688
 20
8.1605144926
 11
24.7256601806
 21
8.1605147186
  0
LINE
  5
220
100
AcDbEntity
  8
0
100
AcDbLine
 62
7
  6
BYLAYER
 10
25.237667988
 20
8.1605159493
 11
25.3316183688
 21
8.1605161752
  0
LINE
  5
221
100
AcDbEntity
  8
0
100
AcDbLine
 62
7
  6
BYLAYER
 10
24.4816215591
 20
7.5348496961
 11
24.4727035715
 21
7.5351212269
  0
LINE
  5
222
100
AcDbEntity
  8
0
100
AcDbLine
 62
7
  6
BYLAYER
 10
24.4816215591
 20
7.5348496961
 11
24.4727725133
 21
7.5358693124
  0
LINE
  5
223
100
AcDbEntity
  8
0
100
AcDbLine
 62
7
  6
BYLAYER
 10
32.9999195896
 20
9.5405418682
 11
32.3708999306
 21
9.5405403562
  0
LINE
  5
224
100
AcDbEntity
  8
0
100
AcDbLine
 62
7
  6
BYLAYER
 10
17.5787573051
 20
9.5405048003
 11
16.9632522074
 21
9.5405033208
  0
LINE
  5
225
100
AcDbEntity
  8
0
100
AcDbLine
 62
7
  6
BYLAYER
 10
24.4867520356
 20
8.2400990605
 11
6.3846062873
 21
18.6911413471
  0
LINE
  5
226
100
AcDbEntity
  8
0
100
AcDbLine
 62
7
  6
BYLAYER
 10
19.8870594306
 20
57.9984268365
 11
18.4728517561
 21
57.1819385288
  0
LINE
  5
227
100
AcDbEntity
  8
0
100
AcDbLine
 62
7
  6
BYLAYER
 10
16.2377815115
 20
10.7997241696
 11
15.720147465
 21
11.4679944928
  0
LINE
  5
228
100
AcDbEntity
  8
0
100
AcDbLine
 62
7
  6
BYLAYER
 10
5.9604093214
 20
24.2841358259
 11
5.9604093214
 21
25.9171406601
  0
LINE
  5
229
100
AcDbEntity
  8
0
100
AcDbLine
 62
7
  6
BYLAYER
 10
6.1795890007
 20
24.1575952417
 11
6.1795890007
 21
18.9768723297
  0
LINE
  5
22A
100
AcDbEntity
  8
0
100
AcDbLine
 62
7
  6
BYLAYER
 10
6.3846062873
 20
18.6911413471
 11
6.3846042128
 21
23.9984082561
  0
LINE
  5
22B
100
AcDbEntity
  8
0
100
AcDbLine
 62
7
  6
BYLAYER
 10
20.1817425719
 20
54.762199707
 11
18.8871893969
 21
54.0147935444
  0
LINE
  5
22C
100
AcDbEntity
  8
0
100
AcDbLine
 62
7
  6
BYLAYER
 10
24.4867520356
 20
13.5473647719
 11
6.3846042128
 21
23.9984082561
  0
LINE
  5
22D
100
AcDbEntity
  8
0
100
AcDbLine
 62
7
  6
BYLAYER
 10
24.9816609278
 20
13.3024595293
 11
24.1684847439
 21
13.771936397
  0
LINE
  5
22E
100
AcDbEntity
  8
0
100
AcDbLine
 62
7
  6
BYLAYER
 10
6.1247949811
 20
24.189229868
 11
5.9604093214
 21
24.2841358259
  0
LINE
  5
22F
100
AcDbEntity
  8
0
100
AcDbLine
 62
7
  6
BYLAYER
 10
8.9304165378
 20
28.4892392712
 11
8.9331169389
 21
28.3826862755
  0
LINE
  5
230
100
AcDbEntity
  8
0
100
AcDbLine
 62
7
  6
BYLAYER
 10
24.9816609278
 20
14.9354643635
 11
5.9604093214
 21
25.9171406601
  0
LINE
  5
231
100
AcDbEntity
  8
0
100
AcDbLine
 62
7
  6
BYLAYER
 10
8.9303307829
 20
28.4892887823
 11
8.9303319549
 21
28.8159075169
  0
LINE
  5
232
100
AcDbEntity
  8
0
100
AcDbLine
 62
7
  6
BYLAYER
 10
10.6980050307
 20
33.8076455719
 11
10.6980050307
 21
33.8945934277
  0
LINE
  5
233
100
AcDbEntity
  8
0
100
AcDbLine
 62
7
  6
BYLAYER
 10
10.6980050307
 20
37.2036471509
 11
10.6980050307
 21
44.9007745919
  0
LINE
  5
234
100
AcDbEntity
  8
0
100
AcDbLine
 62
7
  6
BYLAYER
 10
11.9263972439
 20
41.9214599791
 11
17.2373134038
 21
51.3693483903
  0
LINE
  5
235
100
AcDbEntity
  8
0
100
AcDbLine
 62
7
  6
BYLAYER
 10
10.6980050307
 20
44.9007745919
 11
14.9960489478
 21
47.3822365921
  0
LINE
  5
236
100
AcDbEntity
  8
0
100
AcDbLine
 62
7
  6
BYLAYER
 10
22.2688161454
 20
51.2328998613
 11
20.9371802193
 21
50.4640840902
  0
LINE
  5
237
100
AcDbEntity
  8
0
100
AcDbLine
 62
7
  6
BYLAYER
 10
24.5017554022
 20
50.5644593981
 11
25.9159630766
 21
51.3809477059
  0
LINE
  5
238
100
AcDbEntity
  8
0
100
AcDbLine
 62
7
  6
BYLAYER
 10
26.1243287578
 20
19.7461858196
 11
24.4512980167
 21
19.4873664531
  0
LINE
  5
239
100
AcDbEntity
  8
0
100
AcDbLine
 62
7
  6
BYLAYER
 10
10.6980830445
 20
25.7540545378
 11
10.8063469134
 21
25.6953798083
  0
LINE
  5
23A
100
AcDbEntity
  8
0
100
AcDbLine
 62
7
  6
BYLAYER
 10
10.4152231834
 20
25.9174633728
 11
10.5061636971
 21
25.8680781941
  0
LINE
  5
23B
100
AcDbEntity
  8
0
100
AcDbLine
 62
7
  6
BYLAYER
 10
10.4152231812
 20
25.9173643524
 11
10.6980830445
 21
25.7540545378
  0
LINE
  5
23C
100
AcDbEntity
  8
0
100
AcDbLine
 62
7
  6
BYLAYER
 10
11.9263972439
 20
41.9214599791
 11
11.842584739
 21
40.3922357229
  0
LINE
  5
23D
100
AcDbEntity
  8
0
100
AcDbLine
 62
7
  6
BYLAYER
 10
11.5704740462
 20
32.7603592381
 11
11.6005748861
 21
33.3095724433
  0
LINE
  5
23E
100
AcDbEntity
  8
0
100
AcDbLine
 62
7
  6
BYLAYER
 10
14.8053256888
 20
25.056345186
 11
15.4401976811
 21
24.6898099625
  0
LINE
  5
23F
100
AcDbEntity
  8
0
100
AcDbLine
 62
7
  6
BYLAYER
 10
18.2570745221
 20
23.0635221516
 11
24.4512980167
 21
19.4873664531
  0
LINE
  5
240
100
AcDbEntity
  8
0
100
AcDbLine
 62
7
  6
BYLAYER
 10
26.1243287578
 20
19.7461858196
 11
29.7192566372
 21
17.6707001945
  0
LINE
  5
241
100
AcDbEntity
  8
0
100
AcDbLine
 62
7
  6
BYLAYER
 10
15.5092464714
 20
25.9496587782
 11
15.1807515345
 21
26.1625801718
  0
LINE
  5
242
100
AcDbEntity
  8
0
100
AcDbLine
 62
7
  6
BYLAYER
 10
14.5323641776
 20
37.4627432565
 11
14.372168022
 21
34.5398399594
  0
LINE
  5
243
100
AcDbEntity
  8
0
100
AcDbLine
 62
7
  6
BYLAYER
 10
13.9058145089
 20
26.0308578563
 11
13.8212658198
 21
24.4882013471
  0
LINE
  5
244
100
AcDbEntity
  8
0
100
AcDbLine
 62
7
  6
BYLAYER
 10
15.8548420161
 20
36.6055494534
 11
15.7863756964
 21
35.3563282672
  0
LINE
  5
245
100
AcDbEntity
  8
0
100
AcDbLine
 62
7
  6
BYLAYER
 10
15.2790017811
 20
26.0988970611
 11
15.2354734942
 21
25.3046896549
  0
LINE
  5
246
100
AcDbEntity
  8
0
100
AcDbLine
 62
7
  6
BYLAYER
 10
10.8390894037
 20
32.0034643327
 11
9.3004471513
 21
33.0007699704
  0
LINE
  5
247
100
AcDbEntity
  8
0
100
AcDbLine
 62
7
  6
BYLAYER
 10
18.2808396073
 20
27.1799262944
 11
20.4857155739
 21
25.7507862663
  0
LINE
  5
248
100
AcDbEntity
  8
0
100
AcDbLine
 62
7
  6
BYLAYER
 10
15.5092464714
 20
25.9496587782
 11
15.3739883486
 21
23.4817692611
  0
LINE
  5
249
100
AcDbEntity
  8
0
100
AcDbLine
 62
7
  6
BYLAYER
 10
15.9248905508
 20
33.5334078735
 11
16.0850867064
 21
36.4563111706
  0
LINE
  5
24A
100
AcDbEntity
  8
0
100
AcDbLine
 62
7
  6
BYLAYER
 10
17.2373134038
 20
51.3693483903
 11
17.4439257257
 21
55.139150698
  0
LINE
  5
24B
100
AcDbEntity
  8
0
100
AcDbLine
 62
7
  6
BYLAYER
 10
27.1370269732
 20
45.4410397424
 11
30.6725461593
 21
47.4822605118
  0
LINE
  5
24C
100
AcDbEntity
  8
0
100
AcDbLine
 62
7
  6
BYLAYER
 10
11.5970529538
 20
33.2453120531
 11
10.7146548257
 21
33.8172582781
  0
LINE
  5
24D
100
AcDbEntity
  8
0
100
AcDbLine
 62
7
  6
BYLAYER
 10
19.6950472817
 20
27.9964146021
 11
21.8999232484
 21
26.5672745741
  0
LINE
  5
24E
100
AcDbEntity
  8
0
100
AcDbLine
 62
7
  6
BYLAYER
 10
11.6005748861
 20
33.3095724433
 11
9.3956989194
 21
34.7387124713
  0
LINE
  5
24F
100
AcDbEntity
  8
0
100
AcDbLine
 62
7
  6
BYLAYER
 10
18.3760913755
 20
28.9178687954
 11
20.5809673421
 21
27.4887287673
  0
LINE
  5
250
100
AcDbEntity
  8
0
100
AcDbLine
 62
7
  6
BYLAYER
 10
18.3760913755
 20
28.9178687954
 11
18.2808396073
 21
27.1799262944
  0
LINE
  5
251
100
AcDbEntity
  8
0
100
AcDbLine
 62
7
  6
BYLAYER
 10
18.9842269203
 20
37.3467686792
 11
18.9004144154
 21
35.817544423
  0
LINE
  5
252
100
AcDbEntity
  8
0
100
AcDbLine
 62
7
  6
BYLAYER
 10
19.698569214
 20
28.0606749923
 11
19.6950472817
 21
27.9964146021
  0
LINE
  5
253
100
AcDbEntity
  8
0
100
AcDbLine
 62
7
  6
BYLAYER
 10
20.3669174962
 20
37.5882030422
 11
20.3146220899
 21
36.6340327307
  0
LINE
  5
254
100
AcDbEntity
  8
0
100
AcDbLine
 62
7
  6
BYLAYER
 10
24.2951430802
 20
46.7946570904
 11
18.9842269203
 21
37.3467686792
  0
LINE
  5
255
100
AcDbEntity
  8
0
100
AcDbLine
 62
7
  6
BYLAYER
 10
20.3669174962
 20
37.5882030422
 11
25.6778336561
 21
47.0360914534
  0
LINE
  5
256
100
AcDbEntity
  8
0
100
AcDbLine
 62
7
  6
BYLAYER
 10
9.3004471513
 20
33.0007699704
 11
10.7146548257
 21
33.8172582781
  0
LINE
  5
257
100
AcDbEntity
  8
0
100
AcDbLine
 62
7
  6
BYLAYER
 10
15.8808975033
 20
36.1280472468
 11
16.073179823
 21
36.2390608332
  0
LINE
  5
258
100
AcDbEntity
  8
0
100
AcDbLine
 62
7
  6
BYLAYER
 10
14.372168022
 20
34.5398399594
 11
15.7863756964
 21
35.3563282672
  0
LINE
  5
259
100
AcDbEntity
  8
0
100
AcDbLine
 62
7
  6
BYLAYER
 10
12.1646100331
 20
33.1033817625
 11
10.9086242179
 21
32.3782423424
  0
LINE
  5
25A
100
AcDbEntity
  8
0
100
AcDbLine
 62
7
  6
BYLAYER
 10
14.372168022
 20
34.5398399594
 11
15.9248905508
 21
33.5334078735
  0
LINE
  5
25B
100
AcDbEntity
  8
0
100
AcDbLine
 62
7
  6
BYLAYER
 10
15.7863756964
 20
35.3563282672
 11
16.0166203867
 21
35.2070899843
  0
LINE
  5
25C
100
AcDbEntity
  8
0
100
AcDbLine
 62
7
  6
BYLAYER
 10
20.3146220899
 20
36.6340327307
 11
18.9004144154
 21
35.817544423
  0
LINE
  5
25D
100
AcDbEntity
  8
0
100
AcDbLine
 62
7
  6
BYLAYER
 10
14.6141099741
 20
33.3221991396
 11
13.3581241588
 21
32.5970597196
  0
LINE
  5
25E
100
AcDbEntity
  8
0
100
AcDbLine
 62
7
  6
BYLAYER
 10
9.4481118639
 20
29.9603639132
 11
11.9400016405
 21
31.3990485588
  0
LINE
  5
25F
100
AcDbEntity
  8
0
100
AcDbLine
 62
7
  6
BYLAYER
 10
16.0850867064
 20
36.4563111706
 11
14.5323641776
 21
37.4627432565
  0
LINE
  5
260
100
AcDbEntity
  8
0
100
AcDbLine
 62
7
  6
BYLAYER
 10
23.9816163352
 20
5.3955739383
 11
23.9816192608
 21
7.5467799511
  0
LINE
  5
261
100
AcDbEntity
  8
0
100
AcDbLine
 62
7
  6
BYLAYER
 10
24.4512980167
 20
19.4873664531
 11
24.4512980167
 21
35.7357645539
  0
LINE
  5
262
100
AcDbEntity
  8
0
100
AcDbLine
 62
7
  6
BYLAYER
 10
24.4816242084
 20
8.240099061
 11
24.4816165183
 21
5.3695760411
  0
LINE
  5
263
100
AcDbEntity
  8
0
100
AcDbLine
 62
7
  6
BYLAYER
 10
24.4867520356
 20
13.5473647719
 11
24.4867520356
 21
8.2400990605
  0
LINE
  5
264
100
AcDbEntity
  8
0
100
AcDbLine
 62
7
  6
BYLAYER
 10
24.6316148644
 20
6.0361690543
 11
24.6316194802
 21
8.1918412657
  0
LINE
  5
265
100
AcDbEntity
  8
0
100
AcDbLine
 62
7
  6
BYLAYER
 10
24.9816609278
 20
14.9354643635
 11
24.9816609278
 21
13.3024595293
  0
LINE
  5
266
100
AcDbEntity
  8
0
100
AcDbLine
 62
7
  6
BYLAYER
 10
24.2951430802
 20
46.7946570904
 11
24.5017554022
 21
50.5644593981
  0
LINE
  5
267
100
AcDbEntity
  8
0
100
AcDbLine
 62
7
  6
BYLAYER
 10
25.6778336561
 20
47.0360914534
 11
25.9159630766
 21
51.3809477059
  0
LWPOLYLINE
  5
268
100
AcDbEntity
  8
0
100
AcDbPolyline
 62
7
  6
BYLAYER
 90
5
 70
0
 10
24.1065820257
 20
29.8110137933
 10
24.0391469816
 20
28.908867383
 10
23.5087837283
 20
27.4306725119
 10
22.5050924013
 20
26.5217321799
 10
21.8387784728
 20
26.4049848743
  0
LINE
  5
269
100
AcDbEntity
  8
0
100
AcDbLine
 62
7
  6
BYLAYER
 10
9.0685233047
 20
27.7116003936
 11
5.9604093214
 21
25.9171406601
  0
LINE
  5
26A
100
AcDbEntity
  8
0
100
AcDbLine
 62
7
  6
BYLAYER
 10
34.5275232811
 20
42.1656074279
 11
39.2651189904
 21
44.9008432588
  0
LINE
  5
26B
100
AcDbEntity
  8
0
100
AcDbLine
 62
7
  6
BYLAYER
 10
17.063609915
 20
30.2750068483
 11
15.8076240998
 21
29.5498674282
  0
LINE
  5
26C
100
AcDbEntity
  8
0
100
AcDbLine
 62
7
  6
BYLAYER
 10
36.295328142
 20
41.144987905
 11
39.2651189904
 21
42.859587216
  0
LINE
  5
26D
100
AcDbEntity
  8
0
100
AcDbLine
 62
7
  6
BYLAYER
 10
18.9842269203
 20
37.3467686792
 11
11.9263972439
 21
41.9214599791
  0
LWPOLYLINE
  5
26E
100
AcDbEntity
  8
0
100
AcDbPolyline
 62
7
  6
BYLAYER
 90
6
 70
0
 10
20.359169495
 20
37.4468347406
 10
21.1414228842
 20
36.7655599696
 10
22.5052330348
 20
34.9492639282
 10
23.505482556
 20
32.8905536493
 10
24.0383139746
 20
30.797260585
 10
24.1065820257
 20
29.8110137933
  0
LINE
  5
26F
100
AcDbEntity
  8
0
100
AcDbLine
 62
7
  6
BYLAYER
 10
25.3316194792
 20
8.1918145208
 11
25.3316148644
 21
6.0361707369
  0
LINE
  5
270
100
AcDbEntity
  8
0
100
AcDbLine
 62
7
  6
BYLAYER
 10
25.4765662884
 20
8.2401014401
 11
25.4765636996
 21
13.5473656568
  0
LINE
  5
271
100
AcDbEntity
  8
0
100
AcDbLine
 62
7
  6
BYLAYER
 10
25.4816165183
 20
5.3695783277
 11
25.4816242084
 21
8.2401014396
  0
LINE
  5
272
100
AcDbEntity
  8
0
100
AcDbLine
 62
7
  6
BYLAYER
 10
25.9816192585
 20
7.5446719654
 11
25.9816163352
 21
5.3955818312
  0
LINE
  5
273
100
AcDbEntity
  8
0
100
AcDbLine
 62
7
  6
BYLAYER
 10
26.1243287578
 20
19.7461858196
 11
26.1243287578
 21
35.9945839205
  0
LINE
  5
274
100
AcDbEntity
  8
0
100
AcDbLine
 62
7
  6
BYLAYER
 10
19.837390289
 20
30.6883510374
 11
21.2515979634
 21
31.5048393451
  0
LINE
  5
275
100
AcDbEntity
  8
0
100
AcDbLine
 62
7
  6
BYLAYER
 10
11.9481006717
 20
25.6302304325
 11
14.4147114479
 21
27.0543203275
  0
LINE
  5
276
100
AcDbEntity
  8
0
100
AcDbLine
 62
7
  6
BYLAYER
 10
24.4512980167
 20
35.7357645539
 11
26.1243287578
 21
35.9945839205
  0
LINE
  5
277
100
AcDbEntity
  8
0
100
AcDbLine
 62
7
  6
BYLAYER
 10
20.5815029586
 20
37.9699412286
 11
24.4512980167
 21
35.7357645539
  0
LINE
  5
278
100
AcDbEntity
  8
0
100
AcDbLine
 62
7
  6
BYLAYER
 10
12.8898247441
 20
43.635355518
 11
10.6980050307
 21
44.9007745919
  0
LINE
  5
279
100
AcDbEntity
  8
0
100
AcDbLine
 62
7
  6
BYLAYER
 10
26.1243287578
 20
35.9945839205
 11
29.7192566372
 21
33.9190982953
  0
LINE
  5
27A
100
AcDbEntity
  8
0
100
AcDbLine
 62
7
  6
BYLAYER
 10
29.7192566372
 20
17.6707001945
 11
29.7192566372
 21
33.9190982953
  0
LINE
  5
27B
100
AcDbEntity
  8
0
100
AcDbLine
 62
7
  6
BYLAYER
 10
17.063609915
 20
27.0089971798
 11
15.8076240998
 21
26.2838577597
  0
LINE
  5
27C
100
AcDbEntity
  8
0
100
AcDbLine
 62
7
  6
BYLAYER
 10
29.7192566372
 20
33.9190982953
 11
39.2651584395
 21
39.4303943726
  0
LINE
  5
27D
100
AcDbEntity
  8
0
100
AcDbLine
 62
7
  6
BYLAYER
 10
18.2808396073
 20
27.1799262944
 11
19.6950472817
 21
27.9964146021
  0
LINE
  5
27E
100
AcDbEntity
  8
0
100
AcDbLine
 62
7
  6
BYLAYER
 10
15.2354734942
 20
25.3046896549
 11
13.8212658198
 21
24.4882013471
  0
LINE
  5
27F
100
AcDbEntity
  8
0
100
AcDbLine
 62
7
  6
BYLAYER
 10
21.9181948847
 20
28.932697668
 11
23.9706833474
 21
30.1176953609
  0
LINE
  5
280
100
AcDbEntity
  8
0
100
AcDbLine
 62
7
  6
BYLAYER
 10
20.5809673421
 20
27.4887287673
 11
21.9951750165
 21
28.3052170751
  0
LINE
  5
281
100
AcDbEntity
  8
0
100
AcDbLine
 62
7
  6
BYLAYER
 10
39.2651584395
 20
37.3891383298
 11
44.0027541489
 21
40.1243741607
  0
LINE
  5
282
100
AcDbEntity
  8
0
100
AcDbLine
 62
7
  6
BYLAYER
 10
21.8999232484
 20
26.5672745741
 11
20.4857155739
 21
25.7507862663
  0
LINE
  5
283
100
AcDbEntity
  8
0
100
AcDbLine
 62
7
  6
BYLAYER
 10
20.3548970136
 20
24.1330241074
 11
18.9406893392
 21
23.3165357997
  0
LINE
  5
284
100
AcDbEntity
  8
0
100
AcDbLine
 62
7
  6
BYLAYER
 10
24.2951430802
 20
46.7946570904
 11
17.2373134038
 21
51.3693483903
  0
LINE
  5
285
100
AcDbEntity
  8
0
100
AcDbLine
 62
7
  6
BYLAYER
 10
34.5275232811
 20
42.1656074279
 11
39.2651584395
 21
39.4303943726
  0
LINE
  5
286
100
AcDbEntity
  8
0
100
AcDbLine
 62
7
  6
BYLAYER
 10
39.2651189904
 20
42.859587216
 11
39.2651189904
 21
44.9008432588
  0
LINE
  5
287
100
AcDbEntity
  8
0
100
AcDbLine
 62
7
  6
BYLAYER
 10
39.2651584395
 20
37.3891383298
 11
39.2651584395
 21
39.4303943726
  0
LINE
  5
288
100
AcDbEntity
  8
0
100
AcDbLine
 62
7
  6
BYLAYER
 10
44.0027541489
 20
40.1243741607
 11
39.2651189904
 21
42.859587216
  0
LINE
  5
289
100
AcDbEntity
  8
0
100
AcDbLine
 62
7
  6
BYLAYER
 10
32.0761574711
 20
49.0512982313
 11
39.2651189904
 21
44.9008432588
  0
LINE
  5
28A
100
AcDbEntity
  8
0
100
AcDbLine
 62
7
  6
BYLAYER
 10
43.5785597614
 20
18.6912298598
 11
43.57856235
 21
23.9984970657
  0
LINE
  5
28B
100
AcDbEntity
  8
0
100
AcDbLine
 62
7
  6
BYLAYER
 10
43.7835739991
 20
24.1576843053
 11
43.7835739991
 21
18.9769593419
  0
LINE
  5
28C
100
AcDbEntity
  8
0
100
AcDbLine
 62
7
  6
BYLAYER
 10
44.0027541489
 20
40.1243741607
 11
44.0027541489
 21
24.2842272684
  0
LINE
  5
28D
100
AcDbEntity
  8
0
100
AcDbLine
 62
7
  6
BYLAYER
 10
29.7192566372
 20
17.6707001945
 11
24.9816609278
 21
14.9354643635
  0
LINE
  5
28E
100
AcDbEntity
  8
0
100
AcDbLine
 62
7
  6
BYLAYER
 10
24.9816609278
 20
13.3024595293
 11
44.0027541489
 21
24.2842272684
  0
LINE
  5
28F
100
AcDbEntity
  8
0
100
AcDbLine
 62
7
  6
BYLAYER
 10
43.57856235
 20
23.9984970657
 11
25.4765636996
 21
13.5473656568
  0
LINE
  5
290
100
AcDbEntity
  8
0
100
AcDbLine
 62
7
  6
BYLAYER
 10
33.7253819588
 20
10.7997241696
 11
34.2430160053
 21
11.4679944928
  0
LINE
  5
291
100
AcDbEntity
  8
0
100
AcDbLine
 62
7
  6
BYLAYER
 10
43.5785597614
 20
18.6912298598
 11
25.4765662884
 21
8.2401014401
  0
ARC
  5
292
100
AcDbEntity
  8
0
100
AcDbCircle
 62
7
  6
BYLAYER
 10
24.9786269604
 20
24.0060613866
 40
16.4787083298
100
AcDbArc
 50
266.4915569696
 51
268.2406490757
  0
ARC
  5
293
100
AcDbEntity
  8
0
100
AcDbCircle
 62
7
  6
BYLAYER
 10
24.9850389509
 20
23.9936073667
 40
16.4662447844
100
AcDbArc
 50
271.7484162304
 51
273.4958659756
  0
ARC
  5
294
100
AcDbEntity
  8
0
100
AcDbCircle
 62
7
  6
BYLAYER
 10
24.9843616756
 20
23.7174395779
 40
16.2359665876
100
AcDbArc
 50
271.7729330425
 51
273.5779155579
  0
ARC
  5
295
100
AcDbEntity
  8
0
100
AcDbCircle
 62
7
  6
BYLAYER
 10
24.9782126895
 20
23.7034939758
 40
16.2220095039
100
AcDbArc
 50
266.4195171362
 51
268.2457749123
  0
ARC
  5
296
100
AcDbEntity
  8
0
100
AcDbCircle
 62
7
  6
BYLAYER
 10
24.978471058
 20
20.2510475591
 40
14.7452418556
100
AcDbArc
 50
266.1235551529
 51
268.0690035698
  0
ARC
  5
297
100
AcDbEntity
  8
0
100
AcDbCircle
 62
7
  6
BYLAYER
 10
24.9859701468
 20
20.2258581328
 40
14.7200236824
100
AcDbArc
 50
271.929607142
 51
273.8783878515
  0
ARC
  5
298
100
AcDbEntity
  8
0
100
AcDbCircle
 62
7
  6
BYLAYER
 10
24.9847327027
 20
19.7544983946
 40
14.3935132528
100
AcDbArc
 50
271.9783219484
 51
273.9714409071
  0
ARC
  5
299
100
AcDbEntity
  8
0
100
AcDbCircle
 62
7
  6
BYLAYER
 10
24.9771371242
 20
19.7296043908
 40
14.368589438
100
AcDbArc
 50
266.027106678
 51
268.0236842191
  0
ARC
  5
29A
100
AcDbEntity
  8
0
100
AcDbCircle
 62
7
  6
BYLAYER
 10
20.7976314334
 20
35.508897361
 40
12.0221754736
100
AcDbArc
 50
230.1078548612
 51
231.7703200859
  0
ARC
  5
29B
100
AcDbEntity
  8
0
100
AcDbCircle
 62
7
  6
BYLAYER
 10
22.5973248945
 20
18.2650763013
 40
9.6739798555
100
AcDbArc
 50
240.0008079199
 51
240.3135311011
  0
ARC
  5
29C
100
AcDbEntity
  8
0
100
AcDbCircle
 62
7
  6
BYLAYER
 10
22.6129466422
 20
18.0404988789
 40
9.6105955471
100
AcDbArc
 50
240.0008079199
 51
240.3135311011
  0
ARC
  5
29D
100
AcDbEntity
  8
0
100
AcDbCircle
 62
7
  6
BYLAYER
 10
22.8022761903
 20
17.1051190474
 40
9.1887285637
100
AcDbArc
 50
240.4623731093
 51
240.8839746391
  0
ARC
  5
29E
100
AcDbEntity
  8
0
100
AcDbCircle
 62
7
  6
BYLAYER
 10
22.7555236135
 20
17.0226261034
 40
9.0939082642
100
AcDbArc
 50
240.0010983141
 51
240.4624211985
  0
ARC
  5
29F
100
AcDbEntity
  8
0
100
AcDbCircle
 62
7
  6
BYLAYER
 10
15.1350806643
 20
30.0004682714
 40
6.346836745
100
AcDbArc
 50
12.780970219
 51
13.6642067641
  0
ARC
  5
2A0
100
AcDbEntity
  8
0
100
AcDbCircle
 62
7
  6
BYLAYER
 10
18.4658047843
 20
30.2081358686
 40
5.6406064698
100
AcDbArc
 50
355.879257472
 51
358.0495257238
  0
ARC
  5
2A1
100
AcDbEntity
  8
0
100
AcDbCircle
 62
7
  6
BYLAYER
 10
23.5219173683
 20
12.8042914964
 40
5.5279355942
100
AcDbArc
 50
238.7235920631
 51
240.0024431391
  0
ARC
  5
2A2
100
AcDbEntity
  8
0
100
AcDbCircle
 62
7
  6
BYLAYER
 10
14.9578206197
 20
32.6239191076
 40
3.223329683
100
AcDbArc
 50
70.5130203458
 51
74.8881544537
  0
ARC
  5
2A3
100
AcDbEntity
  8
0
100
AcDbCircle
 62
7
  6
BYLAYER
 10
12.1561821975
 20
27.8353840412
 40
3.1380958954
100
AcDbArc
 50
0.0134324681
 51
3.1625982195
  0
ARC
  5
2A4
100
AcDbEntity
  8
0
100
AcDbCircle
 62
7
  6
BYLAYER
 10
16.6553934148
 20
34.7860784723
 40
1.549423554
100
AcDbArc
 50
112.7958922411
 51
119.990708978
  0
ARC
  5
2A5
100
AcDbEntity
  8
0
100
AcDbCircle
 62
7
  6
BYLAYER
 10
23.1961240345
 20
31.4586552538
 40
1.5485786079
100
AcDbArc
 50
300.0113975143
 51
305.5289279646
  0
ARC
  5
2A6
100
AcDbEntity
  8
0
100
AcDbCircle
 62
7
  6
BYLAYER
 10
16.6525622797
 20
34.7917556081
 40
1.5430914282
100
AcDbArc
 50
120.0050304486
 51
122.5345811006
  0
ARC
  5
2A7
100
AcDbEntity
  8
0
100
AcDbCircle
 62
7
  6
BYLAYER
 10
16.5454977039
 20
34.4860624045
 40
1.4542811627
100
AcDbArc
 50
110.7194196811
 51
120.7705896945
  0
ARC
  5
2A8
100
AcDbEntity
  8
0
100
AcDbCircle
 62
7
  6
BYLAYER
 10
13.8677066748
 20
27.6953118031
 40
0.8536143266
100
AcDbArc
 50
287.5576922926
 51
299.9617215458
  0
ARC
  5
2A9
100
AcDbEntity
  8
0
100
AcDbCircle
 62
7
  6
BYLAYER
 10
12.1940132334
 20
30.5936911286
 40
0.8494635567
100
AcDbArc
 50
120.0192814243
 51
130.4959792596
  0
ARC
  5
2AA
100
AcDbEntity
  8
0
100
AcDbCircle
 62
7
  6
BYLAYER
 10
25.3316187293
 20
8.0105161752
 40
0.15
100
AcDbArc
 50
0.0001377221
 51
90.0001377221
  0
ARC
  5
2AB
100
AcDbEntity
  8
0
100
AcDbCircle
 62
7
  6
BYLAYER
 10
25.331615225
 20
5.8861707369
 40
0.15
100
AcDbArc
 50
0.0001377221
 51
90.0001377221
  0
ARC
  5
2AC
100
AcDbEntity
  8
0
100
AcDbCircle
 62
7
  6
BYLAYER
 10
24.6316187293
 20
8.0105144926
 40
0.15
100
AcDbArc
 50
90.0001377221
 51
180.0001377221
  0
ARC
  5
2AD
100
AcDbEntity
  8
0
100
AcDbCircle
 62
7
  6
BYLAYER
 10
24.631615225
 20
5.8861690543
 40
0.15
100
AcDbArc
 50
90.0001377221
 51
180.0001377221
  0
SPLINE
  5
2AE
100
AcDbEntity
  8
0
100
AcDbSpline
 62
7
  6
BYLAYER
 70
0
 71
3
 72
15
 73
11
 74
0
 42
0.0000001
 43
0.0000001
 44
0.0000000001
 40
0.0
 40
0.0
 40
0.0
 40
0.0
 40
0.0857056237
 40
0.1811648337
 40
0.2882001076
 40
0.4079771564
 40
0.5405206829
 40
0.6846716176
 40
0.8385196492
 40
1.0
 40
1.0
 40
1.0
 40
1.0
 10
13.3581241588
 20
26.0650403826
 30
0.0
 10
13.4279124963
 20
26.0542459977
 30
0.0
 10
13.5762585253
 20
26.0365147765
 30
0.0
 10
13.8135583648
 20
26.0240520067
 30
0.0
 10
14.0792453635
 20
26.0268754305
 30
0.0
 10
14.3748111514
 20
26.046655886
 30
0.0
 10
14.6994732133
 20
26.0837409562
 30
0.0
 10
15.0502538968
 20
26.1370810102
 30
0.0
 10
15.4228166932
 20
26.2045930649
 30
0.0
 10
15.6774456554
 20
26.2563465594
 30
0.0
 10
15.8076240998
 20
26.2838577597
 30
0.0
  0
SPLINE
  5
2AF
100
AcDbEntity
  8
0
100
AcDbSpline
 62
7
  6
BYLAYER
 70
0
 71
3
 72
11
 73
7
 74
0
 42
0.0000001
 43
0.0000001
 44
0.0000000001
 40
0.0
 40
0.0
 40
0.0
 40
0.0
 40
0.2597327959
 40
0.5139811925
 40
0.7612143093
 40
1.0
 40
1.0
 40
1.0
 40
1.0
 10
10.9086242179
 20
32.3782423424
 30
0.0
 10
10.876886953
 20
32.2329684381
 30
0.0
 10
10.8186260429
 20
31.9444595486
 30
0.0
 10
10.7498275131
 20
31.5139661429
 30
0.0
 10
10.7043416799
 20
31.0923924477
 30
0.0
 10
10.6915537249
 20
30.8141910262
 30
0.0
 10
10.6901478282
 20
30.6774904928
 30
0.0
  0
SPLINE
  5
2B0
100
AcDbEntity
  8
0
100
AcDbSpline
 62
7
  6
BYLAYER
 70
0
 71
3
 72
15
 73
11
 74
0
 42
0.0000001
 43
0.0000001
 44
0.0000000001
 40
0.0
 40
0.0
 40
0.0
 40
0.0
 40
0.1485793283
 40
0.2895082688
 40
0.4227234613
 40
0.5486404269
 40
0.6680007321
 40
0.7819381073
 40
0.8919868037
 40
1.0
 40
1.0
 40
1.0
 40
1.0
 10
14.8169789422
 20
28.1116822482
 30
0.0
 10
14.8169789422
 20
28.0459255412
 30
0.0
 10
14.8116741193
 20
27.9177098034
 30
0.0
 10
14.7864402826
 20
27.7320377159
 30
0.0
 10
14.7442787682
 20
27.5596998938
 30
0.0
 10
14.6855234578
 20
27.4023736833
 30
0.0
 10
14.6106352388
 20
27.2615660254
 30
0.0
 10
14.520186272
 20
27.1387184964
 30
0.0
 10
14.4150113415
 20
27.0352206863
 30
0.0
 10
14.3354199588
 20
26.9796747911
 30
0.0
 10
14.2940198599
 20
26.9557751327
 30
0.0
  0
SPLINE
  5
2B1
100
AcDbEntity
  8
0
100
AcDbSpline
 62
7
  6
BYLAYER
 70
0
 71
3
 72
31
 73
27
 74
0
 42
0.0000001
 43
0.0000001
 44
0.0000000001
 40
0.0
 40
0.0
 40
0.0
 40
0.0
 40
0.021327428
 40
0.042883111
 40
0.064883653
 40
0.087523264
 40
0.1109675811
 40
0.1353488513
 40
0.1607663073
 40
0.1872857105
 40
0.2149434948
 40
0.2437475771
 40
0.2736827051
 40
0.3047109142
 40
0.336776908
 40
0.3698078448
 40
0.4383892547
 40
0.5096592378
 40
0.5826666388
 40
0.6563812173
 40
0.7297415102
 40
0.8017015735
 40
0.8712785697
 40
0.9376029948
 40
0.9693392856
 40
1.0
 40
1.0
 40
1.0
 40
1.0
 10
11.7690339126
 20
31.3292051741
 30
0.0
 10
11.8000564401
 20
31.3471140156
 30
0.0
 10
11.8648140774
 20
31.3791657035
 30
0.0
 10
11.9680657245
 20
31.4148561672
 30
0.0
 10
12.077063618
 20
31.438105127
 30
0.0
 10
12.1911574339
 20
31.4488065203
 30
0.0
 10
12.3097121247
 20
31.4469372624
 30
0.0
 10
12.4320791766
 20
31.4325504261
 30
0.0
 10
12.5576008801
 20
31.4057464915
 30
0.0
 10
12.6856128824
 20
31.3667017471
 30
0.0
 10
12.8154334036
 20
31.3156324033
 30
0.0
 10
12.9463793476
 20
31.252833332
 30
0.0
 10
13.0777492228
 20
31.1786377691
 30
0.0
 10
13.2088491831
 20
31.0934590886
 30
0.0
 10
13.3389744992
 20
30.9977456565
 30
0.0
 10
13.5124011755
 20
30.8550077661
 30
0.0
 10
13.7219137014
 20
30.6532201578
 30
0.0
 10
13.9554332625
 20
30.3818974711
 30
0.0
 10
14.1692466055
 20
30.0841189567
 30
0.0
 10
14.3587790241
 20
29.766254207
 30
0.0
 10
14.5199924218
 20
29.4350803818
 30
0.0
 10
14.6494503093
 20
29.0976483058
 30
0.0
 10
14.7443836264
 20
28.7611698224
 30
0.0
 10
14.7937836447
 20
28.483390134
 30
0.0
 10
14.8135745089
 20
28.2680038299
 30
0.0
 10
14.8169789422
 20
28.1631787903
 30
0.0
 10
14.8169789422
 20
28.1116822482
 30
0.0
  0
SPLINE
  5
2B2
100
AcDbEntity
  8
0
100
AcDbSpline
 62
7
  6
BYLAYER
 70
0
 71
3
 72
11
 73
7
 74
0
 42
0.0000001
 43
0.0000001
 44
0.0000000001
 40
0.0
 40
0.0
 40
0.0
 40
0.0
 40
0.2381704617
 40
0.4852579683
 40
0.7397511466
 40
1.0
 40
1.0
 40
1.0
 40
1.0
 10
17.2823886037
 20
28.7683131948
 30
0.0
 10
17.2823886037
 20
28.6273103246
 30
0.0
 10
17.2715978285
 20
28.3399492714
 30
0.0
 10
17.226795812
 20
27.9040551811
 30
0.0
 10
17.1566623148
 20
27.4583444251
 30
0.0
 10
17.0964940716
 20
27.159520857
 30
0.0
 10
17.063609915
 20
27.0089971798
 30
0.0
  0
SPLINE
  5
2B3
100
AcDbEntity
  8
0
100
AcDbSpline
 62
7
  6
BYLAYER
 70
0
 71
3
 72
11
 73
7
 74
0
 42
0.0000001
 43
0.0000001
 44
0.0000000001
 40
0.0
 40
0.0
 40
0.0
 40
0.0
 40
0.235921388
 40
0.4801629604
 40
0.734458073
 40
1.0
 40
1.0
 40
1.0
 40
1.0
 10
17.063609915
 20
30.2750068483
 30
0.0
 10
17.0972976575
 20
30.1597038652
 30
0.0
 10
17.1590115191
 20
29.9229488869
 30
0.0
 10
17.2288589817
 20
29.5552505685
 30
0.0
 10
17.2728379228
 20
29.1683295763
 30
0.0
 10
17.2823886037
 20
28.9035184476
 30
0.0
 10
17.2823886037
 20
28.7683131948
 30
0.0
  0
SPLINE
  5
2B4
100
AcDbEntity
  8
0
100
AcDbSpline
 62
7
  6
BYLAYER
 70
0
 71
3
 72
19
 73
15
 74
0
 42
0.0000001
 43
0.0000001
 44
0.0000000001
 40
0.0
 40
0.0
 40
0.0
 40
0.0
 40
0.1282636478
 40
0.2561560836
 40
0.3198828217
 40
0.3834024902
 40
0.4466690778
 40
0.5096363372
 40
0.5722654257
 40
0.6345242436
 40
0.6963944295
 40
0.7578675461
 40
0.8796415839
 40
1.0
 40
1.0
 40
1.0
 40
1.0
 10
14.6141099741
 20
33.3221991396
 30
0.0
 10
14.7467255157
 20
33.2176091693
 30
0.0
 10
15.0076110053
 20
33.0036276053
 30
0.0
 10
15.3203009866
 20
32.7210842351
 30
0.0
 10
15.5596451021
 20
32.4852514353
 30
0.0
 10
15.7328167299
 20
32.3036831952
 30
0.0
 10
15.8992717991
 20
32.1172723919
 30
0.0
 10
16.0584810222
 20
31.9261562814
 30
0.0
 10
16.2101180949
 20
31.7306538728
 30
0.0
 10
16.3539542132
 20
31.5311228128
 30
0.0
 10
16.490025508
 20
31.3280496701
 30
0.0
 10
16.660751722
 20
31.0540714683
 30
0.0
 10
16.8562163971
 20
30.7050468049
 30
0.0
 10
16.9968903803
 20
30.4187654838
 30
0.0
 10
17.063609915
 20
30.2750068483
 30
0.0
  0
SPLINE
  5
2B5
100
AcDbEntity
  8
0
100
AcDbSpline
 62
7
  6
BYLAYER
 70
0
 71
3
 72
15
 73
11
 74
0
 42
0.0000001
 43
0.0000001
 44
0.0000000001
 40
0.0
 40
0.0
 40
0.0
 40
0.0
 40
0.1614815995
 40
0.3153308045
 40
0.4594823839
 40
0.592026086
 40
0.7118023402
 40
0.8188368566
 40
0.9142950422
 40
1.0
 40
1.0
 40
1.0
 40
1.0
 10
12.1646100331
 20
33.1033817625
 30
0.0
 10
12.2947894842
 20
33.1308931756
 30
0.0
 10
12.5494203906
 20
33.1826471316
 30
0.0
 10
12.9219857224
 20
33.2501593687
 30
0.0
 10
13.2727680387
 20
33.3034996128
 30
0.0
 10
13.5974301716
 20
33.3405843077
 30
0.0
 10
13.8929948522
 20
33.3603642158
 30
0.0
 10
14.158679732
 20
33.3631875155
 30
0.0
 10
14.3959775305
 20
33.350724428
 30
0.0
 10
14.5443221788
 20
33.3329934407
 30
0.0
 10
14.6141099741
 20
33.3221991396
 30
0.0
  0
SPLINE
  5
2B6
100
AcDbEntity
  8
0
100
AcDbSpline
 62
7
  6
BYLAYER
 70
0
 71
3
 72
11
 73
7
 74
0
 42
0.0000001
 43
0.0000001
 44
0.0000000001
 40
0.0
 40
0.0
 40
0.0
 40
0.0
 40
0.2359213485
 40
0.4801629395
 40
0.7344581474
 40
1.0
 40
1.0
 40
1.0
 40
1.0
 10
15.8076240998
 20
26.2838577597
 30
0.0
 10
15.7739363624
 20
26.3991607254
 30
0.0
 10
15.7122217935
 20
26.6359155178
 30
0.0
 10
15.6423750262
 20
27.0036140413
 30
0.0
 10
15.598396324
 20
27.3905350587
 30
0.0
 10
15.5888454112
 20
27.655346196
 30
0.0
 10
15.5888454112
 20
27.7905514132
 30
0.0
  0
SPLINE
  5
2B7
100
AcDbEntity
  8
0
100
AcDbSpline
 62
7
  6
BYLAYER
 70
0
 71
3
 72
15
 73
11
 74
0
 42
0.0000001
 43
0.0000001
 44
0.0000000001
 40
0.0
 40
0.0
 40
0.0
 40
0.0
 40
0.16148157
 40
0.3153308177
 40
0.4594823768
 40
0.5920260863
 40
0.7118023429
 40
0.8188368483
 40
0.9142950726
 40
1.0
 40
1.0
 40
1.0
 40
1.0
 10
13.3581241588
 20
32.5970597196
 30
0.0
 10
13.2279447315
 20
32.5695483115
 30
0.0
 10
12.9733138019
 20
32.5177944167
 30
0.0
 10
12.6007484941
 20
32.4502820776
 30
0.0
 10
12.2499661439
 20
32.3969418855
 30
0.0
 10
11.9253040231
 20
32.3598571734
 30
0.0
 10
11.6297393416
 20
32.340077248
 30
0.0
 10
11.3640544399
 20
32.3372540172
 30
0.0
 10
11.1267566338
 20
32.3497169633
 30
0.0
 10
10.9784119884
 20
32.3674480453
 30
0.0
 10
10.9086242179
 20
32.3782423424
 30
0.0
  0
SPLINE
  5
2B8
100
AcDbEntity
  8
0
100
AcDbSpline
 62
7
  6
BYLAYER
 70
0
 71
3
 72
19
 73
15
 74
0
 42
0.0000001
 43
0.0000001
 44
0.0000000001
 40
0.0
 40
0.0
 40
0.0
 40
0.0
 40
0.1282636448
 40
0.2561560851
 40
0.3198828171
 40
0.3834024873
 40
0.4466690791
 40
0.5096363362
 40
0.5722654227
 40
0.6345242442
 40
0.6963944311
 40
0.7578675467
 40
0.879641588
 40
1.0
 40
1.0
 40
1.0
 40
1.0
 10
15.8076240998
 20
29.5498674282
 30
0.0
 10
15.6750085612
 20
29.6544573961
 30
0.0
 10
15.4141231989
 20
29.8684391121
 30
0.0
 10
15.1014330205
 20
30.1509822557
 30
0.0
 10
14.8620890016
 20
30.3868151569
 30
0.0
 10
14.688917372
 20
30.5683833916
 30
0.0
 10
14.5224622073
 20
30.7547941169
 30
0.0
 10
14.3632530444
 20
30.9459102806
 30
0.0
 10
14.2116160601
 20
31.1414127543
 30
0.0
 10
14.0677798477
 20
31.3409437488
 30
0.0
 10
13.9317084991
 20
31.5440168645
 30
0.0
 10
13.7609824343
 20
31.8179951628
 30
0.0
 10
13.5655175105
 20
32.167019683
 30
0.0
 10
13.4248436913
 20
32.4533010889
 30
0.0
 10
13.3581241588
 20
32.5970597196
 30
0.0
  0
SPLINE
  5
2B9
100
AcDbEntity
  8
0
100
AcDbSpline
 62
7
  6
BYLAYER
 70
0
 71
3
 72
11
 73
7
 74
0
 42
0.0000001
 43
0.0000001
 44
0.0000000001
 40
0.0
 40
0.0
 40
0.0
 40
0.0
 40
0.2381704328
 40
0.4852579913
 40
0.7397513505
 40
1.0
 40
1.0
 40
1.0
 40
1.0
 10
15.5888454112
 20
27.7905514132
 30
0.0
 10
15.5888454112
 20
27.9315542654
 30
0.0
 10
15.5996359598
 20
28.2189153388
 30
0.0
 10
15.6444382618
 20
28.6548095355
 30
0.0
 10
15.7145722847
 20
29.1005202077
 30
0.0
 10
15.7747399692
 20
29.3993438698
 30
0.0
 10
15.8076240998
 20
29.5498674282
 30
0.0
  0
SPLINE
  5
2BA
100
AcDbEntity
  8
0
100
AcDbSpline
 62
7
  6
BYLAYER
 70
0
 71
3
 72
24
 73
20
 74
0
 42
0.0000001
 43
0.0000001
 44
0.0000000001
 40
0.0
 40
0.0
 40
0.0
 40
0.0
 40
0.0709276952
 40
0.1382602516
 40
0.2021669325
 40
0.2629699187
 40
0.3211526601
 40
0.3773566476
 40
0.4323620804
 40
0.4870402061
 40
0.5422885682
 40
0.5989585205
 40
0.6577967136
 40
0.7194049122
 40
0.7514029035
 40
0.7842420191
 40
0.8525388305
 40
0.9244742058
 40
1.0
 40
1.0
 40
1.0
 40
1.0
 10
13.2926806508
 20
26.3963713881
 30
0.0
 10
13.3590898936
 20
26.3669389125
 30
0.0
 10
13.4911266909
 20
26.3151321284
 30
0.0
 10
13.690695974
 20
26.2586745873
 30
0.0
 10
13.885085973
 20
26.2260203613
 30
0.0
 10
14.0727044411
 20
26.2175319366
 30
0.0
 10
14.2520021399
 20
26.2333995458
 30
0.0
 10
14.4214147436
 20
26.2736488051
 30
0.0
 10
14.579388414
 20
26.3380184576
 30
0.0
 10
14.7244201363
 20
26.425978588
 30
0.0
 10
14.8551325545
 20
26.5366957388
 30
0.0
 10
14.9703874981
 20
26.6690590411
 30
0.0
 10
15.0692432146
 20
26.8218038654
 30
0.0
 10
15.1365082632
 20
26.9631657308
 30
0.0
 10
15.1817670558
 20
27.0845539131
 30
0.0
 10
15.2221943897
 20
27.2148365859
 30
0.0
 10
15.2609797841
 20
27.3881326506
 30
0.0
 10
15.2884717654
 20
27.6076617274
 30
0.0
 10
15.2942780067
 20
27.7587714515
 30
0.0
 10
15.2942780067
 20
27.8361197389
 30
0.0
  0
SPLINE
  5
2BB
100
AcDbEntity
  8
0
100
AcDbSpline
 62
7
  6
BYLAYER
 70
0
 71
3
 72
21
 73
17
 74
0
 42
0.0000001
 43
0.0000001
 44
0.0000000001
 40
0.0
 40
0.0
 40
0.0
 40
0.0
 40
0.0568534305
 40
0.1158479736
 40
0.1767662873
 40
0.239349949
 40
0.3032987228
 40
0.3682919057
 40
0.5000036655
 40
0.6317155017
 40
0.6967093997
 40
0.7606586956
 40
0.823242219
 40
0.8841639748
 40
0.9431589452
 40
1.0
 40
1.0
 40
1.0
 40
1.0
 10
15.2894987441
 20
28.0085119344
 30
0.0
 10
15.2849975717
 20
28.0909741759
 30
0.0
 10
15.2695684549
 20
28.2587116548
 30
0.0
 10
15.2288207597
 20
28.5123997028
 30
0.0
 10
15.1703653784
 20
28.7711399822
 30
0.0
 10
15.094685135
 20
29.0328570917
 30
0.0
 10
15.0023664386
 20
29.2954592297
 30
0.0
 10
14.8574806777
 20
29.6454336962
 30
0.0
 10
14.6401248682
 20
30.0711320116
 30
0.0
 10
14.380148484
 20
30.472225407
 30
0.0
 10
14.1495115548
 20
30.772695162
 30
0.0
 10
13.9682562437
 20
30.9839532697
 30
0.0
 10
13.7794468374
 20
31.180364595
 30
0.0
 10
13.5845976921
 20
31.3603654402
 30
0.0
 10
13.3852863267
 20
31.5224964948
 30
0.0
 10
13.2477578684
 20
31.6197281389
 30
0.0
 10
13.1786111128
 20
31.6648506289
 30
0.0
  0
SPLINE
  5
2BC
100
AcDbEntity
  8
0
100
AcDbSpline
 62
7
  6
BYLAYER
 70
0
 71
3
 72
23
 73
19
 74
0
 42
0.0000001
 43
0.0000001
 44
0.0000000001
 40
0.0
 40
0.0
 40
0.0
 40
0.0
 40
0.0772179612
 40
0.1507766437
 40
0.2205978549
 40
0.2867362888
 40
0.3493966706
 40
0.4089542252
 40
0.4659653654
 40
0.5211581006
 40
0.5754011734
 40
0.6296434772
 40
0.6848338217
 40
0.7418407207
 40
0.8013938152
 40
0.8640491439
 40
0.9301768361
 40
1.0
 40
1.0
 40
1.0
 40
1.0
 10
13.1786111128
 20
31.6648506289
 30
0.0
 10
13.1091124955
 20
31.7102027301
 30
0.0
 10
12.9700164496
 20
31.7937228496
 30
0.0
 10
12.7569735562
 20
31.8984122637
 30
0.0
 10
12.5461990145
 20
31.978661514
 30
0.0
 10
12.3395239821
 20
32.0337189971
 30
0.0
 10
12.1387185574
 20
32.0630095036
 30
0.0
 10
11.9455377181
 20
32.0661427874
 30
0.0
 10
11.7617284316
 20
32.042944785
 30
0.0
 10
11.5890509594
 20
31.9934524307
 30
0.0
 10
11.4292620874
 20
31.9180250042
 30
0.0
 10
11.284017589
 20
31.8174022748
 30
0.0
 10
11.1547869341
 20
31.692648189
 30
0.0
 10
11.0427583053
 20
31.5451039272
 30
0.0
 10
10.9488483916
 20
31.3762736137
 30
0.0
 10
10.8737792022
 20
31.1877585954
 30
0.0
 10
10.8180807076
 20
30.9812857597
 30
0.0
 10
10.7947637834
 20
30.8367725801
 30
0.0
 10
10.7861789439
 20
30.7622253804
 30
0.0
  0
SPLINE
  5
2BD
100
AcDbEntity
  8
0
100
AcDbSpline
 62
7
  6
BYLAYER
 70
0
 71
3
 72
25
 73
21
 74
0
 42
0.0000001
 43
0.0000001
 44
0.0000000001
 40
0.0
 40
0.0
 40
0.0
 40
0.0
 40
0.0213321201
 40
0.0428929012
 40
0.0648983651
 40
0.087543905
 40
0.1353190794
 40
0.18721976
 40
0.2436575725
 40
0.3046047868
 40
0.3696910419
 40
0.4382871759
 40
0.5095732786
 40
0.5825972302
 40
0.6563273896
 40
0.7297038753
 40
0.8016825185
 40
0.8712694833
 40
0.9376259537
 40
1.0
 40
1.0
 40
1.0
 40
1.0
 10
19.2621884013
 20
53.3652723374
 30
0.0
 10
19.2781600155
 20
53.3744930333
 30
0.0
 10
19.3115044057
 20
53.390987451
 30
0.0
 10
19.3646606164
 20
53.4093671165
 30
0.0
 10
19.4207814848
 20
53.4213401365
 30
0.0
 10
19.5004921245
 20
53.4288111382
 30
0.0
 10
19.6067693585
 20
53.4210158359
 30
0.0
 10
19.7378059445
 20
53.3861890097
 30
0.0
 10
19.8721354669
 20
53.3268230021
 30
0.0
 10
20.0070370044
 20
53.244286943
 30
0.0
 10
20.1397871058
 20
53.140362757
 30
0.0
 10
20.2676248181
 20
53.0172484196
 30
0.0
 10
20.3878568672
 20
52.8775493028
 30
0.0
 10
20.4979345448
 20
52.7242397976
 30
0.0
 10
20.5955175974
 20
52.5605898863
 30
0.0
 10
20.6785223723
 20
52.3900845574
 30
0.0
 10
20.7451651315
 20
52.2163641701
 30
0.0
 10
20.7940593889
 20
52.0431006326
 30
0.0
 10
20.8241114525
 20
51.8740140488
 30
0.0
 10
20.8314274508
 20
51.7626498184
 30
0.0
 10
20.8314274508
 20
51.7087258364
 30
0.0
  0
SPLINE
  5
2BE
100
AcDbEntity
  8
0
100
AcDbSpline
 62
7
  6
BYLAYER
 70
0
 71
3
 72
26
 73
22
 74
0
 42
0.0000001
 43
0.0000001
 44
0.0000000001
 40
0.0
 40
0.0
 40
0.0
 40
0.0
 40
0.0623762197
 40
0.1287187767
 40
0.1983048881
 40
0.2702784412
 40
0.3436508624
 40
0.4173797051
 40
0.4904014029
 40
0.5616849136
 40
0.6302788399
 40
0.6953630916
 40
0.7563076832
 40
0.8127424296
 40
0.8392662223
 40
0.8646884681
 40
0.9124611301
 40
0.9351047071
 40
0.9571091161
 40
0.9786687817
 40
1.0
 40
1.0
 40
1.0
 40
1.0
 10
18.4626098716
 20
53.076332364
 30
0.0
 10
18.4626098716
 20
52.9912912643
 30
0.0
 10
18.4741369515
 20
52.8156849668
 30
0.0
 10
18.5215385563
 20
52.5490543557
 30
0.0
 10
18.5986311527
 20
52.2758423589
 30
0.0
 10
18.7037249842
 20
52.0018989543
 30
0.0
 10
18.8346127884
 20
51.7330230706
 30
0.0
 10
18.9884890539
 20
51.4749516478
 30
0.0
 10
19.1620796314
 20
51.2331913408
 30
0.0
 10
19.351683527
 20
51.0128960684
 30
0.0
 10
19.5532725825
 20
50.8187503286
 30
0.0
 10
19.7626175604
 20
50.6548606965
 30
0.0
 10
19.9753265676
 20
50.5247248628
 30
0.0
 10
20.155468351
 20
50.445099318
 30
0.0
 10
20.2969699382
 20
50.4019478703
 30
0.0
 10
20.4300213065
 20
50.3735134018
 30
0.0
 10
20.5614056839
 20
50.3638785612
 30
0.0
 10
20.6870901431
 20
50.375673482
 30
0.0
 10
20.7755883269
 20
50.3945526865
 30
0.0
 10
20.8594177104
 20
50.423520742
 30
0.0
 10
20.9119909059
 20
50.4495490896
 30
0.0
 10
20.9371767885
 20
50.464090023
 30
0.0
  0
SPLINE
  5
2BF
100
AcDbEntity
  8
0
100
AcDbSpline
 62
7
  6
BYLAYER
 70
0
 71
3
 72
14
 73
10
 74
0
 42
0.0000001
 43
0.0000001
 44
0.0000000001
 40
0.0
 40
0.0
 40
0.0
 40
0.0
 40
0.1485922921
 40
0.2896300159
 40
0.5484426189
 40
0.6678480113
 40
0.7818436021
 40
0.8919405416
 40
1.0
 40
1.0
 40
1.0
 40
1.0
 10
20.8314274508
 20
51.7087258364
 30
0.0
 10
20.8314274508
 20
51.6748832382
 30
0.0
 10
20.8286823982
 20
51.6088529944
 30
0.0
 10
20.8118767656
 20
51.4849984921
 30
0.0
 10
20.7779937802
 20
51.3703044873
 30
0.0
 10
20.7251831974
 20
51.2710521497
 30
0.0
 10
20.6786251981
 20
51.2077905238
 30
0.0
 10
20.6244691438
 20
51.154511826
 30
0.0
 10
20.5834953128
 20
51.1259103034
 30
0.0
 10
20.562181215
 20
51.1136052971
 30
0.0
  0
SPLINE
  5
2C0
100
AcDbEntity
  8
0
100
AcDbSpline
 62
7
  6
BYLAYER
 70
0
 71
3
 72
15
 73
11
 74
0
 42
0.0000001
 43
0.0000001
 44
0.0000000001
 40
0.0
 40
0.0
 40
0.0
 40
0.0
 40
0.1080115518
 40
0.2180586955
 40
0.3319965783
 40
0.4513573605
 40
0.5772651976
 40
0.7104895828
 40
0.8514454119
 40
1.0
 40
1.0
 40
1.0
 40
1.0
 10
18.8871928278
 20
54.0147876115
 30
0.0
 10
18.8535822913
 20
53.9953827497
 30
0.0
 10
18.7889562574
 20
53.9502985023
 30
0.0
 10
18.7035770723
 20
53.8662604341
 30
0.0
 10
18.6301388713
 20
53.7665277119
 30
0.0
 10
18.5693399756
 20
53.6522107665
 30
0.0
 10
18.5216359956
 20
53.5244816474
 30
0.0
 10
18.4873990979
 20
53.3845551533
 30
0.0
 10
18.4669247164
 20
53.233805975
 30
0.0
 10
18.4626098716
 20
53.1297100339
 30
0.0
 10
18.4626098716
 20
53.076332364
 30
0.0
  0
SPLINE
  5
2C1
100
AcDbEntity
  8
0
100
AcDbSpline
 62
7
  6
BYLAYER
 70
0
 71
3
 72
26
 73
22
 74
0
 42
0.0000001
 43
0.0000001
 44
0.0000000001
 40
0.0
 40
0.0
 40
0.0
 40
0.0
 40
0.0623762197
 40
0.1287187767
 40
0.1983048881
 40
0.2702784412
 40
0.3436508624
 40
0.4173797051
 40
0.4904014029
 40
0.5616849136
 40
0.6302788399
 40
0.6953630916
 40
0.7563076832
 40
0.8127424296
 40
0.8392662223
 40
0.8646884681
 40
0.9124611301
 40
0.9351047071
 40
0.9571091161
 40
0.9786687817
 40
1.0
 40
1.0
 40
1.0
 40
1.0
 10
21.3617597447
 20
51.4025452705
 30
0.0
 10
21.3617597447
 20
51.4875863702
 30
0.0
 10
21.3502326648
 20
51.6631926677
 30
0.0
 10
21.3028310599
 20
51.9298232788
 30
0.0
 10
21.2257384636
 20
52.2030352756
 30
0.0
 10
21.120644632
 20
52.4769786802
 30
0.0
 10
20.9897568278
 20
52.7458545639
 30
0.0
 10
20.8358805623
 20
53.0039259867
 30
0.0
 10
20.6622899849
 20
53.2456862938
 30
0.0
 10
20.4726860892
 20
53.4659815661
 30
0.0
 10
20.2710970338
 20
53.6601273059
 30
0.0
 10
20.0617520559
 20
53.824016938
 30
0.0
 10
19.8490430486
 20
53.9541527718
 30
0.0
 10
19.6689012652
 20
54.0337783165
 30
0.0
 10
19.527399678
 20
54.0769297642
 30
0.0
 10
19.3943483097
 20
54.1053642327
 30
0.0
 10
19.2629639324
 20
54.1149990733
 30
0.0
 10
19.1372794732
 20
54.1032041525
 30
0.0
 10
19.0487812893
 20
54.084324948
 30
0.0
 10
18.9649519059
 20
54.0553568925
 30
0.0
 10
18.9123787103
 20
54.0293285449
 30
0.0
 10
18.8871928278
 20
54.0147876115
 30
0.0
  0
SPLINE
  5
2C2
100
AcDbEntity
  8
0
100
AcDbSpline
 62
7
  6
BYLAYER
 70
0
 71
3
 72
14
 73
10
 74
0
 42
0.0000001
 43
0.0000001
 44
0.0000000001
 40
0.0
 40
0.0
 40
0.0
 40
0.0
 40
0.1485922921
 40
0.2896300159
 40
0.5484426189
 40
0.6678480113
 40
0.7818436021
 40
0.8919405416
 40
1.0
 40
1.0
 40
1.0
 40
1.0
 10
18.9929421654
 20
52.7701517981
 30
0.0
 10
18.9929421654
 20
52.8039943963
 30
0.0
 10
18.995687218
 20
52.8700246401
 30
0.0
 10
19.0124928507
 20
52.9938791424
 30
0.0
 10
19.0463758361
 20
53.1085731473
 30
0.0
 10
19.0991864188
 20
53.2078254848
 30
0.0
 10
19.1457444182
 20
53.2710871107
 30
0.0
 10
19.1999004724
 20
53.3243658085
 30
0.0
 10
19.2408743035
 20
53.3529673311
 30
0.0
 10
19.2621884013
 20
53.3652723374
 30
0.0
  0
SPLINE
  5
2C3
100
AcDbEntity
  8
0
100
AcDbSpline
 62
7
  6
BYLAYER
 70
0
 71
3
 72
15
 73
11
 74
0
 42
0.0000001
 43
0.0000001
 44
0.0000000001
 40
0.0
 40
0.0
 40
0.0
 40
0.0
 40
0.1080115518
 40
0.2180586955
 40
0.3319965783
 40
0.4513573605
 40
0.5772651976
 40
0.7104895828
 40
0.8514454119
 40
1.0
 40
1.0
 40
1.0
 40
1.0
 10
20.9371767885
 20
50.464090023
 30
0.0
 10
20.9707873249
 20
50.4834948848
 30
0.0
 10
21.0354133588
 20
50.5285791322
 30
0.0
 10
21.1207925439
 20
50.6126172004
 30
0.0
 10
21.1942307449
 20
50.7123499226
 30
0.0
 10
21.2550296407
 20
50.8266668681
 30
0.0
 10
21.3027336206
 20
50.9543959871
 30
0.0
 10
21.3369705183
 20
51.0943224812
 30
0.0
 10
21.3574448998
 20
51.2450716595
 30
0.0
 10
21.3617597447
 20
51.3491676007
 30
0.0
 10
21.3617597447
 20
51.4025452705
 30
0.0
  0
SPLINE
  5
2C4
100
AcDbEntity
  8
0
100
AcDbSpline
 62
7
  6
BYLAYER
 70
0
 71
3
 72
25
 73
21
 74
0
 42
0.0000001
 43
0.0000001
 44
0.0000000001
 40
0.0
 40
0.0
 40
0.0
 40
0.0
 40
0.0213321201
 40
0.0428929012
 40
0.0648983651
 40
0.087543905
 40
0.1353190794
 40
0.18721976
 40
0.2436575725
 40
0.3046047868
 40
0.3696910419
 40
0.4382871759
 40
0.5095732786
 40
0.5825972302
 40
0.6563273896
 40
0.7297038753
 40
0.8016825185
 40
0.8712694833
 40
0.9376259537
 40
1.0
 40
1.0
 40
1.0
 40
1.0
 10
20.562181215
 20
51.1136052971
 30
0.0
 10
20.5462096008
 20
51.1043846012
 30
0.0
 10
20.5128652106
 20
51.0878901835
 30
0.0
 10
20.4597089999
 20
51.0695105181
 30
0.0
 10
20.4035881314
 20
51.0575374981
 30
0.0
 10
20.3238774918
 20
51.0500664963
 30
0.0
 10
20.2176002577
 20
51.0578617986
 30
0.0
 10
20.0865636718
 20
51.0926886248
 30
0.0
 10
19.9522341493
 20
51.1520546324
 30
0.0
 10
19.8173326119
 20
51.2345906916
 30
0.0
 10
19.6845825104
 20
51.3385148775
 30
0.0
 10
19.5567447981
 20
51.4616292149
 30
0.0
 10
19.436512749
 20
51.6013283317
 30
0.0
 10
19.3264350714
 20
51.754637837
 30
0.0
 10
19.2288520188
 20
51.9182877482
 30
0.0
 10
19.145847244
 20
52.0887930771
 30
0.0
 10
19.0792044848
 20
52.2625134644
 30
0.0
 10
19.0303102273
 20
52.4357770019
 30
0.0
 10
19.0002581637
 20
52.6048635858
 30
0.0
 10
18.9929421654
 20
52.7162278161
 30
0.0
 10
18.9929421654
 20
52.7701517981
 30
0.0
  0
SPLINE
  5
2C5
100
AcDbEntity
  8
0
100
AcDbSpline
 62
7
  6
BYLAYER
 70
0
 71
3
 72
18
 73
14
 74
0
 42
0.0000001
 43
0.0000001
 44
0.0000000001
 40
0.0
 40
0.0
 40
0.0
 40
0.0
 40
0.1485489903
 40
0.2894277995
 40
0.4226067831
 40
0.5484936898
 40
0.6678195929
 40
0.7254032594
 40
0.7818084143
 40
0.8372394667
 40
0.8919196626
 40
0.9460889222
 40
1.0
 40
1.0
 40
1.0
 40
1.0
 10
32.6401098133
 20
51.8312269572
 30
0.0
 10
32.6401098133
 20
51.5838089664
 30
0.0
 10
32.620162743
 20
51.1014147125
 30
0.0
 10
32.525210088
 20
50.4028558599
 30
0.0
 10
32.3665643931
 20
49.7544582913
 30
0.0
 10
32.1455804402
 20
49.1625731677
 30
0.0
 10
31.9078593553
 20
48.7157477503
 30
0.0
 10
31.6884569021
 20
48.3946249856
 30
0.0
 10
31.5118194015
 20
48.1741944494
 30
0.0
 10
31.3216327531
 20
47.9719261199
 30
0.0
 10
31.1183431151
 20
47.7883104462
 30
0.0
 10
30.9024422991
 20
47.6238681071
 30
0.0
 10
30.7503036545
 20
47.5271653701
 30
0.0
 10
30.672542535
 20
47.4822667776
 30
0.0
  0
SPLINE
  5
2C6
100
AcDbEntity
  8
0
100
AcDbSpline
 62
7
  6
BYLAYER
 70
0
 71
3
 72
33
 73
29
 74
0
 42
0.0000001
 43
0.0000001
 44
0.0000000001
 40
0.0
 40
0.0
 40
0.0
 40
0.0
 40
0.0213264317
 40
0.0428812274
 40
0.0648808007
 40
0.0875194517
 40
0.110962867
 40
0.1353431419
 40
0.1607597142
 40
0.1872780622
 40
0.214934813
 40
0.2437377557
 40
0.2736716388
 40
0.3046986622
 40
0.3367632071
 40
0.3697929483
 40
0.4383715226
 40
0.5096383929
 40
0.5826425493
 40
0.6563538324
 40
0.7297109961
 40
0.8016677027
 40
0.8368201281
 40
0.8712619349
 40
0.9048865275
 40
0.9376046865
 40
0.9693381061
 40
1.0
 40
1.0
 40
1.0
 40
1.0
 10
21.1725923139
 20
63.9367614728
 30
0.0
 10
21.2893049187
 20
64.0041503134
 30
0.0
 10
21.5329558681
 20
64.1247250126
 30
0.0
 10
21.9214218674
 20
64.259017833
 30
0.0
 10
22.3315155639
 20
64.3464792352
 30
0.0
 10
22.7607787554
 20
64.3867539876
 30
0.0
 10
23.2068270617
 20
64.3797082424
 30
0.0
 10
23.6672215931
 20
64.3255925815
 30
0.0
 10
24.1394812352
 20
64.2247333882
 30
0.0
 10
24.6211156391
 20
64.0778405719
 30
0.0
 10
25.1095489742
 20
63.8856910837
 30
0.0
 10
25.6022189075
 20
63.6494180769
 30
0.0
 10
26.0964842523
 20
63.3702666742
 30
0.0
 10
26.5897280831
 20
63.0497860197
 30
0.0
 10
27.0793155815
 20
62.6896825529
 30
0.0
 10
27.7318037662
 20
62.1526360477
 30
0.0
 10
28.5200724176
 20
61.393437758
 30
0.0
 10
29.3986580772
 20
60.3726161247
 30
0.0
 10
30.2031001285
 20
59.2522652549
 30
0.0
 10
30.9161980956
 20
58.0563280206
 30
0.0
 10
31.5227163584
 20
56.810371543
 30
0.0
 10
31.9318387568
 20
55.7440577073
 30
0.0
 10
32.1938118347
 20
54.8884690654
 30
0.0
 10
32.3549262507
 20
54.2561219477
 30
0.0
 10
32.4813058493
 20
53.6316095615
 30
0.0
 10
32.572289071
 20
53.0182296653
 30
0.0
 10
32.627306104
 20
52.419382037
 30
0.0
 10
32.6401098133
 20
52.024992087
 30
0.0
 10
32.6401098133
 20
51.8312269572
 30
0.0
  0
SPLINE
  5
2C7
100
AcDbEntity
  8
0
100
AcDbSpline
 62
7
  6
BYLAYER
 70
0
 71
3
 72
18
 73
14
 74
0
 42
0.0000001
 43
0.0000001
 44
0.0000000001
 40
0.0
 40
0.0
 40
0.0
 40
0.0
 40
0.0539108668
 40
0.1080799303
 40
0.1627599609
 40
0.2181908553
 40
0.2745959085
 40
0.3321795196
 40
0.451505458
 40
0.5773924406
 40
0.7105716433
 40
0.8514509537
 40
1.0
 40
1.0
 40
1.0
 40
1.0
 10
17.6370732476
 20
61.8955404931
 30
0.0
 10
17.5593124177
 20
61.8506421072
 30
0.0
 10
17.4071741755
 20
61.7539400166
 30
0.0
 10
17.1912741466
 20
61.5894981977
 30
0.0
 10
16.9879852998
 20
61.4058829932
 30
0.0
 10
16.7977984456
 20
61.203615836
 30
0.0
 10
16.6211614703
 20
60.9831855476
 30
0.0
 10
16.4017586441
 20
60.662063315
 30
0.0
 10
16.1640373564
 20
60.2152379114
 30
0.0
 10
15.9430521021
 20
59.6233527189
 30
0.0
 10
15.7844059758
 20
58.9749538637
 30
0.0
 10
15.6894532012
 20
58.2763937582
 30
0.0
 10
15.6695058495
 20
57.7939986
 30
0.0
 10
15.6695058495
 20
57.5465805238
 30
0.0
  0
SPLINE
  5
2C8
100
AcDbEntity
  8
0
100
AcDbSpline
 62
7
  6
BYLAYER
 70
0
 71
3
 72
15
 73
11
 74
0
 42
0.0000001
 43
0.0000001
 44
0.0000000001
 40
0.0
 40
0.0
 40
0.0
 40
0.0
 40
0.1123248959
 40
0.229217921
 40
0.3502490158
 40
0.4749979372
 40
0.6029454185
 40
0.7335116492
 40
0.8660800559
 40
1.0
 40
1.0
 40
1.0
 40
1.0
 10
15.6695058495
 20
57.5465805238
 30
0.0
 10
15.6695058495
 20
57.3160749216
 30
0.0
 10
15.687653204
 20
56.8455482425
 30
0.0
 10
15.7650550092
 20
56.1304693041
 30
0.0
 10
15.8926985931
 20
55.3967454226
 30
0.0
 10
16.0695620389
 20
54.6500307473
 30
0.0
 10
16.2942795213
 20
53.8958869816
 30
0.0
 10
16.5651894561
 20
53.1400292752
 30
0.0
 10
16.8802213393
 20
52.388207128
 30
0.0
 10
17.1172720872
 20
51.8950756071
 30
0.0
 10
17.2425513504
 20
51.6504698675
 30
0.0
  0
SPLINE
  5
2C9
100
AcDbEntity
  8
0
100
AcDbSpline
 62
7
  6
BYLAYER
 70
0
 71
3
 72
14
 73
10
 74
0
 42
0.0000001
 43
0.0000001
 44
0.0000000001
 40
0.0
 40
0.0
 40
0.0
 40
0.0
 40
0.2681095288
 40
0.3963993654
 40
0.5213704603
 40
0.6435688161
 40
0.7636112013
 40
0.8821802507
 40
1.0
 40
1.0
 40
1.0
 40
1.0
 10
24.5811057341
 20
45.0702173067
 30
0.0
 10
24.8130169756
 20
45.0288621518
 30
0.0
 10
25.1610488378
 20
44.9911692192
 30
0.0
 10
25.6195007646
 20
44.9976617575
 30
0.0
 10
25.9482112194
 20
45.0303207116
 30
0.0
 10
26.2655959615
 20
45.090735032
 30
0.0
 10
26.5706319978
 20
45.17881651
 30
0.0
 10
26.8622689915
 20
45.2942101688
 30
0.0
 10
27.0473736519
 20
45.3892833796
 30
0.0
 10
27.1370232291
 20
45.4410462185
 30
0.0
  0
SPLINE
  5
2CA
100
AcDbEntity
  8
0
100
AcDbSpline
 62
7
  6
BYLAYER
 70
0
 71
3
 72
18
 73
14
 74
0
 42
0.0000001
 43
0.0000001
 44
0.0000000001
 40
0.0
 40
0.0
 40
0.0
 40
0.0
 40
0.0539108668
 40
0.1080799303
 40
0.1627599609
 40
0.2181908553
 40
0.2745959085
 40
0.3321795196
 40
0.451505458
 40
0.5773924406
 40
0.7105716433
 40
0.8514509537
 40
1.0
 40
1.0
 40
1.0
 40
1.0
 10
27.1370232291
 20
45.4410462185
 30
0.0
 10
27.214784059
 20
45.4859446044
 30
0.0
 10
27.3669223012
 20
45.582646695
 30
0.0
 10
27.5828223301
 20
45.7470885139
 30
0.0
 10
27.7861111769
 20
45.9307037185
 30
0.0
 10
27.9762980312
 20
46.1329708756
 30
0.0
 10
28.1529350065
 20
46.353401164
 30
0.0
 10
28.3723378326
 20
46.6745233966
 30
0.0
 10
28.6100591204
 20
47.1213488002
 30
0.0
 10
28.8310443746
 20
47.7132339927
 30
0.0
 10
28.9896905009
 20
48.3616328479
 30
0.0
 10
29.0846432756
 20
49.0601929535
 30
0.0
 10
29.1045906273
 20
49.5425881116
 30
0.0
 10
29.1045906273
 20
49.7900061879
 30
0.0
  0
SPLINE
  5
2CB
100
AcDbEntity
  8
0
100
AcDbSpline
 62
7
  6
BYLAYER
 70
0
 71
3
 72
33
 73
29
 74
0
 42
0.0000001
 43
0.0000001
 44
0.0000000001
 40
0.0
 40
0.0
 40
0.0
 40
0.0
 40
0.0306618612
 40
0.0623951524
 40
0.0951131637
 40
0.1287376649
 40
0.1631793823
 40
0.1983317293
 40
0.2702884026
 40
0.3436457108
 40
0.4173572147
 40
0.490361588
 40
0.5616286942
 40
0.6302075171
 40
0.6632373643
 40
0.6953019775
 40
0.7263290334
 40
0.7562628963
 40
0.7850657872
 40
0.8127224534
 40
0.8392407108
 40
0.8646571903
 40
0.8890373867
 40
0.9124807339
 40
0.9351193339
 40
0.9571188595
 40
0.9786736126
 40
1.0
 40
1.0
 40
1.0
 40
1.0
 10
29.1045906273
 20
49.7900061879
 30
0.0
 10
29.1045906273
 20
49.9837711105
 30
0.0
 10
29.0917871634
 20
50.3781600508
 30
0.0
 10
29.0367701845
 20
50.9770057217
 30
0.0
 10
28.9457877122
 20
51.590383379
 30
0.0
 10
28.8194085639
 20
52.2148937308
 30
0.0
 10
28.6582955154
 20
52.8472395048
 30
0.0
 10
28.3963228153
 20
53.7028269412
 30
0.0
 10
27.9872013959
 20
54.7691413462
 30
0.0
 10
27.3806828889
 20
56.0151000671
 30
0.0
 10
26.6675835475
 20
57.2110407755
 30
0.0
 10
25.863139161
 20
58.3313952252
 30
0.0
 10
24.9845504811
 20
59.3522201448
 30
0.0
 10
24.1962786302
 20
60.1114204992
 30
0.0
 10
23.5437881261
 20
60.6484684109
 30
0.0
 10
23.0541989962
 20
61.0085718589
 30
0.0
 10
22.5609545626
 20
61.3290525322
 30
0.0
 10
22.0666888384
 20
61.6082027526
 30
0.0
 10
21.574019624
 20
61.8444749702
 30
0.0
 10
21.0855872108
 20
62.0366228797
 30
0.0
 10
20.6039542999
 20
62.1835147723
 30
0.0
 10
20.131696096
 20
62.2843727435
 30
0.0
 10
19.6713030284
 20
62.3384879074
 30
0.0
 10
19.2252559746
 20
62.3455328688
 30
0.0
 10
18.7959938228
 20
62.3052582183
 30
0.0
 10
18.3859011834
 20
62.2177962491
 30
0.0
 10
17.9974358294
 20
62.0835041473
 30
0.0
 10
17.7537856353
 20
61.9629291492
 30
0.0
 10
17.6370732476
 20
61.8955404931
 30
0.0
  0
SPLINE
  5
2CC
100
AcDbEntity
  8
0
100
AcDbSpline
 62
7
  6
BYLAYER
 70
0
 71
3
 72
14
 73
10
 74
0
 42
0.0000001
 43
0.0000001
 44
0.0000000001
 40
0.0
 40
0.0
 40
0.0
 40
0.0
 40
0.1080384808
 40
0.2181155941
 40
0.3320834023
 40
0.4514750365
 40
0.577409997
 40
0.7106520706
 40
1.0
 40
1.0
 40
1.0
 40
1.0
 10
9.4481151829
 20
29.9603581641
 30
0.0
 10
9.4071279409
 20
29.9366986564
 30
0.0
 10
9.328326006
 20
29.8817128977
 30
0.0
 10
9.2242073828
 20
29.7792400827
 30
0.0
 10
9.1346491009
 20
29.6576234501
 30
0.0
 10
9.0605152951
 20
29.5182255886
 30
0.0
 10
9.0023253934
 20
29.3624695995
 30
0.0
 10
8.9451279355
 20
29.1286734127
 30
0.0
 10
8.9303558827
 20
28.9426488208
 30
0.0
 10
8.9303426752
 20
28.8159013262
 30
0.0
  0
SPLINE
  5
2CD
100
AcDbEntity
  8
0
100
AcDbSpline
 62
7
  6
BYLAYER
 70
0
 71
3
 72
11
 73
7
 74
0
 42
0.0000001
 43
0.0000001
 44
0.0000000001
 40
0.0
 40
0.0
 40
0.0
 40
0.0
 40
0.2736185161
 40
0.5305902484
 40
0.7719970298
 40
1.0
 40
1.0
 40
1.0
 40
1.0
 10
22.0880378631
 20
29.0011070338
 30
0.0
 10
22.2373345856
 20
28.9324802335
 30
0.0
 10
22.5339260706
 20
28.8139636149
 30
0.0
 10
22.9829655728
 20
28.6938622999
 30
0.0
 10
23.4170768386
 20
28.6386156393
 30
0.0
 10
23.7003337834
 20
28.6459993658
 30
0.0
 10
23.8363814483
 20
28.6614393425
 30
0.0
  0
SPLINE
  5
2CE
100
AcDbEntity
  8
0
100
AcDbSpline
 62
7
  6
BYLAYER
 70
0
 71
3
 72
15
 73
11
 74
0
 42
0.0000001
 43
0.0000001
 44
0.0000000001
 40
0.0
 40
0.0
 40
0.0
 40
0.0
 40
0.1464935486
 40
0.2859039345
 40
0.4181942134
 40
0.5438158289
 40
0.6635746915
 40
0.778569766
 40
0.8901690608
 40
1.0
 40
1.0
 40
1.0
 40
1.0
 10
10.8063469134
 20
25.6953798083
 30
0.0
 10
10.8582541344
 20
25.6690887028
 30
0.0
 10
10.9617215214
 20
25.6218849778
 30
0.0
 10
11.1187394802
 20
25.5669479054
 30
0.0
 10
11.2725338137
 20
25.530222912
 30
0.0
 10
11.4217929879
 20
25.5120437629
 30
0.0
 10
11.565339149
 20
25.5126631801
 30
0.0
 10
11.7020009501
 20
25.5321318539
 30
0.0
 10
11.8305414943
 20
25.570398657
 30
0.0
 10
11.9103162981
 20
25.6084274161
 30
0.0
 10
11.9480973526
 20
25.6302361816
 30
0.0
  0
SPLINE
  5
2CF
100
AcDbEntity
  8
0
100
AcDbSpline
 62
7
  6
BYLAYER
 70
0
 71
3
 72
15
 73
11
 74
0
 42
0.0000001
 43
0.0000001
 44
0.0000000001
 40
0.0
 40
0.0
 40
0.0
 40
0.0
 40
0.1164696476
 40
0.2409802166
 40
0.3710262773
 40
0.5036856294
 40
0.6358336285
 40
0.7643905006
 40
0.886525762
 40
1.0
 40
1.0
 40
1.0
 40
1.0
 10
8.9331169389
 20
28.3826862755
 30
0.0
 10
8.939069166
 20
28.2672103833
 30
0.0
 10
8.9703880743
 20
28.0290598652
 30
0.0
 10
9.0656214758
 20
27.6723613715
 30
0.0
 10
9.207644623
 20
27.3142401175
 30
0.0
 10
9.3915224874
 20
26.9671751973
 30
0.0
 10
9.6108852812
 20
26.6431491081
 30
0.0
 10
9.8581799624
 20
26.3533905576
 30
0.0
 10
10.1247915166
 20
26.1078852933
 30
0.0
 10
10.317666604
 20
25.9737127628
 30
0.0
 10
10.4152231733
 20
25.9173748983
 30
0.0
  0
SPLINE
  5
2D0
100
AcDbEntity
  8
0
100
AcDbSpline
 62
7
  6
BYLAYER
 70
0
 71
3
 72
15
 73
11
 74
0
 42
0.0000001
 43
0.0000001
 44
0.0000000001
 40
0.0
 40
0.0
 40
0.0
 40
0.0
 40
0.1464935486
 40
0.2859039345
 40
0.4181942134
 40
0.5438158289
 40
0.6635746915
 40
0.778569766
 40
0.8901690608
 40
1.0
 40
1.0
 40
1.0
 40
1.0
 10
10.5898656221
 20
29.8952145374
 30
0.0
 10
10.5379584011
 20
29.9215056429
 30
0.0
 10
10.4344910141
 20
29.9687093679
 30
0.0
 10
10.2774730553
 20
30.0236464402
 30
0.0
 10
10.1236787218
 20
30.0603714336
 30
0.0
 10
9.9744195476
 20
30.0785505828
 30
0.0
 10
9.8308733865
 20
30.0779311656
 30
0.0
 10
9.6942115854
 20
30.0584624918
 30
0.0
 10
9.5656710412
 20
30.0201956887
 30
0.0
 10
9.4858962374
 20
29.9821669296
 30
0.0
 10
9.4481151829
 20
29.9603581641
 30
0.0
  0
SPLINE
  5
2D1
100
AcDbEntity
  8
0
100
AcDbSpline
 62
7
  6
BYLAYER
 70
0
 71
3
 72
18
 73
14
 74
0
 42
0.0000001
 43
0.0000001
 44
0.0000000001
 40
0.0
 40
0.0
 40
0.0
 40
0.0
 40
0.0574741761
 40
0.1173665548
 40
0.2429657275
 40
0.374125145
 40
0.5076239674
 40
0.6400562962
 40
0.7680997609
 40
0.8295541561
 40
0.8888638983
 40
0.9457681673
 40
1.0
 40
1.0
 40
1.0
 40
1.0
 10
12.4625636869
 20
26.9015961576
 30
0.0
 10
12.4589449167
 20
26.9718019318
 30
0.0
 10
12.4456738667
 20
27.1149151571
 30
0.0
 10
12.3966984082
 20
27.4082388774
 30
0.0
 10
12.2935761648
 20
27.7827993487
 30
0.0
 10
12.112133068
 20
28.2254127593
 30
0.0
 10
11.8776811146
 20
28.6519751212
 30
0.0
 10
11.5990793871
 20
29.0463855142
 30
0.0
 10
11.3351428537
 20
29.3400882416
 30
0.0
 10
11.1104053954
 20
29.5455824929
 30
0.0
 10
10.9401252436
 20
29.6809167255
 30
0.0
 10
10.7674996567
 20
29.7981569038
 30
0.0
 10
10.649041084
 20
29.8652420542
 30
0.0
 10
10.5898656221
 20
29.8952145374
 30
0.0
  0
SPLINE
  5
2D2
100
AcDbEntity
  8
0
100
AcDbSpline
 62
7
  6
BYLAYER
 70
0
 71
3
 72
15
 73
11
 74
0
 42
0.0000001
 43
0.0000001
 44
0.0000000001
 40
0.0
 40
0.0
 40
0.0
 40
0.0
 40
0.1062308369
 40
0.2147826783
 40
0.3277352792
 40
0.4467471958
 40
0.5729834022
 40
0.7071764079
 40
0.8496307844
 40
1.0
 40
1.0
 40
1.0
 40
1.0
 10
11.9480973526
 20
25.6302361816
 30
0.0
 10
11.9922993959
 20
25.6557514037
 30
0.0
 10
12.07707671
 20
25.7157725591
 30
0.0
 10
12.1876611292
 20
25.8289420308
 30
0.0
 10
12.2810582988
 20
25.9641404987
 30
0.0
 10
12.3563237944
 20
26.1195712016
 30
0.0
 10
12.412797352
 20
26.2934304642
 30
0.0
 10
12.4500212408
 20
26.4838082218
 30
0.0
 10
12.4676067852
 20
26.6885464013
 30
0.0
 10
12.4662825607
 20
26.8294483263
 30
0.0
 10
12.4625636869
 20
26.9015961576
 30
0.0
  0
SPLINE
  5
2D3
100
AcDbEntity
  8
0
100
AcDbSpline
 62
7
  6
BYLAYER
 70
0
 71
3
 72
19
 73
15
 74
0
 42
0.0000001
 43
0.0000001
 44
0.0000000001
 40
0.0
 40
0.0
 40
0.0
 40
0.0
 40
0.1461677225
 40
0.2793698413
 40
0.3416323162
 40
0.4014427342
 40
0.4593050371
 40
0.5158203391
 40
0.5716809888
 40
0.6276183005
 40
0.6843613328
 40
0.7425845385
 40
0.8655167436
 40
1.0
 40
1.0
 40
1.0
 40
1.0
 10
10.32432168
 20
29.395895374
 30
0.0
 10
10.2474613052
 20
29.434825299
 30
0.0
 10
10.0949300684
 20
29.4989445094
 30
0.0
 10
9.8969684813
 20
29.5430489721
 30
0.0
 10
9.74641109
 20
29.5511133933
 30
0.0
 10
9.6403040717
 20
29.5442205341
 30
0.0
 10
9.5392264076
 20
29.5245774264
 30
0.0
 10
9.4439101093
 20
29.4921989546
 30
0.0
 10
9.3550549931
 20
29.4473305894
 30
0.0
 10
9.2733178683
 20
29.3902865788
 30
0.0
 10
9.1993077034
 20
29.3214756294
 30
0.0
 10
9.1099856787
 20
29.2129002098
 30
0.0
 10
9.020534469
 20
29.0476732438
 30
0.0
 10
8.977805083
 20
28.9010085084
 30
0.0
 10
8.9620201372
 20
28.8233261628
 30
0.0
  0
SPLINE
  5
2D4
100
AcDbEntity
  8
0
100
AcDbSpline
 62
7
  6
BYLAYER
 70
0
 71
3
 72
9
 73
5
 74
0
 42
0.0000001
 43
0.0000001
 44
0.0000000001
 40
0.0
 40
0.0
 40
0.0
 40
0.0
 40
0.2395282119
 40
1.0
 40
1.0
 40
1.0
 40
1.0
 10
8.9620201372
 20
28.8233261628
 30
0.0
 10
8.9566802072
 20
28.7970468021
 30
0.0
 10
8.9375094292
 20
28.686704861
 30
0.0
 10
8.9303489536
 20
28.5744222211
 30
0.0
 10
8.9303399104
 20
28.4892835219
 30
0.0
  0
SPLINE
  5
2D5
100
AcDbEntity
  8
0
100
AcDbSpline
 62
7
  6
BYLAYER
 70
0
 71
3
 72
16
 73
12
 74
0
 42
0.0000001
 43
0.0000001
 44
0.0000000001
 40
0.0
 40
0.0
 40
0.0
 40
0.0
 40
0.1173059998
 40
0.2429245646
 40
0.3741035255
 40
0.507621982
 40
0.6400737995
 40
0.7681363759
 40
0.8888463675
 40
0.9457597329
 40
1.0
 40
1.0
 40
1.0
 40
1.0
 10
11.8973684381
 20
26.8812872926
 30
0.0
 10
11.8911652318
 20
27.0016322954
 30
0.0
 10
11.8576771754
 20
27.2500114822
 30
0.0
 10
11.7554380068
 20
27.6214389265
 30
0.0
 10
11.6030009472
 20
27.9932965368
 30
0.0
 10
11.4060793522
 20
28.3515729968
 30
0.0
 10
11.1720257705
 20
28.6829200507
 30
0.0
 10
10.9096369421
 20
28.9748694268
 30
0.0
 10
10.6707339887
 20
29.1804175707
 30
0.0
 10
10.4735370735
 20
29.3143678824
 30
0.0
 10
10.3740286112
 20
29.3707187194
 30
0.0
 10
10.32432168
 20
29.395895374
 30
0.0
  0
SPLINE
  5
2D6
100
AcDbEntity
  8
0
100
AcDbSpline
 62
7
  6
BYLAYER
 70
0
 71
3
 72
9
 73
5
 74
0
 42
0.0000001
 43
0.0000001
 44
0.0000000001
 40
0.0
 40
0.0
 40
0.0
 40
0.0
 40
0.2620183949
 40
1.0
 40
1.0
 40
1.0
 40
1.0
 10
10.5061636971
 20
25.8680781941
 30
0.0
 10
10.5337434384
 20
25.8541090031
 30
0.0
 10
10.640336582
 20
25.8035444708
 30
0.0
 10
10.7525748656
 20
25.7643095178
 30
0.0
 10
10.8373409815
 20
25.7443912314
 30
0.0
  0
SPLINE
  5
2D7
100
AcDbEntity
  8
0
100
AcDbSpline
 62
7
  6
BYLAYER
 70
0
 71
3
 72
19
 73
15
 74
0
 42
0.0000001
 43
0.0000001
 44
0.0000000001
 40
0.0
 40
0.0
 40
0.0
 40
0.0
 40
0.1259893635
 40
0.1850520326
 40
0.2420751984
 40
0.2976770535
 40
0.3525760883
 40
0.4075362651
 40
0.4633198422
 40
0.5206302852
 40
0.5800818829
 40
0.7070251555
 40
0.8468342631
 40
1.0
 40
1.0
 40
1.0
 40
1.0
 10
10.8373409815
 20
25.7443912314
 30
0.0
 10
10.9132462064
 20
25.7265550713
 30
0.0
 10
11.0279565835
 20
25.7108528186
 30
0.0
 10
11.1779186656
 20
25.7181353304
 30
0.0
 10
11.2828143714
 20
25.7370601728
 30
0.0
 10
11.381632457
 20
25.7695593424
 30
0.0
 10
11.4736138264
 20
25.815384672
 30
0.0
 10
11.5580272019
 20
25.8741896367
 30
0.0
 10
11.634197815
 20
25.9455123187
 30
0.0
 10
11.7016132779
 20
26.0287426301
 30
0.0
 10
11.780837842
 20
26.1575058323
 30
0.0
 10
11.8545207169
 20
26.3473809584
 30
0.0
 10
11.899768006
 20
26.6045436221
 30
0.0
 10
11.9022480126
 20
26.7866213469
 30
0.0
 10
11.8973684381
 20
26.8812872926
 30
0.0
  0
SPLINE
  5
2D8
100
AcDbEntity
  8
0
100
AcDbSpline
 62
7
  6
BYLAYER
 70
0
 71
3
 72
9
 73
5
 74
0
 42
0.0000001
 43
0.0000001
 44
0.0000000001
 40
0.0
 40
0.0
 40
0.0
 40
0.0
 40
0.2455717687
 40
1.0
 40
1.0
 40
1.0
 40
1.0
 10
21.3022821623
 20
31.499788901
 30
0.0
 10
21.2866849609
 20
31.5639573039
 30
0.0
 10
21.219150049
 20
31.8242714006
 30
0.0
 10
21.1359532517
 20
32.0804742635
 30
0.0
 10
21.0654364279
 20
32.270697945
 30
0.0
  0
SPLINE
  5
2D9
100
AcDbEntity
  8
0
100
AcDbSpline
 62
7
  6
BYLAYER
 70
0
 71
3
 72
15
 73
11
 74
0
 42
0.0000001
 43
0.0000001
 44
0.0000000001
 40
0.0
 40
0.0
 40
0.0
 40
0.0
 40
0.1098276901
 40
0.2214214869
 40
0.3364162084
 40
0.4561855185
 40
0.5818077423
 40
0.7140769702
 40
0.8534750849
 40
1.0
 40
1.0
 40
1.0
 40
1.0
 10
18.4728551565
 20
57.181932572
 30
0.0
 10
18.3972931455
 20
57.1383148238
 30
0.0
 10
18.2516740827
 20
57.0381374028
 30
0.0
 10
18.0568243756
 20
56.8537990053
 30
0.0
 10
17.8864480414
 20
56.6365386815
 30
0.0
 10
17.7418284579
 20
56.3885110174
 30
0.0
 10
17.6240556771
 20
56.1118067009
 30
0.0
 10
17.5338652799
 20
55.8087216215
 30
0.0
 10
17.4719891882
 20
55.481814318
 30
0.0
 10
17.4502957186
 20
55.2553761657
 30
0.0
 10
17.4439257257
 20
55.139150698
 30
0.0
  0
SPLINE
  5
2DA
100
AcDbEntity
  8
0
100
AcDbSpline
 62
7
  6
BYLAYER
 70
0
 71
3
 72
25
 73
21
 74
0
 42
0.0000001
 43
0.0000001
 44
0.0000000001
 40
0.0
 40
0.0
 40
0.0
 40
0.0
 40
0.0213620566
 40
0.042964639
 40
0.0650356319
 40
0.0877773245
 40
0.1358606702
 40
0.1882321312
 40
0.2452791675
 40
0.3069269344
 40
0.3727414448
 40
0.4420202486
 40
0.5138675883
 40
0.587257895
 40
0.6610925393
 40
0.7342505739
 40
0.8056471288
 40
0.8742745724
 40
0.9392830378
 40
1.0
 40
1.0
 40
1.0
 40
1.0
 10
19.8870628574
 20
57.9984208027
 30
0.0
 10
19.9500964229
 20
58.0348063617
 30
0.0
 10
20.081846672
 20
58.099723607
 30
0.0
 10
20.2921559975
 20
58.1712939737
 30
0.0
 10
20.5144021537
 20
58.2168394009
 30
0.0
 10
20.8304436361
 20
58.2432239264
 30
0.0
 10
21.2519213909
 20
58.2065251503
 30
0.0
 10
21.7707046756
 20
58.0598359314
 30
0.0
 10
22.301602296
 20
57.8143827384
 30
0.0
 10
22.8333052841
 20
57.4760384749
 30
0.0
 10
23.3545090768
 20
57.0524436735
 30
0.0
 10
23.8537964756
 20
56.5530259551
 30
0.0
 10
24.3201054274
 20
55.9889198723
 30
0.0
 10
24.7430204485
 20
55.3727443248
 30
0.0
 10
25.1130552036
 20
54.7183200307
 30
0.0
 10
25.4219262854
 20
54.040328904
 30
0.0
 10
25.6626730567
 20
53.3539760914
 30
0.0
 10
25.8299703442
 20
52.6745146085
 30
0.0
 10
25.9199561599
 20
52.017217315
 30
0.0
 10
25.9272837957
 20
51.5875030203
 30
0.0
 10
25.9159630766
 20
51.3809477059
 30
0.0
  0
SPLINE
  5
2DB
100
AcDbEntity
  8
0
100
AcDbSpline
 62
7
  6
BYLAYER
 70
0
 71
3
 72
16
 73
12
 74
0
 42
0.0000001
 43
0.0000001
 44
0.0000000001
 40
0.0
 40
0.0
 40
0.0
 40
0.0
 40
0.146011888
 40
0.2849716986
 40
0.4169766587
 40
0.4805457981
 40
0.5425895909
 40
0.6624720068
 40
0.7777301907
 40
0.8897146626
 40
1.0
 40
1.0
 40
1.0
 40
1.0
 10
15.3739883486
 20
23.4817692611
 30
0.0
 10
15.5364992175
 20
23.40236099
 30
0.0
 10
15.8601662162
 20
23.2601322628
 30
0.0
 10
16.3507074028
 20
23.0960098517
 30
0.0
 10
16.7558356143
 20
23.0047252028
 30
0.0
 10
17.0721600763
 20
22.9612789714
 30
0.0
 10
17.3754997689
 20
22.9377108314
 30
0.0
 10
17.7446980209
 20
22.9428940051
 30
0.0
 10
18.171314282
 20
23.0070850826
 30
0.0
 10
18.5728622939
 20
23.1288118595
 30
0.0
 10
18.8223704837
 20
23.2482352495
 30
0.0
 10
18.9406868902
 20
23.3165400426
 30
0.0
  0
SPLINE
  5
2DC
100
AcDbEntity
  8
0
100
AcDbSpline
 62
7
  6
BYLAYER
 70
0
 71
3
 72
11
 73
7
 74
0
 42
0.0000001
 43
0.0000001
 44
0.0000000001
 40
0.0
 40
0.0
 40
0.0
 40
0.0
 40
0.2370325024
 40
0.4835556324
 40
0.7382951784
 40
1.0
 40
1.0
 40
1.0
 40
1.0
 10
9.3004471513
 20
33.0007699704
 30
0.0
 10
9.314746738
 20
32.7775711726
 30
0.0
 10
9.3620449817
 20
32.3232537346
 30
0.0
 10
9.4835283463
 20
31.6367682741
 30
0.0
 10
9.65597642
 20
30.9373120299
 30
0.0
 10
9.8021497187
 20
30.4720795416
 30
0.0
 10
9.8830912833
 20
30.2387856164
 30
0.0
  0
SPLINE
  5
2DD
100
AcDbEntity
  8
0
100
AcDbSpline
 62
7
  6
BYLAYER
 70
0
 71
3
 72
9
 73
5
 74
0
 42
0.0000001
 43
0.0000001
 44
0.0000000001
 40
0.0
 40
0.0
 40
0.0
 40
0.0
 40
0.5100505009
 40
1.0
 40
1.0
 40
1.0
 40
1.0
 10
12.3955710448
 20
25.8806051274
 30
0.0
 10
12.6171167953
 20
25.6238193232
 30
0.0
 10
13.0720891557
 20
25.1377169973
 30
0.0
 10
13.5681680615
 20
24.6933249321
 30
0.0
 10
13.8212658198
 20
24.4882013471
 30
0.0
  0
SPLINE
  5
2DE
100
AcDbEntity
  8
0
100
AcDbSpline
 62
7
  6
BYLAYER
 70
0
 71
3
 72
11
 73
7
 74
0
 42
0.0000001
 43
0.0000001
 44
0.0000000001
 40
0.0
 40
0.0
 40
0.0
 40
0.0
 40
0.2300156641
 40
0.4712754393
 40
0.7272134062
 40
1.0
 40
1.0
 40
1.0
 40
1.0
 10
10.426950721
 20
36.7879394379
 30
0.0
 10
10.2975835918
 20
36.6648796853
 30
0.0
 10
10.0562132183
 20
36.3868323811
 30
0.0
 10
9.7640286781
 20
35.9010295816
 30
0.0
 10
9.5380045876
 20
35.3454716118
 30
0.0
 10
9.4361193334
 20
34.9465679683
 30
0.0
 10
9.3956989194
 20
34.7387124713
 30
0.0
  0
SPLINE
  5
2DF
100
AcDbEntity
  8
0
100
AcDbSpline
 62
7
  6
BYLAYER
 70
0
 71
3
 72
14
 73
10
 74
0
 42
0.0000001
 43
0.0000001
 44
0.0000000001
 40
0.0
 40
0.0
 40
0.0
 40
0.0
 40
0.1432535702
 40
0.2808823114
 40
0.5390694486
 40
0.6604503814
 40
0.7772688425
 40
0.8901988819
 40
1.0
 40
1.0
 40
1.0
 40
1.0
 10
11.842584739
 20
40.3922357229
 30
0.0
 10
11.8322296463
 20
40.203299013
 30
0.0
 10
11.7996276877
 20
39.8333089264
 30
0.0
 10
11.6856761085
 20
39.1301048861
 30
0.0
 10
11.497796973
 20
38.4690070542
 30
0.0
 10
11.2299256237
 20
37.8695613121
 30
0.0
 10
10.9982207166
 20
37.4667437043
 30
0.0
 10
10.7327961046
 20
37.104097
 30
0.0
 10
10.5320347594
 20
36.8879000374
 30
0.0
 10
10.426950721
 20
36.7879394379
 30
0.0
  0
SPLINE
  5
2E0
100
AcDbEntity
  8
0
100
AcDbSpline
 62
7
  6
BYLAYER
 70
0
 71
3
 72
14
 73
10
 74
0
 42
0.0000001
 43
0.0000001
 44
0.0000000001
 40
0.0
 40
0.0
 40
0.0
 40
0.0
 40
0.1465077155
 40
0.2859866935
 40
0.5436453622
 40
0.6634464943
 40
0.7784754552
 40
0.8901239666
 40
1.0
 40
1.0
 40
1.0
 40
1.0
 10
22.4726293702
 20
51.8796831468
 30
0.0
 10
22.4699235824
 20
51.8303139477
 30
0.0
 10
22.4606828372
 20
51.7340717114
 30
0.0
 10
22.4265658556
 20
51.5536793575
 30
0.0
 10
22.3684874922
 20
51.3872512771
 30
0.0
 10
22.2845729542
 20
51.2432871606
 30
0.0
 10
22.2121238825
 20
51.150983316
 30
0.0
 10
22.1293422183
 20
51.0726167294
 30
0.0
 10
22.0674473658
 20
51.0300411967
 30
0.0
 10
22.0353318029
 20
51.0115052545
 30
0.0
  0
SPLINE
  5
2E1
100
AcDbEntity
  8
0
100
AcDbSpline
 62
7
  6
BYLAYER
 70
0
 71
3
 72
11
 73
7
 74
0
 42
0.0000001
 43
0.0000001
 44
0.0000000001
 40
0.0
 40
0.0
 40
0.0
 40
0.0
 40
0.2625256741
 40
0.5179114211
 40
0.7642677829
 40
1.0
 40
1.0
 40
1.0
 40
1.0
 10
21.251597963
 20
31.5048393465
 30
0.0
 10
21.356086012
 20
31.235932265
 30
0.0
 10
21.5445662929
 20
30.6983484621
 30
0.0
 10
21.7661014462
 20
29.887473345
 30
0.0
 10
21.9203801675
 20
29.091079366
 30
0.0
 10
21.9786125096
 20
28.563737247
 30
0.0
 10
21.9951750166
 20
28.3052170751
 30
0.0
  0
SPLINE
  5
2E2
100
AcDbEntity
  8
0
100
AcDbSpline
 62
7
  6
BYLAYER
 70
0
 71
3
 72
13
 73
9
 74
0
 42
0.0000001
 43
0.0000001
 44
0.0000000001
 40
0.0
 40
0.0
 40
0.0
 40
0.0
 40
0.1123729889
 40
0.2289446549
 40
0.3494370577
 40
0.4735864415
 40
0.7315759605
 40
1.0
 40
1.0
 40
1.0
 40
1.0
 10
20.3146220899
 20
36.6340327307
 30
0.0
 10
20.3038584003
 20
36.4376408532
 30
0.0
 10
20.2957025109
 20
36.036665008
 30
0.0
 10
20.321416605
 20
35.4252401472
 30
0.0
 10
20.3848551665
 20
34.7958456461
 30
0.0
 10
20.5208867004
 20
33.9262949488
 30
0.0
 10
20.7848166958
 20
32.8165960111
 30
0.0
 10
21.0814353395
 20
31.9427644
 30
0.0
 10
21.251597963
 20
31.5048393465
 30
0.0
  0
SPLINE
  5
2E3
100
AcDbEntity
  8
0
100
AcDbSpline
 62
7
  6
BYLAYER
 70
0
 71
3
 72
24
 73
20
 74
0
 42
0.0000001
 43
0.0000001
 44
0.0000000001
 40
0.0
 40
0.0
 40
0.0
 40
0.0
 40
0.0213629708
 40
0.0429659835
 40
0.0877028214
 40
0.1357886411
 40
0.188163476
 40
0.2452159925
 40
0.3068677546
 40
0.3726870058
 40
0.4419717968
 40
0.5138241503
 40
0.5872199496
 40
0.6610585037
 40
0.7342248001
 40
0.8056280818
 40
0.8742568506
 40
0.9392934961
 40
1.0
 40
1.0
 40
1.0
 40
1.0
 10
19.910349325
 20
54.6921048416
 30
0.0
 10
19.9371384368
 20
54.7075665488
 30
0.0
 10
19.9931365773
 20
54.73515051
 30
0.0
 10
20.1136180533
 20
54.7761889826
 30
0.0
 10
20.2794952707
 20
54.7989655896
 30
0.0
 10
20.4903383383
 20
54.7805344607
 30
0.0
 10
20.7109019871
 20
54.7182240785
 30
0.0
 10
20.936501968
 20
54.6138870291
 30
0.0
 10
21.1624854258
 20
54.470101097
 30
0.0
 10
21.3840003067
 20
54.2900812841
 30
0.0
 10
21.5961877637
 20
54.0778208919
 30
0.0
 10
21.7943708882
 20
53.838080362
 30
0.0
 10
21.9741178558
 20
53.5762172321
 30
0.0
 10
22.1313799978
 20
53.2980854736
 30
0.0
 10
22.2626434688
 20
53.0099351413
 30
0.0
 10
22.3649801062
 20
52.7182443825
 30
0.0
 10
22.4360923012
 20
52.4294448675
 30
0.0
 10
22.4742981833
 20
52.150084965
 30
0.0
 10
22.477439453
 20
51.9674468442
 30
0.0
 10
22.4726293702
 20
51.8796831468
 30
0.0
  0
SPLINE
  5
2E4
100
AcDbEntity
  8
0
100
AcDbSpline
 62
7
  6
BYLAYER
 70
0
 71
3
 72
15
 73
11
 74
0
 42
0.0000001
 43
0.0000001
 44
0.0000000001
 40
0.0
 40
0.0
 40
0.0
 40
0.0
 40
0.1414494905
 40
0.2771269764
 40
0.4072753353
 40
0.5324382356
 40
0.6533445301
 40
0.7708710908
 40
0.886040084
 40
1.0
 40
1.0
 40
1.0
 40
1.0
 10
21.8999232484
 20
26.5672745741
 30
0.0
 10
21.873163602
 20
26.429667384
 30
0.0
 10
21.810298703
 20
26.1619403714
 30
0.0
 10
21.6847162437
 20
25.7777977376
 30
0.0
 10
21.5303004447
 20
25.4217330555
 30
0.0
 10
21.3478995116
 20
25.095756218
 30
0.0
 10
21.1383449395
 20
24.8016775082
 30
0.0
 10
20.902742551
 20
24.5411158703
 30
0.0
 10
20.6423257909
 20
24.3157405908
 30
0.0
 10
20.4527063119
 20
24.1894956761
 30
0.0
 10
20.3548945643
 20
24.1330283509
 30
0.0
  0
SPLINE
  5
2E5
100
AcDbEntity
  8
0
100
AcDbSpline
 62
7
  6
BYLAYER
 70
0
 71
3
 72
9
 73
5
 74
0
 42
0.0000001
 43
0.0000001
 44
0.0000000001
 40
0.0
 40
0.0
 40
0.0
 40
0.0
 40
0.4939627104
 40
1.0
 40
1.0
 40
1.0
 40
1.0
 10
22.0353318029
 20
51.0115052545
 30
0.0
 10
21.9954958836
 20
50.9885134017
 30
0.0
 10
21.9100845776
 20
50.9497936949
 30
0.0
 10
21.8189348242
 20
50.9280607312
 30
0.0
 10
21.7723241963
 20
50.921156794
 30
0.0
  0
SPLINE
  5
2E6
100
AcDbEntity
  8
0
100
AcDbSpline
 62
7
  6
BYLAYER
 70
0
 71
3
 72
25
 73
21
 74
0
 42
0.0000001
 43
0.0000001
 44
0.0000000001
 40
0.0
 40
0.0
 40
0.0
 40
0.0
 40
0.0607163011
 40
0.1257238133
 40
0.1943511107
 40
0.2657477737
 40
0.3389064292
 40
0.4127420927
 40
0.486133611
 40
0.5579820356
 40
0.6272615378
 40
0.6930762892
 40
0.7547238966
 40
0.8117704489
 40
0.8641411986
 40
0.9122237701
 40
0.9349651201
 40
0.9570358028
 40
0.9786381404
 40
1.0
 40
1.0
 40
1.0
 40
1.0
 10
24.5017554022
 20
50.5644593981
 30
0.0
 10
24.5130759983
 20
50.771012468
 30
0.0
 10
24.5057497242
 20
51.2007212667
 30
0.0
 10
24.4157649778
 20
51.8580126494
 30
0.0
 10
24.2484710002
 20
52.5374714504
 30
0.0
 10
24.0077244348
 20
53.2238265067
 30
0.0
 10
23.6988518712
 20
53.901823521
 30
0.0
 10
23.3288127098
 20
54.5562565464
 30
0.0
 10
22.9058909605
 20
55.1724412575
 30
0.0
 10
22.4395740285
 20
55.7365540795
 30
0.0
 10
21.9402796956
 20
56.235974692
 30
0.0
 10
21.4190717185
 20
56.6595686142
 30
0.0
 10
20.8873679077
 20
56.9979091024
 30
0.0
 10
20.356472875
 20
57.2433568698
 30
0.0
 10
19.8376949635
 20
57.3900406672
 30
0.0
 10
19.4162232708
 20
57.4267353426
 30
0.0
 10
19.100186718
 20
57.4003503107
 30
0.0
 10
18.8779438364
 20
57.3548040974
 30
0.0
 10
18.6676371453
 20
57.2832341797
 30
0.0
 10
18.5358880493
 20
57.2183179568
 30
0.0
 10
18.4728551565
 20
57.181932572
 30
0.0
  0
SPLINE
  5
2E7
100
AcDbEntity
  8
0
100
AcDbSpline
 62
7
  6
BYLAYER
 70
0
 71
3
 72
9
 73
5
 74
0
 42
0.0000001
 43
0.0000001
 44
0.0000000001
 40
0.0
 40
0.0
 40
0.0
 40
0.0
 40
0.5078998643
 40
1.0
 40
1.0
 40
1.0
 40
1.0
 10
19.674073657
 20
54.4741975844
 30
0.0
 10
19.7057862476
 20
54.5188094741
 30
0.0
 10
19.7769707961
 20
54.600875798
 30
0.0
 10
19.8644183792
 20
54.6655951597
 30
0.0
 10
19.910349325
 20
54.6921048416
 30
0.0
  0
SPLINE
  5
2E8
100
AcDbEntity
  8
0
100
AcDbSpline
 62
7
  6
BYLAYER
 70
0
 71
3
 72
15
 73
11
 74
0
 42
0.0000001
 43
0.0000001
 44
0.0000000001
 40
0.0
 40
0.0
 40
0.0
 40
0.0
 40
0.1139599145
 40
0.2291289066
 40
0.3466554668
 40
0.4675617602
 40
0.5927246604
 40
0.7228730216
 40
0.8585505104
 40
1.0
 40
1.0
 40
1.0
 40
1.0
 10
18.9406868902
 20
23.3165400426
 30
0.0
 10
19.0384986358
 20
23.3730073682
 30
0.0
 10
19.2281181121
 20
23.4992522817
 30
0.0
 10
19.4885348716
 20
23.7246275574
 30
0.0
 10
19.7241372567
 20
23.9851891947
 30
0.0
 10
19.9336918317
 20
24.2792678999
 30
0.0
 10
20.1160927652
 20
24.6052447386
 30
0.0
 10
20.2705085671
 20
24.9613094248
 30
0.0
 10
20.3960910263
 20
25.345452063
 30
0.0
 10
20.4589559277
 20
25.6131790771
 30
0.0
 10
20.4857155739
 20
25.7507862663
 30
0.0
  0
SPLINE
  5
2E9
100
AcDbEntity
  8
0
100
AcDbSpline
 62
7
  6
BYLAYER
 70
0
 71
3
 72
13
 73
9
 74
0
 42
0.0000001
 43
0.0000001
 44
0.0000000001
 40
0.0
 40
0.0
 40
0.0
 40
0.0
 40
0.2684240395
 40
0.5264135585
 40
0.6505629423
 40
0.7710553451
 40
0.8876270111
 40
1.0
 40
1.0
 40
1.0
 40
1.0
 10
19.8373902886
 20
30.6883510385
 30
0.0
 10
19.6672276651
 20
31.1262760921
 30
0.0
 10
19.3706090214
 20
32.0001077032
 30
0.0
 10
19.106679026
 20
33.109806641
 30
0.0
 10
18.9706474921
 20
33.9793573383
 30
0.0
 10
18.9072089306
 20
34.6087518394
 30
0.0
 10
18.8814948365
 20
35.2201767002
 30
0.0
 10
18.8896507259
 20
35.6211525454
 30
0.0
 10
18.9004144154
 20
35.817544423
 30
0.0
  0
SPLINE
  5
2EA
100
AcDbEntity
  8
0
100
AcDbSpline
 62
7
  6
BYLAYER
 70
0
 71
3
 72
11
 73
7
 74
0
 42
0.0000001
 43
0.0000001
 44
0.0000000001
 40
0.0
 40
0.0
 40
0.0
 40
0.0
 40
0.2357322171
 40
0.4820885789
 40
0.7374743259
 40
1.0
 40
1.0
 40
1.0
 40
1.0
 10
20.5809673421
 20
27.4887287673
 30
0.0
 10
20.5644048352
 20
27.7472489392
 30
0.0
 10
20.5061724931
 20
28.2745910582
 30
0.0
 10
20.3518937718
 20
29.0709850371
 30
0.0
 10
20.1303586185
 20
29.8818601542
 30
0.0
 10
19.9418783376
 20
30.4194439571
 30
0.0
 10
19.8373902886
 20
30.6883510385
 30
0.0
  0
SPLINE
  5
2EB
100
AcDbEntity
  8
0
100
AcDbSpline
 62
7
  6
BYLAYER
 70
0
 71
3
 72
11
 73
7
 74
0
 42
0.0000001
 43
0.0000001
 44
0.0000000001
 40
0.0
 40
0.0
 40
0.0
 40
0.0
 40
0.2177788803
 40
0.4509038793
 40
0.7102916011
 40
1.0
 40
1.0
 40
1.0
 40
1.0
 10
43.7835687427
 20
18.9769593419
 30
0.0
 10
43.7835687345
 20
18.9503009128
 30
0.0
 10
43.7737164622
 20
18.894736022
 30
0.0
 10
43.7315896834
 20
18.8173174248
 30
0.0
 10
43.6649944857
 20
18.7473348172
 30
0.0
 10
43.6092731142
 20
18.7089594922
 30
0.0
 10
43.5785597614
 20
18.6912298598
 30
0.0
  0
SPLINE
  5
2EC
100
AcDbEntity
  8
0
100
AcDbSpline
 62
7
  6
BYLAYER
 70
0
 71
3
 72
12
 73
8
 74
0
 42
0.0000001
 43
0.0000001
 44
0.0000000001
 40
0.0
 40
0.0
 40
0.0
 40
0.0
 40
0.2690917472
 40
0.5277983402
 40
0.6520368931
 40
0.7723071291
 40
1.0
 40
1.0
 40
1.0
 40
1.0
 10
25.9816053606
 20
6.9124300865
 30
0.0
 10
26.3295066427
 20
6.9477676892
 30
0.0
 10
27.0087785186
 20
7.0538334408
 30
0.0
 10
27.8274332339
 20
7.2809231535
 30
0.0
 10
28.4379064672
 20
7.5168204137
 30
0.0
 10
28.9937425239
 20
7.7773923071
 30
0.0
 10
29.3818047206
 20
8.0147050828
 30
0.0
 10
29.6187812606
 20
8.1918899903
 30
0.0
  0
SPLINE
  5
2ED
100
AcDbEntity
  8
0
100
AcDbSpline
 62
7
  6
BYLAYER
 70
0
 71
3
 72
12
 73
8
 74
0
 42
0.0000001
 43
0.0000001
 44
0.0000000001
 40
0.0
 40
0.0
 40
0.0
 40
0.0
 40
0.2287726837
 40
0.3492992308
 40
0.4735936884
 40
0.7318745559
 40
1.0
 40
1.0
 40
1.0
 40
1.0
 10
20.4382445977
 20
8.1234730651
 30
0.0
 10
20.6733768952
 20
7.9563697934
 30
0.0
 10
21.0553553819
 20
7.7324411236
 30
0.0
 10
21.5995631074
 20
7.4860570486
 30
0.0
 10
22.1939925048
 20
7.2632049079
 30
0.0
 10
22.9878240824
 20
7.0480549026
 30
0.0
 10
23.6452528396
 20
6.946588152
 30
0.0
 10
23.9816054449
 20
6.912425278
 30
0.0
  0
SPLINE
  5
2EE
100
AcDbEntity
  8
0
100
AcDbSpline
 62
7
  6
BYLAYER
 70
0
 71
3
 72
14
 73
10
 74
0
 42
0.0000001
 43
0.0000001
 44
0.0000000001
 40
0.0
 40
0.0
 40
0.0
 40
0.0
 40
0.2688475903
 40
0.4003719327
 40
0.5283892134
 40
0.6522713536
 40
0.7718245423
 40
0.8875143738
 40
1.0
 40
1.0
 40
1.0
 40
1.0
 10
32.9999195896
 20
9.5405418682
 30
0.0
 10
33.057768004
 20
9.5405420072
 30
0.0
 10
33.1446390763
 20
9.5526213279
 30
0.0
 10
33.2513765803
 20
9.5926761722
 30
0.0
 10
33.3235909541
 20
9.633324163
 30
0.0
 10
33.386221864
 20
9.6835863527
 30
0.0
 10
33.4372987809
 20
9.7421680835
 30
0.0
 10
33.4750824417
 20
9.8072810957
 30
0.0
 10
33.490773917
 20
9.854251106
 30
0.0
 10
33.495916568
 20
9.8779021906
 30
0.0
  0
LINE
  5
2EF
100
AcDbEntity
  8
0
100
AcDbLine
 62
7
  6
BYLAYER
 10
33.6889642485
 20
10.7658665009
 11
33.495916568
 21
9.8779021906
  0
SPLINE
  5
2F0
100
AcDbEntity
  8
0
100
AcDbSpline
 62
7
  6
BYLAYER
 70
0
 71
3
 72
15
 73
11
 74
0
 42
0.0000001
 43
0.0000001
 44
0.0000000001
 40
0.0
 40
0.0
 40
0.0
 40
0.0
 40
0.1418779225
 40
0.2809873655
 40
0.4160108358
 40
0.5457730687
 40
0.6693802688
 40
0.7862808185
 40
0.8963623557
 40
1.0
 40
1.0
 40
1.0
 40
1.0
 10
25.9975806339
 20
7.5131192165
 30
0.0
 10
26.4048275244
 20
7.5385917567
 30
0.0
 10
27.2098348953
 20
7.6195188269
 30
0.0
 10
28.3884929353
 20
7.8320898524
 30
0.0
 10
29.5122124274
 20
8.1318929181
 30
0.0
 10
30.5632530838
 20
8.5148186367
 30
0.0
 10
31.5252589831
 20
8.9758316063
 30
0.0
 10
32.383483754
 20
9.5095432351
 30
0.0
 10
33.1241359025
 20
10.1100261851
 30
0.0
 10
33.5428575709
 20
10.5640835033
 30
0.0
 10
33.7253819588
 20
10.7997241696
 30
0.0
  0
SPLINE
  5
2F1
100
AcDbEntity
  8
0
100
AcDbSpline
 62
7
  6
BYLAYER
 70
0
 71
3
 72
13
 73
9
 74
0
 42
0.0000001
 43
0.0000001
 44
0.0000000001
 40
0.0
 40
0.0
 40
0.0
 40
0.0
 40
0.1138872912
 40
0.2317143861
 40
0.3531155618
 40
0.4777807991
 40
0.7351315051
 40
1.0
 40
1.0
 40
1.0
 40
1.0
 10
18.3290891096
 20
9.0581599784
 30
0.0
 10
18.5236485194
 20
8.9479126441
 30
0.0
 10
18.9277518632
 20
8.7379150542
 30
0.0
 10
19.5630755034
 20
8.4591363038
 30
0.0
 10
20.2342102078
 20
8.2126454882
 30
0.0
 10
21.1806898971
 20
7.9259394686
 30
0.0
 10
22.4250443719
 20
7.6589121346
 30
0.0
 10
23.4460700109
 20
7.5456326705
 30
0.0
 10
23.9651392775
 20
7.5131488712
 30
0.0
  0
SPLINE
  5
2F2
100
AcDbEntity
  8
0
100
AcDbSpline
 62
7
  6
BYLAYER
 70
0
 71
3
 72
11
 73
7
 74
0
 42
0.0000001
 43
0.0000001
 44
0.0000000001
 40
0.0
 40
0.0
 40
0.0
 40
0.0
 40
0.2340059049
 40
0.604360584
 40
0.7990614356
 40
1.0
 40
1.0
 40
1.0
 40
1.0
 10
16.2377815115
 20
10.7997241696
 30
0.0
 10
16.3685499193
 20
10.6309009503
 30
0.0
 10
16.7333838
 20
10.2155275614
 30
0.0
 10
17.2873953232
 20
9.7366023969
 30
0.0
 10
17.8606073889
 20
9.3359940975
 30
0.0
 10
18.169552638
 20
9.1485615207
 30
0.0
 10
18.3290891096
 20
9.0581599784
 30
0.0
  0
SPLINE
  5
2F3
100
AcDbEntity
  8
0
100
AcDbSpline
 62
7
  6
BYLAYER
 70
0
 71
3
 72
13
 73
9
 74
0
 42
0.0000001
 43
0.0000001
 44
0.0000000001
 40
0.0
 40
0.0
 40
0.0
 40
0.0
 40
0.1204495475
 40
0.2414650681
 40
0.3634792452
 40
0.4868722937
 40
0.7388739216
 40
1.0
 40
1.0
 40
1.0
 40
1.0
 10
14.7760641407
 20
13.83764491
 30
0.0
 10
14.7823362691
 20
13.7339096539
 30
0.0
 10
14.8035815918
 20
13.5263750977
 30
0.0
 10
14.8610697838
 20
13.2177430116
 30
0.0
 10
14.9439617814
 20
12.9122898443
 30
0.0
 10
15.088568886
 20
12.5078185875
 30
0.0
 10
15.3322578079
 20
12.0133221065
 30
0.0
 10
15.5821800978
 20
11.6461116349
 30
0.0
 10
15.720147465
 20
11.4679944928
 30
0.0
  0
SPLINE
  5
2F4
100
AcDbEntity
  8
0
100
AcDbSpline
 62
7
  6
BYLAYER
 70
0
 71
3
 72
13
 73
9
 74
0
 42
0.0000001
 43
0.0000001
 44
0.0000000001
 40
0.0
 40
0.0
 40
0.0
 40
0.0
 40
0.2611259612
 40
0.5131274706
 40
0.6365204394
 40
0.7585346706
 40
0.8795503836
 40
1.0
 40
1.0
 40
1.0
 40
1.0
 10
34.2430160053
 20
11.4679944928
 30
0.0
 10
34.3809834853
 20
11.6461117806
 30
0.0
 10
34.6309059011
 20
12.0133226009
 30
0.0
 10
34.8745950276
 20
12.5078194485
 30
0.0
 10
35.0192022426
 20
12.912291119
 30
0.0
 10
35.1020940816
 20
13.2177448986
 30
0.0
 10
35.1595821429
 20
13.5263776862
 30
0.0
 10
35.1808274282
 20
13.7339127385
 30
0.0
 10
35.1870995048
 20
13.8376481892
 30
0.0
  0
LINE
  5
2F5
100
AcDbEntity
  8
0
100
AcDbLine
 62
7
  6
BYLAYER
 10
16.4672552291
 20
9.8778612587
 11
16.2760072197
 21
10.7575454719
  0
SPLINE
  5
2F6
100
AcDbEntity
  8
0
100
AcDbSpline
 62
7
  6
BYLAYER
 70
0
 71
3
 72
14
 73
10
 74
0
 42
0.0000001
 43
0.0000001
 44
0.0000000001
 40
0.0
 40
0.0
 40
0.0
 40
0.0
 40
0.1124849117
 40
0.2281738017
 40
0.3477275376
 40
0.4716107209
 40
0.5996290703
 40
0.7311540879
 40
1.0
 40
1.0
 40
1.0
 40
1.0
 10
16.4672552291
 20
9.8778612587
 30
0.0
 10
16.4723978444
 20
9.8542103629
 30
0.0
 10
16.4880886922
 20
9.8072405982
 30
0.0
 10
16.525872538
 20
9.7421280547
 30
0.0
 10
16.5769495432
 20
9.6835464049
 30
0.0
 10
16.6395809635
 20
9.6332841229
 30
0.0
 10
16.7117958616
 20
9.5926360852
 30
0.0
 10
16.8185335037
 20
9.552582044
 30
0.0
 10
16.9054042456
 20
9.5405031817
 30
0.0
 10
16.9632522074
 20
9.5405033208
 30
0.0
  0
SPLINE
  5
2F7
100
AcDbEntity
  8
0
100
AcDbSpline
 62
7
  6
BYLAYER
 70
0
 71
3
 72
15
 73
11
 74
0
 42
0.0000001
 43
0.0000001
 44
0.0000000001
 40
0.0
 40
0.0
 40
0.0
 40
0.0
 40
0.1141215042
 40
0.2373450237
 40
0.3669706836
 40
0.4999994085
 40
0.633028218
 40
0.7626540997
 40
0.8858780511
 40
1.0
 40
1.0
 40
1.0
 40
1.0
 10
25.4765662884
 20
8.2401014401
 30
0.0
 10
25.4426970151
 20
8.2205442276
 30
0.0
 10
25.3686008968
 20
8.1860540722
 30
0.0
 10
25.2479660667
 20
8.1493616124
 30
0.0
 10
25.117336023
 20
8.1268031593
 30
0.0
 10
24.9816600643
 20
8.1191739255
 30
0.0
 10
24.8459839913
 20
8.1268024896
 30
0.0
 10
24.7153535871
 20
8.1493603462
 30
0.0
 10
24.594718197
 20
8.186052213
 30
0.0
 10
24.5206215381
 20
8.22054194
 30
0.0
 10
24.4867520356
 20
8.2400990605
 30
0.0
  0
SPLINE
  5
2F8
100
AcDbEntity
  8
0
100
AcDbSpline
 62
7
  6
BYLAYER
 70
0
 71
3
 72
11
 73
7
 74
0
 42
0.0000001
 43
0.0000001
 44
0.0000000001
 40
0.0
 40
0.0
 40
0.0
 40
0.0
 40
0.2897087928
 40
0.5490965701
 40
0.782221438
 40
1.0
 40
1.0
 40
1.0
 40
1.0
 10
6.3846062873
 20
18.6911413471
 30
0.0
 10
6.3538925074
 20
18.7088709648
 30
0.0
 10
6.2981703763
 20
18.747246353
 30
0.0
 10
6.2315742221
 20
18.8172292924
 30
0.0
 10
6.1894467733
 20
18.8946483688
 30
0.0
 10
6.1795943134
 20
18.9502137031
 30
0.0
 10
6.1795943203
 20
18.9768723297
 30
0.0
  0
SPLINE
  5
2F9
100
AcDbEntity
  8
0
100
AcDbSpline
 62
7
  6
BYLAYER
 70
0
 71
3
 72
10
 73
6
 74
0
 42
0.0000001
 43
0.0000001
 44
0.0000000001
 40
0.0
 40
0.0
 40
0.0
 40
0.0
 40
0.2680022093
 40
0.5241442182
 40
1.0
 40
1.0
 40
1.0
 40
1.0
 10
17.760453103
 20
9.8870957858
 30
0.0
 10
17.560243643
 20
10.0026841565
 30
0.0
 10
17.1765502293
 20
10.2430385155
 30
0.0
 10
16.4841712082
 20
10.7581287618
 30
0.0
 10
16.0263969756
 20
11.2006193549
 30
0.0
 10
15.7648988557
 20
11.5170207349
 30
0.0
  0
SPLINE
  5
2FA
100
AcDbEntity
  8
0
100
AcDbSpline
 62
7
  6
BYLAYER
 70
0
 71
3
 72
13
 73
9
 74
0
 42
0.0000001
 43
0.0000001
 44
0.0000000001
 40
0.0
 40
0.0
 40
0.0
 40
0.0
 40
0.2669705072
 40
0.5203004848
 40
0.6429031716
 40
0.7633603964
 40
0.882203751
 40
1.0
 40
1.0
 40
1.0
 40
1.0
 10
15.7648988557
 20
11.5170207349
 30
0.0
 10
15.6198630093
 20
11.6925078167
 30
0.0
 10
15.3581044359
 20
12.0526665089
 30
0.0
 10
15.1018063609
 20
12.5398695589
 30
0.0
 10
14.9508917371
 20
12.9358031462
 30
0.0
 10
14.8649897714
 20
13.2326176426
 30
0.0
 10
14.8053780394
 20
13.5316089519
 30
0.0
 10
14.7832429056
 20
13.7324991037
 30
0.0
 10
14.776662166
 20
13.8327364404
 30
0.0
  0
SPLINE
  5
2FB
100
AcDbEntity
  8
0
100
AcDbSpline
 62
7
  6
BYLAYER
 70
0
 71
3
 72
9
 73
5
 74
0
 42
0.0000001
 43
0.0000001
 44
0.0000000001
 40
0.0
 40
0.0
 40
0.0
 40
0.0
 40
0.2439315899
 40
1.0
 40
1.0
 40
1.0
 40
1.0
 10
15.720162362
 20
11.4679983391
 30
0.0
 10
15.7603506237
 20
11.4161159582
 30
0.0
 10
15.9291099985
 20
11.2065426725
 30
0.0
 10
16.1132754048
 20
11.0095021449
 30
0.0
 10
16.2591443847
 20
10.8677338333
 30
0.0
  0
SPLINE
  5
2FC
100
AcDbEntity
  8
0
100
AcDbSpline
 62
7
  6
BYLAYER
 70
0
 71
3
 72
9
 73
5
 74
0
 42
0.0000001
 43
0.0000001
 44
0.0000000001
 40
0.0
 40
0.0
 40
0.0
 40
0.0
 40
0.4828414929
 40
1.0
 40
1.0
 40
1.0
 40
1.0
 10
16.2591443847
 20
10.8677338333
 30
0.0
 10
16.482221204
 20
10.6509281487
 30
0.0
 10
16.9774689143
 20
10.2354542036
 30
0.0
 10
17.5192182783
 20
9.8840007009
 30
0.0
 10
17.8077662309
 20
9.7174112316
 30
0.0
  0
SPLINE
  5
2FD
100
AcDbEntity
  8
0
100
AcDbSpline
 62
7
  6
BYLAYER
 70
0
 71
3
 72
10
 73
6
 74
0
 42
0.0000001
 43
0.0000001
 44
0.0000000001
 40
0.0
 40
0.0
 40
0.0
 40
0.0
 40
0.2694160873
 40
0.5260165206
 40
1.0
 40
1.0
 40
1.0
 40
1.0
 10
18.2087204503
 20
9.1469833669
 30
0.0
 10
18.0076413256
 20
9.2630738274
 30
0.0
 10
17.623463209
 20
9.5051032696
 30
0.0
 10
16.936279854
 20
10.025836101
 30
0.0
 10
16.4879319092
 20
10.4767869023
 30
0.0
 10
16.2377984599
 20
10.7997285453
 30
0.0
  0
SPLINE
  5
2FE
100
AcDbEntity
  8
0
100
AcDbSpline
 62
7
  6
BYLAYER
 70
0
 71
3
 72
13
 73
9
 74
0
 42
0.0000001
 43
0.0000001
 44
0.0000000001
 40
0.0
 40
0.0
 40
0.0
 40
0.0
 40
0.1179325615
 40
0.2368816167
 40
0.3574087181
 40
0.4800394955
 40
0.7332941759
 40
1.0
 40
1.0
 40
1.0
 40
1.0
 10
35.1871763578
 20
13.843326369
 30
0.0
 10
35.1809528387
 20
13.7438122988
 30
0.0
 10
35.1596780212
 20
13.5443671158
 30
0.0
 10
35.1017008484
 20
13.2474478522
 30
0.0
 10
35.0177961136
 20
12.9526374286
 30
0.0
 10
34.8701119713
 20
12.5593433472
 30
0.0
 10
34.6187530977
 20
12.075194529
 30
0.0
 10
34.3615336102
 20
11.7168235361
 30
0.0
 10
34.2189194012
 20
11.5421587942
 30
0.0
  0
SPLINE
  5
2FF
100
AcDbEntity
  8
0
100
AcDbSpline
 62
7
  6
BYLAYER
 70
0
 71
3
 72
16
 73
12
 74
0
 42
0.0000001
 43
0.0000001
 44
0.0000000001
 40
0.0
 40
0.0
 40
0.0
 40
0.0
 40
0.1004303259
 40
0.1536861378
 40
0.2089888019
 40
0.325589852
 40
0.4497960078
 40
0.5806883886
 40
0.7170244668
 40
0.8573416529
 40
1.0
 40
1.0
 40
1.0
 40
1.0
 10
34.2189194012
 20
11.5421587942
 30
0.0
 10
34.0151434778
 20
11.2925871049
 30
0.0
 10
33.6688050472
 20
10.9378652396
 30
0.0
 10
33.151342237
 20
10.5111027104
 30
0.0
 10
32.5636852691
 20
10.0901124723
 30
0.0
 10
31.7398738056
 20
9.612229333
 30
0.0
 10
30.6473096005
 20
9.1294067404
 30
0.0
 10
29.452949599
 20
8.7355886719
 30
0.0
 10
28.1782017213
 20
8.4377370843
 30
0.0
 10
26.8459998147
 20
8.2411775874
 30
0.0
 10
25.939111876
 20
8.1802450604
 30
0.0
 10
25.4816242018
 20
8.1672965797
 30
0.0
  0
SPLINE
  5
300
100
AcDbEntity
  8
0
100
AcDbSpline
 62
7
  6
BYLAYER
 70
0
 71
3
 72
13
 73
9
 74
0
 42
0.0000001
 43
0.0000001
 44
0.0000000001
 40
0.0
 40
0.0
 40
0.0
 40
0.0
 40
0.2657739289
 40
0.5236724725
 40
0.6483815914
 40
0.7695965391
 40
0.886937704
 40
1.0
 40
1.0
 40
1.0
 40
1.0
 10
23.9702021429
 20
7.5582375911
 30
0.0
 10
23.4497862829
 20
7.5901532316
 30
0.0
 10
22.4266770537
 20
7.7017336988
 30
0.0
 10
21.1797798265
 20
7.9651426108
 30
0.0
 10
20.2321808749
 20
8.2477590498
 30
0.0
 10
19.5615744829
 20
8.4901841863
 30
0.0
 10
18.9278762928
 20
8.7637407955
 30
0.0
 10
18.5250027862
 20
8.9695860714
 30
0.0
 10
18.3312269302
 20
9.077513481
 30
0.0
  0
SPLINE
  5
301
100
AcDbEntity
  8
0
100
AcDbSpline
 62
7
  6
BYLAYER
 70
0
 71
3
 72
9
 73
5
 74
0
 42
0.0000001
 43
0.0000001
 44
0.0000000001
 40
0.0
 40
0.0
 40
0.0
 40
0.0
 40
0.2451974529
 40
1.0
 40
1.0
 40
1.0
 40
1.0
 10
33.7253787082
 20
10.7997250089
 30
0.0
 10
33.6954985719
 20
10.7611466895
 30
0.0
 10
33.5712971621
 20
10.6056313153
 30
0.0
 10
33.4380147352
 20
10.4574174002
 30
0.0
 10
33.3332827866
 20
10.3497367747
 30
0.0
  0
SPLINE
  5
302
100
AcDbEntity
  8
0
100
AcDbSpline
 62
7
  6
BYLAYER
 70
0
 71
3
 72
15
 73
11
 74
0
 42
0.0000001
 43
0.0000001
 44
0.0000000001
 40
0.0
 40
0.0
 40
0.0
 40
0.0
 40
0.1034198352
 40
0.2139873558
 40
0.3315752068
 40
0.4557108177
 40
0.5856533471
 40
0.7204387162
 40
0.8589530955
 40
1.0
 40
1.0
 40
1.0
 40
1.0
 10
33.3332827866
 20
10.3497367747
 30
0.0
 10
33.1405169038
 20
10.1515436627
 30
0.0
 10
32.7118096788
 20
9.7698503658
 30
0.0
 10
31.9819224091
 20
9.2637921091
 30
0.0
 10
31.1539542613
 20
8.8115907205
 30
0.0
 10
30.2395818598
 20
8.4194412229
 30
0.0
 10
29.2514866731
 20
8.0926508727
 30
0.0
 10
28.2034627387
 20
7.8357117706
 30
0.0
 10
27.110142356
 20
7.6522028812
 30
0.0
 10
26.3654578313
 20
7.5809976234
 30
0.0
 10
25.989093282
 20
7.5580029605
 30
0.0
  0
SPLINE
  5
303
100
AcDbEntity
  8
0
100
AcDbSpline
 62
7
  6
BYLAYER
 70
0
 71
3
 72
11
 73
7
 74
0
 42
0.0000001
 43
0.0000001
 44
0.0000000001
 40
0.0
 40
0.0
 40
0.0
 40
0.0
 40
0.2664374238
 40
0.5241912579
 40
0.7696758781
 40
1.0
 40
1.0
 40
1.0
 40
1.0
 10
23.9816062515
 20
7.0555157501
 30
0.0
 10
23.6822479297
 20
7.0848655672
 30
0.0
 10
23.0954812995
 20
7.1689868117
 30
0.0
 10
22.2495486139
 20
7.3734900504
 30
0.0
 10
21.4673624785
 20
7.650097722
 30
0.0
 10
20.9833420715
 20
7.8868313676
 30
0.0
 10
20.7581537095
 20
8.0168409878
 30
0.0
  0
SPLINE
  5
304
100
AcDbEntity
  8
0
100
AcDbSpline
 62
7
  6
BYLAYER
 70
0
 71
3
 72
16
 73
12
 74
0
 42
0.0000001
 43
0.0000001
 44
0.0000000001
 40
0.0
 40
0.0
 40
0.0
 40
0.0
 40
0.1399308467
 40
0.2779117611
 40
0.4125722347
 40
0.5427039952
 40
0.6672232677
 40
0.7852708275
 40
0.84169239
 40
0.8963046678
 40
1.0
 40
1.0
 40
1.0
 40
1.0
 10
25.4816239229
 20
8.0089732488
 30
0.0
 10
25.8958866156
 20
8.0207758242
 30
0.0
 10
26.7181213009
 20
8.0733641073
 30
0.0
 10
27.9297778688
 20
8.2392335447
 30
0.0
 10
29.0973501757
 20
8.489411087
 30
0.0
 10
30.2033072675
 20
8.8200932839
 30
0.0
 10
31.2311454684
 20
9.2264392694
 30
0.0
 10
32.0216456047
 20
9.6291165307
 30
0.0
 10
32.5995601621
 20
9.9852244489
 30
0.0
 10
33.1213164167
 20
10.3491682646
 30
0.0
 10
33.4816691187
 20
10.6518381307
 30
0.0
 10
33.7020031033
 20
10.8657800341
 30
0.0
  0
SPLINE
  5
305
100
AcDbEntity
  8
0
100
AcDbSpline
 62
7
  6
BYLAYER
 70
0
 71
3
 72
9
 73
5
 74
0
 42
0.0000001
 43
0.0000001
 44
0.0000000001
 40
0.0
 40
0.0
 40
0.0
 40
0.0
 40
0.2563585431
 40
1.0
 40
1.0
 40
1.0
 40
1.0
 10
33.7020031033
 20
10.8657800341
 30
0.0
 10
33.751656177
 20
10.9139926287
 30
0.0
 10
33.9422475869
 20
11.1052030415
 30
0.0
 10
34.1200644734
 20
11.3092835644
 30
0.0
 10
34.2430070303
 20
11.4679968101
 30
0.0
  0
SPLINE
  5
306
100
AcDbEntity
  8
0
100
AcDbSpline
 62
7
  6
BYLAYER
 70
0
 71
3
 72
9
 73
5
 74
0
 42
0.0000001
 43
0.0000001
 44
0.0000000001
 40
0.0
 40
0.0
 40
0.0
 40
0.0
 40
0.2360159075
 40
1.0
 40
1.0
 40
1.0
 40
1.0
 10
6.2673346514
 20
24.0882508887
 30
0.0
 10
6.275399902
 20
24.0798518368
 30
0.0
 10
6.3110795154
 20
24.0457166272
 30
0.0
 10
6.3519597815
 20
24.0172524269
 30
0.0
 10
6.3846042128
 20
23.9984082561
 30
0.0
  0
SPLINE
  5
307
100
AcDbEntity
  8
0
100
AcDbSpline
 62
7
  6
BYLAYER
 70
0
 71
3
 72
11
 73
7
 74
0
 42
0.0000001
 43
0.0000001
 44
0.0000000001
 40
0.0
 40
0.0
 40
0.0
 40
0.0
 40
0.2274142302
 40
0.472205483
 40
0.7311279979
 40
1.0
 40
1.0
 40
1.0
 40
1.0
 10
29.4328211563
 20
8.1558819822
 30
0.0
 10
29.2001347463
 20
8.0057304285
 30
0.0
 10
28.6916993759
 20
7.7322537681
 30
0.0
 10
27.8578209469
 20
7.4146771071
 30
0.0
 10
26.9445497113
 20
7.1813481175
 30
0.0
 10
26.3074545129
 20
7.0874691243
 30
0.0
 10
25.9816062515
 20
7.0555205575
 30
0.0
  0
SPLINE
  5
308
100
AcDbEntity
  8
0
100
AcDbSpline
 62
7
  6
BYLAYER
 70
0
 71
3
 72
13
 73
9
 74
0
 42
0.0000001
 43
0.0000001
 44
0.0000000001
 40
0.0
 40
0.0
 40
0.0
 40
0.0
 40
0.2865950142
 40
0.5528924197
 40
0.6747917299
 40
0.7888280924
 40
0.8964559215
 40
1.0
 40
1.0
 40
1.0
 40
1.0
 10
24.6316151189
 20
6.0796157968
 30
0.0
 10
24.6122908911
 20
6.0796157503
 30
0.0
 10
24.5748205635
 20
6.0745557515
 30
0.0
 10
24.5325759797
 20
6.0553655588
 30
0.0
 10
24.5066690992
 20
6.0332409936
 30
0.0
 10
24.4924578077
 20
6.0146846809
 30
0.0
 10
24.4836668523
 20
5.9943471245
 30
0.0
 10
24.4816156936
 20
5.9800438402
 30
0.0
 10
24.4816157339
 20
5.9730621788
 30
0.0
  0
SPLINE
  5
309
100
AcDbEntity
  8
0
100
AcDbSpline
 62
7
  6
BYLAYER
 70
0
 71
3
 72
10
 73
6
 74
0
 42
0.0000001
 43
0.0000001
 44
0.0000000001
 40
0.0
 40
0.0
 40
0.0
 40
0.0
 40
0.232273252
 40
0.4737072987
 40
1.0
 40
1.0
 40
1.0
 40
1.0
 10
24.4816177255
 20
7.9119552218
 30
0.0
 10
24.4816176852
 20
7.9189368833
 30
0.0
 10
24.4836730335
 20
7.933244814
 30
0.0
 10
24.4956961777
 20
7.9610927195
 30
0.0
 10
24.5126546894
 20
7.9781386362
 30
0.0
 10
24.5255512734
 20
7.9872998583
 30
0.0
  0
SPLINE
  5
30A
100
AcDbEntity
  8
0
100
AcDbSpline
 62
7
  6
BYLAYER
 70
0
 71
3
 72
9
 73
5
 74
0
 42
0.0000001
 43
0.0000001
 44
0.0000000001
 40
0.0
 40
0.0
 40
0.0
 40
0.0
 40
0.2357316381
 40
1.0
 40
1.0
 40
1.0
 40
1.0
 10
24.5255512734
 20
7.9872998583
 30
0.0
 10
24.5326976331
 20
7.992376349
 30
0.0
 10
24.5650465699
 20
8.0110096448
 30
0.0
 10
24.6031970424
 20
8.0185087715
 30
0.0
 10
24.6316171105
 20
8.0185088399
 30
0.0
  0
SPLINE
  5
30B
100
AcDbEntity
  8
0
100
AcDbSpline
 62
7
  6
BYLAYER
 70
0
 71
3
 72
15
 73
11
 74
0
 42
0.0000001
 43
0.0000001
 44
0.0000000001
 40
0.0
 40
0.0
 40
0.0
 40
0.0
 40
0.1335907709
 40
0.2661018501
 40
0.396723669
 40
0.5248110445
 40
0.6497234017
 40
0.770874866
 40
0.8877956284
 40
1.0
 40
1.0
 40
1.0
 40
1.0
 10
24.4816242018
 20
8.167294176
 30
0.0
 10
24.1721734644
 20
8.176051209
 30
0.0
 10
23.5561062782
 20
8.2097327129
 30
0.0
 10
22.641680628
 20
8.3086842715
 30
0.0
 10
21.7465449508
 20
8.4552636695
 30
0.0
 10
20.8782571326
 20
8.6482177905
 30
0.0
 10
20.0438879669
 20
8.8858851818
 30
0.0
 10
19.2502635297
 20
9.166423539
 30
0.0
 10
18.5041029149
 20
9.4875017317
 30
0.0
 10
18.0321395775
 20
9.7320464317
 30
0.0
 10
17.8062523512
 20
9.8608208239
 30
0.0
  0
SPLINE
  5
30C
100
AcDbEntity
  8
0
100
AcDbSpline
 62
7
  6
BYLAYER
 70
0
 71
3
 72
9
 73
5
 74
0
 42
0.0000001
 43
0.0000001
 44
0.0000000001
 40
0.0
 40
0.0
 40
0.0
 40
0.0
 40
0.2384906261
 40
1.0
 40
1.0
 40
1.0
 40
1.0
 10
24.4867520356
 20
13.5473647719
 30
0.0
 10
24.4984489376
 20
13.5406106803
 30
0.0
 10
24.5483714545
 20
13.5138180117
 30
0.0
 10
24.6013049625
 20
13.4928024026
 30
0.0
 10
24.642380328
 20
13.4796559073
 30
0.0
  0
SPLINE
  5
30D
100
AcDbEntity
  8
0
100
AcDbSpline
 62
7
  6
BYLAYER
 70
0
 71
3
 72
9
 73
5
 74
0
 42
0.0000001
 43
0.0000001
 44
0.0000000001
 40
0.0
 40
0.0
 40
0.0
 40
0.0
 40
0.2611405119
 40
1.0
 40
1.0
 40
1.0
 40
1.0
 10
25.3209493978
 20
13.4796608772
 30
0.0
 10
25.3350330218
 20
13.4841687246
 30
0.0
 10
25.3885325496
 20
13.5027139412
 30
0.0
 10
25.4403312967
 20
13.5264440064
 30
0.0
 10
25.4765636996
 20
13.5473656568
 30
0.0
  0
SPLINE
  5
30E
100
AcDbEntity
  8
0
100
AcDbSpline
 62
7
  6
BYLAYER
 70
0
 71
3
 72
9
 73
5
 74
0
 42
0.0000001
 43
0.0000001
 44
0.0000000001
 40
0.0
 40
0.0
 40
0.0
 40
0.0
 40
0.2643659785
 40
1.0
 40
1.0
 40
1.0
 40
1.0
 10
43.57856235
 20
23.9984970657
 30
0.0
 10
43.589857446
 20
24.0050172884
 30
0.0
 10
43.6318131306
 20
24.0309455856
 30
0.0
 10
43.67070146
 20
24.0621692779
 30
0.0
 10
43.6958368318
 20
24.0883465405
 30
0.0
  0
SPLINE
  5
30F
100
AcDbEntity
  8
0
100
AcDbSpline
 62
7
  6
BYLAYER
 70
0
 71
3
 72
13
 73
9
 74
0
 42
0.0000001
 43
0.0000001
 44
0.0000000001
 40
0.0
 40
0.0
 40
0.0
 40
0.0
 40
0.1035439569
 40
0.2111718219
 40
0.3252083147
 40
0.447107776
 40
0.7134053187
 40
1.0
 40
1.0
 40
1.0
 40
1.0
 10
25.4816157339
 20
5.9730645825
 30
0.0
 10
25.4816156936
 20
5.9800462503
 30
0.0
 10
25.4795643649
 20
5.9943495342
 30
0.0
 10
25.4707731746
 20
6.01468704
 30
0.0
 10
25.456561673
 20
6.0332432773
 30
0.0
 10
25.4306545503
 20
6.0553677078
 30
0.0
 10
25.38840978
 20
6.0745576927
 30
0.0
 10
25.3509393647
 20
6.0796175258
 30
0.0
 10
25.3316151189
 20
6.0796174794
 30
0.0
  0
SPLINE
  5
310
100
AcDbEntity
  8
0
100
AcDbSpline
 62
7
  6
BYLAYER
 70
0
 71
3
 72
9
 73
5
 74
0
 42
0.0000001
 43
0.0000001
 44
0.0000000001
 40
0.0
 40
0.0
 40
0.0
 40
0.0
 40
0.2635826938
 40
1.0
 40
1.0
 40
1.0
 40
1.0
 10
25.3316171105
 20
8.0185105224
 30
0.0
 10
25.3417217473
 20
8.0185105467
 30
0.0
 10
25.3799142015
 20
8.0157719212
 30
0.0
 10
25.4180416564
 20
8.0021249367
 30
0.0
 10
25.4406096913
 20
7.9851638394
 30
0.0
  0
SPLINE
  5
311
100
AcDbEntity
  8
0
100
AcDbSpline
 62
7
  6
BYLAYER
 70
0
 71
3
 72
10
 73
6
 74
0
 42
0.0000001
 43
0.0000001
 44
0.0000000001
 40
0.0
 40
0.0
 40
0.0
 40
0.0
 40
0.5249677535
 40
0.7668211321
 40
1.0
 40
1.0
 40
1.0
 40
1.0
 10
25.4406096913
 20
7.9851638394
 30
0.0
 10
25.4527227318
 20
7.9760602352
 30
0.0
 10
25.4685557051
 20
7.9593497322
 30
0.0
 10
25.4797104766
 20
7.9324617269
 30
0.0
 10
25.4816176866
 20
7.9186880707
 30
0.0
 10
25.4816177255
 20
7.9119576255
 30
0.0
  0
SPLINE
  5
312
100
AcDbEntity
  8
0
100
AcDbSpline
 62
7
  6
BYLAYER
 70
0
 71
3
 72
15
 73
11
 74
0
 42
0.0000001
 43
0.0000001
 44
0.0000000001
 40
0.0
 40
0.0
 40
0.0
 40
0.0
 40
0.1122068891
 40
0.2291283746
 40
0.3502792474
 40
0.4751901916
 40
0.6032759359
 40
0.7338965557
 40
0.8664075121
 40
1.0
 40
1.0
 40
1.0
 40
1.0
 10
17.8532654006
 20
9.6913084243
 30
0.0
 10
18.0775711919
 20
9.5634355808
 30
0.0
 10
18.5462215984
 20
9.3205967162
 30
0.0
 10
19.2871319471
 20
9.0017365493
 30
0.0
 10
20.0751592778
 20
8.7231128345
 30
0.0
 10
20.9036377421
 20
8.4870387825
 30
0.0
 10
21.7657954127
 20
8.2953427986
 30
0.0
 10
22.654617601
 20
8.14967397
 30
0.0
 10
23.5626063369
 20
8.0512765087
 30
0.0
 10
24.1743442239
 20
8.0177239344
 30
0.0
 10
24.4816239229
 20
8.0089708451
 30
0.0
  0
SPLINE
  5
313
100
AcDbEntity
  8
0
100
AcDbSpline
 62
7
  6
BYLAYER
 70
0
 71
3
 72
16
 73
12
 74
0
 42
0.0000001
 43
0.0000001
 44
0.0000000001
 40
0.0
 40
0.0
 40
0.0
 40
0.0
 40
0.0457447738
 40
0.0922398175
 40
0.1899984872
 40
0.2978175461
 40
0.4177231762
 40
0.5497812576
 40
0.6925874257
 40
0.8437006465
 40
1.0
 40
1.0
 40
1.0
 40
1.0
 10
40.7834673883
 20
40.1270091855
 30
0.0
 10
40.7836044572
 20
40.0972869723
 30
0.0
 10
40.779008737
 20
40.0372205675
 30
0.0
 10
40.7501346146
 20
39.9167387607
 30
0.0
 10
40.675191041
 20
39.7683772943
 30
0.0
 10
40.5338974303
 20
39.6086747362
 30
0.0
 10
40.3456693722
 20
39.4678286751
 30
0.0
 10
40.1168491537
 20
39.3497954975
 30
0.0
 10
39.854892621
 20
39.2580447088
 30
0.0
 10
39.5684825426
 20
39.1955176709
 30
0.0
 10
39.3693455228
 20
39.1748478593
 30
0.0
 10
39.2679188625
 20
39.1697431789
 30
0.0
  0
SPLINE
  5
314
100
AcDbEntity
  8
0
100
AcDbSpline
 62
7
  6
BYLAYER
 70
0
 71
3
 72
22
 73
18
 74
0
 42
0.0000001
 43
0.0000001
 44
0.0000000001
 40
0.0
 40
0.0
 40
0.0
 40
0.0
 40
0.0429468126
 40
0.0881666903
 40
0.1368487551
 40
0.1897036828
 40
0.2469851274
 40
0.3085634817
 40
0.3740255084
 40
0.4427233874
 40
0.5138553408
 40
0.5865022781
 40
0.7322811961
 40
0.8035401964
 40
0.8724301575
 40
0.9381733701
 40
1.0
 40
1.0
 40
1.0
 40
1.0
 10
12.4367907224
 20
25.8641089188
 30
0.0
 10
12.4323359555
 20
25.8194039757
 30
0.0
 10
12.4114724728
 20
25.7284634715
 30
0.0
 10
12.3475530526
 20
25.5991667038
 30
0.0
 10
12.2526893804
 20
25.4773131856
 30
0.0
 10
12.1291955295
 20
25.3651555422
 30
0.0
 10
11.9796700435
 20
25.2646447031
 30
0.0
 10
11.8071580109
 20
25.1775539743
 30
0.0
 10
11.6150648791
 20
25.1056112683
 30
0.0
 10
11.4072725263
 20
25.0501710738
 30
0.0
 10
11.1879365637
 20
25.0123525843
 30
0.0
 10
10.8858825031
 20
24.9864743219
 30
0.0
 10
10.5813710389
 20
24.9979595532
 30
0.0
 10
10.286030204
 20
25.0470589514
 30
0.0
 10
10.0772548522
 20
25.1013510104
 30
0.0
 10
9.884025531
 20
25.1722887059
 30
0.0
 10
9.7640916853
 20
25.2316240955
 30
0.0
 10
9.708079972
 20
25.2639617417
 30
0.0
  0
SPLINE
  5
315
100
AcDbEntity
  8
0
100
AcDbSpline
 62
7
  6
BYLAYER
 70
0
 71
3
 72
14
 73
10
 74
0
 42
0.0000001
 43
0.0000001
 44
0.0000000001
 40
0.0
 40
0.0
 40
0.0
 40
0.0
 40
0.284610946
 40
0.4165950844
 40
0.5421808345
 40
0.6621251235
 40
0.7774774999
 40
0.8895813519
 40
1.0
 40
1.0
 40
1.0
 40
1.0
 10
24.0918293482
 20
29.8028101312
 30
0.0
 10
24.0712412233
 20
29.5182481266
 30
0.0
 10
24.0083115608
 20
29.1021955732
 30
0.0
 10
23.8449851798
 20
28.5829243568
 30
0.0
 10
23.6914775858
 20
28.2360349023
 30
0.0
 10
23.5050292409
 20
27.9248621919
 30
0.0
 10
23.2867872249
 20
27.6520028377
 30
0.0
 10
23.0385206145
 20
27.4198764784
 30
0.0
 10
22.8536140578
 20
27.2932818534
 30
0.0
 10
22.7577586438
 20
27.2379318409
 30
0.0
  0
SPLINE
  5
316
100
AcDbEntity
  8
0
100
AcDbSpline
 62
7
  6
BYLAYER
 70
0
 71
3
 72
22
 73
18
 74
0
 42
0.0000001
 43
0.0000001
 44
0.0000000001
 40
0.0
 40
0.0
 40
0.0
 40
0.0
 40
0.0428177472
 40
0.0874046513
 40
0.1351914565
 40
0.1871081503
 40
0.2435603495
 40
0.3045235017
 40
0.3696298219
 40
0.4382447358
 40
0.5095525252
 40
0.5825961514
 40
0.7296196263
 40
0.8016146962
 40
0.8712270006
 40
0.9376269157
 40
1.0
 40
1.0
 40
1.0
 40
1.0
 10
26.5816312733
 20
17.7523372979
 30
0.0
 10
26.5816234729
 20
17.7067915895
 30
0.0
 10
26.5694675461
 20
17.6134194385
 30
0.0
 10
26.5158883324
 20
17.4786149958
 30
0.0
 10
26.4290262767
 20
17.3507917583
 30
0.0
 10
26.3112413321
 20
17.2325385456
 30
0.0
 10
26.1653139187
 20
17.1259018595
 30
0.0
 10
25.9943342318
 20
17.0328893325
 30
0.0
 10
25.8018664921
 20
16.9553692292
 30
0.0
 10
25.5919832263
 20
16.894860125
 30
0.0
 10
25.3690755846
 20
16.8526756714
 30
0.0
 10
25.0603780647
 20
16.8219897873
 30
0.0
 10
24.7480099961
 20
16.8306081904
 30
0.0
 10
24.444470009
 20
16.8786875043
 30
0.0
 10
24.2296602859
 20
16.9332051143
 30
0.0
 10
24.0309507562
 20
17.0052609527
 30
0.0
 10
23.9077329322
 20
17.065973746
 30
0.0
 10
23.8502744749
 20
17.0991466513
 30
0.0
  0
SPLINE
  5
317
100
AcDbEntity
  8
0
100
AcDbSpline
 62
7
  6
BYLAYER
 70
0
 71
3
 72
14
 73
10
 74
0
 42
0.0000001
 43
0.0000001
 44
0.0000000001
 40
0.0
 40
0.0
 40
0.0
 40
0.0
 40
0.2892183187
 40
0.4225718279
 40
0.5485280977
 40
0.667900251
 40
0.7818628574
 40
0.8919540503
 40
1.0
 40
1.0
 40
1.0
 40
1.0
 10
23.8502744749
 20
17.0991466513
 30
0.0
 10
23.7800568611
 20
17.1396858924
 30
0.0
 10
23.6817126588
 20
17.207430676
 30
0.0
 10
23.5703983762
 20
17.3139058806
 30
0.0
 10
23.5026724063
 20
17.3960233647
 30
0.0
 10
23.4491291288
 20
17.4817144161
 30
0.0
 10
23.4104124367
 20
17.5702766739
 30
0.0
 10
23.3869074424
 20
17.660769817
 30
0.0
 10
23.381644768
 20
17.7220475486
 30
0.0
 10
23.3816499556
 20
17.7523372971
 30
0.0
  0
SPLINE
  5
318
100
AcDbEntity
  8
0
100
AcDbSpline
 62
7
  6
BYLAYER
 70
0
 71
3
 72
14
 73
10
 74
0
 42
0.0000001
 43
0.0000001
 44
0.0000000001
 40
0.0
 40
0.0
 40
0.0
 40
0.0
 40
0.2892183187
 40
0.4225718279
 40
0.5485280977
 40
0.667900251
 40
0.7818628574
 40
0.8919540503
 40
1.0
 40
1.0
 40
1.0
 40
1.0
 10
9.708079972
 20
25.2639617417
 30
0.0
 10
9.6378623581
 20
25.3045009828
 30
0.0
 10
9.5395181559
 20
25.3722457664
 30
0.0
 10
9.4282038732
 20
25.478720971
 30
0.0
 10
9.3604779033
 20
25.5608384551
 30
0.0
 10
9.3069346259
 20
25.6465295065
 30
0.0
 10
9.2682179338
 20
25.7350917644
 30
0.0
 10
9.2447129394
 20
25.8255849074
 30
0.0
 10
9.2394502651
 20
25.886862639
 30
0.0
 10
9.2394554527
 20
25.9171523875
 30
0.0
  0
SPLINE
  5
319
100
AcDbEntity
  8
0
100
AcDbSpline
 62
7
  6
BYLAYER
 70
0
 71
3
 72
11
 73
7
 74
0
 42
0.0000001
 43
0.0000001
 44
0.0000000001
 40
0.0
 40
0.0
 40
0.0
 40
0.0
 40
0.2698246935
 40
0.525706087
 40
0.7685816958
 40
1.0
 40
1.0
 40
1.0
 40
1.0
 10
22.0028628522
 20
28.2598572791
 30
0.0
 10
22.1389544923
 20
28.205394264
 30
0.0
 10
22.4091581035
 20
28.1112577235
 30
0.0
 10
22.8163994499
 20
28.0154364923
 30
0.0
 10
23.2113460444
 20
27.9695692377
 30
0.0
 10
23.46991669
 20
27.9729111542
 30
0.0
 10
23.5951886594
 20
27.9835192565
 30
0.0
  0
SPLINE
  5
31A
100
AcDbEntity
  8
0
100
AcDbSpline
 62
7
  6
BYLAYER
 70
0
 71
3
 72
14
 73
10
 74
0
 42
0.0000001
 43
0.0000001
 44
0.0000000001
 40
0.0
 40
0.0
 40
0.0
 40
0.0
 40
0.2891309083
 40
0.4224859471
 40
0.5484668052
 40
0.6678760973
 40
0.7818733365
 40
0.8919791828
 40
1.0
 40
1.0
 40
1.0
 40
1.0
 10
40.297344001
 20
40.8019520462
 30
0.0
 10
40.36994245
 20
40.7600382603
 30
0.0
 10
40.4716422443
 20
40.6900194687
 30
0.0
 10
40.5868561637
 20
40.5800250404
 30
0.0
 10
40.6570369515
 20
40.4951907617
 30
0.0
 10
40.7126179254
 20
40.4066671732
 30
0.0
 10
40.752936187
 20
40.3151726476
 30
0.0
 10
40.777593943
 20
40.2216711594
 30
0.0
 10
40.7833229574
 20
40.1583278024
 30
0.0
 10
40.7834673883
 20
40.1270091855
 30
0.0
  0
SPLINE
  5
31B
100
AcDbEntity
  8
0
100
AcDbSpline
 62
7
  6
BYLAYER
 70
0
 71
3
 72
11
 73
7
 74
0
 42
0.0000001
 43
0.0000001
 44
0.0000000001
 40
0.0
 40
0.0
 40
0.0
 40
0.0
 40
0.2397877337
 40
0.4838729908
 40
0.7361863103
 40
1.0
 40
1.0
 40
1.0
 40
1.0
 10
22.7577586438
 20
27.2379318409
 30
0.0
 10
22.6537190775
 20
27.1778560345
 30
0.0
 10
22.433205044
 20
27.0740168209
 30
0.0
 10
22.0768899493
 20
26.9730041606
 30
0.0
 10
21.6974113531
 20
26.9268885158
 30
0.0
 10
21.4379538662
 20
26.9326179338
 30
0.0
 10
21.306257867
 20
26.9438761047
 30
0.0
  0
SPLINE
  5
31C
100
AcDbEntity
  8
0
100
AcDbSpline
 62
7
  6
BYLAYER
 70
0
 71
3
 72
11
 73
7
 74
0
 42
0.0000001
 43
0.0000001
 44
0.0000000001
 40
0.0
 40
0.0
 40
0.0
 40
0.0
 40
0.2282447474
 40
0.4690952149
 40
0.7257249654
 40
1.0
 40
1.0
 40
1.0
 40
1.0
 10
23.7573087648
 20
28.4855140383
 30
0.0
 10
23.6205297798
 20
28.4531429743
 30
0.0
 10
23.3324221051
 20
28.4138365329
 30
0.0
 10
22.8839586418
 20
28.4308059398
 30
0.0
 10
22.4157443917
 20
28.5211910934
 30
0.0
 10
22.1049298888
 20
28.6257427107
 30
0.0
 10
21.9481495589
 20
28.6885788796
 30
0.0
  0
SPLINE
  5
31D
100
AcDbEntity
  8
0
100
AcDbSpline
 62
7
  6
BYLAYER
 70
0
 71
3
 72
22
 73
18
 74
0
 42
0.0000001
 43
0.0000001
 44
0.0000000001
 40
0.0
 40
0.0
 40
0.0
 40
0.0
 40
0.0428177472
 40
0.0874046513
 40
0.1351914565
 40
0.1871081503
 40
0.2435603495
 40
0.3045235017
 40
0.3696298219
 40
0.4382447358
 40
0.5095525252
 40
0.5825961514
 40
0.7296196263
 40
0.8016146962
 40
0.8712270006
 40
0.9376269157
 40
1.0
 40
1.0
 40
1.0
 40
1.0
 10
23.3816499556
 20
17.7523372971
 30
0.0
 10
23.381657756
 20
17.7978830054
 30
0.0
 10
23.3938136828
 20
17.8912551565
 30
0.0
 10
23.4473928965
 20
18.0260595992
 30
0.0
 10
23.5342549522
 20
18.1538828367
 30
0.0
 10
23.6520398968
 20
18.2721360494
 30
0.0
 10
23.7979673102
 20
18.3787727354
 30
0.0
 10
23.9689469971
 20
18.4717852625
 30
0.0
 10
24.1614147368
 20
18.5493053658
 30
0.0
 10
24.3712980026
 20
18.60981447
 30
0.0
 10
24.5942056443
 20
18.6519989235
 30
0.0
 10
24.9029031642
 20
18.6826848076
 30
0.0
 10
25.2152712328
 20
18.6740664046
 30
0.0
 10
25.5188112199
 20
18.6259870907
 30
0.0
 10
25.733620943
 20
18.5714694807
 30
0.0
 10
25.9323304727
 20
18.4994136423
 30
0.0
 10
26.0555482967
 20
18.438700849
 30
0.0
 10
26.113006754
 20
18.4055279437
 30
0.0
  0
SPLINE
  5
31E
100
AcDbEntity
  8
0
100
AcDbSpline
 62
7
  6
BYLAYER
 70
0
 71
3
 72
20
 73
16
 74
0
 42
0.0000001
 43
0.0000001
 44
0.0000000001
 40
0.0
 40
0.0
 40
0.0
 40
0.0
 40
0.0457831363
 40
0.0949819714
 40
0.1479293775
 40
0.2046861329
 40
0.26506292
 40
0.3286968832
 40
0.4634540139
 40
0.6038558727
 40
0.7438793969
 40
0.8118936334
 40
0.8776432216
 40
0.9405436627
 40
1.0
 40
1.0
 40
1.0
 40
1.0
 10
37.5405489498
 20
40.4120667206
 30
0.0
 10
37.5625374087
 20
40.4523995733
 30
0.0
 10
37.6163641588
 20
40.5317631372
 30
0.0
 10
37.7190375
 20
40.6396789425
 30
0.0
 10
37.8443875553
 20
40.7389574176
 30
0.0
 10
37.9903973671
 20
40.8279969226
 30
0.0
 10
38.1546990934
 20
40.9055579721
 30
0.0
 10
38.3992916973
 20
40.9936057405
 30
0.0
 10
38.7330766528
 20
41.066228016
 30
0.0
 10
39.1501848265
 20
41.0927418533
 30
0.0
 10
39.5000741564
 20
41.0640356837
 30
0.0
 10
39.7696441086
 20
41.0099022586
 30
0.0
 10
39.9595247898
 20
40.9552848785
 30
0.0
 10
40.1357846319
 20
40.887102682
 30
0.0
 10
40.2456796792
 20
40.8317797815
 30
0.0
 10
40.297344001
 20
40.8019520462
 30
0.0
  0
SPLINE
  5
31F
100
AcDbEntity
  8
0
100
AcDbSpline
 62
7
  6
BYLAYER
 70
0
 71
3
 72
14
 73
10
 74
0
 42
0.0000001
 43
0.0000001
 44
0.0000000001
 40
0.0
 40
0.0
 40
0.0
 40
0.0
 40
0.2892183187
 40
0.4225718279
 40
0.5485280977
 40
0.667900251
 40
0.7818628574
 40
0.8919540503
 40
1.0
 40
1.0
 40
1.0
 40
1.0
 10
26.113006754
 20
18.4055279437
 30
0.0
 10
26.1832243679
 20
18.3649887025
 30
0.0
 10
26.2815685701
 20
18.297243919
 30
0.0
 10
26.3928828527
 20
18.1907687143
 30
0.0
 10
26.4606088226
 20
18.1086512303
 30
0.0
 10
26.5141521001
 20
18.0229601789
 30
0.0
 10
26.5528687922
 20
17.934397921
 30
0.0
 10
26.5763737865
 20
17.843904778
 30
0.0
 10
26.5816364609
 20
17.7826270463
 30
0.0
 10
26.5816312733
 20
17.7523372979
 30
0.0
  0
SPLINE
  5
320
100
AcDbEntity
  8
0
100
AcDbSpline
 62
7
  6
BYLAYER
 70
0
 71
3
 72
13
 73
9
 74
0
 42
0.0000001
 43
0.0000001
 44
0.0000000001
 40
0.0
 40
0.0
 40
0.0
 40
0.0
 40
0.1082005337
 40
0.2184218961
 40
0.4513944321
 40
0.5774193977
 40
0.7107219664
 40
1.0
 40
1.0
 40
1.0
 40
1.0
 10
9.2394554527
 20
25.9171523875
 30
0.0
 10
9.2394606201
 20
25.9473243551
 30
0.0
 10
9.2446888142
 20
26.008358848
 30
0.0
 10
9.2762436027
 20
26.1307072045
 30
0.0
 10
9.3394654136
 20
26.2477853851
 30
0.0
 10
9.4267759011
 20
26.3539675271
 30
0.0
 10
9.5372464628
 20
26.4602371935
 30
0.0
 10
9.6349090112
 20
26.5278300189
 30
0.0
 10
9.7046615388
 20
26.5683462327
 30
0.0
  0
ENDSEC
  0
SECTION
  2
OBJECTS
  0
DICTIONARY
  5
C
100
AcDbDictionary
280
0
281
1
  3
ACAD_GROUP
350
D
  3
ACAD_MLINESTYLE
350
17
  3
ACAD_LAYOUT
350
1A
  3
ACAD_PLOTSETTINGS
350
19
  3
ACAD_PLOTSTYLENAME
350
E
  0
DICTIONARY
  5
D
102
{ACAD_REACTORS
330
C
102
}
100
AcDbDictionary
280
0
281
1
  0
ACDBDICTIONARYWDFLT
  5
E
102
{ACAD_REACTORS
330
C
102
}
100
AcDbDictionary
281
1
  3
Normal
350
F
100
AcDbDictionaryWithDefault
340
F
  0
DICTIONARY
  5
17
102
{ACAD_REACTORS
330
C
102
}
100
AcDbDictionary
280
0
281
1
  3
Standard
350
18
  0
DICTIONARY
  5
19
102
{ACAD_REACTORS
330
C
102
}
100
AcDbDictionary
281
1
  0
DICTIONARY
  5
1A
102
{ACAD_REACTORS
330
C
102
}
100
AcDbDictionary
281
1
  3
Model
350
321
  3
Layout1
350
322
  0
ACDBPLACEHOLDER
  5
F
102
{ACAD_REACTORS
330
E
102
}
  0
MLINESTYLE
  5
18
102
{ACAD_REACTORS
330
17
102
}
100
AcDbMlineStyle
  2
STANDARD
 70
0
  3

 62
256
 51
90.0
 52
90.0
 71
2
 49
0.5
 62
256
  6
BYLAYER
 49
-0.5
 62
256
  6
BYLAYER
  0
LAYOUT
  5
321
102
{ACAD_REACTORS
330
1A
102
}
100
AcDbPlotSettings
  1

  2
none_device
  4

  6

 40
0.0
 41
0.0
 42
0.0
 43
0.0
 44
210.0
 45
297.0
 46
0.0
 47
0.0
 48
0.0
 49
0.0
140
0.0
141
0.0
142
1.0
143
1.0
 70
1024
 72
1
 73
0
 74
0
  7

 75
0
147
1.0
148
0.0
149
0.0
100
AcDbLayout
  1
Model
 70
0
 71
0
 10
0.0
 20
0.0
 11
210.0
 21
297.0
 12
0.0
 22
0.0
 32
0.0
 14
0.0
 24
0.0
 34
0.0
 15
0.0
 25
0.0
 35
0.0
146
0.0
 13
0.0
 23
0.0
 33
0.0
 16
1.0
 26
0.0
 36
0.0
 17
0.0
 27
1.0
 37
0.0
 76
0
330
210
345
0
346
0
  0
LAYOUT
  5
322
102
{ACAD_REACTORS
330
1A
102
}
100
AcDbPlotSettings
  1

  2
none_device
  4

  6

 40
0.0
 41
0.0
 42
0.0
 43
0.0
 44
210.0
 45
297.0
 46
0.0
 47
0.0
 48
0.0
 49
0.0
140
0.0
141
0.0
142
1.0
143
1.0
 70
0
 72
1
 73
0
 74
0
  7

 75
0
147
1.0
148
0.0
149
0.0
100
AcDbLayout
  1
Layout1
 70
0
 71
1
 10
0.0
 20
0.0
 11
210.0
 21
297.0
 12
0.0
 22
0.0
 32
0.0
 14
0.0
 24
0.0
 34
0.0
 15
0.0
 25
0.0
 35
0.0
146
0.0
 13
0.0
 23
0.0
 33
0.0
 16
1.0
 26
0.0
 36
0.0
 17
0.0
 27
1.0
 37
0.0
 76
0
330
211
345
0
346
0
  0
ENDSEC
  0
EOF
