999
DXF file: C:\Users\sesa63760\Dev\_Creo\CAD\MCADID0004794_3D-CAD\drw0001_4.dxf
999
Pro/ENGINEER 2019471 by Parametric Technology Corporation
  0
SECTION
  2
HEADER
  9
$ACADVER
  1
AC1024
  9
$DWGCODEPAGE
  3
ANSI_1252
  9
$EXTMAX
 10
65.414621034
 20
92.5149640338
 30
0.0
  9
$EXTMIN
 10
0.0
 20
0.0
 30
0.0
  9
$LIMMIN
 10
0.0
 20
0.0
  9
$LIMMAX
 10
65.414621034
 20
92.5149640338
  9
$VIEWCTR
 10
32.707310517
 20
46.2574820169
  9
$VIEWSIZE
 40
92.5149640338
  9
$CLAYER
  8
0
  9
$LTSCALE
 40
6.0306050629
  9
$CELTYPE
  6
BYLAYER
  9
$DIMSCALE
 40
1.0
  9
$DIMASZ
 40
0.7787454885
  9
$DIMEXO
 40
1.0
  9
$DIMDLI
 40
4.1665998617
  9
$DIMEXE
 40
1.0
  9
$DIMCEN
 40
0.986826283
  9
$DIMLFAC
 40
1.0
  9
$DIMBLK
  1
_FILLED
  9
$DIMALT
 70
0
  9
$DIMALTF
 40
0.0393700787
  9
$DIMTXT
 40
1.0902436839
  9
$DIMTOL
 70
1
  9
$DIMLIM
 70
0
  9
$DIMTFAC
 40
1.0
  9
$DIMTP
 40
0.01
  9
$DIMTM
 40
0.01
  9
$DIMGAP
 40
0.625
  9
$DIMDSEP
 70
46
  9
$AUNITS
 70
0
  9
$PDMODE
 70
3
  9
$PDSIZE
 40
0.3125
  9
$HANDSEED
  5
3CB
  9
$TILEMODE
 70
1
  9
$MEASUREMENT
 70
1
  9
$INSUNITS
 70
4
  0
ENDSEC
  0
SECTION
  2
CLASSES
  0
CLASS
  1
ACDBDICTIONARYWDFLT
  2
AcDbDictionaryWithDefault
  3
AutoCAD 2000
 90
0
 91
1
280
0
281
0
  0
CLASS
  1
ACDBPLACEHOLDER
  2
AcDbPlaceHolder
  3
AutoCAD 2000
 90
0
 91
1
280
0
281
0
  0
CLASS
  1
LAYOUT
  2
AcDbLayout
  3
AutoCAD 2000
 90
0
 91
0
280
0
281
0
  0
ENDSEC
  0
SECTION
  2
TABLES
  0
TABLE
  2
VPORT
  5
8
100
AcDbSymbolTable
 70
2
  0
VPORT
  5
1F4
100
AcDbSymbolTableRecord
100
AcDbViewportTableRecord
  2
*ACTIVE
 70
0
 10
0.0
 20
0.0
 11
1.0
 21
1.0
 12
32.707310517
 22
46.2574820169
 13
0.0
 23
0.0
 14
1.0
 24
1.0
 15
0.0
 25
0.0
 16
0.0
 26
0.0
 36
1.0
 17
0.0
 27
0.0
 37
0.0
 40
92.5149640338
 41
0.7070707071
 42
50.0
 43
0.0
 44
0.0
 50
0.0
 51
0.0
 71
0
 72
100
 73
1
 74
1
 75
0
 76
0
 77
0
 78
0
  0
ENDTAB
  0
TABLE
  2
LTYPE
  5
5
100
AcDbSymbolTable
 70
6
  0
LTYPE
  5
14
100
AcDbSymbolTableRecord
100
AcDbLinetypeTableRecord
  2
BYBLOCK
 70
0
  3

 72
65
 73
0
 40
0.0
  0
LTYPE
  5
15
100
AcDbSymbolTableRecord
100
AcDbLinetypeTableRecord
  2
BYLAYER
 70
0
  3

 72
65
 73
0
 40
0.0
  0
LTYPE
  5
16
100
AcDbSymbolTableRecord
100
AcDbLinetypeTableRecord
  2
CONTINUOUS
 70
64
  3
Solid line
 72
65
 73
0
 40
0.0
  0
LTYPE
  5
1F5
100
AcDbSymbolTableRecord
100
AcDbLinetypeTableRecord
  2
CENTER
 70
64
  3
____ _ ____ _ ____ _ ____ _ ____ _ ____ _ ____
 72
65
 73
4
 40
0.6
 49
0.375
 74
0
 49
-0.075
 74
0
 49
0.075
 74
0
 49
-0.075
 74
0
  0
LTYPE
  5
1F6
100
AcDbSymbolTableRecord
100
AcDbLinetypeTableRecord
  2
HIDDEN
 70
64
  3
- - - - - - - - - - - - - - - - - - - -
 72
65
 73
2
 40
0.2
 49
0.1
 74
0
 49
-0.1
 74
0
  0
LTYPE
  5
1F7
100
AcDbSymbolTableRecord
100
AcDbLinetypeTableRecord
  2
PHANTOM
 70
64
  3
_____ _ _ _____ _ _ _____ _ _ _____
 72
65
 73
6
 40
0.8
 49
0.45
 74
0
 49
-0.05
 74
0
 49
0.1
 74
0
 49
-0.05
 74
0
 49
0.1
 74
0
 49
-0.05
 74
0
  0
LTYPE
  5
1F8
100
AcDbSymbolTableRecord
100
AcDbLinetypeTableRecord
  2
DOT
 70
64
  3
. . . . . . . . . . . . . . . . . . . .
 72
65
 73
2
 40
0.2
 49
0.1
 74
0
 49
-0.1
 74
0
  0
LTYPE
  5
1F9
100
AcDbSymbolTableRecord
100
AcDbLinetypeTableRecord
  2
DASHED
 70
64
  3
- - - - - - - - - - - - - - - - - - - -
 72
65
 73
2
 40
0.2
 49
0.1
 74
0
 49
-0.1
 74
0
  0
ENDTAB
  0
TABLE
  2
LAYER
  5
2
100
AcDbSymbolTable
 70
36
  0
LAYER
  5
10
100
AcDbSymbolTableRecord
100
AcDbLayerTableRecord
  2
0
 70
0
 62
7
  6
CONTINUOUS
370
-3
390
F
  0
LAYER
  5
1FA
100
AcDbSymbolTableRecord
100
AcDbLayerTableRecord
  2
DEFAULT_1
 70
0
 62
7
  6
CENTER
370
-3
390
F
  0
LAYER
  5
1FB
100
AcDbSymbolTableRecord
100
AcDbLayerTableRecord
  2
DEFAULT_2
 70
0
 62
7
  6
HIDDEN
370
-3
390
F
  0
LAYER
  5
1FC
100
AcDbSymbolTableRecord
100
AcDbLayerTableRecord
  2
DEFAULT_3
 70
0
 62
7
  6
PHANTOM
370
-3
390
F
  0
LAYER
  5
1FD
100
AcDbSymbolTableRecord
100
AcDbLayerTableRecord
  2
00_COMPONENTS
 70
0
 62
7
  6
CONTINUOUS
370
-3
390
F
  0
LAYER
  5
1FE
100
AcDbSymbolTableRecord
100
AcDbLayerTableRecord
  2
01_1_DEFAULT_DATUMS
 70
0
 62
7
  6
CONTINUOUS
370
-3
390
F
  0
LAYER
  5
1FF
100
AcDbSymbolTableRecord
100
AcDbLayerTableRecord
  2
01_PLANES
 70
0
 62
7
  6
CONTINUOUS
370
-3
390
F
  0
LAYER
  5
200
100
AcDbSymbolTableRecord
100
AcDbLayerTableRecord
  2
02_COORD_SYS
 70
0
 62
7
  6
CONTINUOUS
370
-3
390
F
  0
LAYER
  5
201
100
AcDbSymbolTableRecord
100
AcDbLayerTableRecord
  2
03_AXES
 70
0
 62
7
  6
CONTINUOUS
370
-3
390
F
  0
LAYER
  5
202
100
AcDbSymbolTableRecord
100
AcDbLayerTableRecord
  2
04_POINTS
 70
0
 62
7
  6
CONTINUOUS
370
-3
390
F
  0
LAYER
  5
203
100
AcDbSymbolTableRecord
100
AcDbLayerTableRecord
  2
05_CURVES
 70
0
 62
7
  6
CONTINUOUS
370
-3
390
F
  0
LAYER
  5
204
100
AcDbSymbolTableRecord
100
AcDbLayerTableRecord
  2
06_SURFS
 70
0
 62
7
  6
CONTINUOUS
370
-3
390
F
  0
LAYER
  5
205
100
AcDbSymbolTableRecord
100
AcDbLayerTableRecord
  2
07_COSMETICS
 70
0
 62
7
  6
CONTINUOUS
370
-3
390
F
  0
LAYER
  5
206
100
AcDbSymbolTableRecord
100
AcDbLayerTableRecord
  2
10_NOTES
 70
0
 62
7
  6
CONTINUOUS
370
-3
390
F
  0
LAYER
  5
207
100
AcDbSymbolTableRecord
100
AcDbLayerTableRecord
  2
11_NOTES_PUB
 70
0
 62
7
  6
CONTINUOUS
370
-3
390
F
  0
LAYER
  5
208
100
AcDbSymbolTableRecord
100
AcDbLayerTableRecord
  2
13_REF_GTOL
 70
0
 62
7
  6
CONTINUOUS
370
-3
390
F
  0
LAYER
  5
209
100
AcDbSymbolTableRecord
100
AcDbLayerTableRecord
  2
16_MISC
 70
0
 62
7
  6
CONTINUOUS
370
-3
390
F
  0
LAYER
  5
20A
100
AcDbSymbolTableRecord
100
AcDbLayerTableRecord
  2
17_NO_PRINT
 70
0
 62
7
  6
CONTINUOUS
370
-3
390
F
  0
LAYER
  5
20B
100
AcDbSymbolTableRecord
100
AcDbLayerTableRecord
  2
18_DATUM_CAMS_JOINTS
 70
0
 62
7
  6
CONTINUOUS
370
-3
390
F
  0
LAYER
  5
20C
100
AcDbSymbolTableRecord
100
AcDbLayerTableRecord
  2
19_DATUM_FUNCTIONAL
 70
0
 62
7
  6
CONTINUOUS
370
-3
390
F
  0
LAYER
  5
20D
100
AcDbSymbolTableRecord
100
AcDbLayerTableRecord
  2
20_DATUM_KINEMATIC_SCHEME
 70
0
 62
7
  6
CONTINUOUS
370
-3
390
F
  0
ENDTAB
  0
TABLE
  2
STYLE
  5
3
100
AcDbSymbolTable
 70
1
  0
STYLE
  5
11
100
AcDbSymbolTableRecord
100
AcDbTextStyleTableRecord
  2
STANDARD
 70
0
 40
0.0
 41
1.0
 50
0.0
 71
0
 42
0.2
  3
ARIAL.TTF
  4

  0
STYLE
  5
20E
100
AcDbSymbolTableRecord
100
AcDbTextStyleTableRecord
  2
TEXTSTYLE_1
 70
0
 40
0.0
 41
0.8
 50
0.0
 71
0
 42
0.2
  3
gdt
  4

  0
ENDTAB
  0
TABLE
  2
VIEW
  5
6
100
AcDbSymbolTable
 70
0
  0
ENDTAB
  0
TABLE
  2
UCS
  5
7
100
AcDbSymbolTable
 70
0
  0
ENDTAB
  0
TABLE
  2
APPID
  5
9
100
AcDbSymbolTable
 70
1
  0
APPID
  5
20F
100
AcDbSymbolTableRecord
100
AcDbRegAppTableRecord
  2
ACAD
 70
0
  0
ENDTAB
  0
TABLE
  2
BLOCK_RECORD
  5
1
100
AcDbSymbolTable
 70
0
  0
BLOCK_RECORD
  5
210
100
AcDbSymbolTableRecord
100
AcDbBlockTableRecord
  2
*Model_Space
  0
BLOCK_RECORD
  5
211
100
AcDbSymbolTableRecord
100
AcDbBlockTableRecord
  2
*Paper_Space
  0
BLOCK_RECORD
  5
212
100
AcDbSymbolTableRecord
100
AcDbBlockTableRecord
  2
_FILLED
  0
ENDTAB
  0
TABLE
  2
DIMSTYLE
  5
A
100
AcDbSymbolTable
 70
1
100
AcDbDimStyleTable
 71
0
  0
DIMSTYLE
105
213
100
AcDbSymbolTableRecord
100
AcDbDimStyleTableRecord
  2
STANDARD
 70
0
  3

  4

 40
1.0
 41
0.7787454885
 42
1.0
 43
0.38
 44
1.0
 45
0.0
 46
0.0
 47
0.01
 48
0.01
140
1.0902436839
141
0.09
142
0.0
143
25.4
144
1.0
145
0.0
146
1.0
147
0.625
 71
1
 72
0
 73
0
 74
0
 75
0
 76
0
 77
1
 78
8
 79
2
170
0
171
1
172
0
173
0
174
0
175
0
176
0
177
0
178
0
270
2
179
2
271
2
272
2
273
2
274
2
275
0
280
0
281
0
282
0
283
1
284
8
285
0
286
0
287
3
288
0
340
11
278
46
341
212
342
212
343
212
344
212
  0
ENDTAB
  0
ENDSEC
  0
SECTION
  2
BLOCKS
  0
BLOCK
  5
20
100
AcDbEntity
  8
0
100
AcDbBlockBegin
  2
*Model_Space
 70
0
 10
0.0
 20
0.0
 30
0.0
  3
*Model_Space
  1

  0
ENDBLK
  5
21
100
AcDbEntity
  8
0
100
AcDbBlockEnd
  0
BLOCK
  5
1C
100
AcDbEntity
  8
0
100
AcDbBlockBegin
  2
*Paper_Space
 70
0
 10
0.0
 20
0.0
 30
0.0
  3
*Paper_Space
  1

  0
ENDBLK
  5
1D
100
AcDbEntity
  8
0
100
AcDbBlockEnd
  0
BLOCK
  5
214
100
AcDbEntity
  8
0
100
AcDbBlockBegin
  2
_FILLED
 70
64
 10
0.0
 20
0.0
  3
_FILLED
  1

  0
SOLID
  5
215
100
AcDbEntity
  8
0
  6
BYBLOCK
 62
0
100
AcDbTrace
 10
0.0
 20
0.0
 11
-1.0
 21
0.25
 12
-1.0
 22
-0.25
 13
-1.0
 23
-0.25
  0
ENDBLK
  5
216
100
AcDbEntity
  8
0
  6
BYBLOCK
 62
0
100
AcDbBlockEnd
  0
ENDSEC
  0
SECTION
  2
ENTITIES
  0
LINE
  5
217
100
AcDbEntity
  8
0
100
AcDbLine
 62
7
  6
BYLAYER
 10
44.5565910926
 20
6.6243884896
 11
22.5565910926
 21
6.6243884896
  0
LINE
  5
218
100
AcDbEntity
  8
0
100
AcDbLine
 62
7
  6
BYLAYER
 10
44.5565910926
 20
7.1243884896
 11
43.2099030241
 21
7.1243884896
  0
LINE
  5
219
100
AcDbEntity
  8
0
100
AcDbLine
 62
7
  6
BYLAYER
 10
34.9032791611
 20
7.1243884896
 11
32.2099030241
 21
7.1243884896
  0
LINE
  5
21A
100
AcDbEntity
  8
0
100
AcDbLine
 62
7
  6
BYLAYER
 10
23.9032791611
 20
7.1243884896
 11
22.5565910926
 21
7.1243884896
  0
LINE
  5
21B
100
AcDbEntity
  8
0
100
AcDbLine
 62
7
  6
BYLAYER
 10
22.5565910926
 20
9.6243884896
 11
44.5565910926
 21
9.6243884896
  0
LINE
  5
21C
100
AcDbEntity
  8
0
100
AcDbLine
 62
7
  6
BYLAYER
 10
43.7565910926
 20
11.6243884896
 11
23.3565910926
 21
11.6243884896
  0
LINE
  5
21D
100
AcDbEntity
  8
0
100
AcDbLine
 62
7
  6
BYLAYER
 10
11.2136443037
 20
67.8814417007
 11
11.048344229
 21
67.716141626
  0
LINE
  5
21E
100
AcDbEntity
  8
0
100
AcDbLine
 62
7
  6
BYLAYER
 10
11.8995378815
 20
68.5673352784
 11
12.0648379562
 21
68.7326353532
  0
LINE
  5
21F
100
AcDbEntity
  8
0
100
AcDbLine
 62
7
  6
BYLAYER
 10
21.3070558018
 20
13.3243884896
 11
45.8061417356
 21
13.3243884896
  0
LINE
  5
220
100
AcDbEntity
  8
0
100
AcDbLine
 62
7
  6
BYLAYER
 10
46.8065910926
 20
14.3243884896
 11
20.3065910926
 21
14.3243884896
  0
LINE
  5
221
100
AcDbEntity
  8
0
100
AcDbLine
 62
7
  6
BYLAYER
 10
11.0402169168
 20
68.7407626653
 11
11.0893231568
 21
68.8510570861
  0
LINE
  5
222
100
AcDbEntity
  8
0
100
AcDbLine
 62
7
  6
BYLAYER
 10
12.0238590284
 20
67.597719893
 11
12.0729652684
 21
67.7080143138
  0
LINE
  5
223
100
AcDbEntity
  8
0
100
AcDbLine
 62
7
  6
BYLAYER
 10
10.9299224961
 20
68.6916564254
 11
11.0402169168
 21
68.7407626653
  0
LINE
  5
224
100
AcDbEntity
  8
0
100
AcDbLine
 62
7
  6
BYLAYER
 10
12.0729652684
 20
67.7080143138
 11
12.1832596891
 21
67.7571205538
  0
LINE
  5
225
100
AcDbEntity
  8
0
100
AcDbLine
 62
7
  6
BYLAYER
 10
7.5565910926
 20
27.7243884896
 11
7.5565910926
 21
81.2243884896
  0
LINE
  5
226
100
AcDbEntity
  8
0
100
AcDbLine
 62
7
  6
BYLAYER
 10
10.9730050848
 20
67.9579757415
 11
10.9371668944
 21
67.7571205538
  0
LINE
  5
227
100
AcDbEntity
  8
0
100
AcDbLine
 62
7
  6
BYLAYER
 10
12.1401771004
 20
68.4908012377
 11
12.1760152908
 21
68.6916564254
  0
LINE
  5
228
100
AcDbEntity
  8
0
100
AcDbLine
 62
7
  6
BYLAYER
 10
11.0893231568
 20
69.9218674374
 11
11.0893231568
 21
68.8510570861
  0
LINE
  5
229
100
AcDbEntity
  8
0
100
AcDbLine
 62
7
  6
BYLAYER
 10
11.0893231568
 20
67.6049642914
 11
11.0893231568
 21
66.5269095417
  0
LINE
  5
22A
100
AcDbEntity
  8
0
100
AcDbLine
 62
7
  6
BYLAYER
 10
20.3065910926
 20
22.7243884896
 11
27.938539829
 21
22.7243884896
  0
LINE
  5
22B
100
AcDbEntity
  8
0
100
AcDbLine
 62
7
  6
BYLAYER
 10
39.1746423562
 20
22.7243884896
 11
46.8065910926
 21
22.7243884896
  0
LINE
  5
22C
100
AcDbEntity
  8
0
100
AcDbLine
 62
7
  6
BYLAYER
 10
55.5565910926
 20
23.7243884896
 11
11.5565910926
 21
23.7243884896
  0
LINE
  5
22D
100
AcDbEntity
  8
0
100
AcDbLine
 62
7
  6
BYLAYER
 10
21.82310755
 20
26.140390937
 11
22.0238590284
 21
26.097719893
  0
LINE
  5
22E
100
AcDbEntity
  8
0
100
AcDbLine
 62
7
  6
BYLAYER
 10
20.9371668944
 20
26.2571205538
 11
21.048344229
 21
26.216141626
  0
LINE
  5
22F
100
AcDbEntity
  8
0
100
AcDbLine
 62
7
  6
BYLAYER
 10
21.2000402627
 20
27.0809393195
 11
21.0402169168
 21
27.2407626653
  0
LINE
  5
230
100
AcDbEntity
  8
0
100
AcDbLine
 62
7
  6
BYLAYER
 10
21.9131419225
 20
26.3678376596
 11
22.0729652684
 21
26.2080143138
  0
LINE
  5
231
100
AcDbEntity
  8
0
100
AcDbLine
 62
7
  6
BYLAYER
 10
12.0238590284
 20
66.5269095417
 11
12.0238590284
 21
67.597719893
  0
LINE
  5
232
100
AcDbEntity
  8
0
100
AcDbLine
 62
7
  6
BYLAYER
 10
12.0238590284
 20
68.8438126878
 11
12.0238590284
 21
69.9218674374
  0
LINE
  5
233
100
AcDbEntity
  8
0
100
AcDbLine
 62
7
  6
BYLAYER
 10
45.2901717494
 20
26.140801305
 11
45.0893231568
 21
26.1049642914
  0
LINE
  5
234
100
AcDbEntity
  8
0
100
AcDbLine
 62
7
  6
BYLAYER
 10
45.8230104359
 20
27.3079756741
 11
46.0238590284
 21
27.3438126878
  0
LINE
  5
235
100
AcDbEntity
  8
0
100
AcDbLine
 62
7
  6
BYLAYER
 10
48.0635393623
 20
26.2571205538
 11
46.1832596891
 21
26.2571205538
  0
LINE
  5
236
100
AcDbEntity
  8
0
100
AcDbLine
 62
7
  6
BYLAYER
 10
44.9371668944
 20
26.2571205538
 11
43.0496428229
 21
26.2571205538
  0
LINE
  5
237
100
AcDbEntity
  8
0
100
AcDbLine
 62
7
  6
BYLAYER
 10
24.0635393623
 20
26.2571205538
 11
22.1832596891
 21
26.2571205538
  0
LINE
  5
238
100
AcDbEntity
  8
0
100
AcDbLine
 62
7
  6
BYLAYER
 10
20.9371668944
 20
26.2571205538
 11
19.0496428229
 21
26.2571205538
  0
LINE
  5
239
100
AcDbEntity
  8
0
100
AcDbLine
 62
7
  6
BYLAYER
 10
48.4331782736
 20
26.3614874305
 11
46.5204106319
 21
26.3614874305
  0
LINE
  5
23A
100
AcDbEntity
  8
0
100
AcDbLine
 62
7
  6
BYLAYER
 10
44.5927355748
 20
26.3614874305
 11
42.6800039116
 21
26.3614874305
  0
LINE
  5
23B
100
AcDbEntity
  8
0
100
AcDbLine
 62
7
  6
BYLAYER
 10
24.4331782736
 20
26.3614874305
 11
22.5204106319
 21
26.3614874305
  0
LINE
  5
23C
100
AcDbEntity
  8
0
100
AcDbLine
 62
7
  6
BYLAYER
 10
20.5927355748
 20
26.3614874305
 11
18.6800039116
 21
26.3614874305
  0
LINE
  5
23D
100
AcDbEntity
  8
0
100
AcDbLine
 62
7
  6
BYLAYER
 10
18.6800039116
 20
27.0872895486
 11
20.5927715533
 21
27.0872895486
  0
LINE
  5
23E
100
AcDbEntity
  8
0
100
AcDbLine
 62
7
  6
BYLAYER
 10
22.5204466103
 20
27.0872895486
 11
24.4331782736
 21
27.0872895486
  0
LINE
  5
23F
100
AcDbEntity
  8
0
100
AcDbLine
 62
7
  6
BYLAYER
 10
42.6800039116
 20
27.0872895486
 11
44.5927715533
 21
27.0872895486
  0
LINE
  5
240
100
AcDbEntity
  8
0
100
AcDbLine
 62
7
  6
BYLAYER
 10
46.5204466103
 20
27.0872895486
 11
48.4331782736
 21
27.0872895486
  0
LINE
  5
241
100
AcDbEntity
  8
0
100
AcDbLine
 62
7
  6
BYLAYER
 10
19.0496428229
 20
27.1916564254
 11
20.9299224961
 21
27.1916564254
  0
LINE
  5
242
100
AcDbEntity
  8
0
100
AcDbLine
 62
7
  6
BYLAYER
 10
22.1760152908
 20
27.1916564254
 11
24.0635393623
 21
27.1916564254
  0
LINE
  5
243
100
AcDbEntity
  8
0
100
AcDbLine
 62
7
  6
BYLAYER
 10
43.0496428229
 20
27.1916564254
 11
44.9299224961
 21
27.1916564254
  0
LINE
  5
244
100
AcDbEntity
  8
0
100
AcDbLine
 62
7
  6
BYLAYER
 10
46.1760152908
 20
27.1916564254
 11
48.0635393623
 21
27.1916564254
  0
LINE
  5
245
100
AcDbEntity
  8
0
100
AcDbLine
 62
7
  6
BYLAYER
 10
21.2900746352
 20
27.3083860421
 11
21.0893231568
 21
27.3510570861
  0
LINE
  5
246
100
AcDbEntity
  8
0
100
AcDbLine
 62
7
  6
BYLAYER
 10
22.1760152908
 20
27.1916564254
 11
22.0648379562
 21
27.2326353532
  0
LINE
  5
247
100
AcDbEntity
  8
0
100
AcDbLine
 62
7
  6
BYLAYER
 10
21.048344229
 20
26.216141626
 11
21.0893231568
 21
26.1049642914
  0
LINE
  5
248
100
AcDbEntity
  8
0
100
AcDbLine
 62
7
  6
BYLAYER
 10
16.3065910926
 20
66.2243884896
 11
16.3065910926
 21
31.7243884896
  0
LINE
  5
249
100
AcDbEntity
  8
0
100
AcDbLine
 62
7
  6
BYLAYER
 10
21.2901717494
 20
26.140801305
 11
21.0893231568
 21
26.1049642914
  0
LINE
  5
24A
100
AcDbEntity
  8
0
100
AcDbLine
 62
7
  6
BYLAYER
 10
21.8230104359
 20
27.3079756741
 11
22.0238590284
 21
27.3438126878
  0
LINE
  5
24B
100
AcDbEntity
  8
0
100
AcDbLine
 62
7
  6
BYLAYER
 10
45.82310755
 20
26.140390937
 11
46.0238590284
 21
26.097719893
  0
LINE
  5
24C
100
AcDbEntity
  8
0
100
AcDbLine
 62
7
  6
BYLAYER
 10
45.2900746352
 20
27.3083860421
 11
45.0893231568
 21
27.3510570861
  0
LINE
  5
24D
100
AcDbEntity
  8
0
100
AcDbLine
 62
7
  6
BYLAYER
 10
22.0648379562
 20
27.2326353532
 11
22.0238590284
 21
27.3438126878
  0
LINE
  5
24E
100
AcDbEntity
  8
0
100
AcDbLine
 62
7
  6
BYLAYER
 10
10.9725930887
 20
68.4909070703
 11
10.9299224961
 21
68.6916564254
  0
LINE
  5
24F
100
AcDbEntity
  8
0
100
AcDbLine
 62
7
  6
BYLAYER
 10
12.1405890964
 20
67.9578699089
 11
12.1832596891
 21
67.7571205538
  0
LINE
  5
250
100
AcDbEntity
  8
0
100
AcDbLine
 62
7
  6
BYLAYER
 10
20.9725930887
 20
26.9909070703
 11
20.9299224961
 21
27.1916564254
  0
LINE
  5
251
100
AcDbEntity
  8
0
100
AcDbLine
 62
7
  6
BYLAYER
 10
18.3065910926
 20
33.7243884896
 11
18.3065910926
 21
64.2243884896
  0
LINE
  5
252
100
AcDbEntity
  8
0
100
AcDbLine
 62
7
  6
BYLAYER
 10
20.0565910926
 20
78.2243884896
 11
20.0565910926
 21
85.3243884896
  0
LINE
  5
253
100
AcDbEntity
  8
0
100
AcDbLine
 62
7
  6
BYLAYER
 10
20.3065910926
 20
22.7243884896
 11
20.3065910926
 21
14.3243884896
  0
LINE
  5
254
100
AcDbEntity
  8
0
100
AcDbLine
 62
7
  6
BYLAYER
 10
20.5565910926
 20
78.2864058569
 11
20.5565910926
 21
84.8864058569
  0
LINE
  5
255
100
AcDbEntity
  8
0
100
AcDbLine
 62
7
  6
BYLAYER
 10
21.0893231568
 20
28.4218674374
 11
21.0893231568
 21
27.3510570861
  0
LINE
  5
256
100
AcDbEntity
  8
0
100
AcDbLine
 62
7
  6
BYLAYER
 10
21.0893231568
 20
26.1049642914
 11
21.0893231568
 21
25.0269095417
  0
LINE
  5
257
100
AcDbEntity
  8
0
100
AcDbLine
 62
7
  6
BYLAYER
 10
16.3065910926
 20
31.7243884896
 11
50.8065910926
 21
31.7243884896
  0
LINE
  5
258
100
AcDbEntity
  8
0
100
AcDbLine
 62
7
  6
BYLAYER
 10
48.8065910926
 20
33.7243884896
 11
18.3065910926
 21
33.7243884896
  0
LINE
  5
259
100
AcDbEntity
  8
0
100
AcDbLine
 62
7
  6
BYLAYER
 10
44.9371668944
 20
26.2571205538
 11
45.048344229
 21
26.216141626
  0
LINE
  5
25A
100
AcDbEntity
  8
0
100
AcDbLine
 62
7
  6
BYLAYER
 10
46.1760152908
 20
27.1916564254
 11
46.0648379562
 21
27.2326353532
  0
LINE
  5
25B
100
AcDbEntity
  8
0
100
AcDbLine
 62
7
  6
BYLAYER
 10
11.048344229
 20
67.716141626
 11
11.0893231568
 21
67.6049642914
  0
LINE
  5
25C
100
AcDbEntity
  8
0
100
AcDbLine
 62
7
  6
BYLAYER
 10
12.0648379562
 20
68.7326353532
 11
12.0238590284
 21
68.8438126878
  0
LINE
  5
25D
100
AcDbEntity
  8
0
100
AcDbLine
 62
7
  6
BYLAYER
 10
22.1405890964
 20
26.4578699089
 11
22.1832596891
 21
26.2571205538
  0
LINE
  5
25E
100
AcDbEntity
  8
0
100
AcDbLine
 62
7
  6
BYLAYER
 10
21.4769085844
 20
76.8243884896
 11
21.4769085844
 21
77.3243884896
  0
LINE
  5
25F
100
AcDbEntity
  8
0
100
AcDbLine
 62
7
  6
BYLAYER
 10
21.8662208966
 20
77.3243884896
 11
21.8662208966
 21
76.8243884896
  0
LINE
  5
260
100
AcDbEntity
  8
0
100
AcDbLine
 62
7
  6
BYLAYER
 10
22.0238590284
 20
25.0269095417
 11
22.0238590284
 21
26.097719893
  0
LINE
  5
261
100
AcDbEntity
  8
0
100
AcDbLine
 62
7
  6
BYLAYER
 10
22.0238590284
 20
27.3438126878
 11
22.0238590284
 21
28.4218674374
  0
LINE
  5
262
100
AcDbEntity
  8
0
100
AcDbLine
 62
7
  6
BYLAYER
 10
22.5565910926
 20
9.6243884896
 11
22.5565910926
 21
6.6243884896
  0
LINE
  5
263
100
AcDbEntity
  8
0
100
AcDbLine
 62
7
  6
BYLAYER
 10
23.3565910926
 20
11.6243884896
 11
23.3565910926
 21
13.3243884896
  0
LINE
  5
264
100
AcDbEntity
  8
0
100
AcDbLine
 62
7
  6
BYLAYER
 10
23.9032791611
 20
7.1243884896
 11
23.9032791611
 21
9.6243884896
  0
LINE
  5
265
100
AcDbEntity
  8
0
100
AcDbLine
 62
7
  6
BYLAYER
 10
24.1065910926
 20
9.6243884896
 11
24.1065910926
 21
11.6243884896
  0
LINE
  5
266
100
AcDbEntity
  8
0
100
AcDbLine
 62
7
  6
BYLAYER
 10
24.4315910926
 20
76.8243884896
 11
24.4315910926
 21
77.3243884896
  0
LINE
  5
267
100
AcDbEntity
  8
0
100
AcDbLine
 62
7
  6
BYLAYER
 10
54.9299224961
 20
68.6916564254
 11
55.0402169168
 21
68.7407626653
  0
LINE
  5
268
100
AcDbEntity
  8
0
100
AcDbLine
 62
7
  6
BYLAYER
 10
56.0729652684
 20
67.7080143138
 11
56.1832596891
 21
67.7571205538
  0
LINE
  5
269
100
AcDbEntity
  8
0
100
AcDbLine
 62
7
  6
BYLAYER
 10
20.9730050848
 20
26.4579757415
 11
20.9371668944
 21
26.2571205538
  0
LINE
  5
26A
100
AcDbEntity
  8
0
100
AcDbLine
 62
7
  6
BYLAYER
 10
22.1401771004
 20
26.9908012377
 11
22.1760152908
 21
27.1916564254
  0
LINE
  5
26B
100
AcDbEntity
  8
0
100
AcDbLine
 62
7
  6
BYLAYER
 10
27.938539829
 20
14.3243884896
 11
27.938539829
 21
22.7243884896
  0
LINE
  5
26C
100
AcDbEntity
  8
0
100
AcDbLine
 62
7
  6
BYLAYER
 10
28.7886419002
 20
76.8243884896
 11
28.7886419002
 21
77.3243884896
  0
LINE
  5
26D
100
AcDbEntity
  8
0
100
AcDbLine
 62
7
  6
BYLAYER
 10
21.0402169168
 20
27.2407626653
 11
21.0893231568
 21
27.3510570861
  0
LINE
  5
26E
100
AcDbEntity
  8
0
100
AcDbLine
 62
7
  6
BYLAYER
 10
45.2000402627
 20
27.0809393195
 11
45.0402169168
 21
27.2407626653
  0
LINE
  5
26F
100
AcDbEntity
  8
0
100
AcDbLine
 62
7
  6
BYLAYER
 10
45.9131419225
 20
26.3678376596
 11
46.0729652684
 21
26.2080143138
  0
LINE
  5
270
100
AcDbEntity
  8
0
100
AcDbLine
 62
7
  6
BYLAYER
 10
32.2099030241
 20
9.6243884896
 11
32.2099030241
 21
7.1243884896
  0
LINE
  5
271
100
AcDbEntity
  8
0
100
AcDbLine
 62
7
  6
BYLAYER
 10
22.0238590284
 20
26.097719893
 11
22.0729652684
 21
26.2080143138
  0
LINE
  5
272
100
AcDbEntity
  8
0
100
AcDbLine
 62
7
  6
BYLAYER
 10
55.2136443037
 20
67.8814417007
 11
55.048344229
 21
67.716141626
  0
LINE
  5
273
100
AcDbEntity
  8
0
100
AcDbLine
 62
7
  6
BYLAYER
 10
55.8995378815
 20
68.5673352784
 11
56.0648379562
 21
68.7326353532
  0
LINE
  5
274
100
AcDbEntity
  8
0
100
AcDbLine
 62
7
  6
BYLAYER
 10
11.9131419225
 20
67.8678376596
 11
12.0729652684
 21
67.7080143138
  0
LINE
  5
275
100
AcDbEntity
  8
0
100
AcDbLine
 62
7
  6
BYLAYER
 10
11.2000402627
 20
68.5809393195
 11
11.0402169168
 21
68.7407626653
  0
LINE
  5
276
100
AcDbEntity
  8
0
100
AcDbLine
 62
7
  6
BYLAYER
 10
34.9032791611
 20
7.1243884896
 11
34.9032791611
 21
9.6243884896
  0
LINE
  5
277
100
AcDbEntity
  8
0
100
AcDbLine
 62
7
  6
BYLAYER
 10
38.324540285
 20
76.8243884896
 11
38.324540285
 21
77.3243884896
  0
LINE
  5
278
100
AcDbEntity
  8
0
100
AcDbLine
 62
7
  6
BYLAYER
 10
39.1746423562
 20
22.7243884896
 11
39.1746423562
 21
14.3243884896
  0
LINE
  5
279
100
AcDbEntity
  8
0
100
AcDbLine
 62
7
  6
BYLAYER
 10
21.2136443037
 20
26.3814417007
 11
21.048344229
 21
26.216141626
  0
LINE
  5
27A
100
AcDbEntity
  8
0
100
AcDbLine
 62
7
  6
BYLAYER
 10
21.8995378815
 20
27.0673352784
 11
22.0648379562
 21
27.2326353532
  0
LINE
  5
27B
100
AcDbEntity
  8
0
100
AcDbLine
 62
7
  6
BYLAYER
 10
45.048344229
 20
26.216141626
 11
45.0893231568
 21
26.1049642914
  0
LINE
  5
27C
100
AcDbEntity
  8
0
100
AcDbLine
 62
7
  6
BYLAYER
 10
46.0648379562
 20
27.2326353532
 11
46.0238590284
 21
27.3438126878
  0
LINE
  5
27D
100
AcDbEntity
  8
0
100
AcDbLine
 62
7
  6
BYLAYER
 10
42.6815910926
 20
77.3243884896
 11
42.6815910926
 21
76.8243884896
  0
LINE
  5
27E
100
AcDbEntity
  8
0
100
AcDbLine
 62
7
  6
BYLAYER
 10
43.0065910926
 20
11.6243884896
 11
43.0065910926
 21
9.6243884896
  0
LINE
  5
27F
100
AcDbEntity
  8
0
100
AcDbLine
 62
7
  6
BYLAYER
 10
43.2099030241
 20
9.6243884896
 11
43.2099030241
 21
7.1243884896
  0
LINE
  5
280
100
AcDbEntity
  8
0
100
AcDbLine
 62
7
  6
BYLAYER
 10
44.9725930887
 20
26.9909070703
 11
44.9299224961
 21
27.1916564254
  0
LINE
  5
281
100
AcDbEntity
  8
0
100
AcDbLine
 62
7
  6
BYLAYER
 10
46.1405890964
 20
26.4578699089
 11
46.1832596891
 21
26.2571205538
  0
LINE
  5
282
100
AcDbEntity
  8
0
100
AcDbLine
 62
7
  6
BYLAYER
 10
43.7565910926
 20
13.3243884896
 11
43.7565910926
 21
11.6243884896
  0
LINE
  5
283
100
AcDbEntity
  8
0
100
AcDbLine
 62
7
  6
BYLAYER
 10
44.5565910926
 20
6.6243884896
 11
44.5565910926
 21
9.6243884896
  0
LINE
  5
284
100
AcDbEntity
  8
0
100
AcDbLine
 62
7
  6
BYLAYER
 10
45.0893231568
 20
28.4218674374
 11
45.0893231568
 21
27.3510570861
  0
LINE
  5
285
100
AcDbEntity
  8
0
100
AcDbLine
 62
7
  6
BYLAYER
 10
45.0893231568
 20
26.1049642914
 11
45.0893231568
 21
25.0269095417
  0
LINE
  5
286
100
AcDbEntity
  8
0
100
AcDbLine
 62
7
  6
BYLAYER
 10
45.2469612886
 20
76.8243884896
 11
45.2469612886
 21
77.3243884896
  0
LINE
  5
287
100
AcDbEntity
  8
0
100
AcDbLine
 62
7
  6
BYLAYER
 10
45.6362736007
 20
76.8243884896
 11
45.6362736007
 21
77.3243884896
  0
LINE
  5
288
100
AcDbEntity
  8
0
100
AcDbLine
 62
7
  6
BYLAYER
 10
46.0238590284
 20
25.0269095417
 11
46.0238590284
 21
26.097719893
  0
LINE
  5
289
100
AcDbEntity
  8
0
100
AcDbLine
 62
7
  6
BYLAYER
 10
46.0238590284
 20
27.3438126878
 11
46.0238590284
 21
28.4218674374
  0
LINE
  5
28A
100
AcDbEntity
  8
0
100
AcDbLine
 62
7
  6
BYLAYER
 10
55.0402169168
 20
68.7407626653
 11
55.0893231568
 21
68.8510570861
  0
LINE
  5
28B
100
AcDbEntity
  8
0
100
AcDbLine
 62
7
  6
BYLAYER
 10
56.0238590284
 20
67.597719893
 11
56.0729652684
 21
67.7080143138
  0
LINE
  5
28C
100
AcDbEntity
  8
0
100
AcDbLine
 62
7
  6
BYLAYER
 10
20.9299224961
 20
27.1916564254
 11
21.0402169168
 21
27.2407626653
  0
LINE
  5
28D
100
AcDbEntity
  8
0
100
AcDbLine
 62
7
  6
BYLAYER
 10
10.9371668944
 20
67.7571205538
 11
11.048344229
 21
67.716141626
  0
LINE
  5
28E
100
AcDbEntity
  8
0
100
AcDbLine
 62
7
  6
BYLAYER
 10
46.5565910926
 20
84.8864058569
 11
46.5565910926
 21
78.2864058569
  0
LINE
  5
28F
100
AcDbEntity
  8
0
100
AcDbLine
 62
7
  6
BYLAYER
 10
46.8065910926
 20
14.3243884896
 11
46.8065910926
 21
22.7243884896
  0
LINE
  5
290
100
AcDbEntity
  8
0
100
AcDbLine
 62
7
  6
BYLAYER
 10
47.0565910926
 20
85.3243884896
 11
47.0565910926
 21
78.2243884896
  0
LINE
  5
291
100
AcDbEntity
  8
0
100
AcDbLine
 62
7
  6
BYLAYER
 10
48.8065910926
 20
64.2243884896
 11
48.8065910926
 21
33.7243884896
  0
LINE
  5
292
100
AcDbEntity
  8
0
100
AcDbLine
 62
7
  6
BYLAYER
 10
44.9730050848
 20
26.4579757415
 11
44.9371668944
 21
26.2571205538
  0
LINE
  5
293
100
AcDbEntity
  8
0
100
AcDbLine
 62
7
  6
BYLAYER
 10
46.1401771004
 20
26.9908012377
 11
46.1760152908
 21
27.1916564254
  0
LINE
  5
294
100
AcDbEntity
  8
0
100
AcDbLine
 62
7
  6
BYLAYER
 10
22.0729652684
 20
26.2080143138
 11
22.1832596891
 21
26.2571205538
  0
LINE
  5
295
100
AcDbEntity
  8
0
100
AcDbLine
 62
7
  6
BYLAYER
 10
12.1760152908
 20
68.6916564254
 11
12.0648379562
 21
68.7326353532
  0
LINE
  5
296
100
AcDbEntity
  8
0
100
AcDbLine
 62
7
  6
BYLAYER
 10
50.8065910926
 20
31.7243884896
 11
50.8065910926
 21
66.2243884896
  0
LINE
  5
297
100
AcDbEntity
  8
0
100
AcDbLine
 62
7
  6
BYLAYER
 10
54.9730050848
 20
67.9579757415
 11
54.9371668944
 21
67.7571205538
  0
LINE
  5
298
100
AcDbEntity
  8
0
100
AcDbLine
 62
7
  6
BYLAYER
 10
56.1401771004
 20
68.4908012377
 11
56.1760152908
 21
68.6916564254
  0
LINE
  5
299
100
AcDbEntity
  8
0
100
AcDbLine
 62
7
  6
BYLAYER
 10
45.0402169168
 20
27.2407626653
 11
45.0893231568
 21
27.3510570861
  0
LINE
  5
29A
100
AcDbEntity
  8
0
100
AcDbLine
 62
7
  6
BYLAYER
 10
55.2901717494
 20
67.640801305
 11
55.0893231568
 21
67.6049642914
  0
LINE
  5
29B
100
AcDbEntity
  8
0
100
AcDbLine
 62
7
  6
BYLAYER
 10
55.8230104358
 20
68.8079756741
 11
56.0238590284
 21
68.8438126878
  0
LINE
  5
29C
100
AcDbEntity
  8
0
100
AcDbLine
 62
7
  6
BYLAYER
 10
18.3065910926
 20
64.2243884896
 11
48.8065910926
 21
64.2243884896
  0
LINE
  5
29D
100
AcDbEntity
  8
0
100
AcDbLine
 62
7
  6
BYLAYER
 10
11.82310755
 20
67.640390937
 11
12.0238590284
 21
67.597719893
  0
LINE
  5
29E
100
AcDbEntity
  8
0
100
AcDbLine
 62
7
  6
BYLAYER
 10
11.2900746352
 20
68.8083860421
 11
11.0893231568
 21
68.8510570861
  0
LINE
  5
29F
100
AcDbEntity
  8
0
100
AcDbLine
 62
7
  6
BYLAYER
 10
55.0893231568
 20
69.9218674374
 11
55.0893231568
 21
68.8510570861
  0
LINE
  5
2A0
100
AcDbEntity
  8
0
100
AcDbLine
 62
7
  6
BYLAYER
 10
55.0893231568
 20
67.6049642914
 11
55.0893231568
 21
66.5269095417
  0
LINE
  5
2A1
100
AcDbEntity
  8
0
100
AcDbLine
 62
7
  6
BYLAYER
 10
46.0238590284
 20
26.097719893
 11
46.0729652684
 21
26.2080143138
  0
LINE
  5
2A2
100
AcDbEntity
  8
0
100
AcDbLine
 62
7
  6
BYLAYER
 10
45.2136443037
 20
26.3814417007
 11
45.048344229
 21
26.216141626
  0
LINE
  5
2A3
100
AcDbEntity
  8
0
100
AcDbLine
 62
7
  6
BYLAYER
 10
45.8995378815
 20
27.0673352784
 11
46.0648379562
 21
27.2326353532
  0
LINE
  5
2A4
100
AcDbEntity
  8
0
100
AcDbLine
 62
7
  6
BYLAYER
 10
44.9299224961
 20
27.1916564254
 11
45.0402169168
 21
27.2407626653
  0
LINE
  5
2A5
100
AcDbEntity
  8
0
100
AcDbLine
 62
7
  6
BYLAYER
 10
50.8065910926
 20
66.2243884896
 11
16.3065910926
 21
66.2243884896
  0
LINE
  5
2A6
100
AcDbEntity
  8
0
100
AcDbLine
 62
7
  6
BYLAYER
 10
58.0635393623
 20
67.7571205538
 11
56.1832596891
 21
67.7571205538
  0
LINE
  5
2A7
100
AcDbEntity
  8
0
100
AcDbLine
 62
7
  6
BYLAYER
 10
54.9371668944
 20
67.7571205538
 11
53.0496428229
 21
67.7571205538
  0
LINE
  5
2A8
100
AcDbEntity
  8
0
100
AcDbLine
 62
7
  6
BYLAYER
 10
14.0635393623
 20
67.7571205538
 11
12.1832596891
 21
67.7571205538
  0
LINE
  5
2A9
100
AcDbEntity
  8
0
100
AcDbLine
 62
7
  6
BYLAYER
 10
10.9371668944
 20
67.7571205538
 11
9.0496428229
 21
67.7571205538
  0
LINE
  5
2AA
100
AcDbEntity
  8
0
100
AcDbLine
 62
7
  6
BYLAYER
 10
58.4331782736
 20
67.8614874305
 11
56.5204106319
 21
67.8614874305
  0
LINE
  5
2AB
100
AcDbEntity
  8
0
100
AcDbLine
 62
7
  6
BYLAYER
 10
54.5927355748
 20
67.8614874305
 11
52.6800039116
 21
67.8614874305
  0
LINE
  5
2AC
100
AcDbEntity
  8
0
100
AcDbLine
 62
7
  6
BYLAYER
 10
14.4331782736
 20
67.8614874305
 11
12.5204106319
 21
67.8614874305
  0
LINE
  5
2AD
100
AcDbEntity
  8
0
100
AcDbLine
 62
7
  6
BYLAYER
 10
10.5927355748
 20
67.8614874305
 11
8.6800039116
 21
67.8614874305
  0
LINE
  5
2AE
100
AcDbEntity
  8
0
100
AcDbLine
 62
7
  6
BYLAYER
 10
56.0238590284
 20
66.5269095417
 11
56.0238590284
 21
67.597719893
  0
LINE
  5
2AF
100
AcDbEntity
  8
0
100
AcDbLine
 62
7
  6
BYLAYER
 10
56.0238590284
 20
68.8438126878
 11
56.0238590284
 21
69.9218674374
  0
LINE
  5
2B0
100
AcDbEntity
  8
0
100
AcDbLine
 62
7
  6
BYLAYER
 10
46.0729652684
 20
26.2080143138
 11
46.1832596891
 21
26.2571205538
  0
LINE
  5
2B1
100
AcDbEntity
  8
0
100
AcDbLine
 62
7
  6
BYLAYER
 10
11.2901717494
 20
67.640801305
 11
11.0893231568
 21
67.6049642914
  0
LINE
  5
2B2
100
AcDbEntity
  8
0
100
AcDbLine
 62
7
  6
BYLAYER
 10
8.6800039116
 20
68.5872895486
 11
10.5927715533
 21
68.5872895486
  0
LINE
  5
2B3
100
AcDbEntity
  8
0
100
AcDbLine
 62
7
  6
BYLAYER
 10
12.5204466104
 20
68.5872895486
 11
14.4331782736
 21
68.5872895486
  0
LINE
  5
2B4
100
AcDbEntity
  8
0
100
AcDbLine
 62
7
  6
BYLAYER
 10
52.6800039116
 20
68.5872895486
 11
54.5927715533
 21
68.5872895486
  0
LINE
  5
2B5
100
AcDbEntity
  8
0
100
AcDbLine
 62
7
  6
BYLAYER
 10
56.5204466104
 20
68.5872895486
 11
58.4331782736
 21
68.5872895486
  0
LINE
  5
2B6
100
AcDbEntity
  8
0
100
AcDbLine
 62
7
  6
BYLAYER
 10
9.0496428229
 20
68.6916564254
 11
10.9299224961
 21
68.6916564254
  0
LINE
  5
2B7
100
AcDbEntity
  8
0
100
AcDbLine
 62
7
  6
BYLAYER
 10
12.1760152908
 20
68.6916564254
 11
14.0635393623
 21
68.6916564254
  0
LINE
  5
2B8
100
AcDbEntity
  8
0
100
AcDbLine
 62
7
  6
BYLAYER
 10
53.0496428229
 20
68.6916564254
 11
54.9299224961
 21
68.6916564254
  0
LINE
  5
2B9
100
AcDbEntity
  8
0
100
AcDbLine
 62
7
  6
BYLAYER
 10
56.1760152908
 20
68.6916564254
 11
58.0635393623
 21
68.6916564254
  0
LINE
  5
2BA
100
AcDbEntity
  8
0
100
AcDbLine
 62
7
  6
BYLAYER
 10
59.5565910926
 20
27.7243884896
 11
59.5565910926
 21
81.2243884896
  0
LINE
  5
2BB
100
AcDbEntity
  8
0
100
AcDbLine
 62
7
  6
BYLAYER
 10
11.8230104358
 20
68.8079756741
 11
12.0238590284
 21
68.8438126878
  0
LINE
  5
2BC
100
AcDbEntity
  8
0
100
AcDbLine
 62
7
  6
BYLAYER
 10
11.5565910926
 20
72.2243884896
 11
14.0565910926
 21
72.2243884896
  0
LINE
  5
2BD
100
AcDbEntity
  8
0
100
AcDbLine
 62
7
  6
BYLAYER
 10
53.0565910926
 20
72.2243884896
 11
55.5565910926
 21
72.2243884896
  0
LINE
  5
2BE
100
AcDbEntity
  8
0
100
AcDbLine
 62
7
  6
BYLAYER
 10
55.82310755
 20
67.640390937
 11
56.0238590284
 21
67.597719893
  0
LINE
  5
2BF
100
AcDbEntity
  8
0
100
AcDbLine
 62
7
  6
BYLAYER
 10
55.2900746352
 20
68.8083860421
 11
55.0893231568
 21
68.8510570861
  0
LINE
  5
2C0
100
AcDbEntity
  8
0
100
AcDbLine
 62
7
  6
BYLAYER
 10
54.9371668944
 20
67.7571205538
 11
55.048344229
 21
67.716141626
  0
LINE
  5
2C1
100
AcDbEntity
  8
0
100
AcDbLine
 62
7
  6
BYLAYER
 10
55.048344229
 20
67.716141626
 11
55.0893231568
 21
67.6049642914
  0
LINE
  5
2C2
100
AcDbEntity
  8
0
100
AcDbLine
 62
7
  6
BYLAYER
 10
54.9725930887
 20
68.4909070703
 11
54.9299224961
 21
68.6916564254
  0
LINE
  5
2C3
100
AcDbEntity
  8
0
100
AcDbLine
 62
7
  6
BYLAYER
 10
56.1405890964
 20
67.9578699089
 11
56.1832596891
 21
67.7571205538
  0
LINE
  5
2C4
100
AcDbEntity
  8
0
100
AcDbLine
 62
7
  6
BYLAYER
 10
21.2981378887
 20
76.8243884896
 11
45.8150442965
 21
76.8243884896
  0
LINE
  5
2C5
100
AcDbEntity
  8
0
100
AcDbLine
 62
7
  6
BYLAYER
 10
19.9887070726
 20
77.3243884896
 11
47.1244751126
 21
77.3243884896
  0
LINE
  5
2C6
100
AcDbEntity
  8
0
100
AcDbLine
 62
7
  6
BYLAYER
 10
11.368396791
 20
77.5243884896
 11
14.7447853942
 21
77.5243884896
  0
LINE
  5
2C7
100
AcDbEntity
  8
0
100
AcDbLine
 62
7
  6
BYLAYER
 10
52.368396791
 20
77.5243884896
 11
55.7447853942
 21
77.5243884896
  0
LINE
  5
2C8
100
AcDbEntity
  8
0
100
AcDbLine
 62
7
  6
BYLAYER
 10
56.1760152908
 20
68.6916564254
 11
56.0648379562
 21
68.7326353532
  0
LINE
  5
2C9
100
AcDbEntity
  8
0
100
AcDbLine
 62
7
  6
BYLAYER
 10
55.2000402627
 20
68.5809393195
 11
55.0402169168
 21
68.7407626653
  0
LINE
  5
2CA
100
AcDbEntity
  8
0
100
AcDbLine
 62
7
  6
BYLAYER
 10
55.9131419225
 20
67.8678376596
 11
56.0729652684
 21
67.7080143138
  0
LINE
  5
2CB
100
AcDbEntity
  8
0
100
AcDbLine
 62
7
  6
BYLAYER
 10
56.0648379562
 20
68.7326353532
 11
56.0238590284
 21
68.8438126878
  0
LINE
  5
2CC
100
AcDbEntity
  8
0
100
AcDbLine
 62
7
  6
BYLAYER
 10
46.5689101371
 20
77.8864058569
 11
20.5442720029
 21
77.8864058569
  0
LINE
  5
2CD
100
AcDbEntity
  8
0
100
AcDbLine
 62
7
  6
BYLAYER
 10
55.7447853942
 20
82.7243884896
 11
52.368396791
 21
82.7243884896
  0
LINE
  5
2CE
100
AcDbEntity
  8
0
100
AcDbLine
 62
7
  6
BYLAYER
 10
14.7447853942
 20
82.7243884896
 11
11.368396791
 21
82.7243884896
  0
LINE
  5
2CF
100
AcDbEntity
  8
0
100
AcDbLine
 62
7
  6
BYLAYER
 10
20.5565910926
 20
84.8864058569
 11
46.5565910926
 21
84.8864058569
  0
LINE
  5
2D0
100
AcDbEntity
  8
0
100
AcDbLine
 62
7
  6
BYLAYER
 10
11.5565910926
 20
85.2243884896
 11
20.0565910926
 21
85.2243884896
  0
LINE
  5
2D1
100
AcDbEntity
  8
0
100
AcDbLine
 62
7
  6
BYLAYER
 10
47.0565910926
 20
85.2243884896
 11
55.5565910926
 21
85.2243884896
  0
LINE
  5
2D2
100
AcDbEntity
  8
0
100
AcDbLine
 62
7
  6
BYLAYER
 10
47.052730031
 20
85.3243884896
 11
20.0604521542
 21
85.3243884896
  0
ARC
  5
2D3
100
AcDbEntity
  8
0
100
AcDbCircle
 62
7
  6
BYLAYER
 10
-174.7959158764
 20
10.6358847212
 40
237.3259424068
100
AcDbArc
 50
14.1887178613
 51
14.3518496499
  0
ARC
  5
2D4
100
AcDbEntity
  8
0
100
AcDbCircle
 62
7
  6
BYLAYER
 10
-184.7959158695
 20
-30.8641152771
 40
237.3259423997
100
AcDbArc
 50
14.1887178613
 51
14.3518496499
  0
ARC
  5
2D5
100
AcDbEntity
  8
0
100
AcDbCircle
 62
7
  6
BYLAYER
 10
-208.7959158674
 20
-30.8641152765
 40
237.3259423974
100
AcDbArc
 50
14.1887178613
 51
14.3518496499
  0
ARC
  5
2D6
100
AcDbEntity
  8
0
100
AcDbCircle
 62
7
  6
BYLAYER
 10
-218.7959158591
 20
10.6358847256
 40
237.3259423889
100
AcDbArc
 50
14.1887178613
 51
14.3518496499
  0
ARC
  5
2D7
100
AcDbEntity
  8
0
100
AcDbCircle
 62
7
  6
BYLAYER
 10
-21.0250159253
 20
-63.5368606
 40
135.6127630721
100
AcDbArc
 50
75.6785440677
 51
75.8441030541
  0
ARC
  5
2D8
100
AcDbEntity
  8
0
100
AcDbCircle
 62
7
  6
BYLAYER
 10
22.9749840752
 20
-63.5368605981
 40
135.6127630702
100
AcDbArc
 50
75.6785440677
 51
75.8441030541
  0
ARC
  5
2D9
100
AcDbEntity
  8
0
100
AcDbCircle
 62
7
  6
BYLAYER
 10
-11.0250152635
 20
-105.0368579918
 40
135.6127603813
100
AcDbArc
 50
75.678544066
 51
75.8441030557
  0
ARC
  5
2DA
100
AcDbEntity
  8
0
100
AcDbCircle
 62
7
  6
BYLAYER
 10
12.9749847375
 20
-105.036857988
 40
135.6127603774
100
AcDbArc
 50
75.678544066
 51
75.8441030557
  0
ARC
  5
2DB
100
AcDbEntity
  8
0
100
AcDbCircle
 62
7
  6
BYLAYER
 10
11.5565910926
 20
27.7243884896
 40
4.0
100
AcDbArc
 50
180.0
 51
270.0
  0
CIRCLE
  5
2DC
100
AcDbEntity
  8
0
100
AcDbCircle
 62
7
  6
BYLAYER
 10
21.5565910926
 20
26.7243884896
 40
3.0
  0
ARC
  5
2DD
100
AcDbEntity
  8
0
100
AcDbCircle
 62
7
  6
BYLAYER
 10
21.5565910926
 20
26.7243884896
 40
2.8993880369
100
AcDbArc
 50
172.8097324032
 51
187.1902675968
  0
ARC
  5
2DE
100
AcDbEntity
  8
0
100
AcDbCircle
 62
7
  6
BYLAYER
 10
21.5565910926
 20
26.7243884896
 40
2.8993880369
100
AcDbArc
 50
352.8097324032
 51
7.1902675968
  0
ARC
  5
2DF
100
AcDbEntity
  8
0
100
AcDbCircle
 62
7
  6
BYLAYER
 10
21.5565910926
 20
26.7243884896
 40
2.8489817302
100
AcDbArc
 50
8.7550103386
 51
171.2449896614
  0
ARC
  5
2E0
100
AcDbEntity
  8
0
100
AcDbCircle
 62
7
  6
BYLAYER
 10
21.5565910926
 20
26.7243884896
 40
2.8489817302
100
AcDbArc
 50
188.7550103386
 51
351.2449896614
  0
ARC
  5
2E1
100
AcDbEntity
  8
0
100
AcDbCircle
 62
7
  6
BYLAYER
 10
21.5565910926
 20
26.7243884896
 40
2.5501233207
100
AcDbArc
 50
190.5581570357
 51
349.4418429643
  0
ARC
  5
2E2
100
AcDbEntity
  8
0
100
AcDbCircle
 62
7
  6
BYLAYER
 10
21.5565910926
 20
26.7243884896
 40
2.5501233207
100
AcDbArc
 50
10.5581570357
 51
169.4418429643
  0
ARC
  5
2E3
100
AcDbEntity
  8
0
100
AcDbCircle
 62
7
  6
BYLAYER
 10
21.5565910926
 20
26.7243884896
 40
1.7606175344
100
AcDbArc
 50
74.6092763651
 51
105.3907236349
  0
ARC
  5
2E4
100
AcDbEntity
  8
0
100
AcDbCircle
 62
7
  6
BYLAYER
 10
21.5565910926
 20
26.7243884896
 40
1.7606175344
100
AcDbArc
 50
254.6092763651
 51
285.3907236349
  0
ARC
  5
2E5
100
AcDbEntity
  8
0
100
AcDbCircle
 62
7
  6
BYLAYER
 10
21.5565910926
 20
26.7243884896
 40
1.3123743192
100
AcDbArc
 50
70.7303350158
 51
109.2684647375
  0
ARC
  5
2E6
100
AcDbEntity
  8
0
100
AcDbCircle
 62
7
  6
BYLAYER
 10
21.5565910926
 20
26.7243884896
 40
1.3123743192
100
AcDbArc
 50
250.7303350176
 51
289.2684647375
  0
ARC
  5
2E7
100
AcDbEntity
  8
0
100
AcDbCircle
 62
7
  6
BYLAYER
 10
21.5565910926
 20
26.7243884896
 40
1.0299038341
100
AcDbArc
 50
159.3680222874
 51
200.6319777126
  0
ARC
  5
2E8
100
AcDbEntity
  8
0
100
AcDbCircle
 62
7
  6
BYLAYER
 10
21.5565910926
 20
26.7243884896
 40
1.0299038341
100
AcDbArc
 50
339.3680222874
 51
20.6319777126
  0
ARC
  5
2E9
100
AcDbEntity
  8
0
100
AcDbCircle
 62
7
  6
BYLAYER
 10
19.3065910926
 20
22.7243884896
 40
1.0
100
AcDbArc
 50
0.0
 51
90.0
  0
ARC
  5
2EA
100
AcDbEntity
  8
0
100
AcDbCircle
 62
7
  6
BYLAYER
 10
21.3065910926
 20
14.3243884896
 40
1.0
100
AcDbArc
 50
180.0
 51
270.0
  0
ARC
  5
2EB
100
AcDbEntity
  8
0
100
AcDbCircle
 62
7
  6
BYLAYER
 10
21.5565910926
 20
26.7243884896
 40
0.635
100
AcDbArc
 50
245.0838345996
 51
295.0060406168
  0
ARC
  5
2EC
100
AcDbEntity
  8
0
100
AcDbCircle
 62
7
  6
BYLAYER
 10
21.5565910926
 20
26.7243884896
 40
0.635
100
AcDbArc
 50
334.9939604507
 51
24.9161654004
  0
ARC
  5
2ED
100
AcDbEntity
  8
0
100
AcDbCircle
 62
7
  6
BYLAYER
 10
21.5565910926
 20
26.7243884896
 40
0.635
100
AcDbArc
 50
65.0838345996
 51
115.0060395494
  0
ARC
  5
2EE
100
AcDbEntity
  8
0
100
AcDbCircle
 62
7
  6
BYLAYER
 10
21.5565910926
 20
26.7243884896
 40
0.635
100
AcDbArc
 50
154.9939593832
 51
204.9161654004
  0
ARC
  5
2EF
100
AcDbEntity
  8
0
100
AcDbCircle
 62
7
  6
BYLAYER
 10
-170.7586566382
 20
113.599377488
 40
187.7603968947
100
AcDbArc
 50
345.6254004267
 51
345.8316121627
  0
ARC
  5
2F0
100
AcDbEntity
  8
0
100
AcDbCircle
 62
7
  6
BYLAYER
 10
-126.7586566237
 20
113.5993774844
 40
187.7603968798
100
AcDbArc
 50
345.6254004267
 51
345.8316121627
  0
ARC
  5
2F1
100
AcDbEntity
  8
0
100
AcDbCircle
 62
7
  6
BYLAYER
 10
-136.7586551221
 20
72.0993771025
 40
187.7603953303
100
AcDbArc
 50
345.6254004258
 51
345.8316121635
  0
ARC
  5
2F2
100
AcDbEntity
  8
0
100
AcDbCircle
 62
7
  6
BYLAYER
 10
-160.7586551065
 20
72.0993770985
 40
187.7603953142
100
AcDbArc
 50
345.6254004258
 51
345.8316121635
  0
ARC
  5
2F3
100
AcDbEntity
  8
0
100
AcDbCircle
 62
7
  6
BYLAYER
 10
14.0565910926
 20
78.2243884896
 40
6.0
100
AcDbArc
 50
270.0
 51
360.0
  0
ARC
  5
2F4
100
AcDbEntity
  8
0
100
AcDbCircle
 62
7
  6
BYLAYER
 10
11.5565910926
 20
68.2243884896
 40
4.0
100
AcDbArc
 50
90.0
 51
180.0
  0
ARC
  5
2F5
100
AcDbEntity
  8
0
100
AcDbCircle
 62
7
  6
BYLAYER
 10
11.5565910926
 20
81.2243884896
 40
4.0
100
AcDbArc
 50
90.0
 51
180.0
  0
ARC
  5
2F6
100
AcDbEntity
  8
0
100
AcDbCircle
 62
7
  6
BYLAYER
 10
13.0565910926
 20
80.1243884896
 40
3.1
100
AcDbArc
 50
302.9958854736
 51
57.0041145264
  0
ARC
  5
2F7
100
AcDbEntity
  8
0
100
AcDbCircle
 62
7
  6
BYLAYER
 10
13.0565910926
 20
80.1243884896
 40
3.1
100
AcDbArc
 50
122.9958854736
 51
237.0041145264
  0
CIRCLE
  5
2F8
100
AcDbEntity
  8
0
100
AcDbCircle
 62
7
  6
BYLAYER
 10
11.5565910926
 20
68.2243884896
 40
3.0
  0
ARC
  5
2F9
100
AcDbEntity
  8
0
100
AcDbCircle
 62
7
  6
BYLAYER
 10
11.5565910926
 20
68.2243884896
 40
2.8993880369
100
AcDbArc
 50
172.8097324032
 51
187.1902675968
  0
ARC
  5
2FA
100
AcDbEntity
  8
0
100
AcDbCircle
 62
7
  6
BYLAYER
 10
11.5565910926
 20
68.2243884896
 40
2.8993880369
100
AcDbArc
 50
352.8097324032
 51
7.1902675968
  0
ARC
  5
2FB
100
AcDbEntity
  8
0
100
AcDbCircle
 62
7
  6
BYLAYER
 10
11.5565910926
 20
68.2243884896
 40
2.8489817302
100
AcDbArc
 50
8.7550103386
 51
171.2449896614
  0
ARC
  5
2FC
100
AcDbEntity
  8
0
100
AcDbCircle
 62
7
  6
BYLAYER
 10
11.5565910926
 20
68.2243884896
 40
2.8489817302
100
AcDbArc
 50
188.7550103386
 51
351.2449896614
  0
ARC
  5
2FD
100
AcDbEntity
  8
0
100
AcDbCircle
 62
7
  6
BYLAYER
 10
11.5565910926
 20
68.2243884896
 40
2.5501233207
100
AcDbArc
 50
190.5581570357
 51
349.4418429643
  0
ARC
  5
2FE
100
AcDbEntity
  8
0
100
AcDbCircle
 62
7
  6
BYLAYER
 10
11.5565910926
 20
68.2243884896
 40
2.5501233207
100
AcDbArc
 50
10.5581570357
 51
169.4418429643
  0
ARC
  5
2FF
100
AcDbEntity
  8
0
100
AcDbCircle
 62
7
  6
BYLAYER
 10
21.2981378887
 20
74.8243884896
 40
2.0
100
AcDbArc
 50
90.0
 51
154.8493365838
  0
ARC
  5
300
100
AcDbEntity
  8
0
100
AcDbCircle
 62
7
  6
BYLAYER
 10
11.5565910926
 20
68.2243884896
 40
1.7606175344
100
AcDbArc
 50
74.6092763651
 51
105.3907236349
  0
ARC
  5
301
100
AcDbEntity
  8
0
100
AcDbCircle
 62
7
  6
BYLAYER
 10
11.5565910926
 20
68.2243884896
 40
1.7606175344
100
AcDbArc
 50
254.6092763651
 51
285.3907236349
  0
ARC
  5
302
100
AcDbEntity
  8
0
100
AcDbCircle
 62
7
  6
BYLAYER
 10
11.5565910926
 20
68.2243884896
 40
1.3123743192
100
AcDbArc
 50
70.7303350173
 51
109.2684647375
  0
ARC
  5
303
100
AcDbEntity
  8
0
100
AcDbCircle
 62
7
  6
BYLAYER
 10
11.5565910926
 20
68.2243884896
 40
1.3123743192
100
AcDbArc
 50
250.7303350178
 51
289.2684647375
  0
ARC
  5
304
100
AcDbEntity
  8
0
100
AcDbCircle
 62
7
  6
BYLAYER
 10
11.5565910926
 20
68.2243884896
 40
1.0299038341
100
AcDbArc
 50
159.3680222874
 51
200.6319777126
  0
ARC
  5
305
100
AcDbEntity
  8
0
100
AcDbCircle
 62
7
  6
BYLAYER
 10
11.5565910926
 20
68.2243884896
 40
1.0299038341
100
AcDbArc
 50
339.3680222874
 51
20.6319777126
  0
ARC
  5
306
100
AcDbEntity
  8
0
100
AcDbCircle
 62
7
  6
BYLAYER
 10
11.5565910926
 20
68.2243884896
 40
0.635
100
AcDbArc
 50
245.0838345996
 51
295.0060406168
  0
ARC
  5
307
100
AcDbEntity
  8
0
100
AcDbCircle
 62
7
  6
BYLAYER
 10
11.5565910926
 20
68.2243884896
 40
0.635
100
AcDbArc
 50
334.9939604507
 51
24.9161654004
  0
ARC
  5
308
100
AcDbEntity
  8
0
100
AcDbCircle
 62
7
  6
BYLAYER
 10
11.5565910926
 20
68.2243884896
 40
0.635
100
AcDbArc
 50
65.0838345996
 51
115.0060395494
  0
ARC
  5
309
100
AcDbEntity
  8
0
100
AcDbCircle
 62
7
  6
BYLAYER
 10
11.5565910926
 20
68.2243884896
 40
0.635
100
AcDbArc
 50
154.9939593832
 51
204.9161654004
  0
ARC
  5
30A
100
AcDbEntity
  8
0
100
AcDbCircle
 62
7
  6
BYLAYER
 10
-32.0911934203
 20
243.5950602998
 40
180.6043140391
100
AcDbArc
 50
284.1763732595
 51
284.3008357495
  0
ARC
  5
30B
100
AcDbEntity
  8
0
100
AcDbCircle
 62
7
  6
BYLAYER
 10
11.9088065805
 20
243.5950602964
 40
180.6043140356
100
AcDbArc
 50
284.1763732595
 51
284.3008357495
  0
ARC
  5
30C
100
AcDbEntity
  8
0
100
AcDbCircle
 62
7
  6
BYLAYER
 10
1.9088126778
 20
202.0950362666
 40
180.6042892443
100
AcDbArc
 50
284.176373251
 51
284.3008357581
  0
ARC
  5
30D
100
AcDbEntity
  8
0
100
AcDbCircle
 62
7
  6
BYLAYER
 10
-22.091187322
 20
202.0950362658
 40
180.6042892435
100
AcDbArc
 50
284.176373251
 51
284.3008357581
  0
ARC
  5
30E
100
AcDbEntity
  8
0
100
AcDbCircle
 62
7
  6
BYLAYER
 10
237.8718348395
 20
22.8494005042
 40
187.760392784
100
AcDbArc
 50
165.6254004244
 51
165.8316121649
  0
ARC
  5
30F
100
AcDbEntity
  8
0
100
AcDbCircle
 62
7
  6
BYLAYER
 10
193.8718348311
 20
22.8494005064
 40
187.7603927753
100
AcDbArc
 50
165.6254004244
 51
165.8316121649
  0
ARC
  5
310
100
AcDbEntity
  8
0
100
AcDbCircle
 62
7
  6
BYLAYER
 10
203.8718215061
 20
-18.650596105
 40
187.7603790262
100
AcDbArc
 50
165.6254004168
 51
165.8316121722
  0
ARC
  5
311
100
AcDbEntity
  8
0
100
AcDbCircle
 62
7
  6
BYLAYER
 10
227.8718215061
 20
-18.650596105
 40
187.7603790262
100
AcDbArc
 50
165.6254004168
 51
165.8316121722
  0
ARC
  5
312
100
AcDbEntity
  8
0
100
AcDbCircle
 62
7
  6
BYLAYER
 10
89.2043695104
 20
-148.6462592996
 40
180.6042892568
100
AcDbArc
 50
104.176373251
 51
104.3008357581
  0
ARC
  5
313
100
AcDbEntity
  8
0
100
AcDbCircle
 62
7
  6
BYLAYER
 10
65.2043695081
 20
-148.6462592903
 40
180.6042892472
100
AcDbArc
 50
104.176373251
 51
104.3008357581
  0
ARC
  5
314
100
AcDbEntity
  8
0
100
AcDbCircle
 62
7
  6
BYLAYER
 10
99.2043695053
 20
-107.1462592794
 40
180.604289236
100
AcDbArc
 50
104.176373251
 51
104.3008357581
  0
ARC
  5
315
100
AcDbEntity
  8
0
100
AcDbCircle
 62
7
  6
BYLAYER
 10
55.2043695045
 20
-107.146259276
 40
180.6042892325
100
AcDbArc
 50
104.176373251
 51
104.3008357581
  0
ARC
  5
316
100
AcDbEntity
  8
0
100
AcDbCircle
 62
7
  6
BYLAYER
 10
55.5565910926
 20
27.7243884896
 40
4.0
100
AcDbArc
 50
270.0
 51
360.0
  0
CIRCLE
  5
317
100
AcDbEntity
  8
0
100
AcDbCircle
 62
7
  6
BYLAYER
 10
45.5565910926
 20
26.7243884896
 40
3.0
  0
ARC
  5
318
100
AcDbEntity
  8
0
100
AcDbCircle
 62
7
  6
BYLAYER
 10
45.5565910926
 20
26.7243884896
 40
2.8993880369
100
AcDbArc
 50
172.8097324032
 51
187.1902675968
  0
ARC
  5
319
100
AcDbEntity
  8
0
100
AcDbCircle
 62
7
  6
BYLAYER
 10
45.5565910926
 20
26.7243884896
 40
2.8993880369
100
AcDbArc
 50
352.8097324032
 51
7.1902675968
  0
ARC
  5
31A
100
AcDbEntity
  8
0
100
AcDbCircle
 62
7
  6
BYLAYER
 10
45.5565910926
 20
26.7243884896
 40
2.8489817302
100
AcDbArc
 50
8.7550103386
 51
171.2449896614
  0
ARC
  5
31B
100
AcDbEntity
  8
0
100
AcDbCircle
 62
7
  6
BYLAYER
 10
45.5565910926
 20
26.7243884896
 40
2.8489817302
100
AcDbArc
 50
188.7550103386
 51
351.2449896614
  0
ARC
  5
31C
100
AcDbEntity
  8
0
100
AcDbCircle
 62
7
  6
BYLAYER
 10
45.5565910926
 20
26.7243884896
 40
2.5501233207
100
AcDbArc
 50
190.5581570357
 51
349.4418429643
  0
ARC
  5
31D
100
AcDbEntity
  8
0
100
AcDbCircle
 62
7
  6
BYLAYER
 10
45.5565910926
 20
26.7243884896
 40
2.5501233207
100
AcDbArc
 50
10.5581570357
 51
169.4418429643
  0
ARC
  5
31E
100
AcDbEntity
  8
0
100
AcDbCircle
 62
7
  6
BYLAYER
 10
45.5565910926
 20
26.7243884896
 40
1.7606175344
100
AcDbArc
 50
74.6092763651
 51
105.3907236349
  0
ARC
  5
31F
100
AcDbEntity
  8
0
100
AcDbCircle
 62
7
  6
BYLAYER
 10
45.5565910926
 20
26.7243884896
 40
1.7606175344
100
AcDbArc
 50
254.6092763651
 51
285.3907236349
  0
ARC
  5
320
100
AcDbEntity
  8
0
100
AcDbCircle
 62
7
  6
BYLAYER
 10
45.5565910926
 20
26.7243884896
 40
1.3123743192
100
AcDbArc
 50
70.7303350158
 51
109.2684647375
  0
ARC
  5
321
100
AcDbEntity
  8
0
100
AcDbCircle
 62
7
  6
BYLAYER
 10
45.5565910926
 20
26.7243884896
 40
1.3123743192
100
AcDbArc
 50
250.7303350176
 51
289.2684647375
  0
ARC
  5
322
100
AcDbEntity
  8
0
100
AcDbCircle
 62
7
  6
BYLAYER
 10
45.5565910926
 20
26.7243884896
 40
1.0299038341
100
AcDbArc
 50
159.3680222874
 51
200.6319777126
  0
ARC
  5
323
100
AcDbEntity
  8
0
100
AcDbCircle
 62
7
  6
BYLAYER
 10
45.5565910926
 20
26.7243884896
 40
1.0299038341
100
AcDbArc
 50
339.3680222874
 51
20.6319777126
  0
ARC
  5
324
100
AcDbEntity
  8
0
100
AcDbCircle
 62
7
  6
BYLAYER
 10
45.8065910926
 20
14.3243884896
 40
1.0
100
AcDbArc
 50
270.0
 51
360.0
  0
ARC
  5
325
100
AcDbEntity
  8
0
100
AcDbCircle
 62
7
  6
BYLAYER
 10
47.8065910926
 20
22.7243884896
 40
1.0
100
AcDbArc
 50
90.0
 51
180.0
  0
ARC
  5
326
100
AcDbEntity
  8
0
100
AcDbCircle
 62
7
  6
BYLAYER
 10
45.5565910926
 20
26.7243884896
 40
0.635
100
AcDbArc
 50
245.0838345996
 51
295.0060406168
  0
ARC
  5
327
100
AcDbEntity
  8
0
100
AcDbCircle
 62
7
  6
BYLAYER
 10
45.5565910926
 20
26.7243884896
 40
0.635
100
AcDbArc
 50
334.9939604507
 51
24.9161654004
  0
ARC
  5
328
100
AcDbEntity
  8
0
100
AcDbCircle
 62
7
  6
BYLAYER
 10
45.5565910926
 20
26.7243884896
 40
0.635
100
AcDbArc
 50
65.0838345996
 51
115.0060395494
  0
ARC
  5
329
100
AcDbEntity
  8
0
100
AcDbCircle
 62
7
  6
BYLAYER
 10
45.5565910926
 20
26.7243884896
 40
0.635
100
AcDbArc
 50
154.9939593832
 51
204.9161654004
  0
ARC
  5
32A
100
AcDbEntity
  8
0
100
AcDbCircle
 62
7
  6
BYLAYER
 10
53.0565910926
 20
78.2243884896
 40
6.0
100
AcDbArc
 50
180.0
 51
270.0
  0
ARC
  5
32B
100
AcDbEntity
  8
0
100
AcDbCircle
 62
7
  6
BYLAYER
 10
55.5565910926
 20
68.2243884896
 40
4.0
100
AcDbArc
 50
0.0
 51
90.0
  0
ARC
  5
32C
100
AcDbEntity
  8
0
100
AcDbCircle
 62
7
  6
BYLAYER
 10
55.5565910926
 20
81.2243884896
 40
4.0
100
AcDbArc
 50
0.0
 51
90.0
  0
ARC
  5
32D
100
AcDbEntity
  8
0
100
AcDbCircle
 62
7
  6
BYLAYER
 10
54.0565910926
 20
80.1243884896
 40
3.1
100
AcDbArc
 50
122.9958854736
 51
237.0041145264
  0
ARC
  5
32E
100
AcDbEntity
  8
0
100
AcDbCircle
 62
7
  6
BYLAYER
 10
54.0565910926
 20
80.1243884896
 40
3.1
100
AcDbArc
 50
302.9958854736
 51
57.0041145264
  0
CIRCLE
  5
32F
100
AcDbEntity
  8
0
100
AcDbCircle
 62
7
  6
BYLAYER
 10
55.5565910926
 20
68.2243884896
 40
3.0
  0
ARC
  5
330
100
AcDbEntity
  8
0
100
AcDbCircle
 62
7
  6
BYLAYER
 10
55.5565910926
 20
68.2243884896
 40
2.8993880369
100
AcDbArc
 50
172.8097324032
 51
187.1902675968
  0
ARC
  5
331
100
AcDbEntity
  8
0
100
AcDbCircle
 62
7
  6
BYLAYER
 10
55.5565910926
 20
68.2243884896
 40
2.8993880369
100
AcDbArc
 50
352.8097324032
 51
7.1902675968
  0
ARC
  5
332
100
AcDbEntity
  8
0
100
AcDbCircle
 62
7
  6
BYLAYER
 10
55.5565910926
 20
68.2243884896
 40
2.8489817302
100
AcDbArc
 50
8.7550103386
 51
171.2449896614
  0
ARC
  5
333
100
AcDbEntity
  8
0
100
AcDbCircle
 62
7
  6
BYLAYER
 10
55.5565910926
 20
68.2243884896
 40
2.8489817302
100
AcDbArc
 50
188.7550103386
 51
351.2449896614
  0
ARC
  5
334
100
AcDbEntity
  8
0
100
AcDbCircle
 62
7
  6
BYLAYER
 10
55.5565910926
 20
68.2243884896
 40
2.5501233207
100
AcDbArc
 50
190.5581570357
 51
349.4418429643
  0
ARC
  5
335
100
AcDbEntity
  8
0
100
AcDbCircle
 62
7
  6
BYLAYER
 10
55.5565910926
 20
68.2243884896
 40
2.5501233207
100
AcDbArc
 50
10.5581570357
 51
169.4418429643
  0
ARC
  5
336
100
AcDbEntity
  8
0
100
AcDbCircle
 62
7
  6
BYLAYER
 10
45.8150442965
 20
74.8243884896
 40
2.0
100
AcDbArc
 50
25.150663416
 51
90.0
  0
ARC
  5
337
100
AcDbEntity
  8
0
100
AcDbCircle
 62
7
  6
BYLAYER
 10
55.5565910926
 20
68.2243884896
 40
1.7606175344
100
AcDbArc
 50
74.6092763651
 51
105.3907236349
  0
ARC
  5
338
100
AcDbEntity
  8
0
100
AcDbCircle
 62
7
  6
BYLAYER
 10
55.5565910926
 20
68.2243884896
 40
1.7606175344
100
AcDbArc
 50
254.6092763651
 51
285.3907236349
  0
ARC
  5
339
100
AcDbEntity
  8
0
100
AcDbCircle
 62
7
  6
BYLAYER
 10
55.5565910926
 20
68.2243884896
 40
1.3123743192
100
AcDbArc
 50
70.7303350173
 51
109.2684647375
  0
ARC
  5
33A
100
AcDbEntity
  8
0
100
AcDbCircle
 62
7
  6
BYLAYER
 10
55.5565910926
 20
68.2243884896
 40
1.3123743192
100
AcDbArc
 50
250.7303350178
 51
289.2684647375
  0
ARC
  5
33B
100
AcDbEntity
  8
0
100
AcDbCircle
 62
7
  6
BYLAYER
 10
55.5565910926
 20
68.2243884896
 40
1.0299038341
100
AcDbArc
 50
159.3680222874
 51
200.6319777126
  0
ARC
  5
33C
100
AcDbEntity
  8
0
100
AcDbCircle
 62
7
  6
BYLAYER
 10
55.5565910926
 20
68.2243884896
 40
1.0299038341
100
AcDbArc
 50
339.3680222874
 51
20.6319777126
  0
ARC
  5
33D
100
AcDbEntity
  8
0
100
AcDbCircle
 62
7
  6
BYLAYER
 10
55.5565910926
 20
68.2243884896
 40
0.635
100
AcDbArc
 50
245.0838345996
 51
295.0060406168
  0
ARC
  5
33E
100
AcDbEntity
  8
0
100
AcDbCircle
 62
7
  6
BYLAYER
 10
55.5565910926
 20
68.2243884896
 40
0.635
100
AcDbArc
 50
334.9939604507
 51
24.9161654004
  0
ARC
  5
33F
100
AcDbEntity
  8
0
100
AcDbCircle
 62
7
  6
BYLAYER
 10
55.5565910926
 20
68.2243884896
 40
0.635
100
AcDbArc
 50
65.0838345996
 51
115.0060395494
  0
ARC
  5
340
100
AcDbEntity
  8
0
100
AcDbCircle
 62
7
  6
BYLAYER
 10
55.5565910926
 20
68.2243884896
 40
0.635
100
AcDbArc
 50
154.9939593832
 51
204.9161654004
  0
ARC
  5
341
100
AcDbEntity
  8
0
100
AcDbCircle
 62
7
  6
BYLAYER
 10
44.1381982579
 20
199.9856381601
 40
135.6127636715
100
AcDbArc
 50
255.6785440681
 51
255.8441030538
  0
ARC
  5
342
100
AcDbEntity
  8
0
100
AcDbCircle
 62
7
  6
BYLAYER
 10
88.1381982579
 20
199.9856381601
 40
135.6127636715
100
AcDbArc
 50
255.6785440681
 51
255.8441030538
  0
ARC
  5
343
100
AcDbEntity
  8
0
100
AcDbCircle
 62
7
  6
BYLAYER
 10
54.1381977086
 20
158.4856359955
 40
135.6127614383
100
AcDbArc
 50
255.6785440667
 51
255.8441030551
  0
ARC
  5
344
100
AcDbEntity
  8
0
100
AcDbCircle
 62
7
  6
BYLAYER
 10
78.1381977082
 20
158.4856359941
 40
135.6127614369
100
AcDbArc
 50
255.6785440667
 51
255.8441030551
  0
ARC
  5
345
100
AcDbEntity
  8
0
100
AcDbCircle
 62
7
  6
BYLAYER
 10
285.9090979738
 20
125.8128922357
 40
237.3259423162
100
AcDbArc
 50
194.1887178612
 51
194.3518496499
  0
ARC
  5
346
100
AcDbEntity
  8
0
100
AcDbCircle
 62
7
  6
BYLAYER
 10
251.909097968
 20
84.3128922342
 40
237.3259423102
100
AcDbArc
 50
194.1887178612
 51
194.3518496499
  0
ARC
  5
347
100
AcDbEntity
  8
0
100
AcDbCircle
 62
7
  6
BYLAYER
 10
241.909097968
 20
125.8128922342
 40
237.3259423102
100
AcDbArc
 50
194.1887178612
 51
194.3518496499
  0
ARC
  5
348
100
AcDbEntity
  8
0
100
AcDbCircle
 62
7
  6
BYLAYER
 10
275.9090979586
 20
84.3128922318
 40
237.3259423005
100
AcDbArc
 50
194.1887178612
 51
194.3518496499
  0
SPLINE
  5
349
100
AcDbEntity
  8
0
100
AcDbSpline
 62
7
  6
BYLAYER
 70
0
 71
3
 72
9
 73
5
 74
0
 42
0.0000001
 43
0.0000001
 44
0.0000000001
 40
0.0
 40
0.0
 40
0.0
 40
0.0
 40
0.2544124182
 40
1.0
 40
1.0
 40
1.0
 40
1.0
 10
21.8995378815
 20
27.0673352784
 30
0.0
 10
21.8929256015
 20
27.0870194985
 30
0.0
 10
21.8672132434
 20
27.1644842785
 30
0.0
 10
21.8423797789
 20
27.2422379468
 30
0.0
 10
21.8241113281
 20
27.3002859836
 30
0.0
  0
SPLINE
  5
34A
100
AcDbEntity
  8
0
100
AcDbSpline
 62
7
  6
BYLAYER
 70
0
 71
3
 72
9
 73
5
 74
0
 42
0.0000001
 43
0.0000001
 44
0.0000000001
 40
0.0
 40
0.0
 40
0.0
 40
0.0
 40
0.2459824255
 40
1.0
 40
1.0
 40
1.0
 40
1.0
 10
22.1324885866
 20
26.9919087251
 30
0.0
 10
22.1133375704
 20
26.9979357919
 30
0.0
 10
22.035519065
 20
27.0225531221
 30
0.0
 10
21.9578770514
 20
27.0477381127
 30
0.0
 10
21.8995378815
 20
27.0673352784
 30
0.0
  0
SPLINE
  5
34B
100
AcDbEntity
  8
0
100
AcDbSpline
 62
7
  6
BYLAYER
 70
0
 71
3
 72
9
 73
5
 74
0
 42
0.0000001
 43
0.0000001
 44
0.0000000001
 40
0.0
 40
0.0
 40
0.0
 40
0.0
 40
0.2544124182
 40
1.0
 40
1.0
 40
1.0
 40
1.0
 10
21.2136443037
 20
26.3814417007
 30
0.0
 10
21.2202565837
 20
26.3617574807
 30
0.0
 10
21.2459689418
 20
26.2842927006
 30
0.0
 10
21.2708024063
 20
26.2065390324
 30
0.0
 10
21.2890708571
 20
26.1484909956
 30
0.0
  0
SPLINE
  5
34C
100
AcDbEntity
  8
0
100
AcDbSpline
 62
7
  6
BYLAYER
 70
0
 71
3
 72
9
 73
5
 74
0
 42
0.0000001
 43
0.0000001
 44
0.0000000001
 40
0.0
 40
0.0
 40
0.0
 40
0.0
 40
0.2459824255
 40
1.0
 40
1.0
 40
1.0
 40
1.0
 10
20.9806935986
 20
26.456868254
 30
0.0
 10
20.9998446147
 20
26.4508411872
 30
0.0
 10
21.0776631202
 20
26.426223857
 30
0.0
 10
21.1553051338
 20
26.4010388665
 30
0.0
 10
21.2136443037
 20
26.3814417007
 30
0.0
  0
LINE
  5
34D
100
AcDbEntity
  8
0
100
AcDbLine
 62
7
  6
BYLAYER
 10
22.1401771004
 20
26.9908012377
 11
22.1324885866
 21
26.9919087251
  0
SPLINE
  5
34E
100
AcDbEntity
  8
0
100
AcDbSpline
 62
7
  6
BYLAYER
 70
0
 71
3
 72
12
 73
8
 74
0
 42
0.0000001
 43
0.0000001
 44
0.0000000001
 40
0.0
 40
0.0
 40
0.0
 40
0.0
 40
0.3011555666
 40
0.4640090751
 40
0.5775251531
 40
0.7752125248
 40
1.0
 40
1.0
 40
1.0
 40
1.0
 10
21.8241113281
 20
27.3002859836
 30
0.0
 10
21.8239994394
 20
27.3010598263
 30
0.0
 10
21.8237028659
 20
27.3022269268
 30
0.0
 10
21.8234899489
 20
27.3037222707
 30
0.0
 10
21.8236428422
 20
27.3049550511
 30
0.0
 10
21.8233053963
 20
27.3063265337
 30
0.0
 10
21.8230867459
 20
27.3073968005
 30
0.0
 10
21.8230038407
 20
27.3079744974
 30
0.0
  0
LINE
  5
34F
100
AcDbEntity
  8
0
100
AcDbLine
 62
7
  6
BYLAYER
 10
21.2900746352
 20
27.3083860421
 11
21.2881678315
 21
27.2998656593
  0
LINE
  5
350
100
AcDbEntity
  8
0
100
AcDbLine
 62
7
  6
BYLAYER
 10
20.9725935401
 20
26.990904947
 11
20.9811139228
 21
26.9928117506
  0
SPLINE
  5
351
100
AcDbEntity
  8
0
100
AcDbSpline
 62
7
  6
BYLAYER
 70
0
 71
3
 72
13
 73
9
 74
0
 42
0.0000001
 43
0.0000001
 44
0.0000000001
 40
0.0
 40
0.0
 40
0.0
 40
0.0
 40
0.078089668
 40
0.1745486834
 40
0.2871301146
 40
0.4133513729
 40
0.6957897273
 40
1.0
 40
1.0
 40
1.0
 40
1.0
 10
21.9895974519
 20
27.9628837603
 30
0.0
 10
21.9925678279
 20
27.9745112073
 30
0.0
 10
21.9979318583
 20
28.0008224426
 30
0.0
 10
22.004499939
 20
28.04446553
 30
0.0
 10
22.010271664
 20
28.0956750322
 30
0.0
 10
22.0170046327
 20
28.1755033256
 30
0.0
 10
22.0224359831
 20
28.2849545611
 30
0.0
 10
22.0238590284
 20
28.3751162447
 30
0.0
 10
22.0238590284
 20
28.4218674374
 30
0.0
  0
SPLINE
  5
352
100
AcDbEntity
  8
0
100
AcDbSpline
 62
7
  6
BYLAYER
 70
0
 71
3
 72
13
 73
9
 74
0
 42
0.0000001
 43
0.0000001
 44
0.0000000001
 40
0.0
 40
0.0
 40
0.0
 40
0.0
 40
0.3040834017
 40
0.5864774408
 40
0.7127235784
 40
0.8253673602
 40
0.9218930726
 40
1.0
 40
1.0
 40
1.0
 40
1.0
 10
21.0893231568
 20
28.4218674374
 30
0.0
 10
21.0893231568
 20
28.3751732758
 30
0.0
 10
21.0907428672
 20
28.2851103026
 30
0.0
 10
21.0961622099
 20
28.1757691951
 30
0.0
 10
21.1028797366
 20
28.0959976145
 30
0.0
 10
21.1086380037
 20
28.0448044862
 30
0.0
 10
21.1151907514
 20
28.0011723342
 30
0.0
 10
21.1205456402
 20
27.9748678475
 30
0.0
 10
21.1235142864
 20
27.9632471714
 30
0.0
  0
SPLINE
  5
353
100
AcDbEntity
  8
0
100
AcDbSpline
 62
7
  6
BYLAYER
 70
0
 71
3
 72
17
 73
13
 74
0
 42
0.0000001
 43
0.0000001
 44
0.0000000001
 40
0.0
 40
0.0
 40
0.0
 40
0.0
 40
0.1800318635
 40
0.3542997836
 40
0.5169581248
 40
0.6629405863
 40
0.7875456577
 40
0.886817177
 40
0.9260080412
 40
0.9578867593
 40
0.9824245822
 40
1.0
 40
1.0
 40
1.0
 40
1.0
 10
24.0635393623
 20
27.1916564254
 30
0.0
 10
24.082318395
 20
27.1916564254
 30
0.0
 10
24.1192765237
 20
27.1912470052
 30
0.0
 10
24.1731746104
 20
27.1894327298
 30
0.0
 10
24.2234655515
 20
27.1864857679
 30
0.0
 10
24.2684939258
 20
27.1825290332
 30
0.0
 10
24.3067756224
 20
27.1776946178
 30
0.0
 10
24.3338151056
 20
27.1728331205
 30
0.0
 10
24.3510240028
 20
27.1683901594
 30
0.0
 10
24.3605011516
 20
27.1652186928
 30
0.0
 10
24.367514018
 20
27.1619978514
 30
0.0
 10
24.3711698885
 20
27.1594111964
 30
0.0
 10
24.3723770687
 20
27.158031471
 30
0.0
  0
SPLINE
  5
354
100
AcDbEntity
  8
0
100
AcDbSpline
 62
7
  6
BYLAYER
 70
0
 71
3
 72
9
 73
5
 74
0
 42
0.0000001
 43
0.0000001
 44
0.0000000001
 40
0.0
 40
0.0
 40
0.0
 40
0.0
 40
0.2542038863
 40
1.0
 40
1.0
 40
1.0
 40
1.0
 10
21.2000402627
 20
27.0809393195
 30
0.0
 10
21.1815747691
 20
27.0732631672
 30
0.0
 10
21.1088270053
 20
27.0433242187
 30
0.0
 10
21.035730727
 20
27.01423873
 30
0.0
 10
20.9811139228
 20
26.9928117506
 30
0.0
  0
SPLINE
  5
355
100
AcDbEntity
  8
0
100
AcDbSpline
 62
7
  6
BYLAYER
 70
0
 71
3
 72
9
 73
5
 74
0
 42
0.0000001
 43
0.0000001
 44
0.0000000001
 40
0.0
 40
0.0
 40
0.0
 40
0.0
 40
0.2460388638
 40
1.0
 40
1.0
 40
1.0
 40
1.0
 10
21.2881678315
 20
27.2998656593
 30
0.0
 10
21.2810990678
 20
27.2818475675
 30
0.0
 10
21.2522483291
 20
27.2086625306
 30
0.0
 10
21.2228074443
 20
27.1357072852
 30
0.0
 10
21.2000402627
 20
27.0809393195
 30
0.0
  0
SPLINE
  5
356
100
AcDbEntity
  8
0
100
AcDbSpline
 62
7
  6
BYLAYER
 70
0
 71
3
 72
17
 73
13
 74
0
 42
0.0000001
 43
0.0000001
 44
0.0000000001
 40
0.0
 40
0.0
 40
0.0
 40
0.0
 40
0.0175753679
 40
0.0421130052
 40
0.0739913459
 40
0.1131814747
 40
0.2124512873
 40
0.3370542949
 40
0.4830348768
 40
0.6456926451
 40
0.8199649731
 40
1.0
 40
1.0
 40
1.0
 40
1.0
 10
18.7408051164
 20
27.158031471
 30
0.0
 10
18.7420122933
 20
27.1594111924
 30
0.0
 10
18.7456681361
 20
27.1619978413
 30
0.0
 10
18.7526809406
 20
27.1652186681
 30
0.0
 10
18.7621579614
 20
27.1683900884
 30
0.0
 10
18.7793665626
 20
27.1728330182
 30
0.0
 10
18.8064055805
 20
27.1776944526
 30
0.0
 10
18.8446866829
 20
27.1825288631
 30
0.0
 10
18.8897145826
 20
27.1864856259
 30
0.0
 10
18.9400057243
 20
27.1894326686
 30
0.0
 10
18.9939045419
 20
27.191246947
 30
0.0
 10
19.03086346
 20
27.1916564254
 30
0.0
 10
19.0496428229
 20
27.1916564254
 30
0.0
  0
SPLINE
  5
357
100
AcDbEntity
  8
0
100
AcDbSpline
 62
7
  6
BYLAYER
 70
0
 71
3
 72
12
 73
8
 74
0
 42
0.0000001
 43
0.0000001
 44
0.0000000001
 40
0.0
 40
0.0
 40
0.0
 40
0.0
 40
0.301041753
 40
0.4640909988
 40
0.577568552
 40
0.775023956
 40
1.0
 40
1.0
 40
1.0
 40
1.0
 10
20.9730050848
 20
26.4579757415
 30
0.0
 10
20.9737787538
 20
26.4578647175
 30
0.0
 10
20.9749460043
 20
26.4575677921
 30
0.0
 10
20.9764413966
 20
26.4573538917
 30
0.0
 10
20.9776739639
 20
26.4575070922
 30
0.0
 10
20.9790453569
 20
26.457170272
 30
0.0
 10
20.9801155049
 20
26.4569518397
 30
0.0
 10
20.9806935986
 20
26.456868254
 30
0.0
  0
LINE
  5
358
100
AcDbEntity
  8
0
100
AcDbLine
 62
7
  6
BYLAYER
 10
21.2890708571
 20
26.1484909956
 11
21.2901783445
 21
26.1408024818
  0
LINE
  5
359
100
AcDbEntity
  8
0
100
AcDbLine
 62
7
  6
BYLAYER
 10
21.82310755
 20
26.140390937
 11
21.8250143536
 21
26.1489113198
  0
SPLINE
  5
35A
100
AcDbEntity
  8
0
100
AcDbSpline
 62
7
  6
BYLAYER
 70
0
 71
3
 72
9
 73
5
 74
0
 42
0.0000001
 43
0.0000001
 44
0.0000000001
 40
0.0
 40
0.0
 40
0.0
 40
0.0
 40
0.2542068433
 40
1.0
 40
1.0
 40
1.0
 40
1.0
 10
21.9131419225
 20
26.3678376596
 30
0.0
 10
21.9054656809
 20
26.3493719511
 30
0.0
 10
21.8755263253
 20
26.2766243539
 30
0.0
 10
21.8464412483
 20
26.2035279078
 30
0.0
 10
21.8250143536
 20
26.1489113198
 30
0.0
  0
SPLINE
  5
35B
100
AcDbEntity
  8
0
100
AcDbSpline
 62
7
  6
BYLAYER
 70
0
 71
3
 72
9
 73
5
 74
0
 42
0.0000001
 43
0.0000001
 44
0.0000000001
 40
0.0
 40
0.0
 40
0.0
 40
0.0
 40
0.2460382598
 40
1.0
 40
1.0
 40
1.0
 40
1.0
 10
22.1320682624
 20
26.4559652285
 30
0.0
 10
22.1140502149
 20
26.4488964822
 30
0.0
 10
22.0408653614
 20
26.4200452809
 30
0.0
 10
21.9679099317
 20
26.3906048594
 30
0.0
 10
21.9131419225
 20
26.3678376596
 30
0.0
  0
LINE
  5
35C
100
AcDbEntity
  8
0
100
AcDbLine
 62
7
  6
BYLAYER
 10
22.1405886451
 20
26.4578720322
 11
22.1320682624
 21
26.4559652285
  0
SPLINE
  5
35D
100
AcDbEntity
  8
0
100
AcDbSpline
 62
7
  6
BYLAYER
 70
0
 71
3
 72
17
 73
13
 74
0
 42
0.0000001
 43
0.0000001
 44
0.0000000001
 40
0.0
 40
0.0
 40
0.0
 40
0.0
 40
0.0175753679
 40
0.0421130052
 40
0.0739913459
 40
0.1131814747
 40
0.2124512873
 40
0.3370542949
 40
0.4830348768
 40
0.6456926451
 40
0.8199649731
 40
1.0
 40
1.0
 40
1.0
 40
1.0
 10
24.3723770688
 20
26.2907455082
 30
0.0
 10
24.3711698919
 20
26.2893657867
 30
0.0
 10
24.367514049
 20
26.2867791378
 30
0.0
 10
24.3605012445
 20
26.2835583111
 30
0.0
 10
24.3510242238
 20
26.2803868908
 30
0.0
 10
24.3338156225
 20
26.275943961
 30
0.0
 10
24.3067766047
 20
26.2710825265
 30
0.0
 10
24.2684955022
 20
26.266248116
 30
0.0
 10
24.2234676026
 20
26.2622913533
 30
0.0
 10
24.1731764609
 20
26.2593443106
 30
0.0
 10
24.1192776433
 20
26.2575300321
 30
0.0
 10
24.0823187252
 20
26.2571205538
 30
0.0
 10
24.0635393623
 20
26.2571205538
 30
0.0
  0
SPLINE
  5
35E
100
AcDbEntity
  8
0
100
AcDbSpline
 62
7
  6
BYLAYER
 70
0
 71
3
 72
17
 73
13
 74
0
 42
0.0000001
 43
0.0000001
 44
0.0000000001
 40
0.0
 40
0.0
 40
0.0
 40
0.0
 40
0.1800318635
 40
0.3542997836
 40
0.5169581248
 40
0.6629405863
 40
0.7875456577
 40
0.886817177
 40
0.9260080412
 40
0.9578867593
 40
0.9824245822
 40
1.0
 40
1.0
 40
1.0
 40
1.0
 10
19.0496428229
 20
26.2571205538
 30
0.0
 10
19.0308637902
 20
26.2571205538
 30
0.0
 10
18.9939056615
 20
26.257529974
 30
0.0
 10
18.9400075748
 20
26.2593442494
 30
0.0
 10
18.8897166337
 20
26.2622912113
 30
0.0
 10
18.8446882594
 20
26.2662479459
 30
0.0
 10
18.8064065627
 20
26.2710823613
 30
0.0
 10
18.7793670796
 20
26.2759438586
 30
0.0
 10
18.7621581824
 20
26.2803868198
 30
0.0
 10
18.7526810336
 20
26.2835582863
 30
0.0
 10
18.7456681672
 20
26.2867791278
 30
0.0
 10
18.7420122967
 20
26.2893657828
 30
0.0
 10
18.7408051164
 20
26.2907455082
 30
0.0
  0
SPLINE
  5
35F
100
AcDbEntity
  8
0
100
AcDbSpline
 62
7
  6
BYLAYER
 70
0
 71
3
 72
13
 73
9
 74
0
 42
0.0000001
 43
0.0000001
 44
0.0000000001
 40
0.0
 40
0.0
 40
0.0
 40
0.0
 40
0.3040834018
 40
0.5864774407
 40
0.7127235784
 40
0.8253673602
 40
0.9218930726
 40
1.0
 40
1.0
 40
1.0
 40
1.0
 10
22.0238590284
 20
25.0269095417
 30
0.0
 10
22.0238590284
 20
25.0736037033
 30
0.0
 10
22.022439318
 20
25.1636666766
 30
0.0
 10
22.0170199753
 20
25.2730077841
 30
0.0
 10
22.0103024486
 20
25.3527793646
 30
0.0
 10
22.0045441815
 20
25.403972493
 30
0.0
 10
21.9979914338
 20
25.447604645
 30
0.0
 10
21.992636545
 20
25.4739091317
 30
0.0
 10
21.9896678988
 20
25.4855298077
 30
0.0
  0
SPLINE
  5
360
100
AcDbEntity
  8
0
100
AcDbSpline
 62
7
  6
BYLAYER
 70
0
 71
3
 72
13
 73
9
 74
0
 42
0.0000001
 43
0.0000001
 44
0.0000000001
 40
0.0
 40
0.0
 40
0.0
 40
0.0
 40
0.0780896679
 40
0.1745486834
 40
0.2871301148
 40
0.4133513732
 40
0.6957897275
 40
1.0
 40
1.0
 40
1.0
 40
1.0
 10
21.1235847332
 20
25.4858932183
 30
0.0
 10
21.1206143572
 20
25.4742657713
 30
0.0
 10
21.1152503268
 20
25.4479545361
 30
0.0
 10
21.1086822461
 20
25.4043114486
 30
0.0
 10
21.1029105211
 20
25.3531019465
 30
0.0
 10
21.0961775525
 20
25.2732736532
 30
0.0
 10
21.090746202
 20
25.1638224178
 30
0.0
 10
21.0893231568
 20
25.0736607344
 30
0.0
 10
21.0893231568
 20
25.0269095417
 30
0.0
  0
SPLINE
  5
361
100
AcDbEntity
  8
0
100
AcDbSpline
 62
7
  6
BYLAYER
 70
0
 71
3
 72
9
 73
5
 74
0
 42
0.0000001
 43
0.0000001
 44
0.0000000001
 40
0.0
 40
0.0
 40
0.0
 40
0.0
 40
0.2544124182
 40
1.0
 40
1.0
 40
1.0
 40
1.0
 10
45.8995378815
 20
27.0673352784
 30
0.0
 10
45.8929256015
 20
27.0870194985
 30
0.0
 10
45.8672132434
 20
27.1644842785
 30
0.0
 10
45.8423797789
 20
27.2422379468
 30
0.0
 10
45.8241113281
 20
27.3002859836
 30
0.0
  0
SPLINE
  5
362
100
AcDbEntity
  8
0
100
AcDbSpline
 62
7
  6
BYLAYER
 70
0
 71
3
 72
9
 73
5
 74
0
 42
0.0000001
 43
0.0000001
 44
0.0000000001
 40
0.0
 40
0.0
 40
0.0
 40
0.0
 40
0.2459824255
 40
1.0
 40
1.0
 40
1.0
 40
1.0
 10
46.1324885866
 20
26.9919087251
 30
0.0
 10
46.1133375704
 20
26.9979357919
 30
0.0
 10
46.035519065
 20
27.0225531221
 30
0.0
 10
45.9578770514
 20
27.0477381127
 30
0.0
 10
45.8995378815
 20
27.0673352784
 30
0.0
  0
SPLINE
  5
363
100
AcDbEntity
  8
0
100
AcDbSpline
 62
7
  6
BYLAYER
 70
0
 71
3
 72
9
 73
5
 74
0
 42
0.0000001
 43
0.0000001
 44
0.0000000001
 40
0.0
 40
0.0
 40
0.0
 40
0.0
 40
0.2544124182
 40
1.0
 40
1.0
 40
1.0
 40
1.0
 10
45.2136443037
 20
26.3814417007
 30
0.0
 10
45.2202565837
 20
26.3617574807
 30
0.0
 10
45.2459689418
 20
26.2842927006
 30
0.0
 10
45.2708024063
 20
26.2065390324
 30
0.0
 10
45.2890708571
 20
26.1484909956
 30
0.0
  0
SPLINE
  5
364
100
AcDbEntity
  8
0
100
AcDbSpline
 62
7
  6
BYLAYER
 70
0
 71
3
 72
9
 73
5
 74
0
 42
0.0000001
 43
0.0000001
 44
0.0000000001
 40
0.0
 40
0.0
 40
0.0
 40
0.0
 40
0.2459824255
 40
1.0
 40
1.0
 40
1.0
 40
1.0
 10
44.9806935986
 20
26.456868254
 30
0.0
 10
44.9998446147
 20
26.4508411872
 30
0.0
 10
45.0776631202
 20
26.426223857
 30
0.0
 10
45.1553051338
 20
26.4010388665
 30
0.0
 10
45.2136443037
 20
26.3814417007
 30
0.0
  0
LINE
  5
365
100
AcDbEntity
  8
0
100
AcDbLine
 62
7
  6
BYLAYER
 10
46.1401771004
 20
26.9908012377
 11
46.1324885866
 21
26.9919087251
  0
SPLINE
  5
366
100
AcDbEntity
  8
0
100
AcDbSpline
 62
7
  6
BYLAYER
 70
0
 71
3
 72
12
 73
8
 74
0
 42
0.0000001
 43
0.0000001
 44
0.0000000001
 40
0.0
 40
0.0
 40
0.0
 40
0.0
 40
0.3011555666
 40
0.4640090751
 40
0.5775251531
 40
0.7752125248
 40
1.0
 40
1.0
 40
1.0
 40
1.0
 10
45.8241113281
 20
27.3002859836
 30
0.0
 10
45.8239994394
 20
27.3010598263
 30
0.0
 10
45.8237028659
 20
27.3022269268
 30
0.0
 10
45.8234899489
 20
27.3037222707
 30
0.0
 10
45.8236428422
 20
27.3049550511
 30
0.0
 10
45.8233053963
 20
27.3063265337
 30
0.0
 10
45.8230867459
 20
27.3073968005
 30
0.0
 10
45.8230038407
 20
27.3079744974
 30
0.0
  0
LINE
  5
367
100
AcDbEntity
  8
0
100
AcDbLine
 62
7
  6
BYLAYER
 10
45.2900746352
 20
27.3083860421
 11
45.2881678315
 21
27.2998656593
  0
LINE
  5
368
100
AcDbEntity
  8
0
100
AcDbLine
 62
7
  6
BYLAYER
 10
44.9725935401
 20
26.990904947
 11
44.9811139228
 21
26.9928117506
  0
SPLINE
  5
369
100
AcDbEntity
  8
0
100
AcDbSpline
 62
7
  6
BYLAYER
 70
0
 71
3
 72
13
 73
9
 74
0
 42
0.0000001
 43
0.0000001
 44
0.0000000001
 40
0.0
 40
0.0
 40
0.0
 40
0.0
 40
0.078089668
 40
0.1745486834
 40
0.2871301146
 40
0.4133513729
 40
0.6957897273
 40
1.0
 40
1.0
 40
1.0
 40
1.0
 10
45.9895974519
 20
27.9628837603
 30
0.0
 10
45.9925678279
 20
27.9745112073
 30
0.0
 10
45.9979318583
 20
28.0008224426
 30
0.0
 10
46.004499939
 20
28.04446553
 30
0.0
 10
46.010271664
 20
28.0956750322
 30
0.0
 10
46.0170046327
 20
28.1755033256
 30
0.0
 10
46.0224359831
 20
28.2849545611
 30
0.0
 10
46.0238590284
 20
28.3751162447
 30
0.0
 10
46.0238590284
 20
28.4218674374
 30
0.0
  0
SPLINE
  5
36A
100
AcDbEntity
  8
0
100
AcDbSpline
 62
7
  6
BYLAYER
 70
0
 71
3
 72
13
 73
9
 74
0
 42
0.0000001
 43
0.0000001
 44
0.0000000001
 40
0.0
 40
0.0
 40
0.0
 40
0.0
 40
0.3040834017
 40
0.5864774408
 40
0.7127235784
 40
0.8253673602
 40
0.9218930726
 40
1.0
 40
1.0
 40
1.0
 40
1.0
 10
45.0893231568
 20
28.4218674374
 30
0.0
 10
45.0893231568
 20
28.3751732758
 30
0.0
 10
45.0907428672
 20
28.2851103026
 30
0.0
 10
45.0961622099
 20
28.1757691951
 30
0.0
 10
45.1028797366
 20
28.0959976145
 30
0.0
 10
45.1086380037
 20
28.0448044862
 30
0.0
 10
45.1151907514
 20
28.0011723342
 30
0.0
 10
45.1205456402
 20
27.9748678475
 30
0.0
 10
45.1235142864
 20
27.9632471714
 30
0.0
  0
SPLINE
  5
36B
100
AcDbEntity
  8
0
100
AcDbSpline
 62
7
  6
BYLAYER
 70
0
 71
3
 72
17
 73
13
 74
0
 42
0.0000001
 43
0.0000001
 44
0.0000000001
 40
0.0
 40
0.0
 40
0.0
 40
0.0
 40
0.1800318635
 40
0.3542997836
 40
0.5169581248
 40
0.6629405863
 40
0.7875456577
 40
0.886817177
 40
0.9260080412
 40
0.9578867593
 40
0.9824245822
 40
1.0
 40
1.0
 40
1.0
 40
1.0
 10
48.0635393623
 20
27.1916564254
 30
0.0
 10
48.082318395
 20
27.1916564254
 30
0.0
 10
48.1192765237
 20
27.1912470052
 30
0.0
 10
48.1731746104
 20
27.1894327298
 30
0.0
 10
48.2234655515
 20
27.1864857679
 30
0.0
 10
48.2684939258
 20
27.1825290332
 30
0.0
 10
48.3067756224
 20
27.1776946178
 30
0.0
 10
48.3338151056
 20
27.1728331205
 30
0.0
 10
48.3510240028
 20
27.1683901594
 30
0.0
 10
48.3605011516
 20
27.1652186928
 30
0.0
 10
48.367514018
 20
27.1619978514
 30
0.0
 10
48.3711698885
 20
27.1594111964
 30
0.0
 10
48.3723770687
 20
27.158031471
 30
0.0
  0
SPLINE
  5
36C
100
AcDbEntity
  8
0
100
AcDbSpline
 62
7
  6
BYLAYER
 70
0
 71
3
 72
9
 73
5
 74
0
 42
0.0000001
 43
0.0000001
 44
0.0000000001
 40
0.0
 40
0.0
 40
0.0
 40
0.0
 40
0.2542038863
 40
1.0
 40
1.0
 40
1.0
 40
1.0
 10
45.2000402627
 20
27.0809393195
 30
0.0
 10
45.1815747691
 20
27.0732631672
 30
0.0
 10
45.1088270053
 20
27.0433242187
 30
0.0
 10
45.035730727
 20
27.01423873
 30
0.0
 10
44.9811139228
 20
26.9928117506
 30
0.0
  0
SPLINE
  5
36D
100
AcDbEntity
  8
0
100
AcDbSpline
 62
7
  6
BYLAYER
 70
0
 71
3
 72
9
 73
5
 74
0
 42
0.0000001
 43
0.0000001
 44
0.0000000001
 40
0.0
 40
0.0
 40
0.0
 40
0.0
 40
0.2460388638
 40
1.0
 40
1.0
 40
1.0
 40
1.0
 10
45.2881678315
 20
27.2998656593
 30
0.0
 10
45.2810990678
 20
27.2818475675
 30
0.0
 10
45.2522483291
 20
27.2086625306
 30
0.0
 10
45.2228074443
 20
27.1357072852
 30
0.0
 10
45.2000402627
 20
27.0809393195
 30
0.0
  0
SPLINE
  5
36E
100
AcDbEntity
  8
0
100
AcDbSpline
 62
7
  6
BYLAYER
 70
0
 71
3
 72
17
 73
13
 74
0
 42
0.0000001
 43
0.0000001
 44
0.0000000001
 40
0.0
 40
0.0
 40
0.0
 40
0.0
 40
0.0175753679
 40
0.0421130052
 40
0.0739913459
 40
0.1131814747
 40
0.2124512873
 40
0.3370542949
 40
0.4830348768
 40
0.6456926451
 40
0.8199649731
 40
1.0
 40
1.0
 40
1.0
 40
1.0
 10
42.7408051164
 20
27.158031471
 30
0.0
 10
42.7420122933
 20
27.1594111924
 30
0.0
 10
42.7456681361
 20
27.1619978413
 30
0.0
 10
42.7526809406
 20
27.1652186681
 30
0.0
 10
42.7621579614
 20
27.1683900884
 30
0.0
 10
42.7793665626
 20
27.1728330182
 30
0.0
 10
42.8064055805
 20
27.1776944526
 30
0.0
 10
42.8446866829
 20
27.1825288631
 30
0.0
 10
42.8897145826
 20
27.1864856259
 30
0.0
 10
42.9400057243
 20
27.1894326686
 30
0.0
 10
42.9939045419
 20
27.191246947
 30
0.0
 10
43.03086346
 20
27.1916564254
 30
0.0
 10
43.0496428229
 20
27.1916564254
 30
0.0
  0
SPLINE
  5
36F
100
AcDbEntity
  8
0
100
AcDbSpline
 62
7
  6
BYLAYER
 70
0
 71
3
 72
12
 73
8
 74
0
 42
0.0000001
 43
0.0000001
 44
0.0000000001
 40
0.0
 40
0.0
 40
0.0
 40
0.0
 40
0.301041753
 40
0.4640909988
 40
0.577568552
 40
0.775023956
 40
1.0
 40
1.0
 40
1.0
 40
1.0
 10
44.9730050848
 20
26.4579757415
 30
0.0
 10
44.9737787538
 20
26.4578647175
 30
0.0
 10
44.9749460043
 20
26.4575677921
 30
0.0
 10
44.9764413966
 20
26.4573538917
 30
0.0
 10
44.9776739639
 20
26.4575070922
 30
0.0
 10
44.9790453569
 20
26.457170272
 30
0.0
 10
44.9801155049
 20
26.4569518397
 30
0.0
 10
44.9806935986
 20
26.456868254
 30
0.0
  0
LINE
  5
370
100
AcDbEntity
  8
0
100
AcDbLine
 62
7
  6
BYLAYER
 10
45.2890708571
 20
26.1484909956
 11
45.2901783445
 21
26.1408024818
  0
LINE
  5
371
100
AcDbEntity
  8
0
100
AcDbLine
 62
7
  6
BYLAYER
 10
45.82310755
 20
26.140390937
 11
45.8250143536
 21
26.1489113198
  0
SPLINE
  5
372
100
AcDbEntity
  8
0
100
AcDbSpline
 62
7
  6
BYLAYER
 70
0
 71
3
 72
9
 73
5
 74
0
 42
0.0000001
 43
0.0000001
 44
0.0000000001
 40
0.0
 40
0.0
 40
0.0
 40
0.0
 40
0.2542068433
 40
1.0
 40
1.0
 40
1.0
 40
1.0
 10
45.9131419225
 20
26.3678376596
 30
0.0
 10
45.9054656809
 20
26.3493719511
 30
0.0
 10
45.8755263253
 20
26.2766243539
 30
0.0
 10
45.8464412483
 20
26.2035279078
 30
0.0
 10
45.8250143536
 20
26.1489113198
 30
0.0
  0
SPLINE
  5
373
100
AcDbEntity
  8
0
100
AcDbSpline
 62
7
  6
BYLAYER
 70
0
 71
3
 72
9
 73
5
 74
0
 42
0.0000001
 43
0.0000001
 44
0.0000000001
 40
0.0
 40
0.0
 40
0.0
 40
0.0
 40
0.2460382598
 40
1.0
 40
1.0
 40
1.0
 40
1.0
 10
46.1320682624
 20
26.4559652285
 30
0.0
 10
46.1140502149
 20
26.4488964822
 30
0.0
 10
46.0408653614
 20
26.4200452809
 30
0.0
 10
45.9679099317
 20
26.3906048594
 30
0.0
 10
45.9131419225
 20
26.3678376596
 30
0.0
  0
LINE
  5
374
100
AcDbEntity
  8
0
100
AcDbLine
 62
7
  6
BYLAYER
 10
46.1405886451
 20
26.4578720322
 11
46.1320682624
 21
26.4559652285
  0
SPLINE
  5
375
100
AcDbEntity
  8
0
100
AcDbSpline
 62
7
  6
BYLAYER
 70
0
 71
3
 72
17
 73
13
 74
0
 42
0.0000001
 43
0.0000001
 44
0.0000000001
 40
0.0
 40
0.0
 40
0.0
 40
0.0
 40
0.0175753679
 40
0.0421130052
 40
0.0739913459
 40
0.1131814747
 40
0.2124512873
 40
0.3370542949
 40
0.4830348768
 40
0.6456926451
 40
0.8199649731
 40
1.0
 40
1.0
 40
1.0
 40
1.0
 10
48.3723770688
 20
26.2907455082
 30
0.0
 10
48.3711698919
 20
26.2893657867
 30
0.0
 10
48.367514049
 20
26.2867791378
 30
0.0
 10
48.3605012445
 20
26.2835583111
 30
0.0
 10
48.3510242238
 20
26.2803868908
 30
0.0
 10
48.3338156225
 20
26.275943961
 30
0.0
 10
48.3067766047
 20
26.2710825265
 30
0.0
 10
48.2684955022
 20
26.266248116
 30
0.0
 10
48.2234676026
 20
26.2622913533
 30
0.0
 10
48.1731764609
 20
26.2593443106
 30
0.0
 10
48.1192776433
 20
26.2575300321
 30
0.0
 10
48.0823187252
 20
26.2571205538
 30
0.0
 10
48.0635393623
 20
26.2571205538
 30
0.0
  0
SPLINE
  5
376
100
AcDbEntity
  8
0
100
AcDbSpline
 62
7
  6
BYLAYER
 70
0
 71
3
 72
17
 73
13
 74
0
 42
0.0000001
 43
0.0000001
 44
0.0000000001
 40
0.0
 40
0.0
 40
0.0
 40
0.0
 40
0.1800318635
 40
0.3542997836
 40
0.5169581248
 40
0.6629405863
 40
0.7875456577
 40
0.886817177
 40
0.9260080412
 40
0.9578867593
 40
0.9824245822
 40
1.0
 40
1.0
 40
1.0
 40
1.0
 10
43.0496428229
 20
26.2571205538
 30
0.0
 10
43.0308637902
 20
26.2571205538
 30
0.0
 10
42.9939056615
 20
26.257529974
 30
0.0
 10
42.9400075748
 20
26.2593442494
 30
0.0
 10
42.8897166337
 20
26.2622912113
 30
0.0
 10
42.8446882594
 20
26.2662479459
 30
0.0
 10
42.8064065627
 20
26.2710823613
 30
0.0
 10
42.7793670796
 20
26.2759438586
 30
0.0
 10
42.7621581824
 20
26.2803868198
 30
0.0
 10
42.7526810336
 20
26.2835582863
 30
0.0
 10
42.7456681672
 20
26.2867791278
 30
0.0
 10
42.7420122967
 20
26.2893657828
 30
0.0
 10
42.7408051164
 20
26.2907455082
 30
0.0
  0
SPLINE
  5
377
100
AcDbEntity
  8
0
100
AcDbSpline
 62
7
  6
BYLAYER
 70
0
 71
3
 72
13
 73
9
 74
0
 42
0.0000001
 43
0.0000001
 44
0.0000000001
 40
0.0
 40
0.0
 40
0.0
 40
0.0
 40
0.3040834018
 40
0.5864774407
 40
0.7127235784
 40
0.8253673602
 40
0.9218930726
 40
1.0
 40
1.0
 40
1.0
 40
1.0
 10
46.0238590284
 20
25.0269095417
 30
0.0
 10
46.0238590284
 20
25.0736037033
 30
0.0
 10
46.022439318
 20
25.1636666766
 30
0.0
 10
46.0170199753
 20
25.2730077841
 30
0.0
 10
46.0103024486
 20
25.3527793646
 30
0.0
 10
46.0045441815
 20
25.403972493
 30
0.0
 10
45.9979914338
 20
25.447604645
 30
0.0
 10
45.992636545
 20
25.4739091317
 30
0.0
 10
45.9896678988
 20
25.4855298077
 30
0.0
  0
SPLINE
  5
378
100
AcDbEntity
  8
0
100
AcDbSpline
 62
7
  6
BYLAYER
 70
0
 71
3
 72
13
 73
9
 74
0
 42
0.0000001
 43
0.0000001
 44
0.0000000001
 40
0.0
 40
0.0
 40
0.0
 40
0.0
 40
0.0780896679
 40
0.1745486834
 40
0.2871301148
 40
0.4133513732
 40
0.6957897275
 40
1.0
 40
1.0
 40
1.0
 40
1.0
 10
45.1235847332
 20
25.4858932183
 30
0.0
 10
45.1206143572
 20
25.4742657713
 30
0.0
 10
45.1152503268
 20
25.4479545361
 30
0.0
 10
45.1086822461
 20
25.4043114486
 30
0.0
 10
45.1029105211
 20
25.3531019465
 30
0.0
 10
45.0961775525
 20
25.2732736532
 30
0.0
 10
45.090746202
 20
25.1638224178
 30
0.0
 10
45.0893231568
 20
25.0736607344
 30
0.0
 10
45.0893231568
 20
25.0269095417
 30
0.0
  0
SPLINE
  5
379
100
AcDbEntity
  8
0
100
AcDbSpline
 62
7
  6
BYLAYER
 70
0
 71
3
 72
9
 73
5
 74
0
 42
0.0000001
 43
0.0000001
 44
0.0000000001
 40
0.0
 40
0.0
 40
0.0
 40
0.0
 40
0.2544124182
 40
1.0
 40
1.0
 40
1.0
 40
1.0
 10
11.8995378815
 20
68.5673352784
 30
0.0
 10
11.8929256015
 20
68.5870194985
 30
0.0
 10
11.8672132434
 20
68.6644842785
 30
0.0
 10
11.8423797789
 20
68.7422379468
 30
0.0
 10
11.8241113281
 20
68.8002859836
 30
0.0
  0
SPLINE
  5
37A
100
AcDbEntity
  8
0
100
AcDbSpline
 62
7
  6
BYLAYER
 70
0
 71
3
 72
9
 73
5
 74
0
 42
0.0000001
 43
0.0000001
 44
0.0000000001
 40
0.0
 40
0.0
 40
0.0
 40
0.0
 40
0.2459824255
 40
1.0
 40
1.0
 40
1.0
 40
1.0
 10
12.1324885866
 20
68.4919087251
 30
0.0
 10
12.1133375704
 20
68.4979357919
 30
0.0
 10
12.035519065
 20
68.5225531221
 30
0.0
 10
11.9578770514
 20
68.5477381127
 30
0.0
 10
11.8995378815
 20
68.5673352784
 30
0.0
  0
SPLINE
  5
37B
100
AcDbEntity
  8
0
100
AcDbSpline
 62
7
  6
BYLAYER
 70
0
 71
3
 72
9
 73
5
 74
0
 42
0.0000001
 43
0.0000001
 44
0.0000000001
 40
0.0
 40
0.0
 40
0.0
 40
0.0
 40
0.2544124182
 40
1.0
 40
1.0
 40
1.0
 40
1.0
 10
11.2136443037
 20
67.8814417007
 30
0.0
 10
11.2202565837
 20
67.8617574807
 30
0.0
 10
11.2459689418
 20
67.7842927006
 30
0.0
 10
11.2708024063
 20
67.7065390324
 30
0.0
 10
11.2890708571
 20
67.6484909956
 30
0.0
  0
SPLINE
  5
37C
100
AcDbEntity
  8
0
100
AcDbSpline
 62
7
  6
BYLAYER
 70
0
 71
3
 72
9
 73
5
 74
0
 42
0.0000001
 43
0.0000001
 44
0.0000000001
 40
0.0
 40
0.0
 40
0.0
 40
0.0
 40
0.2459824255
 40
1.0
 40
1.0
 40
1.0
 40
1.0
 10
10.9806935986
 20
67.956868254
 30
0.0
 10
10.9998446147
 20
67.9508411872
 30
0.0
 10
11.0776631202
 20
67.926223857
 30
0.0
 10
11.1553051338
 20
67.9010388665
 30
0.0
 10
11.2136443037
 20
67.8814417007
 30
0.0
  0
LINE
  5
37D
100
AcDbEntity
  8
0
100
AcDbLine
 62
7
  6
BYLAYER
 10
12.1401771004
 20
68.4908012377
 11
12.1324885866
 21
68.4919087251
  0
SPLINE
  5
37E
100
AcDbEntity
  8
0
100
AcDbSpline
 62
7
  6
BYLAYER
 70
0
 71
3
 72
12
 73
8
 74
0
 42
0.0000001
 43
0.0000001
 44
0.0000000001
 40
0.0
 40
0.0
 40
0.0
 40
0.0
 40
0.3011555666
 40
0.4640090751
 40
0.5775251531
 40
0.7752125248
 40
1.0
 40
1.0
 40
1.0
 40
1.0
 10
11.8241113281
 20
68.8002859836
 30
0.0
 10
11.8239994394
 20
68.8010598263
 30
0.0
 10
11.8237028659
 20
68.8022269268
 30
0.0
 10
11.8234899489
 20
68.8037222707
 30
0.0
 10
11.8236428422
 20
68.8049550511
 30
0.0
 10
11.8233053963
 20
68.8063265337
 30
0.0
 10
11.8230867459
 20
68.8073968005
 30
0.0
 10
11.8230038407
 20
68.8079744974
 30
0.0
  0
LINE
  5
37F
100
AcDbEntity
  8
0
100
AcDbLine
 62
7
  6
BYLAYER
 10
11.2900746352
 20
68.8083860421
 11
11.2881678315
 21
68.7998656593
  0
LINE
  5
380
100
AcDbEntity
  8
0
100
AcDbLine
 62
7
  6
BYLAYER
 10
10.9725935401
 20
68.490904947
 11
10.9811139228
 21
68.4928117506
  0
SPLINE
  5
381
100
AcDbEntity
  8
0
100
AcDbSpline
 62
7
  6
BYLAYER
 70
0
 71
3
 72
13
 73
9
 74
0
 42
0.0000001
 43
0.0000001
 44
0.0000000001
 40
0.0
 40
0.0
 40
0.0
 40
0.0
 40
0.078089668
 40
0.1745486835
 40
0.2871301148
 40
0.4133513731
 40
0.6957897275
 40
1.0
 40
1.0
 40
1.0
 40
1.0
 10
11.989597452
 20
69.4628837608
 30
0.0
 10
11.9925678279
 20
69.4745112078
 30
0.0
 10
11.9979318584
 20
69.500822443
 30
0.0
 10
12.0044999391
 20
69.5444655305
 30
0.0
 10
12.0102716641
 20
69.5956750326
 30
0.0
 10
12.0170046327
 20
69.6755033259
 30
0.0
 10
12.0224359832
 20
69.7849545613
 30
0.0
 10
12.0238590284
 20
69.8751162448
 30
0.0
 10
12.0238590284
 20
69.9218674374
 30
0.0
  0
SPLINE
  5
382
100
AcDbEntity
  8
0
100
AcDbSpline
 62
7
  6
BYLAYER
 70
0
 71
3
 72
13
 73
9
 74
0
 42
0.0000001
 43
0.0000001
 44
0.0000000001
 40
0.0
 40
0.0
 40
0.0
 40
0.0
 40
0.3040834017
 40
0.5864774408
 40
0.7127235784
 40
0.8253673602
 40
0.9218930726
 40
1.0
 40
1.0
 40
1.0
 40
1.0
 10
11.0893231568
 20
69.9218674374
 30
0.0
 10
11.0893231568
 20
69.8751732758
 30
0.0
 10
11.0907428672
 20
69.7851103026
 30
0.0
 10
11.0961622099
 20
69.6757691951
 30
0.0
 10
11.1028797366
 20
69.5959976145
 30
0.0
 10
11.1086380037
 20
69.5448044862
 30
0.0
 10
11.1151907514
 20
69.5011723342
 30
0.0
 10
11.1205456402
 20
69.4748678475
 30
0.0
 10
11.1235142864
 20
69.4632471714
 30
0.0
  0
SPLINE
  5
383
100
AcDbEntity
  8
0
100
AcDbSpline
 62
7
  6
BYLAYER
 70
0
 71
3
 72
17
 73
13
 74
0
 42
0.0000001
 43
0.0000001
 44
0.0000000001
 40
0.0
 40
0.0
 40
0.0
 40
0.0
 40
0.1800318635
 40
0.3542997836
 40
0.5169581248
 40
0.6629405863
 40
0.7875456577
 40
0.886817177
 40
0.9260080412
 40
0.9578867593
 40
0.9824245822
 40
1.0
 40
1.0
 40
1.0
 40
1.0
 10
14.0635393623
 20
68.6916564254
 30
0.0
 10
14.082318395
 20
68.6916564254
 30
0.0
 10
14.1192765237
 20
68.6912470052
 30
0.0
 10
14.1731746104
 20
68.6894327298
 30
0.0
 10
14.2234655515
 20
68.6864857679
 30
0.0
 10
14.2684939258
 20
68.6825290332
 30
0.0
 10
14.3067756224
 20
68.6776946178
 30
0.0
 10
14.3338151056
 20
68.6728331205
 30
0.0
 10
14.3510240028
 20
68.6683901594
 30
0.0
 10
14.3605011516
 20
68.6652186928
 30
0.0
 10
14.367514018
 20
68.6619978514
 30
0.0
 10
14.3711698885
 20
68.6594111964
 30
0.0
 10
14.3723770687
 20
68.658031471
 30
0.0
  0
SPLINE
  5
384
100
AcDbEntity
  8
0
100
AcDbSpline
 62
7
  6
BYLAYER
 70
0
 71
3
 72
9
 73
5
 74
0
 42
0.0000001
 43
0.0000001
 44
0.0000000001
 40
0.0
 40
0.0
 40
0.0
 40
0.0
 40
0.2542038863
 40
1.0
 40
1.0
 40
1.0
 40
1.0
 10
11.2000402627
 20
68.5809393195
 30
0.0
 10
11.1815747691
 20
68.5732631672
 30
0.0
 10
11.1088270053
 20
68.5433242187
 30
0.0
 10
11.035730727
 20
68.51423873
 30
0.0
 10
10.9811139228
 20
68.4928117506
 30
0.0
  0
SPLINE
  5
385
100
AcDbEntity
  8
0
100
AcDbSpline
 62
7
  6
BYLAYER
 70
0
 71
3
 72
9
 73
5
 74
0
 42
0.0000001
 43
0.0000001
 44
0.0000000001
 40
0.0
 40
0.0
 40
0.0
 40
0.0
 40
0.2460388638
 40
1.0
 40
1.0
 40
1.0
 40
1.0
 10
11.2881678315
 20
68.7998656593
 30
0.0
 10
11.2810990678
 20
68.7818475675
 30
0.0
 10
11.2522483291
 20
68.7086625306
 30
0.0
 10
11.2228074443
 20
68.6357072852
 30
0.0
 10
11.2000402627
 20
68.5809393195
 30
0.0
  0
SPLINE
  5
386
100
AcDbEntity
  8
0
100
AcDbSpline
 62
7
  6
BYLAYER
 70
0
 71
3
 72
17
 73
13
 74
0
 42
0.0000001
 43
0.0000001
 44
0.0000000001
 40
0.0
 40
0.0
 40
0.0
 40
0.0
 40
0.0175753679
 40
0.0421130052
 40
0.0739913459
 40
0.1131814747
 40
0.2124512873
 40
0.3370542949
 40
0.4830348768
 40
0.6456926451
 40
0.8199649731
 40
1.0
 40
1.0
 40
1.0
 40
1.0
 10
8.7408051164
 20
68.658031471
 30
0.0
 10
8.7420122933
 20
68.6594111924
 30
0.0
 10
8.7456681361
 20
68.6619978413
 30
0.0
 10
8.7526809406
 20
68.6652186681
 30
0.0
 10
8.7621579614
 20
68.6683900884
 30
0.0
 10
8.7793665626
 20
68.6728330182
 30
0.0
 10
8.8064055805
 20
68.6776944526
 30
0.0
 10
8.8446866829
 20
68.6825288631
 30
0.0
 10
8.8897145826
 20
68.6864856259
 30
0.0
 10
8.9400057243
 20
68.6894326686
 30
0.0
 10
8.9939045419
 20
68.691246947
 30
0.0
 10
9.03086346
 20
68.6916564254
 30
0.0
 10
9.0496428229
 20
68.6916564254
 30
0.0
  0
SPLINE
  5
387
100
AcDbEntity
  8
0
100
AcDbSpline
 62
7
  6
BYLAYER
 70
0
 71
3
 72
12
 73
8
 74
0
 42
0.0000001
 43
0.0000001
 44
0.0000000001
 40
0.0
 40
0.0
 40
0.0
 40
0.0
 40
0.301041753
 40
0.4640909988
 40
0.577568552
 40
0.775023956
 40
1.0
 40
1.0
 40
1.0
 40
1.0
 10
10.9730050848
 20
67.9579757415
 30
0.0
 10
10.9737787538
 20
67.9578647175
 30
0.0
 10
10.9749460043
 20
67.9575677921
 30
0.0
 10
10.9764413966
 20
67.9573538917
 30
0.0
 10
10.9776739639
 20
67.9575070922
 30
0.0
 10
10.9790453569
 20
67.957170272
 30
0.0
 10
10.9801155049
 20
67.9569518397
 30
0.0
 10
10.9806935986
 20
67.956868254
 30
0.0
  0
LINE
  5
388
100
AcDbEntity
  8
0
100
AcDbLine
 62
7
  6
BYLAYER
 10
11.2890708571
 20
67.6484909956
 11
11.2901783445
 21
67.6408024818
  0
LINE
  5
389
100
AcDbEntity
  8
0
100
AcDbLine
 62
7
  6
BYLAYER
 10
11.82310755
 20
67.640390937
 11
11.8250143536
 21
67.6489113198
  0
SPLINE
  5
38A
100
AcDbEntity
  8
0
100
AcDbSpline
 62
7
  6
BYLAYER
 70
0
 71
3
 72
9
 73
5
 74
0
 42
0.0000001
 43
0.0000001
 44
0.0000000001
 40
0.0
 40
0.0
 40
0.0
 40
0.0
 40
0.2542068433
 40
1.0
 40
1.0
 40
1.0
 40
1.0
 10
11.9131419225
 20
67.8678376596
 30
0.0
 10
11.9054656809
 20
67.8493719511
 30
0.0
 10
11.8755263253
 20
67.7766243539
 30
0.0
 10
11.8464412483
 20
67.7035279078
 30
0.0
 10
11.8250143536
 20
67.6489113198
 30
0.0
  0
SPLINE
  5
38B
100
AcDbEntity
  8
0
100
AcDbSpline
 62
7
  6
BYLAYER
 70
0
 71
3
 72
9
 73
5
 74
0
 42
0.0000001
 43
0.0000001
 44
0.0000000001
 40
0.0
 40
0.0
 40
0.0
 40
0.0
 40
0.2460382598
 40
1.0
 40
1.0
 40
1.0
 40
1.0
 10
12.1320682624
 20
67.9559652285
 30
0.0
 10
12.1140502149
 20
67.9488964822
 30
0.0
 10
12.0408653614
 20
67.9200452809
 30
0.0
 10
11.9679099317
 20
67.8906048594
 30
0.0
 10
11.9131419225
 20
67.8678376596
 30
0.0
  0
LINE
  5
38C
100
AcDbEntity
  8
0
100
AcDbLine
 62
7
  6
BYLAYER
 10
12.1405886451
 20
67.9578720322
 11
12.1320682624
 21
67.9559652285
  0
SPLINE
  5
38D
100
AcDbEntity
  8
0
100
AcDbSpline
 62
7
  6
BYLAYER
 70
0
 71
3
 72
17
 73
13
 74
0
 42
0.0000001
 43
0.0000001
 44
0.0000000001
 40
0.0
 40
0.0
 40
0.0
 40
0.0
 40
0.0175753679
 40
0.0421130052
 40
0.0739913459
 40
0.1131814747
 40
0.2124512873
 40
0.3370542949
 40
0.4830348768
 40
0.6456926451
 40
0.8199649731
 40
1.0
 40
1.0
 40
1.0
 40
1.0
 10
14.3723770688
 20
67.7907455082
 30
0.0
 10
14.3711698919
 20
67.7893657867
 30
0.0
 10
14.367514049
 20
67.7867791378
 30
0.0
 10
14.3605012445
 20
67.7835583111
 30
0.0
 10
14.3510242238
 20
67.7803868908
 30
0.0
 10
14.3338156225
 20
67.775943961
 30
0.0
 10
14.3067766047
 20
67.7710825265
 30
0.0
 10
14.2684955022
 20
67.766248116
 30
0.0
 10
14.2234676026
 20
67.7622913533
 30
0.0
 10
14.1731764609
 20
67.7593443106
 30
0.0
 10
14.1192776433
 20
67.7575300321
 30
0.0
 10
14.0823187252
 20
67.7571205538
 30
0.0
 10
14.0635393623
 20
67.7571205538
 30
0.0
  0
SPLINE
  5
38E
100
AcDbEntity
  8
0
100
AcDbSpline
 62
7
  6
BYLAYER
 70
0
 71
3
 72
17
 73
13
 74
0
 42
0.0000001
 43
0.0000001
 44
0.0000000001
 40
0.0
 40
0.0
 40
0.0
 40
0.0
 40
0.1800318635
 40
0.3542997836
 40
0.5169581248
 40
0.6629405863
 40
0.7875456577
 40
0.886817177
 40
0.9260080412
 40
0.9578867593
 40
0.9824245822
 40
1.0
 40
1.0
 40
1.0
 40
1.0
 10
9.0496428229
 20
67.7571205538
 30
0.0
 10
9.0308637902
 20
67.7571205538
 30
0.0
 10
8.9939056615
 20
67.757529974
 30
0.0
 10
8.9400075748
 20
67.7593442494
 30
0.0
 10
8.8897166337
 20
67.7622912113
 30
0.0
 10
8.8446882594
 20
67.7662479459
 30
0.0
 10
8.8064065627
 20
67.7710823613
 30
0.0
 10
8.7793670796
 20
67.7759438586
 30
0.0
 10
8.7621581824
 20
67.7803868198
 30
0.0
 10
8.7526810336
 20
67.7835582863
 30
0.0
 10
8.7456681672
 20
67.7867791278
 30
0.0
 10
8.7420122967
 20
67.7893657828
 30
0.0
 10
8.7408051164
 20
67.7907455082
 30
0.0
  0
SPLINE
  5
38F
100
AcDbEntity
  8
0
100
AcDbSpline
 62
7
  6
BYLAYER
 70
0
 71
3
 72
13
 73
9
 74
0
 42
0.0000001
 43
0.0000001
 44
0.0000000001
 40
0.0
 40
0.0
 40
0.0
 40
0.0
 40
0.3040834018
 40
0.5864774407
 40
0.7127235784
 40
0.8253673602
 40
0.9218930726
 40
1.0
 40
1.0
 40
1.0
 40
1.0
 10
12.0238590284
 20
66.5269095417
 30
0.0
 10
12.0238590284
 20
66.5736037033
 30
0.0
 10
12.022439318
 20
66.6636666766
 30
0.0
 10
12.0170199753
 20
66.7730077841
 30
0.0
 10
12.0103024486
 20
66.8527793646
 30
0.0
 10
12.0045441815
 20
66.903972493
 30
0.0
 10
11.9979914338
 20
66.947604645
 30
0.0
 10
11.992636545
 20
66.9739091317
 30
0.0
 10
11.9896678988
 20
66.9855298077
 30
0.0
  0
SPLINE
  5
390
100
AcDbEntity
  8
0
100
AcDbSpline
 62
7
  6
BYLAYER
 70
0
 71
3
 72
13
 73
9
 74
0
 42
0.0000001
 43
0.0000001
 44
0.0000000001
 40
0.0
 40
0.0
 40
0.0
 40
0.0
 40
0.0780896679
 40
0.1745486835
 40
0.2871301149
 40
0.4133513732
 40
0.6957897275
 40
1.0
 40
1.0
 40
1.0
 40
1.0
 10
11.1235847332
 20
66.9858932183
 30
0.0
 10
11.1206143572
 20
66.9742657712
 30
0.0
 10
11.1152503268
 20
66.947954536
 30
0.0
 10
11.1086822461
 20
66.9043114486
 30
0.0
 10
11.1029105211
 20
66.8531019464
 30
0.0
 10
11.0961775525
 20
66.7732736532
 30
0.0
 10
11.090746202
 20
66.6638224178
 30
0.0
 10
11.0893231568
 20
66.5736607344
 30
0.0
 10
11.0893231568
 20
66.5269095417
 30
0.0
  0
SPLINE
  5
391
100
AcDbEntity
  8
0
100
AcDbSpline
 62
7
  6
BYLAYER
 70
0
 71
3
 72
9
 73
5
 74
0
 42
0.0000001
 43
0.0000001
 44
0.0000000001
 40
0.0
 40
0.0
 40
0.0
 40
0.0
 40
0.2544124182
 40
1.0
 40
1.0
 40
1.0
 40
1.0
 10
55.8995378815
 20
68.5673352784
 30
0.0
 10
55.8929256015
 20
68.5870194985
 30
0.0
 10
55.8672132434
 20
68.6644842785
 30
0.0
 10
55.8423797789
 20
68.7422379468
 30
0.0
 10
55.8241113281
 20
68.8002859836
 30
0.0
  0
SPLINE
  5
392
100
AcDbEntity
  8
0
100
AcDbSpline
 62
7
  6
BYLAYER
 70
0
 71
3
 72
9
 73
5
 74
0
 42
0.0000001
 43
0.0000001
 44
0.0000000001
 40
0.0
 40
0.0
 40
0.0
 40
0.0
 40
0.2459824255
 40
1.0
 40
1.0
 40
1.0
 40
1.0
 10
56.1324885866
 20
68.4919087251
 30
0.0
 10
56.1133375704
 20
68.4979357919
 30
0.0
 10
56.035519065
 20
68.5225531221
 30
0.0
 10
55.9578770514
 20
68.5477381127
 30
0.0
 10
55.8995378815
 20
68.5673352784
 30
0.0
  0
SPLINE
  5
393
100
AcDbEntity
  8
0
100
AcDbSpline
 62
7
  6
BYLAYER
 70
0
 71
3
 72
9
 73
5
 74
0
 42
0.0000001
 43
0.0000001
 44
0.0000000001
 40
0.0
 40
0.0
 40
0.0
 40
0.0
 40
0.2544124182
 40
1.0
 40
1.0
 40
1.0
 40
1.0
 10
55.2136443037
 20
67.8814417007
 30
0.0
 10
55.2202565837
 20
67.8617574807
 30
0.0
 10
55.2459689418
 20
67.7842927006
 30
0.0
 10
55.2708024063
 20
67.7065390324
 30
0.0
 10
55.2890708571
 20
67.6484909956
 30
0.0
  0
SPLINE
  5
394
100
AcDbEntity
  8
0
100
AcDbSpline
 62
7
  6
BYLAYER
 70
0
 71
3
 72
9
 73
5
 74
0
 42
0.0000001
 43
0.0000001
 44
0.0000000001
 40
0.0
 40
0.0
 40
0.0
 40
0.0
 40
0.2459824255
 40
1.0
 40
1.0
 40
1.0
 40
1.0
 10
54.9806935986
 20
67.956868254
 30
0.0
 10
54.9998446147
 20
67.9508411872
 30
0.0
 10
55.0776631202
 20
67.926223857
 30
0.0
 10
55.1553051338
 20
67.9010388665
 30
0.0
 10
55.2136443037
 20
67.8814417007
 30
0.0
  0
LINE
  5
395
100
AcDbEntity
  8
0
100
AcDbLine
 62
7
  6
BYLAYER
 10
56.1401771004
 20
68.4908012377
 11
56.1324885866
 21
68.4919087251
  0
SPLINE
  5
396
100
AcDbEntity
  8
0
100
AcDbSpline
 62
7
  6
BYLAYER
 70
0
 71
3
 72
12
 73
8
 74
0
 42
0.0000001
 43
0.0000001
 44
0.0000000001
 40
0.0
 40
0.0
 40
0.0
 40
0.0
 40
0.3011555666
 40
0.4640090751
 40
0.5775251531
 40
0.7752125248
 40
1.0
 40
1.0
 40
1.0
 40
1.0
 10
55.8241113281
 20
68.8002859836
 30
0.0
 10
55.8239994394
 20
68.8010598263
 30
0.0
 10
55.8237028659
 20
68.8022269268
 30
0.0
 10
55.8234899489
 20
68.8037222707
 30
0.0
 10
55.8236428422
 20
68.8049550511
 30
0.0
 10
55.8233053963
 20
68.8063265337
 30
0.0
 10
55.8230867459
 20
68.8073968005
 30
0.0
 10
55.8230038407
 20
68.8079744974
 30
0.0
  0
LINE
  5
397
100
AcDbEntity
  8
0
100
AcDbLine
 62
7
  6
BYLAYER
 10
55.2900746352
 20
68.8083860421
 11
55.2881678315
 21
68.7998656593
  0
LINE
  5
398
100
AcDbEntity
  8
0
100
AcDbLine
 62
7
  6
BYLAYER
 10
54.9725935401
 20
68.490904947
 11
54.9811139228
 21
68.4928117506
  0
SPLINE
  5
399
100
AcDbEntity
  8
0
100
AcDbSpline
 62
7
  6
BYLAYER
 70
0
 71
3
 72
13
 73
9
 74
0
 42
0.0000001
 43
0.0000001
 44
0.0000000001
 40
0.0
 40
0.0
 40
0.0
 40
0.0
 40
0.078089668
 40
0.1745486835
 40
0.2871301148
 40
0.4133513731
 40
0.6957897275
 40
1.0
 40
1.0
 40
1.0
 40
1.0
 10
55.989597452
 20
69.4628837608
 30
0.0
 10
55.9925678279
 20
69.4745112078
 30
0.0
 10
55.9979318584
 20
69.500822443
 30
0.0
 10
56.0044999391
 20
69.5444655305
 30
0.0
 10
56.0102716641
 20
69.5956750326
 30
0.0
 10
56.0170046327
 20
69.6755033259
 30
0.0
 10
56.0224359832
 20
69.7849545613
 30
0.0
 10
56.0238590284
 20
69.8751162448
 30
0.0
 10
56.0238590284
 20
69.9218674374
 30
0.0
  0
SPLINE
  5
39A
100
AcDbEntity
  8
0
100
AcDbSpline
 62
7
  6
BYLAYER
 70
0
 71
3
 72
13
 73
9
 74
0
 42
0.0000001
 43
0.0000001
 44
0.0000000001
 40
0.0
 40
0.0
 40
0.0
 40
0.0
 40
0.3040834017
 40
0.5864774408
 40
0.7127235784
 40
0.8253673602
 40
0.9218930726
 40
1.0
 40
1.0
 40
1.0
 40
1.0
 10
55.0893231568
 20
69.9218674374
 30
0.0
 10
55.0893231568
 20
69.8751732758
 30
0.0
 10
55.0907428672
 20
69.7851103026
 30
0.0
 10
55.0961622099
 20
69.6757691951
 30
0.0
 10
55.1028797366
 20
69.5959976145
 30
0.0
 10
55.1086380037
 20
69.5448044862
 30
0.0
 10
55.1151907514
 20
69.5011723342
 30
0.0
 10
55.1205456402
 20
69.4748678475
 30
0.0
 10
55.1235142864
 20
69.4632471714
 30
0.0
  0
SPLINE
  5
39B
100
AcDbEntity
  8
0
100
AcDbSpline
 62
7
  6
BYLAYER
 70
0
 71
3
 72
17
 73
13
 74
0
 42
0.0000001
 43
0.0000001
 44
0.0000000001
 40
0.0
 40
0.0
 40
0.0
 40
0.0
 40
0.1800318635
 40
0.3542997836
 40
0.5169581248
 40
0.6629405863
 40
0.7875456577
 40
0.886817177
 40
0.9260080412
 40
0.9578867593
 40
0.9824245822
 40
1.0
 40
1.0
 40
1.0
 40
1.0
 10
58.0635393623
 20
68.6916564254
 30
0.0
 10
58.082318395
 20
68.6916564254
 30
0.0
 10
58.1192765237
 20
68.6912470052
 30
0.0
 10
58.1731746104
 20
68.6894327298
 30
0.0
 10
58.2234655515
 20
68.6864857679
 30
0.0
 10
58.2684939258
 20
68.6825290332
 30
0.0
 10
58.3067756224
 20
68.6776946178
 30
0.0
 10
58.3338151056
 20
68.6728331205
 30
0.0
 10
58.3510240028
 20
68.6683901594
 30
0.0
 10
58.3605011516
 20
68.6652186928
 30
0.0
 10
58.367514018
 20
68.6619978514
 30
0.0
 10
58.3711698885
 20
68.6594111964
 30
0.0
 10
58.3723770687
 20
68.658031471
 30
0.0
  0
SPLINE
  5
39C
100
AcDbEntity
  8
0
100
AcDbSpline
 62
7
  6
BYLAYER
 70
0
 71
3
 72
9
 73
5
 74
0
 42
0.0000001
 43
0.0000001
 44
0.0000000001
 40
0.0
 40
0.0
 40
0.0
 40
0.0
 40
0.2542038863
 40
1.0
 40
1.0
 40
1.0
 40
1.0
 10
55.2000402627
 20
68.5809393195
 30
0.0
 10
55.1815747691
 20
68.5732631672
 30
0.0
 10
55.1088270053
 20
68.5433242187
 30
0.0
 10
55.035730727
 20
68.51423873
 30
0.0
 10
54.9811139228
 20
68.4928117506
 30
0.0
  0
SPLINE
  5
39D
100
AcDbEntity
  8
0
100
AcDbSpline
 62
7
  6
BYLAYER
 70
0
 71
3
 72
9
 73
5
 74
0
 42
0.0000001
 43
0.0000001
 44
0.0000000001
 40
0.0
 40
0.0
 40
0.0
 40
0.0
 40
0.2460388638
 40
1.0
 40
1.0
 40
1.0
 40
1.0
 10
55.2881678315
 20
68.7998656593
 30
0.0
 10
55.2810990678
 20
68.7818475675
 30
0.0
 10
55.2522483291
 20
68.7086625306
 30
0.0
 10
55.2228074443
 20
68.6357072852
 30
0.0
 10
55.2000402627
 20
68.5809393195
 30
0.0
  0
SPLINE
  5
39E
100
AcDbEntity
  8
0
100
AcDbSpline
 62
7
  6
BYLAYER
 70
0
 71
3
 72
17
 73
13
 74
0
 42
0.0000001
 43
0.0000001
 44
0.0000000001
 40
0.0
 40
0.0
 40
0.0
 40
0.0
 40
0.0175753679
 40
0.0421130052
 40
0.0739913459
 40
0.1131814747
 40
0.2124512873
 40
0.3370542949
 40
0.4830348768
 40
0.6456926451
 40
0.8199649731
 40
1.0
 40
1.0
 40
1.0
 40
1.0
 10
52.7408051164
 20
68.658031471
 30
0.0
 10
52.7420122933
 20
68.6594111924
 30
0.0
 10
52.7456681361
 20
68.6619978413
 30
0.0
 10
52.7526809406
 20
68.6652186681
 30
0.0
 10
52.7621579614
 20
68.6683900884
 30
0.0
 10
52.7793665626
 20
68.6728330182
 30
0.0
 10
52.8064055805
 20
68.6776944526
 30
0.0
 10
52.8446866829
 20
68.6825288631
 30
0.0
 10
52.8897145826
 20
68.6864856259
 30
0.0
 10
52.9400057243
 20
68.6894326686
 30
0.0
 10
52.9939045419
 20
68.691246947
 30
0.0
 10
53.03086346
 20
68.6916564254
 30
0.0
 10
53.0496428229
 20
68.6916564254
 30
0.0
  0
SPLINE
  5
39F
100
AcDbEntity
  8
0
100
AcDbSpline
 62
7
  6
BYLAYER
 70
0
 71
3
 72
12
 73
8
 74
0
 42
0.0000001
 43
0.0000001
 44
0.0000000001
 40
0.0
 40
0.0
 40
0.0
 40
0.0
 40
0.301041753
 40
0.4640909988
 40
0.577568552
 40
0.775023956
 40
1.0
 40
1.0
 40
1.0
 40
1.0
 10
54.9730050848
 20
67.9579757415
 30
0.0
 10
54.9737787538
 20
67.9578647175
 30
0.0
 10
54.9749460043
 20
67.9575677921
 30
0.0
 10
54.9764413966
 20
67.9573538917
 30
0.0
 10
54.9776739639
 20
67.9575070922
 30
0.0
 10
54.9790453569
 20
67.957170272
 30
0.0
 10
54.9801155049
 20
67.9569518397
 30
0.0
 10
54.9806935986
 20
67.956868254
 30
0.0
  0
LINE
  5
3A0
100
AcDbEntity
  8
0
100
AcDbLine
 62
7
  6
BYLAYER
 10
55.2890708571
 20
67.6484909956
 11
55.2901783445
 21
67.6408024818
  0
LINE
  5
3A1
100
AcDbEntity
  8
0
100
AcDbLine
 62
7
  6
BYLAYER
 10
55.82310755
 20
67.640390937
 11
55.8250143536
 21
67.6489113198
  0
SPLINE
  5
3A2
100
AcDbEntity
  8
0
100
AcDbSpline
 62
7
  6
BYLAYER
 70
0
 71
3
 72
9
 73
5
 74
0
 42
0.0000001
 43
0.0000001
 44
0.0000000001
 40
0.0
 40
0.0
 40
0.0
 40
0.0
 40
0.2542068433
 40
1.0
 40
1.0
 40
1.0
 40
1.0
 10
55.9131419225
 20
67.8678376596
 30
0.0
 10
55.9054656809
 20
67.8493719511
 30
0.0
 10
55.8755263253
 20
67.7766243539
 30
0.0
 10
55.8464412483
 20
67.7035279078
 30
0.0
 10
55.8250143536
 20
67.6489113198
 30
0.0
  0
SPLINE
  5
3A3
100
AcDbEntity
  8
0
100
AcDbSpline
 62
7
  6
BYLAYER
 70
0
 71
3
 72
9
 73
5
 74
0
 42
0.0000001
 43
0.0000001
 44
0.0000000001
 40
0.0
 40
0.0
 40
0.0
 40
0.0
 40
0.2460382598
 40
1.0
 40
1.0
 40
1.0
 40
1.0
 10
56.1320682624
 20
67.9559652285
 30
0.0
 10
56.1140502149
 20
67.9488964822
 30
0.0
 10
56.0408653614
 20
67.9200452809
 30
0.0
 10
55.9679099317
 20
67.8906048594
 30
0.0
 10
55.9131419225
 20
67.8678376596
 30
0.0
  0
LINE
  5
3A4
100
AcDbEntity
  8
0
100
AcDbLine
 62
7
  6
BYLAYER
 10
56.1405886451
 20
67.9578720322
 11
56.1320682624
 21
67.9559652285
  0
SPLINE
  5
3A5
100
AcDbEntity
  8
0
100
AcDbSpline
 62
7
  6
BYLAYER
 70
0
 71
3
 72
17
 73
13
 74
0
 42
0.0000001
 43
0.0000001
 44
0.0000000001
 40
0.0
 40
0.0
 40
0.0
 40
0.0
 40
0.0175753679
 40
0.0421130052
 40
0.0739913459
 40
0.1131814747
 40
0.2124512873
 40
0.3370542949
 40
0.4830348768
 40
0.6456926451
 40
0.8199649731
 40
1.0
 40
1.0
 40
1.0
 40
1.0
 10
58.3723770688
 20
67.7907455082
 30
0.0
 10
58.3711698919
 20
67.7893657867
 30
0.0
 10
58.367514049
 20
67.7867791378
 30
0.0
 10
58.3605012445
 20
67.7835583111
 30
0.0
 10
58.3510242238
 20
67.7803868908
 30
0.0
 10
58.3338156225
 20
67.775943961
 30
0.0
 10
58.3067766047
 20
67.7710825265
 30
0.0
 10
58.2684955022
 20
67.766248116
 30
0.0
 10
58.2234676026
 20
67.7622913533
 30
0.0
 10
58.1731764609
 20
67.7593443106
 30
0.0
 10
58.1192776433
 20
67.7575300321
 30
0.0
 10
58.0823187252
 20
67.7571205538
 30
0.0
 10
58.0635393623
 20
67.7571205538
 30
0.0
  0
SPLINE
  5
3A6
100
AcDbEntity
  8
0
100
AcDbSpline
 62
7
  6
BYLAYER
 70
0
 71
3
 72
17
 73
13
 74
0
 42
0.0000001
 43
0.0000001
 44
0.0000000001
 40
0.0
 40
0.0
 40
0.0
 40
0.0
 40
0.1800318635
 40
0.3542997836
 40
0.5169581248
 40
0.6629405863
 40
0.7875456577
 40
0.886817177
 40
0.9260080412
 40
0.9578867593
 40
0.9824245822
 40
1.0
 40
1.0
 40
1.0
 40
1.0
 10
53.0496428229
 20
67.7571205538
 30
0.0
 10
53.0308637902
 20
67.7571205538
 30
0.0
 10
52.9939056615
 20
67.757529974
 30
0.0
 10
52.9400075748
 20
67.7593442494
 30
0.0
 10
52.8897166337
 20
67.7622912113
 30
0.0
 10
52.8446882594
 20
67.7662479459
 30
0.0
 10
52.8064065627
 20
67.7710823613
 30
0.0
 10
52.7793670796
 20
67.7759438586
 30
0.0
 10
52.7621581824
 20
67.7803868198
 30
0.0
 10
52.7526810336
 20
67.7835582863
 30
0.0
 10
52.7456681672
 20
67.7867791278
 30
0.0
 10
52.7420122967
 20
67.7893657828
 30
0.0
 10
52.7408051164
 20
67.7907455082
 30
0.0
  0
SPLINE
  5
3A7
100
AcDbEntity
  8
0
100
AcDbSpline
 62
7
  6
BYLAYER
 70
0
 71
3
 72
13
 73
9
 74
0
 42
0.0000001
 43
0.0000001
 44
0.0000000001
 40
0.0
 40
0.0
 40
0.0
 40
0.0
 40
0.3040834018
 40
0.5864774407
 40
0.7127235784
 40
0.8253673602
 40
0.9218930726
 40
1.0
 40
1.0
 40
1.0
 40
1.0
 10
56.0238590284
 20
66.5269095417
 30
0.0
 10
56.0238590284
 20
66.5736037033
 30
0.0
 10
56.022439318
 20
66.6636666766
 30
0.0
 10
56.0170199753
 20
66.7730077841
 30
0.0
 10
56.0103024486
 20
66.8527793646
 30
0.0
 10
56.0045441815
 20
66.903972493
 30
0.0
 10
55.9979914338
 20
66.947604645
 30
0.0
 10
55.992636545
 20
66.9739091317
 30
0.0
 10
55.9896678988
 20
66.9855298077
 30
0.0
  0
SPLINE
  5
3A8
100
AcDbEntity
  8
0
100
AcDbSpline
 62
7
  6
BYLAYER
 70
0
 71
3
 72
13
 73
9
 74
0
 42
0.0000001
 43
0.0000001
 44
0.0000000001
 40
0.0
 40
0.0
 40
0.0
 40
0.0
 40
0.0780896679
 40
0.1745486835
 40
0.2871301149
 40
0.4133513732
 40
0.6957897275
 40
1.0
 40
1.0
 40
1.0
 40
1.0
 10
55.1235847332
 20
66.9858932183
 30
0.0
 10
55.1206143572
 20
66.9742657712
 30
0.0
 10
55.1152503268
 20
66.947954536
 30
0.0
 10
55.1086822461
 20
66.9043114486
 30
0.0
 10
55.1029105211
 20
66.8531019464
 30
0.0
 10
55.0961775525
 20
66.7732736532
 30
0.0
 10
55.090746202
 20
66.6638224178
 30
0.0
 10
55.0893231568
 20
66.5736607344
 30
0.0
 10
55.0893231568
 20
66.5269095417
 30
0.0
  0
SPLINE
  5
3A9
100
AcDbEntity
  8
0
100
AcDbSpline
 62
7
  6
BYLAYER
 70
0
 71
3
 72
9
 73
5
 74
0
 42
0.0000001
 43
0.0000001
 44
0.0000000001
 40
0.0
 40
0.0
 40
0.0
 40
0.0
 40
0.5009120891
 40
1.0
 40
1.0
 40
1.0
 40
1.0
 10
43.2099030241
 20
7.1243884896
 30
0.0
 10
42.7725598019
 20
7.0078649112
 30
0.0
 10
41.8914372985
 20
6.8039821054
 30
0.0
 10
40.9964871921
 20
6.670640773
 30
0.0
 10
40.5479135701
 20
6.6243884896
 30
0.0
  0
SPLINE
  5
3AA
100
AcDbEntity
  8
0
100
AcDbSpline
 62
7
  6
BYLAYER
 70
0
 71
3
 72
9
 73
5
 74
0
 42
0.0000001
 43
0.0000001
 44
0.0000000001
 40
0.0
 40
0.0
 40
0.0
 40
0.0
 40
0.4990878688
 40
1.0
 40
1.0
 40
1.0
 40
1.0
 10
37.5652686151
 20
6.6243884896
 30
0.0
 10
37.1166950295
 20
6.6706407693
 30
0.0
 10
36.2217448829
 20
6.8039818777
 30
0.0
 10
35.3406224215
 20
7.007864901
 30
0.0
 10
34.9032791611
 20
7.1243884896
 30
0.0
  0
SPLINE
  5
3AB
100
AcDbEntity
  8
0
100
AcDbSpline
 62
7
  6
BYLAYER
 70
0
 71
3
 72
9
 73
5
 74
0
 42
0.0000001
 43
0.0000001
 44
0.0000000001
 40
0.0
 40
0.0
 40
0.0
 40
0.0
 40
0.5009120891
 40
1.0
 40
1.0
 40
1.0
 40
1.0
 10
32.2099030241
 20
7.1243884896
 30
0.0
 10
31.7725598019
 20
7.0078649112
 30
0.0
 10
30.8914372985
 20
6.8039821054
 30
0.0
 10
29.9964871921
 20
6.670640773
 30
0.0
 10
29.5479135701
 20
6.6243884896
 30
0.0
  0
SPLINE
  5
3AC
100
AcDbEntity
  8
0
100
AcDbSpline
 62
7
  6
BYLAYER
 70
0
 71
3
 72
9
 73
5
 74
0
 42
0.0000001
 43
0.0000001
 44
0.0000000001
 40
0.0
 40
0.0
 40
0.0
 40
0.0
 40
0.4990878688
 40
1.0
 40
1.0
 40
1.0
 40
1.0
 10
26.5652686151
 20
6.6243884896
 30
0.0
 10
26.1166950295
 20
6.6706407693
 30
0.0
 10
25.2217448829
 20
6.8039818777
 30
0.0
 10
24.3406224215
 20
7.007864901
 30
0.0
 10
23.9032791611
 20
7.1243884896
 30
0.0
  0
SPLINE
  5
3AD
100
AcDbEntity
  8
0
100
AcDbSpline
 62
7
  6
BYLAYER
 70
0
 71
3
 72
16
 73
12
 74
0
 42
0.0000001
 43
0.0000001
 44
0.0000000001
 40
0.0
 40
0.0
 40
0.0
 40
0.0
 40
0.3747131877
 40
0.54587869
 40
0.6934212758
 40
0.8154815857
 40
0.8664032936
 40
0.9094326699
 40
0.9440514951
 40
0.9701574403
 40
1.0
 40
1.0
 40
1.0
 40
1.0
 10
20.5565910926
 20
78.2864058569
 30
0.0
 10
20.4927911228
 20
78.2864058569
 30
0.0
 10
20.3998165864
 20
78.2843059342
 30
0.0
 10
20.2819854048
 20
78.2766838827
 30
0.0
 10
20.207282825
 20
78.2692684582
 30
0.0
 10
20.1532519605
 20
78.2615007342
 30
0.0
 10
20.1171593575
 20
78.2541722411
 30
0.0
 10
20.0960166657
 20
78.2488059332
 30
0.0
 10
20.0790321521
 20
78.2430248497
 30
0.0
 10
20.0656224435
 20
78.2369206356
 30
0.0
 10
20.0565910958
 20
78.2294695875
 30
0.0
 10
20.0565910926
 20
78.2243884896
 30
0.0
  0
SPLINE
  5
3AE
100
AcDbEntity
  8
0
100
AcDbSpline
 62
7
  6
BYLAYER
 70
0
 71
3
 72
17
 73
13
 74
0
 42
0.0000001
 43
0.0000001
 44
0.0000000001
 40
0.0
 40
0.0
 40
0.0
 40
0.0
 40
0.3093184433
 40
0.4609115458
 40
0.6069021328
 40
0.7430114121
 40
0.805336055
 40
0.862290002
 40
0.9122362887
 40
0.9529554513
 40
0.9825482134
 40
1.0
 40
1.0
 40
1.0
 40
1.0
 10
20.5442719882
 20
77.8864058569
 30
0.0
 10
20.4842805053
 20
77.8316826041
 30
0.0
 10
20.3969731245
 20
77.7478850807
 30
0.0
 10
20.2813155739
 20
77.638313858
 30
0.0
 10
20.1993872163
 20
77.5592554479
 30
0.0
 10
20.1349863073
 20
77.4957833092
 30
0.0
 10
20.0878985856
 20
77.4480627533
 30
0.0
 10
20.0571334904
 20
77.4159993457
 30
0.0
 10
20.0309598191
 20
77.387453934
 30
0.0
 10
20.0103923412
 20
77.3633869759
 30
0.0
 10
19.9970393474
 20
77.3447618685
 30
0.0
 10
19.990604883
 20
77.3339222123
 30
0.0
 10
19.9894775488
 20
77.3294817045
 30
0.0
  0
SPLINE
  5
3AF
100
AcDbEntity
  8
0
100
AcDbSpline
 62
7
  6
BYLAYER
 70
0
 71
3
 72
18
 73
14
 74
0
 42
0.0000001
 43
0.0000001
 44
0.0000000001
 40
0.0
 40
0.0
 40
0.0
 40
0.0
 40
0.3092929838
 40
0.4608836901
 40
0.60686948
 40
0.7429378197
 40
0.8052345334
 40
0.8621875946
 40
0.9121597004
 40
0.9529224945
 40
0.9825476868
 40
0.9928322929
 40
1.0
 40
1.0
 40
1.0
 40
1.0
 10
46.5689101495
 20
77.8864058569
 30
0.0
 10
46.6290116826
 20
77.8318053553
 30
0.0
 10
46.716424754
 20
77.7481143919
 30
0.0
 10
46.8320595283
 20
77.6385171128
 30
0.0
 10
46.9139029136
 20
77.5593760336
 30
0.0
 10
46.9781952421
 20
77.4958164586
 30
0.0
 10
47.0252150539
 20
77.4480419482
 30
0.0
 10
47.0559539403
 20
77.4159674622
 30
0.0
 10
47.0822259758
 20
77.3874364415
 30
0.0
 10
47.1027143904
 20
77.3633879495
 30
0.0
 10
47.1153403067
 20
77.3462985227
 30
0.0
 10
47.121472069
 20
77.335573632
 30
0.0
 10
47.1232797836
 20
77.3313149282
 30
0.0
 10
47.1237046216
 20
77.3294817482
 30
0.0
  0
SPLINE
  5
3B0
100
AcDbEntity
  8
0
100
AcDbSpline
 62
7
  6
BYLAYER
 70
0
 71
3
 72
16
 73
12
 74
0
 42
0.0000001
 43
0.0000001
 44
0.0000000001
 40
0.0
 40
0.0
 40
0.0
 40
0.0
 40
0.0298425375
 40
0.0559484648
 40
0.090567275
 40
0.1335966436
 40
0.1845183561
 40
0.3065787248
 40
0.4541212816
 40
0.6252867693
 40
1.0
 40
1.0
 40
1.0
 40
1.0
 10
47.0565910926
 20
78.2243884896
 30
0.0
 10
47.0565910915
 20
78.2294695837
 30
0.0
 10
47.0475597511
 20
78.2369206289
 30
0.0
 10
47.0341500524
 20
78.2430248422
 30
0.0
 10
47.0171655458
 20
78.2488059255
 30
0.0
 10
46.9960228575
 20
78.2541722344
 30
0.0
 10
46.9599302455
 20
78.2615007312
 30
0.0
 10
46.9058993752
 20
78.2692684565
 30
0.0
 10
46.8311967927
 20
78.2766838816
 30
0.0
 10
46.7133656111
 20
78.2843059338
 30
0.0
 10
46.6203910698
 20
78.2864058569
 30
0.0
 10
46.5565910926
 20
78.2864058569
 30
0.0
  0
SPLINE
  5
3B1
100
AcDbEntity
  8
0
100
AcDbSpline
 62
7
  6
BYLAYER
 70
0
 71
3
 72
9
 73
5
 74
0
 42
0.0000001
 43
0.0000001
 44
0.0000000001
 40
0.0
 40
0.0
 40
0.0
 40
0.0
 40
0.500092938
 40
1.0
 40
1.0
 40
1.0
 40
1.0
 10
46.5689101372
 20
77.8864058569
 30
0.0
 10
46.564623035
 20
77.9529930257
 30
0.0
 10
46.5569111768
 20
78.0862300422
 30
0.0
 10
46.5559546942
 20
78.2197086585
 30
0.0
 10
46.5565910925
 20
78.2864058569
 30
0.0
  0
SPLINE
  5
3B2
100
AcDbEntity
  8
0
100
AcDbSpline
 62
7
  6
BYLAYER
 70
0
 71
3
 72
9
 73
5
 74
0
 42
0.0000001
 43
0.0000001
 44
0.0000000001
 40
0.0
 40
0.0
 40
0.0
 40
0.0
 40
0.4998244122
 40
1.0
 40
1.0
 40
1.0
 40
1.0
 10
20.5565910928
 20
78.2864058569
 30
0.0
 10
20.5572270285
 20
78.2197284174
 30
0.0
 10
20.5536915331
 20
78.0863069884
 30
0.0
 10
20.5475042856
 20
77.9530548463
 30
0.0
 10
20.544272003
 20
77.8864058569
 30
0.0
  0
SPLINE
  5
3B3
100
AcDbEntity
  8
0
100
AcDbSpline
 62
7
  6
BYLAYER
 70
0
 71
3
 72
19
 73
15
 74
0
 42
0.0000001
 43
0.0000001
 44
0.0000000001
 40
0.0
 40
0.0
 40
0.0
 40
0.0
 40
0.1660294664
 40
0.3284737803
 40
0.48457617
 40
0.6310871206
 40
0.7636432024
 40
0.8227434874
 40
0.8757356879
 40
0.9212434409
 40
0.9579006775
 40
0.9844304144
 40
0.9935917621
 40
1.0
 40
1.0
 40
1.0
 40
1.0
 10
20.5565910926
 20
84.8864058569
 30
0.0
 10
20.5305168267
 20
84.9122787741
 30
0.0
 10
20.4786799311
 20
84.9632134017
 30
0.0
 10
20.4014385523
 20
85.0375620527
 30
0.0
 10
20.3265078362
 20
85.1080762858
 30
0.0
 10
20.255475897
 20
85.1730717734
 30
0.0
 10
20.1993711931
 20
85.2225772591
 30
0.0
 10
20.1580115153
 20
85.2574976398
 30
0.0
 10
20.1309472013
 20
85.2794798249
 30
0.0
 10
20.1072393479
 20
85.2977283175
 30
0.0
 10
20.0875735619
 20
85.3115417883
 30
0.0
 10
20.0738333808
 20
85.319894766
 30
0.0
 10
20.0652782498
 20
85.3235530167
 30
0.0
 10
20.0618699175
 20
85.3243884896
 30
0.0
 10
20.0604521542
 20
85.3243884896
 30
0.0
  0
SPLINE
  5
3B4
100
AcDbEntity
  8
0
100
AcDbSpline
 62
7
  6
BYLAYER
 70
0
 71
3
 72
19
 73
15
 74
0
 42
0.0000001
 43
0.0000001
 44
0.0000000001
 40
0.0
 40
0.0
 40
0.0
 40
0.0
 40
0.1660296565
 40
0.3284740713
 40
0.4845774815
 40
0.6310898963
 40
0.7636465363
 40
0.8227466585
 40
0.8757384265
 40
0.9212455188
 40
0.9579019577
 40
0.9844308962
 40
0.9935919205
 40
1.0
 40
1.0
 40
1.0
 40
1.0
 10
46.5565910926
 20
84.8864058569
 30
0.0
 10
46.5826653322
 20
84.912278748
 30
0.0
 10
46.6344959513
 20
84.9632195663
 30
0.0
 10
46.7117290999
 20
85.037576968
 30
0.0
 10
46.7866718704
 20
85.1080790328
 30
0.0
 10
46.8577167368
 20
85.1730609991
 30
0.0
 10
46.9138225333
 20
85.2225654826
 30
0.0
 10
46.9551801677
 20
85.2574880761
 30
0.0
 10
46.982242091
 20
85.2794726271
 30
0.0
 10
47.0059473081
 20
85.2977237473
 30
0.0
 10
47.0256108083
 20
85.3115394972
 30
0.0
 10
47.0393495906
 20
85.3198939383
 30
0.0
 10
47.0479040989
 20
85.3235528742
 30
0.0
 10
47.0513123058
 20
85.3243884896
 30
0.0
 10
47.052730031
 20
85.3243884896
 30
0.0
  0
SPLINE
  5
3B5
100
AcDbEntity
  8
0
100
AcDbSpline
 62
7
  6
BYLAYER
 70
0
 71
3
 72
18
 73
14
 74
0
 42
0.0000001
 43
0.0000001
 44
0.0000000001
 40
0.0
 40
0.0
 40
0.0
 40
0.0
 40
0.1249624511
 40
0.2499340684
 40
0.3748831962
 40
0.4998305901
 40
0.6247635638
 40
0.6872661915
 40
0.7497694697
 40
0.812302953
 40
0.8748813659
 40
0.9374462534
 40
1.0
 40
1.0
 40
1.0
 40
1.0
 10
41.2418041671
 20
23.7243884896
 30
0.0
 10
41.1392079881
 20
23.7243884896
 30
0.0
 10
40.9339082982
 20
23.7152371078
 30
0.0
 10
40.6283355536
 20
23.6757365643
 30
0.0
 10
40.3270857126
 20
23.6108379398
 30
0.0
 10
40.0328113663
 20
23.5193895122
 30
0.0
 10
39.7964438374
 20
23.4180997762
 30
0.0
 10
39.6169631968
 20
23.3182495174
 30
0.0
 10
39.4891092238
 20
23.2320242949
 30
0.0
 10
39.371276865
 20
23.1322166489
 30
0.0
 10
39.269178018
 20
23.0157201926
 30
0.0
 10
39.1943052253
 20
22.8791290958
 30
0.0
 10
39.1746423562
 20
22.77574612
 30
0.0
 10
39.1746423562
 20
22.7243884896
 30
0.0
  0
SPLINE
  5
3B6
100
AcDbEntity
  8
0
100
AcDbSpline
 62
7
  6
BYLAYER
 70
0
 71
3
 72
18
 73
14
 74
0
 42
0.0000001
 43
0.0000001
 44
0.0000000001
 40
0.0
 40
0.0
 40
0.0
 40
0.0
 40
0.1858447319
 40
0.3647500737
 40
0.5293739687
 40
0.6740852092
 40
0.7944399494
 40
0.8445091669
 40
0.8876491696
 40
0.9239477027
 40
0.9538632107
 40
0.9785153022
 40
1.0
 40
1.0
 40
1.0
 40
1.0
 10
39.1746423562
 20
14.3243884896
 30
0.0
 10
39.1746423562
 20
14.2585867957
 30
0.0
 10
39.1718082414
 20
14.1294210421
 30
0.0
 10
39.1592932001
 20
13.9423419308
 30
0.0
 10
39.1390199759
 20
13.7705637114
 30
0.0
 10
39.1118148944
 20
13.620783062
 30
0.0
 10
39.0830394734
 20
13.512729566
 30
0.0
 10
39.0563074604
 20
13.4419244839
 30
0.0
 10
39.0364952701
 20
13.4004917363
 30
0.0
 10
39.0158063584
 20
13.3676199066
 30
0.0
 10
38.9942213686
 20
13.3434805894
 30
0.0
 10
38.9716062262
 20
13.3281509752
 30
0.0
 10
38.9551628022
 20
13.3243884896
 30
0.0
 10
38.9475557558
 20
13.3243884896
 30
0.0
  0
SPLINE
  5
3B7
100
AcDbEntity
  8
0
100
AcDbSpline
 62
7
  6
BYLAYER
 70
0
 71
3
 72
18
 73
14
 74
0
 42
0.0000001
 43
0.0000001
 44
0.0000000001
 40
0.0
 40
0.0
 40
0.0
 40
0.0
 40
0.185845062
 40
0.3647504791
 40
0.5293753627
 40
0.6740873144
 40
0.794439982
 40
0.8445070537
 40
0.8876448635
 40
0.9239423301
 40
0.9538589537
 40
0.9785136261
 40
1.0
 40
1.0
 40
1.0
 40
1.0
 10
27.938539829
 20
14.3243884896
 30
0.0
 10
27.938539829
 20
14.2585868377
 30
0.0
 10
27.9413695548
 20
14.1294211677
 30
0.0
 10
27.953893361
 20
13.9423421547
 30
0.0
 10
27.9741919606
 20
13.7705668078
 30
0.0
 10
28.0013966656
 20
13.6207872429
 30
0.0
 10
28.0301571453
 20
13.5127316795
 30
0.0
 10
28.0568768191
 20
13.4419245592
 30
0.0
 10
28.0766822286
 20
13.4004907546
 30
0.0
 10
28.0973686338
 20
13.367618117
 30
0.0
 10
28.118955859
 20
13.3434793073
 30
0.0
 10
28.1415740368
 20
13.3281510357
 30
0.0
 10
28.1580188079
 20
13.3243884896
 30
0.0
 10
28.1656264294
 20
13.3243884896
 30
0.0
  0
SPLINE
  5
3B8
100
AcDbEntity
  8
0
100
AcDbSpline
 62
7
  6
BYLAYER
 70
0
 71
3
 72
18
 73
14
 74
0
 42
0.0000001
 43
0.0000001
 44
0.0000000001
 40
0.0
 40
0.0
 40
0.0
 40
0.0
 40
0.0625535657
 40
0.1251182152
 40
0.1876963762
 40
0.2502298842
 40
0.3127331909
 40
0.3752358418
 40
0.5001689205
 40
0.6251164348
 40
0.7500656732
 40
0.8750374372
 40
1.0
 40
1.0
 40
1.0
 40
1.0
 10
27.938539829
 20
22.7243884896
 30
0.0
 10
27.938539829
 20
22.7757459752
 30
0.0
 10
27.9188780737
 20
22.8791289171
 30
0.0
 10
27.8440040192
 20
23.0157187444
 30
0.0
 10
27.7419069049
 20
23.1322160286
 30
0.0
 10
27.6240745343
 20
23.2320236053
 30
0.0
 10
27.4962204241
 20
23.3182486964
 30
0.0
 10
27.3167397376
 20
23.4180991816
 30
0.0
 10
27.0803719747
 20
23.519388935
 30
0.0
 10
26.7860974477
 20
23.6108377703
 30
0.0
 10
26.4848472784
 20
23.6757364954
 30
0.0
 10
26.1792742141
 20
23.7152370942
 30
0.0
 10
25.9739742963
 20
23.7243884896
 30
0.0
 10
25.8713780181
 20
23.7243884896
 30
0.0
  0
ELLIPSE
  5
3B9
100
AcDbEntity
  8
0
100
AcDbEllipse
 62
7
  6
BYLAYER
 10
21.5565910926
 20
22.1535573246
 30
0.0
 11
-0.0
 21
6.4148596508
 31
0.0
 40
0.7016335375
 41
0.6759103609
 42
0.6933490094
  0
ELLIPSE
  5
3BA
100
AcDbEntity
  8
0
100
AcDbEllipse
 62
7
  6
BYLAYER
 10
21.5565910926
 20
31.2952196546
 30
0.0
 11
-0.0
 21
6.4148596508
 31
0.0
 40
0.7016335375
 41
-2.4656822927
 42
-2.4482436442
  0
ELLIPSE
  5
3BB
100
AcDbEntity
  8
0
100
AcDbEllipse
 62
7
  6
BYLAYER
 10
21.5565910926
 20
31.2952196546
 30
0.0
 11
0.0
 21
6.4148596508
 31
0.0
 40
0.7016335375
 41
-3.834941663
 42
-3.8175030145
  0
ELLIPSE
  5
3BC
100
AcDbEntity
  8
0
100
AcDbEllipse
 62
7
  6
BYLAYER
 10
21.5565910926
 20
22.1535573246
 30
0.0
 11
0.0
 21
6.4148596508
 31
0.0
 40
0.7016335375
 41
-0.6933490094
 42
-0.6759103609
  0
ELLIPSE
  5
3BD
100
AcDbEntity
  8
0
100
AcDbEllipse
 62
7
  6
BYLAYER
 10
45.5565910926
 20
22.1535573246
 30
0.0
 11
-0.0
 21
6.4148596508
 31
0.0
 40
0.7016335375
 41
0.6759103609
 42
0.6933490094
  0
ELLIPSE
  5
3BE
100
AcDbEntity
  8
0
100
AcDbEllipse
 62
7
  6
BYLAYER
 10
45.5565910926
 20
31.2952196546
 30
0.0
 11
-0.0
 21
6.4148596508
 31
0.0
 40
0.7016335375
 41
-2.4656822927
 42
-2.4482436442
  0
ELLIPSE
  5
3BF
100
AcDbEntity
  8
0
100
AcDbEllipse
 62
7
  6
BYLAYER
 10
45.5565910926
 20
31.2952196546
 30
0.0
 11
0.0
 21
6.4148596508
 31
0.0
 40
0.7016335375
 41
-3.834941663
 42
-3.8175030145
  0
ELLIPSE
  5
3C0
100
AcDbEntity
  8
0
100
AcDbEllipse
 62
7
  6
BYLAYER
 10
45.5565910926
 20
22.1535573246
 30
0.0
 11
0.0
 21
6.4148596508
 31
0.0
 40
0.7016335375
 41
-0.6933490094
 42
-0.6759103609
  0
ELLIPSE
  5
3C1
100
AcDbEntity
  8
0
100
AcDbEllipse
 62
7
  6
BYLAYER
 10
11.5565910926
 20
63.6535573246
 30
0.0
 11
0.0
 21
6.4148596508
 31
0.0
 40
0.7016335375
 41
0.6759103609
 42
0.6933490094
  0
ELLIPSE
  5
3C2
100
AcDbEntity
  8
0
100
AcDbEllipse
 62
7
  6
BYLAYER
 10
11.5565910926
 20
72.7952196546
 30
0.0
 11
0.0
 21
6.4148596508
 31
0.0
 40
0.7016335375
 41
-2.4656822927
 42
-2.4482436442
  0
ELLIPSE
  5
3C3
100
AcDbEntity
  8
0
100
AcDbEllipse
 62
7
  6
BYLAYER
 10
11.5565910926
 20
72.7952196546
 30
0.0
 11
-0.0
 21
6.4148596508
 31
0.0
 40
0.7016335375
 41
-3.834941663
 42
-3.8175030145
  0
ELLIPSE
  5
3C4
100
AcDbEntity
  8
0
100
AcDbEllipse
 62
7
  6
BYLAYER
 10
11.5565910926
 20
63.6535573246
 30
0.0
 11
0.0
 21
6.4148596508
 31
0.0
 40
0.7016335375
 41
-0.6933490094
 42
-0.6759103609
  0
ELLIPSE
  5
3C5
100
AcDbEntity
  8
0
100
AcDbEllipse
 62
7
  6
BYLAYER
 10
55.5565910926
 20
63.6535573246
 30
0.0
 11
0.0
 21
6.4148596508
 31
0.0
 40
0.7016335375
 41
0.6759103609
 42
0.6933490094
  0
ELLIPSE
  5
3C6
100
AcDbEntity
  8
0
100
AcDbEllipse
 62
7
  6
BYLAYER
 10
55.5565910926
 20
72.7952196546
 30
0.0
 11
0.0
 21
6.4148596508
 31
0.0
 40
0.7016335375
 41
-2.4656822927
 42
-2.4482436442
  0
ELLIPSE
  5
3C7
100
AcDbEntity
  8
0
100
AcDbEllipse
 62
7
  6
BYLAYER
 10
55.5565910926
 20
72.7952196546
 30
0.0
 11
0.0
 21
6.4148596508
 31
0.0
 40
0.7016335375
 41
-3.834941663
 42
-3.8175030145
  0
ELLIPSE
  5
3C8
100
AcDbEntity
  8
0
100
AcDbEllipse
 62
7
  6
BYLAYER
 10
55.5565910926
 20
63.6535573246
 30
0.0
 11
-0.0
 21
6.4148596508
 31
0.0
 40
0.7016335375
 41
-0.6933490094
 42
-0.6759103609
  0
ENDSEC
  0
SECTION
  2
OBJECTS
  0
DICTIONARY
  5
C
100
AcDbDictionary
280
0
281
1
  3
ACAD_GROUP
350
D
  3
ACAD_MLINESTYLE
350
17
  3
ACAD_LAYOUT
350
1A
  3
ACAD_PLOTSETTINGS
350
19
  3
ACAD_PLOTSTYLENAME
350
E
  0
DICTIONARY
  5
D
102
{ACAD_REACTORS
330
C
102
}
100
AcDbDictionary
280
0
281
1
  0
ACDBDICTIONARYWDFLT
  5
E
102
{ACAD_REACTORS
330
C
102
}
100
AcDbDictionary
281
1
  3
Normal
350
F
100
AcDbDictionaryWithDefault
340
F
  0
DICTIONARY
  5
17
102
{ACAD_REACTORS
330
C
102
}
100
AcDbDictionary
280
0
281
1
  3
Standard
350
18
  0
DICTIONARY
  5
19
102
{ACAD_REACTORS
330
C
102
}
100
AcDbDictionary
281
1
  0
DICTIONARY
  5
1A
102
{ACAD_REACTORS
330
C
102
}
100
AcDbDictionary
281
1
  3
Model
350
3C9
  3
Layout1
350
3CA
  0
ACDBPLACEHOLDER
  5
F
102
{ACAD_REACTORS
330
E
102
}
  0
MLINESTYLE
  5
18
102
{ACAD_REACTORS
330
17
102
}
100
AcDbMlineStyle
  2
STANDARD
 70
0
  3

 62
256
 51
90.0
 52
90.0
 71
2
 49
0.5
 62
256
  6
BYLAYER
 49
-0.5
 62
256
  6
BYLAYER
  0
LAYOUT
  5
3C9
102
{ACAD_REACTORS
330
1A
102
}
100
AcDbPlotSettings
  1

  2
none_device
  4

  6

 40
0.0
 41
0.0
 42
0.0
 43
0.0
 44
210.0
 45
297.0
 46
0.0
 47
0.0
 48
0.0
 49
0.0
140
0.0
141
0.0
142
1.0
143
1.0
 70
1024
 72
1
 73
0
 74
0
  7

 75
0
147
1.0
148
0.0
149
0.0
100
AcDbLayout
  1
Model
 70
0
 71
0
 10
0.0
 20
0.0
 11
210.0
 21
297.0
 12
0.0
 22
0.0
 32
0.0
 14
0.0
 24
0.0
 34
0.0
 15
0.0
 25
0.0
 35
0.0
146
0.0
 13
0.0
 23
0.0
 33
0.0
 16
1.0
 26
0.0
 36
0.0
 17
0.0
 27
1.0
 37
0.0
 76
0
330
210
345
0
346
0
  0
LAYOUT
  5
3CA
102
{ACAD_REACTORS
330
1A
102
}
100
AcDbPlotSettings
  1

  2
none_device
  4

  6

 40
0.0
 41
0.0
 42
0.0
 43
0.0
 44
210.0
 45
297.0
 46
0.0
 47
0.0
 48
0.0
 49
0.0
140
0.0
141
0.0
142
1.0
143
1.0
 70
0
 72
1
 73
0
 74
0
  7

 75
0
147
1.0
148
0.0
149
0.0
100
AcDbLayout
  1
Layout1
 70
0
 71
1
 10
0.0
 20
0.0
 11
210.0
 21
297.0
 12
0.0
 22
0.0
 32
0.0
 14
0.0
 24
0.0
 34
0.0
 15
0.0
 25
0.0
 35
0.0
146
0.0
 13
0.0
 23
0.0
 33
0.0
 16
1.0
 26
0.0
 36
0.0
 17
0.0
 27
1.0
 37
0.0
 76
0
330
211
345
0
346
0
  0
ENDSEC
  0
EOF
